  0
SECTION
  2
HEADER
  9
$ACADVER
  1
AC1027
  9
$ACADMAINTVER
 70
   105
  9
$DWGCODEPAGE
  3
ANSI_1252
  9
$LASTSAVEDBY
  1
Office Desk
  9
$REQUIREDVERSIONS
160
                 0
  9
$INSBASE
 10
0.0
 20
0.0
 30
0.0
  9
$EXTMIN
 10
-13.06408661417323
 20
-5.672602362204724
 30
0.0
  9
$EXTMAX
 10
-5.652803149606299
 20
0.897259842519685
 30
0.0
  9
$LIMMIN
 10
0.0
 20
0.0
  9
$LIMMAX
 10
12.0
 20
9.0
  9
$ORTHOMODE
 70
     0
  9
$REGENMODE
 70
     1
  9
$FILLMODE
 70
     1
  9
$QTEXTMODE
 70
     0
  9
$MIRRTEXT
 70
     1
  9
$LTSCALE
 40
1.0
  9
$ATTMODE
 70
     1
  9
$TEXTSIZE
 40
0.2
  9
$TRACEWID
 40
0.05
  9
$TEXTSTYLE
  7
Standard
  9
$CLAYER
  8
0
  9
$CELTYPE
  6
ByLayer
  9
$CECOLOR
 62
   256
  9
$CELTSCALE
 40
1.0
  9
$DISPSILH
 70
     0
  9
$DIMSCALE
 40
1.0
  9
$DIMASZ
 40
0.18
  9
$DIMEXO
 40
0.0625
  9
$DIMDLI
 40
0.38
  9
$DIMRND
 40
0.0
  9
$DIMDLE
 40
0.0
  9
$DIMEXE
 40
0.18
  9
$DIMTP
 40
0.0
  9
$DIMTM
 40
0.0
  9
$DIMTXT
 40
0.18
  9
$DIMCEN
 40
0.09
  9
$DIMTSZ
 40
0.0
  9
$DIMTOL
 70
     0
  9
$DIMLIM
 70
     0
  9
$DIMTIH
 70
     1
  9
$DIMTOH
 70
     1
  9
$DIMSE1
 70
     0
  9
$DIMSE2
 70
     0
  9
$DIMTAD
 70
     0
  9
$DIMZIN
 70
     0
  9
$DIMBLK
  1

  9
$DIMASO
 70
     1
  9
$DIMSHO
 70
     1
  9
$DIMPOST
  1

  9
$DIMAPOST
  1

  9
$DIMALT
 70
     0
  9
$DIMALTD
 70
     2
  9
$DIMALTF
 40
25.4
  9
$DIMLFAC
 40
1.0
  9
$DIMTOFL
 70
     0
  9
$DIMTVP
 40
0.0
  9
$DIMTIX
 70
     0
  9
$DIMSOXD
 70
     0
  9
$DIMSAH
 70
     0
  9
$DIMBLK1
  1

  9
$DIMBLK2
  1

  9
$DIMSTYLE
  2
Standard
  9
$DIMCLRD
 70
     0
  9
$DIMCLRE
 70
     0
  9
$DIMCLRT
 70
     0
  9
$DIMTFAC
 40
1.0
  9
$DIMGAP
 40
0.09
  9
$DIMJUST
 70
     0
  9
$DIMSD1
 70
     0
  9
$DIMSD2
 70
     0
  9
$DIMTOLJ
 70
     1
  9
$DIMTZIN
 70
     0
  9
$DIMALTZ
 70
     0
  9
$DIMALTTZ
 70
     0
  9
$DIMUPT
 70
     0
  9
$DIMDEC
 70
     4
  9
$DIMTDEC
 70
     4
  9
$DIMALTU
 70
     2
  9
$DIMALTTD
 70
     2
  9
$DIMTXSTY
  7
Standard
  9
$DIMAUNIT
 70
     0
  9
$DIMADEC
 70
     0
  9
$DIMALTRND
 40
0.0
  9
$DIMAZIN
 70
     0
  9
$DIMDSEP
 70
    46
  9
$DIMATFIT
 70
     3
  9
$DIMFRAC
 70
     0
  9
$DIMLDRBLK
  1

  9
$DIMLUNIT
 70
     2
  9
$DIMLWD
 70
    -2
  9
$DIMLWE
 70
    -2
  9
$DIMTMOVE
 70
     0
  9
$DIMFXL
 40
1.0
  9
$DIMFXLON
 70
     0
  9
$DIMJOGANG
 40
0.7853981633974483
  9
$DIMTFILL
 70
     0
  9
$DIMTFILLCLR
 70
     0
  9
$DIMARCSYM
 70
     0
  9
$DIMLTYPE
  6

  9
$DIMLTEX1
  6

  9
$DIMLTEX2
  6

  9
$DIMTXTDIRECTION
 70
     0
  9
$LUNITS
 70
     2
  9
$LUPREC
 70
     4
  9
$SKETCHINC
 40
0.1
  9
$FILLETRAD
 40
0.0
  9
$AUNITS
 70
     0
  9
$AUPREC
 70
     0
  9
$MENU
  1
.
  9
$ELEVATION
 40
0.0
  9
$PELEVATION
 40
0.0
  9
$THICKNESS
 40
0.0
  9
$LIMCHECK
 70
     0
  9
$CHAMFERA
 40
0.0
  9
$CHAMFERB
 40
0.0
  9
$CHAMFERC
 40
0.0
  9
$CHAMFERD
 40
0.0
  9
$SKPOLY
 70
     0
  9
$TDCREATE
 40
2461020.678255023
  9
$TDUCREATE
 40
2461020.449088357
  9
$TDUPDATE
 40
2461020.678255035
  9
$TDUUPDATE
 40
2461020.449088368
  9
$TDINDWG
 40
0.0000000116
  9
$TDUSRTIMER
 40
0.0000000116
  9
$USRTIMER
 70
     1
  9
$ANGBASE
 50
0.0
  9
$ANGDIR
 70
     0
  9
$PDMODE
 70
     0
  9
$PDSIZE
 40
0.0
  9
$PLINEWID
 40
0.0
  9
$SPLFRAME
 70
     0
  9
$SPLINETYPE
 70
     6
  9
$SPLINESEGS
 70
     8
  9
$HANDSEED
  5
93
  9
$SURFTAB1
 70
     6
  9
$SURFTAB2
 70
     6
  9
$SURFTYPE
 70
     6
  9
$SURFU
 70
     6
  9
$SURFV
 70
     6
  9
$UCSBASE
  2

  9
$UCSNAME
  2

  9
$UCSORG
 10
0.0
 20
0.0
 30
0.0
  9
$UCSXDIR
 10
1.0
 20
0.0
 30
0.0
  9
$UCSYDIR
 10
0.0
 20
1.0
 30
0.0
  9
$UCSORTHOREF
  2

  9
$UCSORTHOVIEW
 70
     0
  9
$UCSORGTOP
 10
0.0
 20
0.0
 30
0.0
  9
$UCSORGBOTTOM
 10
0.0
 20
0.0
 30
0.0
  9
$UCSORGLEFT
 10
0.0
 20
0.0
 30
0.0
  9
$UCSORGRIGHT
 10
0.0
 20
0.0
 30
0.0
  9
$UCSORGFRONT
 10
0.0
 20
0.0
 30
0.0
  9
$UCSORGBACK
 10
0.0
 20
0.0
 30
0.0
  9
$PUCSBASE
  2

  9
$PUCSNAME
  2

  9
$PUCSORG
 10
0.0
 20
0.0
 30
0.0
  9
$PUCSXDIR
 10
1.0
 20
0.0
 30
0.0
  9
$PUCSYDIR
 10
0.0
 20
1.0
 30
0.0
  9
$PUCSORTHOREF
  2

  9
$PUCSORTHOVIEW
 70
     0
  9
$PUCSORGTOP
 10
0.0
 20
0.0
 30
0.0
  9
$PUCSORGBOTTOM
 10
0.0
 20
0.0
 30
0.0
  9
$PUCSORGLEFT
 10
0.0
 20
0.0
 30
0.0
  9
$PUCSORGRIGHT
 10
0.0
 20
0.0
 30
0.0
  9
$PUCSORGFRONT
 10
0.0
 20
0.0
 30
0.0
  9
$PUCSORGBACK
 10
0.0
 20
0.0
 30
0.0
  9
$USERI1
 70
     0
  9
$USERI2
 70
     0
  9
$USERI3
 70
     0
  9
$USERI4
 70
     0
  9
$USERI5
 70
     0
  9
$USERR1
 40
0.0
  9
$USERR2
 40
0.0
  9
$USERR3
 40
0.0
  9
$USERR4
 40
0.0
  9
$USERR5
 40
0.0
  9
$WORLDVIEW
 70
     1
  9
$SHADEDGE
 70
     3
  9
$SHADEDIF
 70
    70
  9
$TILEMODE
 70
     1
  9
$MAXACTVP
 70
    64
  9
$PINSBASE
 10
0.0
 20
0.0
 30
0.0
  9
$PLIMCHECK
 70
     0
  9
$PEXTMIN
 10
1.000000000000000E+20
 20
1.000000000000000E+20
 30
1.000000000000000E+20
  9
$PEXTMAX
 10
-1.000000000000000E+20
 20
-1.000000000000000E+20
 30
-1.000000000000000E+20
  9
$PLIMMIN
 10
0.0
 20
0.0
  9
$PLIMMAX
 10
12.0
 20
9.0
  9
$UNITMODE
 70
     0
  9
$VISRETAIN
 70
     1
  9
$PLINEGEN
 70
     0
  9
$PSLTSCALE
 70
     1
  9
$TREEDEPTH
 70
  3020
  9
$CMLSTYLE
  2
Standard
  9
$CMLJUST
 70
     0
  9
$CMLSCALE
 40
1.0
  9
$PROXYGRAPHICS
 70
     1
  9
$MEASUREMENT
 70
     0
  9
$CELWEIGHT
370
    -1
  9
$ENDCAPS
280
     0
  9
$JOINSTYLE
280
     0
  9
$LWDISPLAY
290
     0
  9
$INSUNITS
 70
     1
  9
$HYPERLINKBASE
  1

  9
$STYLESHEET
  1

  9
$XEDIT
290
     1
  9
$CEPSNTYPE
380
     0
  9
$PSTYLEMODE
290
     1
  9
$FINGERPRINTGUID
  2
{fe22a140-14a5-4800-b86e-ce218de2a089}
  9
$VERSIONGUID
  2
{FAEB1C32-E019-11D5-929B-00C0DF256EC4}
  9
$EXTNAMES
290
     1
  9
$PSVPSCALE
 40
0.0
  9
$OLESTARTUP
290
     0
  9
$SORTENTS
280
   127
  9
$INDEXCTL
280
     0
  9
$HIDETEXT
280
     1
  9
$XCLIPFRAME
280
     2
  9
$HALOGAP
280
     0
  9
$OBSCOLOR
 70
   257
  9
$OBSLTYPE
280
     0
  9
$INTERSECTIONDISPLAY
280
     0
  9
$INTERSECTIONCOLOR
 70
   257
  9
$DIMASSOC
280
     2
  9
$PROJECTNAME
  1

  9
$CAMERADISPLAY
290
     0
  9
$LENSLENGTH
 40
50.0
  9
$CAMERAHEIGHT
 40
0.0
  9
$STEPSPERSEC
 40
2.0
  9
$STEPSIZE
 40
6.0
  9
$3DDWFPREC
 40
2.0
  9
$PSOLWIDTH
 40
0.25
  9
$PSOLHEIGHT
 40
4.0
  9
$LOFTANG1
 40
1.570796326794897
  9
$LOFTANG2
 40
1.570796326794897
  9
$LOFTMAG1
 40
0.0
  9
$LOFTMAG2
 40
0.0
  9
$LOFTPARAM
 70
     7
  9
$LOFTNORMALS
280
     1
  9
$LATITUDE
 40
37.795
  9
$LONGITUDE
 40
-122.394
  9
$NORTHDIRECTION
 40
0.0
  9
$TIMEZONE
 70
 -8000
  9
$LIGHTGLYPHDISPLAY
280
     1
  9
$TILEMODELIGHTSYNCH
280
     1
  9
$CMATERIAL
347
44
  9
$SOLIDHIST
280
     0
  9
$SHOWHIST
280
     1
  9
$DWFFRAME
280
     2
  9
$DGNFRAME
280
     2
  9
$REALWORLDSCALE
290
     1
  9
$INTERFERECOLOR
 62
   256
  9
$CSHADOW
280
     0
  9
$SHADOWPLANELOCATION
 40
0.0
  0
ENDSEC
  0
SECTION
  2
CLASSES
  0
CLASS
  1
ACDBDICTIONARYWDFLT
  2
AcDbDictionaryWithDefault
  3
ObjectDBX Classes
 90
        0
 91
        3
280
     0
281
     0
  0
CLASS
  1
VISUALSTYLE
  2
AcDbVisualStyle
  3
ObjectDBX Classes
 90
     4095
 91
        3
280
     0
281
     0
  0
CLASS
  1
MATERIAL
  2
AcDbMaterial
  3
ObjectDBX Classes
 90
     1153
 91
        3
280
     0
281
     0
  0
CLASS
  1
SCALE
  2
AcDbScale
  3
ObjectDBX Classes
 90
     1153
 91
        3
280
     0
281
     0
  0
CLASS
  1
TABLESTYLE
  2
AcDbTableStyle
  3
ObjectDBX Classes
 90
     4095
 91
        3
280
     0
281
     0
  0
CLASS
  1
MLEADERSTYLE
  2
AcDbMLeaderStyle
  3
ACDB_MLEADERSTYLE_CLASS
 90
     4095
 91
        3
280
     0
281
     0
  0
CLASS
  1
SUN
  2
AcDbSun
  3
SCENEOE
 90
     1153
 91
        3
280
     0
281
     0
  0
CLASS
  1
DICTIONARYVAR
  2
AcDbDictionaryVar
  3
ObjectDBX Classes
 90
        0
 91
        3
280
     0
281
     0
  0
CLASS
  1
CELLSTYLEMAP
  2
AcDbCellStyleMap
  3
ObjectDBX Classes
 90
     1152
 91
        3
280
     0
281
     0
  0
ENDSEC
  0
SECTION
  2
TABLES
  0
TABLE
  2
VPORT
  5
8
330
0
100
AcDbSymbolTable
 70
     1
  0
VPORT
  5
29
330
8
100
AcDbSymbolTableRecord
100
AcDbViewportTableRecord
  2
*Active
 70
     0
 10
0.0
 20
0.0
 11
1.0
 21
1.0
 12
10.42990654205607
 22
4.5
 13
0.0
 23
0.0
 14
0.5
 24
0.5
 15
0.5
 25
0.5
 16
0.0
 26
0.0
 36
1.0
 17
0.0
 27
0.0
 37
0.0
 40
9.0
 41
1.972972972850329
 42
50.0
 43
0.0
 44
0.0
 50
0.0
 51
0.0
 71
     0
 72
   100
 73
     1
 74
     3
 75
     0
 76
     0
 77
     0
 78
     0
281
     0
 65
     1
110
0.0
120
0.0
130
0.0
111
1.0
121
0.0
131
0.0
112
0.0
122
1.0
132
0.0
 79
     0
146
0.0
348
2F
 60
     3
 61
     5
292
     1
282
     1
141
0.0
142
0.0
 63
   250
361
5D
  0
ENDTAB
  0
TABLE
  2
LTYPE
  5
5
330
0
100
AcDbSymbolTable
 70
     1
  0
LTYPE
  5
14
330
5
100
AcDbSymbolTableRecord
100
AcDbLinetypeTableRecord
  2
ByBlock
 70
     0
  3

 72
    65
 73
     0
 40
0.0
  0
LTYPE
  5
15
330
5
100
AcDbSymbolTableRecord
100
AcDbLinetypeTableRecord
  2
ByLayer
 70
     0
  3

 72
    65
 73
     0
 40
0.0
  0
LTYPE
  5
16
330
5
100
AcDbSymbolTableRecord
100
AcDbLinetypeTableRecord
  2
Continuous
 70
     0
  3
Solid line
 72
    65
 73
     0
 40
0.0
  0
ENDTAB
  0
TABLE
  2
LAYER
  5
2
330
0
100
AcDbSymbolTable
 70
     2
  0
LAYER
  5
10
330
2
100
AcDbSymbolTableRecord
100
AcDbLayerTableRecord
  2
0
 70
     0
 62
     7
  6
Continuous
370
    -3
390
F
347
46
348
0
  0
LAYER
  5
5F
330
2
100
AcDbSymbolTableRecord
100
AcDbLayerTableRecord
  2
Layer 1
 70
     0
 62
     7
  6
Continuous
370
    -3
390
F
347
46
348
0
  0
ENDTAB
  0
TABLE
  2
STYLE
  5
3
330
0
100
AcDbSymbolTable
 70
     1
  0
STYLE
  5
11
330
3
100
AcDbSymbolTableRecord
100
AcDbTextStyleTableRecord
  2
Standard
 70
     0
 40
0.0
 41
1.0
 50
0.0
 71
     0
 42
0.2
  3
txt
  4

  0
ENDTAB
  0
TABLE
  2
VIEW
  5
6
330
0
100
AcDbSymbolTable
 70
     0
  0
ENDTAB
  0
TABLE
  2
UCS
  5
7
330
0
100
AcDbSymbolTable
 70
     0
  0
ENDTAB
  0
TABLE
  2
APPID
  5
9
330
0
100
AcDbSymbolTable
 70
     2
  0
APPID
  5
12
330
9
100
AcDbSymbolTableRecord
100
AcDbRegAppTableRecord
  2
ACAD
 70
     0
  0
APPID
  5
5E
330
9
100
AcDbSymbolTableRecord
100
AcDbRegAppTableRecord
  2
ODA
 70
     0
  0
ENDTAB
  0
TABLE
  2
DIMSTYLE
  5
A
330
0
100
AcDbSymbolTable
 70
     1
100
AcDbDimStyleTable
  0
DIMSTYLE
105
27
330
A
100
AcDbSymbolTableRecord
100
AcDbDimStyleTableRecord
  2
Standard
 70
     0
178
     0
340
11
  0
ENDTAB
  0
TABLE
  2
BLOCK_RECORD
  5
1
330
0
100
AcDbSymbolTable
 70
     1
  0
BLOCK_RECORD
  5
1F
330
1
100
AcDbSymbolTableRecord
100
AcDbBlockTableRecord
  2
*Model_Space
340
22
 70
     0
280
     1
281
     0
  0
BLOCK_RECORD
  5
1B
330
1
100
AcDbSymbolTableRecord
100
AcDbBlockTableRecord
  2
*Paper_Space
340
1E
 70
     0
280
     1
281
     0
  0
BLOCK_RECORD
  5
23
330
1
100
AcDbSymbolTableRecord
100
AcDbBlockTableRecord
  2
*Paper_Space0
340
26
 70
     0
280
     1
281
     0
  0
ENDTAB
  0
ENDSEC
  0
SECTION
  2
BLOCKS
  0
BLOCK
  5
20
330
1F
100
AcDbEntity
  8
0
100
AcDbBlockBegin
  2
*Model_Space
 70
     0
 10
0.0
 20
0.0
 30
0.0
  3
*Model_Space
  1

  0
ENDBLK
  5
21
330
1F
100
AcDbEntity
  8
0
100
AcDbBlockEnd
  0
BLOCK
  5
1C
330
1B
100
AcDbEntity
 67
     1
  8
0
100
AcDbBlockBegin
  2
*Paper_Space
 70
     0
 10
0.0
 20
0.0
 30
0.0
  3
*Paper_Space
  1

  0
ENDBLK
  5
1D
330
1B
100
AcDbEntity
 67
     1
  8
0
100
AcDbBlockEnd
  0
BLOCK
  5
24
330
23
100
AcDbEntity
  8
0
100
AcDbBlockBegin
  2
*Paper_Space0
 70
     0
 10
0.0
 20
0.0
 30
0.0
  3
*Paper_Space0
  1

  0
ENDBLK
  5
25
330
23
100
AcDbEntity
  8
0
100
AcDbBlockEnd
  0
ENDSEC
  0
SECTION
  2
ENTITIES
  0
LWPOLYLINE
  5
60
330
1F
100
AcDbEntity
  8
Layer 1
 62
   250
370
     9
100
AcDbPolyline
 90
        5
 70
     1
 43
0.0
 10
-13.06258661417323
 20
-5.671098425196851
 10
-5.654303149606299
 20
-5.671098425196851
 10
-5.654303149606299
 20
0.895759842519685
 10
-13.06258661417323
 20
0.895759842519685
 10
-13.06258661417323
 20
-5.671098425196851
  0
LWPOLYLINE
  5
61
330
1F
100
AcDbEntity
  8
Layer 1
 62
     7
370
    90
100
AcDbPolyline
 90
       19
 70
     0
 43
0.0
 10
-10.16846062992126
 20
-0.4454370078740157
 10
-10.16846062992126
 20
-1.141842519685039
 10
-10.16206299212598
 20
-1.150011811023622
 10
-10.14170078740158
 20
-1.171311023622047
 10
-10.10561417322835
 20
-1.200925196850394
 10
-10.05205118110236
 20
-1.23403937007874
 10
-9.979251968503936
 20
-1.265838582677165
 10
-9.885464566929134
 20
-1.291507874015748
 10
-9.768929133858268
 20
-1.306232283464567
 10
-9.627893700787402
 20
-1.305196850393701
 10
-9.61657874015748
 20
-1.304925196850394
 10
-9.585944881889764
 20
-1.302763779527559
 10
-9.540972440944882
 20
-1.296692913385827
 10
-9.486625984251969
 20
-1.284685039370079
 10
-9.42788188976378
 20
-1.264724409448819
 10
-9.369712598425197
 20
-1.234783464566929
 10
-9.317086614173228
 20
-1.192850393700787
 10
-9.274984251968505
 20
-1.136893700787402
 10
-9.252925196850393
 20
-0.4692834645669292
  0
LWPOLYLINE
  5
62
330
1F
100
AcDbEntity
  8
Layer 1
 62
     7
370
    90
100
AcDbPolyline
 90
       12
 70
     1
 43
0.0
 10
-9.909338582677165
 20
-1.97140157480315
 10
-11.6968031496063
 20
-1.203452755905512
 10
-11.70163385826772
 20
-1.216251968503937
 10
-11.70305905511811
 20
-1.233437007874016
 10
-11.70159842519685
 20
-1.253236220472441
 10
-11.69777165354331
 20
-1.27388188976378
 10
-11.69209842519685
 20
-1.293602362204724
 10
-11.68509448818898
 20
-1.310629921259842
 10
-11.6772874015748
 20
-1.323192913385827
 10
-11.66918897637795
 20
-1.329523622047244
 10
-9.91017716535433
 20
-2.079771653543307
 10
-9.909338582677165
 20
-1.97140157480315
  0
LWPOLYLINE
  5
63
330
1F
100
AcDbEntity
  8
Layer 1
 62
     7
370
    90
100
AcDbPolyline
 90
       10
 70
     0
 43
0.0
 10
-11.70044094488189
 20
-1.200661417322835
 10
-11.69969291338583
 20
-1.198779527559055
 10
-11.69234645669291
 20
-1.191385826771653
 10
-11.67075196850394
 20
-1.175850393700787
 10
-11.62727165354331
 20
-1.149547244094488
 10
-11.55424409448819
 20
-1.109854330708661
 10
-11.44403543307087
 20
-1.054145669291339
 10
-11.28898818897638
 20
-0.9797913385826772
 10
-11.08145669291339
 20
-0.8841692913385827
 10
-10.17405905511811
 20
-0.4580629921259842
  0
LWPOLYLINE
  5
64
330
1F
100
AcDbEntity
  8
Layer 1
 62
     7
370
    90
100
AcDbPolyline
 90
       10
 70
     0
 43
0.0
 10
-9.258334645669292
 20
-0.4023622047244094
 10
-8.14623622047244
 20
-0.8199173228346457
 10
-8.136051181102362
 20
-0.8234173228346456
 10
-8.109007874015749
 20
-0.8330433070866142
 10
-8.070358267716536
 20
-0.847503937007874
 10
-8.025366141732283
 20
-0.8655
 10
-7.979295275590551
 20
-0.885728346456693
 10
-7.937397637795276
 20
-0.9068976377952755
 10
-7.904937007874016
 20
-0.9277007874015748
 10
-7.887169291338583
 20
-0.9468464566929133
  0
LWPOLYLINE
  5
65
330
1F
100
AcDbEntity
  8
Layer 1
 62
     7
370
    90
100
AcDbPolyline
 90
       52
 70
     0
 43
0.0
 10
-11.68475590551181
 20
-1.313035433070866
 10
-11.68583858267717
 20
-1.312874015748031
 10
-11.68886220472441
 20
-1.31288188976378
 10
-11.69349606299213
 20
-1.313799212598425
 10
-11.69940157480315
 20
-1.316366141732283
 10
-11.70625196850394
 20
-1.321322834645669
 10
-11.71370472440945
 20
-1.329405511811024
 10
-11.72143307086614
 20
-1.341358267716535
 10
-11.72910236220472
 20
-1.357917322834646
 10
-11.72974015748031
 20
-1.363547244094488
 10
-11.73106299212598
 20
-1.378677165354331
 10
-11.73217716535433
 20
-1.400669291338583
 10
-11.73219291338583
 20
-1.426877952755905
 10
-11.73021653543307
 20
-1.454665354330709
 10
-11.72535826771654
 20
-1.481385826771654
 10
-11.71672440944882
 20
-1.504405511811024
 10
-11.70342519685039
 20
-1.521082677165354
 10
-10.44441732283465
 20
-2.04403937007874
 10
-9.958322834645669
 20
-2.248964566929134
 10
-9.953700787401575
 20
-2.249846456692913
 10
-9.941066929133859
 20
-2.251846456692913
 10
-9.92228346456693
 20
-2.253972440944882
 10
-9.8991968503937
 20
-2.255248031496063
 10
-9.873669291338583
 20
-2.254692913385827
 10
-9.847547244094487
 20
-2.251318897637795
 10
-9.8226968503937
 20
-2.244149606299213
 10
-9.800964566929133
 20
-2.232200787401575
 10
-8.288074803149605
 20
-1.462830708661417
 10
-8.260267716535433
 20
-1.44907874015748
 10
-8.23224409448819
 20
-1.435834645669291
 10
-8.204078740157481
 20
-1.422917322834646
 10
-8.175866141732284
 20
-1.410133858267717
 10
-8.147681102362204
 20
-1.397299212598425
 10
-8.119610236220472
 20
-1.384228346456693
 10
-8.091740157480315
 20
-1.370732283464567
 10
-8.064149606299212
 20
-1.356625984251969
 10
-8.03007874015748
 20
-1.337937007874016
 10
-7.996295275590551
 20
-1.317759842519685
 10
-7.963917322834646
 20
-1.296314960629921
 10
-7.934070866141732
 20
-1.273838582677165
 10
-7.907874015748032
 20
-1.25055905511811
 10
-7.886444881889764
 20
-1.226704724409449
 10
-7.870913385826771
 20
-1.202503937007874
 10
-7.862393700787401
 20
-1.178188976377953
 10
-7.86138188976378
 20
-1.174759842519685
 10
-7.859181102362204
 20
-1.165362204724409
 10
-7.857051181102362
 20
-1.151330708661417
 10
-7.856244094488189
 20
-1.133992125984252
 10
-7.858023622047244
 20
-1.114681102362205
 10
-7.863637795275591
 20
-1.094728346456693
 10
-7.874346456692914
 20
-1.075472440944882
 10
-7.891409448818898
 20
-1.058236220472441
  0
LWPOLYLINE
  5
66
330
1F
100
AcDbEntity
  8
Layer 1
 62
     7
370
    90
100
AcDbPolyline
 90
       47
 70
     0
 43
0.0
 10
-7.890326771653544
 20
-1.055279527559055
 10
-7.873988188976378
 20
-1.06146062992126
 10
-7.830503937007874
 20
-1.078181102362205
 10
-7.768161417322835
 20
-1.102712598425197
 10
-7.695259842519685
 20
-1.132330708661417
 10
-7.620086614173228
 20
-1.164303149606299
 10
-7.550937007874015
 20
-1.195909448818898
 10
-7.496102362204724
 20
-1.224413385826772
 10
-7.463877952755905
 20
-1.247090551181102
 10
-7.463476377952756
 20
-1.250161417322835
 10
-7.46259842519685
 20
-1.258570866141732
 10
-7.461716535433071
 20
-1.271102362204724
 10
-7.461318897637796
 20
-1.286547244094488
 10
-7.461877952755906
 20
-1.303692913385827
 10
-7.463877952755905
 20
-1.321330708661417
 10
-7.467799212598425
 20
-1.338248031496063
 10
-7.474122047244094
 20
-1.353236220472441
 10
-8.046641732283465
 20
-1.661515748031496
 10
-9.87529527559055
 20
-2.607562992125984
 10
-9.87774409448819
 20
-2.607669291338583
 10
-9.884716535433071
 20
-2.607748031496063
 10
-9.895673228346457
 20
-2.607425196850394
 10
-9.91005905511811
 20
-2.606338582677165
 10
-9.92732283464567
 20
-2.604114173228346
 10
-9.94692125984252
 20
-2.600389763779527
 10
-9.968299212598426
 20
-2.594791338582677
 10
-9.990909448818897
 20
-2.586956692913386
 10
-12.12192519685039
 20
-1.670846456692913
 10
-12.1233937007874
 20
-1.67053937007874
 10
-12.12732677165354
 20
-1.669972440944882
 10
-12.1330157480315
 20
-1.669685039370079
 10
-12.13976377952756
 20
-1.670212598425197
 10
-12.14685826771654
 20
-1.672094488188976
 10
-12.15359842519685
 20
-1.675866141732284
 10
-12.15927559055118
 20
-1.682062992125984
 10
-12.16318897637795
 20
-1.691228346456693
 10
-12.15946456692913
 20
-2.217303149606299
 10
-12.1581811023622
 20
-2.218027559055118
 10
-12.15425590551181
 20
-2.219618110236221
 10
-12.14758267716535
 20
-2.221185039370079
 10
-12.13804724409449
 20
-2.22184251968504
 10
-12.12554724409449
 20
-2.220716535433071
 10
-12.10996850393701
 20
-2.216913385826772
 10
-12.09120472440945
 20
-2.209551181102362
 10
-12.06914566929134
 20
-2.197751968503937
 10
-11.59707480314961
 20
-1.962181102362205
 10
-11.59427952755905
 20
-1.896070866141732
  0
LWPOLYLINE
  5
67
330
1F
100
AcDbEntity
  8
Layer 1
 62
     7
370
    90
100
AcDbPolyline
 90
       10
 70
     0
 43
0.0
 10
-7.464925196850394
 20
-1.247031496062992
 10
-9.88838188976378
 20
-2.489074803149606
 10
-9.984625984251968
 20
-2.449055118110236
 10
-10.23938582677165
 20
-2.343326771653544
 10
-10.60168110236221
 20
-2.193385826771654
 10
-11.02054724409449
 20
-2.020728346456693
 10
-11.44501181102362
 20
-1.846842519685039
 10
-11.82410236220472
 20
-1.693228346456693
 10
-12.10685039370079
 20
-1.581377952755906
 10
-12.24227952755906
 20
-1.532787401574803
  0
LWPOLYLINE
  5
68
330
1F
100
AcDbEntity
  8
Layer 1
 62
     7
370
    90
100
AcDbPolyline
 90
       11
 70
     0
 43
0.0
 10
-11.70042519685039
 20
-1.268503937007874
 10
-12.23953937007874
 20
-1.52642125984252
 10
-12.25067716535433
 20
-2.183988188976378
 10
-12.24761811023622
 20
-2.185248031496063
 10
-12.23937007874016
 20
-2.188610236220472
 10
-12.2273188976378
 20
-2.193468503937008
 10
-12.21285433070866
 20
-2.199204724409449
 10
-12.19735826771653
 20
-2.205200787401575
 10
-12.18222047244094
 20
-2.210846456692913
 10
-12.16883070866142
 20
-2.215527559055118
 10
-12.15857480314961
 20
-2.218625984251969
  0
LWPOLYLINE
  5
69
330
1F
100
AcDbEntity
  8
Layer 1
 62
     7
370
    90
100
AcDbPolyline
 90
       58
 70
     0
 43
0.0
 10
-11.59572047244095
 20
-1.894763779527559
 10
-11.59475984251969
 20
-1.960523622047244
 10
-11.59222047244094
 20
-2.135007874015748
 10
-11.58863779527559
 20
-2.384011811023622
 10
-11.58452755905512
 20
-2.673338582677165
 10
-11.58041338582677
 20
-2.968787401574803
 10
-11.57683070866142
 20
-3.236161417322835
 10
-11.57429133858268
 20
-3.441259842519685
 10
-11.57333070866142
 20
-3.549877952755906
 10
-11.57312992125984
 20
-3.558850393700788
 10
-11.57242519685039
 20
-3.582822834645669
 10
-11.57106692913386
 20
-3.61738188976378
 10
-11.56889763779528
 20
-3.658106299212598
 10
-11.56576771653543
 20
-3.70057874015748
 10
-11.56151968503937
 20
-3.740385826771654
 10
-11.55600787401575
 20
-3.773106299212599
 10
-11.54907086614173
 20
-3.794322834645669
 10
-11.54833858267716
 20
-3.797618110236221
 10
-11.54531102362205
 20
-3.806685039370079
 10
-11.53874015748032
 20
-3.820299212598425
 10
-11.52738188976378
 20
-3.837240157480315
 10
-11.5099842519685
 20
-3.856279527559055
 10
-11.48531102362205
 20
-3.876192913385827
 10
-11.4521062992126
 20
-3.895755905511811
 10
-11.40912598425197
 20
-3.913744094488189
 10
-11.36120866141732
 20
-3.9345
 10
-11.2336062992126
 20
-3.989870078740157
 10
-11.05055118110236
 20
-4.069511811023622
 10
-10.83627165354331
 20
-4.163086614173229
 10
-10.61499212598425
 20
-4.260244094488189
 10
-10.41094488188976
 20
-4.350645669291339
 10
-10.24835826771653
 20
-4.423944881889764
 10
-10.15145669291339
 20
-4.4698031496063
 10
-10.14333464566929
 20
-4.472744094488189
 10
-10.12075590551181
 20
-4.479685039370079
 10
-10.08641338582677
 20
-4.487811023622047
 10
-10.043
 20
-4.494295275590551
 10
-9.993196850393701
 20
-4.496314960629921
 10
-9.939700787401575
 20
-4.49105905511811
 10
-9.8851968503937
 20
-4.4756968503937
 10
-9.832377952755905
 20
-4.447413385826771
 10
-9.772929133858268
 20
-4.414114173228347
 10
-9.61534251968504
 20
-4.32586220472441
 10
-9.390755905511812
 20
-4.200129921259842
 10
-9.130307086614174
 20
-4.054393700787402
 10
-8.865133858267717
 20
-3.906114173228346
 10
-8.626377952755906
 20
-3.772775590551181
 10
-8.445173228346457
 20
-3.671842519685039
 10
-8.352661417322835
 20
-3.620787401574803
 10
-8.345598425196851
 20
-3.616141732283464
 10
-8.326976377952755
 20
-3.602700787401575
 10
-8.300649606299213
 20
-3.581216535433071
 10
-8.270472440944882
 20
-3.552433070866142
 10
-8.240295275590551
 20
-3.517106299212598
 10
-8.213968503937007
 20
-3.47598031496063
 10
-8.195346456692914
 20
-3.429803149606299
 10
-8.18828346456693
 20
-3.379330708661417
 10
-8.037787401574803
 20
-1.657763779527559
  0
LWPOLYLINE
  5
6A
330
1F
100
AcDbEntity
  8
Layer 1
 62
     7
370
    90
100
AcDbPolyline
 90
       11
 70
     0
 43
0.0
 10
-9.899051181102362
 20
-1.970933070866142
 10
-7.885854330708661
 20
-0.9472598425196851
 10
-7.88053937007874
 20
-0.9592165354330708
 10
-7.877842519685039
 20
-0.9752007874015748
 10
-7.877511811023622
 20
-0.9936220472440945
 10
-7.879283464566929
 20
-1.012885826771654
 10
-7.882901574803149
 20
-1.031389763779528
 10
-7.888106299212598
 20
-1.04753937007874
 10
-7.894649606299213
 20
-1.059744094488189
 10
-7.902263779527559
 20
-1.06640157480315
 10
-9.894673228346457
 20
-2.100562992125984
  0
LWPOLYLINE
  5
6B
330
1F
100
AcDbEntity
  8
Layer 1
 62
     7
370
    25
100
AcDbPolyline
 90
       33
 70
     1
 43
0.0
 10
-9.71192125984252
 20
-0.2559251968503937
 10
-9.61878346456693
 20
-0.262248031496063
 10
-9.532035433070867
 20
-0.2750866141732283
 10
-9.453531496062991
 20
-0.2936732283464567
 10
-9.38513779527559
 20
-0.317240157480315
 10
-9.328704724409448
 20
-0.3450314960629921
 10
-9.286098425196851
 20
-0.3762755905511811
 10
-9.259169291338583
 20
-0.4102086614173228
 10
-9.249779527559054
 20
-0.4460669291338583
 10
-9.259169291338583
 20
-0.4813779527559055
 10
-9.286098425196851
 20
-0.513728346456693
 10
-9.328704724409448
 20
-0.5424724409448819
 10
-9.38513779527559
 20
-0.5669448818897638
 10
-9.453531496062991
 20
-0.586496062992126
 10
-9.532035433070867
 20
-0.6004685039370079
 10
-9.61878346456693
 20
-0.6082086614173229
 10
-9.71192125984252
 20
-0.6090590551181102
 10
-9.805059055118111
 20
-0.602732283464567
 10
-9.891807086614174
 20
-0.5898976377952756
 10
-9.970307086614174
 20
-0.5713110236220472
 10
-10.03870472440945
 20
-0.547740157480315
 10
-10.09513385826772
 20
-0.5199488188976378
 10
-10.13774409448819
 20
-0.4887047244094488
 10
-10.16467322834646
 20
-0.4547716535433071
 10
-10.17406299212598
 20
-0.4189094488188976
 10
-10.16467322834646
 20
-0.3836023622047244
 10
-10.13774409448819
 20
-0.351251968503937
 10
-10.09513385826772
 20
-0.322511811023622
 10
-10.03870472440945
 20
-0.2980393700787402
 10
-9.970307086614174
 20
-0.2784881889763779
 10
-9.891807086614174
 20
-0.2645157480314961
 10
-9.805059055118111
 20
-0.2567755905511811
 10
-9.71192125984252
 20
-0.2559251968503937
  0
LWPOLYLINE
  5
6C
330
1F
100
AcDbEntity
  8
Layer 1
 62
     7
370
    13
100
AcDbPolyline
 90
       18
 70
     0
 43
0.0
 10
-9.975555118110236
 20
0.523736220472441
 10
-9.999023622047243
 20
-0.1522874015748031
 10
-9.96313779527559
 20
-0.2090984251968504
 10
-9.89473622047244
 20
-0.2495433070866142
 10
-9.803937007874016
 20
-0.2741417322834646
 10
-9.700870078740158
 20
-0.2834173228346457
 10
-9.595645669291338
 20
-0.2778897637795276
 10
-9.498389763779528
 20
-0.2580748031496063
 10
-9.419220472440944
 20
-0.224492125984252
 10
-9.36825590551181
 20
-0.1776653543307087
 10
-9.36707874015748
 20
-0.1510511811023622
 10
-9.364110236220473
 20
-0.0801732283464567
 10
-9.360185039370078
 20
0.0215314960629921
 10
-9.356141732283465
 20
0.1406141732283465
 10
-9.352826771653543
 20
0.2636338582677165
 10
-9.351070866141733
 20
0.3771535433070866
 10
-9.35171653543307
 20
0.4677244094488189
 10
-9.355606299212598
 20
0.5219055118110236
  0
LWPOLYLINE
  5
6D
330
1F
100
AcDbEntity
  8
Layer 1
 62
     7
370
    13
100
AcDbPolyline
 90
       11
 70
     0
 43
0.0
 10
-9.95340157480315
 20
-0.209244094488189
 10
-9.95340157480315
 20
-0.3576181102362205
 10
-9.935582677165355
 20
-0.4255669291338582
 10
-9.887712598425196
 20
-0.4755236220472441
 10
-9.818173228346456
 20
-0.5080354330708662
 10
-9.735346456692913
 20
-0.5236496062992126
 10
-9.647614173228346
 20
-0.5229133858267716
 10
-9.56336220472441
 20
-0.5063740157480315
 10
-9.490968503937008
 20
-0.4745787401574803
 10
-9.438818897637795
 20
-0.4280787401574803
 10
-9.442043307086614
 20
-0.2378425196850394
  0
LWPOLYLINE
  5
6E
330
1F
100
AcDbEntity
  8
Layer 1
 62
     7
370
    50
100
AcDbPolyline
 90
       33
 70
     1
 43
0.0
 10
-9.665003937007874
 20
0.6513897637795275
 10
-9.602488188976379
 20
0.6470236220472441
 10
-9.54426377952756
 20
0.6377677165354331
 10
-9.491570866141732
 20
0.6241929133858267
 10
-9.445665354330709
 20
0.6068543307086615
 10
-9.407787401574803
 20
0.5863188976377953
 10
-9.379188976377952
 20
0.5631535433070867
 10
-9.361114173228346
 20
0.5379173228346457
 10
-9.354811023622048
 20
0.5111771653543307
 10
-9.361114173228346
 20
0.4847795275590551
 10
-9.379188976377952
 20
0.4605196850393701
 10
-9.407787401574803
 20
0.4388976377952756
 10
-9.445665354330709
 20
0.4204094488188976
 10
-9.491570866141732
 20
0.4055511811023622
 10
-9.54426377952756
 20
0.3948188976377953
 10
-9.602488188976379
 20
0.3887086614173229
 10
-9.665003937007874
 20
0.3877165354330709
 10
-9.72751968503937
 20
0.3920826771653543
 10
-9.785748031496063
 20
0.4013385826771654
 10
-9.83844094488189
 20
0.4149133858267717
 10
-9.884350393700787
 20
0.432251968503937
 10
-9.92222440944882
 20
0.4527874015748031
 10
-9.950826771653544
 20
0.4759527559055118
 10
-9.968897637795276
 20
0.5011889763779528
 10
-9.975200787401574
 20
0.5279291338582677
 10
-9.968897637795276
 20
0.5543267716535433
 10
-9.950826771653544
 20
0.5785866141732283
 10
-9.92222440944882
 20
0.6002086614173229
 10
-9.884350393700787
 20
0.6186968503937008
 10
-9.83844094488189
 20
0.6335590551181103
 10
-9.785748031496063
 20
0.6442913385826772
 10
-9.72751968503937
 20
0.6503976377952756
 10
-9.665003937007874
 20
0.6513897637795275
  0
LWPOLYLINE
  5
6F
330
1F
100
AcDbEntity
  8
Layer 1
 62
     7
370
    90
100
AcDbPolyline
 90
       73
 70
     1
 43
0.0
 10
-9.415027559055119
 20
0.3708425196850394
 10
-9.418771653543308
 20
0.3692834645669291
 10
-9.42844094488189
 20
0.3641574803149606
 10
-9.441685039370078
 20
0.3547913385826771
 10
-9.45616535433071
 20
0.340511811023622
 10
-9.469523622047245
 20
0.3206417322834645
 10
-9.479425196850393
 20
0.2945118110236221
 10
-9.483511811023622
 20
0.2614448818897638
 10
-9.479444881889764
 20
0.2207677165354331
 10
-9.474145669291339
 20
0.2188818897637795
 10
-9.458566929133859
 20
0.2131023622047244
 10
-9.433188976377952
 20
0.2032283464566929
 10
-9.398492125984252
 20
0.1890669291338583
 10
-9.354952755905511
 20
0.1704251968503937
 10
-9.303047244094488
 20
0.1471102362204725
 10
-9.243259842519684
 20
0.1189212598425197
 10
-9.176066929133858
 20
0.0856732283464567
 10
-9.164704724409448
 20
0.0800944881889764
 10
-9.15344094488189
 20
0.0748740157480315
 10
-9.14223622047244
 20
0.0699251968503937
 10
-9.13105905511811
 20
0.0651496062992126
 10
-9.11986220472441
 20
0.0604566929133858
 10
-9.108610236220473
 20
0.055751968503937
 10
-9.097267716535432
 20
0.0509448818897638
 10
-9.085787401574803
 20
0.0459370078740158
 10
-9.06811811023622
 20
0.0374763779527559
 10
-9.048429133858267
 20
0.0266062992125984
 10
-9.027181102362205
 20
0.0130787401574803
 10
-9.004830708661418
 20
-0.0033622047244094
 10
-8.98184251968504
 20
-0.0229645669291339
 10
-8.958681102362204
 20
-0.0459724409448819
 10
-8.935803149606299
 20
-0.0726417322834646
 10
-8.913673228346457
 20
-0.1032204724409449
 10
-8.906858267716535
 20
-0.1118464566929134
 10
-8.888555118110236
 20
-0.1350314960629921
 10
-8.861984251968504
 20
-0.1687125984251968
 10
-8.830358267716536
 20
-0.2088503937007874
 10
-8.796897637795276
 20
-0.2513858267716536
 10
-8.764811023622046
 20
-0.2922677165354331
 10
-8.737314960629922
 20
-0.3274488188976378
 10
-8.717633858267716
 20
-0.3528740157480315
 10
-8.711417322834645
 20
-0.3557874015748032
 10
-8.694570866141733
 20
-0.3629094488188976
 10
-8.66977559055118
 20
-0.3718070866141732
 10
-8.639732283464568
 20
-0.3800472440944882
 10
-8.607125984251969
 20
-0.3851968503937008
 10
-8.574653543307086
 20
-0.3848228346456693
 10
-8.545003937007873
 20
-0.376496062992126
 10
-8.520870078740158
 20
-0.3577795275590551
 10
-8.528421259842519
 20
-0.3470275590551181
 10
-8.549114173228347
 20
-0.3176535433070866
 10
-8.580015748031496
 20
-0.2739803149606299
 10
-8.618188976377953
 20
-0.2203307086614173
 10
-8.660692913385827
 20
-0.1610275590551181
 10
-8.704590551181102
 20
-0.1003897637795276
 10
-8.746948818897637
 20
-0.042748031496063
 10
-8.784830708661417
 20
0.0075826771653543
 10
-8.789748031496064
 20
0.0132165354330709
 10
-8.804232283464566
 20
0.0287637795275591
 10
-8.827874015748032
 20
0.0521968503937008
 10
-8.860259842519685
 20
0.0814842519685039
 10
-8.900988188976378
 20
0.1145944881889764
 10
-8.949645669291339
 20
0.149496062992126
 10
-9.005826771653544
 20
0.1841614173228346
 10
-9.06911811023622
 20
0.2165590551181102
 10
-9.133496062992126
 20
0.245740157480315
 10
-9.194854330708662
 20
0.273011811023622
 10
-9.251681102362205
 20
0.2979173228346457
 10
-9.302468503937009
 20
0.32
 10
-9.34570472440945
 20
0.3387913385826772
 10
-9.379885826771654
 20
0.3538346456692913
 10
-9.403496062992126
 20
0.3646732283464567
 10
-9.415027559055119
 20
0.3708425196850394
  0
LWPOLYLINE
  5
70
330
1F
100
AcDbEntity
  8
Layer 1
 62
     7
370
    18
100
AcDbPolyline
 90
        4
 70
     1
 43
0.0
 10
-7.292665354330708
 20
0.6754606299212599
 10
-7.315724409448819
 20
0.7173740157480315
 10
-7.338779527559055
 20
0.6754606299212599
 10
-7.292665354330708
 20
0.6754606299212599
  0
LWPOLYLINE
  5
71
330
1F
100
AcDbEntity
  8
Layer 1
 62
     7
370
    18
100
AcDbPolyline
 90
        4
 70
     1
 43
0.0
 10
-7.292665354330708
 20
-4.231287401574803
 10
-7.315724409448819
 20
-4.273200787401575
 10
-7.338779527559055
 20
-4.231287401574803
 10
-7.292665354330708
 20
-4.231287401574803
  0
LWPOLYLINE
  5
72
330
1F
100
AcDbEntity
  8
Layer 1
 62
     7
370
    18
100
AcDbPolyline
 90
        2
 70
     0
 43
0.0
 10
-7.315724409448819
 20
0.7173740157480315
 10
-7.315724409448819
 20
-4.273200787401575
  0
LWPOLYLINE
  5
73
330
1F
100
AcDbEntity
  8
Layer 1
 62
     7
370
     9
100
AcDbPolyline
 90
        7
 70
     1
 43
0.0
 10
-7.124220472440945
 20
-1.787625984251969
 10
-7.094
 20
-1.787625984251969
 10
-7.094
 20
-1.490397637795276
 10
-7.166527559055118
 20
-1.498173228346457
 10
-7.166527559055118
 20
-1.524531496062992
 10
-7.124220472440945
 20
-1.524531496062992
 10
-7.124220472440945
 20
-1.787625984251969
  0
LWPOLYLINE
  5
74
330
1F
100
AcDbEntity
  8
Layer 1
 62
     7
370
     9
100
AcDbPolyline
 90
      128
 70
     1
 43
0.0
 10
-6.986956692913386
 20
-1.602716535433071
 10
-6.967094488188977
 20
-1.524090551181102
 10
-6.860913385826771
 20
-1.524090551181102
 10
-6.860913385826771
 20
-1.493850393700787
 10
-6.98998031496063
 20
-1.493850393700787
 10
-7.023645669291339
 20
-1.62561811023622
 10
-6.990838582677165
 20
-1.640303149606299
 10
-6.98607874015748
 20
-1.637062992125984
 10
-6.981086614173228
 20
-1.634255905511811
 10
-6.975854330708661
 20
-1.631877952755906
 10
-6.970389763779528
 20
-1.629937007874016
 10
-6.964685039370079
 20
-1.628425196850394
 10
-6.958751968503937
 20
-1.627342519685039
 10
-6.95257874015748
 20
-1.626696850393701
 10
-6.946173228346456
 20
-1.62648031496063
 10
-6.939724409448819
 20
-1.626799212598425
 10
-6.933488188976378
 20
-1.627748031496063
 10
-6.927472440944882
 20
-1.629334645669291
 10
-6.921669291338583
 20
-1.63155905511811
 10
-6.916086614173229
 20
-1.634413385826772
 10
-6.910716535433071
 20
-1.637905511811024
 10
-6.905562992125985
 20
-1.642031496062992
 10
-6.900625984251969
 20
-1.646791338582677
 10
-6.895972440944882
 20
-1.65209842519685
 10
-6.89194094488189
 20
-1.657602362204724
 10
-6.888527559055118
 20
-1.663303149606299
 10
-6.885736220472441
 20
-1.669196850393701
 10
-6.883566929133858
 20
-1.675291338582677
 10
-6.882015748031496
 20
-1.68157874015748
 10
-6.881086614173229
 20
-1.688062992125984
 10
-6.880775590551181
 20
-1.694748031496063
 10
-6.881090551181102
 20
-1.701653543307087
 10
-6.882043307086614
 20
-1.708283464566929
 10
-6.883625984251968
 20
-1.71463779527559
 10
-6.885846456692914
 20
-1.720716535433071
 10
-6.888700787401575
 20
-1.726515748031496
 10
-6.892185039370078
 20
-1.732043307086614
 10
-6.896307086614173
 20
-1.737291338582677
 10
-6.901062992125985
 20
-1.742263779527559
 10
-6.905988188976378
 20
-1.746570866141732
 10
-6.911259842519685
 20
-1.750417322834646
 10
-6.916885826771654
 20
-1.753807086614173
 10
-6.922858267716536
 20
-1.756736220472441
 10
-6.926023622047244
 20
-1.758
 10
-6.929362204724409
 20
-1.759094488188976
 10
-6.932877952755906
 20
-1.760023622047244
 10
-6.936566929133858
 20
-1.760787401574803
 10
-6.944472440944882
 20
-1.761803149606299
 10
-6.953078740157481
 20
-1.762141732283464
 10
-6.957551181102362
 20
-1.761952755905512
 10
-6.962015748031496
 20
-1.761385826771654
 10
-6.966476377952756
 20
-1.760437007874016
 10
-6.970929133858268
 20
-1.759114173228346
 10
-6.975374015748032
 20
-1.757409448818898
 10
-6.979814960629922
 20
-1.755326771653543
 10
-6.984248031496063
 20
-1.752870078740157
 10
-6.988677165354331
 20
-1.750031496062992
 10
-6.992944881889763
 20
-1.746897637795276
 10
-6.996885826771654
 20
-1.743531496062992
 10
-7.000503937007874
 20
-1.739933070866142
 10
-7.003795275590551
 20
-1.736106299212598
 10
-7.006763779527559
 20
-1.732051181102362
 10
-7.009405511811024
 20
-1.727763779527559
 10
-7.011728346456693
 20
-1.723244094488189
 10
-7.013724409448819
 20
-1.7185
 10
-7.043074803149606
 20
-1.728007874015748
 10
-7.040188976377952
 20
-1.735118110236221
 10
-7.036826771653543
 20
-1.741874015748031
 10
-7.032984251968504
 20
-1.748267716535433
 10
-7.028665354330709
 20
-1.754307086614173
 10
-7.023866141732284
 20
-1.759988188976378
 10
-7.018590551181102
 20
-1.765311023622047
 10
-7.012834645669291
 20
-1.770279527559055
 10
-7.00659842519685
 20
-1.774885826771654
 10
-6.999968503937008
 20
-1.779086614173228
 10
-6.993188976377953
 20
-1.782728346456693
 10
-6.986263779527559
 20
-1.785807086614173
 10
-6.979188976377952
 20
-1.788326771653543
 10
-6.971964566929134
 20
-1.790287401574803
 10
-6.964590551181102
 20
-1.791685039370079
 10
-6.957070866141732
 20
-1.792523622047244
 10
-6.949405511811023
 20
-1.792803149606299
 10
-6.939188976377952
 20
-1.792342519685039
 10
-6.929362204724409
 20
-1.790952755905512
 10
-6.919929133858267
 20
-1.788645669291339
 10
-6.910885826771653
 20
-1.785409448818898
 10
-6.902228346456693
 20
-1.781248031496063
 10
-6.893964566929134
 20
-1.776165354330709
 10
-6.886094488188976
 20
-1.770157480314961
 10
-6.878610236220473
 20
-1.763224409448819
 10
-6.871830708661418
 20
-1.755692913385827
 10
-6.865956692913386
 20
-1.747787401574803
 10
-6.860988188976378
 20
-1.739515748031496
 10
-6.856925196850394
 20
-1.730870078740157
 10
-6.853763779527559
 20
-1.721854330708661
 10
-6.851507874015748
 20
-1.712468503937008
 10
-6.850153543307087
 20
-1.702712598425197
 10
-6.849700787401575
 20
-1.692582677165354
 10
-6.850145669291338
 20
-1.682507874015748
 10
-6.85148031496063
 20
-1.672858267716535
 10
-6.853704724409448
 20
-1.663629921259842
 10
-6.856818897637795
 20
-1.654830708661417
 10
-6.860826771653543
 20
-1.646456692913386
 10
-6.865720472440945
 20
-1.638507874015748
 10
-6.871503937007874
 20
-1.630984251968504
 10
-6.878181102362205
 20
-1.623885826771654
 10
-6.881594488188976
 20
-1.620732283464567
 10
-6.885141732283465
 20
-1.617744094488189
 10
-6.888826771653544
 20
-1.614929133858268
 10
-6.892641732283464
 20
-1.612279527559055
 10
-6.896594488188977
 20
-1.609799212598425
 10
-6.900685039370079
 20
-1.607488188976378
 10
-6.904905511811023
 20
-1.605342519685039
 10
-6.909263779527559
 20
-1.603366141732284
 10
-6.913708661417322
 20
-1.601594488188976
 10
-6.918192913385827
 20
-1.600062992125984
 10
-6.922716535433071
 20
-1.598763779527559
 10
-6.927275590551181
 20
-1.597700787401575
 10
-6.931874015748032
 20
-1.596874015748031
 10
-6.936507874015748
 20
-1.596283464566929
 10
-6.941173228346456
 20
-1.595929133858268
 10
-6.945877952755906
 20
-1.595811023622047
 10
-6.950677165354331
 20
-1.595917322834646
 10
-6.955566929133858
 20
-1.596244094488189
 10
-6.960555118110237
 20
-1.596783464566929
 10
-6.96563779527559
 20
-1.59753937007874
 10
-6.976098425196851
 20
-1.599696850393701
 10
-6.986956692913386
 20
-1.602716535433071
  0
LWPOLYLINE
  5
75
330
1F
100
AcDbEntity
  8
Layer 1
 62
     7
370
     9
100
AcDbPolyline
 90
        4
 70
     1
 43
0.0
 10
-6.654586614173228
 20
-1.526692913385827
 10
-6.654586614173228
 20
-1.696468503937008
 10
-6.766814960629921
 20
-1.696468503937008
 10
-6.654586614173228
 20
-1.526692913385827
  0
LWPOLYLINE
  5
76
330
1F
100
AcDbEntity
  8
Layer 1
 62
     7
370
     9
100
AcDbPolyline
 90
       11
 70
     1
 43
0.0
 10
-6.623082677165354
 20
-1.72757874015748
 10
-6.585952755905512
 20
-1.72757874015748
 10
-6.585952755905512
 20
-1.696468503937008
 10
-6.623082677165354
 20
-1.696468503937008
 10
-6.623511811023622
 20
-1.493850393700787
 10
-6.665807086614174
 20
-1.493850393700787
 10
-6.820338582677166
 20
-1.72757874015748
 10
-6.654586614173228
 20
-1.72757874015748
 10
-6.654586614173228
 20
-1.787625984251969
 10
-6.623082677165354
 20
-1.787625984251969
 10
-6.623082677165354
 20
-1.72757874015748
  0
LWPOLYLINE
  5
77
330
1F
100
AcDbEntity
  8
Layer 1
 62
     7
370
     9
100
AcDbPolyline
 90
      143
 70
     1
 43
0.0
 10
-6.29244094488189
 20
-1.786767716535433
 10
-6.262228346456693
 20
-1.786767716535433
 10
-6.262228346456693
 20
-1.66796062992126
 10
-6.262476377952756
 20
-1.660074803149606
 10
-6.263212598425197
 20
-1.652555118110236
 10
-6.264444881889764
 20
-1.645409448818898
 10
-6.266169291338582
 20
-1.638633858267716
 10
-6.26838188976378
 20
-1.632228346456693
 10
-6.271090551181103
 20
-1.626196850393701
 10
-6.274291338582677
 20
-1.620535433070866
 10
-6.277984251968504
 20
-1.615248031496063
 10
-6.282232283464567
 20
-1.610322834645669
 10
-6.286996062992126
 20
-1.605909448818898
 10
-6.292267716535433
 20
-1.602007874015748
 10
-6.29805905511811
 20
-1.598622047244094
 10
-6.3011968503937
 20
-1.597149606299213
 10
-6.30457874015748
 20
-1.595874015748032
 10
-6.308204724409449
 20
-1.594799212598425
 10
-6.312078740157481
 20
-1.593913385826772
 10
-6.316192913385827
 20
-1.593228346456693
 10
-6.320547244094488
 20
-1.592740157480315
 10
-6.325149606299212
 20
-1.592444881889764
 10
-6.329992125984252
 20
-1.592346456692913
 10
-6.334877952755906
 20
-1.592515748031496
 10
-6.339610236220472
 20
-1.593023622047244
 10
-6.344185039370079
 20
-1.593866141732283
 10
-6.348606299212598
 20
-1.595051181102362
 10
-6.352870078740158
 20
-1.596570866141732
 10
-6.35698031496063
 20
-1.598425196850394
 10
-6.360937007874016
 20
-1.600622047244094
 10
-6.364740157480315
 20
-1.603149606299213
 10
-6.368039370078741
 20
-1.605673228346457
 10
-6.371188976377953
 20
-1.608385826771654
 10
-6.374192913385826
 20
-1.611283464566929
 10
-6.377043307086614
 20
-1.614366141732283
 10
-6.379748031496063
 20
-1.617629921259843
 10
-6.382307086614174
 20
-1.621070866141732
 10
-6.384712598425197
 20
-1.624696850393701
 10
-6.386972440944882
 20
-1.628496062992126
 10
-6.39496062992126
 20
-1.615248031496063
 10
-6.399208661417322
 20
-1.610322834645669
 10
-6.403968503937008
 20
-1.605909448818898
 10
-6.409240157480315
 20
-1.602007874015748
 10
-6.415023622047245
 20
-1.598622047244094
 10
-6.418165354330709
 20
-1.597149606299213
 10
-6.421551181102362
 20
-1.595874015748032
 10
-6.425181102362204
 20
-1.594799212598425
 10
-6.429051181102362
 20
-1.593913385826772
 10
-6.433165354330709
 20
-1.593228346456693
 10
-6.437523622047244
 20
-1.592740157480315
 10
-6.442122047244094
 20
-1.592444881889764
 10
-6.446964566929134
 20
-1.592346456692913
 10
-6.451850393700788
 20
-1.592515748031496
 10
-6.456582677165354
 20
-1.593023622047244
 10
-6.461161417322835
 20
-1.593866141732283
 10
-6.465582677165354
 20
-1.595051181102362
 10
-6.469850393700788
 20
-1.596570866141732
 10
-6.473964566929133
 20
-1.598425196850394
 10
-6.477921259842519
 20
-1.600622047244094
 10
-6.481720472440945
 20
-1.603149606299213
 10
-6.48486220472441
 20
-1.605555118110236
 10
-6.487870078740158
 20
-1.608122047244094
 10
-6.490744094488189
 20
-1.610854330708661
 10
-6.493484251968504
 20
-1.613748031496063
 10
-6.496086614173229
 20
-1.616807086614173
 10
-6.498555118110236
 20
-1.620031496062992
 10
-6.500885826771653
 20
-1.623425196850394
 10
-6.503082677165354
 20
-1.626984251968504
 10
-6.503082677165354
 20
-1.596681102362205
 10
-6.533295275590551
 20
-1.596681102362205
 10
-6.533295275590551
 20
-1.786767716535433
 10
-6.503082677165354
 20
-1.786767716535433
 10
-6.503082677165354
 20
-1.68948031496063
 10
-6.50238188976378
 20
-1.683814960629921
 10
-6.501464566929134
 20
-1.678370078740157
 10
-6.500330708661417
 20
-1.673145669291339
 10
-6.498984251968504
 20
-1.66813779527559
 10
-6.497417322834646
 20
-1.663342519685039
 10
-6.495637795275591
 20
-1.658763779527559
 10
-6.493641732283464
 20
-1.654397637795276
 10
-6.491433070866142
 20
-1.650244094488189
 10
-6.489629921259843
 20
-1.647287401574803
 10
-6.487681102362204
 20
-1.644464566929134
 10
-6.485582677165354
 20
-1.641775590551181
 10
-6.483338582677165
 20
-1.639224409448819
 10
-6.480944881889764
 20
-1.636811023622047
 10
-6.47840157480315
 20
-1.634527559055118
 10
-6.475712598425197
 20
-1.63238188976378
 10
-6.472874015748031
 20
-1.630366141732283
 10
-6.469929133858268
 20
-1.628547244094488
 10
-6.466933070866141
 20
-1.626968503937008
 10
-6.46388188976378
 20
-1.625633858267717
 10
-6.460779527559055
 20
-1.62453937007874
 10
-6.457622047244095
 20
-1.623688976377953
 10
-6.454409448818898
 20
-1.623082677165354
 10
-6.451145669291338
 20
-1.622716535433071
 10
-6.447826771653543
 20
-1.622594488188976
 10
-6.441570866141732
 20
-1.622850393700787
 10
-6.436177165354331
 20
-1.623622047244095
 10
-6.431645669291338
 20
-1.62490157480315
 10
-6.427976377952756
 20
-1.626700787401575
 10
-6.423625984251968
 20
-1.62992125984252
 10
-6.419854330708661
 20
-1.633692913385827
 10
-6.416665354330709
 20
-1.63801968503937
 10
-6.414055118110237
 20
-1.64290157480315
 10
-6.412027559055118
 20
-1.648334645669291
 10
-6.410574803149606
 20
-1.654322834645669
 10
-6.409708661417323
 20
-1.660866141732283
 10
-6.409417322834646
 20
-1.66796062992126
 10
-6.409417322834646
 20
-1.786767716535433
 10
-6.379204724409449
 20
-1.786767716535433
 10
-6.379204724409449
 20
-1.66796062992126
 10
-6.379413385826772
 20
-1.660685039370079
 10
-6.374456692913386
 20
-1.650244094488189
 10
-6.372653543307087
 20
-1.647287401574803
 10
-6.370704724409449
 20
-1.644464566929134
 10
-6.368606299212598
 20
-1.641775590551181
 10
-6.366358267716535
 20
-1.639224409448819
 10
-6.363964566929134
 20
-1.636811023622047
 10
-6.36142125984252
 20
-1.634527559055118
 10
-6.358728346456693
 20
-1.63238188976378
 10
-6.355889763779528
 20
-1.630366141732283
 10
-6.352948818897638
 20
-1.628547244094488
 10
-6.349956692913386
 20
-1.626968503937008
 10
-6.346905511811023
 20
-1.625633858267717
 10
-6.343803149606299
 20
-1.62453937007874
 10
-6.340649606299213
 20
-1.623688976377953
 10
-6.337437007874016
 20
-1.623082677165354
 10
-6.334173228346457
 20
-1.622716535433071
 10
-6.330854330708662
 20
-1.622594488188976
 10
-6.324594488188977
 20
-1.622850393700787
 10
-6.319196850393701
 20
-1.623622047244095
 10
-6.314665354330709
 20
-1.62490157480315
 10
-6.310992125984252
 20
-1.626700787401575
 10
-6.306645669291338
 20
-1.62992125984252
 10
-6.302877952755906
 20
-1.633692913385827
 10
-6.299692913385827
 20
-1.63801968503937
 10
-6.297082677165355
 20
-1.64290157480315
 10
-6.295051181102362
 20
-1.648334645669291
 10
-6.293602362204725
 20
-1.654322834645669
 10
-6.292732283464567
 20
-1.660866141732283
 10
-6.29244094488189
 20
-1.66796062992126
 10
-6.29244094488189
 20
-1.786767716535433
  0
LWPOLYLINE
  5
78
330
1F
100
AcDbEntity
  8
Layer 1
 62
     7
370
     9
100
AcDbPolyline
 90
      143
 70
     1
 43
0.0
 10
-5.963094488188976
 20
-1.786767716535433
 10
-5.932881889763779
 20
-1.786767716535433
 10
-5.932881889763779
 20
-1.66796062992126
 10
-5.933125984251968
 20
-1.660074803149606
 10
-5.933866141732284
 20
-1.652555118110236
 10
-5.93509842519685
 20
-1.645409448818898
 10
-5.936818897637795
 20
-1.638633858267716
 10
-5.939035433070866
 20
-1.632228346456693
 10
-5.941744094488189
 20
-1.626196850393701
 10
-5.944944881889763
 20
-1.620535433070866
 10
-5.948637795275591
 20
-1.615248031496063
 10
-5.952885826771653
 20
-1.610322834645669
 10
-5.957645669291338
 20
-1.605909448818898
 10
-5.96292125984252
 20
-1.602007874015748
 10
-5.968708661417323
 20
-1.598622047244094
 10
-5.971850393700787
 20
-1.597149606299213
 10
-5.975232283464567
 20
-1.595874015748032
 10
-5.978862204724409
 20
-1.594799212598425
 10
-5.982732283464567
 20
-1.593913385826772
 10
-5.986842519685039
 20
-1.593228346456693
 10
-5.991200787401575
 20
-1.592740157480315
 10
-5.995799212598425
 20
-1.592444881889764
 10
-6.000641732283465
 20
-1.592346456692913
 10
-6.005527559055118
 20
-1.592515748031496
 10
-6.010259842519685
 20
-1.593023622047244
 10
-6.014838582677165
 20
-1.593866141732283
 10
-6.019255905511811
 20
-1.595051181102362
 10
-6.023523622047244
 20
-1.596570866141732
 10
-6.027633858267716
 20
-1.598425196850394
 10
-6.031590551181102
 20
-1.600622047244094
 10
-6.035389763779528
 20
-1.603149606299213
 10
-6.038688976377952
 20
-1.605673228346457
 10
-6.041838582677165
 20
-1.608385826771654
 10
-6.044842519685039
 20
-1.611283464566929
 10
-6.047696850393701
 20
-1.614366141732283
 10
-6.05040157480315
 20
-1.617629921259843
 10
-6.052956692913386
 20
-1.621070866141732
 10
-6.05536220472441
 20
-1.624696850393701
 10
-6.057622047244094
 20
-1.628496062992126
 10
-6.065610236220472
 20
-1.615248031496063
 10
-6.069858267716535
 20
-1.610322834645669
 10
-6.07461811023622
 20
-1.605909448818898
 10
-6.079893700787402
 20
-1.602007874015748
 10
-6.085681102362205
 20
-1.598622047244094
 10
-6.088822834645669
 20
-1.597149606299213
 10
-6.092208661417323
 20
-1.595874015748032
 10
-6.095834645669291
 20
-1.594799212598425
 10
-6.099708661417323
 20
-1.593913385826772
 10
-6.103818897637796
 20
-1.593228346456693
 10
-6.108177165354331
 20
-1.592740157480315
 10
-6.112775590551181
 20
-1.592444881889764
 10
-6.11761811023622
 20
-1.592346456692913
 10
-6.122503937007874
 20
-1.592515748031496
 10
-6.127236220472441
 20
-1.593023622047244
 10
-6.131814960629921
 20
-1.593866141732283
 10
-6.136236220472441
 20
-1.595051181102362
 10
-6.140503937007874
 20
-1.596570866141732
 10
-6.144614173228346
 20
-1.598425196850394
 10
-6.148570866141732
 20
-1.600622047244094
 10
-6.152374015748031
 20
-1.603149606299213
 10
-6.155515748031496
 20
-1.605555118110236
 10
-6.158523622047244
 20
-1.608122047244094
 10
-6.161393700787402
 20
-1.610854330708661
 10
-6.164133858267716
 20
-1.613748031496063
 10
-6.166736220472441
 20
-1.616807086614173
 10
-6.169204724409449
 20
-1.620031496062992
 10
-6.17153937007874
 20
-1.623425196850394
 10
-6.173736220472441
 20
-1.626984251968504
 10
-6.173736220472441
 20
-1.596681102362205
 10
-6.203948818897638
 20
-1.596681102362205
 10
-6.203948818897638
 20
-1.786767716535433
 10
-6.173736220472441
 20
-1.786767716535433
 10
-6.173736220472441
 20
-1.68948031496063
 10
-6.173035433070866
 20
-1.683814960629921
 10
-6.172114173228347
 20
-1.678370078740157
 10
-6.170984251968504
 20
-1.673145669291339
 10
-6.169633858267717
 20
-1.66813779527559
 10
-6.168070866141733
 20
-1.663342519685039
 10
-6.166291338582677
 20
-1.658763779527559
 10
-6.164295275590551
 20
-1.654397637795276
 10
-6.162082677165355
 20
-1.650244094488189
 10
-6.160279527559055
 20
-1.647287401574803
 10
-6.158330708661417
 20
-1.644464566929134
 10
-6.156236220472441
 20
-1.641775590551181
 10
-6.153988188976378
 20
-1.639224409448819
 10
-6.151594488188977
 20
-1.636811023622047
 10
-6.149051181102362
 20
-1.634527559055118
 10
-6.14636220472441
 20
-1.63238188976378
 10
-6.143523622047244
 20
-1.630366141732283
 10
-6.140582677165354
 20
-1.628547244094488
 10
-6.137586614173228
 20
-1.626968503937008
 10
-6.134535433070866
 20
-1.625633858267717
 10
-6.131433070866142
 20
-1.62453937007874
 10
-6.128275590551181
 20
-1.623688976377953
 10
-6.125062992125984
 20
-1.623082677165354
 10
-6.121799212598425
 20
-1.622716535433071
 10
-6.11848031496063
 20
-1.622594488188976
 10
-6.112224409448819
 20
-1.622850393700787
 10
-6.106830708661417
 20
-1.623622047244095
 10
-6.102295275590551
 20
-1.62490157480315
 10
-6.098625984251968
 20
-1.626700787401575
 10
-6.094279527559055
 20
-1.62992125984252
 10
-6.090507874015748
 20
-1.633692913385827
 10
-6.087318897637795
 20
-1.63801968503937
 10
-6.084708661417323
 20
-1.64290157480315
 10
-6.082677165354331
 20
-1.648334645669291
 10
-6.081228346456693
 20
-1.654322834645669
 10
-6.080358267716536
 20
-1.660866141732283
 10
-6.080066929133858
 20
-1.66796062992126
 10
-6.080066929133858
 20
-1.786767716535433
 10
-6.049854330708661
 20
-1.786767716535433
 10
-6.049854330708661
 20
-1.66796062992126
 10
-6.050066929133858
 20
-1.660685039370079
 10
-6.045110236220473
 20
-1.650244094488189
 10
-6.043307086614173
 20
-1.647287401574803
 10
-6.041358267716536
 20
-1.644464566929134
 10
-6.039259842519685
 20
-1.641775590551181
 10
-6.037011811023622
 20
-1.639224409448819
 10
-6.034614173228347
 20
-1.636811023622047
 10
-6.032070866141733
 20
-1.634527559055118
 10
-6.029377952755905
 20
-1.63238188976378
 10
-6.02653937007874
 20
-1.630366141732283
 10
-6.02359842519685
 20
-1.628547244094488
 10
-6.020606299212599
 20
-1.626968503937008
 10
-6.01755905511811
 20
-1.625633858267717
 10
-6.014456692913386
 20
-1.62453937007874
 10
-6.011299212598425
 20
-1.623688976377953
 10
-6.008090551181103
 20
-1.623082677165354
 10
-6.004822834645669
 20
-1.622716535433071
 10
-6.001503937007874
 20
-1.622594488188976
 10
-5.995244094488189
 20
-1.622850393700787
 10
-5.989850393700787
 20
-1.623622047244095
 10
-5.985318897637796
 20
-1.62490157480315
 10
-5.981645669291338
 20
-1.626700787401575
 10
-5.977299212598425
 20
-1.62992125984252
 10
-5.973531496062992
 20
-1.633692913385827
 10
-5.970346456692913
 20
-1.63801968503937
 10
-5.967736220472441
 20
-1.64290157480315
 10
-5.965704724409449
 20
-1.648334645669291
 10
-5.964255905511811
 20
-1.654322834645669
 10
-5.963385826771654
 20
-1.660866141732283
 10
-5.963094488188976
 20
-1.66796062992126
 10
-5.963094488188976
 20
-1.786767716535433
  0
LWPOLYLINE
  5
79
330
1F
100
AcDbEntity
  8
Layer 1
 62
     7
370
    18
100
AcDbPolyline
 90
        4
 70
     1
 43
0.0
 10
-10.20252362204724
 20
0.1697125984251968
 10
-10.17403149606299
 20
0.2081377952755906
 10
-10.22173622047244
 20
0.2116338582677165
 10
-10.20252362204724
 20
0.1697125984251968
  0
LWPOLYLINE
  5
7A
330
1F
100
AcDbEntity
  8
Layer 1
 62
     7
370
    18
100
AcDbPolyline
 90
        4
 70
     1
 43
0.0
 10
-12.64736614173228
 20
-0.950767716535433
 10
-12.69507480314961
 20
-0.9472716535433071
 10
-12.66657480314961
 20
-0.9088503937007874
 10
-12.64736614173228
 20
-0.950767716535433
  0
LWPOLYLINE
  5
7B
330
1F
100
AcDbEntity
  8
Layer 1
 62
     7
370
    18
100
AcDbPolyline
 90
        2
 70
     0
 43
0.0
 10
-10.17403149606299
 20
0.2081377952755906
 10
-12.69507480314961
 20
-0.9472716535433071
  0
LWPOLYLINE
  5
7C
330
1F
100
AcDbEntity
  8
Layer 1
 62
     7
370
     9
100
AcDbPolyline
 90
        7
 70
     1
 43
0.0
 10
-12.47324409448819
 20
-0.0903937007874016
 10
-12.44301968503937
 20
-0.0903937007874016
 10
-12.44301968503937
 20
0.2068385826771653
 10
-12.51553937007874
 20
0.1990590551181102
 10
-12.51553937007874
 20
0.1727047244094488
 10
-12.47324409448819
 20
0.1727047244094488
 10
-12.47324409448819
 20
-0.0903937007874016
  0
LWPOLYLINE
  5
7D
330
1F
100
AcDbEntity
  8
Layer 1
 62
     7
370
     9
100
AcDbPolyline
 90
        7
 70
     1
 43
0.0
 10
-12.34936220472441
 20
-0.0903937007874016
 10
-12.31914173228346
 20
-0.0903937007874016
 10
-12.31914173228346
 20
0.2068385826771653
 10
-12.39165748031496
 20
0.1990590551181102
 10
-12.39165748031496
 20
0.1727047244094488
 10
-12.34936220472441
 20
0.1727047244094488
 10
-12.34936220472441
 20
-0.0903937007874016
  0
LWPOLYLINE
  5
7E
330
1F
100
AcDbEntity
  8
Layer 1
 62
     7
370
     9
100
AcDbPolyline
 90
       65
 70
     1
 43
0.0
 10
-12.17950393700787
 20
0.0431062992125984
 10
-12.18638976377953
 20
0.0434212598425197
 10
-12.19301968503937
 20
0.0443740157480315
 10
-12.1993937007874
 20
0.0459606299212598
 10
-12.20551181102362
 20
0.0481771653543307
 10
-12.21137401574803
 20
0.0510314960629921
 10
-12.21698031496063
 20
0.0545236220472441
 10
-12.22233070866142
 20
0.0586456692913386
 10
-12.22742125984252
 20
0.0634055118110236
 10
-12.23202362204724
 20
0.0685511811023622
 10
-12.23601181102362
 20
0.0739370078740157
 10
-12.23938976377953
 20
0.0795669291338583
 10
-12.24214960629921
 20
0.0854409448818898
 10
-12.24429921259843
 20
0.0915551181102362
 10
-12.24583464566929
 20
0.0979133858267717
 10
-12.24675590551181
 20
0.104511811023622
 10
-12.24706299212598
 20
0.1113543307086614
 10
-12.24675196850394
 20
0.1180472440944882
 10
-12.24582283464567
 20
0.124511811023622
 10
-12.24426771653543
 20
0.130744094488189
 10
-12.24209842519685
 20
0.136744094488189
 10
-12.2393031496063
 20
0.1425157480314961
 10
-12.23588976377953
 20
0.1480551181102362
 10
-12.23185433070866
 20
0.1533661417322835
 10
-12.22720078740157
 20
0.1584488188976378
 10
-12.22220472440945
 20
0.163007874015748
 10
-12.21692519685039
 20
0.1669566929133858
 10
-12.21136220472441
 20
0.1702992125984252
 10
-12.2055157480315
 20
0.1730314960629921
 10
-12.19938582677165
 20
0.1751574803149606
 10
-12.19296850393701
 20
0.1766771653543307
 10
-12.18627165354331
 20
0.1775866141732284
 10
-12.17929133858268
 20
0.1778897637795276
 10
-12.17244488188976
 20
0.1775748031496063
 10
-12.16582677165354
 20
0.1766338582677165
 10
-12.15944094488189
 20
0.1750629921259843
 10
-12.15328346456693
 20
0.1728661417322835
 10
-12.14735433070866
 20
0.1700433070866142
 10
-12.14165748031496
 20
0.1665905511811024
 10
-12.13618897637795
 20
0.162507874015748
 10
-12.13094881889764
 20
0.1577992125984252
 10
-12.12619291338583
 20
0.1527047244094488
 10
-12.12207086614173
 20
0.1473622047244094
 10
-12.11858267716535
 20
0.1417716535433071
 10
-12.11573228346457
 20
0.1359291338582677
 10
-12.11351181102362
 20
0.1298385826771654
 10
-12.11192519685039
 20
0.123496062992126
 10
-12.11097637795276
 20
0.1169055118110236
 10
-12.11065748031496
 20
0.1100629921259842
 10
-12.11097637795276
 20
0.1034212598425197
 10
-12.11194094488189
 20
0.096996062992126
 10
-12.11353937007874
 20
0.0907874015748032
 10
-12.11578346456693
 20
0.0847913385826772
 10
-12.11866535433071
 20
0.079011811023622
 10
-12.12219291338583
 20
0.0734488188976378
 10
-12.12635433070866
 20
0.0681023622047244
 10
-12.13116141732283
 20
0.0629763779527559
 10
-12.13600787401575
 20
0.0586692913385827
 10
-12.14125590551181
 20
0.0548228346456693
 10
-12.14690157480315
 20
0.0514330708661417
 10
-12.15295275590551
 20
0.048503937007874
 10
-12.15930708661417
 20
0.0461417322834646
 10
-12.16585039370079
 20
0.0444527559055118
 10
-12.17258267716536
 20
0.0434448818897638
 10
-12.17950393700787
 20
0.0431062992125984
  0
LWPOLYLINE
  5
7F
330
1F
100
AcDbEntity
  8
Layer 1
 62
     7
370
     9
100
AcDbPolyline
 90
       69
 70
     1
 43
0.0
 10
-12.27770472440945
 20
0.1092007874015748
 10
-12.27723228346457
 20
0.0987992125984252
 10
-12.27581496062992
 20
0.0888700787401575
 10
-12.27345669291339
 20
0.0794133858267717
 10
-12.27014960629921
 20
0.0704291338582677
 10
-12.26590157480315
 20
0.0619173228346457
 10
-12.26070866141732
 20
0.0538779527559055
 10
-12.25457086614173
 20
0.0463070866141732
 10
-12.24749212598425
 20
0.0392125984251969
 10
-12.24025196850394
 20
0.0332362204724409
 10
-12.23250787401575
 20
0.027996062992126
 10
-12.22425590551181
 20
0.023492125984252
 10
-12.21549606299213
 20
0.0197204724409449
 10
-12.20623228346457
 20
0.0166850393700787
 10
-12.19646456692913
 20
0.0143897637795276
 10
-12.18618897637795
 20
0.0128228346456693
 10
-12.1754094488189
 20
0.011996062992126
 10
-12.16676771653543
 20
0.0176102362204724
 10
-12.25655511811024
 20
-0.0903937007874016
 10
-12.21684251968504
 20
-0.0903937007874016
 10
-12.10203149606299
 20
0.0482834645669291
 10
-12.09687007874016
 20
0.0550393700787402
 10
-12.0923937007874
 20
0.0620669291338583
 10
-12.08861023622047
 20
0.0693740157480315
 10
-12.08551181102362
 20
0.0769606299212598
 10
-12.08310236220473
 20
0.0848228346456693
 10
-12.08138582677165
 20
0.0929566929133858
 10
-12.08035039370079
 20
0.1013740157480315
 10
-12.08000787401575
 20
0.1100629921259842
 10
-12.08046062992126
 20
0.1200787401574803
 10
-12.08181496062992
 20
0.1297047244094488
 10
-12.08407480314961
 20
0.1389488188976378
 10
-12.08724015748031
 20
0.1478110236220472
 10
-12.09131102362205
 20
0.1562874015748031
 10
-12.09628346456693
 20
0.1643740157480315
 10
-12.10215748031496
 20
0.1720826771653543
 10
-12.10893700787402
 20
0.1794015748031496
 10
-12.11640157480315
 20
0.1861338582677165
 10
-12.12423228346457
 20
0.1919724409448819
 10
-12.13242519685039
 20
0.1969094488188976
 10
-12.1409842519685
 20
0.2009488188976378
 10
-12.14990551181102
 20
0.2040905511811024
 10
-12.15919291338583
 20
0.2063346456692913
 10
-12.16884645669291
 20
0.2076811023622047
 10
-12.17886220472441
 20
0.2081299212598425
 10
-12.1890157480315
 20
0.2076850393700787
 10
-12.19876771653543
 20
0.2063503937007874
 10
-12.20811811023622
 20
0.2041220472440945
 10
-12.21705905511811
 20
0.201003937007874
 10
-12.22559842519685
 20
0.196996062992126
 10
-12.23373228346457
 20
0.1920944881889764
 10
-12.24146456692913
 20
0.1863031496062992
 10
-12.2487874015748
 20
0.1796220472440945
 10
-12.25204330708661
 20
0.1762047244094488
 10
-12.25512204724409
 20
0.1726535433070866
 10
-12.25802755905512
 20
0.1689645669291339
 10
-12.26075984251968
 20
0.1651456692913386
 10
-12.26331496062992
 20
0.1611889763779528
 10
-12.2656968503937
 20
0.1570984251968504
 10
-12.26790157480315
 20
0.1528740157480315
 10
-12.26992913385827
 20
0.148511811023622
 10
-12.27175196850394
 20
0.1440236220472441
 10
-12.27333070866142
 20
0.1394133858267717
 10
-12.27466929133858
 20
0.1346811023622047
 10
-12.27575984251968
 20
0.1298267716535433
 10
-12.27661023622047
 20
0.1248543307086614
 10
-12.27722047244094
 20
0.119759842519685
 10
-12.27758267716535
 20
0.1145393700787402
 10
-12.27770472440945
 20
0.1092007874015748
  0
LWPOLYLINE
  5
80
330
1F
100
AcDbEntity
  8
Layer 1
 62
     7
370
     9
100
AcDbPolyline
 90
      143
 70
     1
 43
0.0
 10
-11.79512598425197
 20
-0.0895314960629921
 10
-11.76491338582677
 20
-0.0895314960629921
 10
-11.76491338582677
 20
0.0292755905511811
 10
-11.76515748031496
 20
0.0371614173228346
 10
-11.76589763779528
 20
0.0446811023622047
 10
-11.76712992125984
 20
0.0518267716535433
 10
-11.76885039370079
 20
0.0586023622047244
 10
-11.77106692913386
 20
0.065003937007874
 10
-11.77377559055118
 20
0.0710354330708661
 10
-11.77697637795276
 20
0.0766968503937008
 10
-11.78066929133858
 20
0.0819842519685039
 10
-11.78491732283465
 20
0.0869094488188976
 10
-11.78967716535433
 20
0.0913267716535433
 10
-11.79495275590551
 20
0.0952283464566929
 10
-11.80074015748031
 20
0.0986102362204724
 10
-11.80388188976378
 20
0.1000826771653543
 10
-11.80726771653543
 20
0.1013582677165354
 10
-11.8108937007874
 20
0.1024370078740157
 10
-11.81476377952756
 20
0.1033188976377953
 10
-11.8188779527559
 20
0.104003937007874
 10
-11.82323228346457
 20
0.104496062992126
 10
-11.82783464566929
 20
0.1047874015748032
 10
-11.83267716535433
 20
0.1048858267716535
 10
-11.83756299212599
 20
0.1047165354330709
 10
-11.84229527559055
 20
0.1042086614173228
 10
-11.84687007874016
 20
0.1033661417322835
 10
-11.85129133858268
 20
0.1021811023622047
 10
-11.85555511811024
 20
0.1006614173228347
 10
-11.85966535433071
 20
0.0988070866141732
 10
-11.86362204724409
 20
0.0966141732283465
 10
-11.86742125984252
 20
0.0940866141732283
 10
-11.87072047244095
 20
0.0915629921259842
 10
-11.87387007874016
 20
0.0888503937007874
 10
-11.87687401574803
 20
0.0859527559055118
 10
-11.87972834645669
 20
0.0828700787401575
 10
-11.88243307086614
 20
0.0796062992125984
 10
-11.88498818897638
 20
0.0761653543307087
 10
-11.88739763779528
 20
0.0725393700787402
 10
-11.88965748031496
 20
0.068740157480315
 10
-11.89764566929134
 20
0.0819842519685039
 10
-11.9018937007874
 20
0.0869094488188976
 10
-11.90665354330709
 20
0.0913267716535433
 10
-11.91192519685039
 20
0.0952283464566929
 10
-11.91771653543307
 20
0.0986102362204724
 10
-11.92085826771654
 20
0.1000826771653543
 10
-11.92424409448819
 20
0.1013582677165354
 10
-11.92787007874016
 20
0.1024370078740157
 10
-11.93174015748031
 20
0.1033188976377953
 10
-11.93585433070866
 20
0.104003937007874
 10
-11.94020866141732
 20
0.104496062992126
 10
-11.94480708661417
 20
0.1047874015748032
 10
-11.94964960629921
 20
0.1048858267716535
 10
-11.95453543307087
 20
0.1047165354330709
 10
-11.95926771653543
 20
0.1042086614173228
 10
-11.96384645669291
 20
0.1033661417322835
 10
-11.96826771653543
 20
0.1021811023622047
 10
-11.97253543307087
 20
0.1006614173228347
 10
-11.97664566929134
 20
0.0988070866141732
 10
-11.98060236220472
 20
0.0966141732283465
 10
-11.98440551181102
 20
0.0940866141732283
 10
-11.98754724409449
 20
0.0916811023622047
 10
-11.99055511811024
 20
0.0891141732283465
 10
-11.99342913385827
 20
0.0863818897637795
 10
-11.99616535433071
 20
0.083488188976378
 10
-11.99876771653543
 20
0.0804291338582677
 10
-12.00123622047244
 20
0.0772007874015748
 10
-12.00357086614173
 20
0.0738070866141732
 10
-12.00576771653543
 20
0.070248031496063
 10
-12.00576771653543
 20
0.1005551181102362
 10
-12.03598818897638
 20
0.1005551181102362
 10
-12.03598818897638
 20
-0.0895314960629921
 10
-12.00576771653543
 20
-0.0895314960629921
 10
-12.00576771653543
 20
0.007755905511811
 10
-12.00506692913386
 20
0.0134212598425197
 10
-12.00414960629921
 20
0.0188622047244094
 10
-12.0030157480315
 20
0.0240866141732283
 10
-12.00166535433071
 20
0.0290984251968504
 10
-12.00010236220472
 20
0.0338897637795276
 10
-11.99832283464567
 20
0.0384685039370079
 10
-11.99632677165354
 20
0.0428346456692913
 10
-11.99411417322835
 20
0.046992125984252
 10
-11.99231102362205
 20
0.0499488188976378
 10
-11.99036220472441
 20
0.0527716535433071
 10
-11.98826771653543
 20
0.0554606299212598
 10
-11.98601968503937
 20
0.058011811023622
 10
-11.98362598425197
 20
0.0604251968503937
 10
-11.98108267716535
 20
0.0627086614173228
 10
-11.9783937007874
 20
0.0648543307086614
 10
-11.97555511811024
 20
0.0668700787401575
 10
-11.97261417322835
 20
0.0686889763779528
 10
-11.96961811023622
 20
0.0702677165354331
 10
-11.96656692913386
 20
0.0716023622047244
 10
-11.96346456692913
 20
0.0726968503937008
 10
-11.96030708661417
 20
0.0735433070866142
 10
-11.95709448818898
 20
0.0741535433070866
 10
-11.95383070866142
 20
0.0745157480314961
 10
-11.95051181102362
 20
0.0746377952755906
 10
-11.94425590551181
 20
0.0743818897637795
 10
-11.93886220472441
 20
0.0736141732283465
 10
-11.93432677165354
 20
0.0723307086614173
 10
-11.93065748031496
 20
0.0705354330708661
 10
-11.92631102362205
 20
0.0673149606299213
 10
-11.92253937007874
 20
0.0635393700787402
 10
-11.91935039370079
 20
0.0592125984251968
 10
-11.91674015748032
 20
0.0543346456692913
 10
-11.91470866141732
 20
0.0488976377952756
 10
-11.91325984251968
 20
0.0429133858267717
 10
-11.91238976377953
 20
0.0363700787401575
 10
-11.91209842519685
 20
0.0292755905511811
 10
-11.91209842519685
 20
-0.0895314960629921
 10
-11.88188582677165
 20
-0.0895314960629921
 10
-11.88188582677165
 20
0.0292755905511811
 10
-11.88209842519685
 20
0.0365472440944882
 10
-11.87714173228346
 20
0.046992125984252
 10
-11.87533858267716
 20
0.0499488188976378
 10
-11.87338976377953
 20
0.0527716535433071
 10
-11.87129133858268
 20
0.0554606299212598
 10
-11.86904330708661
 20
0.058011811023622
 10
-11.86664960629921
 20
0.0604251968503937
 10
-11.8641062992126
 20
0.0627086614173228
 10
-11.86141338582677
 20
0.0648543307086614
 10
-11.85857480314961
 20
0.0668700787401575
 10
-11.85563385826772
 20
0.0686889763779528
 10
-11.85263779527559
 20
0.0702677165354331
 10
-11.8495905511811
 20
0.0716023622047244
 10
-11.84648818897638
 20
0.0726968503937008
 10
-11.84333070866142
 20
0.0735433070866142
 10
-11.84012204724409
 20
0.0741535433070866
 10
-11.83685433070866
 20
0.0745157480314961
 10
-11.83353543307087
 20
0.0746377952755906
 10
-11.82727559055118
 20
0.0743818897637795
 10
-11.82188188976378
 20
0.0736141732283465
 10
-11.81735433070866
 20
0.0723307086614173
 10
-11.81368503937008
 20
0.0705354330708661
 10
-11.80933858267717
 20
0.0673149606299213
 10
-11.80556692913386
 20
0.0635393700787402
 10
-11.80237795275591
 20
0.0592125984251968
 10
-11.79976771653543
 20
0.0543346456692913
 10
-11.79773622047244
 20
0.0488976377952756
 10
-11.7962874015748
 20
0.0429133858267717
 10
-11.79541732283464
 20
0.0363700787401575
 10
-11.79512598425197
 20
0.0292755905511811
 10
-11.79512598425197
 20
-0.0895314960629921
  0
LWPOLYLINE
  5
81
330
1F
100
AcDbEntity
  8
Layer 1
 62
     7
370
     9
100
AcDbPolyline
 90
      143
 70
     1
 43
0.0
 10
-11.46577952755906
 20
-0.0895314960629921
 10
-11.43556692913386
 20
-0.0895314960629921
 10
-11.43556692913386
 20
0.0292755905511811
 10
-11.43581102362205
 20
0.0371614173228346
 10
-11.43655118110236
 20
0.0446811023622047
 10
-11.43778346456693
 20
0.0518267716535433
 10
-11.43950393700787
 20
0.0586023622047244
 10
-11.44172047244095
 20
0.065003937007874
 10
-11.44442913385827
 20
0.0710354330708661
 10
-11.44762992125984
 20
0.0766968503937008
 10
-11.45132283464567
 20
0.0819842519685039
 10
-11.45557086614173
 20
0.0869094488188976
 10
-11.46033070866142
 20
0.0913267716535433
 10
-11.4656062992126
 20
0.0952283464566929
 10
-11.4713937007874
 20
0.0986102362204724
 10
-11.47453543307087
 20
0.1000826771653543
 10
-11.47791732283465
 20
0.1013582677165354
 10
-11.48154724409449
 20
0.1024370078740157
 10
-11.48541732283465
 20
0.1033188976377953
 10
-11.48952755905512
 20
0.104003937007874
 10
-11.49388582677165
 20
0.104496062992126
 10
-11.4984842519685
 20
0.1047874015748032
 10
-11.50332677165354
 20
0.1048858267716535
 10
-11.5082125984252
 20
0.1047165354330709
 10
-11.51294488188976
 20
0.1042086614173228
 10
-11.51752362204724
 20
0.1033661417322835
 10
-11.52194094488189
 20
0.1021811023622047
 10
-11.52620866141732
 20
0.1006614173228347
 10
-11.53031889763779
 20
0.0988070866141732
 10
-11.53427559055118
 20
0.0966141732283465
 10
-11.53807480314961
 20
0.0940866141732283
 10
-11.54137401574803
 20
0.0915629921259842
 10
-11.54452362204724
 20
0.0888503937007874
 10
-11.54752755905512
 20
0.0859527559055118
 10
-11.55037795275591
 20
0.0828700787401575
 10
-11.55308267716535
 20
0.0796062992125984
 10
-11.55564173228346
 20
0.0761653543307087
 10
-11.55804724409449
 20
0.0725393700787402
 10
-11.56030708661417
 20
0.068740157480315
 10
-11.56829527559055
 20
0.0819842519685039
 10
-11.57254330708661
 20
0.0869094488188976
 10
-11.5773031496063
 20
0.0913267716535433
 10
-11.58257874015748
 20
0.0952283464566929
 10
-11.58836614173228
 20
0.0986102362204724
 10
-11.59151181102362
 20
0.1000826771653543
 10
-11.59489763779528
 20
0.1013582677165354
 10
-11.59852362204724
 20
0.1024370078740157
 10
-11.6023937007874
 20
0.1033188976377953
 10
-11.60650393700787
 20
0.104003937007874
 10
-11.61086220472441
 20
0.104496062992126
 10
-11.61546062992126
 20
0.1047874015748032
 10
-11.6203031496063
 20
0.1048858267716535
 10
-11.62518897637795
 20
0.1047165354330709
 10
-11.62992125984252
 20
0.1042086614173228
 10
-11.63449606299213
 20
0.1033661417322835
 10
-11.63892125984252
 20
0.1021811023622047
 10
-11.64318503937008
 20
0.1006614173228347
 10
-11.64729921259842
 20
0.0988070866141732
 10
-11.65125590551181
 20
0.0966141732283465
 10
-11.65505905511811
 20
0.0940866141732283
 10
-11.65820078740157
 20
0.0916811023622047
 10
-11.66120866141732
 20
0.0891141732283465
 10
-11.66407874015748
 20
0.0863818897637795
 10
-11.66681889763779
 20
0.083488188976378
 10
-11.66942125984252
 20
0.0804291338582677
 10
-11.67188976377953
 20
0.0772007874015748
 10
-11.67422440944882
 20
0.0738070866141732
 10
-11.67642125984252
 20
0.070248031496063
 10
-11.67642125984252
 20
0.1005551181102362
 10
-11.70664173228347
 20
0.1005551181102362
 10
-11.70664173228347
 20
-0.0895314960629921
 10
-11.67642125984252
 20
-0.0895314960629921
 10
-11.67642125984252
 20
0.007755905511811
 10
-11.67572047244095
 20
0.0134212598425197
 10
-11.67479921259842
 20
0.0188622047244094
 10
-11.67366929133858
 20
0.0240866141732283
 10
-11.6723188976378
 20
0.0290984251968504
 10
-11.67075590551181
 20
0.0338897637795276
 10
-11.66897637795276
 20
0.0384685039370079
 10
-11.66698031496063
 20
0.0428346456692913
 10
-11.66476771653543
 20
0.046992125984252
 10
-11.66296456692913
 20
0.0499488188976378
 10
-11.6610157480315
 20
0.0527716535433071
 10
-11.65892125984252
 20
0.0554606299212598
 10
-11.65667322834646
 20
0.058011811023622
 10
-11.65427952755905
 20
0.0604251968503937
 10
-11.65173622047244
 20
0.0627086614173228
 10
-11.64904724409449
 20
0.0648543307086614
 10
-11.64620866141732
 20
0.0668700787401575
 10
-11.64326377952756
 20
0.0686889763779528
 10
-11.64026771653543
 20
0.0702677165354331
 10
-11.63721653543307
 20
0.0716023622047244
 10
-11.63411417322835
 20
0.0726968503937008
 10
-11.63095669291339
 20
0.0735433070866142
 10
-11.62774803149606
 20
0.0741535433070866
 10
-11.62448031496063
 20
0.0745157480314961
 10
-11.62116141732283
 20
0.0746377952755906
 10
-11.61490551181102
 20
0.0743818897637795
 10
-11.60951181102362
 20
0.0736141732283465
 10
-11.60498031496063
 20
0.0723307086614173
 10
-11.60131102362205
 20
0.0705354330708661
 10
-11.59696456692913
 20
0.0673149606299213
 10
-11.59319291338583
 20
0.0635393700787402
 10
-11.59000393700787
 20
0.0592125984251968
 10
-11.5873937007874
 20
0.0543346456692913
 10
-11.58536220472441
 20
0.0488976377952756
 10
-11.58391338582677
 20
0.0429133858267717
 10
-11.58304330708661
 20
0.0363700787401575
 10
-11.58275196850394
 20
0.0292755905511811
 10
-11.58275196850394
 20
-0.0895314960629921
 10
-11.55253937007874
 20
-0.0895314960629921
 10
-11.55253937007874
 20
0.0292755905511811
 10
-11.55275196850394
 20
0.0365472440944882
 10
-11.54779527559055
 20
0.046992125984252
 10
-11.54599212598425
 20
0.0499488188976378
 10
-11.54403937007874
 20
0.0527716535433071
 10
-11.54194094488189
 20
0.0554606299212598
 10
-11.53969291338583
 20
0.058011811023622
 10
-11.53729921259843
 20
0.0604251968503937
 10
-11.53475590551181
 20
0.0627086614173228
 10
-11.53206299212598
 20
0.0648543307086614
 10
-11.52922440944882
 20
0.0668700787401575
 10
-11.52628346456693
 20
0.0686889763779528
 10
-11.52329133858268
 20
0.0702677165354331
 10
-11.52024015748031
 20
0.0716023622047244
 10
-11.51713779527559
 20
0.0726968503937008
 10
-11.5139842519685
 20
0.0735433070866142
 10
-11.51077165354331
 20
0.0741535433070866
 10
-11.50750787401575
 20
0.0745157480314961
 10
-11.50418897637795
 20
0.0746377952755906
 10
-11.49793307086614
 20
0.0743818897637795
 10
-11.49253937007874
 20
0.0736141732283465
 10
-11.48800787401575
 20
0.0723307086614173
 10
-11.48433858267717
 20
0.0705354330708661
 10
-11.47998818897638
 20
0.0673149606299213
 10
-11.47622047244094
 20
0.0635393700787402
 10
-11.47303149606299
 20
0.0592125984251968
 10
-11.47042125984252
 20
0.0543346456692913
 10
-11.46838976377953
 20
0.0488976377952756
 10
-11.46694094488189
 20
0.0429133858267717
 10
-11.46607086614173
 20
0.0363700787401575
 10
-11.46577952755906
 20
0.0292755905511811
 10
-11.46577952755906
 20
-0.0895314960629921
  0
LWPOLYLINE
  5
82
330
1F
100
AcDbEntity
  8
Layer 1
 62
     7
370
    18
100
AcDbPolyline
 90
        4
 70
     1
 43
0.0
 10
-10.08797244094488
 20
-5.194783464566929
 10
-10.04014960629921
 20
-5.193732283464567
 10
-10.06664173228346
 20
-5.153901574803149
 10
-10.08797244094488
 20
-5.194783464566929
  0
LWPOLYLINE
  5
83
330
1F
100
AcDbEntity
  8
Layer 1
 62
     7
370
    18
100
AcDbPolyline
 90
        4
 70
     1
 43
0.0
 10
-11.77787007874016
 20
-4.313027559055118
 10
-11.80436614173228
 20
-4.273200787401575
 10
-11.75653937007874
 20
-4.272145669291339
 10
-11.77787007874016
 20
-4.313027559055118
  0
LWPOLYLINE
  5
84
330
1F
100
AcDbEntity
  8
Layer 1
 62
     7
370
    18
100
AcDbPolyline
 90
        2
 70
     0
 43
0.0
 10
-10.04014960629921
 20
-5.193732283464567
 10
-11.80436614173228
 20
-4.273200787401575
  0
LWPOLYLINE
  5
85
330
1F
100
AcDbEntity
  8
Layer 1
 62
     7
370
     9
100
AcDbPolyline
 90
       65
 70
     1
 43
0.0
 10
-12.1420157480315
 20
-5.206921259842519
 10
-12.14890157480315
 20
-5.206606299212599
 10
-12.15553543307087
 20
-5.205653543307086
 10
-12.1619094488189
 20
-5.204066929133858
 10
-12.16802755905512
 20
-5.201846456692913
 10
-12.17388976377953
 20
-5.198992125984252
 10
-12.17949606299213
 20
-5.195503937007874
 10
-12.18484645669291
 20
-5.191377952755905
 10
-12.18993700787402
 20
-5.186614173228347
 10
-12.19453937007874
 20
-5.181468503937008
 10
-12.19852755905512
 20
-5.176082677165354
 10
-12.20190157480315
 20
-5.170456692913386
 10
-12.20466141732283
 20
-5.164582677165354
 10
-12.20680708661417
 20
-5.158468503937008
 10
-12.20834251968504
 20
-5.152110236220472
 10
-12.20925984251969
 20
-5.145511811023622
 10
-12.20956692913386
 20
-5.138665354330708
 10
-12.20925590551181
 20
-5.131976377952756
 10
-12.20832677165354
 20
-5.125515748031496
 10
-12.20677559055118
 20
-5.119283464566929
 10
-12.2046062992126
 20
-5.113283464566929
 10
-12.20181496062992
 20
-5.107511811023622
 10
-12.19840157480315
 20
-5.101968503937008
 10
-12.19437007874016
 20
-5.096657480314961
 10
-12.18971653543307
 20
-5.091570866141732
 10
-12.18472047244095
 20
-5.087011811023622
 10
-12.17944094488189
 20
-5.083066929133858
 10
-12.17387401574803
 20
-5.079724409448819
 10
-12.16802755905512
 20
-5.076996062992126
 10
-12.16189763779528
 20
-5.074870078740157
 10
-12.1554842519685
 20
-5.073354330708661
 10
-12.1487874015748
 20
-5.072444881889764
 10
-12.14180708661417
 20
-5.072141732283464
 10
-12.13495669291339
 20
-5.072456692913386
 10
-12.12833858267716
 20
-5.073397637795275
 10
-12.12195275590551
 20
-5.074964566929133
 10
-12.11579527559055
 20
-5.077161417322834
 10
-12.10986614173228
 20
-5.079984251968504
 10
-12.10416929133858
 20
-5.083437007874016
 10
-12.09870078740157
 20
-5.087515748031496
 10
-12.09346456692913
 20
-5.092228346456693
 10
-12.08870866141732
 20
-5.097322834645669
 10
-12.08458661417323
 20
-5.102665354330709
 10
-12.08109842519685
 20
-5.108255905511811
 10
-12.07824409448819
 20
-5.11409842519685
 10
-12.07602755905512
 20
-5.120188976377952
 10
-12.07444094488189
 20
-5.126531496062992
 10
-12.07348818897638
 20
-5.133122047244094
 10
-12.07317322834646
 20
-5.139964566929134
 10
-12.07349212598425
 20
-5.146606299212598
 10
-12.07445275590551
 20
-5.153027559055118
 10
-12.07605511811024
 20
-5.159240157480315
 10
-12.07829921259843
 20
-5.165232283464567
 10
-12.0811811023622
 20
-5.171011811023622
 10
-12.08470472440945
 20
-5.176574803149606
 10
-12.08887007874016
 20
-5.18192125984252
 10
-12.09367322834646
 20
-5.187051181102362
 10
-12.0985157480315
 20
-5.191358267716535
 10
-12.10375984251968
 20
-5.195204724409449
 10
-12.10941338582677
 20
-5.198594488188976
 10
-12.11546850393701
 20
-5.201527559055118
 10
-12.12182283464567
 20
-5.203889763779528
 10
-12.12836614173228
 20
-5.205574803149606
 10
-12.13509448818898
 20
-5.206582677165354
 10
-12.1420157480315
 20
-5.206921259842519
  0
LWPOLYLINE
  5
86
330
1F
100
AcDbEntity
  8
Layer 1
 62
     7
370
     9
100
AcDbPolyline
 90
       69
 70
     1
 43
0.0
 10
-12.24022047244094
 20
-5.140826771653543
 10
-12.23974803149606
 20
-5.151228346456693
 10
-12.23833070866142
 20
-5.16115748031496
 10
-12.23596850393701
 20
-5.170614173228347
 10
-12.23266535433071
 20
-5.179602362204724
 10
-12.22841338582677
 20
-5.188114173228347
 10
-12.22322047244094
 20
-5.196153543307086
 10
-12.21708267716535
 20
-5.203720472440945
 10
-12.21
 20
-5.210814960629921
 10
-12.20276377952756
 20
-5.216791338582677
 10
-12.19501968503937
 20
-5.222035433070866
 10
-12.18676771653543
 20
-5.22653937007874
 10
-12.17801181102362
 20
-5.230307086614173
 10
-12.16874803149606
 20
-5.233342519685039
 10
-12.15897637795276
 20
-5.235641732283464
 10
-12.14870078740157
 20
-5.237204724409449
 10
-12.13792125984252
 20
-5.238031496062992
 10
-12.12928346456693
 20
-5.232409448818897
 10
-12.21906692913386
 20
-5.340413385826771
 10
-12.17935433070866
 20
-5.340413385826771
 10
-12.06454330708661
 20
-5.201748031496063
 10
-12.05938188976378
 20
-5.194992125984252
 10
-12.05490551181102
 20
-5.187956692913386
 10
-12.05112204724409
 20
-5.180649606299212
 10
-12.04802362204724
 20
-5.173066929133858
 10
-12.04561417322835
 20
-5.165204724409449
 10
-12.04389763779528
 20
-5.157066929133858
 10
-12.04286220472441
 20
-5.148653543307087
 10
-12.04251968503937
 20
-5.139964566929134
 10
-12.04297244094488
 20
-5.129948818897637
 10
-12.04433070866142
 20
-5.120318897637795
 10
-12.0465905511811
 20
-5.111070866141732
 10
-12.04975590551181
 20
-5.102212598425197
 10
-12.05382283464567
 20
-5.093740157480315
 10
-12.05879527559055
 20
-5.085649606299213
 10
-12.06467322834646
 20
-5.077948818897638
 10
-12.07145275590551
 20
-5.070629921259843
 10
-12.07891732283464
 20
-5.063893700787402
 10
-12.08674409448819
 20
-5.05805905511811
 10
-12.09493700787402
 20
-5.053118110236221
 10
-12.10349606299213
 20
-5.049074803149606
 10
-12.11241732283465
 20
-5.045933070866142
 10
-12.12170472440945
 20
-5.043685039370079
 10
-12.13135826771654
 20
-5.042338582677165
 10
-12.14137401574803
 20
-5.041889763779528
 10
-12.15153149606299
 20
-5.042334645669292
 10
-12.16128346456693
 20
-5.043673228346456
 10
-12.17062992125984
 20
-5.04590157480315
 10
-12.17957086614173
 20
-5.049023622047244
 10
-12.18811023622047
 20
-5.053031496062992
 10
-12.19624409448819
 20
-5.057933070866142
 10
-12.20396850393701
 20
-5.063728346456693
 10
-12.21129133858268
 20
-5.070409448818897
 10
-12.21455118110236
 20
-5.073822834645669
 10
-12.21763385826772
 20
-5.077370078740158
 10
-12.22053937007874
 20
-5.081055118110236
 10
-12.22327165354331
 20
-5.084877952755906
 10
-12.22582677165354
 20
-5.088830708661417
 10
-12.22820866141732
 20
-5.09292125984252
 10
-12.23041338582677
 20
-5.097145669291338
 10
-12.23244094488189
 20
-5.101507874015748
 10
-12.23426377952756
 20
-5.105996062992126
 10
-12.23584251968504
 20
-5.110606299212598
 10
-12.23718110236221
 20
-5.115338582677166
 10
-12.23827559055118
 20
-5.120192913385827
 10
-12.23912598425197
 20
-5.125169291338582
 10
-12.23973228346457
 20
-5.130263779527559
 10
-12.24009842519685
 20
-5.135484251968504
 10
-12.24022047244094
 20
-5.140826771653543
  0
LWPOLYLINE
  5
87
330
1F
100
AcDbEntity
  8
Layer 1
 62
     7
370
     9
100
AcDbPolyline
 90
      128
 70
     1
 43
0.0
 10
-11.9536062992126
 20
-5.155511811023622
 10
-11.93374803149606
 20
-5.076885826771654
 10
-11.82756299212598
 20
-5.076885826771654
 10
-11.82756299212598
 20
-5.046645669291339
 10
-11.95662992125984
 20
-5.046645669291339
 10
-11.9902874015748
 20
-5.178413385826771
 10
-11.95749212598425
 20
-5.19309842519685
 10
-11.95273228346457
 20
-5.189858267716535
 10
-11.94773622047244
 20
-5.187051181102362
 10
-11.94250393700787
 20
-5.184673228346456
 10
-11.93703937007874
 20
-5.182732283464567
 10
-11.93133464566929
 20
-5.181220472440945
 10
-11.92539763779528
 20
-5.18013779527559
 10
-11.91922440944882
 20
-5.179492125984252
 10
-11.91281496062992
 20
-5.179275590551181
 10
-11.90636614173228
 20
-5.179594488188976
 10
-11.90012992125984
 20
-5.180543307086614
 10
-11.89411417322835
 20
-5.182129921259842
 10
-11.88831496062992
 20
-5.184350393700788
 10
-11.88272834645669
 20
-5.187204724409449
 10
-11.87736220472441
 20
-5.190696850393701
 10
-11.87220866141732
 20
-5.194822834645669
 10
-11.86727559055118
 20
-5.199586614173229
 10
-11.86262204724409
 20
-5.204893700787402
 10
-11.8585905511811
 20
-5.210397637795276
 10
-11.85517716535433
 20
-5.216098425196851
 10
-11.85238582677165
 20
-5.221992125984252
 10
-11.85021653543307
 20
-5.228082677165355
 10
-11.84866535433071
 20
-5.234370078740158
 10
-11.84773622047244
 20
-5.240858267716535
 10
-11.84742519685039
 20
-5.24753937007874
 10
-11.84774015748031
 20
-5.254444881889764
 10
-11.84869291338583
 20
-5.261074803149606
 10
-11.85027952755905
 20
-5.267429133858267
 10
-11.85249606299213
 20
-5.273507874015748
 10
-11.85535039370079
 20
-5.279311023622047
 10
-11.85883858267717
 20
-5.284838582677166
 10
-11.86296062992126
 20
-5.290086614173228
 10
-11.86771653543307
 20
-5.29505905511811
 10
-11.87263779527559
 20
-5.299362204724409
 10
-11.87790551181102
 20
-5.303212598425197
 10
-11.88352755905512
 20
-5.306602362204725
 10
-11.8895
 20
-5.309531496062992
 10
-11.89266535433071
 20
-5.310795275590551
 10
-11.89600393700787
 20
-5.311889763779527
 10
-11.89951968503937
 20
-5.312818897637795
 10
-11.90320866141732
 20
-5.31357874015748
 10
-11.91111417322835
 20
-5.314590551181102
 10
-11.91972047244094
 20
-5.314929133858268
 10
-11.9241968503937
 20
-5.314740157480315
 10
-11.92866535433071
 20
-5.314173228346457
 10
-11.93312598425197
 20
-5.313228346456693
 10
-11.93757874015748
 20
-5.311905511811023
 10
-11.94202755905512
 20
-5.310204724409449
 10
-11.94646850393701
 20
-5.308122047244095
 10
-11.95090157480315
 20
-5.305665354330709
 10
-11.95533070866142
 20
-5.302826771653543
 10
-11.95959448818898
 20
-5.299692913385827
 10
-11.96353543307087
 20
-5.296326771653543
 10
-11.96715354330709
 20
-5.292728346456693
 10
-11.97044488188976
 20
-5.28890157480315
 10
-11.97341338582677
 20
-5.284846456692914
 10
-11.97605905511811
 20
-5.28055905511811
 10
-11.97837795275591
 20
-5.27603937007874
 10
-11.98037401574803
 20
-5.271295275590552
 10
-12.00971653543307
 20
-5.280795275590552
 10
-12.00683070866142
 20
-5.287909448818898
 10
-12.00346850393701
 20
-5.294665354330709
 10
-11.99962992125984
 20
-5.30105905511811
 10
-11.99531102362205
 20
-5.30709842519685
 10
-11.99051181102362
 20
-5.312775590551182
 10
-11.98523622047244
 20
-5.31809842519685
 10
-11.97948031496063
 20
-5.323062992125984
 10
-11.97324803149606
 20
-5.327669291338583
 10
-11.96661811023622
 20
-5.331874015748031
 10
-11.95983858267716
 20
-5.335515748031496
 10
-11.95291338582677
 20
-5.33859842519685
 10
-11.94583464566929
 20
-5.341118110236221
 10
-11.93861023622047
 20
-5.34307874015748
 10
-11.93124015748032
 20
-5.34448031496063
 10
-11.92371653543307
 20
-5.345318897637795
 10
-11.91604724409449
 20
-5.34559842519685
 10
-11.90583070866142
 20
-5.345137795275591
 10
-11.89600393700787
 20
-5.343748031496063
 10
-11.88657086614173
 20
-5.341437007874016
 10
-11.87752755905512
 20
-5.338204724409449
 10
-11.86887795275591
 20
-5.334043307086614
 10
-11.86061417322835
 20
-5.328956692913386
 10
-11.85274409448819
 20
-5.322944881889764
 10
-11.84526377952756
 20
-5.316007874015748
 10
-11.8384842519685
 20
-5.308476377952756
 10
-11.83261023622047
 20
-5.300574803149606
 10
-11.82763779527559
 20
-5.292303149606299
 10
-11.82357086614173
 20
-5.283661417322834
 10
-11.8204094488189
 20
-5.274645669291338
 10
-11.81814960629921
 20
-5.265259842519685
 10
-11.81679527559055
 20
-5.2555
 10
-11.81634251968504
 20
-5.245370078740158
 10
-11.8167874015748
 20
-5.235295275590551
 10
-11.81812204724409
 20
-5.225645669291339
 10
-11.82035039370079
 20
-5.216421259842519
 10
-11.82346456692913
 20
-5.207625984251968
 10
-11.82747244094488
 20
-5.199251968503937
 10
-11.83237007874016
 20
-5.191303149606299
 10
-11.83815354330709
 20
-5.183779527559055
 10
-11.84483070866142
 20
-5.176681102362204
 10
-11.84824409448819
 20
-5.173527559055118
 10
-11.85179527559055
 20
-5.17053937007874
 10
-11.85547637795276
 20
-5.167720472440945
 10
-11.85929527559055
 20
-5.165070866141733
 10
-11.86324803149606
 20
-5.162590551181102
 10
-11.86733464566929
 20
-5.160279527559055
 10
-11.87155511811024
 20
-5.158133858267717
 10
-11.87591338582677
 20
-5.156161417322835
 10
-11.88035433070866
 20
-5.154385826771653
 10
-11.88483858267717
 20
-5.152850393700787
 10
-11.88935826771653
 20
-5.151547244094488
 10
-11.89391732283465
 20
-5.150484251968504
 10
-11.8985157480315
 20
-5.149657480314961
 10
-11.90314960629921
 20
-5.149066929133858
 10
-11.90781496062992
 20
-5.148712598425197
 10
-11.91251968503937
 20
-5.148594488188976
 10
-11.9173188976378
 20
-5.148704724409449
 10
-11.92220866141732
 20
-5.149027559055118
 10
-11.9271968503937
 20
-5.149566929133858
 10
-11.93228346456693
 20
-5.150326771653543
 10
-11.94274803149606
 20
-5.152488188976378
 10
-11.9536062992126
 20
-5.155511811023622
  0
LWPOLYLINE
  5
88
330
1F
100
AcDbEntity
  8
Layer 1
 62
     7
370
     9
100
AcDbPolyline
 90
      143
 70
     1
 43
0.0
 10
-11.52022834645669
 20
-5.339551181102363
 10
-11.4900157480315
 20
-5.339551181102363
 10
-11.4900157480315
 20
-5.220744094488189
 10
-11.49026377952756
 20
-5.212862204724409
 10
-11.491
 20
-5.205346456692913
 10
-11.49223228346457
 20
-5.198200787401575
 10
-11.49395669291339
 20
-5.191429133858268
 10
-11.49616929133858
 20
-5.185023622047244
 10
-11.4988779527559
 20
-5.178992125984252
 10
-11.50207874015748
 20
-5.173330708661418
 10
-11.50577165354331
 20
-5.168043307086614
 10
-11.51001968503937
 20
-5.163114173228347
 10
-11.51477952755905
 20
-5.158700787401575
 10
-11.52005511811024
 20
-5.154803149606299
 10
-11.52584251968504
 20
-5.151417322834646
 10
-11.5289842519685
 20
-5.149944881889764
 10
-11.53237007874016
 20
-5.148669291338583
 10
-11.536
 20
-5.147594488188976
 10
-11.53987007874016
 20
-5.146708661417323
 10
-11.5439842519685
 20
-5.146023622047244
 10
-11.54834251968504
 20
-5.145535433070866
 10
-11.55294094488189
 20
-5.145240157480315
 10
-11.55777952755905
 20
-5.145141732283465
 10
-11.56266535433071
 20
-5.145311023622047
 10
-11.56739763779528
 20
-5.145818897637795
 10
-11.57197244094488
 20
-5.146661417322835
 10
-11.5763937007874
 20
-5.14784251968504
 10
-11.58065748031496
 20
-5.14936220472441
 10
-11.58476771653543
 20
-5.151216535433071
 10
-11.58872440944882
 20
-5.153409448818898
 10
-11.59252755905512
 20
-5.155940944881889
 10
-11.59582677165354
 20
-5.158464566929134
 10
-11.59897637795276
 20
-5.161177165354331
 10
-11.60197637795276
 20
-5.164074803149607
 10
-11.60483070866142
 20
-5.167157480314961
 10
-11.60753543307087
 20
-5.17042125984252
 10
-11.6100905511811
 20
-5.173866141732283
 10
-11.6125
 20
-5.177492125984252
 10
-11.61475984251969
 20
-5.181291338582677
 10
-11.62274803149606
 20
-5.168043307086614
 10
-11.62699606299213
 20
-5.163114173228347
 10
-11.63175590551181
 20
-5.158700787401575
 10
-11.63703149606299
 20
-5.154803149606299
 10
-11.6428188976378
 20
-5.151417322834646
 10
-11.64596062992126
 20
-5.149944881889764
 10
-11.64934645669291
 20
-5.148669291338583
 10
-11.65297244094488
 20
-5.147594488188976
 10
-11.65684251968504
 20
-5.146708661417323
 10
-11.66095669291339
 20
-5.146023622047244
 10
-11.66531102362205
 20
-5.145535433070866
 10
-11.6699094488189
 20
-5.145240157480315
 10
-11.67475196850394
 20
-5.145141732283465
 10
-11.67963779527559
 20
-5.145311023622047
 10
-11.68437007874016
 20
-5.145818897637795
 10
-11.68894881889764
 20
-5.146661417322835
 10
-11.69337007874016
 20
-5.14784251968504
 10
-11.69763779527559
 20
-5.14936220472441
 10
-11.70174803149606
 20
-5.151216535433071
 10
-11.70570472440945
 20
-5.153409448818898
 10
-11.70950787401575
 20
-5.155940944881889
 10
-11.71264960629921
 20
-5.158346456692914
 10
-11.71565748031496
 20
-5.160913385826771
 10
-11.71853149606299
 20
-5.163641732283464
 10
-11.72126771653543
 20
-5.16653937007874
 10
-11.72387007874016
 20
-5.169598425196851
 10
-11.72633858267717
 20
-5.172826771653543
 10
-11.72867322834646
 20
-5.17621653543307
 10
-11.73087007874016
 20
-5.179779527559055
 10
-11.73087007874016
 20
-5.149464566929134
 10
-11.76109448818898
 20
-5.149464566929134
 10
-11.76109448818898
 20
-5.339551181102363
 10
-11.73087007874016
 20
-5.339551181102363
 10
-11.73087007874016
 20
-5.242275590551182
 10
-11.73016929133858
 20
-5.236610236220472
 10
-11.72925196850394
 20
-5.231165354330709
 10
-11.72811811023622
 20
-5.22594094488189
 10
-11.72677165354331
 20
-5.220933070866142
 10
-11.72520472440945
 20
-5.216137795275591
 10
-11.72342519685039
 20
-5.21155905511811
 10
-11.72142913385827
 20
-5.207192913385827
 10
-11.71922047244095
 20
-5.203039370078741
 10
-11.71741732283465
 20
-5.200082677165354
 10
-11.71546850393701
 20
-5.197259842519685
 10
-11.71337007874016
 20
-5.194570866141732
 10
-11.71112598425197
 20
-5.19201968503937
 10
-11.70873228346457
 20
-5.189602362204725
 10
-11.70618897637795
 20
-5.187322834645669
 10
-11.7035
 20
-5.185173228346457
 10
-11.70066141732283
 20
-5.183157480314961
 10
-11.69771653543307
 20
-5.181338582677165
 10
-11.69472047244095
 20
-5.179759842519685
 10
-11.69166929133858
 20
-5.178425196850394
 10
-11.68856692913386
 20
-5.177334645669291
 10
-11.6854094488189
 20
-5.176484251968504
 10
-11.6821968503937
 20
-5.175877952755905
 10
-11.67893307086614
 20
-5.175511811023622
 10
-11.67561417322835
 20
-5.175389763779528
 10
-11.66935826771654
 20
-5.175645669291338
 10
-11.66396456692913
 20
-5.176417322834646
 10
-11.65943700787402
 20
-5.1776968503937
 10
-11.65577165354331
 20
-5.179496062992126
 10
-11.65142125984252
 20
-5.18271653543307
 10
-11.64764960629921
 20
-5.186488188976378
 10
-11.64445669291339
 20
-5.190814960629921
 10
-11.64184645669291
 20
-5.195696850393701
 10
-11.63981496062992
 20
-5.201125984251968
 10
-11.63836614173228
 20
-5.207114173228346
 10
-11.63749606299213
 20
-5.213653543307086
 10
-11.63720472440945
 20
-5.220744094488189
 10
-11.63720472440945
 20
-5.339551181102363
 10
-11.60699212598425
 20
-5.339551181102363
 10
-11.60699212598425
 20
-5.220744094488189
 10
-11.60720078740158
 20
-5.21348031496063
 10
-11.60224409448819
 20
-5.203039370078741
 10
-11.60044094488189
 20
-5.200082677165354
 10
-11.59849212598425
 20
-5.197259842519685
 10
-11.5963937007874
 20
-5.194570866141732
 10
-11.59414566929134
 20
-5.19201968503937
 10
-11.59175196850394
 20
-5.189602362204725
 10
-11.58920866141732
 20
-5.187322834645669
 10
-11.5865157480315
 20
-5.185173228346457
 10
-11.58367716535433
 20
-5.183157480314961
 10
-11.58073622047244
 20
-5.181338582677165
 10
-11.57774409448819
 20
-5.179759842519685
 10
-11.57469291338583
 20
-5.178425196850394
 10
-11.5715905511811
 20
-5.177334645669291
 10
-11.56843700787402
 20
-5.176484251968504
 10
-11.56522440944882
 20
-5.175877952755905
 10
-11.56196062992126
 20
-5.175511811023622
 10
-11.55864173228346
 20
-5.175389763779528
 10
-11.55238188976378
 20
-5.175645669291338
 10
-11.54699212598425
 20
-5.176417322834646
 10
-11.54246062992126
 20
-5.1776968503937
 10
-11.5387874015748
 20
-5.179496062992126
 10
-11.53444094488189
 20
-5.18271653543307
 10
-11.53066929133858
 20
-5.186488188976378
 10
-11.52748031496063
 20
-5.190814960629921
 10
-11.52487007874016
 20
-5.195696850393701
 10
-11.52283858267717
 20
-5.201125984251968
 10
-11.52138976377953
 20
-5.207114173228346
 10
-11.52051968503937
 20
-5.213653543307086
 10
-11.52022834645669
 20
-5.220744094488189
 10
-11.52022834645669
 20
-5.339551181102363
  0
LWPOLYLINE
  5
89
330
1F
100
AcDbEntity
  8
Layer 1
 62
     7
370
     9
100
AcDbPolyline
 90
      143
 70
     1
 43
0.0
 10
-11.19088188976378
 20
-5.339551181102363
 10
-11.16066929133858
 20
-5.339551181102363
 10
-11.16066929133858
 20
-5.220744094488189
 10
-11.16091338582677
 20
-5.212862204724409
 10
-11.16165354330709
 20
-5.205346456692913
 10
-11.16288582677165
 20
-5.198200787401575
 10
-11.1646062992126
 20
-5.191429133858268
 10
-11.16682283464567
 20
-5.185023622047244
 10
-11.16953149606299
 20
-5.178992125984252
 10
-11.17273228346457
 20
-5.173330708661418
 10
-11.17642519685039
 20
-5.168043307086614
 10
-11.18067322834646
 20
-5.163114173228347
 10
-11.18543307086614
 20
-5.158700787401575
 10
-11.19070866141732
 20
-5.154803149606299
 10
-11.19649606299213
 20
-5.151417322834646
 10
-11.19963779527559
 20
-5.149944881889764
 10
-11.20302362204724
 20
-5.148669291338583
 10
-11.20664960629921
 20
-5.147594488188976
 10
-11.21051968503937
 20
-5.146708661417323
 10
-11.21463385826772
 20
-5.146023622047244
 10
-11.21899212598425
 20
-5.145535433070866
 10
-11.2235905511811
 20
-5.145240157480315
 10
-11.22842913385827
 20
-5.145141732283465
 10
-11.23331496062992
 20
-5.145311023622047
 10
-11.23804724409449
 20
-5.145818897637795
 10
-11.24262598425197
 20
-5.146661417322835
 10
-11.24704330708661
 20
-5.14784251968504
 10
-11.25131102362205
 20
-5.14936220472441
 10
-11.25542125984252
 20
-5.151216535433071
 10
-11.25937795275591
 20
-5.153409448818898
 10
-11.26317716535433
 20
-5.155940944881889
 10
-11.26647637795276
 20
-5.158464566929134
 10
-11.26962598425197
 20
-5.161177165354331
 10
-11.27262992125984
 20
-5.164074803149607
 10
-11.27548031496063
 20
-5.167157480314961
 10
-11.27818503937008
 20
-5.17042125984252
 10
-11.28074409448819
 20
-5.173866141732283
 10
-11.28314960629921
 20
-5.177492125984252
 10
-11.2854094488189
 20
-5.181291338582677
 10
-11.29339763779527
 20
-5.168043307086614
 10
-11.29764566929134
 20
-5.163114173228347
 10
-11.30240551181102
 20
-5.158700787401575
 10
-11.3076811023622
 20
-5.154803149606299
 10
-11.31346850393701
 20
-5.151417322834646
 10
-11.31661417322835
 20
-5.149944881889764
 10
-11.32
 20
-5.148669291338583
 10
-11.32362598425197
 20
-5.147594488188976
 10
-11.32749606299213
 20
-5.146708661417323
 10
-11.33161023622047
 20
-5.146023622047244
 10
-11.33596456692913
 20
-5.145535433070866
 10
-11.34056299212598
 20
-5.145240157480315
 10
-11.34540551181102
 20
-5.145141732283465
 10
-11.35029133858268
 20
-5.145311023622047
 10
-11.35502362204724
 20
-5.145818897637795
 10
-11.35960236220472
 20
-5.146661417322835
 10
-11.36402362204724
 20
-5.14784251968504
 10
-11.36829133858268
 20
-5.14936220472441
 10
-11.37240157480315
 20
-5.151216535433071
 10
-11.37635826771653
 20
-5.153409448818898
 10
-11.38016141732284
 20
-5.155940944881889
 10
-11.3833031496063
 20
-5.158346456692914
 10
-11.38631102362205
 20
-5.160913385826771
 10
-11.3891811023622
 20
-5.163641732283464
 10
-11.39192125984252
 20
-5.16653937007874
 10
-11.39452362204724
 20
-5.169598425196851
 10
-11.39699212598425
 20
-5.172826771653543
 10
-11.39932677165354
 20
-5.17621653543307
 10
-11.40152362204724
 20
-5.179779527559055
 10
-11.40152362204724
 20
-5.149464566929134
 10
-11.43174409448819
 20
-5.149464566929134
 10
-11.43174409448819
 20
-5.339551181102363
 10
-11.40152362204724
 20
-5.339551181102363
 10
-11.40152362204724
 20
-5.242275590551182
 10
-11.40082283464567
 20
-5.236610236220472
 10
-11.39990157480315
 20
-5.231165354330709
 10
-11.39877165354331
 20
-5.22594094488189
 10
-11.39742125984252
 20
-5.220933070866142
 10
-11.39585826771654
 20
-5.216137795275591
 10
-11.39407874015748
 20
-5.21155905511811
 10
-11.39208267716536
 20
-5.207192913385827
 10
-11.38987007874016
 20
-5.203039370078741
 10
-11.38806692913386
 20
-5.200082677165354
 10
-11.38611811023622
 20
-5.197259842519685
 10
-11.38402362204724
 20
-5.194570866141732
 10
-11.38177559055118
 20
-5.19201968503937
 10
-11.37938188976378
 20
-5.189602362204725
 10
-11.37683858267716
 20
-5.187322834645669
 10
-11.37414960629921
 20
-5.185173228346457
 10
-11.37131102362205
 20
-5.183157480314961
 10
-11.36837007874016
 20
-5.181338582677165
 10
-11.36537401574803
 20
-5.179759842519685
 10
-11.36232283464567
 20
-5.178425196850394
 10
-11.35922047244095
 20
-5.177334645669291
 10
-11.35606299212598
 20
-5.176484251968504
 10
-11.35285039370079
 20
-5.175877952755905
 10
-11.34958661417323
 20
-5.175511811023622
 10
-11.34626771653543
 20
-5.175389763779528
 10
-11.34001181102362
 20
-5.175645669291338
 10
-11.33461811023622
 20
-5.176417322834646
 10
-11.33008661417323
 20
-5.1776968503937
 10
-11.32642519685039
 20
-5.179496062992126
 10
-11.32207480314961
 20
-5.18271653543307
 10
-11.3183031496063
 20
-5.186488188976378
 10
-11.31511023622047
 20
-5.190814960629921
 10
-11.3125
 20
-5.195696850393701
 10
-11.31046850393701
 20
-5.201125984251968
 10
-11.3090157480315
 20
-5.207114173228346
 10
-11.30814566929134
 20
-5.213653543307086
 10
-11.30785433070866
 20
-5.220744094488189
 10
-11.30785433070866
 20
-5.339551181102363
 10
-11.27764173228347
 20
-5.339551181102363
 10
-11.27764173228347
 20
-5.220744094488189
 10
-11.27785433070866
 20
-5.21348031496063
 10
-11.27289763779527
 20
-5.203039370078741
 10
-11.27109448818898
 20
-5.200082677165354
 10
-11.26914566929134
 20
-5.197259842519685
 10
-11.26704724409449
 20
-5.194570866141732
 10
-11.26479921259843
 20
-5.19201968503937
 10
-11.26240157480315
 20
-5.189602362204725
 10
-11.25985826771653
 20
-5.187322834645669
 10
-11.25716535433071
 20
-5.185173228346457
 10
-11.25432677165354
 20
-5.183157480314961
 10
-11.25138582677165
 20
-5.181338582677165
 10
-11.2483937007874
 20
-5.179759842519685
 10
-11.24534645669291
 20
-5.178425196850394
 10
-11.24224409448819
 20
-5.177334645669291
 10
-11.23908661417323
 20
-5.176484251968504
 10
-11.2358779527559
 20
-5.175877952755905
 10
-11.23261023622047
 20
-5.175511811023622
 10
-11.22929133858268
 20
-5.175389763779528
 10
-11.22303543307087
 20
-5.175645669291338
 10
-11.21764173228346
 20
-5.176417322834646
 10
-11.21311023622047
 20
-5.1776968503937
 10
-11.20944094488189
 20
-5.179496062992126
 10
-11.20509448818898
 20
-5.18271653543307
 10
-11.20132283464567
 20
-5.186488188976378
 10
-11.19813385826772
 20
-5.190814960629921
 10
-11.19552362204724
 20
-5.195696850393701
 10
-11.19349212598425
 20
-5.201125984251968
 10
-11.19204330708661
 20
-5.207114173228346
 10
-11.19117322834646
 20
-5.213653543307086
 10
-11.19088188976378
 20
-5.220744094488189
 10
-11.19088188976378
 20
-5.339551181102363
  0
ENDSEC
  0
SECTION
  2
OBJECTS
  0
DICTIONARY
  5
C
330
0
100
AcDbDictionary
281
     1
  3
ACAD_DETAILVIEWSTYLE
350
91
  3
ACAD_GROUP
350
D
  3
ACAD_LAYOUT
350
1A
  3
ACAD_MATERIAL
350
43
  3
ACAD_MLEADERSTYLE
350
5B
  3
ACAD_MLINESTYLE
350
17
  3
ACAD_PLOTSETTINGS
350
19
  3
ACAD_PLOTSTYLENAME
350
E
  3
ACAD_SCALELIST
350
47
  3
ACAD_SECTIONVIEWSTYLE
350
92
  3
ACAD_TABLESTYLE
350
59
  3
ACAD_VISUALSTYLE
350
2A
  3
ACDB_RECOMPOSE_DATA
350
8E
  3
AcDbVariableDictionary
350
8A
  0
SUN
  5
5D
330
29
100
AcDbSun
 90
        1
290
     0
 63
     7
421
 16777215
 40
1.0
291
     1
 91
  2455826
 92
 54000000
292
     0
 70
     2
 71
   256
280
     1
  0
DICTIONARY
  5
91
102
{ACAD_REACTORS
330
C
102
}
330
C
100
AcDbDictionary
281
     1
  0
DICTIONARY
  5
D
102
{ACAD_REACTORS
330
C
102
}
330
C
100
AcDbDictionary
281
     1
  0
DICTIONARY
  5
1A
102
{ACAD_REACTORS
330
C
102
}
330
C
100
AcDbDictionary
281
     1
  3
Layout1
350
1E
  3
Layout2
350
26
  3
Model
350
22
  0
DICTIONARY
  5
43
102
{ACAD_REACTORS
330
C
102
}
330
C
100
AcDbDictionary
281
     1
  3
ByBlock
350
45
  3
ByLayer
350
44
  3
Global
350
46
  0
DICTIONARY
  5
5B
102
{ACAD_REACTORS
330
C
102
}
330
C
100
AcDbDictionary
281
     1
  3
Standard
350
5C
  0
DICTIONARY
  5
17
102
{ACAD_REACTORS
330
C
102
}
330
C
100
AcDbDictionary
281
     1
  3
Standard
350
18
  0
DICTIONARY
  5
19
102
{ACAD_REACTORS
330
C
102
}
330
C
100
AcDbDictionary
281
     1
  0
ACDBDICTIONARYWDFLT
  5
E
102
{ACAD_REACTORS
330
C
102
}
330
C
100
AcDbDictionary
281
     1
  3
Normal
350
F
100
AcDbDictionaryWithDefault
340
F
  0
DICTIONARY
  5
47
102
{ACAD_REACTORS
330
C
102
}
330
C
100
AcDbDictionary
281
     1
  3
A0
350
48
  3
A1
350
49
  3
A2
350
4A
  3
A3
350
4B
  3
A4
350
4C
  3
A5
350
4D
  3
A6
350
4E
  3
A7
350
4F
  3
A8
350
50
  3
A9
350
51
  3
B1
350
52
  3
B2
350
53
  3
B3
350
54
  3
B4
350
55
  3
B5
350
56
  3
B6
350
57
  3
B7
350
58
  0
DICTIONARY
  5
92
102
{ACAD_REACTORS
330
C
102
}
330
C
100
AcDbDictionary
281
     1
  0
DICTIONARY
  5
59
102
{ACAD_REACTORS
330
C
102
}
330
C
100
AcDbDictionary
281
     1
  3
Standard
350
5A
  0
DICTIONARY
  5
2A
102
{ACAD_REACTORS
330
C
102
}
330
C
100
AcDbDictionary
281
     1
  3
2dWireframe
350
2F
  3
Basic
350
32
  3
Brighten
350
36
  3
ColorChange
350
3A
  3
Conceptual
350
34
  3
Dim
350
35
  3
EdgeColorOff
350
3D
  3
Facepattern
350
39
  3
Flat
350
2B
  3
FlatWithEdges
350
2C
  3
Gouraud
350
2D
  3
GouraudWithEdges
350
2E
  3
Hidden
350
31
  3
JitterOff
350
3B
  3
Linepattern
350
38
  3
OverhangOff
350
3C
  3
Realistic
350
33
  3
Shaded
350
42
  3
Shaded with edges
350
41
  3
Shades of Gray
350
3E
  3
Sketchy
350
3F
  3
Thicken
350
37
  3
Wireframe
350
30
  3
X-Ray
350
40
  0
XRECORD
  5
8E
102
{ACAD_REACTORS
330
C
102
}
330
C
100
AcDbXrecord
280
     1
 90
        1
330
5A
  0
DICTIONARY
  5
8A
102
{ACAD_REACTORS
330
C
102
}
330
C
100
AcDbDictionary
281
     1
  3
CANNOSCALE
350
8B
  3
CMLEADERSTYLE
350
90
  3
CTABLESTYLE
350
8F
  0
LAYOUT
  5
1E
102
{ACAD_REACTORS
330
1A
102
}
330
1A
100
AcDbPlotSettings
  1

  2
none_device
  4

  6

 40
0.0
 41
0.0
 42
0.0
 43
0.0
 44
0.0
 45
0.0
 46
0.0
 47
0.0
 48
0.0
 49
0.0
140
0.0
141
0.0
142
1.0
143
1.0
 70
   688
 72
     0
 73
     0
 74
     5
  7

 75
    16
 76
     0
 77
     2
 78
   300
147
1.0
148
0.0
149
0.0
100
AcDbLayout
  1
Layout1
 70
     1
 71
     1
 10
0.0
 20
0.0
 11
12.0
 21
9.0
 12
0.0
 22
0.0
 32
0.0
 14
1.000000000000000E+20
 24
1.000000000000000E+20
 34
1.000000000000000E+20
 15
-1.000000000000000E+20
 25
-1.000000000000000E+20
 35
-1.000000000000000E+20
146
0.0
 13
0.0
 23
0.0
 33
0.0
 16
1.0
 26
0.0
 36
0.0
 17
0.0
 27
1.0
 37
0.0
 76
     0
330
1B
  0
LAYOUT
  5
26
102
{ACAD_REACTORS
330
1A
102
}
330
1A
100
AcDbPlotSettings
  1

  2
none_device
  4

  6

 40
0.0
 41
0.0
 42
0.0
 43
0.0
 44
0.0
 45
0.0
 46
0.0
 47
0.0
 48
0.0
 49
0.0
140
0.0
141
0.0
142
1.0
143
1.0
 70
   688
 72
     0
 73
     0
 74
     5
  7

 75
    16
 76
     0
 77
     2
 78
   300
147
1.0
148
0.0
149
0.0
100
AcDbLayout
  1
Layout2
 70
     1
 71
     2
 10
0.0
 20
0.0
 11
0.0
 21
0.0
 12
0.0
 22
0.0
 32
0.0
 14
0.0
 24
0.0
 34
0.0
 15
0.0
 25
0.0
 35
0.0
146
0.0
 13
0.0
 23
0.0
 33
0.0
 16
1.0
 26
0.0
 36
0.0
 17
0.0
 27
1.0
 37
0.0
 76
     0
330
23
  0
LAYOUT
  5
22
102
{ACAD_REACTORS
330
1A
102
}
330
1A
100
AcDbPlotSettings
  1

  2
none_device
  4
Letter_(8.50_x_11.00_Inches)
  6

 40
6.35
 41
6.35
 42
6.35000508
 43
6.35000508
 44
215.9
 45
279.4
 46
0.0
 47
0.0
 48
0.0
 49
0.0
140
0.0
141
0.0
142
1.0
143
1.0
 70
  1712
 72
     0
 73
     0
 74
     0
  7

 75
     0
 76
     0
 77
     2
 78
   300
147
1.0
148
0.0
149
0.0
100
AcDbLayout
  1
Model
 70
     1
 71
     0
 10
0.0
 20
0.0
 11
12.0
 21
9.0
 12
0.0
 22
0.0
 32
0.0
 14
-13.06408661417323
 24
-5.672602362204724
 34
0.0
 15
-5.652803149606299
 25
0.897259842519685
 35
0.0
146
0.0
 13
0.0
 23
0.0
 33
0.0
 16
1.0
 26
0.0
 36
0.0
 17
0.0
 27
1.0
 37
0.0
 76
     0
330
1F
331
29
  0
MATERIAL
  5
45
102
{ACAD_REACTORS
330
43
102
}
330
43
100
AcDbMaterial
  1
ByBlock
 72
     1
 94
      127
  0
MATERIAL
  5
44
102
{ACAD_REACTORS
330
43
102
}
330
43
100
AcDbMaterial
  1
ByLayer
 72
     1
 94
      127
  0
MATERIAL
  5
46
102
{ACAD_REACTORS
330
43
102
}
330
43
100
AcDbMaterial
  1
Global
 72
     1
 94
      127
  0
MLEADERSTYLE
  5
5C
102
{ACAD_REACTORS
330
5B
102
}
330
5B
100
AcDbMLeaderStyle
179
     2
170
     2
171
     1
172
     0
 90
        2
 40
0.0
 41
0.0
173
     1
 91
-1056964608
340
14
 92
       -2
290
     1
 42
0.09
291
     1
 43
0.36
  3
Standard
341
0
 44
0.18
300

342
11
174
     1
178
     6
175
     1
176
     0
 93
-1056964608
 45
0.18
292
     0
297
     0
 46
0.18
343
0
 94
-1056964608
 47
1.0
 49
1.0
140
1.0
293
     1
141
0.0
294
     1
177
     0
142
1.0
295
     0
296
     0
143
0.125
271
     0
272
     9
273
     9
298
     0
  0
MLINESTYLE
  5
18
102
{ACAD_REACTORS
330
17
102
}
330
17
100
AcDbMlineStyle
  2
Standard
 70
     0
  3

 62
   256
 51
90.0
 52
90.0
 71
     2
 49
0.5
 62
   256
  6
BYLAYER
 49
-0.5
 62
   256
  6
BYLAYER
  0
ACDBPLACEHOLDER
  5
F
102
{ACAD_REACTORS
330
E
102
}
330
E
  0
SCALE
  5
48
102
{ACAD_REACTORS
330
47
102
}
330
47
100
AcDbScale
 70
     0
300
1:1
140
1.0
141
1.0
290
     1
  0
SCALE
  5
49
102
{ACAD_REACTORS
330
47
102
}
330
47
100
AcDbScale
 70
     0
300
1/128" = 1'-0"
140
0.0078125
141
12.0
290
     0
  0
SCALE
  5
4A
102
{ACAD_REACTORS
330
47
102
}
330
47
100
AcDbScale
 70
     0
300
1/64" = 1'-0"
140
0.015625
141
12.0
290
     0
  0
SCALE
  5
4B
102
{ACAD_REACTORS
330
47
102
}
330
47
100
AcDbScale
 70
     0
300
1/32" = 1'-0"
140
0.03125
141
12.0
290
     0
  0
SCALE
  5
4C
102
{ACAD_REACTORS
330
47
102
}
330
47
100
AcDbScale
 70
     0
300
1/16" = 1'-0"
140
0.0625
141
12.0
290
     0
  0
SCALE
  5
4D
102
{ACAD_REACTORS
330
47
102
}
330
47
100
AcDbScale
 70
     0
300
3/32" = 1'-0"
140
0.09375
141
12.0
290
     0
  0
SCALE
  5
4E
102
{ACAD_REACTORS
330
47
102
}
330
47
100
AcDbScale
 70
     0
300
1/8" = 1'-0"
140
0.125
141
12.0
290
     0
  0
SCALE
  5
4F
102
{ACAD_REACTORS
330
47
102
}
330
47
100
AcDbScale
 70
     0
300
3/16" = 1'-0"
140
0.1875
141
12.0
290
     0
  0
SCALE
  5
50
102
{ACAD_REACTORS
330
47
102
}
330
47
100
AcDbScale
 70
     0
300
1/4" = 1'-0"
140
0.25
141
12.0
290
     0
  0
SCALE
  5
51
102
{ACAD_REACTORS
330
47
102
}
330
47
100
AcDbScale
 70
     0
300
3/8" = 1'-0"
140
0.375
141
12.0
290
     0
  0
SCALE
  5
52
102
{ACAD_REACTORS
330
47
102
}
330
47
100
AcDbScale
 70
     0
300
1/2" = 1'-0"
140
0.5
141
12.0
290
     0
  0
SCALE
  5
53
102
{ACAD_REACTORS
330
47
102
}
330
47
100
AcDbScale
 70
     0
300
3/4" = 1'-0"
140
0.75
141
12.0
290
     0
  0
SCALE
  5
54
102
{ACAD_REACTORS
330
47
102
}
330
47
100
AcDbScale
 70
     0
300
1" = 1'-0"
140
1.0
141
12.0
290
     0
  0
SCALE
  5
55
102
{ACAD_REACTORS
330
47
102
}
330
47
100
AcDbScale
 70
     0
300
1-1/2" = 1'-0"
140
1.5
141
12.0
290
     0
  0
SCALE
  5
56
102
{ACAD_REACTORS
330
47
102
}
330
47
100
AcDbScale
 70
     0
300
3" = 1'-0"
140
3.0
141
12.0
290
     0
  0
SCALE
  5
57
102
{ACAD_REACTORS
330
47
102
}
330
47
100
AcDbScale
 70
     0
300
6" = 1'-0"
140
6.0
141
12.0
290
     0
  0
SCALE
  5
58
102
{ACAD_REACTORS
330
47
102
}
330
47
100
AcDbScale
 70
     0
300
1'-0" = 1'-0"
140
12.0
141
12.0
290
     0
  0
TABLESTYLE
  5
5A
102
{ACAD_REACTORS
330
59
102
}
102
{ACAD_XDICTIONARY
360
8C
102
}
330
59
100
AcDbTableStyle
  3
Standard
 70
     0
 71
     0
 40
0.06
 41
0.06
280
     0
281
     0
  7
Standard
140
0.18
170
     2
 62
     0
 63
   257
283
     0
 90
        4
 91
        0
  1

274
    -2
284
     1
 64
     0
275
    -2
285
     1
 65
     0
276
    -2
286
     1
 66
     0
277
    -2
287
     1
 67
     0
278
    -2
288
     1
 68
     0
279
    -2
289
     1
 69
     0
  7
Standard
140
0.25
170
     5
 62
     0
 63
   257
283
     0
 90
        4
 91
        0
  1

274
    -2
284
     1
 64
     0
275
    -2
285
     1
 65
     0
276
    -2
286
     1
 66
     0
277
    -2
287
     1
 67
     0
278
    -2
288
     1
 68
     0
279
    -2
289
     1
 69
     0
  7
Standard
140
0.18
170
     5
 62
     0
 63
   257
283
     0
 90
        4
 91
        0
  1

274
    -2
284
     1
 64
     0
275
    -2
285
     1
 65
     0
276
    -2
286
     1
 66
     0
277
    -2
287
     1
 67
     0
278
    -2
288
     1
 68
     0
279
    -2
289
     1
 69
     0
  0
VISUALSTYLE
  5
2F
102
{ACAD_REACTORS
330
2A
102
}
330
2A
100
AcDbVisualStyle
  2
2dWireframe
 70
     4
177
     3
291
     0
 70
    58
 90
        0
176
     1
 90
        2
176
     1
 90
        0
176
     1
 90
        0
176
     1
 40
0.6
176
     1
 40
30.0
176
     1
 62
     7
420
 16777215
176
     1
 90
        1
176
     1
 90
        4
176
     1
 62
     7
176
     1
 62
   257
176
     1
 90
        1
176
     1
 90
        1
176
     1
 40
1.0
176
     1
 90
        0
176
     1
 62
   257
176
     1
 40
1.0
176
     1
 90
        1
176
     1
 90
        6
176
     1
 90
        2
176
     1
 62
     7
176
     1
 90
        5
176
     1
 90
        0
176
     1
 90
        0
176
     1
290
     0
176
     1
 90
        1
176
     1
 40
0.0
176
     1
 90
        0
176
     1
290
     1
176
     1
290
     1
176
     1
290
     0
176
     1
290
     0
176
     1
290
     0
176
     1
290
     0
176
     1
290
     0
176
     1
290
     0
176
     1
290
     0
176
     1
 90
       50
176
     1
 40
0.0
176
     1
 40
1.0
176
     1
 90
        0
176
     1
 62
    18
420
        0
176
     1
 90
       50
176
     1
 90
        3
176
     1
 62
     5
420
      255
176
     1
290
     0
176
     1
 90
       50
176
     1
 90
       50
176
     1
 90
       50
176
     1
290
     0
176
     1
 90
       50
176
     1
 62
   256
176
     0
 40
1.0
176
     0
 90
        2
176
     1
  1
strokes_ogs.tif
176
     1
290
     0
176
     1
 40
1.0
176
     1
 40
1.0
176
     1
  0
VISUALSTYLE
  5
32
102
{ACAD_REACTORS
330
2A
102
}
330
2A
100
AcDbVisualStyle
  2
Basic
 70
     7
177
     3
291
     1
 70
    58
 90
        1
176
     1
 90
        0
176
     1
 90
        1
176
     1
 90
        0
176
     1
 40
0.6
176
     1
 40
30.0
176
     1
 62
     7
420
 16777215
176
     1
 90
        0
176
     1
 90
        4
176
     1
 62
     7
176
     1
 62
   257
176
     1
 90
        1
176
     1
 90
        1
176
     1
 40
1.0
176
     1
 90
        8
176
     1
 62
     7
176
     1
 40
1.0
176
     1
 90
        1
176
     1
 90
        6
176
     1
 90
        2
176
     1
 62
     7
176
     1
 90
        5
176
     1
 90
        0
176
     1
 90
        0
176
     1
290
     0
176
     1
 90
        1
176
     1
 40
0.0
176
     1
 90
        0
176
     1
290
     0
176
     1
290
     1
176
     1
290
     1
176
     1
290
     0
176
     1
290
     0
176
     1
290
     0
176
     1
290
     0
176
     1
290
     0
176
     1
290
     0
176
     1
 90
       50
176
     1
 40
0.0
176
     1
 40
1.0
176
     1
 90
        0
176
     1
 62
    18
420
        0
176
     1
 90
       50
176
     1
 90
        3
176
     1
 62
     5
420
      255
176
     1
290
     0
176
     1
 90
       50
176
     1
 90
       50
176
     1
 90
       50
176
     1
290
     0
176
     1
 90
       50
176
     1
 62
   256
176
     0
 40
1.0
176
     0
 90
        2
176
     1
  1
strokes_ogs.tif
176
     1
290
     0
176
     1
 40
1.0
176
     1
 40
1.0
176
     1
  0
VISUALSTYLE
  5
36
102
{ACAD_REACTORS
330
2A
102
}
330
2A
100
AcDbVisualStyle
  2
Brighten
 70
    12
177
     3
291
     1
 70
    58
 90
        2
176
     1
 90
        2
176
     1
 90
        0
176
     1
 90
        0
176
     1
 40
0.6
176
     1
 40
30.0
176
     1
 62
     7
420
 16777215
176
     1
 90
        1
176
     1
 90
        4
176
     1
 62
     7
176
     1
 62
   257
176
     1
 90
        1
176
     1
 90
        1
176
     1
 40
1.0
176
     1
 90
        8
176
     1
 62
     7
176
     1
 40
1.0
176
     1
 90
        1
176
     1
 90
        6
176
     1
 90
        2
176
     1
 62
     7
176
     1
 90
        5
176
     1
 90
        0
176
     1
 90
        0
176
     1
290
     0
176
     1
 90
        1
176
     1
 40
50.0
176
     1
 90
        0
176
     1
290
     0
176
     1
290
     1
176
     1
290
     1
176
     1
290
     0
176
     1
290
     0
176
     1
290
     0
176
     1
290
     0
176
     1
290
     0
176
     1
290
     0
176
     1
 90
       50
176
     1
 40
0.0
176
     1
 40
1.0
176
     1
 90
        0
176
     1
 62
    18
420
        0
176
     1
 90
       50
176
     1
 90
        3
176
     1
 62
     5
420
      255
176
     1
290
     0
176
     1
 90
       50
176
     1
 90
       50
176
     1
 90
       50
176
     1
290
     0
176
     1
 90
       50
176
     1
 62
   256
176
     0
 40
1.0
176
     0
 90
        2
176
     1
  1
strokes_ogs.tif
176
     1
290
     0
176
     1
 40
1.0
176
     1
 40
1.0
176
     1
  0
VISUALSTYLE
  5
3A
102
{ACAD_REACTORS
330
2A
102
}
330
2A
100
AcDbVisualStyle
  2
ColorChange
 70
    16
177
     3
291
     1
 70
    58
 90
        2
176
     1
 90
        2
176
     1
 90
        3
176
     1
 90
        0
176
     1
 40
0.6
176
     1
 40
30.0
176
     1
 62
     8
420
  8421504
176
     1
 90
        1
176
     1
 90
        4
176
     1
 62
     7
176
     1
 62
   257
176
     1
 90
        1
176
     1
 90
        1
176
     1
 40
1.0
176
     1
 90
        8
176
     1
 62
     8
420
  8421504
176
     1
 40
1.0
176
     1
 90
        1
176
     1
 90
        6
176
     1
 90
        2
176
     1
 62
     7
176
     1
 90
        5
176
     1
 90
        0
176
     1
 90
        0
176
     1
290
     0
176
     1
 90
        1
176
     1
 40
0.0
176
     1
 90
        0
176
     1
290
     0
176
     1
290
     1
176
     1
290
     1
176
     1
290
     0
176
     1
290
     0
176
     1
290
     0
176
     1
290
     0
176
     1
290
     0
176
     1
290
     0
176
     1
 90
       50
176
     1
 40
0.0
176
     1
 40
1.0
176
     1
 90
        0
176
     1
 62
    18
420
        0
176
     1
 90
       50
176
     1
 90
        3
176
     1
 62
     5
420
      255
176
     1
290
     0
176
     1
 90
       50
176
     1
 90
       50
176
     1
 90
       50
176
     1
290
     0
176
     1
 90
       50
176
     1
 62
   256
176
     0
 40
1.0
176
     0
 90
        2
176
     1
  1
strokes_ogs.tif
176
     1
290
     0
176
     1
 40
1.0
176
     1
 40
1.0
176
     1
  0
VISUALSTYLE
  5
34
102
{ACAD_REACTORS
330
2A
102
}
330
2A
100
AcDbVisualStyle
  2
Conceptual
 70
     9
177
     3
291
     0
 70
    58
 90
        3
176
     1
 90
        2
176
     1
 90
        0
176
     1
 90
        0
176
     1
 40
0.6
176
     1
 40
30.0
176
     1
 62
     7
420
 16777215
176
     1
 90
        2
176
     1
 90
        2
176
     1
 62
     7
176
     1
 62
   257
176
     1
 90
        1
176
     1
 90
        1
176
     1
 40
179.0
176
     1
 90
        8
176
     1
 62
     7
176
     1
 40
1.0
176
     1
 90
        1
176
     1
 90
        6
176
     1
 90
        2
176
     1
 62
     7
176
     1
 90
        3
176
     1
 90
        0
176
     1
 90
        0
176
     1
290
     0
176
     1
 90
        1
176
     1
 40
0.0
176
     1
 90
        0
176
     1
290
     0
176
     1
290
     1
176
     1
290
     1
176
     1
290
     0
176
     1
290
     0
176
     1
290
     0
176
     1
290
     0
176
     1
290
     0
176
     1
290
     0
176
     1
 90
       50
176
     1
 40
0.0
176
     1
 40
1.0
176
     1
 90
        0
176
     1
 62
    18
420
        0
176
     1
 90
       50
176
     1
 90
        3
176
     1
 62
     5
420
      255
176
     1
290
     0
176
     1
 90
       50
176
     1
 90
       50
176
     1
 90
       50
176
     1
290
     0
176
     1
 90
       50
176
     1
 62
   256
176
     0
 40
1.0
176
     0
 90
        2
176
     1
  1
strokes_ogs.tif
176
     1
290
     0
176
     1
 40
1.0
176
     1
 40
1.0
176
     1
  0
VISUALSTYLE
  5
35
102
{ACAD_REACTORS
330
2A
102
}
330
2A
100
AcDbVisualStyle
  2
Dim
 70
    11
177
     3
291
     1
 70
    58
 90
        2
176
     1
 90
        2
176
     1
 90
        0
176
     1
 90
        0
176
     1
 40
0.6
176
     1
 40
30.0
176
     1
 62
     7
420
 16777215
176
     1
 90
        1
176
     1
 90
        4
176
     1
 62
     7
176
     1
 62
   257
176
     1
 90
        1
176
     1
 90
        1
176
     1
 40
1.0
176
     1
 90
        8
176
     1
 62
     7
176
     1
 40
1.0
176
     1
 90
        1
176
     1
 90
        6
176
     1
 90
        2
176
     1
 62
     7
176
     1
 90
        5
176
     1
 90
        0
176
     1
 90
        0
176
     1
290
     0
176
     1
 90
        1
176
     1
 40
-50.0
176
     1
 90
        0
176
     1
290
     0
176
     1
290
     1
176
     1
290
     1
176
     1
290
     0
176
     1
290
     0
176
     1
290
     0
176
     1
290
     0
176
     1
290
     0
176
     1
290
     0
176
     1
 90
       50
176
     1
 40
0.0
176
     1
 40
1.0
176
     1
 90
        0
176
     1
 62
    18
420
        0
176
     1
 90
       50
176
     1
 90
        3
176
     1
 62
     5
420
      255
176
     1
290
     0
176
     1
 90
       50
176
     1
 90
       50
176
     1
 90
       50
176
     1
290
     0
176
     1
 90
       50
176
     1
 62
   256
176
     0
 40
1.0
176
     0
 90
        2
176
     1
  1
strokes_ogs.tif
176
     1
290
     0
176
     1
 40
1.0
176
     1
 40
1.0
176
     1
  0
VISUALSTYLE
  5
3D
102
{ACAD_REACTORS
330
2A
102
}
330
2A
100
AcDbVisualStyle
  2
EdgeColorOff
 70
    22
177
     3
291
     1
 70
    58
 90
        2
176
     0
 90
        2
176
     0
 90
        0
176
     0
 90
        0
176
     0
 40
0.6
176
     0
 40
30.0
176
     0
 62
     7
420
 16777215
176
     0
 90
        1
176
     0
 90
        4
176
     0
 62
     7
176
     0
 62
   257
176
     0
 90
        1
176
     0
 90
        1
176
     0
 40
1.0
176
     0
 90
        8
176
     2
 62
     7
176
     0
 40
1.0
176
     0
 90
        1
176
     0
 90
        6
176
     0
 90
        2
176
     0
 62
     7
176
     0
 90
        5
176
     0
 90
        0
176
     0
 90
        0
176
     0
290
     0
176
     0
 90
        1
176
     0
 40
0.0
176
     0
 90
        0
176
     0
290
     0
176
     0
290
     1
176
     0
290
     1
176
     0
290
     0
176
     0
290
     0
176
     0
290
     0
176
     0
290
     0
176
     0
290
     0
176
     0
290
     0
176
     0
 90
       50
176
     0
 40
0.0
176
     0
 40
1.0
176
     0
 90
        0
176
     0
 62
    18
420
        0
176
     0
 90
       50
176
     0
 90
        3
176
     0
 62
     5
420
      255
176
     0
290
     0
176
     0
 90
       50
176
     0
 90
       50
176
     0
 90
       50
176
     0
290
     0
176
     0
 90
       50
176
     0
 62
   256
176
     0
 40
1.0
176
     0
 90
        2
176
     0
  1
strokes_ogs.tif
176
     0
290
     0
176
     0
 40
1.0
176
     0
 40
1.0
176
     0
  0
VISUALSTYLE
  5
39
102
{ACAD_REACTORS
330
2A
102
}
330
2A
100
AcDbVisualStyle
  2
Facepattern
 70
    15
177
     3
291
     1
 70
    58
 90
        2
176
     1
 90
        2
176
     1
 90
        0
176
     1
 90
        0
176
     1
 40
0.6
176
     1
 40
30.0
176
     1
 62
     7
420
 16777215
176
     1
 90
        1
176
     1
 90
        4
176
     1
 62
     7
176
     1
 62
   257
176
     1
 90
        1
176
     1
 90
        1
176
     1
 40
1.0
176
     1
 90
        8
176
     1
 62
     7
176
     1
 40
1.0
176
     1
 90
        1
176
     1
 90
        6
176
     1
 90
        2
176
     1
 62
     7
176
     1
 90
        5
176
     1
 90
        0
176
     1
 90
        0
176
     1
290
     0
176
     1
 90
        1
176
     1
 40
0.0
176
     1
 90
        0
176
     1
290
     0
176
     1
290
     1
176
     1
290
     1
176
     1
290
     0
176
     1
290
     0
176
     1
290
     0
176
     1
290
     0
176
     1
290
     0
176
     1
290
     0
176
     1
 90
       50
176
     1
 40
0.0
176
     1
 40
1.0
176
     1
 90
        0
176
     1
 62
    18
420
        0
176
     1
 90
       50
176
     1
 90
        3
176
     1
 62
     5
420
      255
176
     1
290
     0
176
     1
 90
       50
176
     1
 90
       50
176
     1
 90
       50
176
     1
290
     0
176
     1
 90
       50
176
     1
 62
   256
176
     0
 40
1.0
176
     0
 90
        2
176
     1
  1
strokes_ogs.tif
176
     1
290
     0
176
     1
 40
1.0
176
     1
 40
1.0
176
     1
  0
VISUALSTYLE
  5
2B
102
{ACAD_REACTORS
330
2A
102
}
330
2A
100
AcDbVisualStyle
  2
Flat
 70
     0
177
     3
291
     1
 70
    58
 90
        2
176
     1
 90
        1
176
     1
 90
        1
176
     1
 90
        2
176
     1
 40
0.6
176
     1
 40
30.0
176
     1
 62
     7
420
 16777215
176
     1
 90
        0
176
     1
 90
        0
176
     1
 62
     7
176
     1
 62
   257
176
     1
 90
        1
176
     1
 90
        1
176
     1
 40
1.0
176
     1
 90
        8
176
     1
 62
     7
176
     1
 40
1.0
176
     1
 90
        1
176
     1
 90
        6
176
     1
 90
        2
176
     1
 62
     7
176
     1
 90
        5
176
     1
 90
        0
176
     1
 90
        0
176
     1
290
     0
176
     1
 90
       13
176
     1
 40
0.0
176
     1
 90
        0
176
     1
290
     0
176
     1
290
     1
176
     1
290
     1
176
     1
290
     0
176
     1
290
     0
176
     1
290
     0
176
     1
290
     0
176
     1
290
     0
176
     1
290
     0
176
     1
 90
       50
176
     1
 40
0.0
176
     1
 40
1.0
176
     1
 90
        0
176
     1
 62
    18
420
        0
176
     1
 90
       50
176
     1
 90
        3
176
     1
 62
     5
420
      255
176
     1
290
     0
176
     1
 90
       50
176
     1
 90
       50
176
     1
 90
       50
176
     1
290
     0
176
     1
 90
       50
176
     1
 62
   256
176
     0
 40
1.0
176
     0
 90
        2
176
     1
  1
strokes_ogs.tif
176
     1
290
     0
176
     1
 40
1.0
176
     1
 40
1.0
176
     1
  0
VISUALSTYLE
  5
2C
102
{ACAD_REACTORS
330
2A
102
}
330
2A
100
AcDbVisualStyle
  2
FlatWithEdges
 70
     1
177
     3
291
     1
 70
    58
 90
        2
176
     1
 90
        1
176
     1
 90
        1
176
     1
 90
        2
176
     1
 40
0.6
176
     1
 40
30.0
176
     1
 62
     7
420
 16777215
176
     1
 90
        1
176
     1
 90
        0
176
     1
 62
     7
176
     1
 62
   257
176
     1
 90
        1
176
     1
 90
        1
176
     1
 40
1.0
176
     1
 90
        0
176
     1
 62
   257
176
     1
 40
1.0
176
     1
 90
        1
176
     1
 90
        6
176
     1
 90
        2
176
     1
 62
     7
176
     1
 90
        5
176
     1
 90
        0
176
     1
 90
        0
176
     1
290
     0
176
     1
 90
       13
176
     1
 40
0.0
176
     1
 90
        0
176
     1
290
     0
176
     1
290
     1
176
     1
290
     1
176
     1
290
     0
176
     1
290
     0
176
     1
290
     0
176
     1
290
     0
176
     1
290
     0
176
     1
290
     0
176
     1
 90
       50
176
     1
 40
0.0
176
     1
 40
1.0
176
     1
 90
        0
176
     1
 62
    18
420
        0
176
     1
 90
       50
176
     1
 90
        3
176
     1
 62
     5
420
      255
176
     1
290
     0
176
     1
 90
       50
176
     1
 90
       50
176
     1
 90
       50
176
     1
290
     0
176
     1
 90
       50
176
     1
 62
   256
176
     0
 40
1.0
176
     0
 90
        2
176
     1
  1
strokes_ogs.tif
176
     1
290
     0
176
     1
 40
1.0
176
     1
 40
1.0
176
     1
  0
VISUALSTYLE
  5
2D
102
{ACAD_REACTORS
330
2A
102
}
330
2A
100
AcDbVisualStyle
  2
Gouraud
 70
     2
177
     3
291
     1
 70
    58
 90
        2
176
     1
 90
        2
176
     1
 90
        1
176
     1
 90
        2
176
     1
 40
0.6
176
     1
 40
30.0
176
     1
 62
     7
420
 16777215
176
     1
 90
        0
176
     1
 90
        0
176
     1
 62
     7
176
     1
 62
   257
176
     1
 90
        1
176
     1
 90
        1
176
     1
 40
1.0
176
     1
 90
        0
176
     1
 62
     7
176
     1
 40
1.0
176
     1
 90
        1
176
     1
 90
        6
176
     1
 90
        2
176
     1
 62
     7
176
     1
 90
        5
176
     1
 90
        0
176
     1
 90
        0
176
     1
290
     0
176
     1
 90
       13
176
     1
 40
0.0
176
     1
 90
        0
176
     1
290
     0
176
     1
290
     1
176
     1
290
     1
176
     1
290
     0
176
     1
290
     0
176
     1
290
     0
176
     1
290
     0
176
     1
290
     0
176
     1
290
     0
176
     1
 90
       50
176
     1
 40
0.0
176
     1
 40
1.0
176
     1
 90
        0
176
     1
 62
    18
420
        0
176
     1
 90
       50
176
     1
 90
        3
176
     1
 62
     5
420
      255
176
     1
290
     0
176
     1
 90
       50
176
     1
 90
       50
176
     1
 90
       50
176
     1
290
     0
176
     1
 90
       50
176
     1
 62
   256
176
     0
 40
1.0
176
     0
 90
        2
176
     1
  1
strokes_ogs.tif
176
     1
290
     0
176
     1
 40
1.0
176
     1
 40
1.0
176
     1
  0
VISUALSTYLE
  5
2E
102
{ACAD_REACTORS
330
2A
102
}
330
2A
100
AcDbVisualStyle
  2
GouraudWithEdges
 70
     3
177
     3
291
     1
 70
    58
 90
        2
176
     1
 90
        2
176
     1
 90
        1
176
     1
 90
        2
176
     1
 40
0.6
176
     1
 40
30.0
176
     1
 62
     7
420
 16777215
176
     1
 90
        1
176
     1
 90
        0
176
     1
 62
     7
176
     1
 62
   257
176
     1
 90
        1
176
     1
 90
        1
176
     1
 40
1.0
176
     1
 90
        0
176
     1
 62
   257
176
     1
 40
1.0
176
     1
 90
        1
176
     1
 90
        6
176
     1
 90
        2
176
     1
 62
     7
176
     1
 90
        5
176
     1
 90
        0
176
     1
 90
        0
176
     1
290
     0
176
     1
 90
       13
176
     1
 40
0.0
176
     1
 90
        0
176
     1
290
     0
176
     1
290
     1
176
     1
290
     1
176
     1
290
     0
176
     1
290
     0
176
     1
290
     0
176
     1
290
     0
176
     1
290
     0
176
     1
290
     0
176
     1
 90
       50
176
     1
 40
0.0
176
     1
 40
1.0
176
     1
 90
        0
176
     1
 62
    18
420
        0
176
     1
 90
       50
176
     1
 90
        3
176
     1
 62
     5
420
      255
176
     1
290
     0
176
     1
 90
       50
176
     1
 90
       50
176
     1
 90
       50
176
     1
290
     0
176
     1
 90
       50
176
     1
 62
   256
176
     0
 40
1.0
176
     0
 90
        2
176
     1
  1
strokes_ogs.tif
176
     1
290
     0
176
     1
 40
1.0
176
     1
 40
1.0
176
     1
  0
VISUALSTYLE
  5
31
102
{ACAD_REACTORS
330
2A
102
}
330
2A
100
AcDbVisualStyle
  2
Hidden
 70
     6
177
     3
291
     0
 70
    58
 90
        1
176
     1
 90
        2
176
     1
 90
        2
176
     1
 90
        0
176
     1
 40
0.6
176
     1
 40
30.0
176
     1
 62
     7
420
 16777215
176
     1
 90
        2
176
     1
 90
        2
176
     1
 62
     7
176
     1
 62
   257
176
     1
 90
        2
176
     1
 90
        1
176
     1
 40
40.0
176
     1
 90
        0
176
     1
 62
   257
176
     1
 40
1.0
176
     1
 90
        1
176
     1
 90
        6
176
     1
 90
        2
176
     1
 62
     7
176
     1
 90
        3
176
     1
 90
        0
176
     1
 90
        0
176
     1
290
     0
176
     1
 90
        1
176
     1
 40
0.0
176
     1
 90
        0
176
     1
290
     0
176
     1
290
     1
176
     1
290
     1
176
     1
290
     0
176
     1
290
     0
176
     1
290
     0
176
     1
290
     0
176
     1
290
     0
176
     1
290
     0
176
     1
 90
       50
176
     1
 40
0.0
176
     1
 40
1.0
176
     1
 90
        0
176
     1
 62
    18
420
        0
176
     1
 90
       50
176
     1
 90
        3
176
     1
 62
     5
420
      255
176
     1
290
     0
176
     1
 90
       50
176
     1
 90
       50
176
     1
 90
       50
176
     1
290
     0
176
     1
 90
       50
176
     1
 62
   256
176
     0
 40
1.0
176
     0
 90
        2
176
     1
  1
strokes_ogs.tif
176
     1
290
     0
176
     1
 40
1.0
176
     1
 40
1.0
176
     1
  0
VISUALSTYLE
  5
3B
102
{ACAD_REACTORS
330
2A
102
}
330
2A
100
AcDbVisualStyle
  2
JitterOff
 70
    20
177
     3
291
     1
 70
    58
 90
        2
176
     0
 90
        2
176
     0
 90
        0
176
     0
 90
        0
176
     0
 40
0.6
176
     0
 40
30.0
176
     0
 62
     7
420
 16777215
176
     0
 90
        1
176
     0
 90
        4
176
     0
 62
     7
176
     0
 62
   257
176
     0
 90
        1
176
     0
 90
        1
176
     0
 40
1.0
176
     0
 90
       10
176
     2
 62
     7
176
     0
 40
1.0
176
     0
 90
        1
176
     0
 90
        6
176
     0
 90
        2
176
     0
 62
     7
176
     0
 90
        5
176
     0
 90
        0
176
     0
 90
        0
176
     0
290
     0
176
     0
 90
        1
176
     0
 40
0.0
176
     0
 90
        0
176
     0
290
     0
176
     0
290
     1
176
     0
290
     1
176
     0
290
     0
176
     0
290
     0
176
     0
290
     0
176
     0
290
     0
176
     0
290
     0
176
     0
290
     0
176
     0
 90
       50
176
     0
 40
0.0
176
     0
 40
1.0
176
     0
 90
        0
176
     0
 62
    18
420
        0
176
     0
 90
       50
176
     0
 90
        3
176
     0
 62
     5
420
      255
176
     0
290
     0
176
     0
 90
       50
176
     0
 90
       50
176
     0
 90
       50
176
     0
290
     0
176
     0
 90
       50
176
     0
 62
   256
176
     0
 40
1.0
176
     0
 90
        2
176
     0
  1
strokes_ogs.tif
176
     0
290
     0
176
     0
 40
1.0
176
     0
 40
1.0
176
     0
  0
VISUALSTYLE
  5
38
102
{ACAD_REACTORS
330
2A
102
}
330
2A
100
AcDbVisualStyle
  2
Linepattern
 70
    14
177
     3
291
     1
 70
    58
 90
        2
176
     1
 90
        2
176
     1
 90
        0
176
     1
 90
        0
176
     1
 40
0.6
176
     1
 40
30.0
176
     1
 62
     7
420
 16777215
176
     1
 90
        1
176
     1
 90
        4
176
     1
 62
     7
176
     1
 62
   257
176
     1
 90
        7
176
     1
 90
        7
176
     1
 40
1.0
176
     1
 90
        8
176
     1
 62
     7
176
     1
 40
1.0
176
     1
 90
        1
176
     1
 90
        6
176
     1
 90
        2
176
     1
 62
     7
176
     1
 90
        5
176
     1
 90
        0
176
     1
 90
        0
176
     1
290
     0
176
     1
 90
        1
176
     1
 40
0.0
176
     1
 90
        0
176
     1
290
     0
176
     1
290
     1
176
     1
290
     1
176
     1
290
     0
176
     1
290
     0
176
     1
290
     0
176
     1
290
     0
176
     1
290
     0
176
     1
290
     0
176
     1
 90
       50
176
     1
 40
0.0
176
     1
 40
1.0
176
     1
 90
        0
176
     1
 62
    18
420
        0
176
     1
 90
       50
176
     1
 90
        3
176
     1
 62
     5
420
      255
176
     1
290
     0
176
     1
 90
       50
176
     1
 90
       50
176
     1
 90
       50
176
     1
290
     0
176
     1
 90
       50
176
     1
 62
   256
176
     0
 40
1.0
176
     0
 90
        2
176
     1
  1
strokes_ogs.tif
176
     1
290
     0
176
     1
 40
1.0
176
     1
 40
1.0
176
     1
  0
VISUALSTYLE
  5
3C
102
{ACAD_REACTORS
330
2A
102
}
330
2A
100
AcDbVisualStyle
  2
OverhangOff
 70
    21
177
     3
291
     1
 70
    58
 90
        2
176
     0
 90
        2
176
     0
 90
        0
176
     0
 90
        0
176
     0
 40
0.6
176
     0
 40
30.0
176
     0
 62
     7
420
 16777215
176
     0
 90
        1
176
     0
 90
        4
176
     0
 62
     7
176
     0
 62
   257
176
     0
 90
        1
176
     0
 90
        1
176
     0
 40
1.0
176
     0
 90
        9
176
     2
 62
     7
176
     0
 40
1.0
176
     0
 90
        1
176
     0
 90
        6
176
     0
 90
        2
176
     0
 62
     7
176
     0
 90
        5
176
     0
 90
        0
176
     0
 90
        0
176
     0
290
     0
176
     0
 90
        1
176
     0
 40
0.0
176
     0
 90
        0
176
     0
290
     0
176
     0
290
     1
176
     0
290
     1
176
     0
290
     0
176
     0
290
     0
176
     0
290
     0
176
     0
290
     0
176
     0
290
     0
176
     0
290
     0
176
     0
 90
       50
176
     0
 40
0.0
176
     0
 40
1.0
176
     0
 90
        0
176
     0
 62
    18
420
        0
176
     0
 90
       50
176
     0
 90
        3
176
     0
 62
     5
420
      255
176
     0
290
     0
176
     0
 90
       50
176
     0
 90
       50
176
     0
 90
       50
176
     0
290
     0
176
     0
 90
       50
176
     0
 62
   256
176
     0
 40
1.0
176
     0
 90
        2
176
     0
  1
strokes_ogs.tif
176
     0
290
     0
176
     0
 40
1.0
176
     0
 40
1.0
176
     0
  0
VISUALSTYLE
  5
33
102
{ACAD_REACTORS
330
2A
102
}
330
2A
100
AcDbVisualStyle
  2
Realistic
 70
     8
177
     3
291
     0
 70
    58
 90
        2
176
     1
 90
        3
176
     1
 90
        0
176
     1
 90
        2
176
     1
 40
0.6
176
     1
 40
30.0
176
     1
 62
     7
420
 16777215
176
     1
 90
        0
176
     1
 90
        0
176
     1
 62
     7
176
     1
 62
   257
176
     1
 90
        1
176
     1
 90
        1
176
     1
 40
1.0
176
     1
 90
        8
176
     1
 62
   257
176
     1
 40
1.0
176
     1
 90
        1
176
     1
 90
        6
176
     1
 90
        2
176
     1
 62
     7
176
     1
 90
        3
176
     1
 90
        0
176
     1
 90
        0
176
     1
290
     0
176
     1
 90
       13
176
     1
 40
0.0
176
     1
 90
        0
176
     1
290
     0
176
     1
290
     1
176
     1
290
     1
176
     1
290
     0
176
     1
290
     0
176
     1
290
     0
176
     1
290
     0
176
     1
290
     0
176
     1
290
     0
176
     1
 90
       50
176
     1
 40
0.0
176
     1
 40
1.0
176
     1
 90
        0
176
     1
 62
    18
420
        0
176
     1
 90
       50
176
     1
 90
        3
176
     1
 62
     5
420
      255
176
     1
290
     0
176
     1
 90
       50
176
     1
 90
       50
176
     1
 90
       50
176
     1
290
     0
176
     1
 90
       50
176
     1
 62
   256
176
     0
 40
1.0
176
     0
 90
        2
176
     1
  1
strokes_ogs.tif
176
     1
290
     0
176
     1
 40
1.0
176
     1
 40
1.0
176
     1
  0
VISUALSTYLE
  5
42
102
{ACAD_REACTORS
330
2A
102
}
330
2A
100
AcDbVisualStyle
  2
Shaded
 70
    27
177
     3
291
     0
 70
    58
 90
        2
176
     1
 90
        2
176
     1
 90
        1
176
     1
 90
        2
176
     1
 40
0.6
176
     1
 40
30.0
176
     1
 62
     7
420
 16777215
176
     1
 90
        0
176
     1
 90
        4
176
     1
 62
     7
176
     1
 62
   257
176
     1
 90
        1
176
     1
 90
        1
176
     1
 40
1.0
176
     1
 90
        8
176
     1
 62
   257
176
     1
 40
1.0
176
     1
 90
        1
176
     1
 90
        6
176
     1
 90
        2
176
     1
 62
     8
420
  7895160
176
     1
 90
        3
176
     1
 90
        0
176
     1
 90
        0
176
     1
290
     0
176
     1
 90
        5
176
     1
 40
0.0
176
     1
 90
        0
176
     1
290
     0
176
     1
290
     1
176
     1
290
     1
176
     1
290
     0
176
     1
290
     0
176
     1
290
     0
176
     1
290
     0
176
     1
290
     0
176
     1
290
     0
176
     1
 90
       50
176
     1
 40
0.0
176
     1
 40
1.0
176
     1
 90
        0
176
     1
 62
    18
420
        0
176
     1
 90
       50
176
     1
 90
        3
176
     1
 62
     5
420
      255
176
     1
290
     0
176
     1
 90
       50
176
     1
 90
       50
176
     1
 90
       50
176
     1
290
     0
176
     1
 90
       50
176
     1
 62
   256
176
     0
 40
1.0
176
     0
 90
        2
176
     1
  1
strokes_ogs.tif
176
     1
290
     0
176
     1
 40
1.0
176
     1
 40
1.0
176
     1
  0
VISUALSTYLE
  5
41
102
{ACAD_REACTORS
330
2A
102
}
330
2A
100
AcDbVisualStyle
  2
Shaded with edges
 70
    26
177
     3
291
     0
 70
    58
 90
        2
176
     1
 90
        2
176
     1
 90
        1
176
     1
 90
        2
176
     1
 40
0.6
176
     1
 40
30.0
176
     1
 62
     7
420
 16777215
176
     1
 90
        1
176
     1
 90
       10
176
     1
 62
     7
176
     1
 62
   257
176
     1
 90
        2
176
     1
 90
        1
176
     1
 40
1.0
176
     1
 90
        8
176
     1
 62
   257
176
     1
 40
1.0
176
     1
 90
        1
176
     1
 90
        6
176
     1
 90
        2
176
     1
 62
     7
176
     1
 90
        3
176
     1
 90
        0
176
     1
 90
        0
176
     1
290
     0
176
     1
 90
        5
176
     1
 40
0.0
176
     1
 90
        0
176
     1
290
     0
176
     1
290
     1
176
     1
290
     1
176
     1
290
     0
176
     1
290
     0
176
     1
290
     0
176
     1
290
     0
176
     1
290
     0
176
     1
290
     0
176
     1
 90
       50
176
     1
 40
0.0
176
     1
 40
1.0
176
     1
 90
        0
176
     1
 62
    18
420
        0
176
     1
 90
       50
176
     1
 90
        3
176
     1
 62
     5
420
      255
176
     1
290
     0
176
     1
 90
       50
176
     1
 90
       50
176
     1
 90
       50
176
     1
290
     0
176
     1
 90
       50
176
     1
 62
   256
176
     0
 40
1.0
176
     0
 90
        2
176
     1
  1
strokes_ogs.tif
176
     1
290
     0
176
     1
 40
1.0
176
     1
 40
1.0
176
     1
  0
VISUALSTYLE
  5
3E
102
{ACAD_REACTORS
330
2A
102
}
330
2A
100
AcDbVisualStyle
  2
Shades of Gray
 70
    23
177
     3
291
     0
 70
    58
 90
        2
176
     1
 90
        2
176
     1
 90
        3
176
     1
 90
        0
176
     1
 40
0.6
176
     1
 40
30.0
176
     1
 62
     7
420
 16777215
176
     1
 90
        2
176
     1
 90
        2
176
     1
 62
     7
176
     1
 62
     7
176
     1
 90
        1
176
     1
 90
        1
176
     1
 40
40.0
176
     1
 90
        8
176
     1
 62
     7
176
     1
 40
1.0
176
     1
 90
        1
176
     1
 90
        6
176
     1
 90
        2
176
     1
 62
     7
176
     1
 90
        3
176
     1
 90
        0
176
     1
 90
        0
176
     1
290
     0
176
     1
 90
        1
176
     1
 40
0.0
176
     1
 90
        0
176
     1
290
     0
176
     1
290
     1
176
     1
290
     1
176
     1
290
     0
176
     1
290
     0
176
     1
290
     0
176
     1
290
     0
176
     1
290
     0
176
     1
290
     0
176
     1
 90
       50
176
     1
 40
0.0
176
     1
 40
1.0
176
     1
 90
        0
176
     1
 62
    18
420
        0
176
     1
 90
       50
176
     1
 90
        3
176
     1
 62
     5
420
      255
176
     1
290
     0
176
     1
 90
       50
176
     1
 90
       50
176
     1
 90
       50
176
     1
290
     0
176
     1
 90
       50
176
     1
 62
   256
176
     0
 40
1.0
176
     0
 90
        2
176
     1
  1
strokes_ogs.tif
176
     1
290
     0
176
     1
 40
1.0
176
     1
 40
1.0
176
     1
  0
VISUALSTYLE
  5
3F
102
{ACAD_REACTORS
330
2A
102
}
330
2A
100
AcDbVisualStyle
  2
Sketchy
 70
    24
177
     3
291
     0
 70
    58
 90
        1
176
     1
 90
        2
176
     1
 90
        2
176
     1
 90
        0
176
     1
 40
0.6
176
     1
 40
30.0
176
     1
 62
     7
420
 16777215
176
     1
 90
        2
176
     1
 90
        2
176
     1
 62
     7
176
     1
 62
     7
176
     1
 90
        1
176
     1
 90
        1
176
     1
 40
40.0
176
     1
 90
       11
176
     1
 62
     7
176
     1
 40
1.0
176
     1
 90
        1
176
     1
 90
        6
176
     1
 90
        2
176
     1
 62
     7
176
     1
 90
        6
176
     1
 90
        0
176
     1
 90
        0
176
     1
290
     0
176
     1
 90
        1
176
     1
 40
0.0
176
     1
 90
        0
176
     1
290
     0
176
     1
290
     1
176
     1
290
     1
176
     1
290
     0
176
     1
290
     0
176
     1
290
     0
176
     1
290
     0
176
     1
290
     0
176
     1
290
     0
176
     1
 90
       50
176
     1
 40
0.0
176
     1
 40
1.0
176
     1
 90
        0
176
     1
 62
    18
420
        0
176
     1
 90
       50
176
     1
 90
        3
176
     1
 62
     5
420
      255
176
     1
290
     0
176
     1
 90
       50
176
     1
 90
       50
176
     1
 90
       50
176
     1
290
     0
176
     1
 90
       50
176
     1
 62
   256
176
     0
 40
1.0
176
     0
 90
        2
176
     1
  1
strokes_ogs.tif
176
     1
290
     0
176
     1
 40
1.0
176
     1
 40
1.0
176
     1
  0
VISUALSTYLE
  5
37
102
{ACAD_REACTORS
330
2A
102
}
330
2A
100
AcDbVisualStyle
  2
Thicken
 70
    13
177
     3
291
     1
 70
    58
 90
        2
176
     1
 90
        2
176
     1
 90
        0
176
     1
 90
        0
176
     1
 40
0.6
176
     1
 40
30.0
176
     1
 62
     7
420
 16777215
176
     1
 90
        1
176
     1
 90
        4
176
     1
 62
     7
176
     1
 62
   257
176
     1
 90
        1
176
     1
 90
        1
176
     1
 40
1.0
176
     1
 90
       12
176
     1
 62
     7
176
     1
 40
1.0
176
     1
 90
        1
176
     1
 90
        6
176
     1
 90
        2
176
     1
 62
     7
176
     1
 90
        5
176
     1
 90
        0
176
     1
 90
        0
176
     1
290
     0
176
     1
 90
        1
176
     1
 40
0.0
176
     1
 90
        0
176
     1
290
     0
176
     1
290
     1
176
     1
290
     1
176
     1
290
     0
176
     1
290
     0
176
     1
290
     0
176
     1
290
     0
176
     1
290
     0
176
     1
290
     0
176
     1
 90
       50
176
     1
 40
0.0
176
     1
 40
1.0
176
     1
 90
        0
176
     1
 62
    18
420
        0
176
     1
 90
       50
176
     1
 90
        3
176
     1
 62
     5
420
      255
176
     1
290
     0
176
     1
 90
       50
176
     1
 90
       50
176
     1
 90
       50
176
     1
290
     0
176
     1
 90
       50
176
     1
 62
   256
176
     0
 40
1.0
176
     0
 90
        2
176
     1
  1
strokes_ogs.tif
176
     1
290
     0
176
     1
 40
1.0
176
     1
 40
1.0
176
     1
  0
VISUALSTYLE
  5
30
102
{ACAD_REACTORS
330
2A
102
}
330
2A
100
AcDbVisualStyle
  2
Wireframe
 70
     5
177
     3
291
     0
 70
    58
 90
        0
176
     1
 90
        2
176
     1
 90
        0
176
     1
 90
        0
176
     1
 40
0.6
176
     1
 40
30.0
176
     1
 62
     7
420
 16777215
176
     1
 90
        1
176
     1
 90
        4
176
     1
 62
     7
176
     1
 62
   257
176
     1
 90
        1
176
     1
 90
        1
176
     1
 40
1.0
176
     1
 90
        0
176
     1
 62
   257
176
     1
 40
1.0
176
     1
 90
        1
176
     1
 90
        6
176
     1
 90
        2
176
     1
 62
     7
176
     1
 90
        3
176
     1
 90
        0
176
     1
 90
        0
176
     1
290
     0
176
     1
 90
        1
176
     1
 40
0.0
176
     1
 90
        0
176
     1
290
     0
176
     1
290
     1
176
     1
290
     1
176
     1
290
     0
176
     1
290
     0
176
     1
290
     0
176
     1
290
     0
176
     1
290
     0
176
     1
290
     0
176
     1
 90
       50
176
     1
 40
0.0
176
     1
 40
1.0
176
     1
 90
        0
176
     1
 62
    18
420
        0
176
     1
 90
       50
176
     1
 90
        3
176
     1
 62
     5
420
      255
176
     1
290
     0
176
     1
 90
       50
176
     1
 90
       50
176
     1
 90
       50
176
     1
290
     0
176
     1
 90
       50
176
     1
 62
   256
176
     0
 40
1.0
176
     0
 90
        2
176
     1
  1
strokes_ogs.tif
176
     1
290
     0
176
     1
 40
1.0
176
     1
 40
1.0
176
     1
  0
VISUALSTYLE
  5
40
102
{ACAD_REACTORS
330
2A
102
}
330
2A
100
AcDbVisualStyle
  2
X-Ray
 70
    25
177
     3
291
     0
 70
    58
 90
        2
176
     1
 90
        2
176
     1
 90
        1
176
     1
 90
        1
176
     1
 40
0.5
176
     1
 40
30.0
176
     1
 62
     7
420
 16777215
176
     1
 90
        1
176
     1
 90
        0
176
     1
 62
     7
176
     1
 62
   257
176
     1
 90
        1
176
     1
 90
        1
176
     1
 40
1.0
176
     1
 90
        8
176
     1
 62
     7
176
     1
 40
1.0
176
     1
 90
        1
176
     1
 90
        6
176
     1
 90
        2
176
     1
 62
     7
176
     1
 90
        3
176
     1
 90
        0
176
     1
 90
        0
176
     1
290
     0
176
     1
 90
       13
176
     1
 40
0.0
176
     1
 90
        0
176
     1
290
     0
176
     1
290
     1
176
     1
290
     1
176
     1
290
     0
176
     1
290
     0
176
     1
290
     0
176
     1
290
     0
176
     1
290
     0
176
     1
290
     0
176
     1
 90
       50
176
     1
 40
0.0
176
     1
 40
1.0
176
     1
 90
        0
176
     1
 62
    18
420
        0
176
     1
 90
       50
176
     1
 90
        3
176
     1
 62
     5
420
      255
176
     1
290
     0
176
     1
 90
       50
176
     1
 90
       50
176
     1
 90
       50
176
     1
290
     0
176
     1
 90
       50
176
     1
 62
   256
176
     0
 40
1.0
176
     0
 90
        2
176
     1
  1
strokes_ogs.tif
176
     1
290
     0
176
     1
 40
1.0
176
     1
 40
1.0
176
     1
  0
DICTIONARYVAR
  5
8B
102
{ACAD_REACTORS
330
8A
102
}
330
8A
100
DictionaryVariables
280
     0
  1
1:1
  0
DICTIONARYVAR
  5
90
102
{ACAD_REACTORS
330
8A
102
}
330
8A
100
DictionaryVariables
280
     0
  1
Standard
  0
DICTIONARYVAR
  5
8F
102
{ACAD_REACTORS
330
8A
102
}
330
8A
100
DictionaryVariables
280
     0
  1
Standard
  0
DICTIONARY
  5
8C
330
5A
100
AcDbDictionary
280
     1
281
     1
  3
ACAD_ROUNDTRIP_2008_TABLESTYLE_CELLSTYLEMAP
360
8D
  0
CELLSTYLEMAP
  5
8D
102
{ACAD_REACTORS
330
8C
102
}
330
8C
100
AcDbCellStyleMap
 90
        3
300
CELLSTYLE
  1
TABLEFORMAT_BEGIN
 90
        5
170
     1
 91
        0
 92
    32768
 62
   257
 93
        1
300
CONTENTFORMAT
  1
CONTENTFORMAT_BEGIN
 90
        0
 91
        0
 92
        4
 93
        0
300

 40
0.0
140
1.0
 94
        5
 62
     0
340
11
144
0.25
309
CONTENTFORMAT_END
171
     1
301
MARGIN
  1
CELLMARGIN_BEGIN
 40
0.06
 40
0.06
 40
0.06
 40
0.06
 40
0.06
 40
0.06
309
CELLMARGIN_END
 94
        6
 95
        1
302
GRIDFORMAT
  1
GRIDFORMAT_BEGIN
 90
        0
 91
        1
 62
     0
 92
       -2
340
14
 93
        0
 40
0.045
309
GRIDFORMAT_END
 95
        2
302
GRIDFORMAT
  1
GRIDFORMAT_BEGIN
 90
        0
 91
        1
 62
     0
 92
       -2
340
14
 93
        0
 40
0.045
309
GRIDFORMAT_END
 95
        4
302
GRIDFORMAT
  1
GRIDFORMAT_BEGIN
 90
        0
 91
        1
 62
     0
 92
       -2
340
14
 93
        0
 40
0.045
309
GRIDFORMAT_END
 95
        8
302
GRIDFORMAT
  1
GRIDFORMAT_BEGIN
 90
        0
 91
        1
 62
     0
 92
       -2
340
14
 93
        0
 40
0.045
309
GRIDFORMAT_END
 95
       16
302
GRIDFORMAT
  1
GRIDFORMAT_BEGIN
 90
        0
 91
        1
 62
     0
 92
       -2
340
14
 93
        0
 40
0.045
309
GRIDFORMAT_END
 95
       32
302
GRIDFORMAT
  1
GRIDFORMAT_BEGIN
 90
        0
 91
        1
 62
     0
 92
       -2
340
14
 93
        0
 40
0.045
309
GRIDFORMAT_END
309
TABLEFORMAT_END
  1
CELLSTYLE_BEGIN
 90
        1
 91
        1
300
_TITLE
309
CELLSTYLE_END
300
CELLSTYLE
  1
TABLEFORMAT_BEGIN
 90
        5
170
     1
 91
        0
 92
        0
 62
   257
 93
        1
300
CONTENTFORMAT
  1
CONTENTFORMAT_BEGIN
 90
        0
 91
        0
 92
        4
 93
        0
300

 40
0.0
140
1.0
 94
        5
 62
     0
340
11
144
0.18
309
CONTENTFORMAT_END
171
     1
301
MARGIN
  1
CELLMARGIN_BEGIN
 40
0.06
 40
0.06
 40
0.06
 40
0.06
 40
0.06
 40
0.06
309
CELLMARGIN_END
 94
        6
 95
        1
302
GRIDFORMAT
  1
GRIDFORMAT_BEGIN
 90
        0
 91
        1
 62
     0
 92
       -2
340
14
 93
        0
 40
0.045
309
GRIDFORMAT_END
 95
        2
302
GRIDFORMAT
  1
GRIDFORMAT_BEGIN
 90
        0
 91
        1
 62
     0
 92
       -2
340
14
 93
        0
 40
0.045
309
GRIDFORMAT_END
 95
        4
302
GRIDFORMAT
  1
GRIDFORMAT_BEGIN
 90
        0
 91
        1
 62
     0
 92
       -2
340
14
 93
        0
 40
0.045
309
GRIDFORMAT_END
 95
        8
302
GRIDFORMAT
  1
GRIDFORMAT_BEGIN
 90
        0
 91
        1
 62
     0
 92
       -2
340
14
 93
        0
 40
0.045
309
GRIDFORMAT_END
 95
       16
302
GRIDFORMAT
  1
GRIDFORMAT_BEGIN
 90
        0
 91
        1
 62
     0
 92
       -2
340
14
 93
        0
 40
0.045
309
GRIDFORMAT_END
 95
       32
302
GRIDFORMAT
  1
GRIDFORMAT_BEGIN
 90
        0
 91
        1
 62
     0
 92
       -2
340
14
 93
        0
 40
0.045
309
GRIDFORMAT_END
309
TABLEFORMAT_END
  1
CELLSTYLE_BEGIN
 90
        2
 91
        1
300
_HEADER
309
CELLSTYLE_END
300
CELLSTYLE
  1
TABLEFORMAT_BEGIN
 90
        5
170
     1
 91
        0
 92
        0
 62
   257
 93
        1
300
CONTENTFORMAT
  1
CONTENTFORMAT_BEGIN
 90
        0
 91
        0
 92
        4
 93
        0
300

 40
0.0
140
1.0
 94
        2
 62
     0
340
11
144
0.18
309
CONTENTFORMAT_END
171
     1
301
MARGIN
  1
CELLMARGIN_BEGIN
 40
0.06
 40
0.06
 40
0.06
 40
0.06
 40
0.06
 40
0.06
309
CELLMARGIN_END
 94
        6
 95
        1
302
GRIDFORMAT
  1
GRIDFORMAT_BEGIN
 90
        0
 91
        1
 62
     0
 92
       -2
340
14
 93
        0
 40
0.045
309
GRIDFORMAT_END
 95
        2
302
GRIDFORMAT
  1
GRIDFORMAT_BEGIN
 90
        0
 91
        1
 62
     0
 92
       -2
340
14
 93
        0
 40
0.045
309
GRIDFORMAT_END
 95
        4
302
GRIDFORMAT
  1
GRIDFORMAT_BEGIN
 90
        0
 91
        1
 62
     0
 92
       -2
340
14
 93
        0
 40
0.045
309
GRIDFORMAT_END
 95
        8
302
GRIDFORMAT
  1
GRIDFORMAT_BEGIN
 90
        0
 91
        1
 62
     0
 92
       -2
340
14
 93
        0
 40
0.045
309
GRIDFORMAT_END
 95
       16
302
GRIDFORMAT
  1
GRIDFORMAT_BEGIN
 90
        0
 91
        1
 62
     0
 92
       -2
340
14
 93
        0
 40
0.045
309
GRIDFORMAT_END
 95
       32
302
GRIDFORMAT
  1
GRIDFORMAT_BEGIN
 90
        0
 91
        1
 62
     0
 92
       -2
340
14
 93
        0
 40
0.045
309
GRIDFORMAT_END
309
TABLEFORMAT_END
  1
CELLSTYLE_BEGIN
 90
        3
 91
        2
300
_DATA
309
CELLSTYLE_END
  0
ENDSEC
  0
EOF
