  0
SECTION
  2
HEADER
  9
$ACADVER
  1
AC1027
  9
$ACADMAINTVER
 70
   105
  9
$DWGCODEPAGE
  3
ANSI_1252
  9
$LASTSAVEDBY
  1
Office Desk
  9
$REQUIREDVERSIONS
160
                 0
  9
$INSBASE
 10
0.0
 20
0.0
 30
0.0
  9
$EXTMIN
 10
16.14447637795276
 20
0.4010078740157481
 30
0.0
  9
$EXTMAX
 10
26.16503149606299
 20
5.718366141732283
 30
0.0
  9
$LIMMIN
 10
0.0
 20
0.0
  9
$LIMMAX
 10
12.0
 20
9.0
  9
$ORTHOMODE
 70
     0
  9
$REGENMODE
 70
     1
  9
$FILLMODE
 70
     1
  9
$QTEXTMODE
 70
     0
  9
$MIRRTEXT
 70
     1
  9
$LTSCALE
 40
1.0
  9
$ATTMODE
 70
     1
  9
$TEXTSIZE
 40
0.2
  9
$TRACEWID
 40
0.05
  9
$TEXTSTYLE
  7
Standard
  9
$CLAYER
  8
0
  9
$CELTYPE
  6
ByLayer
  9
$CECOLOR
 62
   256
  9
$CELTSCALE
 40
1.0
  9
$DISPSILH
 70
     0
  9
$DIMSCALE
 40
1.0
  9
$DIMASZ
 40
0.18
  9
$DIMEXO
 40
0.0625
  9
$DIMDLI
 40
0.38
  9
$DIMRND
 40
0.0
  9
$DIMDLE
 40
0.0
  9
$DIMEXE
 40
0.18
  9
$DIMTP
 40
0.0
  9
$DIMTM
 40
0.0
  9
$DIMTXT
 40
0.18
  9
$DIMCEN
 40
0.09
  9
$DIMTSZ
 40
0.0
  9
$DIMTOL
 70
     0
  9
$DIMLIM
 70
     0
  9
$DIMTIH
 70
     1
  9
$DIMTOH
 70
     1
  9
$DIMSE1
 70
     0
  9
$DIMSE2
 70
     0
  9
$DIMTAD
 70
     0
  9
$DIMZIN
 70
     0
  9
$DIMBLK
  1

  9
$DIMASO
 70
     1
  9
$DIMSHO
 70
     1
  9
$DIMPOST
  1

  9
$DIMAPOST
  1

  9
$DIMALT
 70
     0
  9
$DIMALTD
 70
     2
  9
$DIMALTF
 40
25.4
  9
$DIMLFAC
 40
1.0
  9
$DIMTOFL
 70
     0
  9
$DIMTVP
 40
0.0
  9
$DIMTIX
 70
     0
  9
$DIMSOXD
 70
     0
  9
$DIMSAH
 70
     0
  9
$DIMBLK1
  1

  9
$DIMBLK2
  1

  9
$DIMSTYLE
  2
Standard
  9
$DIMCLRD
 70
     0
  9
$DIMCLRE
 70
     0
  9
$DIMCLRT
 70
     0
  9
$DIMTFAC
 40
1.0
  9
$DIMGAP
 40
0.09
  9
$DIMJUST
 70
     0
  9
$DIMSD1
 70
     0
  9
$DIMSD2
 70
     0
  9
$DIMTOLJ
 70
     1
  9
$DIMTZIN
 70
     0
  9
$DIMALTZ
 70
     0
  9
$DIMALTTZ
 70
     0
  9
$DIMUPT
 70
     0
  9
$DIMDEC
 70
     4
  9
$DIMTDEC
 70
     4
  9
$DIMALTU
 70
     2
  9
$DIMALTTD
 70
     2
  9
$DIMTXSTY
  7
Standard
  9
$DIMAUNIT
 70
     0
  9
$DIMADEC
 70
     0
  9
$DIMALTRND
 40
0.0
  9
$DIMAZIN
 70
     0
  9
$DIMDSEP
 70
    46
  9
$DIMATFIT
 70
     3
  9
$DIMFRAC
 70
     0
  9
$DIMLDRBLK
  1

  9
$DIMLUNIT
 70
     2
  9
$DIMLWD
 70
    -2
  9
$DIMLWE
 70
    -2
  9
$DIMTMOVE
 70
     0
  9
$DIMFXL
 40
1.0
  9
$DIMFXLON
 70
     0
  9
$DIMJOGANG
 40
0.7853981633974483
  9
$DIMTFILL
 70
     0
  9
$DIMTFILLCLR
 70
     0
  9
$DIMARCSYM
 70
     0
  9
$DIMLTYPE
  6

  9
$DIMLTEX1
  6

  9
$DIMLTEX2
  6

  9
$DIMTXTDIRECTION
 70
     0
  9
$LUNITS
 70
     2
  9
$LUPREC
 70
     4
  9
$SKETCHINC
 40
0.1
  9
$FILLETRAD
 40
0.0
  9
$AUNITS
 70
     0
  9
$AUPREC
 70
     0
  9
$MENU
  1
.
  9
$ELEVATION
 40
0.0
  9
$PELEVATION
 40
0.0
  9
$THICKNESS
 40
0.0
  9
$LIMCHECK
 70
     0
  9
$CHAMFERA
 40
0.0
  9
$CHAMFERB
 40
0.0
  9
$CHAMFERC
 40
0.0
  9
$CHAMFERD
 40
0.0
  9
$SKPOLY
 70
     0
  9
$TDCREATE
 40
2461020.686428901
  9
$TDUCREATE
 40
2461020.457262234
  9
$TDUPDATE
 40
2461020.686428993
  9
$TDUUPDATE
 40
2461020.457262327
  9
$TDINDWG
 40
0.0000000116
  9
$TDUSRTIMER
 40
0.0000000116
  9
$USRTIMER
 70
     1
  9
$ANGBASE
 50
0.0
  9
$ANGDIR
 70
     0
  9
$PDMODE
 70
     0
  9
$PDSIZE
 40
0.0
  9
$PLINEWID
 40
0.0
  9
$SPLFRAME
 70
     0
  9
$SPLINETYPE
 70
     6
  9
$SPLINESEGS
 70
     8
  9
$HANDSEED
  5
8C
  9
$SURFTAB1
 70
     6
  9
$SURFTAB2
 70
     6
  9
$SURFTYPE
 70
     6
  9
$SURFU
 70
     6
  9
$SURFV
 70
     6
  9
$UCSBASE
  2

  9
$UCSNAME
  2

  9
$UCSORG
 10
0.0
 20
0.0
 30
0.0
  9
$UCSXDIR
 10
1.0
 20
0.0
 30
0.0
  9
$UCSYDIR
 10
0.0
 20
1.0
 30
0.0
  9
$UCSORTHOREF
  2

  9
$UCSORTHOVIEW
 70
     0
  9
$UCSORGTOP
 10
0.0
 20
0.0
 30
0.0
  9
$UCSORGBOTTOM
 10
0.0
 20
0.0
 30
0.0
  9
$UCSORGLEFT
 10
0.0
 20
0.0
 30
0.0
  9
$UCSORGRIGHT
 10
0.0
 20
0.0
 30
0.0
  9
$UCSORGFRONT
 10
0.0
 20
0.0
 30
0.0
  9
$UCSORGBACK
 10
0.0
 20
0.0
 30
0.0
  9
$PUCSBASE
  2

  9
$PUCSNAME
  2

  9
$PUCSORG
 10
0.0
 20
0.0
 30
0.0
  9
$PUCSXDIR
 10
1.0
 20
0.0
 30
0.0
  9
$PUCSYDIR
 10
0.0
 20
1.0
 30
0.0
  9
$PUCSORTHOREF
  2

  9
$PUCSORTHOVIEW
 70
     0
  9
$PUCSORGTOP
 10
0.0
 20
0.0
 30
0.0
  9
$PUCSORGBOTTOM
 10
0.0
 20
0.0
 30
0.0
  9
$PUCSORGLEFT
 10
0.0
 20
0.0
 30
0.0
  9
$PUCSORGRIGHT
 10
0.0
 20
0.0
 30
0.0
  9
$PUCSORGFRONT
 10
0.0
 20
0.0
 30
0.0
  9
$PUCSORGBACK
 10
0.0
 20
0.0
 30
0.0
  9
$USERI1
 70
     0
  9
$USERI2
 70
     0
  9
$USERI3
 70
     0
  9
$USERI4
 70
     0
  9
$USERI5
 70
     0
  9
$USERR1
 40
0.0
  9
$USERR2
 40
0.0
  9
$USERR3
 40
0.0
  9
$USERR4
 40
0.0
  9
$USERR5
 40
0.0
  9
$WORLDVIEW
 70
     1
  9
$SHADEDGE
 70
     3
  9
$SHADEDIF
 70
    70
  9
$TILEMODE
 70
     1
  9
$MAXACTVP
 70
    64
  9
$PINSBASE
 10
0.0
 20
0.0
 30
0.0
  9
$PLIMCHECK
 70
     0
  9
$PEXTMIN
 10
1.000000000000000E+20
 20
1.000000000000000E+20
 30
1.000000000000000E+20
  9
$PEXTMAX
 10
-1.000000000000000E+20
 20
-1.000000000000000E+20
 30
-1.000000000000000E+20
  9
$PLIMMIN
 10
0.0
 20
0.0
  9
$PLIMMAX
 10
12.0
 20
9.0
  9
$UNITMODE
 70
     0
  9
$VISRETAIN
 70
     1
  9
$PLINEGEN
 70
     0
  9
$PSLTSCALE
 70
     1
  9
$TREEDEPTH
 70
  3020
  9
$CMLSTYLE
  2
Standard
  9
$CMLJUST
 70
     0
  9
$CMLSCALE
 40
1.0
  9
$PROXYGRAPHICS
 70
     1
  9
$MEASUREMENT
 70
     0
  9
$CELWEIGHT
370
    -1
  9
$ENDCAPS
280
     0
  9
$JOINSTYLE
280
     0
  9
$LWDISPLAY
290
     0
  9
$INSUNITS
 70
     1
  9
$HYPERLINKBASE
  1

  9
$STYLESHEET
  1

  9
$XEDIT
290
     1
  9
$CEPSNTYPE
380
     0
  9
$PSTYLEMODE
290
     1
  9
$FINGERPRINTGUID
  2
{0520207b-a978-4e79-9cde-8c0c61f571a3}
  9
$VERSIONGUID
  2
{FAEB1C32-E019-11D5-929B-00C0DF256EC4}
  9
$EXTNAMES
290
     1
  9
$PSVPSCALE
 40
0.0
  9
$OLESTARTUP
290
     0
  9
$SORTENTS
280
   127
  9
$INDEXCTL
280
     0
  9
$HIDETEXT
280
     1
  9
$XCLIPFRAME
280
     2
  9
$HALOGAP
280
     0
  9
$OBSCOLOR
 70
   257
  9
$OBSLTYPE
280
     0
  9
$INTERSECTIONDISPLAY
280
     0
  9
$INTERSECTIONCOLOR
 70
   257
  9
$DIMASSOC
280
     2
  9
$PROJECTNAME
  1

  9
$CAMERADISPLAY
290
     0
  9
$LENSLENGTH
 40
50.0
  9
$CAMERAHEIGHT
 40
0.0
  9
$STEPSPERSEC
 40
2.0
  9
$STEPSIZE
 40
6.0
  9
$3DDWFPREC
 40
2.0
  9
$PSOLWIDTH
 40
0.25
  9
$PSOLHEIGHT
 40
4.0
  9
$LOFTANG1
 40
1.570796326794897
  9
$LOFTANG2
 40
1.570796326794897
  9
$LOFTMAG1
 40
0.0
  9
$LOFTMAG2
 40
0.0
  9
$LOFTPARAM
 70
     7
  9
$LOFTNORMALS
280
     1
  9
$LATITUDE
 40
37.795
  9
$LONGITUDE
 40
-122.394
  9
$NORTHDIRECTION
 40
0.0
  9
$TIMEZONE
 70
 -8000
  9
$LIGHTGLYPHDISPLAY
280
     1
  9
$TILEMODELIGHTSYNCH
280
     1
  9
$CMATERIAL
347
44
  9
$SOLIDHIST
280
     0
  9
$SHOWHIST
280
     1
  9
$DWFFRAME
280
     2
  9
$DGNFRAME
280
     2
  9
$REALWORLDSCALE
290
     1
  9
$INTERFERECOLOR
 62
   256
  9
$CSHADOW
280
     0
  9
$SHADOWPLANELOCATION
 40
0.0
  0
ENDSEC
  0
SECTION
  2
CLASSES
  0
CLASS
  1
ACDBDICTIONARYWDFLT
  2
AcDbDictionaryWithDefault
  3
ObjectDBX Classes
 90
        0
 91
        3
280
     0
281
     0
  0
CLASS
  1
VISUALSTYLE
  2
AcDbVisualStyle
  3
ObjectDBX Classes
 90
     4095
 91
        3
280
     0
281
     0
  0
CLASS
  1
MATERIAL
  2
AcDbMaterial
  3
ObjectDBX Classes
 90
     1153
 91
        3
280
     0
281
     0
  0
CLASS
  1
SCALE
  2
AcDbScale
  3
ObjectDBX Classes
 90
     1153
 91
        3
280
     0
281
     0
  0
CLASS
  1
TABLESTYLE
  2
AcDbTableStyle
  3
ObjectDBX Classes
 90
     4095
 91
        3
280
     0
281
     0
  0
CLASS
  1
MLEADERSTYLE
  2
AcDbMLeaderStyle
  3
ACDB_MLEADERSTYLE_CLASS
 90
     4095
 91
        3
280
     0
281
     0
  0
CLASS
  1
SUN
  2
AcDbSun
  3
SCENEOE
 90
     1153
 91
        3
280
     0
281
     0
  0
CLASS
  1
DICTIONARYVAR
  2
AcDbDictionaryVar
  3
ObjectDBX Classes
 90
        0
 91
        3
280
     0
281
     0
  0
CLASS
  1
CELLSTYLEMAP
  2
AcDbCellStyleMap
  3
ObjectDBX Classes
 90
     1152
 91
        3
280
     0
281
     0
  0
ENDSEC
  0
SECTION
  2
TABLES
  0
TABLE
  2
VPORT
  5
8
330
0
100
AcDbSymbolTable
 70
     1
  0
VPORT
  5
29
330
8
100
AcDbSymbolTableRecord
100
AcDbViewportTableRecord
  2
*Active
 70
     0
 10
0.0
 20
0.0
 11
1.0
 21
1.0
 12
10.42990654205607
 22
4.5
 13
0.0
 23
0.0
 14
0.5
 24
0.5
 15
0.5
 25
0.5
 16
0.0
 26
0.0
 36
1.0
 17
0.0
 27
0.0
 37
0.0
 40
9.0
 41
1.972972972850329
 42
50.0
 43
0.0
 44
0.0
 50
0.0
 51
0.0
 71
     0
 72
   100
 73
     1
 74
     3
 75
     0
 76
     0
 77
     0
 78
     0
281
     0
 65
     1
110
0.0
120
0.0
130
0.0
111
1.0
121
0.0
131
0.0
112
0.0
122
1.0
132
0.0
 79
     0
146
0.0
348
2F
 60
     3
 61
     5
292
     1
282
     1
141
0.0
142
0.0
 63
   250
361
5D
  0
ENDTAB
  0
TABLE
  2
LTYPE
  5
5
330
0
100
AcDbSymbolTable
 70
     1
  0
LTYPE
  5
14
330
5
100
AcDbSymbolTableRecord
100
AcDbLinetypeTableRecord
  2
ByBlock
 70
     0
  3

 72
    65
 73
     0
 40
0.0
  0
LTYPE
  5
15
330
5
100
AcDbSymbolTableRecord
100
AcDbLinetypeTableRecord
  2
ByLayer
 70
     0
  3

 72
    65
 73
     0
 40
0.0
  0
LTYPE
  5
16
330
5
100
AcDbSymbolTableRecord
100
AcDbLinetypeTableRecord
  2
Continuous
 70
     0
  3
Solid line
 72
    65
 73
     0
 40
0.0
  0
ENDTAB
  0
TABLE
  2
LAYER
  5
2
330
0
100
AcDbSymbolTable
 70
     2
  0
LAYER
  5
10
330
2
100
AcDbSymbolTableRecord
100
AcDbLayerTableRecord
  2
0
 70
     0
 62
     7
  6
Continuous
370
    -3
390
F
347
46
348
0
  0
LAYER
  5
5F
330
2
100
AcDbSymbolTableRecord
100
AcDbLayerTableRecord
  2
Layer 1
 70
     0
 62
     7
  6
Continuous
370
    -3
390
F
347
46
348
0
  0
ENDTAB
  0
TABLE
  2
STYLE
  5
3
330
0
100
AcDbSymbolTable
 70
     1
  0
STYLE
  5
11
330
3
100
AcDbSymbolTableRecord
100
AcDbTextStyleTableRecord
  2
Standard
 70
     0
 40
0.0
 41
1.0
 50
0.0
 71
     0
 42
0.2
  3
txt
  4

  0
ENDTAB
  0
TABLE
  2
VIEW
  5
6
330
0
100
AcDbSymbolTable
 70
     0
  0
ENDTAB
  0
TABLE
  2
UCS
  5
7
330
0
100
AcDbSymbolTable
 70
     0
  0
ENDTAB
  0
TABLE
  2
APPID
  5
9
330
0
100
AcDbSymbolTable
 70
     2
  0
APPID
  5
12
330
9
100
AcDbSymbolTableRecord
100
AcDbRegAppTableRecord
  2
ACAD
 70
     0
  0
APPID
  5
5E
330
9
100
AcDbSymbolTableRecord
100
AcDbRegAppTableRecord
  2
ODA
 70
     0
  0
ENDTAB
  0
TABLE
  2
DIMSTYLE
  5
A
330
0
100
AcDbSymbolTable
 70
     1
100
AcDbDimStyleTable
  0
DIMSTYLE
105
27
330
A
100
AcDbSymbolTableRecord
100
AcDbDimStyleTableRecord
  2
Standard
 70
     0
178
     0
340
11
  0
ENDTAB
  0
TABLE
  2
BLOCK_RECORD
  5
1
330
0
100
AcDbSymbolTable
 70
     1
  0
BLOCK_RECORD
  5
1F
330
1
100
AcDbSymbolTableRecord
100
AcDbBlockTableRecord
  2
*Model_Space
340
22
 70
     0
280
     1
281
     0
  0
BLOCK_RECORD
  5
1B
330
1
100
AcDbSymbolTableRecord
100
AcDbBlockTableRecord
  2
*Paper_Space
340
1E
 70
     0
280
     1
281
     0
  0
BLOCK_RECORD
  5
23
330
1
100
AcDbSymbolTableRecord
100
AcDbBlockTableRecord
  2
*Paper_Space0
340
26
 70
     0
280
     1
281
     0
  0
ENDTAB
  0
ENDSEC
  0
SECTION
  2
BLOCKS
  0
BLOCK
  5
20
330
1F
100
AcDbEntity
  8
0
100
AcDbBlockBegin
  2
*Model_Space
 70
     0
 10
0.0
 20
0.0
 30
0.0
  3
*Model_Space
  1

  0
ENDBLK
  5
21
330
1F
100
AcDbEntity
  8
0
100
AcDbBlockEnd
  0
BLOCK
  5
1C
330
1B
100
AcDbEntity
 67
     1
  8
0
100
AcDbBlockBegin
  2
*Paper_Space
 70
     0
 10
0.0
 20
0.0
 30
0.0
  3
*Paper_Space
  1

  0
ENDBLK
  5
1D
330
1B
100
AcDbEntity
 67
     1
  8
0
100
AcDbBlockEnd
  0
BLOCK
  5
24
330
23
100
AcDbEntity
  8
0
100
AcDbBlockBegin
  2
*Paper_Space0
 70
     0
 10
0.0
 20
0.0
 30
0.0
  3
*Paper_Space0
  1

  0
ENDBLK
  5
25
330
23
100
AcDbEntity
  8
0
100
AcDbBlockEnd
  0
ENDSEC
  0
SECTION
  2
ENTITIES
  0
LWPOLYLINE
  5
60
330
1F
100
AcDbEntity
  8
Layer 1
 62
   250
370
     9
100
AcDbPolyline
 90
        5
 70
     1
 43
0.0
 10
16.14597637795276
 20
0.402511811023622
 10
26.16352755905512
 20
0.402511811023622
 10
26.16352755905512
 20
5.716866141732283
 10
16.14597637795276
 20
5.716866141732283
 10
16.14597637795276
 20
0.402511811023622
  0
LWPOLYLINE
  5
61
330
1F
100
AcDbEntity
  8
Layer 1
 62
     7
370
    25
100
AcDbPolyline
 90
       66
 70
     1
 43
0.0
 10
19.94992913385827
 20
3.100255905511811
 10
19.98590157480315
 20
3.11546062992126
 10
20.0837125984252
 20
3.15696062992126
 10
20.22820472440945
 20
3.218586614173228
 10
20.40421653543307
 20
3.294173228346457
 10
20.59658267716535
 20
3.377551181102362
 10
20.79014960629921
 20
3.462555118110236
 10
20.96975984251969
 20
3.54301968503937
 10
21.12024409448819
 20
3.612767716535433
 10
21.1641811023622
 20
3.632807086614173
 10
21.28183464566929
 20
3.68596062992126
 10
21.45194881889764
 20
3.761791338582677
 10
21.6532874015748
 20
3.849858267716535
 10
21.86459842519685
 20
3.939728346456693
 10
22.06463779527559
 20
4.020952755905512
 10
22.23216141732284
 20
4.083094488188976
 10
22.34592125984252
 20
4.115720472440945
 10
22.36652755905512
 20
4.108271653543307
 10
22.42857874015748
 20
4.084885826771654
 10
22.53242125984252
 20
4.044023622047244
 10
22.67840551181103
 20
3.984125984251969
 10
22.86688188976378
 20
3.903653543307087
 10
23.09820078740157
 20
3.801051181102362
 10
23.37270866141732
 20
3.674775590551181
 10
23.69075196850394
 20
3.523271653543307
 10
23.73107480314961
 20
3.504547244094488
 10
23.7776968503937
 20
3.478279527559055
 10
23.82474409448819
 20
3.446133858267717
 10
23.86636220472441
 20
3.409783464566929
 10
23.89667716535433
 20
3.370897637795276
 10
23.90983070866142
 20
3.331145669291339
 10
23.89995669291338
 20
3.292204724409449
 10
23.86118897637795
 20
3.255744094488189
 10
23.84370472440945
 20
3.244937007874016
 10
23.82360236220472
 20
3.232905511811023
 10
23.80081496062992
 20
3.219708661417323
 10
23.77527559055118
 20
3.205385826771654
 10
23.7469094488189
 20
3.189992125984252
 10
23.71564960629921
 20
3.173574803149606
 10
23.68143307086614
 20
3.156181102362205
 10
23.6441811023622
 20
3.13786220472441
 10
23.58743307086614
 20
3.110838582677165
 10
23.53042125984252
 20
3.084370078740157
 10
23.47324015748032
 20
3.058255905511811
 10
23.41597244094488
 20
3.032299212598425
 10
23.35870866141732
 20
3.006303149606299
 10
23.30154330708661
 20
2.980070866141732
 10
23.24455905511811
 20
2.953401574803149
 10
23.18784645669291
 20
2.926102362204724
 10
23.06194881889764
 20
2.864570866141732
 10
22.92041732283464
 20
2.795681102362205
 10
22.77087007874016
 20
2.723271653543307
 10
22.62091732283465
 20
2.651177165354331
 10
22.47816929133858
 20
2.583248031496063
 10
22.35024409448819
 20
2.523311023622047
 10
22.24474803149606
 20
2.475216535433071
 10
22.16929921259842
 20
2.442795275590551
 10
22.15126377952756
 20
2.435905511811024
 10
22.10120866141732
 20
2.418854330708661
 10
22.02522440944882
 20
2.39705905511811
 10
21.92938976377953
 20
2.37594094488189
 10
21.81979133858268
 20
2.360913385826771
 10
21.70250787401575
 20
2.357397637795275
 10
21.58362992125984
 20
2.370814960629921
 10
21.46924015748031
 20
2.406582677165354
 10
19.94992913385827
 20
3.100255905511811
  0
LWPOLYLINE
  5
62
330
1F
100
AcDbEntity
  8
Layer 1
 62
     7
370
    25
100
AcDbPolyline
 90
        5
 70
     1
 43
0.0
 10
21.7416062992126
 20
1.771507874015748
 10
24.85947244094488
 20
3.202712598425197
 10
24.85947244094488
 20
3.083370078740157
 10
21.7416062992126
 20
1.652165354330709
 10
21.7416062992126
 20
1.771507874015748
  0
LWPOLYLINE
  5
63
330
1F
100
AcDbEntity
  8
Layer 1
 62
     7
370
    25
100
AcDbPolyline
 90
        5
 70
     1
 43
0.0
 10
21.7416062992126
 20
1.771507874015748
 10
19.1318031496063
 20
2.970417322834646
 10
19.18688976377953
 20
2.831610236220472
 10
21.7416062992126
 20
1.652165354330709
 10
21.7416062992126
 20
1.771507874015748
  0
LWPOLYLINE
  5
64
330
1F
100
AcDbEntity
  8
Layer 1
 62
     7
370
    25
100
AcDbPolyline
 90
       19
 70
     0
 43
0.0
 10
19.12853937007874
 20
2.973452755905512
 10
22.2608031496063
 20
4.328826771653543
 10
22.26527559055118
 20
4.328736220472441
 10
22.27742913385827
 20
4.328090551181102
 10
22.29536614173228
 20
4.326350393700787
 10
22.31719291338583
 20
4.322956692913386
 10
22.3410157480315
 20
4.317370078740158
 10
22.36493700787402
 20
4.309035433070866
 10
22.38706299212598
 20
4.297405511811023
 10
22.4055
 20
4.281933070866142
 10
19.48601968503937
 20
3.050169291338583
 10
19.48435039370079
 20
3.04198031496063
 10
19.48042519685039
 20
3.019877952755905
 10
19.47585433070866
 20
2.987570866141732
 10
19.47226377952756
 20
2.948763779527559
 10
19.47126377952756
 20
2.90715748031496
 10
19.47447637795275
 20
2.86646062992126
 10
19.48351968503937
 20
2.830374015748032
 10
19.50000787401575
 20
2.802606299212599
  0
LWPOLYLINE
  5
65
330
1F
100
AcDbEntity
  8
Layer 1
 62
     7
370
    25
100
AcDbPolyline
 90
        2
 70
     0
 43
0.0
 10
19.48601968503937
 20
3.054437007874016
 10
21.9001062992126
 20
1.844484251968504
  0
LWPOLYLINE
  5
66
330
1F
100
AcDbEntity
  8
Layer 1
 62
     7
370
    25
100
AcDbPolyline
 90
       19
 70
     0
 43
0.0
 10
22.41401181102362
 20
4.281933070866142
 10
22.42102362204724
 20
4.284850393700787
 10
22.44017716535433
 20
4.292492125984252
 10
22.46865354330709
 20
4.303177165354331
 10
22.50364173228347
 20
4.315240157480315
 10
22.5423188976378
 20
4.327
 10
22.58187007874016
 20
4.336787401574803
 10
22.61948031496063
 20
4.342929133858267
 10
22.65233070866142
 20
4.343751968503937
 10
24.65681496062992
 20
3.493425196850394
 10
24.66719291338583
 20
3.489933070866142
 10
24.69435433070866
 20
3.479874015748031
 10
24.73233858267717
 20
3.463870078740158
 10
24.77518503937008
 20
3.442547244094488
 10
24.81693307086614
 20
3.416531496062992
 10
24.8516220472441
 20
3.386444881889764
 10
24.87329527559055
 20
3.352909448818898
 10
24.87599212598425
 20
3.316555118110236
 10
24.86004330708661
 20
3.205748031496063
  0
LWPOLYLINE
  5
67
330
1F
100
AcDbEntity
  8
Layer 1
 62
     7
370
    25
100
AcDbPolyline
 90
        4
 70
     0
 43
0.0
 10
19.13102755905512
 20
2.975503937007874
 10
19.12002755905512
 20
2.219055118110236
 10
19.186
 20
2.180673228346456
 10
19.186
 20
2.828527559055118
  0
LWPOLYLINE
  5
68
330
1F
100
AcDbEntity
  8
Layer 1
 62
     7
370
    25
100
AcDbPolyline
 90
        2
 70
     0
 43
0.0
 10
19.8977874015748
 20
2.502283464566929
 10
19.19222834645669
 20
2.176409448818898
  0
LWPOLYLINE
  5
69
330
1F
100
AcDbEntity
  8
Layer 1
 62
     7
370
    18
100
AcDbPolyline
 90
        4
 70
     1
 43
0.0
 10
18.63601968503937
 20
3.126062992125984
 10
18.62116535433071
 20
3.152885826771654
 10
18.60646456692913
 20
3.125976377952756
 10
18.63601968503937
 20
3.126062992125984
  0
LWPOLYLINE
  5
6A
330
1F
100
AcDbEntity
  8
Layer 1
 62
     7
370
    18
100
AcDbPolyline
 90
        4
 70
     1
 43
0.0
 10
18.63937007874016
 20
1.973874015748031
 10
18.62466929133858
 20
1.946964566929134
 10
18.60981496062992
 20
1.973791338582677
 10
18.63937007874016
 20
1.973874015748031
  0
LWPOLYLINE
  5
6B
330
1F
100
AcDbEntity
  8
Layer 1
 62
     7
370
    18
100
AcDbPolyline
 90
        2
 70
     0
 43
0.0
 10
18.61956299212599
 20
3.161838582677166
 10
18.6231220472441
 20
1.938007874015748
  0
LWPOLYLINE
  5
6C
330
1F
100
AcDbEntity
  8
Layer 1
 62
     7
370
    18
100
AcDbPolyline
 90
        4
 70
     1
 43
0.0
 10
23.00397244094488
 20
4.714161417322835
 10
22.97342125984252
 20
4.711562992125984
 10
22.99197244094488
 20
4.687149606299212
 10
23.00397244094488
 20
4.714161417322835
  0
LWPOLYLINE
  5
6D
330
1F
100
AcDbEntity
  8
Layer 1
 62
     7
370
    18
100
AcDbPolyline
 90
        4
 70
     1
 43
0.0
 10
25.22253543307087
 20
3.72853937007874
 10
25.24108661417323
 20
3.704125984251969
 10
25.21053543307087
 20
3.701527559055118
 10
25.22253543307087
 20
3.72853937007874
  0
LWPOLYLINE
  5
6E
330
1F
100
AcDbEntity
  8
Layer 1
 62
     7
370
    18
100
AcDbPolyline
 90
        2
 70
     0
 43
0.0
 10
22.96459842519685
 20
4.713759842519685
 10
25.24863385826772
 20
3.699051181102362
  0
LWPOLYLINE
  5
6F
330
1F
100
AcDbEntity
  8
Layer 1
 62
     7
370
    18
100
AcDbPolyline
 90
        4
 70
     1
 43
0.0
 10
21.74017716535433
 20
0.946732283464567
 10
21.723
 20
0.9213346456692914
 10
21.75364960629921
 20
0.9204212598425197
 10
21.74017716535433
 20
0.946732283464567
  0
LWPOLYLINE
  5
70
330
1F
100
AcDbEntity
  8
Layer 1
 62
     7
370
    18
100
AcDbPolyline
 90
        4
 70
     1
 43
0.0
 10
25.33471653543307
 20
2.787216535433071
 10
25.36536614173228
 20
2.786307086614173
 10
25.34818897637795
 20
2.760909448818897
 10
25.33471653543307
 20
2.787216535433071
  0
LWPOLYLINE
  5
71
330
1F
100
AcDbEntity
  8
Layer 1
 62
     7
370
    18
100
AcDbPolyline
 90
        2
 70
     0
 43
0.0
 10
21.71574803149606
 20
0.9158503937007874
 10
25.37405905511811
 20
2.788988188976378
  0
LWPOLYLINE
  5
72
330
1F
100
AcDbEntity
  8
Layer 1
 62
     7
370
     9
100
AcDbPolyline
 90
       87
 70
     1
 43
0.0
 10
16.70300393700787
 20
2.371208661417323
 10
16.96220472440945
 20
2.371208661417323
 10
16.96220472440945
 20
2.40911811023622
 10
16.79444488188976
 20
2.40911811023622
 10
16.92271653543307
 20
2.536385826771653
 10
16.93107874015748
 20
2.545551181102362
 10
16.93832677165354
 20
2.555173228346457
 10
16.94446456692913
 20
2.565251968503937
 10
16.9494842519685
 20
2.575787401574803
 10
16.9533937007874
 20
2.586779527559055
 10
16.95618503937008
 20
2.598228346456693
 10
16.95785826771654
 20
2.610137795275591
 10
16.95841732283465
 20
2.622503937007874
 10
16.95784645669291
 20
2.635145669291338
 10
16.95613385826772
 20
2.647279527559055
 10
16.95327952755905
 20
2.658909448818898
 10
16.94928346456693
 20
2.670027559055118
 10
16.94414566929134
 20
2.680637795275591
 10
16.93787007874016
 20
2.690744094488189
 10
16.93045669291338
 20
2.700338582677166
 10
16.92190157480315
 20
2.709425196850394
 10
16.91238976377953
 20
2.717866141732284
 10
16.90245275590551
 20
2.725185039370079
 10
16.89209448818898
 20
2.731374015748032
 10
16.88131496062992
 20
2.736437007874016
 10
16.8701062992126
 20
2.740374015748031
 10
16.85848031496063
 20
2.743188976377953
 10
16.84642519685039
 20
2.744874015748032
 10
16.83394881889764
 20
2.745437007874016
 10
16.82100393700787
 20
2.744846456692914
 10
16.80853543307087
 20
2.743070866141732
 10
16.79655511811024
 20
2.740110236220473
 10
16.78505118110236
 20
2.735964566929134
 10
16.77403149606299
 20
2.730633858267717
 10
16.76349606299213
 20
2.72411811023622
 10
16.75344094488189
 20
2.716417322834646
 10
16.74387007874016
 20
2.707527559055118
 10
16.73534251968504
 20
2.697972440944882
 10
16.72802362204724
 20
2.687917322834646
 10
16.72191338582677
 20
2.677362204724409
 10
16.71701181102362
 20
2.666307086614173
 10
16.71332283464567
 20
2.654751968503937
 10
16.71083858267717
 20
2.642696850393701
 10
16.70956299212598
 20
2.630141732283465
 10
16.7095
 20
2.617086614173228
 10
16.74792519685039
 20
2.617086614173228
 10
16.7476062992126
 20
2.625555118110236
 10
16.7481968503937
 20
2.633826771653543
 10
16.74970078740158
 20
2.641905511811024
 10
16.75211417322835
 20
2.649787401574803
 10
16.75544094488189
 20
2.657476377952756
 10
16.7596811023622
 20
2.664968503937008
 10
16.76483858267716
 20
2.672267716535433
 10
16.7709094488189
 20
2.679374015748031
 10
16.77740551181102
 20
2.685720472440945
 10
16.78423622047244
 20
2.691220472440945
 10
16.7914094488189
 20
2.695874015748032
 10
16.79891732283465
 20
2.699681102362205
 10
16.80676771653543
 20
2.702641732283464
 10
16.81495275590551
 20
2.704755905511811
 10
16.82347637795275
 20
2.706027559055118
 10
16.83233858267717
 20
2.706448818897638
 10
16.84103149606299
 20
2.706066929133858
 10
16.84939763779527
 20
2.704925196850394
 10
16.85743307086614
 20
2.70301968503937
 10
16.86513779527559
 20
2.700354330708661
 10
16.8725157480315
 20
2.696929133858268
 10
16.87956299212598
 20
2.692740157480315
 10
16.88627952755905
 20
2.687791338582677
 10
16.89266929133858
 20
2.682082677165354
 10
16.89857086614173
 20
2.675763779527559
 10
16.90368503937008
 20
2.669145669291339
 10
16.90801181102362
 20
2.662220472440945
 10
16.91155118110236
 20
2.654992125984252
 10
16.91430708661417
 20
2.64746062992126
 10
16.91627165354331
 20
2.639622047244095
 10
16.91745275590551
 20
2.631484251968504
 10
16.91784645669291
 20
2.62303937007874
 10
16.91746456692913
 20
2.614409448818898
 10
16.91632283464567
 20
2.606122047244094
 10
16.91441732283464
 20
2.598165354330709
 10
16.91175196850394
 20
2.590551181102362
 10
16.90832677165354
 20
2.583271653543307
 10
16.90413779527559
 20
2.576334645669291
 10
16.89918897637795
 20
2.569736220472441
 10
16.89348031496063
 20
2.563476377952756
 10
16.70300393700787
 20
2.371208661417323
  0
LWPOLYLINE
  5
73
330
1F
100
AcDbEntity
  8
Layer 1
 62
     7
370
     9
100
AcDbPolyline
 90
        4
 70
     1
 43
0.0
 10
17.21761811023622
 20
2.698322834645669
 10
17.21761811023622
 20
2.485484251968504
 10
17.07692913385827
 20
2.485484251968504
 10
17.21761811023622
 20
2.698322834645669
  0
LWPOLYLINE
  5
74
330
1F
100
AcDbEntity
  8
Layer 1
 62
     7
370
     9
100
AcDbPolyline
 90
       11
 70
     1
 43
0.0
 10
17.2571220472441
 20
2.446476377952756
 10
17.30367322834646
 20
2.446476377952756
 10
17.30367322834646
 20
2.485484251968504
 10
17.2571220472441
 20
2.485484251968504
 10
17.2565905511811
 20
2.739488188976378
 10
17.20355905511811
 20
2.739488188976378
 10
17.0098188976378
 20
2.446476377952756
 10
17.21761811023622
 20
2.446476377952756
 10
17.21761811023622
 20
2.371208661417323
 10
17.2571220472441
 20
2.371208661417323
 10
17.2571220472441
 20
2.446476377952756
  0
LWPOLYLINE
  5
75
330
1F
100
AcDbEntity
  8
Layer 1
 62
     7
370
     9
100
AcDbPolyline
 90
      155
 70
     1
 43
0.0
 10
17.67163779527559
 20
2.372291338582677
 10
17.7095
 20
2.372291338582677
 10
17.7095
 20
2.521228346456693
 10
17.70919291338583
 20
2.531114173228346
 10
17.70826771653543
 20
2.54053937007874
 10
17.70672440944882
 20
2.549496062992126
 10
17.70456692913386
 20
2.557988188976378
 10
17.7017874015748
 20
2.566015748031496
 10
17.6983937007874
 20
2.573574803149606
 10
17.69438582677165
 20
2.580669291338582
 10
17.68975590551181
 20
2.587291338582677
 10
17.68717322834646
 20
2.590464566929134
 10
17.68443307086614
 20
2.593472440944882
 10
17.68152755905512
 20
2.596322834645669
 10
17.67846456692913
 20
2.599011811023622
 10
17.67524015748031
 20
2.601535433070866
 10
17.67185433070866
 20
2.60390157480315
 10
17.6683031496063
 20
2.606102362204724
 10
17.6645905511811
 20
2.608145669291339
 10
17.66065354330709
 20
2.609992125984252
 10
17.6564094488189
 20
2.611586614173228
 10
17.65186220472441
 20
2.61294094488189
 10
17.64701181102362
 20
2.614043307086614
 10
17.64185433070866
 20
2.614905511811024
 10
17.6363937007874
 20
2.615515748031496
 10
17.63062598425197
 20
2.615885826771653
 10
17.62455511811024
 20
2.616007874015748
 10
17.61842913385827
 20
2.615795275590551
 10
17.61249606299213
 20
2.615161417322835
 10
17.60675984251969
 20
2.614106299212598
 10
17.60121653543307
 20
2.612625984251968
 10
17.59587007874016
 20
2.610720472440945
 10
17.59071653543307
 20
2.608393700787401
 10
17.58575590551181
 20
2.605641732283464
 10
17.58099212598425
 20
2.602464566929134
 10
17.57685826771653
 20
2.599303149606299
 10
17.5729094488189
 20
2.595905511811023
 10
17.56914566929134
 20
2.592275590551181
 10
17.56556692913386
 20
2.588409448818898
 10
17.56217322834646
 20
2.584318897637795
 10
17.55896850393701
 20
2.58
 10
17.55595275590551
 20
2.575456692913386
 10
17.55312204724409
 20
2.570692913385827
 10
17.54310236220472
 20
2.587291338582677
 10
17.54051968503937
 20
2.590464566929134
 10
17.53777559055118
 20
2.593472440944882
 10
17.53487007874016
 20
2.596322834645669
 10
17.53180708661417
 20
2.599011811023622
 10
17.52857874015748
 20
2.601535433070866
 10
17.52519291338583
 20
2.60390157480315
 10
17.52164566929134
 20
2.606102362204724
 10
17.51793700787401
 20
2.608145669291339
 10
17.514
 20
2.609992125984252
 10
17.50975590551181
 20
2.611586614173228
 10
17.50520866141732
 20
2.61294094488189
 10
17.50035826771654
 20
2.614043307086614
 10
17.49520472440945
 20
2.614905511811024
 10
17.48974803149606
 20
2.615515748031496
 10
17.4839842519685
 20
2.615885826771653
 10
17.47791732283465
 20
2.616007874015748
 10
17.47179133858268
 20
2.615795275590551
 10
17.46585826771653
 20
2.615161417322835
 10
17.46011811023622
 20
2.614106299212598
 10
17.45457086614173
 20
2.612625984251968
 10
17.44922047244095
 20
2.610720472440945
 10
17.44406692913386
 20
2.608393700787401
 10
17.4391062992126
 20
2.605641732283464
 10
17.43434251968504
 20
2.602464566929134
 10
17.43040551181102
 20
2.599456692913386
 10
17.42663385826772
 20
2.596240157480315
 10
17.42303149606299
 20
2.592818897637795
 10
17.41960236220472
 20
2.589188976377953
 10
17.41633464566929
 20
2.585350393700788
 10
17.41324015748031
 20
2.581307086614173
 10
17.41031102362205
 20
2.577051181102362
 10
17.40755118110236
 20
2.572586614173229
 10
17.40755118110236
 20
2.610590551181102
 10
17.36967322834646
 20
2.610590551181102
 10
17.36967322834646
 20
2.372291338582677
 10
17.40755118110236
 20
2.372291338582677
 10
17.40755118110236
 20
2.494236220472441
 10
17.40843307086614
 20
2.501342519685039
 10
17.40958267716535
 20
2.508173228346457
 10
17.41100393700787
 20
2.514728346456693
 10
17.4126968503937
 20
2.521007874015748
 10
17.41465748031496
 20
2.527015748031496
 10
17.4168937007874
 20
2.532755905511811
 10
17.41939763779527
 20
2.538228346456693
 10
17.42217322834646
 20
2.543433070866142
 10
17.42442913385827
 20
2.547141732283464
 10
17.42687007874016
 20
2.550677165354331
 10
17.4295
 20
2.554047244094488
 10
17.4323188976378
 20
2.557244094488189
 10
17.4353188976378
 20
2.560275590551181
 10
17.43850787401575
 20
2.563133858267717
 10
17.44188188976378
 20
2.565822834645669
 10
17.44544094488189
 20
2.568346456692913
 10
17.44912598425197
 20
2.570629921259842
 10
17.45288188976378
 20
2.572610236220473
 10
17.45670078740158
 20
2.574287401574803
 10
17.4605905511811
 20
2.575657480314961
 10
17.46454724409449
 20
2.576724409448819
 10
17.46857086614173
 20
2.577488188976378
 10
17.47266141732284
 20
2.577944881889764
 10
17.47681889763779
 20
2.57809842519685
 10
17.48467322834646
 20
2.577775590551181
 10
17.49144094488189
 20
2.576811023622047
 10
17.49441338582677
 20
2.576086614173228
 10
17.49711417322835
 20
2.575200787401575
 10
17.49954330708661
 20
2.574153543307087
 10
17.50170078740157
 20
2.572948818897638
 10
17.50715354330709
 20
2.568909448818898
 10
17.51188188976378
 20
2.564177165354331
 10
17.51588188976378
 20
2.558748031496063
 10
17.51915354330709
 20
2.552629921259843
 10
17.5216968503937
 20
2.545818897637795
 10
17.5235157480315
 20
2.538314960629921
 10
17.5246062992126
 20
2.53011811023622
 10
17.52496850393701
 20
2.521228346456693
 10
17.52496850393701
 20
2.372291338582677
 10
17.56286220472441
 20
2.372291338582677
 10
17.56286220472441
 20
2.521228346456693
 10
17.56259448818898
 20
2.53034251968504
 10
17.56881102362205
 20
2.543433070866142
 10
17.57107086614173
 20
2.547141732283464
 10
17.5735157480315
 20
2.550677165354331
 10
17.57614566929134
 20
2.554047244094488
 10
17.57896062992126
 20
2.557244094488189
 10
17.58196062992126
 20
2.560275590551181
 10
17.58514566929134
 20
2.563133858267717
 10
17.58851968503937
 20
2.565822834645669
 10
17.59207874015748
 20
2.568346456692913
 10
17.59576377952756
 20
2.570629921259842
 10
17.59951968503937
 20
2.572610236220473
 10
17.60334251968504
 20
2.574287401574803
 10
17.60723228346457
 20
2.575657480314961
 10
17.61118897637795
 20
2.576724409448819
 10
17.61521653543307
 20
2.577488188976378
 10
17.61931102362205
 20
2.577944881889764
 10
17.62347244094488
 20
2.57809842519685
 10
17.63131889763779
 20
2.577775590551181
 10
17.63808267716535
 20
2.576811023622047
 10
17.64105905511811
 20
2.576086614173228
 10
17.64376771653543
 20
2.575200787401575
 10
17.64620472440945
 20
2.574153543307087
 10
17.64837007874016
 20
2.572948818897638
 10
17.65381889763779
 20
2.568909448818898
 10
17.65854330708661
 20
2.564177165354331
 10
17.66254330708662
 20
2.558748031496063
 10
17.66581496062992
 20
2.552629921259843
 10
17.66836220472441
 20
2.545818897637795
 10
17.6701811023622
 20
2.538314960629921
 10
17.67127559055118
 20
2.53011811023622
 10
17.67163779527559
 20
2.521228346456693
 10
17.67163779527559
 20
2.372291338582677
  0
LWPOLYLINE
  5
76
330
1F
100
AcDbEntity
  8
Layer 1
 62
     7
370
     9
100
AcDbPolyline
 90
      155
 70
     1
 43
0.0
 10
18.08450787401575
 20
2.372291338582677
 10
18.12238582677166
 20
2.372291338582677
 10
18.12238582677166
 20
2.521228346456693
 10
18.12207874015748
 20
2.531114173228346
 10
18.12115354330709
 20
2.54053937007874
 10
18.11961023622047
 20
2.549496062992126
 10
18.11745275590551
 20
2.557988188976378
 10
18.11467322834646
 20
2.566015748031496
 10
18.11127952755906
 20
2.573574803149606
 10
18.10727165354331
 20
2.580669291338582
 10
18.10264173228347
 20
2.587291338582677
 10
18.10005511811024
 20
2.590464566929134
 10
18.09730708661417
 20
2.593472440944882
 10
18.09440157480315
 20
2.596322834645669
 10
18.09133858267716
 20
2.599011811023622
 10
18.08811023622047
 20
2.601535433070866
 10
18.08472440944882
 20
2.60390157480315
 10
18.08117322834646
 20
2.606102362204724
 10
18.07746062992126
 20
2.608145669291339
 10
18.07352362204724
 20
2.609992125984252
 10
18.06927952755905
 20
2.611586614173228
 10
18.06473622047244
 20
2.61294094488189
 10
18.05988976377953
 20
2.614043307086614
 10
18.05473622047244
 20
2.614905511811024
 10
18.04927559055118
 20
2.615515748031496
 10
18.04351181102362
 20
2.615885826771653
 10
18.03744094488189
 20
2.616007874015748
 10
18.03131496062992
 20
2.615795275590551
 10
18.02538188976378
 20
2.615161417322835
 10
18.01964566929134
 20
2.614106299212598
 10
18.01410236220472
 20
2.612625984251968
 10
18.00875590551181
 20
2.610720472440945
 10
18.00360236220472
 20
2.608393700787401
 10
17.99864173228346
 20
2.605641732283464
 10
17.99387795275591
 20
2.602464566929134
 10
17.98974409448819
 20
2.599303149606299
 10
17.98579527559055
 20
2.595905511811023
 10
17.98203149606299
 20
2.592275590551181
 10
17.97845275590551
 20
2.588409448818898
 10
17.97505905511811
 20
2.584318897637795
 10
17.97185433070866
 20
2.58
 10
17.96883858267717
 20
2.575456692913386
 10
17.96600787401575
 20
2.570692913385827
 10
17.95598818897638
 20
2.587291338582677
 10
17.95340551181102
 20
2.590464566929134
 10
17.95066141732283
 20
2.593472440944882
 10
17.94775590551181
 20
2.596322834645669
 10
17.94469291338583
 20
2.599011811023622
 10
17.94146456692913
 20
2.601535433070866
 10
17.93807874015748
 20
2.60390157480315
 10
17.93453543307087
 20
2.606102362204724
 10
17.93082677165354
 20
2.608145669291339
 10
17.92688582677165
 20
2.609992125984252
 10
17.92264173228346
 20
2.611586614173228
 10
17.9180905511811
 20
2.61294094488189
 10
17.91323622047244
 20
2.614043307086614
 10
17.90807874015748
 20
2.614905511811024
 10
17.90261811023622
 20
2.615515748031496
 10
17.89685433070866
 20
2.615885826771653
 10
17.8907874015748
 20
2.616007874015748
 10
17.88466141732284
 20
2.615795275590551
 10
17.87872834645669
 20
2.615161417322835
 10
17.87299212598425
 20
2.614106299212598
 10
17.86744881889764
 20
2.612625984251968
 10
17.86210236220472
 20
2.610720472440945
 10
17.85694881889764
 20
2.608393700787401
 10
17.85199212598425
 20
2.605641732283464
 10
17.84722834645669
 20
2.602464566929134
 10
17.84329133858268
 20
2.599456692913386
 10
17.83951968503937
 20
2.596240157480315
 10
17.83591732283465
 20
2.592818897637795
 10
17.83248818897638
 20
2.589188976377953
 10
17.82922047244094
 20
2.585350393700788
 10
17.82612598425197
 20
2.581307086614173
 10
17.8231968503937
 20
2.577051181102362
 10
17.82043700787402
 20
2.572586614173229
 10
17.82043700787402
 20
2.610590551181102
 10
17.78255905511811
 20
2.610590551181102
 10
17.78255905511811
 20
2.372291338582677
 10
17.82043700787402
 20
2.372291338582677
 10
17.82043700787402
 20
2.494236220472441
 10
17.82131889763779
 20
2.501342519685039
 10
17.82246850393701
 20
2.508173228346457
 10
17.82388976377953
 20
2.514728346456693
 10
17.82558267716535
 20
2.521007874015748
 10
17.82754330708661
 20
2.527015748031496
 10
17.82977952755905
 20
2.532755905511811
 10
17.83228346456693
 20
2.538228346456693
 10
17.83505905511811
 20
2.543433070866142
 10
17.83731496062992
 20
2.547141732283464
 10
17.83975590551181
 20
2.550677165354331
 10
17.84238582677165
 20
2.554047244094488
 10
17.84520472440945
 20
2.557244094488189
 10
17.84820472440945
 20
2.560275590551181
 10
17.8513937007874
 20
2.563133858267717
 10
17.85476771653543
 20
2.565822834645669
 10
17.85832677165354
 20
2.568346456692913
 10
17.86201181102362
 20
2.570629921259842
 10
17.86576377952756
 20
2.572610236220473
 10
17.86958267716535
 20
2.574287401574803
 10
17.87346850393701
 20
2.575657480314961
 10
17.87742125984252
 20
2.576724409448819
 10
17.88144488188976
 20
2.577488188976378
 10
17.88553543307087
 20
2.577944881889764
 10
17.88969291338583
 20
2.57809842519685
 10
17.89754330708661
 20
2.577775590551181
 10
17.90431102362205
 20
2.576811023622047
 10
17.9072874015748
 20
2.576086614173228
 10
17.90999212598425
 20
2.575200787401575
 10
17.91242519685039
 20
2.574153543307087
 10
17.91458661417323
 20
2.572948818897638
 10
17.92004330708662
 20
2.568909448818898
 10
17.92476771653543
 20
2.564177165354331
 10
17.92876771653543
 20
2.558748031496063
 10
17.93203937007874
 20
2.552629921259843
 10
17.93458267716536
 20
2.545818897637795
 10
17.93640157480315
 20
2.538314960629921
 10
17.93749212598425
 20
2.53011811023622
 10
17.93785433070866
 20
2.521228346456693
 10
17.93785433070866
 20
2.372291338582677
 10
17.97574803149606
 20
2.372291338582677
 10
17.97574803149606
 20
2.521228346456693
 10
17.97548031496063
 20
2.53034251968504
 10
17.9816968503937
 20
2.543433070866142
 10
17.98395669291338
 20
2.547141732283464
 10
17.98640157480315
 20
2.550677165354331
 10
17.98903149606299
 20
2.554047244094488
 10
17.99184645669291
 20
2.557244094488189
 10
17.99484645669291
 20
2.560275590551181
 10
17.99803149606299
 20
2.563133858267717
 10
18.00140551181102
 20
2.565822834645669
 10
18.00496456692913
 20
2.568346456692913
 10
18.00864960629921
 20
2.570629921259842
 10
18.01240551181102
 20
2.572610236220473
 10
18.01622834645669
 20
2.574287401574803
 10
18.02011811023622
 20
2.575657480314961
 10
18.02407480314961
 20
2.576724409448819
 10
18.02810236220472
 20
2.577488188976378
 10
18.0321968503937
 20
2.577944881889764
 10
18.03635826771654
 20
2.57809842519685
 10
18.04420472440945
 20
2.577775590551181
 10
18.05096850393701
 20
2.576811023622047
 10
18.05394094488189
 20
2.576086614173228
 10
18.05664566929134
 20
2.575200787401575
 10
18.05907874015748
 20
2.574153543307087
 10
18.06124015748032
 20
2.572948818897638
 10
18.06668897637795
 20
2.568909448818898
 10
18.07141338582677
 20
2.564177165354331
 10
18.07541338582677
 20
2.558748031496063
 10
18.07868503937008
 20
2.552629921259843
 10
18.08123228346457
 20
2.545818897637795
 10
18.08305118110236
 20
2.538314960629921
 10
18.08414566929134
 20
2.53011811023622
 10
18.08450787401575
 20
2.521228346456693
 10
18.08450787401575
 20
2.372291338582677
  0
LWPOLYLINE
  5
77
330
1F
100
AcDbEntity
  8
Layer 1
 62
     7
370
     9
100
AcDbPolyline
 90
        7
 70
     1
 43
0.0
 10
24.00846456692913
 20
4.557350393700787
 10
24.04635826771653
 20
4.557350393700787
 10
24.04635826771653
 20
4.929964566929134
 10
23.95544881889764
 20
4.920224409448819
 10
23.95544881889764
 20
4.887169291338583
 10
24.00846456692913
 20
4.887169291338583
 10
24.00846456692913
 20
4.557350393700787
  0
LWPOLYLINE
  5
78
330
1F
100
AcDbEntity
  8
Layer 1
 62
     7
370
     9
100
AcDbPolyline
 90
       86
 70
     1
 43
0.0
 10
24.26469291338583
 20
4.882850393700787
 10
24.27094094488189
 20
4.87859842519685
 10
24.27676377952756
 20
4.873771653543307
 10
24.28216929133858
 20
4.868370078740157
 10
24.28714960629921
 20
4.862393700787401
 10
24.29170472440945
 20
4.855842519685039
 10
24.29584251968504
 20
4.848716535433071
 10
24.29955905511811
 20
4.84101968503937
 10
24.30285039370079
 20
4.832744094488189
 10
24.30652755905512
 20
4.821763779527559
 10
24.30971653543307
 20
4.810625984251969
 10
24.31241338582677
 20
4.799322834645669
 10
24.31461811023622
 20
4.787862204724409
 10
24.31633464566929
 20
4.776240157480315
 10
24.31755905511811
 20
4.764456692913386
 10
24.31829527559055
 20
4.752511811023622
 10
24.31853937007874
 20
4.740409448818897
 10
24.31691338582677
 20
4.713586614173228
 10
24.31503543307086
 20
4.699031496062992
 10
24.31258267716536
 20
4.685279527559056
 10
24.30955511811024
 20
4.672330708661417
 10
24.30595275590551
 20
4.660181102362205
 10
24.30177952755906
 20
4.648838582677166
 10
24.29702755905512
 20
4.638299212598425
 10
24.29170078740157
 20
4.628566929133858
 10
24.28579921259843
 20
4.61963779527559
 10
24.28041338582677
 20
4.612905511811023
 10
24.27474015748032
 20
4.607070866141732
 10
24.26877559055118
 20
4.60213779527559
 10
24.26252755905512
 20
4.59809842519685
 10
24.25599212598425
 20
4.594956692913386
 10
24.24916929133858
 20
4.592716535433071
 10
24.24205905511811
 20
4.591370078740158
 10
24.23466141732283
 20
4.59092125984252
 10
24.22640551181102
 20
4.591366141732284
 10
24.21854330708661
 20
4.592700787401575
 10
24.21108267716535
 20
4.594921259842519
 10
24.20401574803149
 20
4.598035433070866
 10
24.19734645669291
 20
4.602035433070866
 10
24.19107874015748
 20
4.60692125984252
 10
24.18520472440945
 20
4.612696850393701
 10
24.17973228346457
 20
4.619358267716535
 10
24.17520078740158
 20
4.625925196850393
 10
24.17107874015748
 20
4.632897637795276
 10
24.16735826771654
 20
4.640275590551181
 10
24.16404330708662
 20
4.64805905511811
 10
24.16111811023622
 20
4.656102362204725
 10
24.15857086614173
 20
4.664244094488189
 10
24.1563937007874
 20
4.672484251968504
 10
24.15458661417323
 20
4.680830708661417
 10
24.1499842519685
 20
4.713318897637795
 10
24.1486220472441
 20
4.74951968503937
 10
24.14899606299213
 20
4.760358267716535
 10
24.15011417322835
 20
4.77242125984252
 10
24.15197637795276
 20
4.785716535433071
 10
24.15458661417323
 20
4.800251968503937
 10
24.15637795275591
 20
4.808492125984252
 10
24.15850787401575
 20
4.816700787401575
 10
24.16097244094488
 20
4.824874015748032
 10
24.16377559055118
 20
4.833011811023622
 10
24.16697637795276
 20
4.840933070866142
 10
24.1706062992126
 20
4.848444881889764
 10
24.17467322834646
 20
4.855551181102363
 10
24.17918503937008
 20
4.862259842519685
 10
24.18415748031496
 20
4.868437007874015
 10
24.18960236220472
 20
4.873972440944882
 10
24.19250393700787
 20
4.8765
 10
24.19552362204724
 20
4.878866141732283
 10
24.19866141732284
 20
4.881070866141732
 10
24.20192125984252
 20
4.883114173228346
 10
24.20531102362205
 20
4.884952755905512
 10
24.20885039370079
 20
4.886547244094488
 10
24.21254724409449
 20
4.887897637795276
 10
24.2163937007874
 20
4.889
 10
24.2203937007874
 20
4.889858267716535
 10
24.22454724409449
 20
4.890468503937008
 10
24.22884645669291
 20
4.890838582677166
 10
24.23329921259842
 20
4.89096062992126
 10
24.23775590551181
 20
4.890834645669291
 10
24.24205905511811
 20
4.890452755905512
 10
24.2462125984252
 20
4.889818897637795
 10
24.2502125984252
 20
4.888933070866142
 10
24.25405905511811
 20
4.887791338582677
 10
24.25775590551181
 20
4.886397637795276
 10
24.26129921259842
 20
4.884748031496063
 10
24.26469291338583
 20
4.882850393700787
  0
LWPOLYLINE
  5
79
330
1F
100
AcDbEntity
  8
Layer 1
 62
     7
370
     9
100
AcDbPolyline
 90
       65
 70
     1
 43
0.0
 10
24.23519291338583
 20
4.55248031496063
 10
24.25099606299213
 20
4.553484251968504
 10
24.26579133858268
 20
4.556492125984252
 10
24.27957874015748
 20
4.561503937007874
 10
24.29236220472441
 20
4.568523622047244
 10
24.30413779527559
 20
4.577551181102362
 10
24.31490157480315
 20
4.58857874015748
 10
24.32466535433071
 20
4.60161811023622
 10
24.33341732283465
 20
4.616661417322835
 10
24.33957086614173
 20
4.629779527559055
 10
24.34490157480315
 20
4.643629921259842
 10
24.34941338582677
 20
4.658208661417323
 10
24.35310236220472
 20
4.673515748031496
 10
24.35596850393701
 20
4.689551181102362
 10
24.35801968503937
 20
4.706314960629921
 10
24.35924803149606
 20
4.723811023622047
 10
24.35965748031496
 20
4.742035433070866
 10
24.35924803149606
 20
4.760251968503937
 10
24.35801968503937
 20
4.777740157480315
 10
24.35596850393701
 20
4.7945
 10
24.35310236220472
 20
4.810535433070866
 10
24.34941338582677
 20
4.825846456692913
 10
24.34490157480315
 20
4.840425196850394
 10
24.33957086614173
 20
4.854279527559055
 10
24.33341732283465
 20
4.867409448818898
 10
24.32466535433071
 20
4.882448818897638
 10
24.31490157480315
 20
4.895484251968504
 10
24.30413779527559
 20
4.906511811023622
 10
24.29236220472441
 20
4.915535433070866
 10
24.27957874015748
 20
4.922555118110236
 10
24.26579133858268
 20
4.927566929133858
 10
24.25099606299213
 20
4.930574803149606
 10
24.23519291338583
 20
4.93157874015748
 10
24.21939763779528
 20
4.930574803149606
 10
24.2046062992126
 20
4.927566929133858
 10
24.19082283464567
 20
4.922555118110236
 10
24.17804724409449
 20
4.915535433070866
 10
24.16627165354331
 20
4.906511811023622
 10
24.15550787401575
 20
4.895484251968504
 10
24.14574409448819
 20
4.882448818897638
 10
24.13698818897638
 20
4.867409448818898
 10
24.13083858267716
 20
4.854279527559055
 10
24.12550787401575
 20
4.840425196850394
 10
24.12099606299213
 20
4.825846456692913
 10
24.11730708661417
 20
4.810535433070866
 10
24.11443700787402
 20
4.7945
 10
24.11238582677165
 20
4.777740157480315
 10
24.11115354330709
 20
4.760251968503937
 10
24.11074409448819
 20
4.742035433070866
 10
24.11115354330709
 20
4.723811023622047
 10
24.11238582677165
 20
4.706314960629921
 10
24.11443700787402
 20
4.689551181102362
 10
24.11730708661417
 20
4.673515748031496
 10
24.12099606299213
 20
4.658208661417323
 10
24.12550787401575
 20
4.643629921259842
 10
24.13083858267716
 20
4.629779527559055
 10
24.13698818897638
 20
4.616661417322835
 10
24.14574409448819
 20
4.60161811023622
 10
24.15550787401575
 20
4.58857874015748
 10
24.16627165354331
 20
4.577551181102362
 10
24.17804724409449
 20
4.568523622047244
 10
24.19082283464567
 20
4.561503937007874
 10
24.2046062992126
 20
4.556492125984252
 10
24.21939763779528
 20
4.553484251968504
 10
24.23519291338583
 20
4.55248031496063
  0
LWPOLYLINE
  5
7A
330
1F
100
AcDbEntity
  8
Layer 1
 62
     7
370
     9
100
AcDbPolyline
 90
       87
 70
     1
 43
0.0
 10
24.4208031496063
 20
4.557350393700787
 10
24.68002362204724
 20
4.557350393700787
 10
24.68002362204724
 20
4.595259842519685
 10
24.51226377952756
 20
4.595259842519685
 10
24.6405157480315
 20
4.722527559055118
 10
24.64888582677165
 20
4.731692913385827
 10
24.65613779527559
 20
4.741314960629921
 10
24.66227559055118
 20
4.751393700787402
 10
24.66729921259843
 20
4.761929133858268
 10
24.67120866141732
 20
4.772921259842519
 10
24.674
 20
4.784370078740158
 10
24.67567322834646
 20
4.796279527559055
 10
24.67623228346457
 20
4.808645669291338
 10
24.67566141732284
 20
4.821287401574804
 10
24.67394881889764
 20
4.833421259842519
 10
24.67109448818898
 20
4.845047244094488
 10
24.66709842519685
 20
4.856169291338583
 10
24.66196062992126
 20
4.866779527559055
 10
24.65568110236221
 20
4.876881889763779
 10
24.64825984251969
 20
4.886476377952756
 10
24.63970078740158
 20
4.895562992125984
 10
24.63018897637795
 20
4.904007874015748
 10
24.62025590551181
 20
4.911322834645669
 10
24.60989763779527
 20
4.917515748031496
 10
24.59911811023622
 20
4.922578740157481
 10
24.5879094488189
 20
4.926515748031496
 10
24.57628346456693
 20
4.929330708661418
 10
24.56422834645669
 20
4.931015748031496
 10
24.55175196850394
 20
4.93157874015748
 10
24.53881102362205
 20
4.930988188976378
 10
24.52634645669291
 20
4.929212598425197
 10
24.51436614173228
 20
4.926251968503937
 10
24.50286614173228
 20
4.922106299212598
 10
24.49184251968504
 20
4.916775590551181
 10
24.4813031496063
 20
4.910259842519685
 10
24.47124803149606
 20
4.90255905511811
 10
24.46166929133858
 20
4.893669291338583
 10
24.45314173228347
 20
4.884114173228347
 10
24.44582677165354
 20
4.874055118110237
 10
24.43971653543307
 20
4.8635
 10
24.43481496062992
 20
4.852448818897638
 10
24.43112598425197
 20
4.840893700787402
 10
24.42864173228346
 20
4.828838582677165
 10
24.42736614173228
 20
4.816283464566929
 10
24.4273031496063
 20
4.803228346456692
 10
24.46572834645669
 20
4.803228346456692
 10
24.4654094488189
 20
4.811696850393701
 10
24.466
 20
4.819968503937008
 10
24.46750787401575
 20
4.828047244094488
 10
24.46992519685039
 20
4.835929133858268
 10
24.47325196850394
 20
4.843614173228347
 10
24.47749606299213
 20
4.851110236220473
 10
24.48265748031496
 20
4.858409448818898
 10
24.48872834645669
 20
4.865515748031496
 10
24.49522047244094
 20
4.871862204724409
 10
24.50205118110236
 20
4.87736220472441
 10
24.50922440944882
 20
4.882015748031496
 10
24.51673228346457
 20
4.885822834645669
 10
24.52457874015748
 20
4.888783464566929
 10
24.53275984251968
 20
4.890897637795276
 10
24.54127952755906
 20
4.892169291338583
 10
24.55013779527559
 20
4.892590551181103
 10
24.55883464566929
 20
4.892208661417323
 10
24.56720078740157
 20
4.891066929133858
 10
24.57523622047244
 20
4.889161417322835
 10
24.58294094488189
 20
4.886496062992126
 10
24.59031496062992
 20
4.883070866141733
 10
24.59736220472441
 20
4.87888188976378
 10
24.60407874015748
 20
4.873933070866141
 10
24.61046850393701
 20
4.868224409448819
 10
24.61637007874016
 20
4.861905511811024
 10
24.6214842519685
 20
4.855287401574803
 10
24.62581102362205
 20
4.84836220472441
 10
24.62935433070866
 20
4.841133858267717
 10
24.6321062992126
 20
4.83359842519685
 10
24.63407086614173
 20
4.825763779527559
 10
24.63525196850394
 20
4.817622047244095
 10
24.63564566929134
 20
4.809177165354331
 10
24.63526377952756
 20
4.800551181102362
 10
24.63412204724409
 20
4.792259842519685
 10
24.63221653543307
 20
4.784307086614173
 10
24.62955511811024
 20
4.776692913385827
 10
24.62612598425197
 20
4.769413385826772
 10
24.62194094488189
 20
4.762472440944882
 10
24.61699212598425
 20
4.755874015748032
 10
24.61128346456693
 20
4.749614173228347
 10
24.4208031496063
 20
4.557350393700787
  0
LWPOLYLINE
  5
7B
330
1F
100
AcDbEntity
  8
Layer 1
 62
     7
370
     9
100
AcDbPolyline
 90
      155
 70
     1
 43
0.0
 10
25.06206299212598
 20
4.558429133858268
 10
25.09993700787401
 20
4.558429133858268
 10
25.09993700787401
 20
4.707370078740158
 10
25.09962992125984
 20
4.717255905511811
 10
25.09870472440945
 20
4.726677165354331
 10
25.09716141732283
 20
4.735637795275591
 10
25.09500393700787
 20
4.744129921259843
 10
25.09222834645669
 20
4.752157480314961
 10
25.08883464566929
 20
4.759716535433071
 10
25.08482283464567
 20
4.766807086614174
 10
25.08019291338583
 20
4.773433070866142
 10
25.0776062992126
 20
4.776606299212599
 10
25.07486220472441
 20
4.779614173228347
 10
25.07195669291339
 20
4.782464566929134
 10
25.06888976377953
 20
4.785153543307087
 10
25.06566535433071
 20
4.787677165354331
 10
25.06227559055118
 20
4.790043307086614
 10
25.05872834645669
 20
4.792244094488189
 10
25.0550157480315
 20
4.794287401574803
 10
25.05107480314961
 20
4.796129921259842
 10
25.04683464566929
 20
4.797728346456693
 10
25.0422874015748
 20
4.79907874015748
 10
25.03743307086614
 20
4.800185039370079
 10
25.03227559055118
 20
4.801043307086614
 10
25.02681496062992
 20
4.801657480314961
 10
25.02104724409449
 20
4.802027559055118
 10
25.01497637795276
 20
4.802149606299213
 10
25.00885039370079
 20
4.801937007874016
 10
25.00292125984252
 20
4.801303149606299
 10
24.99718503937008
 20
4.800244094488189
 10
24.99164173228347
 20
4.798763779527559
 10
24.98629527559055
 20
4.796858267716535
 10
24.98114173228347
 20
4.794531496062993
 10
24.9761811023622
 20
4.791779527559055
 10
24.97141732283465
 20
4.788602362204724
 10
24.96728346456693
 20
4.78544094488189
 10
24.96333464566929
 20
4.782043307086614
 10
24.95957086614173
 20
4.778413385826772
 10
24.95599212598425
 20
4.774551181102362
 10
24.95259842519685
 20
4.77046062992126
 10
24.9493937007874
 20
4.766141732283464
 10
24.94637795275591
 20
4.76159842519685
 10
24.94354724409449
 20
4.756834645669291
 10
24.93352362204724
 20
4.773433070866142
 10
24.93094094488189
 20
4.776606299212599
 10
24.92820078740158
 20
4.779614173228347
 10
24.92529527559055
 20
4.782464566929134
 10
24.92223228346457
 20
4.785153543307087
 10
24.91900787401575
 20
4.787677165354331
 10
24.9156220472441
 20
4.790043307086614
 10
24.91207874015748
 20
4.792244094488189
 10
24.90837795275591
 20
4.794287401574803
 10
24.90443700787402
 20
4.796129921259842
 10
24.90019291338583
 20
4.797728346456693
 10
24.89564566929134
 20
4.79907874015748
 10
24.89079133858268
 20
4.800185039370079
 10
24.88563385826772
 20
4.801043307086614
 10
24.88017322834646
 20
4.801657480314961
 10
24.8744094488189
 20
4.802027559055118
 10
24.86834251968504
 20
4.802149606299213
 10
24.86221653543307
 20
4.801937007874016
 10
24.85628346456693
 20
4.801303149606299
 10
24.85054330708661
 20
4.800244094488189
 10
24.84499606299213
 20
4.798763779527559
 10
24.83964566929134
 20
4.796858267716535
 10
24.83449212598425
 20
4.794531496062993
 10
24.82953149606299
 20
4.791779527559055
 10
24.82476377952756
 20
4.788602362204724
 10
24.82082677165354
 20
4.785594488188976
 10
24.81705905511811
 20
4.782377952755906
 10
24.81345669291339
 20
4.778956692913386
 10
24.81002362204724
 20
4.775326771653543
 10
24.80675984251969
 20
4.771492125984252
 10
24.80366535433071
 20
4.767444881889764
 10
24.80073228346457
 20
4.763192913385827
 10
24.79797244094488
 20
4.758728346456693
 10
24.79797244094488
 20
4.796732283464567
 10
24.76009842519685
 20
4.796732283464567
 10
24.76009842519685
 20
4.558429133858268
 10
24.79797244094488
 20
4.558429133858268
 10
24.79797244094488
 20
4.680374015748032
 10
24.79885433070866
 20
4.68748031496063
 10
24.80000393700787
 20
4.694311023622047
 10
24.80142519685039
 20
4.700866141732283
 10
24.80311811023622
 20
4.707145669291338
 10
24.80508267716536
 20
4.713157480314961
 10
24.80731496062992
 20
4.718897637795275
 10
24.80982283464567
 20
4.724370078740158
 10
24.81259842519685
 20
4.729574803149606
 10
24.81485433070866
 20
4.733283464566929
 10
24.81729527559055
 20
4.736818897637796
 10
24.8199251968504
 20
4.740188976377953
 10
24.82274015748031
 20
4.743385826771654
 10
24.82574409448819
 20
4.746413385826772
 10
24.82893307086614
 20
4.749275590551181
 10
24.83230708661417
 20
4.751964566929134
 10
24.83586614173228
 20
4.754484251968504
 10
24.83955118110236
 20
4.756767716535433
 10
24.84330708661417
 20
4.758751968503937
 10
24.84712598425197
 20
4.760429133858268
 10
24.8510157480315
 20
4.761799212598425
 10
24.85497244094488
 20
4.762866141732284
 10
24.85899606299213
 20
4.763629921259843
 10
24.86308661417323
 20
4.764086614173229
 10
24.86724409448819
 20
4.764240157480315
 10
24.87509842519685
 20
4.763917322834645
 10
24.88186614173229
 20
4.762948818897637
 10
24.88484251968504
 20
4.762224409448819
 10
24.88754724409449
 20
4.761338582677165
 10
24.88998031496063
 20
4.760291338582677
 10
24.89214173228346
 20
4.759086614173229
 10
24.89759448818898
 20
4.755047244094488
 10
24.90232283464567
 20
4.750314960629921
 10
24.90632283464567
 20
4.744889763779527
 10
24.90959448818898
 20
4.738771653543307
 10
24.91213779527559
 20
4.73196062992126
 10
24.91395669291338
 20
4.724456692913386
 10
24.91504724409449
 20
4.716259842519685
 10
24.9154094488189
 20
4.707370078740158
 10
24.9154094488189
 20
4.558429133858268
 10
24.9532874015748
 20
4.558429133858268
 10
24.9532874015748
 20
4.707370078740158
 10
24.95301968503937
 20
4.716484251968504
 10
24.95923622047244
 20
4.729574803149606
 10
24.96149606299213
 20
4.733283464566929
 10
24.96393700787402
 20
4.736818897637796
 10
24.96656692913386
 20
4.740188976377953
 10
24.96938188976378
 20
4.743385826771654
 10
24.97238582677165
 20
4.746413385826772
 10
24.97557086614173
 20
4.749275590551181
 10
24.97894488188976
 20
4.751964566929134
 10
24.98250393700787
 20
4.754484251968504
 10
24.98618897637795
 20
4.756767716535433
 10
24.98994488188976
 20
4.758751968503937
 10
24.99376377952756
 20
4.760429133858268
 10
24.99765354330709
 20
4.761799212598425
 10
25.00161023622047
 20
4.762866141732284
 10
25.00563779527559
 20
4.763629921259843
 10
25.00973228346457
 20
4.764086614173229
 10
25.01389763779527
 20
4.764240157480315
 10
25.02174409448819
 20
4.763917322834645
 10
25.02850787401575
 20
4.762948818897637
 10
25.0314842519685
 20
4.762224409448819
 10
25.03419291338583
 20
4.761338582677165
 10
25.03662992125984
 20
4.760291338582677
 10
25.03879527559055
 20
4.759086614173229
 10
25.04424409448819
 20
4.755047244094488
 10
25.04896850393701
 20
4.750314960629921
 10
25.05296850393701
 20
4.744889763779527
 10
25.05624015748031
 20
4.738771653543307
 10
25.0587874015748
 20
4.73196062992126
 10
25.0606062992126
 20
4.724456692913386
 10
25.06170078740157
 20
4.716259842519685
 10
25.06206299212598
 20
4.707370078740158
 10
25.06206299212598
 20
4.558429133858268
  0
LWPOLYLINE
  5
7C
330
1F
100
AcDbEntity
  8
Layer 1
 62
     7
370
     9
100
AcDbPolyline
 90
      155
 70
     1
 43
0.0
 10
25.47494881889764
 20
4.558429133858268
 10
25.51280708661417
 20
4.558429133858268
 10
25.51280708661417
 20
4.707370078740158
 10
25.5125
 20
4.717255905511811
 10
25.51157480314961
 20
4.726677165354331
 10
25.51003149606299
 20
4.735637795275591
 10
25.50787401574803
 20
4.744129921259843
 10
25.50509842519685
 20
4.752157480314961
 10
25.50170472440945
 20
4.759716535433071
 10
25.49769291338583
 20
4.766807086614174
 10
25.49306299212599
 20
4.773433070866142
 10
25.49047637795276
 20
4.776606299212599
 10
25.48773228346457
 20
4.779614173228347
 10
25.48482677165354
 20
4.782464566929134
 10
25.48176377952756
 20
4.785153543307087
 10
25.47853937007874
 20
4.787677165354331
 10
25.47515354330709
 20
4.790043307086614
 10
25.4716062992126
 20
4.792244094488189
 10
25.46790157480315
 20
4.794287401574803
 10
25.46396062992126
 20
4.796129921259842
 10
25.45972047244095
 20
4.797728346456693
 10
25.45517322834646
 20
4.79907874015748
 10
25.4503188976378
 20
4.800185039370079
 10
25.44516535433071
 20
4.801043307086614
 10
25.43970078740157
 20
4.801657480314961
 10
25.43393700787401
 20
4.802027559055118
 10
25.42786614173228
 20
4.802149606299213
 10
25.42174015748031
 20
4.801937007874016
 10
25.41580708661417
 20
4.801303149606299
 10
25.41007086614173
 20
4.800244094488189
 10
25.40452755905512
 20
4.798763779527559
 10
25.39918110236221
 20
4.796858267716535
 10
25.39402755905512
 20
4.794531496062993
 10
25.38906692913386
 20
4.791779527559055
 10
25.3843031496063
 20
4.788602362204724
 10
25.38016929133858
 20
4.78544094488189
 10
25.37622047244095
 20
4.782043307086614
 10
25.37245669291339
 20
4.778413385826772
 10
25.36887795275591
 20
4.774551181102362
 10
25.3654842519685
 20
4.77046062992126
 10
25.36227952755905
 20
4.766141732283464
 10
25.35926377952756
 20
4.76159842519685
 10
25.35643307086614
 20
4.756834645669291
 10
25.3464094488189
 20
4.773433070866142
 10
25.34382677165354
 20
4.776606299212599
 10
25.34108267716535
 20
4.779614173228347
 10
25.33818110236221
 20
4.782464566929134
 10
25.33511417322835
 20
4.785153543307087
 10
25.33188976377953
 20
4.787677165354331
 10
25.3285
 20
4.790043307086614
 10
25.32495669291339
 20
4.792244094488189
 10
25.32124803149606
 20
4.794287401574803
 10
25.31730708661417
 20
4.796129921259842
 10
25.31306299212599
 20
4.797728346456693
 10
25.3085157480315
 20
4.79907874015748
 10
25.30366141732284
 20
4.800185039370079
 10
25.29850787401575
 20
4.801043307086614
 10
25.29304724409449
 20
4.801657480314961
 10
25.2872874015748
 20
4.802027559055118
 10
25.28122834645669
 20
4.802149606299213
 10
25.27510236220472
 20
4.801937007874016
 10
25.26916929133858
 20
4.801303149606299
 10
25.26342913385827
 20
4.800244094488189
 10
25.25788188976378
 20
4.798763779527559
 10
25.25253149606299
 20
4.796858267716535
 10
25.2473779527559
 20
4.794531496062993
 10
25.24241732283464
 20
4.791779527559055
 10
25.23764960629921
 20
4.788602362204724
 10
25.2337125984252
 20
4.785594488188976
 10
25.22994488188976
 20
4.782377952755906
 10
25.22634251968504
 20
4.778956692913386
 10
25.2229094488189
 20
4.775326771653543
 10
25.21964566929134
 20
4.771492125984252
 10
25.21655118110236
 20
4.767444881889764
 10
25.21361811023622
 20
4.763192913385827
 10
25.21085826771654
 20
4.758728346456693
 10
25.21085826771654
 20
4.796732283464567
 10
25.1729842519685
 20
4.796732283464567
 10
25.1729842519685
 20
4.558429133858268
 10
25.21085826771654
 20
4.558429133858268
 10
25.21085826771654
 20
4.680374015748032
 10
25.21174015748031
 20
4.68748031496063
 10
25.21288976377953
 20
4.694311023622047
 10
25.21431496062992
 20
4.700866141732283
 10
25.21600393700787
 20
4.707145669291338
 10
25.21796850393701
 20
4.713157480314961
 10
25.22020078740157
 20
4.718897637795275
 10
25.22270866141732
 20
4.724370078740158
 10
25.2254842519685
 20
4.729574803149606
 10
25.22774015748032
 20
4.733283464566929
 10
25.23018110236221
 20
4.736818897637796
 10
25.23281102362205
 20
4.740188976377953
 10
25.23562598425197
 20
4.743385826771654
 10
25.23862992125984
 20
4.746413385826772
 10
25.2418188976378
 20
4.749275590551181
 10
25.24519291338583
 20
4.751964566929134
 10
25.24875196850394
 20
4.754484251968504
 10
25.25243700787401
 20
4.756767716535433
 10
25.25619291338583
 20
4.758751968503937
 10
25.26001181102362
 20
4.760429133858268
 10
25.26390157480315
 20
4.761799212598425
 10
25.26785826771653
 20
4.762866141732284
 10
25.27188188976378
 20
4.763629921259843
 10
25.27597244094488
 20
4.764086614173229
 10
25.28012992125984
 20
4.764240157480315
 10
25.28797637795276
 20
4.763917322834645
 10
25.29474015748032
 20
4.762948818897637
 10
25.2977125984252
 20
4.762224409448819
 10
25.30041732283465
 20
4.761338582677165
 10
25.30285039370079
 20
4.760291338582677
 10
25.30501181102362
 20
4.759086614173229
 10
25.31046456692913
 20
4.755047244094488
 10
25.31519291338583
 20
4.750314960629921
 10
25.31919291338583
 20
4.744889763779527
 10
25.32246456692913
 20
4.738771653543307
 10
25.32500787401575
 20
4.73196062992126
 10
25.32682677165354
 20
4.724456692913386
 10
25.32791732283465
 20
4.716259842519685
 10
25.32827952755905
 20
4.707370078740158
 10
25.32827952755905
 20
4.558429133858268
 10
25.36617322834646
 20
4.558429133858268
 10
25.36617322834646
 20
4.707370078740158
 10
25.36590551181103
 20
4.716484251968504
 10
25.37212204724409
 20
4.729574803149606
 10
25.37438188976378
 20
4.733283464566929
 10
25.37682283464567
 20
4.736818897637796
 10
25.37945275590551
 20
4.740188976377953
 10
25.38226771653543
 20
4.743385826771654
 10
25.38527165354331
 20
4.746413385826772
 10
25.38845669291339
 20
4.749275590551181
 10
25.39183070866142
 20
4.751964566929134
 10
25.39538976377953
 20
4.754484251968504
 10
25.39907480314961
 20
4.756767716535433
 10
25.40283070866142
 20
4.758751968503937
 10
25.40664960629921
 20
4.760429133858268
 10
25.41053937007874
 20
4.761799212598425
 10
25.41449606299213
 20
4.762866141732284
 10
25.41852362204724
 20
4.763629921259843
 10
25.42261811023622
 20
4.764086614173229
 10
25.42678346456693
 20
4.764240157480315
 10
25.43462992125984
 20
4.763917322834645
 10
25.4413937007874
 20
4.762948818897637
 10
25.44437007874016
 20
4.762224409448819
 10
25.44707874015748
 20
4.761338582677165
 10
25.44951574803149
 20
4.760291338582677
 10
25.4516811023622
 20
4.759086614173229
 10
25.45712992125984
 20
4.755047244094488
 10
25.46185433070866
 20
4.750314960629921
 10
25.46585433070866
 20
4.744889763779527
 10
25.46912598425197
 20
4.738771653543307
 10
25.47167322834646
 20
4.73196062992126
 10
25.47349212598425
 20
4.724456692913386
 10
25.47458661417323
 20
4.716259842519685
 10
25.47494881889764
 20
4.707370078740158
 10
25.47494881889764
 20
4.558429133858268
  0
LWPOLYLINE
  5
7D
330
1F
100
AcDbEntity
  8
Layer 1
 62
     7
370
     9
100
AcDbPolyline
 90
        7
 70
     1
 43
0.0
 10
23.52367716535433
 20
1.264409448818898
 10
23.56157086614173
 20
1.264409448818898
 10
23.56157086614173
 20
1.637035433070866
 10
23.47064566929134
 20
1.627283464566929
 10
23.47064566929134
 20
1.594244094488189
 10
23.52367716535433
 20
1.594244094488189
 10
23.52367716535433
 20
1.264409448818898
  0
LWPOLYLINE
  5
7E
330
1F
100
AcDbEntity
  8
Layer 1
 62
     7
370
     9
100
AcDbPolyline
 90
      127
 70
     1
 43
0.0
 10
23.79180708661417
 20
1.26848031496063
 10
23.79733858267717
 20
1.270956692913386
 10
23.80270078740158
 20
1.273653543307087
 10
23.8078937007874
 20
1.276570866141732
 10
23.81291338582677
 20
1.279708661417323
 10
23.81776377952756
 20
1.283066929133858
 10
23.82244488188976
 20
1.286645669291339
 10
23.82695275590551
 20
1.290448818897638
 10
23.83129527559055
 20
1.294472440944882
 10
23.83985826771654
 20
1.303562992125984
 10
23.84727952755906
 20
1.313161417322835
 10
23.85355905511811
 20
1.323267716535433
 10
23.8586968503937
 20
1.333877952755905
 10
23.86269291338583
 20
1.344996062992126
 10
23.86554330708661
 20
1.356622047244094
 10
23.86725590551181
 20
1.368751968503937
 10
23.86782677165354
 20
1.381389763779528
 10
23.86724803149606
 20
1.394043307086614
 10
23.86551181102362
 20
1.406208661417323
 10
23.86261417322835
 20
1.417877952755906
 10
23.85856299212599
 20
1.42905905511811
 10
23.85335039370079
 20
1.439748031496063
 10
23.84698031496063
 20
1.449944881889764
 10
23.83944881889764
 20
1.459653543307087
 10
23.83076377952756
 20
1.468870078740157
 10
23.8217874015748
 20
1.476822834645669
 10
23.81223228346457
 20
1.483826771653543
 10
23.80210236220472
 20
1.489885826771653
 10
23.79139763779527
 20
1.494996062992126
 10
23.78011811023622
 20
1.499161417322835
 10
23.76826377952756
 20
1.502377952755906
 10
23.75583070866142
 20
1.504645669291339
 10
23.74282677165354
 20
1.505964566929134
 10
23.7266062992126
 20
1.496224409448819
 10
23.84185039370079
 20
1.632700787401575
 10
23.64380708661417
 20
1.632700787401575
 10
23.64380708661417
 20
1.594791338582677
 10
23.76503149606299
 20
1.594791338582677
 10
23.65354724409449
 20
1.464799212598425
 10
23.68223228346457
 20
1.441515748031496
 10
23.68887795275591
 20
1.447610236220472
 10
23.69582677165354
 20
1.452889763779527
 10
23.70308267716536
 20
1.457358267716536
 10
23.71064173228346
 20
1.461011811023622
 10
23.71850393700787
 20
1.463854330708661
 10
23.72667322834646
 20
1.465885826771653
 10
23.73514566929134
 20
1.467102362204724
 10
23.74392519685039
 20
1.467507874015748
 10
23.75268503937008
 20
1.467114173228346
 10
23.76111811023622
 20
1.465933070866142
 10
23.76922047244095
 20
1.463968503937008
 10
23.77699212598425
 20
1.461212598425197
 10
23.78443700787401
 20
1.457673228346457
 10
23.79155511811024
 20
1.453346456692913
 10
23.79834251968504
 20
1.448232283464567
 10
23.8048031496063
 20
1.442330708661417
 10
23.81069291338583
 20
1.435874015748031
 10
23.81579921259842
 20
1.429106299212598
 10
23.82012204724409
 20
1.422027559055118
 10
23.82365748031496
 20
1.414633858267716
 10
23.8264094488189
 20
1.406929133858268
 10
23.82837401574803
 20
1.398913385826772
 10
23.82955511811024
 20
1.390582677165354
 10
23.82994881889764
 20
1.381937007874016
 10
23.82954724409449
 20
1.373484251968504
 10
23.82834251968504
 20
1.365318897637795
 10
23.82633464566929
 20
1.35744094488189
 10
23.82352362204724
 20
1.349850393700787
 10
23.8199094488189
 20
1.342547244094488
 10
23.81549212598425
 20
1.335531496062992
 10
23.81027559055118
 20
1.328803149606299
 10
23.80425196850394
 20
1.322358267716536
 10
23.79818503937008
 20
1.31696062992126
 10
23.7916062992126
 20
1.312137795275591
 10
23.78452362204725
 20
1.307889763779527
 10
23.77692913385827
 20
1.304208661417323
 10
23.77290551181103
 20
1.302622047244095
 10
23.76867716535433
 20
1.301251968503937
 10
23.76424803149606
 20
1.300086614173228
 10
23.75961417322835
 20
1.29913779527559
 10
23.75477559055118
 20
1.298397637795276
 10
23.74973622047244
 20
1.297866141732283
 10
23.74449606299213
 20
1.297551181102362
 10
23.73905511811024
 20
1.297444881889764
 10
23.73350393700787
 20
1.297677165354331
 10
23.72795669291338
 20
1.298377952755906
 10
23.72240551181102
 20
1.29953937007874
 10
23.71685826771654
 20
1.301169291338583
 10
23.71131102362205
 20
1.303267716535433
 10
23.70576377952756
 20
1.305830708661417
 10
23.7002125984252
 20
1.308858267716535
 10
23.69466535433071
 20
1.312354330708661
 10
23.68932283464567
 20
1.316236220472441
 10
23.68438976377953
 20
1.320452755905512
 10
23.67985826771654
 20
1.325
 10
23.67573228346457
 20
1.329877952755905
 10
23.67201181102362
 20
1.335090551181102
 10
23.6686968503937
 20
1.340629921259842
 10
23.6657874015748
 20
1.346503937007874
 10
23.66328346456693
 20
1.352704724409449
 10
23.62648818897638
 20
1.340240157480315
 10
23.62998425196851
 20
1.331413385826772
 10
23.63411417322835
 20
1.323011811023622
 10
23.63887795275591
 20
1.315031496062992
 10
23.64427559055118
 20
1.307476377952756
 10
23.65030708661417
 20
1.300342519685039
 10
23.65697637795276
 20
1.293629921259843
 10
23.66427559055118
 20
1.287342519685039
 10
23.67220866141732
 20
1.281476377952756
 10
23.68011023622047
 20
1.27648031496063
 10
23.68838188976378
 20
1.272066929133858
 10
23.69701968503937
 20
1.268224409448819
 10
23.70603149606299
 20
1.264956692913386
 10
23.7106968503937
 20
1.26355905511811
 10
23.71548818897638
 20
1.262346456692913
 10
23.72040551181102
 20
1.261322834645669
 10
23.72544881889764
 20
1.260484251968504
 10
23.73591732283464
 20
1.259366141732283
 10
23.74689763779527
 20
1.258992125984252
 10
23.75251181102362
 20
1.259141732283465
 10
23.75812598425197
 20
1.259586614173228
 10
23.76374015748031
 20
1.260326771653543
 10
23.76935433070866
 20
1.26136220472441
 10
23.77496456692914
 20
1.262696850393701
 10
23.78057874015748
 20
1.264326771653543
 10
23.78619291338583
 20
1.266255905511811
 10
23.79180708661417
 20
1.26848031496063
  0
LWPOLYLINE
  5
7F
330
1F
100
AcDbEntity
  8
Layer 1
 62
     7
370
     9
100
AcDbPolyline
 90
       69
 70
     1
 43
0.0
 10
24.0179842519685
 20
1.431775590551181
 10
24.00935433070866
 20
1.432173228346457
 10
24.00104724409449
 20
1.433366141732283
 10
23.99306299212599
 20
1.435350393700787
 10
23.98539763779528
 20
1.438133858267717
 10
23.97805118110236
 20
1.441712598425197
 10
23.97102755905512
 20
1.446082677165354
 10
23.96432283464567
 20
1.451255905511811
 10
23.95793700787402
 20
1.457220472440945
 10
23.95216141732283
 20
1.463669291338583
 10
23.94715748031496
 20
1.47042125984252
 10
23.94292519685039
 20
1.477476377952756
 10
23.93946456692913
 20
1.484838582677165
 10
23.93676771653543
 20
1.492503937007874
 10
23.93484645669291
 20
1.500476377952756
 10
23.93369291338583
 20
1.508751968503937
 10
23.93330708661417
 20
1.517330708661417
 10
23.9336968503937
 20
1.525720472440945
 10
23.93486220472441
 20
1.533818897637795
 10
23.93680708661417
 20
1.541629921259843
 10
23.93953149606299
 20
1.549157480314961
 10
23.94303149606299
 20
1.556393700787402
 10
23.94731102362205
 20
1.563342519685039
 10
23.95237007874016
 20
1.570003937007874
 10
23.95820472440945
 20
1.576377952755905
 10
23.96447244094488
 20
1.582090551181102
 10
23.9710905511811
 20
1.58703937007874
 10
23.97806692913386
 20
1.591228346456693
 10
23.98539763779528
 20
1.594653543307087
 10
23.99308267716535
 20
1.597318897637795
 10
24.00111811023622
 20
1.599220472440945
 10
24.00950787401575
 20
1.600358267716535
 10
24.01825196850394
 20
1.600740157480315
 10
24.02683464566929
 20
1.600346456692913
 10
24.03512992125984
 20
1.599165354330709
 10
24.04313779527559
 20
1.597200787401575
 10
24.05085826771654
 20
1.594448818897638
 10
24.05829133858268
 20
1.590905511811024
 10
24.06543700787402
 20
1.58657874015748
 10
24.07229527559055
 20
1.581464566929134
 10
24.07886220472441
 20
1.575562992125984
 10
24.08482677165354
 20
1.569177165354331
 10
24.08999212598425
 20
1.562476377952756
 10
24.09436614173228
 20
1.555464566929134
 10
24.09794488188976
 20
1.548141732283465
 10
24.10072834645669
 20
1.540507874015748
 10
24.10271653543307
 20
1.53255905511811
 10
24.1039094488189
 20
1.524295275590551
 10
24.10430708661417
 20
1.515720472440945
 10
24.10390551181102
 20
1.507393700787402
 10
24.10270078740157
 20
1.499338582677165
 10
24.10068897637795
 20
1.491551181102362
 10
24.0978779527559
 20
1.48403937007874
 10
24.09425984251968
 20
1.476791338582677
 10
24.08984251968504
 20
1.469818897637795
 10
24.0846220472441
 20
1.463118110236221
 10
24.07859842519685
 20
1.456688976377953
 10
24.07252755905512
 20
1.451291338582677
 10
24.06595275590551
 20
1.446464566929134
 10
24.05886614173228
 20
1.442212598425197
 10
24.05127559055118
 20
1.43853937007874
 10
24.04731889763779
 20
1.436952755905512
 10
24.0433031496063
 20
1.435582677165354
 10
24.03923228346457
 20
1.434417322834646
 10
24.03509842519685
 20
1.433468503937008
 10
24.0309094488189
 20
1.432728346456693
 10
24.02666141732283
 20
1.432196850393701
 10
24.02235433070866
 20
1.43188188976378
 10
24.0179842519685
 20
1.431775590551181
  0
LWPOLYLINE
  5
80
330
1F
100
AcDbEntity
  8
Layer 1
 62
     7
370
     9
100
AcDbPolyline
 90
       69
 70
     1
 43
0.0
 10
23.89488188976378
 20
1.514637795275591
 10
23.89547244094488
 20
1.501594488188976
 10
23.89725196850394
 20
1.489145669291339
 10
23.9002125984252
 20
1.477287401574803
 10
23.90435826771654
 20
1.466027559055118
 10
23.90968503937008
 20
1.455354330708661
 10
23.91620078740157
 20
1.445275590551181
 10
23.92389763779527
 20
1.435787401574803
 10
23.93277559055118
 20
1.426889763779527
 10
23.94184645669291
 20
1.419393700787402
 10
23.95155511811024
 20
1.412822834645669
 10
23.96189763779527
 20
1.407177165354331
 10
23.9728779527559
 20
1.402448818897638
 10
23.98448818897638
 20
1.398645669291338
 10
23.99673228346457
 20
1.395767716535433
 10
24.00961023622047
 20
1.393807086614173
 10
24.02312204724409
 20
1.392771653543307
 10
24.03395669291339
 20
1.399818897637795
 10
23.92140551181102
 20
1.264409448818898
 10
23.97118503937008
 20
1.264409448818898
 10
24.11512992125984
 20
1.438259842519685
 10
24.12159842519685
 20
1.446728346456693
 10
24.12720472440945
 20
1.455543307086614
 10
24.13194881889764
 20
1.464704724409449
 10
24.13583070866142
 20
1.474212598425197
 10
24.13885039370079
 20
1.484066929133858
 10
24.14100787401575
 20
1.494267716535433
 10
24.14229921259842
 20
1.504818897637795
 10
24.14273228346457
 20
1.515720472440945
 10
24.14216535433071
 20
1.528271653543307
 10
24.14046456692913
 20
1.540342519685039
 10
24.13763385826772
 20
1.551929133858268
 10
24.13366535433071
 20
1.563035433070866
 10
24.12856692913386
 20
1.573657480314961
 10
24.12233464566929
 20
1.583799212598425
 10
24.11496850393701
 20
1.59346062992126
 10
24.10646850393701
 20
1.602637795275591
 10
24.09711023622047
 20
1.61107874015748
 10
24.08729133858268
 20
1.618389763779527
 10
24.07701968503937
 20
1.624582677165354
 10
24.0662874015748
 20
1.629645669291339
 10
24.05509842519685
 20
1.633582677165354
 10
24.04345275590551
 20
1.636397637795276
 10
24.03135433070866
 20
1.638086614173228
 10
24.01879921259842
 20
1.638649606299213
 10
24.00607086614173
 20
1.638090551181102
 10
23.99384645669291
 20
1.636417322834646
 10
23.98212992125984
 20
1.633622047244095
 10
23.97092125984252
 20
1.629712598425197
 10
23.96021653543307
 20
1.624685039370079
 10
23.95001968503937
 20
1.618543307086614
 10
23.94033070866142
 20
1.611279527559055
 10
23.93114566929134
 20
1.60290157480315
 10
23.92706299212598
 20
1.598625984251969
 10
23.92320078740158
 20
1.594177165354331
 10
23.91955511811024
 20
1.589555118110236
 10
23.91612992125984
 20
1.584767716535433
 10
23.91292125984252
 20
1.579807086614173
 10
23.90993700787402
 20
1.574677165354331
 10
23.90716929133858
 20
1.569377952755906
 10
23.90462204724409
 20
1.563913385826772
 10
23.90234251968504
 20
1.558283464566929
 10
23.90036614173228
 20
1.552503937007874
 10
23.89868897637795
 20
1.546574803149606
 10
23.8973188976378
 20
1.540492125984252
 10
23.89625590551181
 20
1.534259842519685
 10
23.89549212598425
 20
1.527870078740158
 10
23.89503543307087
 20
1.521330708661417
 10
23.89488188976378
 20
1.514637795275591
  0
LWPOLYLINE
  5
81
330
1F
100
AcDbEntity
  8
Layer 1
 62
     7
370
     9
100
AcDbPolyline
 90
      155
 70
     1
 43
0.0
 10
24.49987795275591
 20
1.265503937007874
 10
24.53775196850394
 20
1.265503937007874
 10
24.53775196850394
 20
1.414444881889764
 10
24.53744488188977
 20
1.424330708661417
 10
24.53651968503937
 20
1.433748031496063
 10
24.53497637795276
 20
1.442704724409449
 10
24.5328188976378
 20
1.451196850393701
 10
24.53004330708661
 20
1.459220472440945
 10
24.52664960629921
 20
1.466783464566929
 10
24.52263779527559
 20
1.473877952755906
 10
24.51800787401575
 20
1.480503937007874
 10
24.51542125984252
 20
1.483677165354331
 10
24.51267716535433
 20
1.486685039370079
 10
24.50977165354331
 20
1.489535433070866
 10
24.50670472440945
 20
1.492224409448819
 10
24.50348031496063
 20
1.494751968503937
 10
24.5000905511811
 20
1.497114173228346
 10
24.49654330708661
 20
1.499318897637795
 10
24.49283070866142
 20
1.50136220472441
 10
24.48888976377953
 20
1.503200787401575
 10
24.48464960629921
 20
1.504795275590551
 10
24.48010236220473
 20
1.506145669291339
 10
24.47524803149606
 20
1.507251968503937
 10
24.4700905511811
 20
1.508114173228347
 10
24.46462992125984
 20
1.508728346456693
 10
24.45886220472441
 20
1.50909842519685
 10
24.45279133858268
 20
1.509220472440945
 10
24.44666535433071
 20
1.509007874015748
 10
24.44073622047244
 20
1.508374015748031
 10
24.435
 20
1.507314960629921
 10
24.42945669291339
 20
1.505830708661417
 10
24.42411023622047
 20
1.503925196850394
 10
24.41895669291339
 20
1.50159842519685
 10
24.41399606299213
 20
1.498850393700787
 10
24.40923228346457
 20
1.495677165354331
 10
24.40509842519685
 20
1.492511811023622
 10
24.40114960629921
 20
1.489110236220472
 10
24.39738582677165
 20
1.48548031496063
 10
24.39380708661417
 20
1.481614173228347
 10
24.39041338582677
 20
1.477523622047244
 10
24.38720866141732
 20
1.473204724409449
 10
24.38419291338583
 20
1.468657480314961
 10
24.38136220472441
 20
1.463889763779528
 10
24.37135433070866
 20
1.480503937007874
 10
24.36877165354331
 20
1.483677165354331
 10
24.36602755905512
 20
1.486685039370079
 10
24.36312598425197
 20
1.489535433070866
 10
24.36005905511811
 20
1.492224409448819
 10
24.35683464566929
 20
1.494751968503937
 10
24.35344488188976
 20
1.497114173228346
 10
24.34990157480315
 20
1.499318897637795
 10
24.34619291338583
 20
1.50136220472441
 10
24.34225196850394
 20
1.503200787401575
 10
24.33800787401575
 20
1.504795275590551
 10
24.33346062992126
 20
1.506145669291339
 10
24.3286062992126
 20
1.507251968503937
 10
24.32344881889764
 20
1.508114173228347
 10
24.31798818897638
 20
1.508728346456693
 10
24.31222440944882
 20
1.50909842519685
 10
24.30615748031496
 20
1.509220472440945
 10
24.30003149606299
 20
1.509007874015748
 10
24.29409842519685
 20
1.508374015748031
 10
24.28835826771654
 20
1.507314960629921
 10
24.28281102362205
 20
1.505830708661417
 10
24.27746062992126
 20
1.503925196850394
 10
24.27230708661417
 20
1.50159842519685
 10
24.26734645669291
 20
1.498850393700787
 10
24.26257874015748
 20
1.495677165354331
 10
24.25864173228346
 20
1.492661417322835
 10
24.25487401574803
 20
1.489444881889764
 10
24.25127165354331
 20
1.486023622047244
 10
24.24783858267716
 20
1.482393700787402
 10
24.24457480314961
 20
1.478555118110236
 10
24.24148031496063
 20
1.474511811023622
 10
24.23854724409449
 20
1.470255905511811
 10
24.2357874015748
 20
1.465787401574803
 10
24.2357874015748
 20
1.503787401574803
 10
24.19791338582677
 20
1.503787401574803
 10
24.19791338582677
 20
1.265503937007874
 10
24.2357874015748
 20
1.265503937007874
 10
24.2357874015748
 20
1.387448818897638
 10
24.23666929133858
 20
1.394551181102362
 10
24.23781889763779
 20
1.401377952755906
 10
24.23924015748031
 20
1.407929133858268
 10
24.24093307086614
 20
1.414208661417323
 10
24.24289763779528
 20
1.420220472440945
 10
24.24512992125984
 20
1.42596062992126
 10
24.24763779527559
 20
1.431437007874016
 10
24.25041338582677
 20
1.436645669291339
 10
24.25266929133858
 20
1.440350393700787
 10
24.25511023622047
 20
1.443885826771653
 10
24.25774015748031
 20
1.447251968503937
 10
24.26055511811024
 20
1.450452755905512
 10
24.26355905511811
 20
1.453484251968504
 10
24.26674803149606
 20
1.456342519685039
 10
24.27012204724409
 20
1.459035433070866
 10
24.2736811023622
 20
1.46155905511811
 10
24.27736614173228
 20
1.463838582677165
 10
24.28112204724409
 20
1.465814960629921
 10
24.28494094488189
 20
1.467492125984252
 10
24.28883070866142
 20
1.468866141732283
 10
24.2927874015748
 20
1.469933070866142
 10
24.29680708661417
 20
1.470696850393701
 10
24.30090157480315
 20
1.471157480314961
 10
24.30505905511811
 20
1.471311023622047
 10
24.31291338582677
 20
1.470988188976378
 10
24.3196811023622
 20
1.47001968503937
 10
24.32265748031496
 20
1.469295275590551
 10
24.32536220472441
 20
1.468405511811024
 10
24.32779527559055
 20
1.467358267716535
 10
24.32995669291338
 20
1.466145669291339
 10
24.3354094488189
 20
1.462110236220473
 10
24.34013779527559
 20
1.45738188976378
 10
24.34413779527559
 20
1.45196062992126
 10
24.3474094488189
 20
1.445842519685039
 10
24.34995275590551
 20
1.439035433070866
 10
24.35177165354331
 20
1.431531496062992
 10
24.35286220472441
 20
1.423334645669291
 10
24.35322440944882
 20
1.414444881889764
 10
24.35322440944882
 20
1.265503937007874
 10
24.39110236220472
 20
1.265503937007874
 10
24.39110236220472
 20
1.414444881889764
 10
24.39083464566929
 20
1.42353937007874
 10
24.39705118110236
 20
1.436645669291339
 10
24.39931102362205
 20
1.440350393700787
 10
24.40175196850394
 20
1.443885826771653
 10
24.40438188976378
 20
1.447251968503937
 10
24.4071968503937
 20
1.450452755905512
 10
24.41020078740157
 20
1.453484251968504
 10
24.41338582677165
 20
1.456342519685039
 10
24.41675984251969
 20
1.459035433070866
 10
24.4203188976378
 20
1.46155905511811
 10
24.42400393700787
 20
1.463838582677165
 10
24.42775984251968
 20
1.465814960629921
 10
24.43157874015748
 20
1.467492125984252
 10
24.43546850393701
 20
1.468866141732283
 10
24.43942519685039
 20
1.469933070866142
 10
24.44345275590551
 20
1.470696850393701
 10
24.44754724409449
 20
1.471157480314961
 10
24.4517125984252
 20
1.471311023622047
 10
24.45955905511811
 20
1.470988188976378
 10
24.46632283464567
 20
1.47001968503937
 10
24.46929921259843
 20
1.469295275590551
 10
24.47200787401575
 20
1.468405511811024
 10
24.47444488188976
 20
1.467358267716535
 10
24.47661023622047
 20
1.466145669291339
 10
24.48205905511811
 20
1.462110236220473
 10
24.48678346456693
 20
1.45738188976378
 10
24.49078346456693
 20
1.45196062992126
 10
24.49405511811024
 20
1.445842519685039
 10
24.49660236220473
 20
1.439035433070866
 10
24.49842125984252
 20
1.431531496062992
 10
24.4995157480315
 20
1.423334645669291
 10
24.49987795275591
 20
1.414444881889764
 10
24.49987795275591
 20
1.265503937007874
  0
LWPOLYLINE
  5
82
330
1F
100
AcDbEntity
  8
Layer 1
 62
     7
370
     9
100
AcDbPolyline
 90
      155
 70
     1
 43
0.0
 10
24.91276377952756
 20
1.265503937007874
 10
24.9506220472441
 20
1.265503937007874
 10
24.9506220472441
 20
1.414444881889764
 10
24.95031496062992
 20
1.424330708661417
 10
24.94938976377953
 20
1.433748031496063
 10
24.94784645669291
 20
1.442704724409449
 10
24.94568897637795
 20
1.451196850393701
 10
24.94291732283465
 20
1.459220472440945
 10
24.93952362204724
 20
1.466783464566929
 10
24.93551968503937
 20
1.473877952755906
 10
24.9308937007874
 20
1.480503937007874
 10
24.92830708661417
 20
1.483677165354331
 10
24.92556299212599
 20
1.486685039370079
 10
24.92265748031496
 20
1.489535433070866
 10
24.9195905511811
 20
1.492224409448819
 10
24.91636614173228
 20
1.494751968503937
 10
24.91297637795276
 20
1.497114173228346
 10
24.90942913385827
 20
1.499318897637795
 10
24.90571653543307
 20
1.50136220472441
 10
24.90177559055118
 20
1.503200787401575
 10
24.89753543307087
 20
1.504795275590551
 10
24.89298818897638
 20
1.506145669291339
 10
24.88813385826772
 20
1.507251968503937
 10
24.88297637795275
 20
1.508114173228347
 10
24.8775157480315
 20
1.508728346456693
 10
24.87174803149606
 20
1.50909842519685
 10
24.86567716535433
 20
1.509220472440945
 10
24.85955118110236
 20
1.509007874015748
 10
24.85362204724409
 20
1.508374015748031
 10
24.84788582677165
 20
1.507314960629921
 10
24.84234251968504
 20
1.505830708661417
 10
24.83699606299212
 20
1.503925196850394
 10
24.83184251968504
 20
1.50159842519685
 10
24.82688188976378
 20
1.498850393700787
 10
24.82211811023622
 20
1.495677165354331
 10
24.8179842519685
 20
1.492511811023622
 10
24.81403543307087
 20
1.489110236220472
 10
24.81027165354331
 20
1.48548031496063
 10
24.80669291338583
 20
1.481614173228347
 10
24.80329921259843
 20
1.477523622047244
 10
24.80009448818898
 20
1.473204724409449
 10
24.79707874015748
 20
1.468657480314961
 10
24.79424803149606
 20
1.463889763779528
 10
24.78422440944882
 20
1.480503937007874
 10
24.78164173228346
 20
1.483677165354331
 10
24.77889763779527
 20
1.486685039370079
 10
24.77599606299212
 20
1.489535433070866
 10
24.77292913385827
 20
1.492224409448819
 10
24.76970472440945
 20
1.494751968503937
 10
24.76631496062992
 20
1.497114173228346
 10
24.76277165354331
 20
1.499318897637795
 10
24.75906299212598
 20
1.50136220472441
 10
24.75512598425197
 20
1.503200787401575
 10
24.75088188976378
 20
1.504795275590551
 10
24.74633464566929
 20
1.506145669291339
 10
24.7414842519685
 20
1.507251968503937
 10
24.73632677165354
 20
1.508114173228347
 10
24.73087007874016
 20
1.508728346456693
 10
24.72511023622047
 20
1.50909842519685
 10
24.71904330708661
 20
1.509220472440945
 10
24.71291732283465
 20
1.509007874015748
 10
24.7069842519685
 20
1.508374015748031
 10
24.70124409448819
 20
1.507314960629921
 10
24.6956968503937
 20
1.505830708661417
 10
24.69034645669291
 20
1.503925196850394
 10
24.68519291338583
 20
1.50159842519685
 10
24.68023228346457
 20
1.498850393700787
 10
24.67546456692913
 20
1.495677165354331
 10
24.67152755905512
 20
1.492661417322835
 10
24.66775984251969
 20
1.489444881889764
 10
24.66415748031496
 20
1.486023622047244
 10
24.66072440944882
 20
1.482393700787402
 10
24.65746062992126
 20
1.478555118110236
 10
24.65436614173228
 20
1.474511811023622
 10
24.65143307086614
 20
1.470255905511811
 10
24.64867322834646
 20
1.465787401574803
 10
24.64867322834646
 20
1.503787401574803
 10
24.61079921259843
 20
1.503787401574803
 10
24.61079921259843
 20
1.265503937007874
 10
24.64867322834646
 20
1.265503937007874
 10
24.64867322834646
 20
1.387448818897638
 10
24.64955511811024
 20
1.394551181102362
 10
24.65070472440945
 20
1.401377952755906
 10
24.65212598425197
 20
1.407929133858268
 10
24.65381889763779
 20
1.414208661417323
 10
24.65578346456693
 20
1.420220472440945
 10
24.6580157480315
 20
1.42596062992126
 10
24.66052362204724
 20
1.431437007874016
 10
24.66329921259842
 20
1.436645669291339
 10
24.66555511811024
 20
1.440350393700787
 10
24.66799606299213
 20
1.443885826771653
 10
24.67062598425197
 20
1.447251968503937
 10
24.67344094488189
 20
1.450452755905512
 10
24.67644488188976
 20
1.453484251968504
 10
24.67963385826772
 20
1.456342519685039
 10
24.68300787401575
 20
1.459035433070866
 10
24.68656692913386
 20
1.46155905511811
 10
24.69025196850394
 20
1.463838582677165
 10
24.69400787401575
 20
1.465814960629921
 10
24.69782677165354
 20
1.467492125984252
 10
24.70171653543307
 20
1.468866141732283
 10
24.70567322834646
 20
1.469933070866142
 10
24.7096968503937
 20
1.470696850393701
 10
24.7137874015748
 20
1.471157480314961
 10
24.71794488188976
 20
1.471311023622047
 10
24.72579921259842
 20
1.470988188976378
 10
24.73256692913386
 20
1.47001968503937
 10
24.73554330708662
 20
1.469295275590551
 10
24.73824803149606
 20
1.468405511811024
 10
24.74068110236221
 20
1.467358267716535
 10
24.74284251968504
 20
1.466145669291339
 10
24.74829133858268
 20
1.462110236220473
 10
24.7530157480315
 20
1.45738188976378
 10
24.75701181102362
 20
1.45196062992126
 10
24.76027952755906
 20
1.445842519685039
 10
24.76282283464567
 20
1.439035433070866
 10
24.76464173228347
 20
1.431531496062992
 10
24.76573228346457
 20
1.423334645669291
 10
24.76609448818898
 20
1.414444881889764
 10
24.76609448818898
 20
1.265503937007874
 10
24.80398818897638
 20
1.265503937007874
 10
24.80398818897638
 20
1.414444881889764
 10
24.80372047244094
 20
1.42353937007874
 10
24.80993700787402
 20
1.436645669291339
 10
24.8121968503937
 20
1.440350393700787
 10
24.81463779527559
 20
1.443885826771653
 10
24.81726771653543
 20
1.447251968503937
 10
24.82008267716536
 20
1.450452755905512
 10
24.82308661417323
 20
1.453484251968504
 10
24.82627165354331
 20
1.456342519685039
 10
24.82964566929134
 20
1.459035433070866
 10
24.83320472440945
 20
1.46155905511811
 10
24.83688976377953
 20
1.463838582677165
 10
24.84064566929134
 20
1.465814960629921
 10
24.84446456692913
 20
1.467492125984252
 10
24.84835433070866
 20
1.468866141732283
 10
24.85231102362205
 20
1.469933070866142
 10
24.85633858267716
 20
1.470696850393701
 10
24.86043307086614
 20
1.471157480314961
 10
24.86459842519685
 20
1.471311023622047
 10
24.87244488188976
 20
1.470988188976378
 10
24.87920866141732
 20
1.47001968503937
 10
24.88218503937008
 20
1.469295275590551
 10
24.8848937007874
 20
1.468405511811024
 10
24.88733070866142
 20
1.467358267716535
 10
24.88949606299213
 20
1.466145669291339
 10
24.89494488188976
 20
1.462110236220473
 10
24.89966929133858
 20
1.45738188976378
 10
24.90366929133858
 20
1.45196062992126
 10
24.90694094488189
 20
1.445842519685039
 10
24.90948818897638
 20
1.439035433070866
 10
24.91130708661417
 20
1.431531496062992
 10
24.91240157480315
 20
1.423334645669291
 10
24.91276377952756
 20
1.414444881889764
 10
24.91276377952756
 20
1.265503937007874
  0
ENDSEC
  0
SECTION
  2
OBJECTS
  0
DICTIONARY
  5
C
330
0
100
AcDbDictionary
281
     1
  3
ACAD_DETAILVIEWSTYLE
350
8A
  3
ACAD_GROUP
350
D
  3
ACAD_LAYOUT
350
1A
  3
ACAD_MATERIAL
350
43
  3
ACAD_MLEADERSTYLE
350
5B
  3
ACAD_MLINESTYLE
350
17
  3
ACAD_PLOTSETTINGS
350
19
  3
ACAD_PLOTSTYLENAME
350
E
  3
ACAD_SCALELIST
350
47
  3
ACAD_SECTIONVIEWSTYLE
350
8B
  3
ACAD_TABLESTYLE
350
59
  3
ACAD_VISUALSTYLE
350
2A
  3
ACDB_RECOMPOSE_DATA
350
87
  3
AcDbVariableDictionary
350
83
  0
SUN
  5
5D
330
29
100
AcDbSun
 90
        1
290
     0
 63
     7
421
 16777215
 40
1.0
291
     1
 91
  2455826
 92
 54000000
292
     0
 70
     2
 71
   256
280
     1
  0
DICTIONARY
  5
8A
102
{ACAD_REACTORS
330
C
102
}
330
C
100
AcDbDictionary
281
     1
  0
DICTIONARY
  5
D
102
{ACAD_REACTORS
330
C
102
}
330
C
100
AcDbDictionary
281
     1
  0
DICTIONARY
  5
1A
102
{ACAD_REACTORS
330
C
102
}
330
C
100
AcDbDictionary
281
     1
  3
Layout1
350
1E
  3
Layout2
350
26
  3
Model
350
22
  0
DICTIONARY
  5
43
102
{ACAD_REACTORS
330
C
102
}
330
C
100
AcDbDictionary
281
     1
  3
ByBlock
350
45
  3
ByLayer
350
44
  3
Global
350
46
  0
DICTIONARY
  5
5B
102
{ACAD_REACTORS
330
C
102
}
330
C
100
AcDbDictionary
281
     1
  3
Standard
350
5C
  0
DICTIONARY
  5
17
102
{ACAD_REACTORS
330
C
102
}
330
C
100
AcDbDictionary
281
     1
  3
Standard
350
18
  0
DICTIONARY
  5
19
102
{ACAD_REACTORS
330
C
102
}
330
C
100
AcDbDictionary
281
     1
  0
ACDBDICTIONARYWDFLT
  5
E
102
{ACAD_REACTORS
330
C
102
}
330
C
100
AcDbDictionary
281
     1
  3
Normal
350
F
100
AcDbDictionaryWithDefault
340
F
  0
DICTIONARY
  5
47
102
{ACAD_REACTORS
330
C
102
}
330
C
100
AcDbDictionary
281
     1
  3
A0
350
48
  3
A1
350
49
  3
A2
350
4A
  3
A3
350
4B
  3
A4
350
4C
  3
A5
350
4D
  3
A6
350
4E
  3
A7
350
4F
  3
A8
350
50
  3
A9
350
51
  3
B1
350
52
  3
B2
350
53
  3
B3
350
54
  3
B4
350
55
  3
B5
350
56
  3
B6
350
57
  3
B7
350
58
  0
DICTIONARY
  5
8B
102
{ACAD_REACTORS
330
C
102
}
330
C
100
AcDbDictionary
281
     1
  0
DICTIONARY
  5
59
102
{ACAD_REACTORS
330
C
102
}
330
C
100
AcDbDictionary
281
     1
  3
Standard
350
5A
  0
DICTIONARY
  5
2A
102
{ACAD_REACTORS
330
C
102
}
330
C
100
AcDbDictionary
281
     1
  3
2dWireframe
350
2F
  3
Basic
350
32
  3
Brighten
350
36
  3
ColorChange
350
3A
  3
Conceptual
350
34
  3
Dim
350
35
  3
EdgeColorOff
350
3D
  3
Facepattern
350
39
  3
Flat
350
2B
  3
FlatWithEdges
350
2C
  3
Gouraud
350
2D
  3
GouraudWithEdges
350
2E
  3
Hidden
350
31
  3
JitterOff
350
3B
  3
Linepattern
350
38
  3
OverhangOff
350
3C
  3
Realistic
350
33
  3
Shaded
350
42
  3
Shaded with edges
350
41
  3
Shades of Gray
350
3E
  3
Sketchy
350
3F
  3
Thicken
350
37
  3
Wireframe
350
30
  3
X-Ray
350
40
  0
XRECORD
  5
87
102
{ACAD_REACTORS
330
C
102
}
330
C
100
AcDbXrecord
280
     1
 90
        1
330
5A
  0
DICTIONARY
  5
83
102
{ACAD_REACTORS
330
C
102
}
330
C
100
AcDbDictionary
281
     1
  3
CANNOSCALE
350
84
  3
CMLEADERSTYLE
350
89
  3
CTABLESTYLE
350
88
  0
LAYOUT
  5
1E
102
{ACAD_REACTORS
330
1A
102
}
330
1A
100
AcDbPlotSettings
  1

  2
none_device
  4

  6

 40
0.0
 41
0.0
 42
0.0
 43
0.0
 44
0.0
 45
0.0
 46
0.0
 47
0.0
 48
0.0
 49
0.0
140
0.0
141
0.0
142
1.0
143
1.0
 70
   688
 72
     0
 73
     0
 74
     5
  7

 75
    16
 76
     0
 77
     2
 78
   300
147
1.0
148
0.0
149
0.0
100
AcDbLayout
  1
Layout1
 70
     1
 71
     1
 10
0.0
 20
0.0
 11
12.0
 21
9.0
 12
0.0
 22
0.0
 32
0.0
 14
1.000000000000000E+20
 24
1.000000000000000E+20
 34
1.000000000000000E+20
 15
-1.000000000000000E+20
 25
-1.000000000000000E+20
 35
-1.000000000000000E+20
146
0.0
 13
0.0
 23
0.0
 33
0.0
 16
1.0
 26
0.0
 36
0.0
 17
0.0
 27
1.0
 37
0.0
 76
     0
330
1B
  0
LAYOUT
  5
26
102
{ACAD_REACTORS
330
1A
102
}
330
1A
100
AcDbPlotSettings
  1

  2
none_device
  4

  6

 40
0.0
 41
0.0
 42
0.0
 43
0.0
 44
0.0
 45
0.0
 46
0.0
 47
0.0
 48
0.0
 49
0.0
140
0.0
141
0.0
142
1.0
143
1.0
 70
   688
 72
     0
 73
     0
 74
     5
  7

 75
    16
 76
     0
 77
     2
 78
   300
147
1.0
148
0.0
149
0.0
100
AcDbLayout
  1
Layout2
 70
     1
 71
     2
 10
0.0
 20
0.0
 11
0.0
 21
0.0
 12
0.0
 22
0.0
 32
0.0
 14
0.0
 24
0.0
 34
0.0
 15
0.0
 25
0.0
 35
0.0
146
0.0
 13
0.0
 23
0.0
 33
0.0
 16
1.0
 26
0.0
 36
0.0
 17
0.0
 27
1.0
 37
0.0
 76
     0
330
23
  0
LAYOUT
  5
22
102
{ACAD_REACTORS
330
1A
102
}
330
1A
100
AcDbPlotSettings
  1

  2
none_device
  4
Letter_(8.50_x_11.00_Inches)
  6

 40
6.35
 41
6.35
 42
6.35000508
 43
6.35000508
 44
215.9
 45
279.4
 46
0.0
 47
0.0
 48
0.0
 49
0.0
140
0.0
141
0.0
142
1.0
143
1.0
 70
  1712
 72
     0
 73
     0
 74
     0
  7

 75
     0
 76
     0
 77
     2
 78
   300
147
1.0
148
0.0
149
0.0
100
AcDbLayout
  1
Model
 70
     1
 71
     0
 10
0.0
 20
0.0
 11
12.0
 21
9.0
 12
0.0
 22
0.0
 32
0.0
 14
16.14447637795276
 24
0.4010078740157481
 34
0.0
 15
26.16503149606299
 25
5.718366141732283
 35
0.0
146
0.0
 13
0.0
 23
0.0
 33
0.0
 16
1.0
 26
0.0
 36
0.0
 17
0.0
 27
1.0
 37
0.0
 76
     0
330
1F
331
29
  0
MATERIAL
  5
45
102
{ACAD_REACTORS
330
43
102
}
330
43
100
AcDbMaterial
  1
ByBlock
 72
     1
 94
      127
  0
MATERIAL
  5
44
102
{ACAD_REACTORS
330
43
102
}
330
43
100
AcDbMaterial
  1
ByLayer
 72
     1
 94
      127
  0
MATERIAL
  5
46
102
{ACAD_REACTORS
330
43
102
}
330
43
100
AcDbMaterial
  1
Global
 72
     1
 94
      127
  0
MLEADERSTYLE
  5
5C
102
{ACAD_REACTORS
330
5B
102
}
330
5B
100
AcDbMLeaderStyle
179
     2
170
     2
171
     1
172
     0
 90
        2
 40
0.0
 41
0.0
173
     1
 91
-1056964608
340
14
 92
       -2
290
     1
 42
0.09
291
     1
 43
0.36
  3
Standard
341
0
 44
0.18
300

342
11
174
     1
178
     6
175
     1
176
     0
 93
-1056964608
 45
0.18
292
     0
297
     0
 46
0.18
343
0
 94
-1056964608
 47
1.0
 49
1.0
140
1.0
293
     1
141
0.0
294
     1
177
     0
142
1.0
295
     0
296
     0
143
0.125
271
     0
272
     9
273
     9
298
     0
  0
MLINESTYLE
  5
18
102
{ACAD_REACTORS
330
17
102
}
330
17
100
AcDbMlineStyle
  2
Standard
 70
     0
  3

 62
   256
 51
90.0
 52
90.0
 71
     2
 49
0.5
 62
   256
  6
BYLAYER
 49
-0.5
 62
   256
  6
BYLAYER
  0
ACDBPLACEHOLDER
  5
F
102
{ACAD_REACTORS
330
E
102
}
330
E
  0
SCALE
  5
48
102
{ACAD_REACTORS
330
47
102
}
330
47
100
AcDbScale
 70
     0
300
1:1
140
1.0
141
1.0
290
     1
  0
SCALE
  5
49
102
{ACAD_REACTORS
330
47
102
}
330
47
100
AcDbScale
 70
     0
300
1/128" = 1'-0"
140
0.0078125
141
12.0
290
     0
  0
SCALE
  5
4A
102
{ACAD_REACTORS
330
47
102
}
330
47
100
AcDbScale
 70
     0
300
1/64" = 1'-0"
140
0.015625
141
12.0
290
     0
  0
SCALE
  5
4B
102
{ACAD_REACTORS
330
47
102
}
330
47
100
AcDbScale
 70
     0
300
1/32" = 1'-0"
140
0.03125
141
12.0
290
     0
  0
SCALE
  5
4C
102
{ACAD_REACTORS
330
47
102
}
330
47
100
AcDbScale
 70
     0
300
1/16" = 1'-0"
140
0.0625
141
12.0
290
     0
  0
SCALE
  5
4D
102
{ACAD_REACTORS
330
47
102
}
330
47
100
AcDbScale
 70
     0
300
3/32" = 1'-0"
140
0.09375
141
12.0
290
     0
  0
SCALE
  5
4E
102
{ACAD_REACTORS
330
47
102
}
330
47
100
AcDbScale
 70
     0
300
1/8" = 1'-0"
140
0.125
141
12.0
290
     0
  0
SCALE
  5
4F
102
{ACAD_REACTORS
330
47
102
}
330
47
100
AcDbScale
 70
     0
300
3/16" = 1'-0"
140
0.1875
141
12.0
290
     0
  0
SCALE
  5
50
102
{ACAD_REACTORS
330
47
102
}
330
47
100
AcDbScale
 70
     0
300
1/4" = 1'-0"
140
0.25
141
12.0
290
     0
  0
SCALE
  5
51
102
{ACAD_REACTORS
330
47
102
}
330
47
100
AcDbScale
 70
     0
300
3/8" = 1'-0"
140
0.375
141
12.0
290
     0
  0
SCALE
  5
52
102
{ACAD_REACTORS
330
47
102
}
330
47
100
AcDbScale
 70
     0
300
1/2" = 1'-0"
140
0.5
141
12.0
290
     0
  0
SCALE
  5
53
102
{ACAD_REACTORS
330
47
102
}
330
47
100
AcDbScale
 70
     0
300
3/4" = 1'-0"
140
0.75
141
12.0
290
     0
  0
SCALE
  5
54
102
{ACAD_REACTORS
330
47
102
}
330
47
100
AcDbScale
 70
     0
300
1" = 1'-0"
140
1.0
141
12.0
290
     0
  0
SCALE
  5
55
102
{ACAD_REACTORS
330
47
102
}
330
47
100
AcDbScale
 70
     0
300
1-1/2" = 1'-0"
140
1.5
141
12.0
290
     0
  0
SCALE
  5
56
102
{ACAD_REACTORS
330
47
102
}
330
47
100
AcDbScale
 70
     0
300
3" = 1'-0"
140
3.0
141
12.0
290
     0
  0
SCALE
  5
57
102
{ACAD_REACTORS
330
47
102
}
330
47
100
AcDbScale
 70
     0
300
6" = 1'-0"
140
6.0
141
12.0
290
     0
  0
SCALE
  5
58
102
{ACAD_REACTORS
330
47
102
}
330
47
100
AcDbScale
 70
     0
300
1'-0" = 1'-0"
140
12.0
141
12.0
290
     0
  0
TABLESTYLE
  5
5A
102
{ACAD_REACTORS
330
59
102
}
102
{ACAD_XDICTIONARY
360
85
102
}
330
59
100
AcDbTableStyle
  3
Standard
 70
     0
 71
     0
 40
0.06
 41
0.06
280
     0
281
     0
  7
Standard
140
0.18
170
     2
 62
     0
 63
   257
283
     0
 90
        4
 91
        0
  1

274
    -2
284
     1
 64
     0
275
    -2
285
     1
 65
     0
276
    -2
286
     1
 66
     0
277
    -2
287
     1
 67
     0
278
    -2
288
     1
 68
     0
279
    -2
289
     1
 69
     0
  7
Standard
140
0.25
170
     5
 62
     0
 63
   257
283
     0
 90
        4
 91
        0
  1

274
    -2
284
     1
 64
     0
275
    -2
285
     1
 65
     0
276
    -2
286
     1
 66
     0
277
    -2
287
     1
 67
     0
278
    -2
288
     1
 68
     0
279
    -2
289
     1
 69
     0
  7
Standard
140
0.18
170
     5
 62
     0
 63
   257
283
     0
 90
        4
 91
        0
  1

274
    -2
284
     1
 64
     0
275
    -2
285
     1
 65
     0
276
    -2
286
     1
 66
     0
277
    -2
287
     1
 67
     0
278
    -2
288
     1
 68
     0
279
    -2
289
     1
 69
     0
  0
VISUALSTYLE
  5
2F
102
{ACAD_REACTORS
330
2A
102
}
330
2A
100
AcDbVisualStyle
  2
2dWireframe
 70
     4
177
     3
291
     0
 70
    58
 90
        0
176
     1
 90
        2
176
     1
 90
        0
176
     1
 90
        0
176
     1
 40
0.6
176
     1
 40
30.0
176
     1
 62
     7
420
 16777215
176
     1
 90
        1
176
     1
 90
        4
176
     1
 62
     7
176
     1
 62
   257
176
     1
 90
        1
176
     1
 90
        1
176
     1
 40
1.0
176
     1
 90
        0
176
     1
 62
   257
176
     1
 40
1.0
176
     1
 90
        1
176
     1
 90
        6
176
     1
 90
        2
176
     1
 62
     7
176
     1
 90
        5
176
     1
 90
        0
176
     1
 90
        0
176
     1
290
     0
176
     1
 90
        1
176
     1
 40
0.0
176
     1
 90
        0
176
     1
290
     1
176
     1
290
     1
176
     1
290
     0
176
     1
290
     0
176
     1
290
     0
176
     1
290
     0
176
     1
290
     0
176
     1
290
     0
176
     1
290
     0
176
     1
 90
       50
176
     1
 40
0.0
176
     1
 40
1.0
176
     1
 90
        0
176
     1
 62
    18
420
        0
176
     1
 90
       50
176
     1
 90
        3
176
     1
 62
     5
420
      255
176
     1
290
     0
176
     1
 90
       50
176
     1
 90
       50
176
     1
 90
       50
176
     1
290
     0
176
     1
 90
       50
176
     1
 62
   256
176
     0
 40
1.0
176
     0
 90
        2
176
     1
  1
strokes_ogs.tif
176
     1
290
     0
176
     1
 40
1.0
176
     1
 40
1.0
176
     1
  0
VISUALSTYLE
  5
32
102
{ACAD_REACTORS
330
2A
102
}
330
2A
100
AcDbVisualStyle
  2
Basic
 70
     7
177
     3
291
     1
 70
    58
 90
        1
176
     1
 90
        0
176
     1
 90
        1
176
     1
 90
        0
176
     1
 40
0.6
176
     1
 40
30.0
176
     1
 62
     7
420
 16777215
176
     1
 90
        0
176
     1
 90
        4
176
     1
 62
     7
176
     1
 62
   257
176
     1
 90
        1
176
     1
 90
        1
176
     1
 40
1.0
176
     1
 90
        8
176
     1
 62
     7
176
     1
 40
1.0
176
     1
 90
        1
176
     1
 90
        6
176
     1
 90
        2
176
     1
 62
     7
176
     1
 90
        5
176
     1
 90
        0
176
     1
 90
        0
176
     1
290
     0
176
     1
 90
        1
176
     1
 40
0.0
176
     1
 90
        0
176
     1
290
     0
176
     1
290
     1
176
     1
290
     1
176
     1
290
     0
176
     1
290
     0
176
     1
290
     0
176
     1
290
     0
176
     1
290
     0
176
     1
290
     0
176
     1
 90
       50
176
     1
 40
0.0
176
     1
 40
1.0
176
     1
 90
        0
176
     1
 62
    18
420
        0
176
     1
 90
       50
176
     1
 90
        3
176
     1
 62
     5
420
      255
176
     1
290
     0
176
     1
 90
       50
176
     1
 90
       50
176
     1
 90
       50
176
     1
290
     0
176
     1
 90
       50
176
     1
 62
   256
176
     0
 40
1.0
176
     0
 90
        2
176
     1
  1
strokes_ogs.tif
176
     1
290
     0
176
     1
 40
1.0
176
     1
 40
1.0
176
     1
  0
VISUALSTYLE
  5
36
102
{ACAD_REACTORS
330
2A
102
}
330
2A
100
AcDbVisualStyle
  2
Brighten
 70
    12
177
     3
291
     1
 70
    58
 90
        2
176
     1
 90
        2
176
     1
 90
        0
176
     1
 90
        0
176
     1
 40
0.6
176
     1
 40
30.0
176
     1
 62
     7
420
 16777215
176
     1
 90
        1
176
     1
 90
        4
176
     1
 62
     7
176
     1
 62
   257
176
     1
 90
        1
176
     1
 90
        1
176
     1
 40
1.0
176
     1
 90
        8
176
     1
 62
     7
176
     1
 40
1.0
176
     1
 90
        1
176
     1
 90
        6
176
     1
 90
        2
176
     1
 62
     7
176
     1
 90
        5
176
     1
 90
        0
176
     1
 90
        0
176
     1
290
     0
176
     1
 90
        1
176
     1
 40
50.0
176
     1
 90
        0
176
     1
290
     0
176
     1
290
     1
176
     1
290
     1
176
     1
290
     0
176
     1
290
     0
176
     1
290
     0
176
     1
290
     0
176
     1
290
     0
176
     1
290
     0
176
     1
 90
       50
176
     1
 40
0.0
176
     1
 40
1.0
176
     1
 90
        0
176
     1
 62
    18
420
        0
176
     1
 90
       50
176
     1
 90
        3
176
     1
 62
     5
420
      255
176
     1
290
     0
176
     1
 90
       50
176
     1
 90
       50
176
     1
 90
       50
176
     1
290
     0
176
     1
 90
       50
176
     1
 62
   256
176
     0
 40
1.0
176
     0
 90
        2
176
     1
  1
strokes_ogs.tif
176
     1
290
     0
176
     1
 40
1.0
176
     1
 40
1.0
176
     1
  0
VISUALSTYLE
  5
3A
102
{ACAD_REACTORS
330
2A
102
}
330
2A
100
AcDbVisualStyle
  2
ColorChange
 70
    16
177
     3
291
     1
 70
    58
 90
        2
176
     1
 90
        2
176
     1
 90
        3
176
     1
 90
        0
176
     1
 40
0.6
176
     1
 40
30.0
176
     1
 62
     8
420
  8421504
176
     1
 90
        1
176
     1
 90
        4
176
     1
 62
     7
176
     1
 62
   257
176
     1
 90
        1
176
     1
 90
        1
176
     1
 40
1.0
176
     1
 90
        8
176
     1
 62
     8
420
  8421504
176
     1
 40
1.0
176
     1
 90
        1
176
     1
 90
        6
176
     1
 90
        2
176
     1
 62
     7
176
     1
 90
        5
176
     1
 90
        0
176
     1
 90
        0
176
     1
290
     0
176
     1
 90
        1
176
     1
 40
0.0
176
     1
 90
        0
176
     1
290
     0
176
     1
290
     1
176
     1
290
     1
176
     1
290
     0
176
     1
290
     0
176
     1
290
     0
176
     1
290
     0
176
     1
290
     0
176
     1
290
     0
176
     1
 90
       50
176
     1
 40
0.0
176
     1
 40
1.0
176
     1
 90
        0
176
     1
 62
    18
420
        0
176
     1
 90
       50
176
     1
 90
        3
176
     1
 62
     5
420
      255
176
     1
290
     0
176
     1
 90
       50
176
     1
 90
       50
176
     1
 90
       50
176
     1
290
     0
176
     1
 90
       50
176
     1
 62
   256
176
     0
 40
1.0
176
     0
 90
        2
176
     1
  1
strokes_ogs.tif
176
     1
290
     0
176
     1
 40
1.0
176
     1
 40
1.0
176
     1
  0
VISUALSTYLE
  5
34
102
{ACAD_REACTORS
330
2A
102
}
330
2A
100
AcDbVisualStyle
  2
Conceptual
 70
     9
177
     3
291
     0
 70
    58
 90
        3
176
     1
 90
        2
176
     1
 90
        0
176
     1
 90
        0
176
     1
 40
0.6
176
     1
 40
30.0
176
     1
 62
     7
420
 16777215
176
     1
 90
        2
176
     1
 90
        2
176
     1
 62
     7
176
     1
 62
   257
176
     1
 90
        1
176
     1
 90
        1
176
     1
 40
179.0
176
     1
 90
        8
176
     1
 62
     7
176
     1
 40
1.0
176
     1
 90
        1
176
     1
 90
        6
176
     1
 90
        2
176
     1
 62
     7
176
     1
 90
        3
176
     1
 90
        0
176
     1
 90
        0
176
     1
290
     0
176
     1
 90
        1
176
     1
 40
0.0
176
     1
 90
        0
176
     1
290
     0
176
     1
290
     1
176
     1
290
     1
176
     1
290
     0
176
     1
290
     0
176
     1
290
     0
176
     1
290
     0
176
     1
290
     0
176
     1
290
     0
176
     1
 90
       50
176
     1
 40
0.0
176
     1
 40
1.0
176
     1
 90
        0
176
     1
 62
    18
420
        0
176
     1
 90
       50
176
     1
 90
        3
176
     1
 62
     5
420
      255
176
     1
290
     0
176
     1
 90
       50
176
     1
 90
       50
176
     1
 90
       50
176
     1
290
     0
176
     1
 90
       50
176
     1
 62
   256
176
     0
 40
1.0
176
     0
 90
        2
176
     1
  1
strokes_ogs.tif
176
     1
290
     0
176
     1
 40
1.0
176
     1
 40
1.0
176
     1
  0
VISUALSTYLE
  5
35
102
{ACAD_REACTORS
330
2A
102
}
330
2A
100
AcDbVisualStyle
  2
Dim
 70
    11
177
     3
291
     1
 70
    58
 90
        2
176
     1
 90
        2
176
     1
 90
        0
176
     1
 90
        0
176
     1
 40
0.6
176
     1
 40
30.0
176
     1
 62
     7
420
 16777215
176
     1
 90
        1
176
     1
 90
        4
176
     1
 62
     7
176
     1
 62
   257
176
     1
 90
        1
176
     1
 90
        1
176
     1
 40
1.0
176
     1
 90
        8
176
     1
 62
     7
176
     1
 40
1.0
176
     1
 90
        1
176
     1
 90
        6
176
     1
 90
        2
176
     1
 62
     7
176
     1
 90
        5
176
     1
 90
        0
176
     1
 90
        0
176
     1
290
     0
176
     1
 90
        1
176
     1
 40
-50.0
176
     1
 90
        0
176
     1
290
     0
176
     1
290
     1
176
     1
290
     1
176
     1
290
     0
176
     1
290
     0
176
     1
290
     0
176
     1
290
     0
176
     1
290
     0
176
     1
290
     0
176
     1
 90
       50
176
     1
 40
0.0
176
     1
 40
1.0
176
     1
 90
        0
176
     1
 62
    18
420
        0
176
     1
 90
       50
176
     1
 90
        3
176
     1
 62
     5
420
      255
176
     1
290
     0
176
     1
 90
       50
176
     1
 90
       50
176
     1
 90
       50
176
     1
290
     0
176
     1
 90
       50
176
     1
 62
   256
176
     0
 40
1.0
176
     0
 90
        2
176
     1
  1
strokes_ogs.tif
176
     1
290
     0
176
     1
 40
1.0
176
     1
 40
1.0
176
     1
  0
VISUALSTYLE
  5
3D
102
{ACAD_REACTORS
330
2A
102
}
330
2A
100
AcDbVisualStyle
  2
EdgeColorOff
 70
    22
177
     3
291
     1
 70
    58
 90
        2
176
     0
 90
        2
176
     0
 90
        0
176
     0
 90
        0
176
     0
 40
0.6
176
     0
 40
30.0
176
     0
 62
     7
420
 16777215
176
     0
 90
        1
176
     0
 90
        4
176
     0
 62
     7
176
     0
 62
   257
176
     0
 90
        1
176
     0
 90
        1
176
     0
 40
1.0
176
     0
 90
        8
176
     2
 62
     7
176
     0
 40
1.0
176
     0
 90
        1
176
     0
 90
        6
176
     0
 90
        2
176
     0
 62
     7
176
     0
 90
        5
176
     0
 90
        0
176
     0
 90
        0
176
     0
290
     0
176
     0
 90
        1
176
     0
 40
0.0
176
     0
 90
        0
176
     0
290
     0
176
     0
290
     1
176
     0
290
     1
176
     0
290
     0
176
     0
290
     0
176
     0
290
     0
176
     0
290
     0
176
     0
290
     0
176
     0
290
     0
176
     0
 90
       50
176
     0
 40
0.0
176
     0
 40
1.0
176
     0
 90
        0
176
     0
 62
    18
420
        0
176
     0
 90
       50
176
     0
 90
        3
176
     0
 62
     5
420
      255
176
     0
290
     0
176
     0
 90
       50
176
     0
 90
       50
176
     0
 90
       50
176
     0
290
     0
176
     0
 90
       50
176
     0
 62
   256
176
     0
 40
1.0
176
     0
 90
        2
176
     0
  1
strokes_ogs.tif
176
     0
290
     0
176
     0
 40
1.0
176
     0
 40
1.0
176
     0
  0
VISUALSTYLE
  5
39
102
{ACAD_REACTORS
330
2A
102
}
330
2A
100
AcDbVisualStyle
  2
Facepattern
 70
    15
177
     3
291
     1
 70
    58
 90
        2
176
     1
 90
        2
176
     1
 90
        0
176
     1
 90
        0
176
     1
 40
0.6
176
     1
 40
30.0
176
     1
 62
     7
420
 16777215
176
     1
 90
        1
176
     1
 90
        4
176
     1
 62
     7
176
     1
 62
   257
176
     1
 90
        1
176
     1
 90
        1
176
     1
 40
1.0
176
     1
 90
        8
176
     1
 62
     7
176
     1
 40
1.0
176
     1
 90
        1
176
     1
 90
        6
176
     1
 90
        2
176
     1
 62
     7
176
     1
 90
        5
176
     1
 90
        0
176
     1
 90
        0
176
     1
290
     0
176
     1
 90
        1
176
     1
 40
0.0
176
     1
 90
        0
176
     1
290
     0
176
     1
290
     1
176
     1
290
     1
176
     1
290
     0
176
     1
290
     0
176
     1
290
     0
176
     1
290
     0
176
     1
290
     0
176
     1
290
     0
176
     1
 90
       50
176
     1
 40
0.0
176
     1
 40
1.0
176
     1
 90
        0
176
     1
 62
    18
420
        0
176
     1
 90
       50
176
     1
 90
        3
176
     1
 62
     5
420
      255
176
     1
290
     0
176
     1
 90
       50
176
     1
 90
       50
176
     1
 90
       50
176
     1
290
     0
176
     1
 90
       50
176
     1
 62
   256
176
     0
 40
1.0
176
     0
 90
        2
176
     1
  1
strokes_ogs.tif
176
     1
290
     0
176
     1
 40
1.0
176
     1
 40
1.0
176
     1
  0
VISUALSTYLE
  5
2B
102
{ACAD_REACTORS
330
2A
102
}
330
2A
100
AcDbVisualStyle
  2
Flat
 70
     0
177
     3
291
     1
 70
    58
 90
        2
176
     1
 90
        1
176
     1
 90
        1
176
     1
 90
        2
176
     1
 40
0.6
176
     1
 40
30.0
176
     1
 62
     7
420
 16777215
176
     1
 90
        0
176
     1
 90
        0
176
     1
 62
     7
176
     1
 62
   257
176
     1
 90
        1
176
     1
 90
        1
176
     1
 40
1.0
176
     1
 90
        8
176
     1
 62
     7
176
     1
 40
1.0
176
     1
 90
        1
176
     1
 90
        6
176
     1
 90
        2
176
     1
 62
     7
176
     1
 90
        5
176
     1
 90
        0
176
     1
 90
        0
176
     1
290
     0
176
     1
 90
       13
176
     1
 40
0.0
176
     1
 90
        0
176
     1
290
     0
176
     1
290
     1
176
     1
290
     1
176
     1
290
     0
176
     1
290
     0
176
     1
290
     0
176
     1
290
     0
176
     1
290
     0
176
     1
290
     0
176
     1
 90
       50
176
     1
 40
0.0
176
     1
 40
1.0
176
     1
 90
        0
176
     1
 62
    18
420
        0
176
     1
 90
       50
176
     1
 90
        3
176
     1
 62
     5
420
      255
176
     1
290
     0
176
     1
 90
       50
176
     1
 90
       50
176
     1
 90
       50
176
     1
290
     0
176
     1
 90
       50
176
     1
 62
   256
176
     0
 40
1.0
176
     0
 90
        2
176
     1
  1
strokes_ogs.tif
176
     1
290
     0
176
     1
 40
1.0
176
     1
 40
1.0
176
     1
  0
VISUALSTYLE
  5
2C
102
{ACAD_REACTORS
330
2A
102
}
330
2A
100
AcDbVisualStyle
  2
FlatWithEdges
 70
     1
177
     3
291
     1
 70
    58
 90
        2
176
     1
 90
        1
176
     1
 90
        1
176
     1
 90
        2
176
     1
 40
0.6
176
     1
 40
30.0
176
     1
 62
     7
420
 16777215
176
     1
 90
        1
176
     1
 90
        0
176
     1
 62
     7
176
     1
 62
   257
176
     1
 90
        1
176
     1
 90
        1
176
     1
 40
1.0
176
     1
 90
        0
176
     1
 62
   257
176
     1
 40
1.0
176
     1
 90
        1
176
     1
 90
        6
176
     1
 90
        2
176
     1
 62
     7
176
     1
 90
        5
176
     1
 90
        0
176
     1
 90
        0
176
     1
290
     0
176
     1
 90
       13
176
     1
 40
0.0
176
     1
 90
        0
176
     1
290
     0
176
     1
290
     1
176
     1
290
     1
176
     1
290
     0
176
     1
290
     0
176
     1
290
     0
176
     1
290
     0
176
     1
290
     0
176
     1
290
     0
176
     1
 90
       50
176
     1
 40
0.0
176
     1
 40
1.0
176
     1
 90
        0
176
     1
 62
    18
420
        0
176
     1
 90
       50
176
     1
 90
        3
176
     1
 62
     5
420
      255
176
     1
290
     0
176
     1
 90
       50
176
     1
 90
       50
176
     1
 90
       50
176
     1
290
     0
176
     1
 90
       50
176
     1
 62
   256
176
     0
 40
1.0
176
     0
 90
        2
176
     1
  1
strokes_ogs.tif
176
     1
290
     0
176
     1
 40
1.0
176
     1
 40
1.0
176
     1
  0
VISUALSTYLE
  5
2D
102
{ACAD_REACTORS
330
2A
102
}
330
2A
100
AcDbVisualStyle
  2
Gouraud
 70
     2
177
     3
291
     1
 70
    58
 90
        2
176
     1
 90
        2
176
     1
 90
        1
176
     1
 90
        2
176
     1
 40
0.6
176
     1
 40
30.0
176
     1
 62
     7
420
 16777215
176
     1
 90
        0
176
     1
 90
        0
176
     1
 62
     7
176
     1
 62
   257
176
     1
 90
        1
176
     1
 90
        1
176
     1
 40
1.0
176
     1
 90
        0
176
     1
 62
     7
176
     1
 40
1.0
176
     1
 90
        1
176
     1
 90
        6
176
     1
 90
        2
176
     1
 62
     7
176
     1
 90
        5
176
     1
 90
        0
176
     1
 90
        0
176
     1
290
     0
176
     1
 90
       13
176
     1
 40
0.0
176
     1
 90
        0
176
     1
290
     0
176
     1
290
     1
176
     1
290
     1
176
     1
290
     0
176
     1
290
     0
176
     1
290
     0
176
     1
290
     0
176
     1
290
     0
176
     1
290
     0
176
     1
 90
       50
176
     1
 40
0.0
176
     1
 40
1.0
176
     1
 90
        0
176
     1
 62
    18
420
        0
176
     1
 90
       50
176
     1
 90
        3
176
     1
 62
     5
420
      255
176
     1
290
     0
176
     1
 90
       50
176
     1
 90
       50
176
     1
 90
       50
176
     1
290
     0
176
     1
 90
       50
176
     1
 62
   256
176
     0
 40
1.0
176
     0
 90
        2
176
     1
  1
strokes_ogs.tif
176
     1
290
     0
176
     1
 40
1.0
176
     1
 40
1.0
176
     1
  0
VISUALSTYLE
  5
2E
102
{ACAD_REACTORS
330
2A
102
}
330
2A
100
AcDbVisualStyle
  2
GouraudWithEdges
 70
     3
177
     3
291
     1
 70
    58
 90
        2
176
     1
 90
        2
176
     1
 90
        1
176
     1
 90
        2
176
     1
 40
0.6
176
     1
 40
30.0
176
     1
 62
     7
420
 16777215
176
     1
 90
        1
176
     1
 90
        0
176
     1
 62
     7
176
     1
 62
   257
176
     1
 90
        1
176
     1
 90
        1
176
     1
 40
1.0
176
     1
 90
        0
176
     1
 62
   257
176
     1
 40
1.0
176
     1
 90
        1
176
     1
 90
        6
176
     1
 90
        2
176
     1
 62
     7
176
     1
 90
        5
176
     1
 90
        0
176
     1
 90
        0
176
     1
290
     0
176
     1
 90
       13
176
     1
 40
0.0
176
     1
 90
        0
176
     1
290
     0
176
     1
290
     1
176
     1
290
     1
176
     1
290
     0
176
     1
290
     0
176
     1
290
     0
176
     1
290
     0
176
     1
290
     0
176
     1
290
     0
176
     1
 90
       50
176
     1
 40
0.0
176
     1
 40
1.0
176
     1
 90
        0
176
     1
 62
    18
420
        0
176
     1
 90
       50
176
     1
 90
        3
176
     1
 62
     5
420
      255
176
     1
290
     0
176
     1
 90
       50
176
     1
 90
       50
176
     1
 90
       50
176
     1
290
     0
176
     1
 90
       50
176
     1
 62
   256
176
     0
 40
1.0
176
     0
 90
        2
176
     1
  1
strokes_ogs.tif
176
     1
290
     0
176
     1
 40
1.0
176
     1
 40
1.0
176
     1
  0
VISUALSTYLE
  5
31
102
{ACAD_REACTORS
330
2A
102
}
330
2A
100
AcDbVisualStyle
  2
Hidden
 70
     6
177
     3
291
     0
 70
    58
 90
        1
176
     1
 90
        2
176
     1
 90
        2
176
     1
 90
        0
176
     1
 40
0.6
176
     1
 40
30.0
176
     1
 62
     7
420
 16777215
176
     1
 90
        2
176
     1
 90
        2
176
     1
 62
     7
176
     1
 62
   257
176
     1
 90
        2
176
     1
 90
        1
176
     1
 40
40.0
176
     1
 90
        0
176
     1
 62
   257
176
     1
 40
1.0
176
     1
 90
        1
176
     1
 90
        6
176
     1
 90
        2
176
     1
 62
     7
176
     1
 90
        3
176
     1
 90
        0
176
     1
 90
        0
176
     1
290
     0
176
     1
 90
        1
176
     1
 40
0.0
176
     1
 90
        0
176
     1
290
     0
176
     1
290
     1
176
     1
290
     1
176
     1
290
     0
176
     1
290
     0
176
     1
290
     0
176
     1
290
     0
176
     1
290
     0
176
     1
290
     0
176
     1
 90
       50
176
     1
 40
0.0
176
     1
 40
1.0
176
     1
 90
        0
176
     1
 62
    18
420
        0
176
     1
 90
       50
176
     1
 90
        3
176
     1
 62
     5
420
      255
176
     1
290
     0
176
     1
 90
       50
176
     1
 90
       50
176
     1
 90
       50
176
     1
290
     0
176
     1
 90
       50
176
     1
 62
   256
176
     0
 40
1.0
176
     0
 90
        2
176
     1
  1
strokes_ogs.tif
176
     1
290
     0
176
     1
 40
1.0
176
     1
 40
1.0
176
     1
  0
VISUALSTYLE
  5
3B
102
{ACAD_REACTORS
330
2A
102
}
330
2A
100
AcDbVisualStyle
  2
JitterOff
 70
    20
177
     3
291
     1
 70
    58
 90
        2
176
     0
 90
        2
176
     0
 90
        0
176
     0
 90
        0
176
     0
 40
0.6
176
     0
 40
30.0
176
     0
 62
     7
420
 16777215
176
     0
 90
        1
176
     0
 90
        4
176
     0
 62
     7
176
     0
 62
   257
176
     0
 90
        1
176
     0
 90
        1
176
     0
 40
1.0
176
     0
 90
       10
176
     2
 62
     7
176
     0
 40
1.0
176
     0
 90
        1
176
     0
 90
        6
176
     0
 90
        2
176
     0
 62
     7
176
     0
 90
        5
176
     0
 90
        0
176
     0
 90
        0
176
     0
290
     0
176
     0
 90
        1
176
     0
 40
0.0
176
     0
 90
        0
176
     0
290
     0
176
     0
290
     1
176
     0
290
     1
176
     0
290
     0
176
     0
290
     0
176
     0
290
     0
176
     0
290
     0
176
     0
290
     0
176
     0
290
     0
176
     0
 90
       50
176
     0
 40
0.0
176
     0
 40
1.0
176
     0
 90
        0
176
     0
 62
    18
420
        0
176
     0
 90
       50
176
     0
 90
        3
176
     0
 62
     5
420
      255
176
     0
290
     0
176
     0
 90
       50
176
     0
 90
       50
176
     0
 90
       50
176
     0
290
     0
176
     0
 90
       50
176
     0
 62
   256
176
     0
 40
1.0
176
     0
 90
        2
176
     0
  1
strokes_ogs.tif
176
     0
290
     0
176
     0
 40
1.0
176
     0
 40
1.0
176
     0
  0
VISUALSTYLE
  5
38
102
{ACAD_REACTORS
330
2A
102
}
330
2A
100
AcDbVisualStyle
  2
Linepattern
 70
    14
177
     3
291
     1
 70
    58
 90
        2
176
     1
 90
        2
176
     1
 90
        0
176
     1
 90
        0
176
     1
 40
0.6
176
     1
 40
30.0
176
     1
 62
     7
420
 16777215
176
     1
 90
        1
176
     1
 90
        4
176
     1
 62
     7
176
     1
 62
   257
176
     1
 90
        7
176
     1
 90
        7
176
     1
 40
1.0
176
     1
 90
        8
176
     1
 62
     7
176
     1
 40
1.0
176
     1
 90
        1
176
     1
 90
        6
176
     1
 90
        2
176
     1
 62
     7
176
     1
 90
        5
176
     1
 90
        0
176
     1
 90
        0
176
     1
290
     0
176
     1
 90
        1
176
     1
 40
0.0
176
     1
 90
        0
176
     1
290
     0
176
     1
290
     1
176
     1
290
     1
176
     1
290
     0
176
     1
290
     0
176
     1
290
     0
176
     1
290
     0
176
     1
290
     0
176
     1
290
     0
176
     1
 90
       50
176
     1
 40
0.0
176
     1
 40
1.0
176
     1
 90
        0
176
     1
 62
    18
420
        0
176
     1
 90
       50
176
     1
 90
        3
176
     1
 62
     5
420
      255
176
     1
290
     0
176
     1
 90
       50
176
     1
 90
       50
176
     1
 90
       50
176
     1
290
     0
176
     1
 90
       50
176
     1
 62
   256
176
     0
 40
1.0
176
     0
 90
        2
176
     1
  1
strokes_ogs.tif
176
     1
290
     0
176
     1
 40
1.0
176
     1
 40
1.0
176
     1
  0
VISUALSTYLE
  5
3C
102
{ACAD_REACTORS
330
2A
102
}
330
2A
100
AcDbVisualStyle
  2
OverhangOff
 70
    21
177
     3
291
     1
 70
    58
 90
        2
176
     0
 90
        2
176
     0
 90
        0
176
     0
 90
        0
176
     0
 40
0.6
176
     0
 40
30.0
176
     0
 62
     7
420
 16777215
176
     0
 90
        1
176
     0
 90
        4
176
     0
 62
     7
176
     0
 62
   257
176
     0
 90
        1
176
     0
 90
        1
176
     0
 40
1.0
176
     0
 90
        9
176
     2
 62
     7
176
     0
 40
1.0
176
     0
 90
        1
176
     0
 90
        6
176
     0
 90
        2
176
     0
 62
     7
176
     0
 90
        5
176
     0
 90
        0
176
     0
 90
        0
176
     0
290
     0
176
     0
 90
        1
176
     0
 40
0.0
176
     0
 90
        0
176
     0
290
     0
176
     0
290
     1
176
     0
290
     1
176
     0
290
     0
176
     0
290
     0
176
     0
290
     0
176
     0
290
     0
176
     0
290
     0
176
     0
290
     0
176
     0
 90
       50
176
     0
 40
0.0
176
     0
 40
1.0
176
     0
 90
        0
176
     0
 62
    18
420
        0
176
     0
 90
       50
176
     0
 90
        3
176
     0
 62
     5
420
      255
176
     0
290
     0
176
     0
 90
       50
176
     0
 90
       50
176
     0
 90
       50
176
     0
290
     0
176
     0
 90
       50
176
     0
 62
   256
176
     0
 40
1.0
176
     0
 90
        2
176
     0
  1
strokes_ogs.tif
176
     0
290
     0
176
     0
 40
1.0
176
     0
 40
1.0
176
     0
  0
VISUALSTYLE
  5
33
102
{ACAD_REACTORS
330
2A
102
}
330
2A
100
AcDbVisualStyle
  2
Realistic
 70
     8
177
     3
291
     0
 70
    58
 90
        2
176
     1
 90
        3
176
     1
 90
        0
176
     1
 90
        2
176
     1
 40
0.6
176
     1
 40
30.0
176
     1
 62
     7
420
 16777215
176
     1
 90
        0
176
     1
 90
        0
176
     1
 62
     7
176
     1
 62
   257
176
     1
 90
        1
176
     1
 90
        1
176
     1
 40
1.0
176
     1
 90
        8
176
     1
 62
   257
176
     1
 40
1.0
176
     1
 90
        1
176
     1
 90
        6
176
     1
 90
        2
176
     1
 62
     7
176
     1
 90
        3
176
     1
 90
        0
176
     1
 90
        0
176
     1
290
     0
176
     1
 90
       13
176
     1
 40
0.0
176
     1
 90
        0
176
     1
290
     0
176
     1
290
     1
176
     1
290
     1
176
     1
290
     0
176
     1
290
     0
176
     1
290
     0
176
     1
290
     0
176
     1
290
     0
176
     1
290
     0
176
     1
 90
       50
176
     1
 40
0.0
176
     1
 40
1.0
176
     1
 90
        0
176
     1
 62
    18
420
        0
176
     1
 90
       50
176
     1
 90
        3
176
     1
 62
     5
420
      255
176
     1
290
     0
176
     1
 90
       50
176
     1
 90
       50
176
     1
 90
       50
176
     1
290
     0
176
     1
 90
       50
176
     1
 62
   256
176
     0
 40
1.0
176
     0
 90
        2
176
     1
  1
strokes_ogs.tif
176
     1
290
     0
176
     1
 40
1.0
176
     1
 40
1.0
176
     1
  0
VISUALSTYLE
  5
42
102
{ACAD_REACTORS
330
2A
102
}
330
2A
100
AcDbVisualStyle
  2
Shaded
 70
    27
177
     3
291
     0
 70
    58
 90
        2
176
     1
 90
        2
176
     1
 90
        1
176
     1
 90
        2
176
     1
 40
0.6
176
     1
 40
30.0
176
     1
 62
     7
420
 16777215
176
     1
 90
        0
176
     1
 90
        4
176
     1
 62
     7
176
     1
 62
   257
176
     1
 90
        1
176
     1
 90
        1
176
     1
 40
1.0
176
     1
 90
        8
176
     1
 62
   257
176
     1
 40
1.0
176
     1
 90
        1
176
     1
 90
        6
176
     1
 90
        2
176
     1
 62
     8
420
  7895160
176
     1
 90
        3
176
     1
 90
        0
176
     1
 90
        0
176
     1
290
     0
176
     1
 90
        5
176
     1
 40
0.0
176
     1
 90
        0
176
     1
290
     0
176
     1
290
     1
176
     1
290
     1
176
     1
290
     0
176
     1
290
     0
176
     1
290
     0
176
     1
290
     0
176
     1
290
     0
176
     1
290
     0
176
     1
 90
       50
176
     1
 40
0.0
176
     1
 40
1.0
176
     1
 90
        0
176
     1
 62
    18
420
        0
176
     1
 90
       50
176
     1
 90
        3
176
     1
 62
     5
420
      255
176
     1
290
     0
176
     1
 90
       50
176
     1
 90
       50
176
     1
 90
       50
176
     1
290
     0
176
     1
 90
       50
176
     1
 62
   256
176
     0
 40
1.0
176
     0
 90
        2
176
     1
  1
strokes_ogs.tif
176
     1
290
     0
176
     1
 40
1.0
176
     1
 40
1.0
176
     1
  0
VISUALSTYLE
  5
41
102
{ACAD_REACTORS
330
2A
102
}
330
2A
100
AcDbVisualStyle
  2
Shaded with edges
 70
    26
177
     3
291
     0
 70
    58
 90
        2
176
     1
 90
        2
176
     1
 90
        1
176
     1
 90
        2
176
     1
 40
0.6
176
     1
 40
30.0
176
     1
 62
     7
420
 16777215
176
     1
 90
        1
176
     1
 90
       10
176
     1
 62
     7
176
     1
 62
   257
176
     1
 90
        2
176
     1
 90
        1
176
     1
 40
1.0
176
     1
 90
        8
176
     1
 62
   257
176
     1
 40
1.0
176
     1
 90
        1
176
     1
 90
        6
176
     1
 90
        2
176
     1
 62
     7
176
     1
 90
        3
176
     1
 90
        0
176
     1
 90
        0
176
     1
290
     0
176
     1
 90
        5
176
     1
 40
0.0
176
     1
 90
        0
176
     1
290
     0
176
     1
290
     1
176
     1
290
     1
176
     1
290
     0
176
     1
290
     0
176
     1
290
     0
176
     1
290
     0
176
     1
290
     0
176
     1
290
     0
176
     1
 90
       50
176
     1
 40
0.0
176
     1
 40
1.0
176
     1
 90
        0
176
     1
 62
    18
420
        0
176
     1
 90
       50
176
     1
 90
        3
176
     1
 62
     5
420
      255
176
     1
290
     0
176
     1
 90
       50
176
     1
 90
       50
176
     1
 90
       50
176
     1
290
     0
176
     1
 90
       50
176
     1
 62
   256
176
     0
 40
1.0
176
     0
 90
        2
176
     1
  1
strokes_ogs.tif
176
     1
290
     0
176
     1
 40
1.0
176
     1
 40
1.0
176
     1
  0
VISUALSTYLE
  5
3E
102
{ACAD_REACTORS
330
2A
102
}
330
2A
100
AcDbVisualStyle
  2
Shades of Gray
 70
    23
177
     3
291
     0
 70
    58
 90
        2
176
     1
 90
        2
176
     1
 90
        3
176
     1
 90
        0
176
     1
 40
0.6
176
     1
 40
30.0
176
     1
 62
     7
420
 16777215
176
     1
 90
        2
176
     1
 90
        2
176
     1
 62
     7
176
     1
 62
     7
176
     1
 90
        1
176
     1
 90
        1
176
     1
 40
40.0
176
     1
 90
        8
176
     1
 62
     7
176
     1
 40
1.0
176
     1
 90
        1
176
     1
 90
        6
176
     1
 90
        2
176
     1
 62
     7
176
     1
 90
        3
176
     1
 90
        0
176
     1
 90
        0
176
     1
290
     0
176
     1
 90
        1
176
     1
 40
0.0
176
     1
 90
        0
176
     1
290
     0
176
     1
290
     1
176
     1
290
     1
176
     1
290
     0
176
     1
290
     0
176
     1
290
     0
176
     1
290
     0
176
     1
290
     0
176
     1
290
     0
176
     1
 90
       50
176
     1
 40
0.0
176
     1
 40
1.0
176
     1
 90
        0
176
     1
 62
    18
420
        0
176
     1
 90
       50
176
     1
 90
        3
176
     1
 62
     5
420
      255
176
     1
290
     0
176
     1
 90
       50
176
     1
 90
       50
176
     1
 90
       50
176
     1
290
     0
176
     1
 90
       50
176
     1
 62
   256
176
     0
 40
1.0
176
     0
 90
        2
176
     1
  1
strokes_ogs.tif
176
     1
290
     0
176
     1
 40
1.0
176
     1
 40
1.0
176
     1
  0
VISUALSTYLE
  5
3F
102
{ACAD_REACTORS
330
2A
102
}
330
2A
100
AcDbVisualStyle
  2
Sketchy
 70
    24
177
     3
291
     0
 70
    58
 90
        1
176
     1
 90
        2
176
     1
 90
        2
176
     1
 90
        0
176
     1
 40
0.6
176
     1
 40
30.0
176
     1
 62
     7
420
 16777215
176
     1
 90
        2
176
     1
 90
        2
176
     1
 62
     7
176
     1
 62
     7
176
     1
 90
        1
176
     1
 90
        1
176
     1
 40
40.0
176
     1
 90
       11
176
     1
 62
     7
176
     1
 40
1.0
176
     1
 90
        1
176
     1
 90
        6
176
     1
 90
        2
176
     1
 62
     7
176
     1
 90
        6
176
     1
 90
        0
176
     1
 90
        0
176
     1
290
     0
176
     1
 90
        1
176
     1
 40
0.0
176
     1
 90
        0
176
     1
290
     0
176
     1
290
     1
176
     1
290
     1
176
     1
290
     0
176
     1
290
     0
176
     1
290
     0
176
     1
290
     0
176
     1
290
     0
176
     1
290
     0
176
     1
 90
       50
176
     1
 40
0.0
176
     1
 40
1.0
176
     1
 90
        0
176
     1
 62
    18
420
        0
176
     1
 90
       50
176
     1
 90
        3
176
     1
 62
     5
420
      255
176
     1
290
     0
176
     1
 90
       50
176
     1
 90
       50
176
     1
 90
       50
176
     1
290
     0
176
     1
 90
       50
176
     1
 62
   256
176
     0
 40
1.0
176
     0
 90
        2
176
     1
  1
strokes_ogs.tif
176
     1
290
     0
176
     1
 40
1.0
176
     1
 40
1.0
176
     1
  0
VISUALSTYLE
  5
37
102
{ACAD_REACTORS
330
2A
102
}
330
2A
100
AcDbVisualStyle
  2
Thicken
 70
    13
177
     3
291
     1
 70
    58
 90
        2
176
     1
 90
        2
176
     1
 90
        0
176
     1
 90
        0
176
     1
 40
0.6
176
     1
 40
30.0
176
     1
 62
     7
420
 16777215
176
     1
 90
        1
176
     1
 90
        4
176
     1
 62
     7
176
     1
 62
   257
176
     1
 90
        1
176
     1
 90
        1
176
     1
 40
1.0
176
     1
 90
       12
176
     1
 62
     7
176
     1
 40
1.0
176
     1
 90
        1
176
     1
 90
        6
176
     1
 90
        2
176
     1
 62
     7
176
     1
 90
        5
176
     1
 90
        0
176
     1
 90
        0
176
     1
290
     0
176
     1
 90
        1
176
     1
 40
0.0
176
     1
 90
        0
176
     1
290
     0
176
     1
290
     1
176
     1
290
     1
176
     1
290
     0
176
     1
290
     0
176
     1
290
     0
176
     1
290
     0
176
     1
290
     0
176
     1
290
     0
176
     1
 90
       50
176
     1
 40
0.0
176
     1
 40
1.0
176
     1
 90
        0
176
     1
 62
    18
420
        0
176
     1
 90
       50
176
     1
 90
        3
176
     1
 62
     5
420
      255
176
     1
290
     0
176
     1
 90
       50
176
     1
 90
       50
176
     1
 90
       50
176
     1
290
     0
176
     1
 90
       50
176
     1
 62
   256
176
     0
 40
1.0
176
     0
 90
        2
176
     1
  1
strokes_ogs.tif
176
     1
290
     0
176
     1
 40
1.0
176
     1
 40
1.0
176
     1
  0
VISUALSTYLE
  5
30
102
{ACAD_REACTORS
330
2A
102
}
330
2A
100
AcDbVisualStyle
  2
Wireframe
 70
     5
177
     3
291
     0
 70
    58
 90
        0
176
     1
 90
        2
176
     1
 90
        0
176
     1
 90
        0
176
     1
 40
0.6
176
     1
 40
30.0
176
     1
 62
     7
420
 16777215
176
     1
 90
        1
176
     1
 90
        4
176
     1
 62
     7
176
     1
 62
   257
176
     1
 90
        1
176
     1
 90
        1
176
     1
 40
1.0
176
     1
 90
        0
176
     1
 62
   257
176
     1
 40
1.0
176
     1
 90
        1
176
     1
 90
        6
176
     1
 90
        2
176
     1
 62
     7
176
     1
 90
        3
176
     1
 90
        0
176
     1
 90
        0
176
     1
290
     0
176
     1
 90
        1
176
     1
 40
0.0
176
     1
 90
        0
176
     1
290
     0
176
     1
290
     1
176
     1
290
     1
176
     1
290
     0
176
     1
290
     0
176
     1
290
     0
176
     1
290
     0
176
     1
290
     0
176
     1
290
     0
176
     1
 90
       50
176
     1
 40
0.0
176
     1
 40
1.0
176
     1
 90
        0
176
     1
 62
    18
420
        0
176
     1
 90
       50
176
     1
 90
        3
176
     1
 62
     5
420
      255
176
     1
290
     0
176
     1
 90
       50
176
     1
 90
       50
176
     1
 90
       50
176
     1
290
     0
176
     1
 90
       50
176
     1
 62
   256
176
     0
 40
1.0
176
     0
 90
        2
176
     1
  1
strokes_ogs.tif
176
     1
290
     0
176
     1
 40
1.0
176
     1
 40
1.0
176
     1
  0
VISUALSTYLE
  5
40
102
{ACAD_REACTORS
330
2A
102
}
330
2A
100
AcDbVisualStyle
  2
X-Ray
 70
    25
177
     3
291
     0
 70
    58
 90
        2
176
     1
 90
        2
176
     1
 90
        1
176
     1
 90
        1
176
     1
 40
0.5
176
     1
 40
30.0
176
     1
 62
     7
420
 16777215
176
     1
 90
        1
176
     1
 90
        0
176
     1
 62
     7
176
     1
 62
   257
176
     1
 90
        1
176
     1
 90
        1
176
     1
 40
1.0
176
     1
 90
        8
176
     1
 62
     7
176
     1
 40
1.0
176
     1
 90
        1
176
     1
 90
        6
176
     1
 90
        2
176
     1
 62
     7
176
     1
 90
        3
176
     1
 90
        0
176
     1
 90
        0
176
     1
290
     0
176
     1
 90
       13
176
     1
 40
0.0
176
     1
 90
        0
176
     1
290
     0
176
     1
290
     1
176
     1
290
     1
176
     1
290
     0
176
     1
290
     0
176
     1
290
     0
176
     1
290
     0
176
     1
290
     0
176
     1
290
     0
176
     1
 90
       50
176
     1
 40
0.0
176
     1
 40
1.0
176
     1
 90
        0
176
     1
 62
    18
420
        0
176
     1
 90
       50
176
     1
 90
        3
176
     1
 62
     5
420
      255
176
     1
290
     0
176
     1
 90
       50
176
     1
 90
       50
176
     1
 90
       50
176
     1
290
     0
176
     1
 90
       50
176
     1
 62
   256
176
     0
 40
1.0
176
     0
 90
        2
176
     1
  1
strokes_ogs.tif
176
     1
290
     0
176
     1
 40
1.0
176
     1
 40
1.0
176
     1
  0
DICTIONARYVAR
  5
84
102
{ACAD_REACTORS
330
83
102
}
330
83
100
DictionaryVariables
280
     0
  1
1:1
  0
DICTIONARYVAR
  5
89
102
{ACAD_REACTORS
330
83
102
}
330
83
100
DictionaryVariables
280
     0
  1
Standard
  0
DICTIONARYVAR
  5
88
102
{ACAD_REACTORS
330
83
102
}
330
83
100
DictionaryVariables
280
     0
  1
Standard
  0
DICTIONARY
  5
85
330
5A
100
AcDbDictionary
280
     1
281
     1
  3
ACAD_ROUNDTRIP_2008_TABLESTYLE_CELLSTYLEMAP
360
86
  0
CELLSTYLEMAP
  5
86
102
{ACAD_REACTORS
330
85
102
}
330
85
100
AcDbCellStyleMap
 90
        3
300
CELLSTYLE
  1
TABLEFORMAT_BEGIN
 90
        5
170
     1
 91
        0
 92
    32768
 62
   257
 93
        1
300
CONTENTFORMAT
  1
CONTENTFORMAT_BEGIN
 90
        0
 91
        0
 92
        4
 93
        0
300

 40
0.0
140
1.0
 94
        5
 62
     0
340
11
144
0.25
309
CONTENTFORMAT_END
171
     1
301
MARGIN
  1
CELLMARGIN_BEGIN
 40
0.06
 40
0.06
 40
0.06
 40
0.06
 40
0.06
 40
0.06
309
CELLMARGIN_END
 94
        6
 95
        1
302
GRIDFORMAT
  1
GRIDFORMAT_BEGIN
 90
        0
 91
        1
 62
     0
 92
       -2
340
14
 93
        0
 40
0.045
309
GRIDFORMAT_END
 95
        2
302
GRIDFORMAT
  1
GRIDFORMAT_BEGIN
 90
        0
 91
        1
 62
     0
 92
       -2
340
14
 93
        0
 40
0.045
309
GRIDFORMAT_END
 95
        4
302
GRIDFORMAT
  1
GRIDFORMAT_BEGIN
 90
        0
 91
        1
 62
     0
 92
       -2
340
14
 93
        0
 40
0.045
309
GRIDFORMAT_END
 95
        8
302
GRIDFORMAT
  1
GRIDFORMAT_BEGIN
 90
        0
 91
        1
 62
     0
 92
       -2
340
14
 93
        0
 40
0.045
309
GRIDFORMAT_END
 95
       16
302
GRIDFORMAT
  1
GRIDFORMAT_BEGIN
 90
        0
 91
        1
 62
     0
 92
       -2
340
14
 93
        0
 40
0.045
309
GRIDFORMAT_END
 95
       32
302
GRIDFORMAT
  1
GRIDFORMAT_BEGIN
 90
        0
 91
        1
 62
     0
 92
       -2
340
14
 93
        0
 40
0.045
309
GRIDFORMAT_END
309
TABLEFORMAT_END
  1
CELLSTYLE_BEGIN
 90
        1
 91
        1
300
_TITLE
309
CELLSTYLE_END
300
CELLSTYLE
  1
TABLEFORMAT_BEGIN
 90
        5
170
     1
 91
        0
 92
        0
 62
   257
 93
        1
300
CONTENTFORMAT
  1
CONTENTFORMAT_BEGIN
 90
        0
 91
        0
 92
        4
 93
        0
300

 40
0.0
140
1.0
 94
        5
 62
     0
340
11
144
0.18
309
CONTENTFORMAT_END
171
     1
301
MARGIN
  1
CELLMARGIN_BEGIN
 40
0.06
 40
0.06
 40
0.06
 40
0.06
 40
0.06
 40
0.06
309
CELLMARGIN_END
 94
        6
 95
        1
302
GRIDFORMAT
  1
GRIDFORMAT_BEGIN
 90
        0
 91
        1
 62
     0
 92
       -2
340
14
 93
        0
 40
0.045
309
GRIDFORMAT_END
 95
        2
302
GRIDFORMAT
  1
GRIDFORMAT_BEGIN
 90
        0
 91
        1
 62
     0
 92
       -2
340
14
 93
        0
 40
0.045
309
GRIDFORMAT_END
 95
        4
302
GRIDFORMAT
  1
GRIDFORMAT_BEGIN
 90
        0
 91
        1
 62
     0
 92
       -2
340
14
 93
        0
 40
0.045
309
GRIDFORMAT_END
 95
        8
302
GRIDFORMAT
  1
GRIDFORMAT_BEGIN
 90
        0
 91
        1
 62
     0
 92
       -2
340
14
 93
        0
 40
0.045
309
GRIDFORMAT_END
 95
       16
302
GRIDFORMAT
  1
GRIDFORMAT_BEGIN
 90
        0
 91
        1
 62
     0
 92
       -2
340
14
 93
        0
 40
0.045
309
GRIDFORMAT_END
 95
       32
302
GRIDFORMAT
  1
GRIDFORMAT_BEGIN
 90
        0
 91
        1
 62
     0
 92
       -2
340
14
 93
        0
 40
0.045
309
GRIDFORMAT_END
309
TABLEFORMAT_END
  1
CELLSTYLE_BEGIN
 90
        2
 91
        1
300
_HEADER
309
CELLSTYLE_END
300
CELLSTYLE
  1
TABLEFORMAT_BEGIN
 90
        5
170
     1
 91
        0
 92
        0
 62
   257
 93
        1
300
CONTENTFORMAT
  1
CONTENTFORMAT_BEGIN
 90
        0
 91
        0
 92
        4
 93
        0
300

 40
0.0
140
1.0
 94
        2
 62
     0
340
11
144
0.18
309
CONTENTFORMAT_END
171
     1
301
MARGIN
  1
CELLMARGIN_BEGIN
 40
0.06
 40
0.06
 40
0.06
 40
0.06
 40
0.06
 40
0.06
309
CELLMARGIN_END
 94
        6
 95
        1
302
GRIDFORMAT
  1
GRIDFORMAT_BEGIN
 90
        0
 91
        1
 62
     0
 92
       -2
340
14
 93
        0
 40
0.045
309
GRIDFORMAT_END
 95
        2
302
GRIDFORMAT
  1
GRIDFORMAT_BEGIN
 90
        0
 91
        1
 62
     0
 92
       -2
340
14
 93
        0
 40
0.045
309
GRIDFORMAT_END
 95
        4
302
GRIDFORMAT
  1
GRIDFORMAT_BEGIN
 90
        0
 91
        1
 62
     0
 92
       -2
340
14
 93
        0
 40
0.045
309
GRIDFORMAT_END
 95
        8
302
GRIDFORMAT
  1
GRIDFORMAT_BEGIN
 90
        0
 91
        1
 62
     0
 92
       -2
340
14
 93
        0
 40
0.045
309
GRIDFORMAT_END
 95
       16
302
GRIDFORMAT
  1
GRIDFORMAT_BEGIN
 90
        0
 91
        1
 62
     0
 92
       -2
340
14
 93
        0
 40
0.045
309
GRIDFORMAT_END
 95
       32
302
GRIDFORMAT
  1
GRIDFORMAT_BEGIN
 90
        0
 91
        1
 62
     0
 92
       -2
340
14
 93
        0
 40
0.045
309
GRIDFORMAT_END
309
TABLEFORMAT_END
  1
CELLSTYLE_BEGIN
 90
        3
 91
        2
300
_DATA
309
CELLSTYLE_END
  0
ENDSEC
  0
EOF
