  0
SECTION
  2
HEADER
  9
$ACADVER
  1
AC1027
  9
$ACADMAINTVER
 70
   105
  9
$DWGCODEPAGE
  3
ANSI_1252
  9
$LASTSAVEDBY
  1
Office Desk
  9
$REQUIREDVERSIONS
160
                 0
  9
$INSBASE
 10
0.0
 20
0.0
 30
0.0
  9
$EXTMIN
 10
-16.48293700787401
 20
1.783503937007874
 30
0.0
  9
$EXTMAX
 10
-11.15791338582677
 20
5.818311023622047
 30
0.0
  9
$LIMMIN
 10
0.0
 20
0.0
  9
$LIMMAX
 10
12.0
 20
9.0
  9
$ORTHOMODE
 70
     0
  9
$REGENMODE
 70
     1
  9
$FILLMODE
 70
     1
  9
$QTEXTMODE
 70
     0
  9
$MIRRTEXT
 70
     1
  9
$LTSCALE
 40
1.0
  9
$ATTMODE
 70
     1
  9
$TEXTSIZE
 40
0.2
  9
$TRACEWID
 40
0.05
  9
$TEXTSTYLE
  7
Standard
  9
$CLAYER
  8
0
  9
$CELTYPE
  6
ByLayer
  9
$CECOLOR
 62
   256
  9
$CELTSCALE
 40
1.0
  9
$DISPSILH
 70
     0
  9
$DIMSCALE
 40
1.0
  9
$DIMASZ
 40
0.18
  9
$DIMEXO
 40
0.0625
  9
$DIMDLI
 40
0.38
  9
$DIMRND
 40
0.0
  9
$DIMDLE
 40
0.0
  9
$DIMEXE
 40
0.18
  9
$DIMTP
 40
0.0
  9
$DIMTM
 40
0.0
  9
$DIMTXT
 40
0.18
  9
$DIMCEN
 40
0.09
  9
$DIMTSZ
 40
0.0
  9
$DIMTOL
 70
     0
  9
$DIMLIM
 70
     0
  9
$DIMTIH
 70
     1
  9
$DIMTOH
 70
     1
  9
$DIMSE1
 70
     0
  9
$DIMSE2
 70
     0
  9
$DIMTAD
 70
     0
  9
$DIMZIN
 70
     0
  9
$DIMBLK
  1

  9
$DIMASO
 70
     1
  9
$DIMSHO
 70
     1
  9
$DIMPOST
  1

  9
$DIMAPOST
  1

  9
$DIMALT
 70
     0
  9
$DIMALTD
 70
     2
  9
$DIMALTF
 40
25.4
  9
$DIMLFAC
 40
1.0
  9
$DIMTOFL
 70
     0
  9
$DIMTVP
 40
0.0
  9
$DIMTIX
 70
     0
  9
$DIMSOXD
 70
     0
  9
$DIMSAH
 70
     0
  9
$DIMBLK1
  1

  9
$DIMBLK2
  1

  9
$DIMSTYLE
  2
Standard
  9
$DIMCLRD
 70
     0
  9
$DIMCLRE
 70
     0
  9
$DIMCLRT
 70
     0
  9
$DIMTFAC
 40
1.0
  9
$DIMGAP
 40
0.09
  9
$DIMJUST
 70
     0
  9
$DIMSD1
 70
     0
  9
$DIMSD2
 70
     0
  9
$DIMTOLJ
 70
     1
  9
$DIMTZIN
 70
     0
  9
$DIMALTZ
 70
     0
  9
$DIMALTTZ
 70
     0
  9
$DIMUPT
 70
     0
  9
$DIMDEC
 70
     4
  9
$DIMTDEC
 70
     4
  9
$DIMALTU
 70
     2
  9
$DIMALTTD
 70
     2
  9
$DIMTXSTY
  7
Standard
  9
$DIMAUNIT
 70
     0
  9
$DIMADEC
 70
     0
  9
$DIMALTRND
 40
0.0
  9
$DIMAZIN
 70
     0
  9
$DIMDSEP
 70
    46
  9
$DIMATFIT
 70
     3
  9
$DIMFRAC
 70
     0
  9
$DIMLDRBLK
  1

  9
$DIMLUNIT
 70
     2
  9
$DIMLWD
 70
    -2
  9
$DIMLWE
 70
    -2
  9
$DIMTMOVE
 70
     0
  9
$DIMFXL
 40
1.0
  9
$DIMFXLON
 70
     0
  9
$DIMJOGANG
 40
0.7853981633974483
  9
$DIMTFILL
 70
     0
  9
$DIMTFILLCLR
 70
     0
  9
$DIMARCSYM
 70
     0
  9
$DIMLTYPE
  6

  9
$DIMLTEX1
  6

  9
$DIMLTEX2
  6

  9
$DIMTXTDIRECTION
 70
     0
  9
$LUNITS
 70
     2
  9
$LUPREC
 70
     4
  9
$SKETCHINC
 40
0.1
  9
$FILLETRAD
 40
0.0
  9
$AUNITS
 70
     0
  9
$AUPREC
 70
     0
  9
$MENU
  1
.
  9
$ELEVATION
 40
0.0
  9
$PELEVATION
 40
0.0
  9
$THICKNESS
 40
0.0
  9
$LIMCHECK
 70
     0
  9
$CHAMFERA
 40
0.0
  9
$CHAMFERB
 40
0.0
  9
$CHAMFERC
 40
0.0
  9
$CHAMFERD
 40
0.0
  9
$SKPOLY
 70
     0
  9
$TDCREATE
 40
2461020.677189688
  9
$TDUCREATE
 40
2461020.448023021
  9
$TDUPDATE
 40
2461020.677189815
  9
$TDUUPDATE
 40
2461020.448023149
  9
$TDINDWG
 40
0.0000000116
  9
$TDUSRTIMER
 40
0.0000000116
  9
$USRTIMER
 70
     1
  9
$ANGBASE
 50
0.0
  9
$ANGDIR
 70
     0
  9
$PDMODE
 70
     0
  9
$PDSIZE
 40
0.0
  9
$PLINEWID
 40
0.0
  9
$SPLFRAME
 70
     0
  9
$SPLINETYPE
 70
     6
  9
$SPLINESEGS
 70
     8
  9
$HANDSEED
  5
8F
  9
$SURFTAB1
 70
     6
  9
$SURFTAB2
 70
     6
  9
$SURFTYPE
 70
     6
  9
$SURFU
 70
     6
  9
$SURFV
 70
     6
  9
$UCSBASE
  2

  9
$UCSNAME
  2

  9
$UCSORG
 10
0.0
 20
0.0
 30
0.0
  9
$UCSXDIR
 10
1.0
 20
0.0
 30
0.0
  9
$UCSYDIR
 10
0.0
 20
1.0
 30
0.0
  9
$UCSORTHOREF
  2

  9
$UCSORTHOVIEW
 70
     0
  9
$UCSORGTOP
 10
0.0
 20
0.0
 30
0.0
  9
$UCSORGBOTTOM
 10
0.0
 20
0.0
 30
0.0
  9
$UCSORGLEFT
 10
0.0
 20
0.0
 30
0.0
  9
$UCSORGRIGHT
 10
0.0
 20
0.0
 30
0.0
  9
$UCSORGFRONT
 10
0.0
 20
0.0
 30
0.0
  9
$UCSORGBACK
 10
0.0
 20
0.0
 30
0.0
  9
$PUCSBASE
  2

  9
$PUCSNAME
  2

  9
$PUCSORG
 10
0.0
 20
0.0
 30
0.0
  9
$PUCSXDIR
 10
1.0
 20
0.0
 30
0.0
  9
$PUCSYDIR
 10
0.0
 20
1.0
 30
0.0
  9
$PUCSORTHOREF
  2

  9
$PUCSORTHOVIEW
 70
     0
  9
$PUCSORGTOP
 10
0.0
 20
0.0
 30
0.0
  9
$PUCSORGBOTTOM
 10
0.0
 20
0.0
 30
0.0
  9
$PUCSORGLEFT
 10
0.0
 20
0.0
 30
0.0
  9
$PUCSORGRIGHT
 10
0.0
 20
0.0
 30
0.0
  9
$PUCSORGFRONT
 10
0.0
 20
0.0
 30
0.0
  9
$PUCSORGBACK
 10
0.0
 20
0.0
 30
0.0
  9
$USERI1
 70
     0
  9
$USERI2
 70
     0
  9
$USERI3
 70
     0
  9
$USERI4
 70
     0
  9
$USERI5
 70
     0
  9
$USERR1
 40
0.0
  9
$USERR2
 40
0.0
  9
$USERR3
 40
0.0
  9
$USERR4
 40
0.0
  9
$USERR5
 40
0.0
  9
$WORLDVIEW
 70
     1
  9
$SHADEDGE
 70
     3
  9
$SHADEDIF
 70
    70
  9
$TILEMODE
 70
     1
  9
$MAXACTVP
 70
    64
  9
$PINSBASE
 10
0.0
 20
0.0
 30
0.0
  9
$PLIMCHECK
 70
     0
  9
$PEXTMIN
 10
1.000000000000000E+20
 20
1.000000000000000E+20
 30
1.000000000000000E+20
  9
$PEXTMAX
 10
-1.000000000000000E+20
 20
-1.000000000000000E+20
 30
-1.000000000000000E+20
  9
$PLIMMIN
 10
0.0
 20
0.0
  9
$PLIMMAX
 10
12.0
 20
9.0
  9
$UNITMODE
 70
     0
  9
$VISRETAIN
 70
     1
  9
$PLINEGEN
 70
     0
  9
$PSLTSCALE
 70
     1
  9
$TREEDEPTH
 70
  3020
  9
$CMLSTYLE
  2
Standard
  9
$CMLJUST
 70
     0
  9
$CMLSCALE
 40
1.0
  9
$PROXYGRAPHICS
 70
     1
  9
$MEASUREMENT
 70
     0
  9
$CELWEIGHT
370
    -1
  9
$ENDCAPS
280
     0
  9
$JOINSTYLE
280
     0
  9
$LWDISPLAY
290
     0
  9
$INSUNITS
 70
     1
  9
$HYPERLINKBASE
  1

  9
$STYLESHEET
  1

  9
$XEDIT
290
     1
  9
$CEPSNTYPE
380
     0
  9
$PSTYLEMODE
290
     1
  9
$FINGERPRINTGUID
  2
{df0d6e48-ac0e-4d71-a76b-b1f338211154}
  9
$VERSIONGUID
  2
{FAEB1C32-E019-11D5-929B-00C0DF256EC4}
  9
$EXTNAMES
290
     1
  9
$PSVPSCALE
 40
0.0
  9
$OLESTARTUP
290
     0
  9
$SORTENTS
280
   127
  9
$INDEXCTL
280
     0
  9
$HIDETEXT
280
     1
  9
$XCLIPFRAME
280
     2
  9
$HALOGAP
280
     0
  9
$OBSCOLOR
 70
   257
  9
$OBSLTYPE
280
     0
  9
$INTERSECTIONDISPLAY
280
     0
  9
$INTERSECTIONCOLOR
 70
   257
  9
$DIMASSOC
280
     2
  9
$PROJECTNAME
  1

  9
$CAMERADISPLAY
290
     0
  9
$LENSLENGTH
 40
50.0
  9
$CAMERAHEIGHT
 40
0.0
  9
$STEPSPERSEC
 40
2.0
  9
$STEPSIZE
 40
6.0
  9
$3DDWFPREC
 40
2.0
  9
$PSOLWIDTH
 40
0.25
  9
$PSOLHEIGHT
 40
4.0
  9
$LOFTANG1
 40
1.570796326794897
  9
$LOFTANG2
 40
1.570796326794897
  9
$LOFTMAG1
 40
0.0
  9
$LOFTMAG2
 40
0.0
  9
$LOFTPARAM
 70
     7
  9
$LOFTNORMALS
280
     1
  9
$LATITUDE
 40
37.795
  9
$LONGITUDE
 40
-122.394
  9
$NORTHDIRECTION
 40
0.0
  9
$TIMEZONE
 70
 -8000
  9
$LIGHTGLYPHDISPLAY
280
     1
  9
$TILEMODELIGHTSYNCH
280
     1
  9
$CMATERIAL
347
44
  9
$SOLIDHIST
280
     0
  9
$SHOWHIST
280
     1
  9
$DWFFRAME
280
     2
  9
$DGNFRAME
280
     2
  9
$REALWORLDSCALE
290
     1
  9
$INTERFERECOLOR
 62
   256
  9
$CSHADOW
280
     0
  9
$SHADOWPLANELOCATION
 40
0.0
  0
ENDSEC
  0
SECTION
  2
CLASSES
  0
CLASS
  1
ACDBDICTIONARYWDFLT
  2
AcDbDictionaryWithDefault
  3
ObjectDBX Classes
 90
        0
 91
        3
280
     0
281
     0
  0
CLASS
  1
VISUALSTYLE
  2
AcDbVisualStyle
  3
ObjectDBX Classes
 90
     4095
 91
        3
280
     0
281
     0
  0
CLASS
  1
MATERIAL
  2
AcDbMaterial
  3
ObjectDBX Classes
 90
     1153
 91
        3
280
     0
281
     0
  0
CLASS
  1
SCALE
  2
AcDbScale
  3
ObjectDBX Classes
 90
     1153
 91
        3
280
     0
281
     0
  0
CLASS
  1
TABLESTYLE
  2
AcDbTableStyle
  3
ObjectDBX Classes
 90
     4095
 91
        3
280
     0
281
     0
  0
CLASS
  1
MLEADERSTYLE
  2
AcDbMLeaderStyle
  3
ACDB_MLEADERSTYLE_CLASS
 90
     4095
 91
        3
280
     0
281
     0
  0
CLASS
  1
SUN
  2
AcDbSun
  3
SCENEOE
 90
     1153
 91
        3
280
     0
281
     0
  0
CLASS
  1
DICTIONARYVAR
  2
AcDbDictionaryVar
  3
ObjectDBX Classes
 90
        0
 91
        3
280
     0
281
     0
  0
CLASS
  1
CELLSTYLEMAP
  2
AcDbCellStyleMap
  3
ObjectDBX Classes
 90
     1152
 91
        3
280
     0
281
     0
  0
ENDSEC
  0
SECTION
  2
TABLES
  0
TABLE
  2
VPORT
  5
8
330
0
100
AcDbSymbolTable
 70
     1
  0
VPORT
  5
29
330
8
100
AcDbSymbolTableRecord
100
AcDbViewportTableRecord
  2
*Active
 70
     0
 10
0.0
 20
0.0
 11
1.0
 21
1.0
 12
10.42990654205607
 22
4.5
 13
0.0
 23
0.0
 14
0.5
 24
0.5
 15
0.5
 25
0.5
 16
0.0
 26
0.0
 36
1.0
 17
0.0
 27
0.0
 37
0.0
 40
9.0
 41
1.972972972850329
 42
50.0
 43
0.0
 44
0.0
 50
0.0
 51
0.0
 71
     0
 72
   100
 73
     1
 74
     3
 75
     0
 76
     0
 77
     0
 78
     0
281
     0
 65
     1
110
0.0
120
0.0
130
0.0
111
1.0
121
0.0
131
0.0
112
0.0
122
1.0
132
0.0
 79
     0
146
0.0
348
2F
 60
     3
 61
     5
292
     1
282
     1
141
0.0
142
0.0
 63
   250
361
5D
  0
ENDTAB
  0
TABLE
  2
LTYPE
  5
5
330
0
100
AcDbSymbolTable
 70
     1
  0
LTYPE
  5
14
330
5
100
AcDbSymbolTableRecord
100
AcDbLinetypeTableRecord
  2
ByBlock
 70
     0
  3

 72
    65
 73
     0
 40
0.0
  0
LTYPE
  5
15
330
5
100
AcDbSymbolTableRecord
100
AcDbLinetypeTableRecord
  2
ByLayer
 70
     0
  3

 72
    65
 73
     0
 40
0.0
  0
LTYPE
  5
16
330
5
100
AcDbSymbolTableRecord
100
AcDbLinetypeTableRecord
  2
Continuous
 70
     0
  3
Solid line
 72
    65
 73
     0
 40
0.0
  0
ENDTAB
  0
TABLE
  2
LAYER
  5
2
330
0
100
AcDbSymbolTable
 70
     2
  0
LAYER
  5
10
330
2
100
AcDbSymbolTableRecord
100
AcDbLayerTableRecord
  2
0
 70
     0
 62
     7
  6
Continuous
370
    -3
390
F
347
46
348
0
  0
LAYER
  5
5F
330
2
100
AcDbSymbolTableRecord
100
AcDbLayerTableRecord
  2
Layer 1
 70
     0
 62
     7
  6
Continuous
370
    -3
390
F
347
46
348
0
  0
ENDTAB
  0
TABLE
  2
STYLE
  5
3
330
0
100
AcDbSymbolTable
 70
     1
  0
STYLE
  5
11
330
3
100
AcDbSymbolTableRecord
100
AcDbTextStyleTableRecord
  2
Standard
 70
     0
 40
0.0
 41
1.0
 50
0.0
 71
     0
 42
0.2
  3
txt
  4

  0
ENDTAB
  0
TABLE
  2
VIEW
  5
6
330
0
100
AcDbSymbolTable
 70
     0
  0
ENDTAB
  0
TABLE
  2
UCS
  5
7
330
0
100
AcDbSymbolTable
 70
     0
  0
ENDTAB
  0
TABLE
  2
APPID
  5
9
330
0
100
AcDbSymbolTable
 70
     2
  0
APPID
  5
12
330
9
100
AcDbSymbolTableRecord
100
AcDbRegAppTableRecord
  2
ACAD
 70
     0
  0
APPID
  5
5E
330
9
100
AcDbSymbolTableRecord
100
AcDbRegAppTableRecord
  2
ODA
 70
     0
  0
ENDTAB
  0
TABLE
  2
DIMSTYLE
  5
A
330
0
100
AcDbSymbolTable
 70
     1
100
AcDbDimStyleTable
  0
DIMSTYLE
105
27
330
A
100
AcDbSymbolTableRecord
100
AcDbDimStyleTableRecord
  2
Standard
 70
     0
178
     0
340
11
  0
ENDTAB
  0
TABLE
  2
BLOCK_RECORD
  5
1
330
0
100
AcDbSymbolTable
 70
     1
  0
BLOCK_RECORD
  5
1F
330
1
100
AcDbSymbolTableRecord
100
AcDbBlockTableRecord
  2
*Model_Space
340
22
 70
     0
280
     1
281
     0
  0
BLOCK_RECORD
  5
1B
330
1
100
AcDbSymbolTableRecord
100
AcDbBlockTableRecord
  2
*Paper_Space
340
1E
 70
     0
280
     1
281
     0
  0
BLOCK_RECORD
  5
23
330
1
100
AcDbSymbolTableRecord
100
AcDbBlockTableRecord
  2
*Paper_Space0
340
26
 70
     0
280
     1
281
     0
  0
ENDTAB
  0
ENDSEC
  0
SECTION
  2
BLOCKS
  0
BLOCK
  5
20
330
1F
100
AcDbEntity
  8
0
100
AcDbBlockBegin
  2
*Model_Space
 70
     0
 10
0.0
 20
0.0
 30
0.0
  3
*Model_Space
  1

  0
ENDBLK
  5
21
330
1F
100
AcDbEntity
  8
0
100
AcDbBlockEnd
  0
BLOCK
  5
1C
330
1B
100
AcDbEntity
 67
     1
  8
0
100
AcDbBlockBegin
  2
*Paper_Space
 70
     0
 10
0.0
 20
0.0
 30
0.0
  3
*Paper_Space
  1

  0
ENDBLK
  5
1D
330
1B
100
AcDbEntity
 67
     1
  8
0
100
AcDbBlockEnd
  0
BLOCK
  5
24
330
23
100
AcDbEntity
  8
0
100
AcDbBlockBegin
  2
*Paper_Space0
 70
     0
 10
0.0
 20
0.0
 30
0.0
  3
*Paper_Space0
  1

  0
ENDBLK
  5
25
330
23
100
AcDbEntity
  8
0
100
AcDbBlockEnd
  0
ENDSEC
  0
SECTION
  2
ENTITIES
  0
LWPOLYLINE
  5
60
330
1F
100
AcDbEntity
  8
Layer 1
 62
   250
370
     9
100
AcDbPolyline
 90
        5
 70
     1
 43
0.0
 10
-16.48143700787401
 20
1.785007874015748
 10
-11.15941338582677
 20
1.785007874015748
 10
-11.15941338582677
 20
5.816811023622047
 10
-16.48143700787401
 20
5.816811023622047
 10
-16.48143700787401
 20
1.785007874015748
  0
LWPOLYLINE
  5
61
330
1F
100
AcDbEntity
  8
Layer 1
 62
     7
370
    80
100
AcDbPolyline
 90
       59
 70
     1
 43
0.0
 10
-14.93341338582677
 20
4.276685039370078
 10
-14.85746062992126
 20
4.29832283464567
 10
-14.65620472440945
 20
4.355614173228346
 10
-14.36955118110236
 20
4.437122047244094
 10
-14.0373937007874
 20
4.531417322834645
 10
-13.69964173228346
 20
4.62705905511811
 10
-13.3961968503937
 20
4.712622047244095
 10
-13.16695669291339
 20
4.776665354330708
 10
-13.05182677165354
 20
4.807759842519685
 10
-13.02661023622047
 20
4.810003937007874
 10
-12.95584251968504
 20
4.81103937007874
 10
-12.84686220472441
 20
4.802330708661417
 10
-12.70700393700787
 20
4.775338582677166
 10
-12.54360236220472
 20
4.721523622047244
 10
-12.3639842519685
 20
4.632342519685039
 10
-12.17549212598425
 20
4.499259842519685
 10
-11.98545275590551
 20
4.313736220472441
 10
-11.97607874015748
 20
4.30334251968504
 10
-11.95101181102362
 20
4.275338582677166
 10
-11.91482677165354
 20
4.234503937007874
 10
-11.87211023622047
 20
4.185606299212599
 10
-11.82744488188976
 20
4.133425196850394
 10
-11.78540157480315
 20
4.082728346456693
 10
-11.75057086614173
 20
4.038299212598425
 10
-11.72752755905512
 20
4.004901574803149
 10
-11.72640551181102
 20
4.001452755905512
 10
-11.72427165354331
 20
3.99198031496063
 10
-11.72297244094488
 20
3.977795275590551
 10
-11.72435433070866
 20
3.960200787401575
 10
-11.73025590551181
 20
3.940515748031496
 10
-11.74253149606299
 20
3.920043307086614
 10
-11.76301968503937
 20
3.900090551181102
 10
-11.79357086614173
 20
3.881976377952756
 10
-12.56631102362205
 20
3.642838582677165
 10
-13.45405118110236
 20
3.357814960629921
 10
-13.45793700787402
 20
3.356905511811024
 10
-13.46909842519685
 20
3.355492125984252
 10
-13.48679921259843
 20
3.35555905511811
 10
-13.51029921259843
 20
3.359086614173228
 10
-13.53885433070866
 20
3.368055118110236
 10
-13.57173228346457
 20
3.38444094488189
 10
-13.60818503937008
 20
3.410228346456693
 10
-13.64748031496063
 20
3.447393700787401
 10
-13.66211417322835
 20
3.466669291338583
 10
-13.7030905511811
 20
3.519157480314961
 10
-13.76601968503937
 20
3.59684251968504
 10
-13.84650787401575
 20
3.691700787401575
 10
-13.94016929133858
 20
3.795720472440945
 10
-14.04261023622047
 20
3.900889763779527
 10
-14.14944488188976
 20
3.999185039370079
 10
-14.25627559055118
 20
4.082594488188977
 10
-14.26820078740158
 20
4.091767716535433
 10
-14.3032125984252
 20
4.115779527559055
 10
-14.36015748031496
 20
4.14936220472441
 10
-14.43787401574803
 20
4.187259842519685
 10
-14.5352125984252
 20
4.224204724409449
 10
-14.65101968503937
 20
4.254929133858267
 10
-14.78413779527559
 20
4.274177165354331
 10
-14.93341338582677
 20
4.276685039370078
  0
LWPOLYLINE
  5
62
330
1F
100
AcDbEntity
  8
Layer 1
 62
     7
370
    80
100
AcDbPolyline
 90
       25
 70
     0
 43
0.0
 10
-15.48470078740158
 20
3.284629921259842
 10
-15.48868897637795
 20
3.283370078740158
 10
-15.49944881889764
 20
3.281027559055118
 10
-15.51518897637795
 20
3.279755905511811
 10
-15.5341062992126
 20
3.281708661417323
 10
-15.55440157480315
 20
3.289043307086614
 10
-15.57428346456693
 20
3.303917322834645
 10
-15.59195275590551
 20
3.32848031496063
 10
-15.6056062992126
 20
3.364885826771653
 10
-15.60569291338583
 20
3.383590551181102
 10
-15.60579527559055
 20
3.433381889763779
 10
-15.60568897637795
 20
3.504795275590551
 10
-15.60514566929134
 20
3.588354330708662
 10
-15.60392913385827
 20
3.674582677165354
 10
-15.60181889763779
 20
3.754011811023622
 10
-15.59858267716535
 20
3.817165354330708
 10
-15.59399212598425
 20
3.854574803149606
 10
-15.58635433070866
 20
3.869181102362205
 10
-15.56188976377953
 20
3.908429133858268
 10
-15.51829527559055
 20
3.96548031496063
 10
-15.45324803149606
 20
4.03348031496063
 10
-15.36443307086614
 20
4.105582677165354
 10
-15.24953937007874
 20
4.174940944881889
 10
-15.10625590551181
 20
4.234708661417323
 10
-14.93225984251968
 20
4.27803937007874
  0
LWPOLYLINE
  5
63
330
1F
100
AcDbEntity
  8
Layer 1
 62
     7
370
    80
100
AcDbPolyline
 90
       21
 70
     0
 43
0.0
 10
-13.90888188976378
 20
3.762102362204724
 10
-14.34373228346457
 20
3.62901968503937
 10
-14.34677952755906
 20
3.581271653543307
 10
-15.06867716535433
 20
3.380208661417323
 10
-15.05216141732283
 20
3.371956692913386
 10
-15.00675984251968
 20
3.349814960629921
 10
-14.93868897637795
 20
3.317716535433071
 10
-14.85416141732284
 20
3.279594488188976
 10
-14.7593937007874
 20
3.239374015748032
 10
-14.66060236220472
 20
3.200992125984252
 10
-14.56400393700787
 20
3.168374015748031
 10
-14.47581102362205
 20
3.145452755905512
 10
-14.47039763779528
 20
3.144314960629921
 10
-14.45536614173228
 20
3.141673228346457
 10
-14.43251968503937
 20
3.138700787401575
 10
-14.40367716535433
 20
3.136562992125984
 10
-14.37064173228346
 20
3.136425196850394
 10
-14.33522440944882
 20
3.139452755905512
 10
-14.29923622047244
 20
3.146811023622047
 10
-14.2644842519685
 20
3.159673228346457
 10
-13.57868503937008
 20
3.386220472440945
  0
LWPOLYLINE
  5
64
330
1F
100
AcDbEntity
  8
Layer 1
 62
     7
370
    80
100
AcDbPolyline
 90
       50
 70
     0
 43
0.0
 10
-12.55760236220472
 20
3.646291338582677
 10
-12.55742519685039
 20
3.637452755905512
 10
-12.55712598425197
 20
3.613877952755906
 10
-12.55706692913386
 20
3.579968503937008
 10
-12.55760236220472
 20
3.540129921259842
 10
-12.5590905511811
 20
3.498767716535433
 10
-12.56188976377953
 20
3.460287401574803
 10
-12.56635433070866
 20
3.429090551181103
 10
-12.57284251968504
 20
3.409586614173228
 10
-12.57394094488189
 20
3.40798031496063
 10
-12.57782677165354
 20
3.403413385826771
 10
-12.58537795275591
 20
3.396248031496063
 10
-12.59748031496063
 20
3.386854330708661
 10
-12.61501181102362
 20
3.375606299212599
 10
-12.63885039370079
 20
3.362870078740158
 10
-12.66988188976378
 20
3.349015748031496
 10
-12.70898818897638
 20
3.334409448818898
 10
-13.91828346456693
 20
2.930279527559055
 10
-13.93066535433071
 20
2.926094488188976
 10
-13.96405905511811
 20
2.914944881889764
 10
-14.01282283464567
 20
2.898929133858268
 10
-14.07131889763779
 20
2.880149606299212
 10
-14.1339094488189
 20
2.860696850393701
 10
-14.19496062992126
 20
2.842681102362205
 10
-14.24883070866142
 20
2.828200787401575
 10
-14.28988582677165
 20
2.819350393700788
 10
-14.30027952755906
 20
2.818551181102362
 10
-14.32882677165354
 20
2.816952755905512
 10
-14.3715905511811
 20
2.815759842519685
 10
-14.42462992125984
 20
2.816177165354331
 10
-14.48400393700787
 20
2.819397637795276
 10
-14.54577165354331
 20
2.826633858267717
 10
-14.60599212598425
 20
2.839086614173228
 10
-14.66072440944882
 20
2.857952755905512
 10
-14.68768503937008
 20
2.868712598425197
 10
-14.75981496062992
 20
2.89753937007874
 10
-14.864
 20
2.939275590551181
 10
-14.98711417322835
 20
2.988748031496063
 10
-15.11603937007874
 20
3.040795275590551
 10
-15.23765354330709
 20
3.090244094488189
 10
-15.33883858267717
 20
3.131929133858268
 10
-15.40646850393701
 20
3.160688976377953
 10
-15.41013779527559
 20
3.162137795275591
 10
-15.41974803149606
 20
3.166755905511811
 10
-15.43320078740157
 20
3.174968503937008
 10
-15.4483937007874
 20
3.187185039370079
 10
-15.46323228346457
 20
3.203826771653543
 10
-15.4756062992126
 20
3.225307086614173
 10
-15.48342913385827
 20
3.252043307086614
 10
-15.4845905511811
 20
3.284456692913386
  0
LWPOLYLINE
  5
65
330
1F
100
AcDbEntity
  8
Layer 1
 62
     7
370
    80
100
AcDbPolyline
 90
       20
 70
     0
 43
0.0
 10
-15.48571653543307
 20
3.284629921259842
 10
-15.47454330708661
 20
3.520318897637795
 10
-15.47450787401575
 20
3.523862204724409
 10
-15.46968503937008
 20
3.534381889763779
 10
-15.45300393700787
 20
3.551712598425197
 10
-15.4173937007874
 20
3.575685039370079
 10
-15.35577559055118
 20
3.606133858267717
 10
-15.26108661417323
 20
3.642893700787401
 10
-15.12624803149606
 20
3.685795275590551
 10
-14.94418897637795
 20
3.734673228346457
 10
-14.92515748031496
 20
3.740263779527559
 10
-14.87424409448819
 20
3.755212598425197
 10
-14.80070472440945
 20
3.776783464566929
 10
-14.71381102362205
 20
3.802232283464567
 10
-14.6228188976378
 20
3.828822834645669
 10
-14.53699606299213
 20
3.853818897637795
 10
-14.46560236220472
 20
3.874484251968504
 10
-14.41790157480315
 20
3.888074803149606
 10
-14.33865354330709
 20
3.864708661417323
 10
-14.34362598425197
 20
3.628622047244094
  0
LWPOLYLINE
  5
66
330
1F
100
AcDbEntity
  8
Layer 1
 62
     7
370
    80
100
AcDbPolyline
 90
       33
 70
     0
 43
0.0
 10
-14.33949212598425
 20
3.865594488188977
 10
-14.37348031496063
 20
3.856133858267717
 10
-14.46422440944882
 20
3.830779527559055
 10
-14.59491338582677
 20
3.794062992125984
 10
-14.74872440944882
 20
3.75051968503937
 10
-14.90883858267716
 20
3.704677165354331
 10
-15.05843700787402
 20
3.661074803149606
 10
-15.18070078740157
 20
3.624244094488189
 10
-15.25881102362205
 20
3.598716535433071
 10
-15.26701968503937
 20
3.596429133858268
 10
-15.28756692913386
 20
3.589716535433071
 10
-15.31434645669291
 20
3.578783464566929
 10
-15.34124015748031
 20
3.563846456692914
 10
-15.36213385826772
 20
3.545118110236221
 10
-15.37092125984252
 20
3.522811023622047
 10
-15.36148818897638
 20
3.497137795275591
 10
-15.32771653543307
 20
3.468311023622047
 10
-15.31187795275591
 20
3.458629921259842
 10
-15.2947874015748
 20
3.448791338582677
 10
-15.27679921259842
 20
3.43898031496063
 10
-15.25828346456693
 20
3.429393700787402
 10
-15.23959448818898
 20
3.420220472440945
 10
-15.22109842519685
 20
3.411649606299213
 10
-15.20315748031496
 20
3.403877952755905
 10
-15.18612992125984
 20
3.397090551181102
 10
-15.17262598425197
 20
3.392283464566929
 10
-15.15857086614173
 20
3.387952755905512
 10
-15.14408661417323
 20
3.384259842519685
 10
-15.12929133858268
 20
3.38136220472441
 10
-15.1143031496063
 20
3.379413385826772
 10
-15.09924015748032
 20
3.378574803149606
 10
-15.08422834645669
 20
3.378996062992126
 10
-15.06937795275591
 20
3.380842519685039
  0
LWPOLYLINE
  5
67
330
1F
100
AcDbEntity
  8
Layer 1
 62
     7
370
    20
100
AcDbPolyline
 90
       33
 70
     1
 43
0.0
 10
-14.45605118110236
 20
3.771334645669291
 10
-14.44095275590551
 20
3.76905905511811
 10
-14.42733858267717
 20
3.762531496062992
 10
-14.41546850393701
 20
3.752204724409449
 10
-14.40559842519685
 20
3.738523622047244
 10
-14.39799606299213
 20
3.721944881889764
 10
-14.39291338582677
 20
3.702917322834645
 10
-14.39061417322835
 20
3.681889763779528
 10
-14.39135826771654
 20
3.659314960629921
 10
-14.3951968503937
 20
3.636740157480315
 10
-14.40176377952756
 20
3.615712598425197
 10
-14.41070866141732
 20
3.596685039370079
 10
-14.42167716535433
 20
3.580110236220472
 10
-14.43432283464567
 20
3.566433070866142
 10
-14.4482874015748
 20
3.556106299212598
 10
-14.46322440944882
 20
3.549582677165354
 10
-14.47878346456693
 20
3.547307086614173
 10
-14.49388582677165
 20
3.549582677165354
 10
-14.5075
 20
3.556106299212598
 10
-14.51937401574803
 20
3.566433070866142
 10
-14.52924409448819
 20
3.580110236220472
 10
-14.53685039370079
 20
3.596685039370079
 10
-14.54192913385827
 20
3.615712598425197
 10
-14.54422440944882
 20
3.636740157480315
 10
-14.54347637795276
 20
3.659314960629921
 10
-14.53964173228346
 20
3.681889763779528
 10
-14.53307874015748
 20
3.702917322834645
 10
-14.52413779527559
 20
3.721944881889764
 10
-14.51316929133858
 20
3.738523622047244
 10
-14.50052362204724
 20
3.752204724409449
 10
-14.48655511811024
 20
3.762531496062992
 10
-14.47161417322835
 20
3.76905905511811
 10
-14.45605118110236
 20
3.771334645669291
  0
LWPOLYLINE
  5
68
330
1F
100
AcDbEntity
  8
Layer 1
 62
     7
370
    80
100
AcDbPolyline
 90
       17
 70
     0
 43
0.0
 10
-14.48374803149606
 20
3.763984251968504
 10
-14.48962204724409
 20
3.766515748031496
 10
-14.50552362204724
 20
3.772287401574803
 10
-14.52887401574803
 20
3.778574803149606
 10
-14.55709842519685
 20
3.782653543307087
 10
-14.58761417322835
 20
3.781795275590551
 10
-14.61784251968504
 20
3.773279527559055
 10
-14.64520472440945
 20
3.754377952755906
 10
-14.66712204724409
 20
3.722362204724409
 10
-14.66911811023622
 20
3.715862204724409
 10
-14.67254724409449
 20
3.698586614173228
 10
-14.67356692913386
 20
3.673877952755905
 10
-14.66834251968504
 20
3.645082677165354
 10
-14.65303149606299
 20
3.615543307086614
 10
-14.62379921259843
 20
3.58859842519685
 10
-14.57679921259843
 20
3.567594488188977
 10
-14.5081968503937
 20
3.555870078740158
  0
LWPOLYLINE
  5
69
330
1F
100
AcDbEntity
  8
Layer 1
 62
     7
370
    80
100
AcDbPolyline
 90
       17
 70
     0
 43
0.0
 10
-15.22096850393701
 20
3.413893700787402
 10
-15.221
 20
3.418311023622047
 10
-15.21996456692913
 20
3.430055118110236
 10
-15.21616535433071
 20
3.446881889763779
 10
-15.20790157480315
 20
3.466535433070866
 10
-15.19347637795276
 20
3.486759842519685
 10
-15.1711968503937
 20
3.505307086614173
 10
-15.13936220472441
 20
3.519925196850394
 10
-15.09627165354331
 20
3.528358267716535
 10
-15.09285039370079
 20
3.52646062992126
 10
-15.08436220472441
 20
3.520523622047244
 10
-15.0734842519685
 20
3.510185039370079
 10
-15.06288582677165
 20
3.495074803149606
 10
-15.05523622047244
 20
3.474826771653543
 10
-15.0532125984252
 20
3.44907874015748
 10
-15.05948031496063
 20
3.417464566929134
 10
-15.07671653543307
 20
3.37961811023622
  0
LWPOLYLINE
  5
6A
330
1F
100
AcDbEntity
  8
Layer 1
 62
     7
370
    80
100
AcDbPolyline
 90
       25
 70
     0
 43
0.0
 10
-15.1085
 20
3.527748031496063
 10
-15.11009842519685
 20
3.528629921259843
 10
-15.11466535433071
 20
3.530972440944882
 10
-15.12187795275591
 20
3.53434251968504
 10
-15.1313937007874
 20
3.538295275590551
 10
-15.14288582677165
 20
3.542385826771654
 10
-15.15602362204724
 20
3.546177165354331
 10
-15.17046850393701
 20
3.549224409448819
 10
-15.1858937007874
 20
3.551086614173228
 10
-15.20326771653543
 20
3.550594488188976
 10
-15.22273228346457
 20
3.546964566929134
 10
-15.24252755905512
 20
3.540326771653543
 10
-15.26088976377953
 20
3.530799212598425
 10
-15.27605511811024
 20
3.518511811023622
 10
-15.28625984251969
 20
3.503590551181103
 10
-15.28974409448819
 20
3.486149606299213
 10
-15.28474015748031
 20
3.466322834645669
 10
-15.28133464566929
 20
3.460086614173228
 10
-15.27681102362205
 20
3.453669291338583
 10
-15.27107480314961
 20
3.447078740157481
 10
-15.26403543307087
 20
3.440330708661417
 10
-15.25559448818898
 20
3.43344094488189
 10
-15.24566929133858
 20
3.426425196850394
 10
-15.23415748031496
 20
3.419291338582677
 10
-15.22096850393701
 20
3.41205905511811
  0
LWPOLYLINE
  5
6B
330
1F
100
AcDbEntity
  8
Layer 1
 62
     7
370
    80
100
AcDbPolyline
 90
        2
 70
     0
 43
0.0
 10
-15.59744094488189
 20
3.836216535433071
 10
-14.41895669291338
 20
4.181440944881889
  0
LWPOLYLINE
  5
6C
330
1F
100
AcDbEntity
  8
Layer 1
 62
     7
370
    18
100
AcDbPolyline
 90
        4
 70
     1
 43
0.0
 10
-16.06405511811024
 20
3.185
 10
-16.09468897637795
 20
3.186311023622047
 10
-16.07939763779527
 20
3.159732283464567
 10
-16.06405511811024
 20
3.185
  0
LWPOLYLINE
  5
6D
330
1F
100
AcDbEntity
  8
Layer 1
 62
     7
370
    18
100
AcDbPolyline
 90
        4
 70
     1
 43
0.0
 10
-14.68650787401575
 20
2.348456692913386
 10
-14.67121653543307
 20
2.321877952755905
 10
-14.70185039370079
 20
2.323192913385827
 10
-14.68650787401575
 20
2.348456692913386
  0
LWPOLYLINE
  5
6E
330
1F
100
AcDbEntity
  8
Layer 1
 62
     7
370
    18
100
AcDbPolyline
 90
        2
 70
     0
 43
0.0
 10
-16.10316535433071
 20
3.189614173228347
 10
-14.66438188976378
 20
2.315885826771654
  0
LWPOLYLINE
  5
6F
330
1F
100
AcDbEntity
  8
Layer 1
 62
     7
370
     9
100
AcDbPolyline
 90
        7
 70
     1
 43
0.0
 10
-16.20488976377953
 20
2.379082677165354
 10
-16.17925984251968
 20
2.379082677165354
 10
-16.17925984251968
 20
2.631047244094488
 10
-16.24074803149606
 20
2.624464566929134
 10
-16.24074803149606
 20
2.602114173228347
 10
-16.20488976377953
 20
2.602114173228347
 10
-16.20488976377953
 20
2.379082677165354
  0
LWPOLYLINE
  5
70
330
1F
100
AcDbEntity
  8
Layer 1
 62
     7
370
     9
100
AcDbPolyline
 90
        4
 70
     1
 43
0.0
 10
-16.00800787401575
 20
2.600275590551181
 10
-16.00800787401575
 20
2.456358267716535
 10
-16.10316535433071
 20
2.456358267716535
 10
-16.00800787401575
 20
2.600275590551181
  0
LWPOLYLINE
  5
71
330
1F
100
AcDbEntity
  8
Layer 1
 62
     7
370
     9
100
AcDbPolyline
 90
       11
 70
     1
 43
0.0
 10
-15.98129921259843
 20
2.429992125984252
 10
-15.94982677165354
 20
2.429992125984252
 10
-15.94982677165354
 20
2.456358267716535
 10
-15.98129921259843
 20
2.456358267716535
 10
-15.98166929133858
 20
2.628110236220472
 10
-16.0175157480315
 20
2.628110236220472
 10
-16.14854724409449
 20
2.429992125984252
 10
-16.00800787401575
 20
2.429992125984252
 10
-16.00800787401575
 20
2.379082677165354
 10
-15.98129921259843
 20
2.379082677165354
 10
-15.98129921259843
 20
2.429992125984252
  0
LWPOLYLINE
  5
72
330
1F
100
AcDbEntity
  8
Layer 1
 62
     7
370
     9
100
AcDbPolyline
 90
      120
 70
     1
 43
0.0
 10
-15.86711417322835
 20
2.535830708661417
 10
-15.85028346456693
 20
2.602488188976378
 10
-15.76025984251969
 20
2.602488188976378
 10
-15.76025984251969
 20
2.628110236220472
 10
-15.8696811023622
 20
2.628110236220472
 10
-15.89821653543307
 20
2.516417322834646
 10
-15.8704094488189
 20
2.50396062992126
 10
-15.86637401574803
 20
2.506708661417323
 10
-15.86214173228347
 20
2.509090551181103
 10
-15.85770472440945
 20
2.511106299212599
 10
-15.85307086614173
 20
2.512755905511811
 10
-15.84823622047244
 20
2.51403937007874
 10
-15.84320078740157
 20
2.514956692913386
 10
-15.83796456692913
 20
2.515503937007874
 10
-15.83253149606299
 20
2.515688976377953
 10
-15.82706299212598
 20
2.51542125984252
 10
-15.82177952755906
 20
2.514614173228346
 10
-15.8166811023622
 20
2.513267716535433
 10
-15.81176377952756
 20
2.511385826771654
 10
-15.80703149606299
 20
2.508964566929134
 10
-15.8024842519685
 20
2.506003937007874
 10
-15.79811417322835
 20
2.502507874015748
 10
-15.79392519685039
 20
2.498472440944882
 10
-15.7899842519685
 20
2.493976377952756
 10
-15.78656692913386
 20
2.489311023622047
 10
-15.78367322834646
 20
2.484476377952756
 10
-15.78130708661417
 20
2.47948031496063
 10
-15.77946456692913
 20
2.474314960629921
 10
-15.77814566929134
 20
2.468984251968504
 10
-15.77735826771653
 20
2.463488188976378
 10
-15.77709448818898
 20
2.457826771653543
 10
-15.77736220472441
 20
2.451968503937008
 10
-15.77816929133858
 20
2.446342519685039
 10
-15.7795157480315
 20
2.440956692913386
 10
-15.78139763779528
 20
2.435803149606299
 10
-15.78381496062992
 20
2.430881889763779
 10
-15.78677165354331
 20
2.426200787401575
 10
-15.79026377952756
 20
2.421751968503937
 10
-15.79429527559055
 20
2.417535433070866
 10
-15.79846850393701
 20
2.413889763779527
 10
-15.80294094488189
 20
2.410629921259842
 10
-15.80770866141732
 20
2.407751968503937
 10
-15.81277559055118
 20
2.405255905511811
 10
-15.81828346456693
 20
2.403259842519685
 10
-15.82438582677165
 20
2.401834645669291
 10
-15.8310905511811
 20
2.400976377952756
 10
-15.83838976377953
 20
2.400688976377953
 10
-15.8421811023622
 20
2.400850393700787
 10
-15.84596850393701
 20
2.401330708661417
 10
-15.84974803149606
 20
2.402129921259843
 10
-15.85352755905512
 20
2.403251968503937
 10
-15.85729921259843
 20
2.404692913385827
 10
-15.86106692913386
 20
2.406456692913386
 10
-15.86482677165354
 20
2.408543307086614
 10
-15.86858267716535
 20
2.410952755905512
 10
-15.87219291338583
 20
2.413614173228346
 10
-15.87553149606299
 20
2.416464566929134
 10
-15.87859448818898
 20
2.419511811023622
 10
-15.88138582677165
 20
2.422755905511811
 10
-15.88390157480315
 20
2.426192913385827
 10
-15.88614566929134
 20
2.429822834645669
 10
-15.88811417322835
 20
2.433649606299213
 10
-15.88980708661417
 20
2.437673228346457
 10
-15.91469291338583
 20
2.429622047244095
 10
-15.91224803149606
 20
2.423594488188976
 10
-15.90939763779528
 20
2.417870078740158
 10
-15.90614173228346
 20
2.412444881889764
 10
-15.90248031496063
 20
2.407326771653543
 10
-15.89841338582677
 20
2.402511811023622
 10
-15.89393700787402
 20
2.398
 10
-15.88905905511811
 20
2.393795275590551
 10
-15.88377165354331
 20
2.389893700787402
 10
-15.87814566929134
 20
2.386330708661417
 10
-15.87239763779528
 20
2.383240157480315
 10
-15.86652362204724
 20
2.380625984251969
 10
-15.86052362204724
 20
2.378492125984252
 10
-15.85440157480315
 20
2.376826771653543
 10
-15.84814960629921
 20
2.375641732283464
 10
-15.84177559055118
 20
2.374929133858268
 10
-15.83527559055118
 20
2.374692913385827
 10
-15.82661417322835
 20
2.375082677165354
 10
-15.81828346456693
 20
2.376259842519685
 10
-15.8102874015748
 20
2.378216535433071
 10
-15.80261811023622
 20
2.38096062992126
 10
-15.79528346456693
 20
2.384484251968504
 10
-15.78827952755906
 20
2.388795275590551
 10
-15.7816062992126
 20
2.393889763779528
 10
-15.77526771653543
 20
2.399771653543307
 10
-15.76952362204724
 20
2.406157480314961
 10
-15.76454330708661
 20
2.412854330708662
 10
-15.76033070866142
 20
2.419870078740157
 10
-15.75688188976378
 20
2.427196850393701
 10
-15.75420078740157
 20
2.434838582677165
 10
-15.75228346456693
 20
2.442795275590551
 10
-15.75113385826772
 20
2.451066929133858
 10
-15.75075196850394
 20
2.459649606299213
 10
-15.75112992125984
 20
2.468188976377953
 10
-15.75225984251968
 20
2.476370078740158
 10
-15.75414566929134
 20
2.484188976377953
 10
-15.75678346456693
 20
2.491649606299212
 10
-15.76018110236221
 20
2.498748031496063
 10
-15.76433070866142
 20
2.505488188976378
 10
-15.76923622047244
 20
2.511866141732284
 10
-15.77489763779528
 20
2.517885826771654
 10
-15.78079921259843
 20
2.523094488188976
 10
-15.78715748031496
 20
2.527728346456693
 10
-15.79397244094488
 20
2.531791338582677
 10
-15.80125196850394
 20
2.535279527559055
 10
-15.8050157480315
 20
2.536779527559055
 10
-15.8088188976378
 20
2.538082677165354
 10
-15.81264960629921
 20
2.539185039370079
 10
-15.8165157480315
 20
2.540082677165354
 10
-15.8204094488189
 20
2.540783464566929
 10
-15.82433858267717
 20
2.541283464566929
 10
-15.82829527559055
 20
2.541586614173228
 10
-15.83227952755906
 20
2.541685039370079
 10
-15.84049212598425
 20
2.541318897637795
 10
-15.84903543307087
 20
2.540220472440945
 10
-15.8579094488189
 20
2.538389763779528
 10
-15.86711417322835
 20
2.535830708661417
  0
LWPOLYLINE
  5
73
330
1F
100
AcDbEntity
  8
Layer 1
 62
     7
370
     9
100
AcDbPolyline
 90
      125
 70
     1
 43
0.0
 10
-15.4996968503937
 20
2.379811023622047
 10
-15.47408267716535
 20
2.379811023622047
 10
-15.47408267716535
 20
2.480531496062992
 10
-15.47429133858268
 20
2.487216535433071
 10
-15.47491732283465
 20
2.493586614173228
 10
-15.47596062992126
 20
2.499641732283465
 10
-15.47742125984252
 20
2.505385826771653
 10
-15.47929921259843
 20
2.510814960629921
 10
-15.48159842519685
 20
2.515929133858268
 10
-15.48431102362205
 20
2.520728346456693
 10
-15.48744488188976
 20
2.525212598425197
 10
-15.49104724409449
 20
2.529385826771653
 10
-15.49508267716535
 20
2.533125984251968
 10
-15.49955511811024
 20
2.536433070866142
 10
-15.50445669291339
 20
2.539299212598425
 10
-15.50712204724409
 20
2.540551181102362
 10
-15.50999606299213
 20
2.541633858267716
 10
-15.51307480314961
 20
2.542547244094488
 10
-15.51635826771654
 20
2.543295275590551
 10
-15.52353937007874
 20
2.544291338582677
 10
-15.53153937007874
 20
2.544622047244094
 10
-15.5356811023622
 20
2.544476377952756
 10
-15.53969291338583
 20
2.544047244094488
 10
-15.54357480314961
 20
2.543330708661417
 10
-15.54732283464567
 20
2.542326771653543
 10
-15.55094094488189
 20
2.541035433070866
 10
-15.55442913385827
 20
2.53946062992126
 10
-15.55778346456693
 20
2.53759842519685
 10
-15.56100787401575
 20
2.535456692913386
 10
-15.5638031496063
 20
2.533318897637795
 10
-15.56647244094488
 20
2.531023622047244
 10
-15.56901968503937
 20
2.528566929133858
 10
-15.57143700787402
 20
2.525956692913386
 10
-15.57590157480315
 20
2.520267716535433
 10
-15.57985826771653
 20
2.513972440944882
 10
-15.5866220472441
 20
2.525212598425197
 10
-15.59022834645669
 20
2.529385826771653
 10
-15.59426377952756
 20
2.533125984251968
 10
-15.59873622047244
 20
2.536433070866142
 10
-15.60364566929134
 20
2.539299212598425
 10
-15.60630708661417
 20
2.540551181102362
 10
-15.60917716535433
 20
2.541633858267716
 10
-15.61225196850394
 20
2.542547244094488
 10
-15.61553543307087
 20
2.543295275590551
 10
-15.62272047244094
 20
2.544291338582677
 10
-15.63072834645669
 20
2.544622047244094
 10
-15.63486614173228
 20
2.544476377952756
 10
-15.63887401574803
 20
2.544047244094488
 10
-15.64275196850394
 20
2.543330708661417
 10
-15.6465
 20
2.542326771653543
 10
-15.65011023622047
 20
2.541035433070866
 10
-15.65359448818898
 20
2.53946062992126
 10
-15.65694488188976
 20
2.53759842519685
 10
-15.66016535433071
 20
2.535456692913386
 10
-15.66538582677165
 20
2.531248031496063
 10
-15.67014566929134
 20
2.52648031496063
 10
-15.67444488188976
 20
2.521157480314961
 10
-15.67829133858268
 20
2.515259842519685
 10
-15.67829133858268
 20
2.540944881889764
 10
-15.70390157480315
 20
2.540944881889764
 10
-15.70390157480315
 20
2.379811023622047
 10
-15.67829133858268
 20
2.379811023622047
 10
-15.67829133858268
 20
2.462275590551181
 10
-15.67769291338583
 20
2.467078740157481
 10
-15.67691338582677
 20
2.471696850393701
 10
-15.67595275590551
 20
2.476129921259842
 10
-15.67480708661417
 20
2.480374015748032
 10
-15.67348031496063
 20
2.484437007874016
 10
-15.67197244094488
 20
2.488318897637795
 10
-15.67028346456693
 20
2.49201968503937
 10
-15.66841338582677
 20
2.49553937007874
 10
-15.66522834645669
 20
2.500437007874016
 10
-15.66154330708661
 20
2.504877952755905
 10
-15.65735433070866
 20
2.50886220472441
 10
-15.65266141732283
 20
2.51238188976378
 10
-15.65016929133858
 20
2.513929133858268
 10
-15.64763385826772
 20
2.515271653543307
 10
-15.64505118110236
 20
2.516405511811024
 10
-15.64242519685039
 20
2.517334645669291
 10
-15.63975196850394
 20
2.518055118110236
 10
-15.63703149606299
 20
2.518570866141732
 10
-15.63426377952756
 20
2.518881889763779
 10
-15.63145275590551
 20
2.518984251968504
 10
-15.62614566929134
 20
2.518763779527559
 10
-15.62157480314961
 20
2.518110236220473
 10
-15.61773228346457
 20
2.51701968503937
 10
-15.61462204724409
 20
2.515496062992126
 10
-15.61093307086614
 20
2.512771653543307
 10
-15.60774015748031
 20
2.509570866141732
 10
-15.60503543307087
 20
2.505905511811024
 10
-15.60282283464567
 20
2.501767716535433
 10
-15.60109842519685
 20
2.497161417322835
 10
-15.59987007874016
 20
2.492086614173228
 10
-15.59912992125984
 20
2.486543307086614
 10
-15.59888582677165
 20
2.480531496062992
 10
-15.59888582677165
 20
2.379811023622047
 10
-15.57327165354331
 20
2.379811023622047
 10
-15.57327165354331
 20
2.480531496062992
 10
-15.57344881889764
 20
2.486700787401575
 10
-15.56924015748032
 20
2.49553937007874
 10
-15.56606299212598
 20
2.500437007874016
 10
-15.56237795275591
 20
2.504877952755905
 10
-15.55819291338583
 20
2.50886220472441
 10
-15.55350393700787
 20
2.51238188976378
 10
-15.55101181102362
 20
2.513929133858268
 10
-15.54847244094488
 20
2.515271653543307
 10
-15.54588976377953
 20
2.516405511811024
 10
-15.54325984251969
 20
2.517334645669291
 10
-15.54058267716535
 20
2.518055118110236
 10
-15.53786220472441
 20
2.518570866141732
 10
-15.53509448818898
 20
2.518881889763779
 10
-15.53227952755906
 20
2.518984251968504
 10
-15.52697244094488
 20
2.518763779527559
 10
-15.5223937007874
 20
2.518110236220473
 10
-15.51855118110236
 20
2.51701968503937
 10
-15.51544881889764
 20
2.515496062992126
 10
-15.51175590551181
 20
2.512771653543307
 10
-15.50855511811024
 20
2.509570866141732
 10
-15.50585039370079
 20
2.505905511811024
 10
-15.50363385826772
 20
2.501767716535433
 10
-15.5019094488189
 20
2.497161417322835
 10
-15.5006811023622
 20
2.492086614173228
 10
-15.49994094488189
 20
2.486543307086614
 10
-15.4996968503937
 20
2.480531496062992
 10
-15.4996968503937
 20
2.379811023622047
  0
LWPOLYLINE
  5
74
330
1F
100
AcDbEntity
  8
Layer 1
 62
     7
370
     9
100
AcDbPolyline
 90
      125
 70
     1
 43
0.0
 10
-15.22047637795276
 20
2.379811023622047
 10
-15.19486220472441
 20
2.379811023622047
 10
-15.19486220472441
 20
2.480531496062992
 10
-15.19507086614173
 20
2.487216535433071
 10
-15.1956968503937
 20
2.493586614173228
 10
-15.19674015748032
 20
2.499641732283465
 10
-15.19820078740157
 20
2.505385826771653
 10
-15.20007874015748
 20
2.510814960629921
 10
-15.2023779527559
 20
2.515929133858268
 10
-15.2050905511811
 20
2.520728346456693
 10
-15.20822440944882
 20
2.525212598425197
 10
-15.21182677165354
 20
2.529385826771653
 10
-15.21586220472441
 20
2.533125984251968
 10
-15.22033464566929
 20
2.536433070866142
 10
-15.22523622047244
 20
2.539299212598425
 10
-15.22790157480315
 20
2.540551181102362
 10
-15.23077559055118
 20
2.541633858267716
 10
-15.23385433070866
 20
2.542547244094488
 10
-15.23713779527559
 20
2.543295275590551
 10
-15.2443188976378
 20
2.544291338582677
 10
-15.2523188976378
 20
2.544622047244094
 10
-15.25646062992126
 20
2.544476377952756
 10
-15.26047244094488
 20
2.544047244094488
 10
-15.26435433070866
 20
2.543330708661417
 10
-15.26810236220472
 20
2.542326771653543
 10
-15.27172047244095
 20
2.541035433070866
 10
-15.27520866141732
 20
2.53946062992126
 10
-15.27856299212598
 20
2.53759842519685
 10
-15.2817874015748
 20
2.535456692913386
 10
-15.28457874015748
 20
2.533318897637795
 10
-15.28724409448819
 20
2.531023622047244
 10
-15.2897874015748
 20
2.528566929133858
 10
-15.29220472440945
 20
2.525956692913386
 10
-15.29666535433071
 20
2.520267716535433
 10
-15.30062204724409
 20
2.513972440944882
 10
-15.30738582677165
 20
2.525212598425197
 10
-15.31099212598425
 20
2.529385826771653
 10
-15.31503149606299
 20
2.533125984251968
 10
-15.31950393700787
 20
2.536433070866142
 10
-15.3244094488189
 20
2.539299212598425
 10
-15.32707086614173
 20
2.540551181102362
 10
-15.32994094488189
 20
2.541633858267716
 10
-15.3330157480315
 20
2.542547244094488
 10
-15.33629921259842
 20
2.543295275590551
 10
-15.3434842519685
 20
2.544291338582677
 10
-15.35149212598425
 20
2.544622047244094
 10
-15.35563779527559
 20
2.544476377952756
 10
-15.35964960629921
 20
2.544047244094488
 10
-15.36352755905512
 20
2.543330708661417
 10
-15.36727559055118
 20
2.542326771653543
 10
-15.37088976377953
 20
2.541035433070866
 10
-15.37437401574803
 20
2.53946062992126
 10
-15.37772440944882
 20
2.53759842519685
 10
-15.38094488188976
 20
2.535456692913386
 10
-15.38616535433071
 20
2.531248031496063
 10
-15.39092519685039
 20
2.52648031496063
 10
-15.39522440944882
 20
2.521157480314961
 10
-15.39907086614173
 20
2.515259842519685
 10
-15.39907086614173
 20
2.540944881889764
 10
-15.42468110236221
 20
2.540944881889764
 10
-15.42468110236221
 20
2.379811023622047
 10
-15.39907086614173
 20
2.379811023622047
 10
-15.39907086614173
 20
2.462275590551181
 10
-15.39847244094488
 20
2.467078740157481
 10
-15.39769291338583
 20
2.471696850393701
 10
-15.39673228346457
 20
2.476129921259842
 10
-15.39558661417323
 20
2.480374015748032
 10
-15.39425984251968
 20
2.484437007874016
 10
-15.39275196850394
 20
2.488318897637795
 10
-15.39106299212598
 20
2.49201968503937
 10
-15.38919291338583
 20
2.49553937007874
 10
-15.38600787401575
 20
2.500437007874016
 10
-15.38232283464567
 20
2.504877952755905
 10
-15.37813385826772
 20
2.50886220472441
 10
-15.37344094488189
 20
2.51238188976378
 10
-15.37094881889764
 20
2.513929133858268
 10
-15.36841338582677
 20
2.515271653543307
 10
-15.36582677165354
 20
2.516405511811024
 10
-15.3631968503937
 20
2.517334645669291
 10
-15.36052362204724
 20
2.518055118110236
 10
-15.35779921259843
 20
2.518570866141732
 10
-15.35503543307087
 20
2.518881889763779
 10
-15.35222047244094
 20
2.518984251968504
 10
-15.34691338582677
 20
2.518763779527559
 10
-15.34233858267716
 20
2.518110236220473
 10
-15.33849606299213
 20
2.51701968503937
 10
-15.33538582677165
 20
2.515496062992126
 10
-15.33170078740157
 20
2.512771653543307
 10
-15.32850393700787
 20
2.509570866141732
 10
-15.32579921259843
 20
2.505905511811024
 10
-15.32358661417323
 20
2.501767716535433
 10
-15.32186614173228
 20
2.497161417322835
 10
-15.32063385826772
 20
2.492086614173228
 10
-15.31989763779528
 20
2.486543307086614
 10
-15.31964960629921
 20
2.480531496062992
 10
-15.31964960629921
 20
2.379811023622047
 10
-15.29403543307087
 20
2.379811023622047
 10
-15.29403543307087
 20
2.480531496062992
 10
-15.29421653543307
 20
2.486700787401575
 10
-15.29000393700787
 20
2.49553937007874
 10
-15.28682677165354
 20
2.500437007874016
 10
-15.28314960629921
 20
2.504877952755905
 10
-15.27896850393701
 20
2.50886220472441
 10
-15.27428346456693
 20
2.51238188976378
 10
-15.27179133858268
 20
2.513929133858268
 10
-15.26925196850394
 20
2.515271653543307
 10
-15.26666929133858
 20
2.516405511811024
 10
-15.26403937007874
 20
2.517334645669291
 10
-15.26136220472441
 20
2.518055118110236
 10
-15.25864173228346
 20
2.518570866141732
 10
-15.25587401574803
 20
2.518881889763779
 10
-15.25305905511811
 20
2.518984251968504
 10
-15.24775196850394
 20
2.518763779527559
 10
-15.24317322834646
 20
2.518110236220473
 10
-15.23933070866142
 20
2.51701968503937
 10
-15.23622834645669
 20
2.515496062992126
 10
-15.23253543307087
 20
2.512771653543307
 10
-15.22933464566929
 20
2.509570866141732
 10
-15.22662992125984
 20
2.505905511811024
 10
-15.22441338582677
 20
2.501767716535433
 10
-15.22268897637795
 20
2.497161417322835
 10
-15.22146062992126
 20
2.492086614173228
 10
-15.22072047244095
 20
2.486543307086614
 10
-15.22047637795276
 20
2.480531496062992
 10
-15.22047637795276
 20
2.379811023622047
  0
LWPOLYLINE
  5
75
330
1F
100
AcDbEntity
  8
Layer 1
 62
     7
370
    18
100
AcDbPolyline
 90
        4
 70
     1
 43
0.0
 10
-14.3915905511811
 20
2.379661417322835
 10
-14.41122047244095
 20
2.356106299212598
 10
-14.38081496062992
 20
2.352137795275591
 10
-14.3915905511811
 20
2.379661417322835
  0
LWPOLYLINE
  5
76
330
1F
100
AcDbEntity
  8
Layer 1
 62
     7
370
    18
100
AcDbPolyline
 90
        4
 70
     1
 43
0.0
 10
-11.43942519685039
 20
3.535338582677165
 10
-11.40901968503937
 20
3.531370078740157
 10
-11.42864960629921
 20
3.507814960629921
 10
-11.43942519685039
 20
3.535338582677165
  0
LWPOLYLINE
  5
77
330
1F
100
AcDbEntity
  8
Layer 1
 62
     7
370
    18
100
AcDbPolyline
 90
        2
 70
     0
 43
0.0
 10
-14.41898818897638
 20
2.351374015748032
 10
-11.4001062992126
 20
3.533169291338583
  0
LWPOLYLINE
  5
78
330
1F
100
AcDbEntity
  8
Layer 1
 62
     7
370
     9
100
AcDbPolyline
 90
        7
 70
     1
 43
0.0
 10
-12.99324015748032
 20
2.444362204724409
 10
-12.96761023622047
 20
2.444362204724409
 10
-12.96761023622047
 20
2.696326771653543
 10
-13.02909842519685
 20
2.689744094488189
 10
-13.02909842519685
 20
2.667393700787402
 10
-12.99324015748032
 20
2.667393700787402
 10
-12.99324015748032
 20
2.444362204724409
  0
LWPOLYLINE
  5
79
330
1F
100
AcDbEntity
  8
Layer 1
 62
     7
370
     9
100
AcDbPolyline
 90
        4
 70
     1
 43
0.0
 10
-12.79635826771653
 20
2.665555118110236
 10
-12.79635826771653
 20
2.52163779527559
 10
-12.89151181102362
 20
2.52163779527559
 10
-12.79635826771653
 20
2.665555118110236
  0
LWPOLYLINE
  5
7A
330
1F
100
AcDbEntity
  8
Layer 1
 62
     7
370
     9
100
AcDbPolyline
 90
       11
 70
     1
 43
0.0
 10
-12.76964960629921
 20
2.495271653543307
 10
-12.73817716535433
 20
2.495271653543307
 10
-12.73817716535433
 20
2.52163779527559
 10
-12.76964960629921
 20
2.52163779527559
 10
-12.77001968503937
 20
2.693389763779527
 10
-12.80586614173228
 20
2.693389763779527
 10
-12.93689763779528
 20
2.495271653543307
 10
-12.79635826771653
 20
2.495271653543307
 10
-12.79635826771653
 20
2.444362204724409
 10
-12.76964960629921
 20
2.444362204724409
 10
-12.76964960629921
 20
2.495271653543307
  0
LWPOLYLINE
  5
7B
330
1F
100
AcDbEntity
  8
Layer 1
 62
     7
370
     9
100
AcDbPolyline
 90
       65
 70
     1
 43
0.0
 10
-12.62783464566929
 20
2.557523622047244
 10
-12.63367322834646
 20
2.557791338582677
 10
-12.63929133858268
 20
2.558598425196851
 10
-12.6446968503937
 20
2.559944881889764
 10
-12.64988188976378
 20
2.561826771653543
 10
-12.65485039370079
 20
2.564248031496063
 10
-12.65960236220472
 20
2.567208661417323
 10
-12.66413779527559
 20
2.570704724409449
 10
-12.66845669291339
 20
2.574740157480315
 10
-12.67235826771654
 20
2.57909842519685
 10
-12.67574015748031
 20
2.583661417322835
 10
-12.67860236220472
 20
2.588433070866142
 10
-12.68094488188976
 20
2.593413385826772
 10
-12.68276771653543
 20
2.598598425196851
 10
-12.68407086614173
 20
2.603988188976378
 10
-12.68485433070866
 20
2.609586614173228
 10
-12.68511417322835
 20
2.615389763779528
 10
-12.68485039370079
 20
2.621062992125984
 10
-12.68405905511811
 20
2.62653937007874
 10
-12.68274409448819
 20
2.631818897637795
 10
-12.68090157480315
 20
2.636905511811024
 10
-12.67853543307087
 20
2.641795275590551
 10
-12.67564173228346
 20
2.646492125984252
 10
-12.67222047244094
 20
2.650996062992126
 10
-12.66827952755905
 20
2.655307086614173
 10
-12.66403937007874
 20
2.659169291338582
 10
-12.65955905511811
 20
2.66251968503937
 10
-12.65483858267716
 20
2.665350393700787
 10
-12.64988188976378
 20
2.667669291338583
 10
-12.6446811023622
 20
2.669468503937008
 10
-12.63924015748031
 20
2.670755905511811
 10
-12.63356299212598
 20
2.671527559055118
 10
-12.62764173228346
 20
2.671783464566929
 10
-12.62183858267717
 20
2.67151968503937
 10
-12.61623228346457
 20
2.670720472440945
 10
-12.6108188976378
 20
2.669393700787402
 10
-12.60560236220472
 20
2.667531496062992
 10
-12.60058267716535
 20
2.66513779527559
 10
-12.59575590551181
 20
2.662212598425197
 10
-12.5911220472441
 20
2.658751968503937
 10
-12.5866811023622
 20
2.654759842519685
 10
-12.58264566929134
 20
2.65044094488189
 10
-12.57914960629921
 20
2.645909448818898
 10
-12.57619291338583
 20
2.641169291338583
 10
-12.57377559055118
 20
2.636216535433071
 10
-12.5718937007874
 20
2.631051181102362
 10
-12.57055118110236
 20
2.625677165354331
 10
-12.56974409448819
 20
2.620090551181102
 10
-12.56947637795276
 20
2.614291338582677
 10
-12.56974803149606
 20
2.608661417322835
 10
-12.57056299212598
 20
2.603212598425197
 10
-12.57191732283465
 20
2.597944881889764
 10
-12.57381889763779
 20
2.59286220472441
 10
-12.57625984251968
 20
2.587964566929134
 10
-12.57924803149606
 20
2.583248031496063
 10
-12.58277952755905
 20
2.578716535433071
 10
-12.58685826771653
 20
2.574370078740158
 10
-12.59096456692913
 20
2.570716535433071
 10
-12.59541338582677
 20
2.567452755905512
 10
-12.6001968503937
 20
2.564582677165354
 10
-12.60532283464567
 20
2.562106299212598
 10
-12.61070866141732
 20
2.560102362204725
 10
-12.61625590551181
 20
2.558669291338583
 10
-12.62196456692913
 20
2.557811023622047
 10
-12.62783464566929
 20
2.557523622047244
  0
LWPOLYLINE
  5
7C
330
1F
100
AcDbEntity
  8
Layer 1
 62
     7
370
     9
100
AcDbPolyline
 90
       65
 70
     1
 43
0.0
 10
-12.71109448818898
 20
2.613562992125984
 10
-12.71069291338583
 20
2.604744094488189
 10
-12.70949212598425
 20
2.596326771653543
 10
-12.70749212598425
 20
2.588311023622047
 10
-12.70468897637795
 20
2.580696850393701
 10
-12.70108661417323
 20
2.57348031496063
 10
-12.6966811023622
 20
2.566665354330709
 10
-12.69147637795276
 20
2.560248031496063
 10
-12.68546850393701
 20
2.554232283464567
 10
-12.67933070866142
 20
2.549165354330709
 10
-12.67276377952756
 20
2.544724409448819
 10
-12.66576771653543
 20
2.540905511811024
 10
-12.65834251968504
 20
2.537708661417323
 10
-12.6504842519685
 20
2.535133858267717
 10
-12.64220078740157
 20
2.533185039370079
 10
-12.63349212598425
 20
2.531858267716535
 10
-12.62435039370079
 20
2.531157480314961
 10
-12.61703937007874
 20
2.535917322834646
 10
-12.69316535433071
 20
2.444362204724409
 10
-12.6594842519685
 20
2.444362204724409
 10
-12.56214960629921
 20
2.561913385826772
 10
-12.55777559055118
 20
2.567641732283465
 10
-12.5539842519685
 20
2.573602362204725
 10
-12.55077952755905
 20
2.579799212598425
 10
-12.54815748031496
 20
2.586228346456693
 10
-12.54611417322835
 20
2.592893700787402
 10
-12.54465748031496
 20
2.599791338582677
 10
-12.54378346456693
 20
2.606925196850394
 10
-12.54349212598425
 20
2.614291338582677
 10
-12.54387401574803
 20
2.622779527559055
 10
-12.54502362204724
 20
2.630944881889764
 10
-12.54694094488189
 20
2.638779527559055
 10
-12.54962204724409
 20
2.646291338582677
 10
-12.55307086614173
 20
2.653476377952756
 10
-12.55728346456693
 20
2.660334645669291
 10
-12.56226377952756
 20
2.666866141732283
 10
-12.56800787401575
 20
2.673074803149606
 10
-12.57433464566929
 20
2.678783464566929
 10
-12.58097244094488
 20
2.683728346456693
 10
-12.58792125984252
 20
2.687913385826772
 10
-12.59517716535433
 20
2.691338582677165
 10
-12.60274409448819
 20
2.694
 10
-12.61061811023622
 20
2.695905511811024
 10
-12.61879921259843
 20
2.697043307086614
 10
-12.6272874015748
 20
2.697425196850394
 10
-12.63589763779528
 20
2.697047244094488
 10
-12.64416535433071
 20
2.695913385826772
 10
-12.6520905511811
 20
2.694027559055118
 10
-12.65967322834646
 20
2.691381889763779
 10
-12.66691338582677
 20
2.687984251968504
 10
-12.67381102362205
 20
2.683830708661417
 10
-12.68036220472441
 20
2.678917322834645
 10
-12.68656692913386
 20
2.673251968503937
 10
-12.69194094488189
 20
2.667350393700787
 10
-12.69672440944882
 20
2.660984251968504
 10
-12.70091338582677
 20
2.654165354330709
 10
-12.70451181102362
 20
2.646885826771654
 10
-12.70605511811024
 20
2.643082677165354
 10
-12.7073937007874
 20
2.639173228346457
 10
-12.70852362204724
 20
2.635157480314961
 10
-12.70944881889764
 20
2.631043307086614
 10
-12.71016929133858
 20
2.626826771653543
 10
-12.71068503937008
 20
2.622507874015748
 10
-12.71099212598425
 20
2.618086614173228
 10
-12.71109448818898
 20
2.613562992125984
  0
LWPOLYLINE
  5
7D
330
1F
100
AcDbEntity
  8
Layer 1
 62
     7
370
     9
100
AcDbPolyline
 90
      125
 70
     1
 43
0.0
 10
-12.30194094488189
 20
2.445086614173228
 10
-12.27633070866142
 20
2.445086614173228
 10
-12.27633070866142
 20
2.545811023622047
 10
-12.27653937007874
 20
2.552492125984252
 10
-12.27716535433071
 20
2.558862204724409
 10
-12.27820866141732
 20
2.56492125984252
 10
-12.27966929133858
 20
2.570661417322835
 10
-12.28154724409449
 20
2.576090551181102
 10
-12.28384645669291
 20
2.581204724409449
 10
-12.28655905511811
 20
2.586003937007874
 10
-12.28969291338583
 20
2.590488188976378
 10
-12.29329527559055
 20
2.594665354330709
 10
-12.29733070866142
 20
2.598405511811023
 10
-12.3018031496063
 20
2.601712598425197
 10
-12.30670472440945
 20
2.60457874015748
 10
-12.30937007874016
 20
2.605830708661417
 10
-12.31224409448819
 20
2.606913385826771
 10
-12.31531889763779
 20
2.607826771653543
 10
-12.31860236220473
 20
2.608574803149606
 10
-12.32578346456693
 20
2.609570866141732
 10
-12.33378346456693
 20
2.60990157480315
 10
-12.33792913385827
 20
2.609755905511811
 10
-12.34194094488189
 20
2.609326771653543
 10
-12.34582283464567
 20
2.608610236220473
 10
-12.34957086614173
 20
2.607606299212598
 10
-12.35318897637795
 20
2.606314960629921
 10
-12.35667322834646
 20
2.604740157480315
 10
-12.36002755905512
 20
2.602877952755906
 10
-12.36325196850394
 20
2.600736220472441
 10
-12.36604724409449
 20
2.598598425196851
 10
-12.36872047244094
 20
2.596303149606299
 10
-12.37126771653543
 20
2.593846456692913
 10
-12.37368503937008
 20
2.591232283464567
 10
-12.37814566929134
 20
2.585543307086614
 10
-12.38210236220472
 20
2.579248031496063
 10
-12.38886614173228
 20
2.590488188976378
 10
-12.39247244094488
 20
2.594665354330709
 10
-12.39651181102362
 20
2.598405511811023
 10
-12.4009842519685
 20
2.601712598425197
 10
-12.4058937007874
 20
2.60457874015748
 10
-12.40855511811024
 20
2.605830708661417
 10
-12.41142125984252
 20
2.606913385826771
 10
-12.41449606299213
 20
2.607826771653543
 10
-12.41777952755906
 20
2.608574803149606
 10
-12.42495669291339
 20
2.609570866141732
 10
-12.43295669291339
 20
2.60990157480315
 10
-12.43710236220472
 20
2.609755905511811
 10
-12.44111417322835
 20
2.609326771653543
 10
-12.44499212598425
 20
2.608610236220473
 10
-12.44874409448819
 20
2.607606299212598
 10
-12.45235826771654
 20
2.606314960629921
 10
-12.45584251968504
 20
2.604740157480315
 10
-12.45919291338583
 20
2.602877952755906
 10
-12.46241338582677
 20
2.600736220472441
 10
-12.46763385826772
 20
2.596527559055118
 10
-12.4723937007874
 20
2.591759842519685
 10
-12.47669291338583
 20
2.586437007874016
 10
-12.48053543307087
 20
2.58053937007874
 10
-12.48053543307087
 20
2.606224409448819
 10
-12.50614960629921
 20
2.606224409448819
 10
-12.50614960629921
 20
2.445086614173228
 10
-12.48053543307087
 20
2.445086614173228
 10
-12.48053543307087
 20
2.527555118110236
 10
-12.47993700787402
 20
2.532358267716535
 10
-12.47915748031496
 20
2.536976377952756
 10
-12.4781968503937
 20
2.541405511811023
 10
-12.47705511811024
 20
2.545653543307087
 10
-12.47572834645669
 20
2.549716535433071
 10
-12.47422047244094
 20
2.553594488188976
 10
-12.47253149606299
 20
2.557295275590551
 10
-12.47065748031496
 20
2.560814960629921
 10
-12.46747244094488
 20
2.565716535433071
 10
-12.46379133858268
 20
2.570157480314961
 10
-12.45960236220473
 20
2.574137795275591
 10
-12.4549094488189
 20
2.577661417322834
 10
-12.45241732283464
 20
2.579208661417323
 10
-12.44987795275591
 20
2.580551181102362
 10
-12.44729527559055
 20
2.581685039370079
 10
-12.44466535433071
 20
2.582614173228346
 10
-12.44198818897638
 20
2.583334645669291
 10
-12.43926771653543
 20
2.583846456692914
 10
-12.4365
 20
2.584157480314961
 10
-12.43368503937008
 20
2.584259842519685
 10
-12.42838976377953
 20
2.58403937007874
 10
-12.4238188976378
 20
2.583385826771654
 10
-12.41998031496063
 20
2.582295275590551
 10
-12.41686614173228
 20
2.580775590551181
 10
-12.4131811023622
 20
2.578047244094488
 10
-12.4099842519685
 20
2.574850393700788
 10
-12.40727952755906
 20
2.571185039370079
 10
-12.40506692913386
 20
2.567047244094488
 10
-12.40334645669291
 20
2.56244094488189
 10
-12.40211417322835
 20
2.557366141732283
 10
-12.40137795275591
 20
2.55182283464567
 10
-12.40112992125984
 20
2.545811023622047
 10
-12.40112992125984
 20
2.445086614173228
 10
-12.37551968503937
 20
2.445086614173228
 10
-12.37551968503937
 20
2.545811023622047
 10
-12.3756968503937
 20
2.551976377952756
 10
-12.3714842519685
 20
2.560814960629921
 10
-12.36830708661417
 20
2.565716535433071
 10
-12.36462204724409
 20
2.570157480314961
 10
-12.36043700787402
 20
2.574137795275591
 10
-12.35574803149606
 20
2.577661417322834
 10
-12.35325590551181
 20
2.579208661417323
 10
-12.35072047244094
 20
2.580551181102362
 10
-12.34813385826772
 20
2.581685039370079
 10
-12.34550393700787
 20
2.582614173228346
 10
-12.34283070866142
 20
2.583334645669291
 10
-12.3401062992126
 20
2.583846456692914
 10
-12.33734251968504
 20
2.584157480314961
 10
-12.33452755905512
 20
2.584259842519685
 10
-12.32921653543307
 20
2.58403937007874
 10
-12.32464173228346
 20
2.583385826771654
 10
-12.32079921259843
 20
2.582295275590551
 10
-12.31769291338583
 20
2.580775590551181
 10
-12.314
 20
2.578047244094488
 10
-12.3108031496063
 20
2.574850393700788
 10
-12.30809448818898
 20
2.571185039370079
 10
-12.30587795275591
 20
2.567047244094488
 10
-12.30415748031496
 20
2.56244094488189
 10
-12.30292519685039
 20
2.557366141732283
 10
-12.30218897637795
 20
2.55182283464567
 10
-12.30194094488189
 20
2.545811023622047
 10
-12.30194094488189
 20
2.445086614173228
  0
LWPOLYLINE
  5
7E
330
1F
100
AcDbEntity
  8
Layer 1
 62
     7
370
     9
100
AcDbPolyline
 90
      125
 70
     1
 43
0.0
 10
-12.02272047244094
 20
2.445086614173228
 10
-11.99711023622047
 20
2.445086614173228
 10
-11.99711023622047
 20
2.545811023622047
 10
-11.9973188976378
 20
2.552492125984252
 10
-11.99794488188976
 20
2.558862204724409
 10
-11.99898818897638
 20
2.56492125984252
 10
-12.00044881889764
 20
2.570661417322835
 10
-12.00232677165354
 20
2.576090551181102
 10
-12.00462598425197
 20
2.581204724409449
 10
-12.00733858267717
 20
2.586003937007874
 10
-12.01047244094488
 20
2.590488188976378
 10
-12.01407480314961
 20
2.594665354330709
 10
-12.01811023622047
 20
2.598405511811023
 10
-12.02258267716535
 20
2.601712598425197
 10
-12.0274842519685
 20
2.60457874015748
 10
-12.03014960629921
 20
2.605830708661417
 10
-12.03302362204724
 20
2.606913385826771
 10
-12.03609842519685
 20
2.607826771653543
 10
-12.03938188976378
 20
2.608574803149606
 10
-12.04656299212598
 20
2.609570866141732
 10
-12.05456299212598
 20
2.60990157480315
 10
-12.05870866141732
 20
2.609755905511811
 10
-12.06271653543307
 20
2.609326771653543
 10
-12.06659448818898
 20
2.608610236220473
 10
-12.07034251968504
 20
2.607606299212598
 10
-12.07395669291339
 20
2.606314960629921
 10
-12.07744094488189
 20
2.604740157480315
 10
-12.08079527559055
 20
2.602877952755906
 10
-12.08401968503937
 20
2.600736220472441
 10
-12.08681496062992
 20
2.598598425196851
 10
-12.0894842519685
 20
2.596303149606299
 10
-12.09203149606299
 20
2.593846456692913
 10
-12.09444881889764
 20
2.591232283464567
 10
-12.09891338582677
 20
2.585543307086614
 10
-12.10287007874016
 20
2.579248031496063
 10
-12.10962992125984
 20
2.590488188976378
 10
-12.11323622047244
 20
2.594665354330709
 10
-12.11727559055118
 20
2.598405511811023
 10
-12.12174803149606
 20
2.601712598425197
 10
-12.12665748031496
 20
2.60457874015748
 10
-12.12931889763779
 20
2.605830708661417
 10
-12.13218897637795
 20
2.606913385826771
 10
-12.13526377952756
 20
2.607826771653543
 10
-12.13854724409449
 20
2.608574803149606
 10
-12.14572834645669
 20
2.609570866141732
 10
-12.15373622047244
 20
2.60990157480315
 10
-12.15788188976378
 20
2.609755905511811
 10
-12.1618937007874
 20
2.609326771653543
 10
-12.16577165354331
 20
2.608610236220473
 10
-12.16952362204724
 20
2.607606299212598
 10
-12.17313779527559
 20
2.606314960629921
 10
-12.17662204724409
 20
2.604740157480315
 10
-12.17997244094488
 20
2.602877952755906
 10
-12.18319291338583
 20
2.600736220472441
 10
-12.18841338582677
 20
2.596527559055118
 10
-12.19317322834646
 20
2.591759842519685
 10
-12.19747244094488
 20
2.586437007874016
 10
-12.20131496062992
 20
2.58053937007874
 10
-12.20131496062992
 20
2.606224409448819
 10
-12.22692913385827
 20
2.606224409448819
 10
-12.22692913385827
 20
2.445086614173228
 10
-12.20131496062992
 20
2.445086614173228
 10
-12.20131496062992
 20
2.527555118110236
 10
-12.20071653543307
 20
2.532358267716535
 10
-12.19993700787402
 20
2.536976377952756
 10
-12.19897637795276
 20
2.541405511811023
 10
-12.19783464566929
 20
2.545653543307087
 10
-12.19650787401575
 20
2.549716535433071
 10
-12.195
 20
2.553594488188976
 10
-12.19331102362205
 20
2.557295275590551
 10
-12.19143700787402
 20
2.560814960629921
 10
-12.18825196850394
 20
2.565716535433071
 10
-12.18457086614173
 20
2.570157480314961
 10
-12.18038188976378
 20
2.574137795275591
 10
-12.17568897637795
 20
2.577661417322834
 10
-12.1731968503937
 20
2.579208661417323
 10
-12.17065748031496
 20
2.580551181102362
 10
-12.16807480314961
 20
2.581685039370079
 10
-12.16544488188976
 20
2.582614173228346
 10
-12.16276771653543
 20
2.583334645669291
 10
-12.16004724409449
 20
2.583846456692914
 10
-12.15727952755906
 20
2.584157480314961
 10
-12.15446456692913
 20
2.584259842519685
 10
-12.14915748031496
 20
2.58403937007874
 10
-12.14458661417323
 20
2.583385826771654
 10
-12.14074409448819
 20
2.582295275590551
 10
-12.13762992125984
 20
2.580775590551181
 10
-12.13394488188976
 20
2.578047244094488
 10
-12.13074803149606
 20
2.574850393700788
 10
-12.12804330708661
 20
2.571185039370079
 10
-12.12583070866142
 20
2.567047244094488
 10
-12.12411023622047
 20
2.56244094488189
 10
-12.12288188976378
 20
2.557366141732283
 10
-12.12214173228347
 20
2.55182283464567
 10
-12.12189763779527
 20
2.545811023622047
 10
-12.12189763779527
 20
2.445086614173228
 10
-12.09628346456693
 20
2.445086614173228
 10
-12.09628346456693
 20
2.545811023622047
 10
-12.09646062992126
 20
2.551976377952756
 10
-12.09224803149606
 20
2.560814960629921
 10
-12.08907086614173
 20
2.565716535433071
 10
-12.08538976377953
 20
2.570157480314961
 10
-12.08120078740157
 20
2.574137795275591
 10
-12.07651181102362
 20
2.577661417322834
 10
-12.07402362204724
 20
2.579208661417323
 10
-12.07149212598425
 20
2.580551181102362
 10
-12.0689094488189
 20
2.581685039370079
 10
-12.06628346456693
 20
2.582614173228346
 10
-12.06361023622047
 20
2.583334645669291
 10
-12.06088582677165
 20
2.583846456692914
 10
-12.05812204724409
 20
2.584157480314961
 10
-12.05530708661417
 20
2.584259842519685
 10
-12.04999606299213
 20
2.58403937007874
 10
-12.04542125984252
 20
2.583385826771654
 10
-12.04157874015748
 20
2.582295275590551
 10
-12.03847244094488
 20
2.580775590551181
 10
-12.03477952755905
 20
2.578047244094488
 10
-12.03158267716536
 20
2.574850393700788
 10
-12.02887401574803
 20
2.571185039370079
 10
-12.02665748031496
 20
2.567047244094488
 10
-12.02493700787402
 20
2.56244094488189
 10
-12.02370472440945
 20
2.557366141732283
 10
-12.02296850393701
 20
2.55182283464567
 10
-12.02272047244094
 20
2.545811023622047
 10
-12.02272047244094
 20
2.445086614173228
  0
LWPOLYLINE
  5
7F
330
1F
100
AcDbEntity
  8
Layer 1
 62
     7
370
    18
100
AcDbPolyline
 90
        4
 70
     1
 43
0.0
 10
-11.48230708661417
 20
5.232433070866142
 10
-11.49644094488189
 20
5.259645669291339
 10
-11.51185826771654
 20
5.23313779527559
 10
-11.48230708661417
 20
5.232433070866142
  0
LWPOLYLINE
  5
80
330
1F
100
AcDbEntity
  8
Layer 1
 62
     7
370
    18
100
AcDbPolyline
 90
        4
 70
     1
 43
0.0
 10
-11.51795669291339
 20
3.738767716535433
 10
-11.53337401574803
 20
3.712259842519685
 10
-11.54750787401575
 20
3.739472440944882
 10
-11.51795669291339
 20
3.738767716535433
  0
LWPOLYLINE
  5
81
330
1F
100
AcDbEntity
  8
Layer 1
 62
     7
370
    18
100
AcDbPolyline
 90
        2
 70
     0
 43
0.0
 10
-11.49780708661417
 20
5.26863779527559
 10
-11.53516535433071
 20
3.703346456692914
  0
LWPOLYLINE
  5
82
330
1F
100
AcDbEntity
  8
Layer 1
 62
     7
370
     9
100
AcDbPolyline
 90
        7
 70
     1
 43
0.0
 10
-12.48720866141732
 20
4.901996062992126
 10
-12.3778031496063
 20
5.149929133858268
 10
-12.53405905511811
 20
5.149929133858268
 10
-12.53405905511811
 20
5.124303149606299
 10
-12.4176811023622
 20
5.124303149606299
 10
-12.51575984251969
 20
4.901996062992126
 10
-12.48720866141732
 20
4.901996062992126
  0
LWPOLYLINE
  5
83
330
1F
100
AcDbEntity
  8
Layer 1
 62
     7
370
     9
100
AcDbPolyline
 90
      120
 70
     1
 43
0.0
 10
-12.29911023622047
 20
5.058744094488189
 10
-12.28227559055118
 20
5.125401574803149
 10
-12.19225196850394
 20
5.125401574803149
 10
-12.19225196850394
 20
5.151027559055118
 10
-12.30167716535433
 20
5.151027559055118
 10
-12.33020866141732
 20
5.039330708661417
 10
-12.30240157480315
 20
5.026874015748032
 10
-12.29837007874016
 20
5.029622047244095
 10
-12.29413779527559
 20
5.032003937007874
 10
-12.28970472440945
 20
5.03401968503937
 10
-12.28507086614173
 20
5.035669291338583
 10
-12.28024015748031
 20
5.036952755905512
 10
-12.27520472440945
 20
5.037874015748032
 10
-12.26997244094488
 20
5.03842125984252
 10
-12.26453937007874
 20
5.038606299212598
 10
-12.25907086614173
 20
5.038338582677166
 10
-12.2537874015748
 20
5.037531496062992
 10
-12.24868503937008
 20
5.036185039370078
 10
-12.24376771653543
 20
5.034303149606299
 10
-12.23903149606299
 20
5.031881889763779
 10
-12.23448031496063
 20
5.028921259842519
 10
-12.23011023622047
 20
5.025425196850394
 10
-12.22592125984252
 20
5.021389763779528
 10
-12.22198031496063
 20
5.016889763779528
 10
-12.21855905511811
 20
5.012224409448819
 10
-12.21566535433071
 20
5.007393700787402
 10
-12.21329921259843
 20
5.002393700787402
 10
-12.21145669291339
 20
4.997228346456693
 10
-12.21014173228346
 20
4.991897637795276
 10
-12.20935039370079
 20
4.98640157480315
 10
-12.20908661417323
 20
4.980740157480315
 10
-12.20935433070866
 20
4.97488188976378
 10
-12.21016141732284
 20
4.969255905511811
 10
-12.21150787401575
 20
4.963870078740158
 10
-12.21338976377953
 20
4.958716535433071
 10
-12.21581102362205
 20
4.953795275590551
 10
-12.21876771653543
 20
4.949114173228346
 10
-12.22225984251969
 20
4.944665354330708
 10
-12.22629133858268
 20
4.940448818897638
 10
-12.23046456692913
 20
4.936803149606299
 10
-12.23493700787402
 20
4.933543307086614
 10
-12.23970472440945
 20
4.930665354330709
 10
-12.24477165354331
 20
4.928173228346457
 10
-12.25028346456693
 20
4.926173228346457
 10
-12.2563937007874
 20
4.924748031496063
 10
-12.26309842519685
 20
4.923889763779528
 10
-12.27039763779528
 20
4.923602362204725
 10
-12.27418503937008
 20
4.923763779527559
 10
-12.27796456692913
 20
4.924244094488189
 10
-12.28174409448819
 20
4.925043307086614
 10
-12.28551968503937
 20
4.926165354330709
 10
-12.28929133858268
 20
4.927606299212599
 10
-12.29305905511811
 20
4.929374015748031
 10
-12.29682283464567
 20
4.931456692913386
 10
-12.30057874015748
 20
4.933866141732284
 10
-12.30418897637795
 20
4.936527559055119
 10
-12.30752755905512
 20
4.939377952755906
 10
-12.3105905511811
 20
4.942425196850394
 10
-12.31338188976378
 20
4.945669291338582
 10
-12.31589763779528
 20
4.949106299212598
 10
-12.31813779527559
 20
4.952736220472441
 10
-12.3201062992126
 20
4.956562992125984
 10
-12.32179921259842
 20
4.960586614173228
 10
-12.34668897637795
 20
4.952535433070866
 10
-12.34424409448819
 20
4.946507874015748
 10
-12.3413937007874
 20
4.94078346456693
 10
-12.33813385826772
 20
4.935358267716535
 10
-12.33447244094488
 20
4.930240157480315
 10
-12.33040551181102
 20
4.925425196850393
 10
-12.32592913385827
 20
4.920913385826772
 10
-12.32105118110236
 20
4.916708661417323
 10
-12.31576377952756
 20
4.912807086614174
 10
-12.31013779527559
 20
4.909244094488189
 10
-12.30438976377953
 20
4.906153543307086
 10
-12.2985157480315
 20
4.90353937007874
 10
-12.29251968503937
 20
4.901405511811023
 10
-12.28639763779528
 20
4.899740157480315
 10
-12.28014960629921
 20
4.898555118110236
 10
-12.27377952755906
 20
4.89784251968504
 10
-12.26728346456693
 20
4.897606299212598
 10
-12.25861811023622
 20
4.897996062992126
 10
-12.25028346456693
 20
4.899173228346457
 10
-12.24228346456693
 20
4.901129921259843
 10
-12.23461417322835
 20
4.903874015748031
 10
-12.22727952755906
 20
4.907397637795276
 10
-12.22027559055118
 20
4.911708661417323
 10
-12.21360236220472
 20
4.9168031496063
 10
-12.20726377952756
 20
4.922685039370079
 10
-12.2015157480315
 20
4.929070866141732
 10
-12.19653543307087
 20
4.935771653543307
 10
-12.19232283464567
 20
4.942783464566929
 10
-12.18887795275591
 20
4.950110236220472
 10
-12.18619291338583
 20
4.957751968503937
 10
-12.18427952755905
 20
4.965708661417323
 10
-12.18312992125984
 20
4.97398031496063
 10
-12.18274803149606
 20
4.982566929133858
 10
-12.18312598425197
 20
4.991106299212598
 10
-12.18425590551181
 20
4.999287401574803
 10
-12.18614173228347
 20
5.007106299212598
 10
-12.18877952755905
 20
5.014562992125985
 10
-12.19217322834646
 20
5.021661417322835
 10
-12.19632283464567
 20
5.02840157480315
 10
-12.20122834645669
 20
5.034779527559055
 10
-12.20688976377953
 20
5.040799212598425
 10
-12.21279133858268
 20
5.046007874015748
 10
-12.21915354330709
 20
5.050645669291338
 10
-12.22596850393701
 20
5.054708661417322
 10
-12.23324803149606
 20
5.058196850393701
 10
-12.2370157480315
 20
5.059696850393701
 10
-12.24081496062992
 20
5.061
 10
-12.24464960629921
 20
5.062098425196851
 10
-12.2485157480315
 20
5.063
 10
-12.25241338582677
 20
5.063700787401575
 10
-12.25634251968504
 20
5.064200787401575
 10
-12.2603031496063
 20
5.064503937007874
 10
-12.2642874015748
 20
5.064602362204725
 10
-12.2725
 20
5.064236220472441
 10
-12.28103543307087
 20
5.06313779527559
 10
-12.28990551181102
 20
5.061307086614173
 10
-12.29911023622047
 20
5.058744094488189
  0
LWPOLYLINE
  5
84
330
1F
100
AcDbEntity
  8
Layer 1
 62
     7
370
     9
100
AcDbPolyline
 90
      125
 70
     1
 43
0.0
 10
-11.93168897637795
 20
4.902724409448819
 10
-11.9060905511811
 20
4.902724409448819
 10
-11.9060905511811
 20
5.003444881889764
 10
-11.90629921259842
 20
5.010129921259843
 10
-11.90692519685039
 20
5.0165
 10
-11.90796850393701
 20
5.022555118110236
 10
-11.90943307086614
 20
5.028299212598426
 10
-11.91131102362205
 20
5.033728346456693
 10
-11.9136062992126
 20
5.03884251968504
 10
-11.91632283464567
 20
5.043641732283464
 10
-11.91945669291339
 20
5.048125984251969
 10
-11.92305511811024
 20
5.052303149606299
 10
-11.92708661417323
 20
5.056043307086614
 10
-11.93155118110236
 20
5.059346456692913
 10
-11.93645275590551
 20
5.062212598425197
 10
-11.93911811023622
 20
5.063464566929134
 10
-11.94199212598425
 20
5.064547244094488
 10
-11.94506692913386
 20
5.06546062992126
 10
-11.94835039370079
 20
5.066212598425197
 10
-11.95553149606299
 20
5.067208661417323
 10
-11.96353149606299
 20
5.06753937007874
 10
-11.96767716535433
 20
5.067393700787401
 10
-11.97168897637795
 20
5.066964566929133
 10
-11.97557086614173
 20
5.066248031496063
 10
-11.97931889763779
 20
5.065244094488189
 10
-11.98293700787402
 20
5.063952755905512
 10
-11.98642125984252
 20
5.062377952755906
 10
-11.98977559055118
 20
5.060515748031496
 10
-11.993
 20
5.058374015748032
 10
-11.99579527559055
 20
5.056236220472441
 10
-11.99846850393701
 20
5.053937007874016
 10
-12.0010157480315
 20
5.05148031496063
 10
-12.00343307086614
 20
5.048870078740157
 10
-12.0078937007874
 20
5.043181102362205
 10
-12.01185039370079
 20
5.036885826771654
 10
-12.01861417322835
 20
5.048125984251969
 10
-12.02222047244094
 20
5.052303149606299
 10
-12.02625984251969
 20
5.056043307086614
 10
-12.03073228346457
 20
5.059346456692913
 10
-12.03564173228346
 20
5.062212598425197
 10
-12.0383031496063
 20
5.063464566929134
 10
-12.04116929133858
 20
5.064547244094488
 10
-12.04424409448819
 20
5.06546062992126
 10
-12.04752755905512
 20
5.066212598425197
 10
-12.0547125984252
 20
5.067208661417323
 10
-12.06272047244095
 20
5.06753937007874
 10
-12.06686614173228
 20
5.067393700787401
 10
-12.07087795275591
 20
5.066964566929133
 10
-12.07475590551181
 20
5.066248031496063
 10
-12.07850393700787
 20
5.065244094488189
 10
-12.08212204724409
 20
5.063952755905512
 10
-12.08560236220472
 20
5.062377952755906
 10
-12.08895669291339
 20
5.060515748031496
 10
-12.09217322834646
 20
5.058374015748032
 10
-12.09738976377953
 20
5.054161417322835
 10
-12.10214566929134
 20
5.049397637795275
 10
-12.10644094488189
 20
5.044070866141732
 10
-12.11028346456693
 20
5.03817716535433
 10
-12.11028346456693
 20
5.063858267716536
 10
-12.13589763779528
 20
5.063858267716536
 10
-12.13589763779528
 20
4.902724409448819
 10
-12.11028346456693
 20
4.902724409448819
 10
-12.11028346456693
 20
4.985188976377953
 10
-12.10968503937008
 20
4.989996062992126
 10
-12.10890551181102
 20
4.994614173228347
 10
-12.10794488188976
 20
4.999043307086614
 10
-12.1068031496063
 20
5.003291338582677
 10
-12.10548031496063
 20
5.007354330708662
 10
-12.10397637795276
 20
5.011232283464567
 10
-12.1022874015748
 20
5.014933070866141
 10
-12.10042125984252
 20
5.018452755905511
 10
-12.09723622047244
 20
5.023350393700787
 10
-12.09355118110236
 20
5.027791338582677
 10
-12.08936614173228
 20
5.031775590551181
 10
-12.08466929133858
 20
5.035299212598425
 10
-12.08217716535433
 20
5.036846456692913
 10
-12.07964173228346
 20
5.038188976377953
 10
-12.07705511811024
 20
5.039322834645669
 10
-12.07442519685039
 20
5.040251968503937
 10
-12.07175196850394
 20
5.040972440944882
 10
-12.06902755905512
 20
5.041484251968504
 10
-12.06626377952756
 20
5.041795275590551
 10
-12.06344881889764
 20
5.041897637795276
 10
-12.05814173228346
 20
5.041677165354331
 10
-12.05357086614173
 20
5.041023622047244
 10
-12.04972834645669
 20
5.039933070866142
 10
-12.04661417322835
 20
5.038413385826772
 10
-12.04292913385827
 20
5.035685039370079
 10
-12.03973228346457
 20
5.032488188976378
 10
-12.03702755905512
 20
5.028818897637795
 10
-12.03481496062992
 20
5.024681102362205
 10
-12.03309448818898
 20
5.020074803149607
 10
-12.03186220472441
 20
5.015
 10
-12.03112598425197
 20
5.009456692913385
 10
-12.0308779527559
 20
5.003444881889764
 10
-12.0308779527559
 20
4.902724409448819
 10
-12.00526771653543
 20
4.902724409448819
 10
-12.00526771653543
 20
5.003444881889764
 10
-12.00544488188976
 20
5.009614173228346
 10
-12.00123228346457
 20
5.018452755905511
 10
-11.99805511811024
 20
5.023350393700787
 10
-11.99437007874016
 20
5.027791338582677
 10
-11.99018503937008
 20
5.031775590551181
 10
-11.98549606299213
 20
5.035299212598425
 10
-11.98300393700787
 20
5.036846456692913
 10
-11.98046850393701
 20
5.038188976377953
 10
-11.97788188976378
 20
5.039322834645669
 10
-11.97525196850394
 20
5.040251968503937
 10
-11.97257874015748
 20
5.040972440944882
 10
-11.96985433070866
 20
5.041484251968504
 10
-11.9670905511811
 20
5.041795275590551
 10
-11.96427559055118
 20
5.041897637795276
 10
-11.95896456692913
 20
5.041677165354331
 10
-11.95438976377953
 20
5.041023622047244
 10
-11.95054724409449
 20
5.039933070866142
 10
-11.94744094488189
 20
5.038413385826772
 10
-11.94374803149606
 20
5.035685039370079
 10
-11.94055118110236
 20
5.032488188976378
 10
-11.93784251968504
 20
5.028818897637795
 10
-11.93562598425197
 20
5.024681102362205
 10
-11.93390551181102
 20
5.020074803149607
 10
-11.93267322834646
 20
5.015
 10
-11.93193700787402
 20
5.009456692913385
 10
-11.93168897637795
 20
5.003444881889764
 10
-11.93168897637795
 20
4.902724409448819
  0
LWPOLYLINE
  5
85
330
1F
100
AcDbEntity
  8
Layer 1
 62
     7
370
     9
100
AcDbPolyline
 90
      125
 70
     1
 43
0.0
 10
-11.65246850393701
 20
4.902724409448819
 10
-11.62685826771654
 20
4.902724409448819
 10
-11.62685826771654
 20
5.003444881889764
 10
-11.62706692913386
 20
5.010129921259843
 10
-11.62769291338583
 20
5.0165
 10
-11.62873622047244
 20
5.022555118110236
 10
-11.6301968503937
 20
5.028299212598426
 10
-11.63207480314961
 20
5.033728346456693
 10
-11.63437401574803
 20
5.03884251968504
 10
-11.63708661417323
 20
5.043641732283464
 10
-11.64022047244094
 20
5.048125984251969
 10
-11.64382283464567
 20
5.052303149606299
 10
-11.64785826771654
 20
5.056043307086614
 10
-11.65233070866142
 20
5.059346456692913
 10
-11.65723228346457
 20
5.062212598425197
 10
-11.65989763779528
 20
5.063464566929134
 10
-11.66277165354331
 20
5.064547244094488
 10
-11.66584645669291
 20
5.06546062992126
 10
-11.66912992125984
 20
5.066212598425197
 10
-11.67631102362205
 20
5.067208661417323
 10
-11.68431102362205
 20
5.06753937007874
 10
-11.68845669291339
 20
5.067393700787401
 10
-11.69246850393701
 20
5.066964566929133
 10
-11.69635039370079
 20
5.066248031496063
 10
-11.70009842519685
 20
5.065244094488189
 10
-11.70371653543307
 20
5.063952755905512
 10
-11.70720078740158
 20
5.062377952755906
 10
-11.71055511811024
 20
5.060515748031496
 10
-11.71377952755905
 20
5.058374015748032
 10
-11.71657480314961
 20
5.056236220472441
 10
-11.71924803149606
 20
5.053937007874016
 10
-11.72179527559055
 20
5.05148031496063
 10
-11.7242125984252
 20
5.048870078740157
 10
-11.72867322834646
 20
5.043181102362205
 10
-11.73262992125984
 20
5.036885826771654
 10
-11.7393937007874
 20
5.048125984251969
 10
-11.743
 20
5.052303149606299
 10
-11.74703149606299
 20
5.056043307086614
 10
-11.7515
 20
5.059346456692913
 10
-11.75640551181102
 20
5.062212598425197
 10
-11.75906692913386
 20
5.063464566929134
 10
-11.76193700787402
 20
5.064547244094488
 10
-11.76501181102362
 20
5.06546062992126
 10
-11.76829527559055
 20
5.066212598425197
 10
-11.77547637795276
 20
5.067208661417323
 10
-11.7834842519685
 20
5.06753937007874
 10
-11.78762992125984
 20
5.067393700787401
 10
-11.79164173228346
 20
5.066964566929133
 10
-11.79551968503937
 20
5.066248031496063
 10
-11.79927165354331
 20
5.065244094488189
 10
-11.80288582677165
 20
5.063952755905512
 10
-11.80637007874016
 20
5.062377952755906
 10
-11.80972047244095
 20
5.060515748031496
 10
-11.81294094488189
 20
5.058374015748032
 10
-11.81816141732283
 20
5.054161417322835
 10
-11.82292125984252
 20
5.049397637795275
 10
-11.82722047244095
 20
5.044070866141732
 10
-11.83106299212598
 20
5.03817716535433
 10
-11.83106299212598
 20
5.063858267716536
 10
-11.85667716535433
 20
5.063858267716536
 10
-11.85667716535433
 20
4.902724409448819
 10
-11.83106299212598
 20
4.902724409448819
 10
-11.83106299212598
 20
4.985188976377953
 10
-11.83046456692913
 20
4.989996062992126
 10
-11.82968503937008
 20
4.994614173228347
 10
-11.82872440944882
 20
4.999043307086614
 10
-11.82758267716535
 20
5.003291338582677
 10
-11.82625590551181
 20
5.007354330708662
 10
-11.82474803149606
 20
5.011232283464567
 10
-11.82305905511811
 20
5.014933070866141
 10
-11.82118503937008
 20
5.018452755905511
 10
-11.818
 20
5.023350393700787
 10
-11.8143188976378
 20
5.027791338582677
 10
-11.81012992125984
 20
5.031775590551181
 10
-11.80543700787402
 20
5.035299212598425
 10
-11.80294488188976
 20
5.036846456692913
 10
-11.80040551181102
 20
5.038188976377953
 10
-11.79782283464567
 20
5.039322834645669
 10
-11.79519291338583
 20
5.040251968503937
 10
-11.7925157480315
 20
5.040972440944882
 10
-11.78979527559055
 20
5.041484251968504
 10
-11.78702755905512
 20
5.041795275590551
 10
-11.7842125984252
 20
5.041897637795276
 10
-11.77890551181102
 20
5.041677165354331
 10
-11.77433464566929
 20
5.041023622047244
 10
-11.77049212598425
 20
5.039933070866142
 10
-11.76737795275591
 20
5.038413385826772
 10
-11.76369291338583
 20
5.035685039370079
 10
-11.76049606299213
 20
5.032488188976378
 10
-11.75779133858268
 20
5.028818897637795
 10
-11.75557874015748
 20
5.024681102362205
 10
-11.75385826771654
 20
5.020074803149607
 10
-11.75262992125984
 20
5.015
 10
-11.75188976377953
 20
5.009456692913385
 10
-11.75164566929134
 20
5.003444881889764
 10
-11.75164566929134
 20
4.902724409448819
 10
-11.72604724409449
 20
4.902724409448819
 10
-11.72604724409449
 20
5.003444881889764
 10
-11.72622440944882
 20
5.009614173228346
 10
-11.72201181102362
 20
5.018452755905511
 10
-11.71883464566929
 20
5.023350393700787
 10
-11.71514960629921
 20
5.027791338582677
 10
-11.71096456692913
 20
5.031775590551181
 10
-11.70627559055118
 20
5.035299212598425
 10
-11.70378346456693
 20
5.036846456692913
 10
-11.70124803149606
 20
5.038188976377953
 10
-11.69866141732284
 20
5.039322834645669
 10
-11.69603149606299
 20
5.040251968503937
 10
-11.69335826771654
 20
5.040972440944882
 10
-11.69063385826772
 20
5.041484251968504
 10
-11.68787007874016
 20
5.041795275590551
 10
-11.68505511811024
 20
5.041897637795276
 10
-11.67974409448819
 20
5.041677165354331
 10
-11.67516929133858
 20
5.041023622047244
 10
-11.67132677165354
 20
5.039933070866142
 10
-11.66822047244094
 20
5.038413385826772
 10
-11.66452755905512
 20
5.035685039370079
 10
-11.66133070866142
 20
5.032488188976378
 10
-11.65862204724409
 20
5.028818897637795
 10
-11.65640551181102
 20
5.024681102362205
 10
-11.65468503937008
 20
5.020074803149607
 10
-11.65345275590551
 20
5.015
 10
-11.65271653543307
 20
5.009456692913385
 10
-11.65246850393701
 20
5.003444881889764
 10
-11.65246850393701
 20
4.902724409448819
  0
ENDSEC
  0
SECTION
  2
OBJECTS
  0
DICTIONARY
  5
C
330
0
100
AcDbDictionary
281
     1
  3
ACAD_DETAILVIEWSTYLE
350
8D
  3
ACAD_GROUP
350
D
  3
ACAD_LAYOUT
350
1A
  3
ACAD_MATERIAL
350
43
  3
ACAD_MLEADERSTYLE
350
5B
  3
ACAD_MLINESTYLE
350
17
  3
ACAD_PLOTSETTINGS
350
19
  3
ACAD_PLOTSTYLENAME
350
E
  3
ACAD_SCALELIST
350
47
  3
ACAD_SECTIONVIEWSTYLE
350
8E
  3
ACAD_TABLESTYLE
350
59
  3
ACAD_VISUALSTYLE
350
2A
  3
ACDB_RECOMPOSE_DATA
350
8A
  3
AcDbVariableDictionary
350
86
  0
SUN
  5
5D
330
29
100
AcDbSun
 90
        1
290
     0
 63
     7
421
 16777215
 40
1.0
291
     1
 91
  2455826
 92
 54000000
292
     0
 70
     2
 71
   256
280
     1
  0
DICTIONARY
  5
8D
102
{ACAD_REACTORS
330
C
102
}
330
C
100
AcDbDictionary
281
     1
  0
DICTIONARY
  5
D
102
{ACAD_REACTORS
330
C
102
}
330
C
100
AcDbDictionary
281
     1
  0
DICTIONARY
  5
1A
102
{ACAD_REACTORS
330
C
102
}
330
C
100
AcDbDictionary
281
     1
  3
Layout1
350
1E
  3
Layout2
350
26
  3
Model
350
22
  0
DICTIONARY
  5
43
102
{ACAD_REACTORS
330
C
102
}
330
C
100
AcDbDictionary
281
     1
  3
ByBlock
350
45
  3
ByLayer
350
44
  3
Global
350
46
  0
DICTIONARY
  5
5B
102
{ACAD_REACTORS
330
C
102
}
330
C
100
AcDbDictionary
281
     1
  3
Standard
350
5C
  0
DICTIONARY
  5
17
102
{ACAD_REACTORS
330
C
102
}
330
C
100
AcDbDictionary
281
     1
  3
Standard
350
18
  0
DICTIONARY
  5
19
102
{ACAD_REACTORS
330
C
102
}
330
C
100
AcDbDictionary
281
     1
  0
ACDBDICTIONARYWDFLT
  5
E
102
{ACAD_REACTORS
330
C
102
}
330
C
100
AcDbDictionary
281
     1
  3
Normal
350
F
100
AcDbDictionaryWithDefault
340
F
  0
DICTIONARY
  5
47
102
{ACAD_REACTORS
330
C
102
}
330
C
100
AcDbDictionary
281
     1
  3
A0
350
48
  3
A1
350
49
  3
A2
350
4A
  3
A3
350
4B
  3
A4
350
4C
  3
A5
350
4D
  3
A6
350
4E
  3
A7
350
4F
  3
A8
350
50
  3
A9
350
51
  3
B1
350
52
  3
B2
350
53
  3
B3
350
54
  3
B4
350
55
  3
B5
350
56
  3
B6
350
57
  3
B7
350
58
  0
DICTIONARY
  5
8E
102
{ACAD_REACTORS
330
C
102
}
330
C
100
AcDbDictionary
281
     1
  0
DICTIONARY
  5
59
102
{ACAD_REACTORS
330
C
102
}
330
C
100
AcDbDictionary
281
     1
  3
Standard
350
5A
  0
DICTIONARY
  5
2A
102
{ACAD_REACTORS
330
C
102
}
330
C
100
AcDbDictionary
281
     1
  3
2dWireframe
350
2F
  3
Basic
350
32
  3
Brighten
350
36
  3
ColorChange
350
3A
  3
Conceptual
350
34
  3
Dim
350
35
  3
EdgeColorOff
350
3D
  3
Facepattern
350
39
  3
Flat
350
2B
  3
FlatWithEdges
350
2C
  3
Gouraud
350
2D
  3
GouraudWithEdges
350
2E
  3
Hidden
350
31
  3
JitterOff
350
3B
  3
Linepattern
350
38
  3
OverhangOff
350
3C
  3
Realistic
350
33
  3
Shaded
350
42
  3
Shaded with edges
350
41
  3
Shades of Gray
350
3E
  3
Sketchy
350
3F
  3
Thicken
350
37
  3
Wireframe
350
30
  3
X-Ray
350
40
  0
XRECORD
  5
8A
102
{ACAD_REACTORS
330
C
102
}
330
C
100
AcDbXrecord
280
     1
 90
        1
330
5A
  0
DICTIONARY
  5
86
102
{ACAD_REACTORS
330
C
102
}
330
C
100
AcDbDictionary
281
     1
  3
CANNOSCALE
350
87
  3
CMLEADERSTYLE
350
8C
  3
CTABLESTYLE
350
8B
  0
LAYOUT
  5
1E
102
{ACAD_REACTORS
330
1A
102
}
330
1A
100
AcDbPlotSettings
  1

  2
none_device
  4

  6

 40
0.0
 41
0.0
 42
0.0
 43
0.0
 44
0.0
 45
0.0
 46
0.0
 47
0.0
 48
0.0
 49
0.0
140
0.0
141
0.0
142
1.0
143
1.0
 70
   688
 72
     0
 73
     0
 74
     5
  7

 75
    16
 76
     0
 77
     2
 78
   300
147
1.0
148
0.0
149
0.0
100
AcDbLayout
  1
Layout1
 70
     1
 71
     1
 10
0.0
 20
0.0
 11
12.0
 21
9.0
 12
0.0
 22
0.0
 32
0.0
 14
1.000000000000000E+20
 24
1.000000000000000E+20
 34
1.000000000000000E+20
 15
-1.000000000000000E+20
 25
-1.000000000000000E+20
 35
-1.000000000000000E+20
146
0.0
 13
0.0
 23
0.0
 33
0.0
 16
1.0
 26
0.0
 36
0.0
 17
0.0
 27
1.0
 37
0.0
 76
     0
330
1B
  0
LAYOUT
  5
26
102
{ACAD_REACTORS
330
1A
102
}
330
1A
100
AcDbPlotSettings
  1

  2
none_device
  4

  6

 40
0.0
 41
0.0
 42
0.0
 43
0.0
 44
0.0
 45
0.0
 46
0.0
 47
0.0
 48
0.0
 49
0.0
140
0.0
141
0.0
142
1.0
143
1.0
 70
   688
 72
     0
 73
     0
 74
     5
  7

 75
    16
 76
     0
 77
     2
 78
   300
147
1.0
148
0.0
149
0.0
100
AcDbLayout
  1
Layout2
 70
     1
 71
     2
 10
0.0
 20
0.0
 11
0.0
 21
0.0
 12
0.0
 22
0.0
 32
0.0
 14
0.0
 24
0.0
 34
0.0
 15
0.0
 25
0.0
 35
0.0
146
0.0
 13
0.0
 23
0.0
 33
0.0
 16
1.0
 26
0.0
 36
0.0
 17
0.0
 27
1.0
 37
0.0
 76
     0
330
23
  0
LAYOUT
  5
22
102
{ACAD_REACTORS
330
1A
102
}
330
1A
100
AcDbPlotSettings
  1

  2
none_device
  4
Letter_(8.50_x_11.00_Inches)
  6

 40
6.35
 41
6.35
 42
6.35000508
 43
6.35000508
 44
215.9
 45
279.4
 46
0.0
 47
0.0
 48
0.0
 49
0.0
140
0.0
141
0.0
142
1.0
143
1.0
 70
  1712
 72
     0
 73
     0
 74
     0
  7

 75
     0
 76
     0
 77
     2
 78
   300
147
1.0
148
0.0
149
0.0
100
AcDbLayout
  1
Model
 70
     1
 71
     0
 10
0.0
 20
0.0
 11
12.0
 21
9.0
 12
0.0
 22
0.0
 32
0.0
 14
-16.48293700787401
 24
1.783503937007874
 34
0.0
 15
-11.15791338582677
 25
5.818311023622047
 35
0.0
146
0.0
 13
0.0
 23
0.0
 33
0.0
 16
1.0
 26
0.0
 36
0.0
 17
0.0
 27
1.0
 37
0.0
 76
     0
330
1F
331
29
  0
MATERIAL
  5
45
102
{ACAD_REACTORS
330
43
102
}
330
43
100
AcDbMaterial
  1
ByBlock
 72
     1
 94
      127
  0
MATERIAL
  5
44
102
{ACAD_REACTORS
330
43
102
}
330
43
100
AcDbMaterial
  1
ByLayer
 72
     1
 94
      127
  0
MATERIAL
  5
46
102
{ACAD_REACTORS
330
43
102
}
330
43
100
AcDbMaterial
  1
Global
 72
     1
 94
      127
  0
MLEADERSTYLE
  5
5C
102
{ACAD_REACTORS
330
5B
102
}
330
5B
100
AcDbMLeaderStyle
179
     2
170
     2
171
     1
172
     0
 90
        2
 40
0.0
 41
0.0
173
     1
 91
-1056964608
340
14
 92
       -2
290
     1
 42
0.09
291
     1
 43
0.36
  3
Standard
341
0
 44
0.18
300

342
11
174
     1
178
     6
175
     1
176
     0
 93
-1056964608
 45
0.18
292
     0
297
     0
 46
0.18
343
0
 94
-1056964608
 47
1.0
 49
1.0
140
1.0
293
     1
141
0.0
294
     1
177
     0
142
1.0
295
     0
296
     0
143
0.125
271
     0
272
     9
273
     9
298
     0
  0
MLINESTYLE
  5
18
102
{ACAD_REACTORS
330
17
102
}
330
17
100
AcDbMlineStyle
  2
Standard
 70
     0
  3

 62
   256
 51
90.0
 52
90.0
 71
     2
 49
0.5
 62
   256
  6
BYLAYER
 49
-0.5
 62
   256
  6
BYLAYER
  0
ACDBPLACEHOLDER
  5
F
102
{ACAD_REACTORS
330
E
102
}
330
E
  0
SCALE
  5
48
102
{ACAD_REACTORS
330
47
102
}
330
47
100
AcDbScale
 70
     0
300
1:1
140
1.0
141
1.0
290
     1
  0
SCALE
  5
49
102
{ACAD_REACTORS
330
47
102
}
330
47
100
AcDbScale
 70
     0
300
1/128" = 1'-0"
140
0.0078125
141
12.0
290
     0
  0
SCALE
  5
4A
102
{ACAD_REACTORS
330
47
102
}
330
47
100
AcDbScale
 70
     0
300
1/64" = 1'-0"
140
0.015625
141
12.0
290
     0
  0
SCALE
  5
4B
102
{ACAD_REACTORS
330
47
102
}
330
47
100
AcDbScale
 70
     0
300
1/32" = 1'-0"
140
0.03125
141
12.0
290
     0
  0
SCALE
  5
4C
102
{ACAD_REACTORS
330
47
102
}
330
47
100
AcDbScale
 70
     0
300
1/16" = 1'-0"
140
0.0625
141
12.0
290
     0
  0
SCALE
  5
4D
102
{ACAD_REACTORS
330
47
102
}
330
47
100
AcDbScale
 70
     0
300
3/32" = 1'-0"
140
0.09375
141
12.0
290
     0
  0
SCALE
  5
4E
102
{ACAD_REACTORS
330
47
102
}
330
47
100
AcDbScale
 70
     0
300
1/8" = 1'-0"
140
0.125
141
12.0
290
     0
  0
SCALE
  5
4F
102
{ACAD_REACTORS
330
47
102
}
330
47
100
AcDbScale
 70
     0
300
3/16" = 1'-0"
140
0.1875
141
12.0
290
     0
  0
SCALE
  5
50
102
{ACAD_REACTORS
330
47
102
}
330
47
100
AcDbScale
 70
     0
300
1/4" = 1'-0"
140
0.25
141
12.0
290
     0
  0
SCALE
  5
51
102
{ACAD_REACTORS
330
47
102
}
330
47
100
AcDbScale
 70
     0
300
3/8" = 1'-0"
140
0.375
141
12.0
290
     0
  0
SCALE
  5
52
102
{ACAD_REACTORS
330
47
102
}
330
47
100
AcDbScale
 70
     0
300
1/2" = 1'-0"
140
0.5
141
12.0
290
     0
  0
SCALE
  5
53
102
{ACAD_REACTORS
330
47
102
}
330
47
100
AcDbScale
 70
     0
300
3/4" = 1'-0"
140
0.75
141
12.0
290
     0
  0
SCALE
  5
54
102
{ACAD_REACTORS
330
47
102
}
330
47
100
AcDbScale
 70
     0
300
1" = 1'-0"
140
1.0
141
12.0
290
     0
  0
SCALE
  5
55
102
{ACAD_REACTORS
330
47
102
}
330
47
100
AcDbScale
 70
     0
300
1-1/2" = 1'-0"
140
1.5
141
12.0
290
     0
  0
SCALE
  5
56
102
{ACAD_REACTORS
330
47
102
}
330
47
100
AcDbScale
 70
     0
300
3" = 1'-0"
140
3.0
141
12.0
290
     0
  0
SCALE
  5
57
102
{ACAD_REACTORS
330
47
102
}
330
47
100
AcDbScale
 70
     0
300
6" = 1'-0"
140
6.0
141
12.0
290
     0
  0
SCALE
  5
58
102
{ACAD_REACTORS
330
47
102
}
330
47
100
AcDbScale
 70
     0
300
1'-0" = 1'-0"
140
12.0
141
12.0
290
     0
  0
TABLESTYLE
  5
5A
102
{ACAD_REACTORS
330
59
102
}
102
{ACAD_XDICTIONARY
360
88
102
}
330
59
100
AcDbTableStyle
  3
Standard
 70
     0
 71
     0
 40
0.06
 41
0.06
280
     0
281
     0
  7
Standard
140
0.18
170
     2
 62
     0
 63
   257
283
     0
 90
        4
 91
        0
  1

274
    -2
284
     1
 64
     0
275
    -2
285
     1
 65
     0
276
    -2
286
     1
 66
     0
277
    -2
287
     1
 67
     0
278
    -2
288
     1
 68
     0
279
    -2
289
     1
 69
     0
  7
Standard
140
0.25
170
     5
 62
     0
 63
   257
283
     0
 90
        4
 91
        0
  1

274
    -2
284
     1
 64
     0
275
    -2
285
     1
 65
     0
276
    -2
286
     1
 66
     0
277
    -2
287
     1
 67
     0
278
    -2
288
     1
 68
     0
279
    -2
289
     1
 69
     0
  7
Standard
140
0.18
170
     5
 62
     0
 63
   257
283
     0
 90
        4
 91
        0
  1

274
    -2
284
     1
 64
     0
275
    -2
285
     1
 65
     0
276
    -2
286
     1
 66
     0
277
    -2
287
     1
 67
     0
278
    -2
288
     1
 68
     0
279
    -2
289
     1
 69
     0
  0
VISUALSTYLE
  5
2F
102
{ACAD_REACTORS
330
2A
102
}
330
2A
100
AcDbVisualStyle
  2
2dWireframe
 70
     4
177
     3
291
     0
 70
    58
 90
        0
176
     1
 90
        2
176
     1
 90
        0
176
     1
 90
        0
176
     1
 40
0.6
176
     1
 40
30.0
176
     1
 62
     7
420
 16777215
176
     1
 90
        1
176
     1
 90
        4
176
     1
 62
     7
176
     1
 62
   257
176
     1
 90
        1
176
     1
 90
        1
176
     1
 40
1.0
176
     1
 90
        0
176
     1
 62
   257
176
     1
 40
1.0
176
     1
 90
        1
176
     1
 90
        6
176
     1
 90
        2
176
     1
 62
     7
176
     1
 90
        5
176
     1
 90
        0
176
     1
 90
        0
176
     1
290
     0
176
     1
 90
        1
176
     1
 40
0.0
176
     1
 90
        0
176
     1
290
     1
176
     1
290
     1
176
     1
290
     0
176
     1
290
     0
176
     1
290
     0
176
     1
290
     0
176
     1
290
     0
176
     1
290
     0
176
     1
290
     0
176
     1
 90
       50
176
     1
 40
0.0
176
     1
 40
1.0
176
     1
 90
        0
176
     1
 62
    18
420
        0
176
     1
 90
       50
176
     1
 90
        3
176
     1
 62
     5
420
      255
176
     1
290
     0
176
     1
 90
       50
176
     1
 90
       50
176
     1
 90
       50
176
     1
290
     0
176
     1
 90
       50
176
     1
 62
   256
176
     0
 40
1.0
176
     0
 90
        2
176
     1
  1
strokes_ogs.tif
176
     1
290
     0
176
     1
 40
1.0
176
     1
 40
1.0
176
     1
  0
VISUALSTYLE
  5
32
102
{ACAD_REACTORS
330
2A
102
}
330
2A
100
AcDbVisualStyle
  2
Basic
 70
     7
177
     3
291
     1
 70
    58
 90
        1
176
     1
 90
        0
176
     1
 90
        1
176
     1
 90
        0
176
     1
 40
0.6
176
     1
 40
30.0
176
     1
 62
     7
420
 16777215
176
     1
 90
        0
176
     1
 90
        4
176
     1
 62
     7
176
     1
 62
   257
176
     1
 90
        1
176
     1
 90
        1
176
     1
 40
1.0
176
     1
 90
        8
176
     1
 62
     7
176
     1
 40
1.0
176
     1
 90
        1
176
     1
 90
        6
176
     1
 90
        2
176
     1
 62
     7
176
     1
 90
        5
176
     1
 90
        0
176
     1
 90
        0
176
     1
290
     0
176
     1
 90
        1
176
     1
 40
0.0
176
     1
 90
        0
176
     1
290
     0
176
     1
290
     1
176
     1
290
     1
176
     1
290
     0
176
     1
290
     0
176
     1
290
     0
176
     1
290
     0
176
     1
290
     0
176
     1
290
     0
176
     1
 90
       50
176
     1
 40
0.0
176
     1
 40
1.0
176
     1
 90
        0
176
     1
 62
    18
420
        0
176
     1
 90
       50
176
     1
 90
        3
176
     1
 62
     5
420
      255
176
     1
290
     0
176
     1
 90
       50
176
     1
 90
       50
176
     1
 90
       50
176
     1
290
     0
176
     1
 90
       50
176
     1
 62
   256
176
     0
 40
1.0
176
     0
 90
        2
176
     1
  1
strokes_ogs.tif
176
     1
290
     0
176
     1
 40
1.0
176
     1
 40
1.0
176
     1
  0
VISUALSTYLE
  5
36
102
{ACAD_REACTORS
330
2A
102
}
330
2A
100
AcDbVisualStyle
  2
Brighten
 70
    12
177
     3
291
     1
 70
    58
 90
        2
176
     1
 90
        2
176
     1
 90
        0
176
     1
 90
        0
176
     1
 40
0.6
176
     1
 40
30.0
176
     1
 62
     7
420
 16777215
176
     1
 90
        1
176
     1
 90
        4
176
     1
 62
     7
176
     1
 62
   257
176
     1
 90
        1
176
     1
 90
        1
176
     1
 40
1.0
176
     1
 90
        8
176
     1
 62
     7
176
     1
 40
1.0
176
     1
 90
        1
176
     1
 90
        6
176
     1
 90
        2
176
     1
 62
     7
176
     1
 90
        5
176
     1
 90
        0
176
     1
 90
        0
176
     1
290
     0
176
     1
 90
        1
176
     1
 40
50.0
176
     1
 90
        0
176
     1
290
     0
176
     1
290
     1
176
     1
290
     1
176
     1
290
     0
176
     1
290
     0
176
     1
290
     0
176
     1
290
     0
176
     1
290
     0
176
     1
290
     0
176
     1
 90
       50
176
     1
 40
0.0
176
     1
 40
1.0
176
     1
 90
        0
176
     1
 62
    18
420
        0
176
     1
 90
       50
176
     1
 90
        3
176
     1
 62
     5
420
      255
176
     1
290
     0
176
     1
 90
       50
176
     1
 90
       50
176
     1
 90
       50
176
     1
290
     0
176
     1
 90
       50
176
     1
 62
   256
176
     0
 40
1.0
176
     0
 90
        2
176
     1
  1
strokes_ogs.tif
176
     1
290
     0
176
     1
 40
1.0
176
     1
 40
1.0
176
     1
  0
VISUALSTYLE
  5
3A
102
{ACAD_REACTORS
330
2A
102
}
330
2A
100
AcDbVisualStyle
  2
ColorChange
 70
    16
177
     3
291
     1
 70
    58
 90
        2
176
     1
 90
        2
176
     1
 90
        3
176
     1
 90
        0
176
     1
 40
0.6
176
     1
 40
30.0
176
     1
 62
     8
420
  8421504
176
     1
 90
        1
176
     1
 90
        4
176
     1
 62
     7
176
     1
 62
   257
176
     1
 90
        1
176
     1
 90
        1
176
     1
 40
1.0
176
     1
 90
        8
176
     1
 62
     8
420
  8421504
176
     1
 40
1.0
176
     1
 90
        1
176
     1
 90
        6
176
     1
 90
        2
176
     1
 62
     7
176
     1
 90
        5
176
     1
 90
        0
176
     1
 90
        0
176
     1
290
     0
176
     1
 90
        1
176
     1
 40
0.0
176
     1
 90
        0
176
     1
290
     0
176
     1
290
     1
176
     1
290
     1
176
     1
290
     0
176
     1
290
     0
176
     1
290
     0
176
     1
290
     0
176
     1
290
     0
176
     1
290
     0
176
     1
 90
       50
176
     1
 40
0.0
176
     1
 40
1.0
176
     1
 90
        0
176
     1
 62
    18
420
        0
176
     1
 90
       50
176
     1
 90
        3
176
     1
 62
     5
420
      255
176
     1
290
     0
176
     1
 90
       50
176
     1
 90
       50
176
     1
 90
       50
176
     1
290
     0
176
     1
 90
       50
176
     1
 62
   256
176
     0
 40
1.0
176
     0
 90
        2
176
     1
  1
strokes_ogs.tif
176
     1
290
     0
176
     1
 40
1.0
176
     1
 40
1.0
176
     1
  0
VISUALSTYLE
  5
34
102
{ACAD_REACTORS
330
2A
102
}
330
2A
100
AcDbVisualStyle
  2
Conceptual
 70
     9
177
     3
291
     0
 70
    58
 90
        3
176
     1
 90
        2
176
     1
 90
        0
176
     1
 90
        0
176
     1
 40
0.6
176
     1
 40
30.0
176
     1
 62
     7
420
 16777215
176
     1
 90
        2
176
     1
 90
        2
176
     1
 62
     7
176
     1
 62
   257
176
     1
 90
        1
176
     1
 90
        1
176
     1
 40
179.0
176
     1
 90
        8
176
     1
 62
     7
176
     1
 40
1.0
176
     1
 90
        1
176
     1
 90
        6
176
     1
 90
        2
176
     1
 62
     7
176
     1
 90
        3
176
     1
 90
        0
176
     1
 90
        0
176
     1
290
     0
176
     1
 90
        1
176
     1
 40
0.0
176
     1
 90
        0
176
     1
290
     0
176
     1
290
     1
176
     1
290
     1
176
     1
290
     0
176
     1
290
     0
176
     1
290
     0
176
     1
290
     0
176
     1
290
     0
176
     1
290
     0
176
     1
 90
       50
176
     1
 40
0.0
176
     1
 40
1.0
176
     1
 90
        0
176
     1
 62
    18
420
        0
176
     1
 90
       50
176
     1
 90
        3
176
     1
 62
     5
420
      255
176
     1
290
     0
176
     1
 90
       50
176
     1
 90
       50
176
     1
 90
       50
176
     1
290
     0
176
     1
 90
       50
176
     1
 62
   256
176
     0
 40
1.0
176
     0
 90
        2
176
     1
  1
strokes_ogs.tif
176
     1
290
     0
176
     1
 40
1.0
176
     1
 40
1.0
176
     1
  0
VISUALSTYLE
  5
35
102
{ACAD_REACTORS
330
2A
102
}
330
2A
100
AcDbVisualStyle
  2
Dim
 70
    11
177
     3
291
     1
 70
    58
 90
        2
176
     1
 90
        2
176
     1
 90
        0
176
     1
 90
        0
176
     1
 40
0.6
176
     1
 40
30.0
176
     1
 62
     7
420
 16777215
176
     1
 90
        1
176
     1
 90
        4
176
     1
 62
     7
176
     1
 62
   257
176
     1
 90
        1
176
     1
 90
        1
176
     1
 40
1.0
176
     1
 90
        8
176
     1
 62
     7
176
     1
 40
1.0
176
     1
 90
        1
176
     1
 90
        6
176
     1
 90
        2
176
     1
 62
     7
176
     1
 90
        5
176
     1
 90
        0
176
     1
 90
        0
176
     1
290
     0
176
     1
 90
        1
176
     1
 40
-50.0
176
     1
 90
        0
176
     1
290
     0
176
     1
290
     1
176
     1
290
     1
176
     1
290
     0
176
     1
290
     0
176
     1
290
     0
176
     1
290
     0
176
     1
290
     0
176
     1
290
     0
176
     1
 90
       50
176
     1
 40
0.0
176
     1
 40
1.0
176
     1
 90
        0
176
     1
 62
    18
420
        0
176
     1
 90
       50
176
     1
 90
        3
176
     1
 62
     5
420
      255
176
     1
290
     0
176
     1
 90
       50
176
     1
 90
       50
176
     1
 90
       50
176
     1
290
     0
176
     1
 90
       50
176
     1
 62
   256
176
     0
 40
1.0
176
     0
 90
        2
176
     1
  1
strokes_ogs.tif
176
     1
290
     0
176
     1
 40
1.0
176
     1
 40
1.0
176
     1
  0
VISUALSTYLE
  5
3D
102
{ACAD_REACTORS
330
2A
102
}
330
2A
100
AcDbVisualStyle
  2
EdgeColorOff
 70
    22
177
     3
291
     1
 70
    58
 90
        2
176
     0
 90
        2
176
     0
 90
        0
176
     0
 90
        0
176
     0
 40
0.6
176
     0
 40
30.0
176
     0
 62
     7
420
 16777215
176
     0
 90
        1
176
     0
 90
        4
176
     0
 62
     7
176
     0
 62
   257
176
     0
 90
        1
176
     0
 90
        1
176
     0
 40
1.0
176
     0
 90
        8
176
     2
 62
     7
176
     0
 40
1.0
176
     0
 90
        1
176
     0
 90
        6
176
     0
 90
        2
176
     0
 62
     7
176
     0
 90
        5
176
     0
 90
        0
176
     0
 90
        0
176
     0
290
     0
176
     0
 90
        1
176
     0
 40
0.0
176
     0
 90
        0
176
     0
290
     0
176
     0
290
     1
176
     0
290
     1
176
     0
290
     0
176
     0
290
     0
176
     0
290
     0
176
     0
290
     0
176
     0
290
     0
176
     0
290
     0
176
     0
 90
       50
176
     0
 40
0.0
176
     0
 40
1.0
176
     0
 90
        0
176
     0
 62
    18
420
        0
176
     0
 90
       50
176
     0
 90
        3
176
     0
 62
     5
420
      255
176
     0
290
     0
176
     0
 90
       50
176
     0
 90
       50
176
     0
 90
       50
176
     0
290
     0
176
     0
 90
       50
176
     0
 62
   256
176
     0
 40
1.0
176
     0
 90
        2
176
     0
  1
strokes_ogs.tif
176
     0
290
     0
176
     0
 40
1.0
176
     0
 40
1.0
176
     0
  0
VISUALSTYLE
  5
39
102
{ACAD_REACTORS
330
2A
102
}
330
2A
100
AcDbVisualStyle
  2
Facepattern
 70
    15
177
     3
291
     1
 70
    58
 90
        2
176
     1
 90
        2
176
     1
 90
        0
176
     1
 90
        0
176
     1
 40
0.6
176
     1
 40
30.0
176
     1
 62
     7
420
 16777215
176
     1
 90
        1
176
     1
 90
        4
176
     1
 62
     7
176
     1
 62
   257
176
     1
 90
        1
176
     1
 90
        1
176
     1
 40
1.0
176
     1
 90
        8
176
     1
 62
     7
176
     1
 40
1.0
176
     1
 90
        1
176
     1
 90
        6
176
     1
 90
        2
176
     1
 62
     7
176
     1
 90
        5
176
     1
 90
        0
176
     1
 90
        0
176
     1
290
     0
176
     1
 90
        1
176
     1
 40
0.0
176
     1
 90
        0
176
     1
290
     0
176
     1
290
     1
176
     1
290
     1
176
     1
290
     0
176
     1
290
     0
176
     1
290
     0
176
     1
290
     0
176
     1
290
     0
176
     1
290
     0
176
     1
 90
       50
176
     1
 40
0.0
176
     1
 40
1.0
176
     1
 90
        0
176
     1
 62
    18
420
        0
176
     1
 90
       50
176
     1
 90
        3
176
     1
 62
     5
420
      255
176
     1
290
     0
176
     1
 90
       50
176
     1
 90
       50
176
     1
 90
       50
176
     1
290
     0
176
     1
 90
       50
176
     1
 62
   256
176
     0
 40
1.0
176
     0
 90
        2
176
     1
  1
strokes_ogs.tif
176
     1
290
     0
176
     1
 40
1.0
176
     1
 40
1.0
176
     1
  0
VISUALSTYLE
  5
2B
102
{ACAD_REACTORS
330
2A
102
}
330
2A
100
AcDbVisualStyle
  2
Flat
 70
     0
177
     3
291
     1
 70
    58
 90
        2
176
     1
 90
        1
176
     1
 90
        1
176
     1
 90
        2
176
     1
 40
0.6
176
     1
 40
30.0
176
     1
 62
     7
420
 16777215
176
     1
 90
        0
176
     1
 90
        0
176
     1
 62
     7
176
     1
 62
   257
176
     1
 90
        1
176
     1
 90
        1
176
     1
 40
1.0
176
     1
 90
        8
176
     1
 62
     7
176
     1
 40
1.0
176
     1
 90
        1
176
     1
 90
        6
176
     1
 90
        2
176
     1
 62
     7
176
     1
 90
        5
176
     1
 90
        0
176
     1
 90
        0
176
     1
290
     0
176
     1
 90
       13
176
     1
 40
0.0
176
     1
 90
        0
176
     1
290
     0
176
     1
290
     1
176
     1
290
     1
176
     1
290
     0
176
     1
290
     0
176
     1
290
     0
176
     1
290
     0
176
     1
290
     0
176
     1
290
     0
176
     1
 90
       50
176
     1
 40
0.0
176
     1
 40
1.0
176
     1
 90
        0
176
     1
 62
    18
420
        0
176
     1
 90
       50
176
     1
 90
        3
176
     1
 62
     5
420
      255
176
     1
290
     0
176
     1
 90
       50
176
     1
 90
       50
176
     1
 90
       50
176
     1
290
     0
176
     1
 90
       50
176
     1
 62
   256
176
     0
 40
1.0
176
     0
 90
        2
176
     1
  1
strokes_ogs.tif
176
     1
290
     0
176
     1
 40
1.0
176
     1
 40
1.0
176
     1
  0
VISUALSTYLE
  5
2C
102
{ACAD_REACTORS
330
2A
102
}
330
2A
100
AcDbVisualStyle
  2
FlatWithEdges
 70
     1
177
     3
291
     1
 70
    58
 90
        2
176
     1
 90
        1
176
     1
 90
        1
176
     1
 90
        2
176
     1
 40
0.6
176
     1
 40
30.0
176
     1
 62
     7
420
 16777215
176
     1
 90
        1
176
     1
 90
        0
176
     1
 62
     7
176
     1
 62
   257
176
     1
 90
        1
176
     1
 90
        1
176
     1
 40
1.0
176
     1
 90
        0
176
     1
 62
   257
176
     1
 40
1.0
176
     1
 90
        1
176
     1
 90
        6
176
     1
 90
        2
176
     1
 62
     7
176
     1
 90
        5
176
     1
 90
        0
176
     1
 90
        0
176
     1
290
     0
176
     1
 90
       13
176
     1
 40
0.0
176
     1
 90
        0
176
     1
290
     0
176
     1
290
     1
176
     1
290
     1
176
     1
290
     0
176
     1
290
     0
176
     1
290
     0
176
     1
290
     0
176
     1
290
     0
176
     1
290
     0
176
     1
 90
       50
176
     1
 40
0.0
176
     1
 40
1.0
176
     1
 90
        0
176
     1
 62
    18
420
        0
176
     1
 90
       50
176
     1
 90
        3
176
     1
 62
     5
420
      255
176
     1
290
     0
176
     1
 90
       50
176
     1
 90
       50
176
     1
 90
       50
176
     1
290
     0
176
     1
 90
       50
176
     1
 62
   256
176
     0
 40
1.0
176
     0
 90
        2
176
     1
  1
strokes_ogs.tif
176
     1
290
     0
176
     1
 40
1.0
176
     1
 40
1.0
176
     1
  0
VISUALSTYLE
  5
2D
102
{ACAD_REACTORS
330
2A
102
}
330
2A
100
AcDbVisualStyle
  2
Gouraud
 70
     2
177
     3
291
     1
 70
    58
 90
        2
176
     1
 90
        2
176
     1
 90
        1
176
     1
 90
        2
176
     1
 40
0.6
176
     1
 40
30.0
176
     1
 62
     7
420
 16777215
176
     1
 90
        0
176
     1
 90
        0
176
     1
 62
     7
176
     1
 62
   257
176
     1
 90
        1
176
     1
 90
        1
176
     1
 40
1.0
176
     1
 90
        0
176
     1
 62
     7
176
     1
 40
1.0
176
     1
 90
        1
176
     1
 90
        6
176
     1
 90
        2
176
     1
 62
     7
176
     1
 90
        5
176
     1
 90
        0
176
     1
 90
        0
176
     1
290
     0
176
     1
 90
       13
176
     1
 40
0.0
176
     1
 90
        0
176
     1
290
     0
176
     1
290
     1
176
     1
290
     1
176
     1
290
     0
176
     1
290
     0
176
     1
290
     0
176
     1
290
     0
176
     1
290
     0
176
     1
290
     0
176
     1
 90
       50
176
     1
 40
0.0
176
     1
 40
1.0
176
     1
 90
        0
176
     1
 62
    18
420
        0
176
     1
 90
       50
176
     1
 90
        3
176
     1
 62
     5
420
      255
176
     1
290
     0
176
     1
 90
       50
176
     1
 90
       50
176
     1
 90
       50
176
     1
290
     0
176
     1
 90
       50
176
     1
 62
   256
176
     0
 40
1.0
176
     0
 90
        2
176
     1
  1
strokes_ogs.tif
176
     1
290
     0
176
     1
 40
1.0
176
     1
 40
1.0
176
     1
  0
VISUALSTYLE
  5
2E
102
{ACAD_REACTORS
330
2A
102
}
330
2A
100
AcDbVisualStyle
  2
GouraudWithEdges
 70
     3
177
     3
291
     1
 70
    58
 90
        2
176
     1
 90
        2
176
     1
 90
        1
176
     1
 90
        2
176
     1
 40
0.6
176
     1
 40
30.0
176
     1
 62
     7
420
 16777215
176
     1
 90
        1
176
     1
 90
        0
176
     1
 62
     7
176
     1
 62
   257
176
     1
 90
        1
176
     1
 90
        1
176
     1
 40
1.0
176
     1
 90
        0
176
     1
 62
   257
176
     1
 40
1.0
176
     1
 90
        1
176
     1
 90
        6
176
     1
 90
        2
176
     1
 62
     7
176
     1
 90
        5
176
     1
 90
        0
176
     1
 90
        0
176
     1
290
     0
176
     1
 90
       13
176
     1
 40
0.0
176
     1
 90
        0
176
     1
290
     0
176
     1
290
     1
176
     1
290
     1
176
     1
290
     0
176
     1
290
     0
176
     1
290
     0
176
     1
290
     0
176
     1
290
     0
176
     1
290
     0
176
     1
 90
       50
176
     1
 40
0.0
176
     1
 40
1.0
176
     1
 90
        0
176
     1
 62
    18
420
        0
176
     1
 90
       50
176
     1
 90
        3
176
     1
 62
     5
420
      255
176
     1
290
     0
176
     1
 90
       50
176
     1
 90
       50
176
     1
 90
       50
176
     1
290
     0
176
     1
 90
       50
176
     1
 62
   256
176
     0
 40
1.0
176
     0
 90
        2
176
     1
  1
strokes_ogs.tif
176
     1
290
     0
176
     1
 40
1.0
176
     1
 40
1.0
176
     1
  0
VISUALSTYLE
  5
31
102
{ACAD_REACTORS
330
2A
102
}
330
2A
100
AcDbVisualStyle
  2
Hidden
 70
     6
177
     3
291
     0
 70
    58
 90
        1
176
     1
 90
        2
176
     1
 90
        2
176
     1
 90
        0
176
     1
 40
0.6
176
     1
 40
30.0
176
     1
 62
     7
420
 16777215
176
     1
 90
        2
176
     1
 90
        2
176
     1
 62
     7
176
     1
 62
   257
176
     1
 90
        2
176
     1
 90
        1
176
     1
 40
40.0
176
     1
 90
        0
176
     1
 62
   257
176
     1
 40
1.0
176
     1
 90
        1
176
     1
 90
        6
176
     1
 90
        2
176
     1
 62
     7
176
     1
 90
        3
176
     1
 90
        0
176
     1
 90
        0
176
     1
290
     0
176
     1
 90
        1
176
     1
 40
0.0
176
     1
 90
        0
176
     1
290
     0
176
     1
290
     1
176
     1
290
     1
176
     1
290
     0
176
     1
290
     0
176
     1
290
     0
176
     1
290
     0
176
     1
290
     0
176
     1
290
     0
176
     1
 90
       50
176
     1
 40
0.0
176
     1
 40
1.0
176
     1
 90
        0
176
     1
 62
    18
420
        0
176
     1
 90
       50
176
     1
 90
        3
176
     1
 62
     5
420
      255
176
     1
290
     0
176
     1
 90
       50
176
     1
 90
       50
176
     1
 90
       50
176
     1
290
     0
176
     1
 90
       50
176
     1
 62
   256
176
     0
 40
1.0
176
     0
 90
        2
176
     1
  1
strokes_ogs.tif
176
     1
290
     0
176
     1
 40
1.0
176
     1
 40
1.0
176
     1
  0
VISUALSTYLE
  5
3B
102
{ACAD_REACTORS
330
2A
102
}
330
2A
100
AcDbVisualStyle
  2
JitterOff
 70
    20
177
     3
291
     1
 70
    58
 90
        2
176
     0
 90
        2
176
     0
 90
        0
176
     0
 90
        0
176
     0
 40
0.6
176
     0
 40
30.0
176
     0
 62
     7
420
 16777215
176
     0
 90
        1
176
     0
 90
        4
176
     0
 62
     7
176
     0
 62
   257
176
     0
 90
        1
176
     0
 90
        1
176
     0
 40
1.0
176
     0
 90
       10
176
     2
 62
     7
176
     0
 40
1.0
176
     0
 90
        1
176
     0
 90
        6
176
     0
 90
        2
176
     0
 62
     7
176
     0
 90
        5
176
     0
 90
        0
176
     0
 90
        0
176
     0
290
     0
176
     0
 90
        1
176
     0
 40
0.0
176
     0
 90
        0
176
     0
290
     0
176
     0
290
     1
176
     0
290
     1
176
     0
290
     0
176
     0
290
     0
176
     0
290
     0
176
     0
290
     0
176
     0
290
     0
176
     0
290
     0
176
     0
 90
       50
176
     0
 40
0.0
176
     0
 40
1.0
176
     0
 90
        0
176
     0
 62
    18
420
        0
176
     0
 90
       50
176
     0
 90
        3
176
     0
 62
     5
420
      255
176
     0
290
     0
176
     0
 90
       50
176
     0
 90
       50
176
     0
 90
       50
176
     0
290
     0
176
     0
 90
       50
176
     0
 62
   256
176
     0
 40
1.0
176
     0
 90
        2
176
     0
  1
strokes_ogs.tif
176
     0
290
     0
176
     0
 40
1.0
176
     0
 40
1.0
176
     0
  0
VISUALSTYLE
  5
38
102
{ACAD_REACTORS
330
2A
102
}
330
2A
100
AcDbVisualStyle
  2
Linepattern
 70
    14
177
     3
291
     1
 70
    58
 90
        2
176
     1
 90
        2
176
     1
 90
        0
176
     1
 90
        0
176
     1
 40
0.6
176
     1
 40
30.0
176
     1
 62
     7
420
 16777215
176
     1
 90
        1
176
     1
 90
        4
176
     1
 62
     7
176
     1
 62
   257
176
     1
 90
        7
176
     1
 90
        7
176
     1
 40
1.0
176
     1
 90
        8
176
     1
 62
     7
176
     1
 40
1.0
176
     1
 90
        1
176
     1
 90
        6
176
     1
 90
        2
176
     1
 62
     7
176
     1
 90
        5
176
     1
 90
        0
176
     1
 90
        0
176
     1
290
     0
176
     1
 90
        1
176
     1
 40
0.0
176
     1
 90
        0
176
     1
290
     0
176
     1
290
     1
176
     1
290
     1
176
     1
290
     0
176
     1
290
     0
176
     1
290
     0
176
     1
290
     0
176
     1
290
     0
176
     1
290
     0
176
     1
 90
       50
176
     1
 40
0.0
176
     1
 40
1.0
176
     1
 90
        0
176
     1
 62
    18
420
        0
176
     1
 90
       50
176
     1
 90
        3
176
     1
 62
     5
420
      255
176
     1
290
     0
176
     1
 90
       50
176
     1
 90
       50
176
     1
 90
       50
176
     1
290
     0
176
     1
 90
       50
176
     1
 62
   256
176
     0
 40
1.0
176
     0
 90
        2
176
     1
  1
strokes_ogs.tif
176
     1
290
     0
176
     1
 40
1.0
176
     1
 40
1.0
176
     1
  0
VISUALSTYLE
  5
3C
102
{ACAD_REACTORS
330
2A
102
}
330
2A
100
AcDbVisualStyle
  2
OverhangOff
 70
    21
177
     3
291
     1
 70
    58
 90
        2
176
     0
 90
        2
176
     0
 90
        0
176
     0
 90
        0
176
     0
 40
0.6
176
     0
 40
30.0
176
     0
 62
     7
420
 16777215
176
     0
 90
        1
176
     0
 90
        4
176
     0
 62
     7
176
     0
 62
   257
176
     0
 90
        1
176
     0
 90
        1
176
     0
 40
1.0
176
     0
 90
        9
176
     2
 62
     7
176
     0
 40
1.0
176
     0
 90
        1
176
     0
 90
        6
176
     0
 90
        2
176
     0
 62
     7
176
     0
 90
        5
176
     0
 90
        0
176
     0
 90
        0
176
     0
290
     0
176
     0
 90
        1
176
     0
 40
0.0
176
     0
 90
        0
176
     0
290
     0
176
     0
290
     1
176
     0
290
     1
176
     0
290
     0
176
     0
290
     0
176
     0
290
     0
176
     0
290
     0
176
     0
290
     0
176
     0
290
     0
176
     0
 90
       50
176
     0
 40
0.0
176
     0
 40
1.0
176
     0
 90
        0
176
     0
 62
    18
420
        0
176
     0
 90
       50
176
     0
 90
        3
176
     0
 62
     5
420
      255
176
     0
290
     0
176
     0
 90
       50
176
     0
 90
       50
176
     0
 90
       50
176
     0
290
     0
176
     0
 90
       50
176
     0
 62
   256
176
     0
 40
1.0
176
     0
 90
        2
176
     0
  1
strokes_ogs.tif
176
     0
290
     0
176
     0
 40
1.0
176
     0
 40
1.0
176
     0
  0
VISUALSTYLE
  5
33
102
{ACAD_REACTORS
330
2A
102
}
330
2A
100
AcDbVisualStyle
  2
Realistic
 70
     8
177
     3
291
     0
 70
    58
 90
        2
176
     1
 90
        3
176
     1
 90
        0
176
     1
 90
        2
176
     1
 40
0.6
176
     1
 40
30.0
176
     1
 62
     7
420
 16777215
176
     1
 90
        0
176
     1
 90
        0
176
     1
 62
     7
176
     1
 62
   257
176
     1
 90
        1
176
     1
 90
        1
176
     1
 40
1.0
176
     1
 90
        8
176
     1
 62
   257
176
     1
 40
1.0
176
     1
 90
        1
176
     1
 90
        6
176
     1
 90
        2
176
     1
 62
     7
176
     1
 90
        3
176
     1
 90
        0
176
     1
 90
        0
176
     1
290
     0
176
     1
 90
       13
176
     1
 40
0.0
176
     1
 90
        0
176
     1
290
     0
176
     1
290
     1
176
     1
290
     1
176
     1
290
     0
176
     1
290
     0
176
     1
290
     0
176
     1
290
     0
176
     1
290
     0
176
     1
290
     0
176
     1
 90
       50
176
     1
 40
0.0
176
     1
 40
1.0
176
     1
 90
        0
176
     1
 62
    18
420
        0
176
     1
 90
       50
176
     1
 90
        3
176
     1
 62
     5
420
      255
176
     1
290
     0
176
     1
 90
       50
176
     1
 90
       50
176
     1
 90
       50
176
     1
290
     0
176
     1
 90
       50
176
     1
 62
   256
176
     0
 40
1.0
176
     0
 90
        2
176
     1
  1
strokes_ogs.tif
176
     1
290
     0
176
     1
 40
1.0
176
     1
 40
1.0
176
     1
  0
VISUALSTYLE
  5
42
102
{ACAD_REACTORS
330
2A
102
}
330
2A
100
AcDbVisualStyle
  2
Shaded
 70
    27
177
     3
291
     0
 70
    58
 90
        2
176
     1
 90
        2
176
     1
 90
        1
176
     1
 90
        2
176
     1
 40
0.6
176
     1
 40
30.0
176
     1
 62
     7
420
 16777215
176
     1
 90
        0
176
     1
 90
        4
176
     1
 62
     7
176
     1
 62
   257
176
     1
 90
        1
176
     1
 90
        1
176
     1
 40
1.0
176
     1
 90
        8
176
     1
 62
   257
176
     1
 40
1.0
176
     1
 90
        1
176
     1
 90
        6
176
     1
 90
        2
176
     1
 62
     8
420
  7895160
176
     1
 90
        3
176
     1
 90
        0
176
     1
 90
        0
176
     1
290
     0
176
     1
 90
        5
176
     1
 40
0.0
176
     1
 90
        0
176
     1
290
     0
176
     1
290
     1
176
     1
290
     1
176
     1
290
     0
176
     1
290
     0
176
     1
290
     0
176
     1
290
     0
176
     1
290
     0
176
     1
290
     0
176
     1
 90
       50
176
     1
 40
0.0
176
     1
 40
1.0
176
     1
 90
        0
176
     1
 62
    18
420
        0
176
     1
 90
       50
176
     1
 90
        3
176
     1
 62
     5
420
      255
176
     1
290
     0
176
     1
 90
       50
176
     1
 90
       50
176
     1
 90
       50
176
     1
290
     0
176
     1
 90
       50
176
     1
 62
   256
176
     0
 40
1.0
176
     0
 90
        2
176
     1
  1
strokes_ogs.tif
176
     1
290
     0
176
     1
 40
1.0
176
     1
 40
1.0
176
     1
  0
VISUALSTYLE
  5
41
102
{ACAD_REACTORS
330
2A
102
}
330
2A
100
AcDbVisualStyle
  2
Shaded with edges
 70
    26
177
     3
291
     0
 70
    58
 90
        2
176
     1
 90
        2
176
     1
 90
        1
176
     1
 90
        2
176
     1
 40
0.6
176
     1
 40
30.0
176
     1
 62
     7
420
 16777215
176
     1
 90
        1
176
     1
 90
       10
176
     1
 62
     7
176
     1
 62
   257
176
     1
 90
        2
176
     1
 90
        1
176
     1
 40
1.0
176
     1
 90
        8
176
     1
 62
   257
176
     1
 40
1.0
176
     1
 90
        1
176
     1
 90
        6
176
     1
 90
        2
176
     1
 62
     7
176
     1
 90
        3
176
     1
 90
        0
176
     1
 90
        0
176
     1
290
     0
176
     1
 90
        5
176
     1
 40
0.0
176
     1
 90
        0
176
     1
290
     0
176
     1
290
     1
176
     1
290
     1
176
     1
290
     0
176
     1
290
     0
176
     1
290
     0
176
     1
290
     0
176
     1
290
     0
176
     1
290
     0
176
     1
 90
       50
176
     1
 40
0.0
176
     1
 40
1.0
176
     1
 90
        0
176
     1
 62
    18
420
        0
176
     1
 90
       50
176
     1
 90
        3
176
     1
 62
     5
420
      255
176
     1
290
     0
176
     1
 90
       50
176
     1
 90
       50
176
     1
 90
       50
176
     1
290
     0
176
     1
 90
       50
176
     1
 62
   256
176
     0
 40
1.0
176
     0
 90
        2
176
     1
  1
strokes_ogs.tif
176
     1
290
     0
176
     1
 40
1.0
176
     1
 40
1.0
176
     1
  0
VISUALSTYLE
  5
3E
102
{ACAD_REACTORS
330
2A
102
}
330
2A
100
AcDbVisualStyle
  2
Shades of Gray
 70
    23
177
     3
291
     0
 70
    58
 90
        2
176
     1
 90
        2
176
     1
 90
        3
176
     1
 90
        0
176
     1
 40
0.6
176
     1
 40
30.0
176
     1
 62
     7
420
 16777215
176
     1
 90
        2
176
     1
 90
        2
176
     1
 62
     7
176
     1
 62
     7
176
     1
 90
        1
176
     1
 90
        1
176
     1
 40
40.0
176
     1
 90
        8
176
     1
 62
     7
176
     1
 40
1.0
176
     1
 90
        1
176
     1
 90
        6
176
     1
 90
        2
176
     1
 62
     7
176
     1
 90
        3
176
     1
 90
        0
176
     1
 90
        0
176
     1
290
     0
176
     1
 90
        1
176
     1
 40
0.0
176
     1
 90
        0
176
     1
290
     0
176
     1
290
     1
176
     1
290
     1
176
     1
290
     0
176
     1
290
     0
176
     1
290
     0
176
     1
290
     0
176
     1
290
     0
176
     1
290
     0
176
     1
 90
       50
176
     1
 40
0.0
176
     1
 40
1.0
176
     1
 90
        0
176
     1
 62
    18
420
        0
176
     1
 90
       50
176
     1
 90
        3
176
     1
 62
     5
420
      255
176
     1
290
     0
176
     1
 90
       50
176
     1
 90
       50
176
     1
 90
       50
176
     1
290
     0
176
     1
 90
       50
176
     1
 62
   256
176
     0
 40
1.0
176
     0
 90
        2
176
     1
  1
strokes_ogs.tif
176
     1
290
     0
176
     1
 40
1.0
176
     1
 40
1.0
176
     1
  0
VISUALSTYLE
  5
3F
102
{ACAD_REACTORS
330
2A
102
}
330
2A
100
AcDbVisualStyle
  2
Sketchy
 70
    24
177
     3
291
     0
 70
    58
 90
        1
176
     1
 90
        2
176
     1
 90
        2
176
     1
 90
        0
176
     1
 40
0.6
176
     1
 40
30.0
176
     1
 62
     7
420
 16777215
176
     1
 90
        2
176
     1
 90
        2
176
     1
 62
     7
176
     1
 62
     7
176
     1
 90
        1
176
     1
 90
        1
176
     1
 40
40.0
176
     1
 90
       11
176
     1
 62
     7
176
     1
 40
1.0
176
     1
 90
        1
176
     1
 90
        6
176
     1
 90
        2
176
     1
 62
     7
176
     1
 90
        6
176
     1
 90
        0
176
     1
 90
        0
176
     1
290
     0
176
     1
 90
        1
176
     1
 40
0.0
176
     1
 90
        0
176
     1
290
     0
176
     1
290
     1
176
     1
290
     1
176
     1
290
     0
176
     1
290
     0
176
     1
290
     0
176
     1
290
     0
176
     1
290
     0
176
     1
290
     0
176
     1
 90
       50
176
     1
 40
0.0
176
     1
 40
1.0
176
     1
 90
        0
176
     1
 62
    18
420
        0
176
     1
 90
       50
176
     1
 90
        3
176
     1
 62
     5
420
      255
176
     1
290
     0
176
     1
 90
       50
176
     1
 90
       50
176
     1
 90
       50
176
     1
290
     0
176
     1
 90
       50
176
     1
 62
   256
176
     0
 40
1.0
176
     0
 90
        2
176
     1
  1
strokes_ogs.tif
176
     1
290
     0
176
     1
 40
1.0
176
     1
 40
1.0
176
     1
  0
VISUALSTYLE
  5
37
102
{ACAD_REACTORS
330
2A
102
}
330
2A
100
AcDbVisualStyle
  2
Thicken
 70
    13
177
     3
291
     1
 70
    58
 90
        2
176
     1
 90
        2
176
     1
 90
        0
176
     1
 90
        0
176
     1
 40
0.6
176
     1
 40
30.0
176
     1
 62
     7
420
 16777215
176
     1
 90
        1
176
     1
 90
        4
176
     1
 62
     7
176
     1
 62
   257
176
     1
 90
        1
176
     1
 90
        1
176
     1
 40
1.0
176
     1
 90
       12
176
     1
 62
     7
176
     1
 40
1.0
176
     1
 90
        1
176
     1
 90
        6
176
     1
 90
        2
176
     1
 62
     7
176
     1
 90
        5
176
     1
 90
        0
176
     1
 90
        0
176
     1
290
     0
176
     1
 90
        1
176
     1
 40
0.0
176
     1
 90
        0
176
     1
290
     0
176
     1
290
     1
176
     1
290
     1
176
     1
290
     0
176
     1
290
     0
176
     1
290
     0
176
     1
290
     0
176
     1
290
     0
176
     1
290
     0
176
     1
 90
       50
176
     1
 40
0.0
176
     1
 40
1.0
176
     1
 90
        0
176
     1
 62
    18
420
        0
176
     1
 90
       50
176
     1
 90
        3
176
     1
 62
     5
420
      255
176
     1
290
     0
176
     1
 90
       50
176
     1
 90
       50
176
     1
 90
       50
176
     1
290
     0
176
     1
 90
       50
176
     1
 62
   256
176
     0
 40
1.0
176
     0
 90
        2
176
     1
  1
strokes_ogs.tif
176
     1
290
     0
176
     1
 40
1.0
176
     1
 40
1.0
176
     1
  0
VISUALSTYLE
  5
30
102
{ACAD_REACTORS
330
2A
102
}
330
2A
100
AcDbVisualStyle
  2
Wireframe
 70
     5
177
     3
291
     0
 70
    58
 90
        0
176
     1
 90
        2
176
     1
 90
        0
176
     1
 90
        0
176
     1
 40
0.6
176
     1
 40
30.0
176
     1
 62
     7
420
 16777215
176
     1
 90
        1
176
     1
 90
        4
176
     1
 62
     7
176
     1
 62
   257
176
     1
 90
        1
176
     1
 90
        1
176
     1
 40
1.0
176
     1
 90
        0
176
     1
 62
   257
176
     1
 40
1.0
176
     1
 90
        1
176
     1
 90
        6
176
     1
 90
        2
176
     1
 62
     7
176
     1
 90
        3
176
     1
 90
        0
176
     1
 90
        0
176
     1
290
     0
176
     1
 90
        1
176
     1
 40
0.0
176
     1
 90
        0
176
     1
290
     0
176
     1
290
     1
176
     1
290
     1
176
     1
290
     0
176
     1
290
     0
176
     1
290
     0
176
     1
290
     0
176
     1
290
     0
176
     1
290
     0
176
     1
 90
       50
176
     1
 40
0.0
176
     1
 40
1.0
176
     1
 90
        0
176
     1
 62
    18
420
        0
176
     1
 90
       50
176
     1
 90
        3
176
     1
 62
     5
420
      255
176
     1
290
     0
176
     1
 90
       50
176
     1
 90
       50
176
     1
 90
       50
176
     1
290
     0
176
     1
 90
       50
176
     1
 62
   256
176
     0
 40
1.0
176
     0
 90
        2
176
     1
  1
strokes_ogs.tif
176
     1
290
     0
176
     1
 40
1.0
176
     1
 40
1.0
176
     1
  0
VISUALSTYLE
  5
40
102
{ACAD_REACTORS
330
2A
102
}
330
2A
100
AcDbVisualStyle
  2
X-Ray
 70
    25
177
     3
291
     0
 70
    58
 90
        2
176
     1
 90
        2
176
     1
 90
        1
176
     1
 90
        1
176
     1
 40
0.5
176
     1
 40
30.0
176
     1
 62
     7
420
 16777215
176
     1
 90
        1
176
     1
 90
        0
176
     1
 62
     7
176
     1
 62
   257
176
     1
 90
        1
176
     1
 90
        1
176
     1
 40
1.0
176
     1
 90
        8
176
     1
 62
     7
176
     1
 40
1.0
176
     1
 90
        1
176
     1
 90
        6
176
     1
 90
        2
176
     1
 62
     7
176
     1
 90
        3
176
     1
 90
        0
176
     1
 90
        0
176
     1
290
     0
176
     1
 90
       13
176
     1
 40
0.0
176
     1
 90
        0
176
     1
290
     0
176
     1
290
     1
176
     1
290
     1
176
     1
290
     0
176
     1
290
     0
176
     1
290
     0
176
     1
290
     0
176
     1
290
     0
176
     1
290
     0
176
     1
 90
       50
176
     1
 40
0.0
176
     1
 40
1.0
176
     1
 90
        0
176
     1
 62
    18
420
        0
176
     1
 90
       50
176
     1
 90
        3
176
     1
 62
     5
420
      255
176
     1
290
     0
176
     1
 90
       50
176
     1
 90
       50
176
     1
 90
       50
176
     1
290
     0
176
     1
 90
       50
176
     1
 62
   256
176
     0
 40
1.0
176
     0
 90
        2
176
     1
  1
strokes_ogs.tif
176
     1
290
     0
176
     1
 40
1.0
176
     1
 40
1.0
176
     1
  0
DICTIONARYVAR
  5
87
102
{ACAD_REACTORS
330
86
102
}
330
86
100
DictionaryVariables
280
     0
  1
1:1
  0
DICTIONARYVAR
  5
8C
102
{ACAD_REACTORS
330
86
102
}
330
86
100
DictionaryVariables
280
     0
  1
Standard
  0
DICTIONARYVAR
  5
8B
102
{ACAD_REACTORS
330
86
102
}
330
86
100
DictionaryVariables
280
     0
  1
Standard
  0
DICTIONARY
  5
88
330
5A
100
AcDbDictionary
280
     1
281
     1
  3
ACAD_ROUNDTRIP_2008_TABLESTYLE_CELLSTYLEMAP
360
89
  0
CELLSTYLEMAP
  5
89
102
{ACAD_REACTORS
330
88
102
}
330
88
100
AcDbCellStyleMap
 90
        3
300
CELLSTYLE
  1
TABLEFORMAT_BEGIN
 90
        5
170
     1
 91
        0
 92
    32768
 62
   257
 93
        1
300
CONTENTFORMAT
  1
CONTENTFORMAT_BEGIN
 90
        0
 91
        0
 92
        4
 93
        0
300

 40
0.0
140
1.0
 94
        5
 62
     0
340
11
144
0.25
309
CONTENTFORMAT_END
171
     1
301
MARGIN
  1
CELLMARGIN_BEGIN
 40
0.06
 40
0.06
 40
0.06
 40
0.06
 40
0.06
 40
0.06
309
CELLMARGIN_END
 94
        6
 95
        1
302
GRIDFORMAT
  1
GRIDFORMAT_BEGIN
 90
        0
 91
        1
 62
     0
 92
       -2
340
14
 93
        0
 40
0.045
309
GRIDFORMAT_END
 95
        2
302
GRIDFORMAT
  1
GRIDFORMAT_BEGIN
 90
        0
 91
        1
 62
     0
 92
       -2
340
14
 93
        0
 40
0.045
309
GRIDFORMAT_END
 95
        4
302
GRIDFORMAT
  1
GRIDFORMAT_BEGIN
 90
        0
 91
        1
 62
     0
 92
       -2
340
14
 93
        0
 40
0.045
309
GRIDFORMAT_END
 95
        8
302
GRIDFORMAT
  1
GRIDFORMAT_BEGIN
 90
        0
 91
        1
 62
     0
 92
       -2
340
14
 93
        0
 40
0.045
309
GRIDFORMAT_END
 95
       16
302
GRIDFORMAT
  1
GRIDFORMAT_BEGIN
 90
        0
 91
        1
 62
     0
 92
       -2
340
14
 93
        0
 40
0.045
309
GRIDFORMAT_END
 95
       32
302
GRIDFORMAT
  1
GRIDFORMAT_BEGIN
 90
        0
 91
        1
 62
     0
 92
       -2
340
14
 93
        0
 40
0.045
309
GRIDFORMAT_END
309
TABLEFORMAT_END
  1
CELLSTYLE_BEGIN
 90
        1
 91
        1
300
_TITLE
309
CELLSTYLE_END
300
CELLSTYLE
  1
TABLEFORMAT_BEGIN
 90
        5
170
     1
 91
        0
 92
        0
 62
   257
 93
        1
300
CONTENTFORMAT
  1
CONTENTFORMAT_BEGIN
 90
        0
 91
        0
 92
        4
 93
        0
300

 40
0.0
140
1.0
 94
        5
 62
     0
340
11
144
0.18
309
CONTENTFORMAT_END
171
     1
301
MARGIN
  1
CELLMARGIN_BEGIN
 40
0.06
 40
0.06
 40
0.06
 40
0.06
 40
0.06
 40
0.06
309
CELLMARGIN_END
 94
        6
 95
        1
302
GRIDFORMAT
  1
GRIDFORMAT_BEGIN
 90
        0
 91
        1
 62
     0
 92
       -2
340
14
 93
        0
 40
0.045
309
GRIDFORMAT_END
 95
        2
302
GRIDFORMAT
  1
GRIDFORMAT_BEGIN
 90
        0
 91
        1
 62
     0
 92
       -2
340
14
 93
        0
 40
0.045
309
GRIDFORMAT_END
 95
        4
302
GRIDFORMAT
  1
GRIDFORMAT_BEGIN
 90
        0
 91
        1
 62
     0
 92
       -2
340
14
 93
        0
 40
0.045
309
GRIDFORMAT_END
 95
        8
302
GRIDFORMAT
  1
GRIDFORMAT_BEGIN
 90
        0
 91
        1
 62
     0
 92
       -2
340
14
 93
        0
 40
0.045
309
GRIDFORMAT_END
 95
       16
302
GRIDFORMAT
  1
GRIDFORMAT_BEGIN
 90
        0
 91
        1
 62
     0
 92
       -2
340
14
 93
        0
 40
0.045
309
GRIDFORMAT_END
 95
       32
302
GRIDFORMAT
  1
GRIDFORMAT_BEGIN
 90
        0
 91
        1
 62
     0
 92
       -2
340
14
 93
        0
 40
0.045
309
GRIDFORMAT_END
309
TABLEFORMAT_END
  1
CELLSTYLE_BEGIN
 90
        2
 91
        1
300
_HEADER
309
CELLSTYLE_END
300
CELLSTYLE
  1
TABLEFORMAT_BEGIN
 90
        5
170
     1
 91
        0
 92
        0
 62
   257
 93
        1
300
CONTENTFORMAT
  1
CONTENTFORMAT_BEGIN
 90
        0
 91
        0
 92
        4
 93
        0
300

 40
0.0
140
1.0
 94
        2
 62
     0
340
11
144
0.18
309
CONTENTFORMAT_END
171
     1
301
MARGIN
  1
CELLMARGIN_BEGIN
 40
0.06
 40
0.06
 40
0.06
 40
0.06
 40
0.06
 40
0.06
309
CELLMARGIN_END
 94
        6
 95
        1
302
GRIDFORMAT
  1
GRIDFORMAT_BEGIN
 90
        0
 91
        1
 62
     0
 92
       -2
340
14
 93
        0
 40
0.045
309
GRIDFORMAT_END
 95
        2
302
GRIDFORMAT
  1
GRIDFORMAT_BEGIN
 90
        0
 91
        1
 62
     0
 92
       -2
340
14
 93
        0
 40
0.045
309
GRIDFORMAT_END
 95
        4
302
GRIDFORMAT
  1
GRIDFORMAT_BEGIN
 90
        0
 91
        1
 62
     0
 92
       -2
340
14
 93
        0
 40
0.045
309
GRIDFORMAT_END
 95
        8
302
GRIDFORMAT
  1
GRIDFORMAT_BEGIN
 90
        0
 91
        1
 62
     0
 92
       -2
340
14
 93
        0
 40
0.045
309
GRIDFORMAT_END
 95
       16
302
GRIDFORMAT
  1
GRIDFORMAT_BEGIN
 90
        0
 91
        1
 62
     0
 92
       -2
340
14
 93
        0
 40
0.045
309
GRIDFORMAT_END
 95
       32
302
GRIDFORMAT
  1
GRIDFORMAT_BEGIN
 90
        0
 91
        1
 62
     0
 92
       -2
340
14
 93
        0
 40
0.045
309
GRIDFORMAT_END
309
TABLEFORMAT_END
  1
CELLSTYLE_BEGIN
 90
        3
 91
        2
300
_DATA
309
CELLSTYLE_END
  0
ENDSEC
  0
EOF
