  0
SECTION
  2
HEADER
  9
$ACADVER
  1
AC1027
  9
$ACADMAINTVER
 70
   105
  9
$DWGCODEPAGE
  3
ANSI_1252
  9
$LASTSAVEDBY
  1
Office Desk
  9
$REQUIREDVERSIONS
160
                 0
  9
$INSBASE
 10
0.0
 20
0.0
 30
0.0
  9
$EXTMIN
 10
-29.43916141732284
 20
-7.71355905511811
 30
0.0
  9
$EXTMAX
 10
-17.74029921259843
 20
14.83635826771654
 30
0.0
  9
$LIMMIN
 10
0.0
 20
0.0
  9
$LIMMAX
 10
12.0
 20
9.0
  9
$ORTHOMODE
 70
     0
  9
$REGENMODE
 70
     1
  9
$FILLMODE
 70
     1
  9
$QTEXTMODE
 70
     0
  9
$MIRRTEXT
 70
     1
  9
$LTSCALE
 40
1.0
  9
$ATTMODE
 70
     1
  9
$TEXTSIZE
 40
0.2
  9
$TRACEWID
 40
0.05
  9
$TEXTSTYLE
  7
Standard
  9
$CLAYER
  8
0
  9
$CELTYPE
  6
ByLayer
  9
$CECOLOR
 62
   256
  9
$CELTSCALE
 40
1.0
  9
$DISPSILH
 70
     0
  9
$DIMSCALE
 40
1.0
  9
$DIMASZ
 40
0.18
  9
$DIMEXO
 40
0.0625
  9
$DIMDLI
 40
0.38
  9
$DIMRND
 40
0.0
  9
$DIMDLE
 40
0.0
  9
$DIMEXE
 40
0.18
  9
$DIMTP
 40
0.0
  9
$DIMTM
 40
0.0
  9
$DIMTXT
 40
0.18
  9
$DIMCEN
 40
0.09
  9
$DIMTSZ
 40
0.0
  9
$DIMTOL
 70
     0
  9
$DIMLIM
 70
     0
  9
$DIMTIH
 70
     1
  9
$DIMTOH
 70
     1
  9
$DIMSE1
 70
     0
  9
$DIMSE2
 70
     0
  9
$DIMTAD
 70
     0
  9
$DIMZIN
 70
     0
  9
$DIMBLK
  1

  9
$DIMASO
 70
     1
  9
$DIMSHO
 70
     1
  9
$DIMPOST
  1

  9
$DIMAPOST
  1

  9
$DIMALT
 70
     0
  9
$DIMALTD
 70
     2
  9
$DIMALTF
 40
25.4
  9
$DIMLFAC
 40
1.0
  9
$DIMTOFL
 70
     0
  9
$DIMTVP
 40
0.0
  9
$DIMTIX
 70
     0
  9
$DIMSOXD
 70
     0
  9
$DIMSAH
 70
     0
  9
$DIMBLK1
  1

  9
$DIMBLK2
  1

  9
$DIMSTYLE
  2
Standard
  9
$DIMCLRD
 70
     0
  9
$DIMCLRE
 70
     0
  9
$DIMCLRT
 70
     0
  9
$DIMTFAC
 40
1.0
  9
$DIMGAP
 40
0.09
  9
$DIMJUST
 70
     0
  9
$DIMSD1
 70
     0
  9
$DIMSD2
 70
     0
  9
$DIMTOLJ
 70
     1
  9
$DIMTZIN
 70
     0
  9
$DIMALTZ
 70
     0
  9
$DIMALTTZ
 70
     0
  9
$DIMUPT
 70
     0
  9
$DIMDEC
 70
     4
  9
$DIMTDEC
 70
     4
  9
$DIMALTU
 70
     2
  9
$DIMALTTD
 70
     2
  9
$DIMTXSTY
  7
Standard
  9
$DIMAUNIT
 70
     0
  9
$DIMADEC
 70
     0
  9
$DIMALTRND
 40
0.0
  9
$DIMAZIN
 70
     0
  9
$DIMDSEP
 70
    46
  9
$DIMATFIT
 70
     3
  9
$DIMFRAC
 70
     0
  9
$DIMLDRBLK
  1

  9
$DIMLUNIT
 70
     2
  9
$DIMLWD
 70
    -2
  9
$DIMLWE
 70
    -2
  9
$DIMTMOVE
 70
     0
  9
$DIMFXL
 40
1.0
  9
$DIMFXLON
 70
     0
  9
$DIMJOGANG
 40
0.7853981633974483
  9
$DIMTFILL
 70
     0
  9
$DIMTFILLCLR
 70
     0
  9
$DIMARCSYM
 70
     0
  9
$DIMLTYPE
  6

  9
$DIMLTEX1
  6

  9
$DIMLTEX2
  6

  9
$DIMTXTDIRECTION
 70
     0
  9
$LUNITS
 70
     2
  9
$LUPREC
 70
     4
  9
$SKETCHINC
 40
0.1
  9
$FILLETRAD
 40
0.0
  9
$AUNITS
 70
     0
  9
$AUPREC
 70
     0
  9
$MENU
  1
.
  9
$ELEVATION
 40
0.0
  9
$PELEVATION
 40
0.0
  9
$THICKNESS
 40
0.0
  9
$LIMCHECK
 70
     0
  9
$CHAMFERA
 40
0.0
  9
$CHAMFERB
 40
0.0
  9
$CHAMFERC
 40
0.0
  9
$CHAMFERD
 40
0.0
  9
$SKPOLY
 70
     0
  9
$TDCREATE
 40
2461020.682802928
  9
$TDUCREATE
 40
2461020.453636262
  9
$TDUPDATE
 40
2461020.682803206
  9
$TDUUPDATE
 40
2461020.453636539
  9
$TDINDWG
 40
0.0000000116
  9
$TDUSRTIMER
 40
0.0000000116
  9
$USRTIMER
 70
     1
  9
$ANGBASE
 50
0.0
  9
$ANGDIR
 70
     0
  9
$PDMODE
 70
     0
  9
$PDSIZE
 40
0.0
  9
$PLINEWID
 40
0.0
  9
$SPLFRAME
 70
     0
  9
$SPLINETYPE
 70
     6
  9
$SPLINESEGS
 70
     8
  9
$HANDSEED
  5
92
  9
$SURFTAB1
 70
     6
  9
$SURFTAB2
 70
     6
  9
$SURFTYPE
 70
     6
  9
$SURFU
 70
     6
  9
$SURFV
 70
     6
  9
$UCSBASE
  2

  9
$UCSNAME
  2

  9
$UCSORG
 10
0.0
 20
0.0
 30
0.0
  9
$UCSXDIR
 10
1.0
 20
0.0
 30
0.0
  9
$UCSYDIR
 10
0.0
 20
1.0
 30
0.0
  9
$UCSORTHOREF
  2

  9
$UCSORTHOVIEW
 70
     0
  9
$UCSORGTOP
 10
0.0
 20
0.0
 30
0.0
  9
$UCSORGBOTTOM
 10
0.0
 20
0.0
 30
0.0
  9
$UCSORGLEFT
 10
0.0
 20
0.0
 30
0.0
  9
$UCSORGRIGHT
 10
0.0
 20
0.0
 30
0.0
  9
$UCSORGFRONT
 10
0.0
 20
0.0
 30
0.0
  9
$UCSORGBACK
 10
0.0
 20
0.0
 30
0.0
  9
$PUCSBASE
  2

  9
$PUCSNAME
  2

  9
$PUCSORG
 10
0.0
 20
0.0
 30
0.0
  9
$PUCSXDIR
 10
1.0
 20
0.0
 30
0.0
  9
$PUCSYDIR
 10
0.0
 20
1.0
 30
0.0
  9
$PUCSORTHOREF
  2

  9
$PUCSORTHOVIEW
 70
     0
  9
$PUCSORGTOP
 10
0.0
 20
0.0
 30
0.0
  9
$PUCSORGBOTTOM
 10
0.0
 20
0.0
 30
0.0
  9
$PUCSORGLEFT
 10
0.0
 20
0.0
 30
0.0
  9
$PUCSORGRIGHT
 10
0.0
 20
0.0
 30
0.0
  9
$PUCSORGFRONT
 10
0.0
 20
0.0
 30
0.0
  9
$PUCSORGBACK
 10
0.0
 20
0.0
 30
0.0
  9
$USERI1
 70
     0
  9
$USERI2
 70
     0
  9
$USERI3
 70
     0
  9
$USERI4
 70
     0
  9
$USERI5
 70
     0
  9
$USERR1
 40
0.0
  9
$USERR2
 40
0.0
  9
$USERR3
 40
0.0
  9
$USERR4
 40
0.0
  9
$USERR5
 40
0.0
  9
$WORLDVIEW
 70
     1
  9
$SHADEDGE
 70
     3
  9
$SHADEDIF
 70
    70
  9
$TILEMODE
 70
     1
  9
$MAXACTVP
 70
    64
  9
$PINSBASE
 10
0.0
 20
0.0
 30
0.0
  9
$PLIMCHECK
 70
     0
  9
$PEXTMIN
 10
1.000000000000000E+20
 20
1.000000000000000E+20
 30
1.000000000000000E+20
  9
$PEXTMAX
 10
-1.000000000000000E+20
 20
-1.000000000000000E+20
 30
-1.000000000000000E+20
  9
$PLIMMIN
 10
0.0
 20
0.0
  9
$PLIMMAX
 10
12.0
 20
9.0
  9
$UNITMODE
 70
     0
  9
$VISRETAIN
 70
     1
  9
$PLINEGEN
 70
     0
  9
$PSLTSCALE
 70
     1
  9
$TREEDEPTH
 70
  3020
  9
$CMLSTYLE
  2
Standard
  9
$CMLJUST
 70
     0
  9
$CMLSCALE
 40
1.0
  9
$PROXYGRAPHICS
 70
     1
  9
$MEASUREMENT
 70
     0
  9
$CELWEIGHT
370
    -1
  9
$ENDCAPS
280
     0
  9
$JOINSTYLE
280
     0
  9
$LWDISPLAY
290
     0
  9
$INSUNITS
 70
     1
  9
$HYPERLINKBASE
  1

  9
$STYLESHEET
  1

  9
$XEDIT
290
     1
  9
$CEPSNTYPE
380
     0
  9
$PSTYLEMODE
290
     1
  9
$FINGERPRINTGUID
  2
{ad30f2cb-cffb-4200-8e1f-4c654a0b1da0}
  9
$VERSIONGUID
  2
{FAEB1C32-E019-11D5-929B-00C0DF256EC4}
  9
$EXTNAMES
290
     1
  9
$PSVPSCALE
 40
0.0
  9
$OLESTARTUP
290
     0
  9
$SORTENTS
280
   127
  9
$INDEXCTL
280
     0
  9
$HIDETEXT
280
     1
  9
$XCLIPFRAME
280
     2
  9
$HALOGAP
280
     0
  9
$OBSCOLOR
 70
   257
  9
$OBSLTYPE
280
     0
  9
$INTERSECTIONDISPLAY
280
     0
  9
$INTERSECTIONCOLOR
 70
   257
  9
$DIMASSOC
280
     2
  9
$PROJECTNAME
  1

  9
$CAMERADISPLAY
290
     0
  9
$LENSLENGTH
 40
50.0
  9
$CAMERAHEIGHT
 40
0.0
  9
$STEPSPERSEC
 40
2.0
  9
$STEPSIZE
 40
6.0
  9
$3DDWFPREC
 40
2.0
  9
$PSOLWIDTH
 40
0.25
  9
$PSOLHEIGHT
 40
4.0
  9
$LOFTANG1
 40
1.570796326794897
  9
$LOFTANG2
 40
1.570796326794897
  9
$LOFTMAG1
 40
0.0
  9
$LOFTMAG2
 40
0.0
  9
$LOFTPARAM
 70
     7
  9
$LOFTNORMALS
280
     1
  9
$LATITUDE
 40
37.795
  9
$LONGITUDE
 40
-122.394
  9
$NORTHDIRECTION
 40
0.0
  9
$TIMEZONE
 70
 -8000
  9
$LIGHTGLYPHDISPLAY
280
     1
  9
$TILEMODELIGHTSYNCH
280
     1
  9
$CMATERIAL
347
44
  9
$SOLIDHIST
280
     0
  9
$SHOWHIST
280
     1
  9
$DWFFRAME
280
     2
  9
$DGNFRAME
280
     2
  9
$REALWORLDSCALE
290
     1
  9
$INTERFERECOLOR
 62
   256
  9
$CSHADOW
280
     0
  9
$SHADOWPLANELOCATION
 40
0.0
  0
ENDSEC
  0
SECTION
  2
CLASSES
  0
CLASS
  1
ACDBDICTIONARYWDFLT
  2
AcDbDictionaryWithDefault
  3
ObjectDBX Classes
 90
        0
 91
        3
280
     0
281
     0
  0
CLASS
  1
VISUALSTYLE
  2
AcDbVisualStyle
  3
ObjectDBX Classes
 90
     4095
 91
        3
280
     0
281
     0
  0
CLASS
  1
MATERIAL
  2
AcDbMaterial
  3
ObjectDBX Classes
 90
     1153
 91
        3
280
     0
281
     0
  0
CLASS
  1
SCALE
  2
AcDbScale
  3
ObjectDBX Classes
 90
     1153
 91
        3
280
     0
281
     0
  0
CLASS
  1
TABLESTYLE
  2
AcDbTableStyle
  3
ObjectDBX Classes
 90
     4095
 91
        3
280
     0
281
     0
  0
CLASS
  1
MLEADERSTYLE
  2
AcDbMLeaderStyle
  3
ACDB_MLEADERSTYLE_CLASS
 90
     4095
 91
        3
280
     0
281
     0
  0
CLASS
  1
SUN
  2
AcDbSun
  3
SCENEOE
 90
     1153
 91
        3
280
     0
281
     0
  0
CLASS
  1
DICTIONARYVAR
  2
AcDbDictionaryVar
  3
ObjectDBX Classes
 90
        0
 91
        3
280
     0
281
     0
  0
CLASS
  1
CELLSTYLEMAP
  2
AcDbCellStyleMap
  3
ObjectDBX Classes
 90
     1152
 91
        3
280
     0
281
     0
  0
ENDSEC
  0
SECTION
  2
TABLES
  0
TABLE
  2
VPORT
  5
8
330
0
100
AcDbSymbolTable
 70
     1
  0
VPORT
  5
29
330
8
100
AcDbSymbolTableRecord
100
AcDbViewportTableRecord
  2
*Active
 70
     0
 10
0.0
 20
0.0
 11
1.0
 21
1.0
 12
10.42990654205607
 22
4.5
 13
0.0
 23
0.0
 14
0.5
 24
0.5
 15
0.5
 25
0.5
 16
0.0
 26
0.0
 36
1.0
 17
0.0
 27
0.0
 37
0.0
 40
9.0
 41
1.972972972850329
 42
50.0
 43
0.0
 44
0.0
 50
0.0
 51
0.0
 71
     0
 72
   100
 73
     1
 74
     3
 75
     0
 76
     0
 77
     0
 78
     0
281
     0
 65
     1
110
0.0
120
0.0
130
0.0
111
1.0
121
0.0
131
0.0
112
0.0
122
1.0
132
0.0
 79
     0
146
0.0
348
2F
 60
     3
 61
     5
292
     1
282
     1
141
0.0
142
0.0
 63
   250
361
5D
  0
ENDTAB
  0
TABLE
  2
LTYPE
  5
5
330
0
100
AcDbSymbolTable
 70
     1
  0
LTYPE
  5
14
330
5
100
AcDbSymbolTableRecord
100
AcDbLinetypeTableRecord
  2
ByBlock
 70
     0
  3

 72
    65
 73
     0
 40
0.0
  0
LTYPE
  5
15
330
5
100
AcDbSymbolTableRecord
100
AcDbLinetypeTableRecord
  2
ByLayer
 70
     0
  3

 72
    65
 73
     0
 40
0.0
  0
LTYPE
  5
16
330
5
100
AcDbSymbolTableRecord
100
AcDbLinetypeTableRecord
  2
Continuous
 70
     0
  3
Solid line
 72
    65
 73
     0
 40
0.0
  0
ENDTAB
  0
TABLE
  2
LAYER
  5
2
330
0
100
AcDbSymbolTable
 70
     2
  0
LAYER
  5
10
330
2
100
AcDbSymbolTableRecord
100
AcDbLayerTableRecord
  2
0
 70
     0
 62
     7
  6
Continuous
370
    -3
390
F
347
46
348
0
  0
LAYER
  5
5F
330
2
100
AcDbSymbolTableRecord
100
AcDbLayerTableRecord
  2
Layer 1
 70
     0
 62
     7
  6
Continuous
370
    -3
390
F
347
46
348
0
  0
ENDTAB
  0
TABLE
  2
STYLE
  5
3
330
0
100
AcDbSymbolTable
 70
     1
  0
STYLE
  5
11
330
3
100
AcDbSymbolTableRecord
100
AcDbTextStyleTableRecord
  2
Standard
 70
     0
 40
0.0
 41
1.0
 50
0.0
 71
     0
 42
0.2
  3
txt
  4

  0
ENDTAB
  0
TABLE
  2
VIEW
  5
6
330
0
100
AcDbSymbolTable
 70
     0
  0
ENDTAB
  0
TABLE
  2
UCS
  5
7
330
0
100
AcDbSymbolTable
 70
     0
  0
ENDTAB
  0
TABLE
  2
APPID
  5
9
330
0
100
AcDbSymbolTable
 70
     2
  0
APPID
  5
12
330
9
100
AcDbSymbolTableRecord
100
AcDbRegAppTableRecord
  2
ACAD
 70
     0
  0
APPID
  5
5E
330
9
100
AcDbSymbolTableRecord
100
AcDbRegAppTableRecord
  2
ODA
 70
     0
  0
ENDTAB
  0
TABLE
  2
DIMSTYLE
  5
A
330
0
100
AcDbSymbolTable
 70
     1
100
AcDbDimStyleTable
  0
DIMSTYLE
105
27
330
A
100
AcDbSymbolTableRecord
100
AcDbDimStyleTableRecord
  2
Standard
 70
     0
178
     0
340
11
  0
ENDTAB
  0
TABLE
  2
BLOCK_RECORD
  5
1
330
0
100
AcDbSymbolTable
 70
     1
  0
BLOCK_RECORD
  5
1F
330
1
100
AcDbSymbolTableRecord
100
AcDbBlockTableRecord
  2
*Model_Space
340
22
 70
     0
280
     1
281
     0
  0
BLOCK_RECORD
  5
1B
330
1
100
AcDbSymbolTableRecord
100
AcDbBlockTableRecord
  2
*Paper_Space
340
1E
 70
     0
280
     1
281
     0
  0
BLOCK_RECORD
  5
23
330
1
100
AcDbSymbolTableRecord
100
AcDbBlockTableRecord
  2
*Paper_Space0
340
26
 70
     0
280
     1
281
     0
  0
ENDTAB
  0
ENDSEC
  0
SECTION
  2
BLOCKS
  0
BLOCK
  5
20
330
1F
100
AcDbEntity
  8
0
100
AcDbBlockBegin
  2
*Model_Space
 70
     0
 10
0.0
 20
0.0
 30
0.0
  3
*Model_Space
  1

  0
ENDBLK
  5
21
330
1F
100
AcDbEntity
  8
0
100
AcDbBlockEnd
  0
BLOCK
  5
1C
330
1B
100
AcDbEntity
 67
     1
  8
0
100
AcDbBlockBegin
  2
*Paper_Space
 70
     0
 10
0.0
 20
0.0
 30
0.0
  3
*Paper_Space
  1

  0
ENDBLK
  5
1D
330
1B
100
AcDbEntity
 67
     1
  8
0
100
AcDbBlockEnd
  0
BLOCK
  5
24
330
23
100
AcDbEntity
  8
0
100
AcDbBlockBegin
  2
*Paper_Space0
 70
     0
 10
0.0
 20
0.0
 30
0.0
  3
*Paper_Space0
  1

  0
ENDBLK
  5
25
330
23
100
AcDbEntity
  8
0
100
AcDbBlockEnd
  0
ENDSEC
  0
SECTION
  2
ENTITIES
  0
LWPOLYLINE
  5
60
330
1F
100
AcDbEntity
  8
Layer 1
 62
   250
370
     9
100
AcDbPolyline
 90
        5
 70
     1
 43
0.0
 10
-29.43766141732284
 20
-7.712055118110237
 10
-17.7418031496063
 20
-7.712055118110237
 10
-17.7418031496063
 20
14.83485826771654
 10
-29.43766141732284
 20
14.83485826771654
 10
-29.43766141732284
 20
-7.712055118110237
  0
LWPOLYLINE
  5
61
330
1F
100
AcDbEntity
  8
Layer 1
 62
     7
370
    53
100
AcDbPolyline
 90
      184
 70
     1
 43
0.0
 10
-22.66792125984252
 20
12.9141968503937
 10
-22.58683464566929
 20
9.322393700787401
 10
-22.47829133858268
 20
3.122948818897638
 10
-25.14491732283465
 20
2.058874015748032
 10
-25.15233070866142
 20
2.055106299212599
 10
-25.17183858267716
 20
2.043129921259843
 10
-25.19932283464567
 20
2.02194094488189
 10
-25.2306811023622
 20
1.990535433070866
 10
-25.26179921259843
 20
1.947909448818898
 10
-25.28857086614173
 20
1.893055118110236
 10
-25.30688976377953
 20
1.824968503937008
 10
-25.31263779527559
 20
1.742641732283465
 10
-25.3177125984252
 20
0.9385787401574803
 10
-25.31835433070866
 20
0.934996062992126
 10
-25.31953149606299
 20
0.9247952755905512
 10
-25.32012598425197
 20
0.9087913385826771
 10
-25.3190157480315
 20
0.8878110236220472
 10
-25.31507480314961
 20
0.8626692913385827
 10
-25.30718503937008
 20
0.8341889763779528
 10
-25.29422440944882
 20
0.8031850393700788
 10
-25.27507086614173
 20
0.7704842519685039
 10
-25.27631496062992
 20
0.7689488188976378
 10
-25.27955905511811
 20
0.7640984251968503
 10
-25.28407086614173
 20
0.7555669291338583
 10
-25.28911811023622
 20
0.7429803149606299
 10
-25.29396850393701
 20
0.7259803149606299
 10
-25.2978937007874
 20
0.7041889763779527
 10
-25.30015748031496
 20
0.677244094488189
 10
-25.30003149606299
 20
0.644775590551181
 10
-25.29945669291338
 20
0.5943582677165354
 10
-25.30054330708661
 20
0.5200866141732283
 10
-25.30279921259843
 20
0.4313897637795275
 10
-25.30574409448819
 20
0.3376889763779528
 10
-25.30887795275591
 20
0.2484055118110236
 10
-25.31172440944882
 20
0.1729645669291339
 10
-25.31379133858268
 20
0.1207874015748032
 10
-25.31458661417323
 20
0.1013031496062992
 10
-25.31354330708661
 20
0.0993740157480315
 10
-25.30998818897638
 20
0.0935157480314961
 10
-25.30329133858268
 20
0.0836181102362205
 10
-25.29281102362205
 20
0.0695590551181102
 10
-25.27792125984252
 20
0.0512322834645669
 10
-25.25798031496063
 20
0.0285236220472441
 10
-25.23235826771653
 20
0.0013188976377953
 10
-25.20041732283465
 20
-0.030492125984252
 10
-25.1546968503937
 20
-0.0701771653543307
 10
-25.09274803149606
 20
-0.1181456692913386
 10
-25.02145275590551
 20
-0.1702086614173228
 10
-24.94769291338583
 20
-0.2221811023622047
 10
-24.87834251968504
 20
-0.2698897637795276
 10
-24.82029133858268
 20
-0.3091456692913386
 10
-24.78041338582677
 20
-0.335763779527559
 10
-24.7655905511811
 20
-0.3455669291338583
 10
-24.58707086614173
 20
-3.270653543307087
 10
-24.58663385826772
 20
-3.28051968503937
 10
-24.58414566929134
 20
-3.307649606299213
 10
-24.57784251968504
 20
-3.348346456692914
 10
-24.56596456692913
 20
-3.398917322834646
 10
-24.54674803149606
 20
-3.455657480314961
 10
-24.51843307086614
 20
-3.514874015748032
 10
-24.47925590551181
 20
-3.572866141732284
 10
-24.42745275590551
 20
-3.62594094488189
 10
-24.3063031496063
 20
-3.723779527559055
 10
-24.08429921259842
 20
-3.899795275590551
 10
-23.79750393700787
 20
-4.125870078740157
 10
-23.48198425196851
 20
-4.373889763779528
 10
-23.17379921259842
 20
-4.615732283464567
 10
-22.9090157480315
 20
-4.823291338582677
 10
-22.72370078740158
 20
-4.968440944881889
 10
-22.65391338582677
 20
-5.023074803149607
 10
-22.63564173228346
 20
-5.031511811023622
 10
-22.58335039370079
 20
-5.052188976377953
 10
-22.5008188976378
 20
-5.078145669291339
 10
-22.39182677165354
 20
-5.10242125984252
 10
-22.26015354330709
 20
-5.118059055118111
 10
-22.10957874015748
 20
-5.11809842519685
 10
-21.94388582677165
 20
-5.09557874015748
 10
-21.76685433070866
 20
-5.043543307086614
 10
-21.53537007874016
 20
-4.945751968503937
 10
-21.22612204724409
 20
-4.802606299212599
 10
-20.87258661417323
 20
-4.63209842519685
 10
-20.50825590551181
 20
-4.452232283464567
 10
-20.16659842519685
 20
-4.281003937007874
 10
-19.8811062992126
 20
-4.136413385826772
 10
-19.68525984251968
 20
-4.03646062992126
 10
-19.61253543307087
 20
-3.999141732283464
 10
-19.60279527559055
 20
-3.993909448818898
 10
-19.57668897637795
 20
-3.978188976377953
 10
-19.53891338582677
 20
-3.95196062992126
 10
-19.49414566929134
 20
-3.915192913385827
 10
-19.44707086614173
 20
-3.867858267716536
 10
-19.40237795275591
 20
-3.809933070866142
 10
-19.36475196850394
 20
-3.741389763779527
 10
-19.33887401574803
 20
-3.662196850393701
 10
-19.31124015748032
 20
-3.468110236220472
 10
-19.26897244094488
 20
-3.096669291338582
 10
-19.21772440944882
 20
-2.610511811023622
 10
-19.16313385826772
 20
-2.072275590551181
 10
-19.11085039370079
 20
-1.544606299212598
 10
-19.0665157480315
 20
-1.090145669291338
 10
-19.03577165354331
 20
-0.7715314960629921
 10
-19.02427165354331
 20
-0.6514055118110236
 10
-18.55796062992126
 20
-0.4288937007874016
 10
-18.55417716535433
 20
-0.4253464566929134
 10
-18.54412204724409
 20
-0.4151141732283465
 10
-18.52973622047244
 20
-0.3988149606299213
 10
-18.51297244094488
 20
-0.3770748031496063
 10
-18.49576377952756
 20
-0.3505118110236221
 10
-18.48006299212598
 20
-0.319744094488189
 10
-18.46780708661417
 20
-0.2853897637795276
 10
-18.46094488188976
 20
-0.2480748031496063
 10
-18.45704330708661
 20
-0.1979094488188976
 10
-18.45259448818897
 20
-0.1296732283464567
 10
-18.44792125984252
 20
-0.051003937007874
 10
-18.44336220472441
 20
0.0304685039370079
 10
-18.43924015748032
 20
0.1071181102362205
 10
-18.43588976377953
 20
0.1713188976377953
 10
-18.43363385826772
 20
0.2154291338582677
 10
-18.43281102362205
 20
0.2318307086614173
 10
-18.4328937007874
 20
0.2348700787401575
 10
-18.43316929133858
 20
0.2432007874015748
 10
-18.43367322834646
 20
0.2556299212598425
 10
-18.43445275590551
 20
0.2709724409448819
 10
-18.43553937007874
 20
0.2880393700787401
 10
-18.43697637795276
 20
0.3056417322834646
 10
-18.43880708661417
 20
0.3225866141732284
 10
-18.44106299212599
 20
0.3376929133858268
 10
-18.43842519685039
 20
0.3431692913385827
 10
-18.43131889763779
 20
0.3586692913385827
 10
-18.42096850393701
 20
0.3827795275590551
 10
-18.40859842519685
 20
0.4141062992125984
 10
-18.39542125984252
 20
0.451244094488189
 10
-18.38266141732283
 20
0.4927834645669291
 10
-18.37154330708661
 20
0.5373307086614173
 10
-18.36328346456693
 20
0.5834724409448819
 10
-18.35527165354331
 20
0.6501653543307087
 10
-18.34481496062992
 20
0.7488818897637796
 10
-18.33299606299213
 20
0.8670078740157481
 10
-18.3208937007874
 20
0.9919409448818898
 10
-18.30959448818898
 20
1.11105905511811
 10
-18.30018503937008
 20
1.211759842519685
 10
-18.29374409448819
 20
1.281429133858268
 10
-18.29135433070866
 20
1.307452755905512
 10
-18.29174803149606
 20
1.315712598425197
 10
-18.29361417322835
 20
1.338196850393701
 10
-18.29796062992126
 20
1.371468503937008
 10
-18.30581102362205
 20
1.412094488188976
 10
-18.31817322834646
 20
1.456633858267717
 10
-18.33607086614173
 20
1.501649606299213
 10
-18.36051181102362
 20
1.543708661417323
 10
-18.39251968503937
 20
1.579366141732284
 10
-18.5393031496063
 20
1.677511811023622
 10
-18.86634645669291
 20
1.884311023622047
 10
-19.31205118110236
 20
2.162240157480315
 10
-19.81483070866142
 20
2.473779527559055
 10
-20.31309448818898
 20
2.78140157480315
 10
-20.74525196850394
 20
3.047586614173228
 10
-21.0497125984252
 20
3.234814960629921
 10
-21.16488582677165
 20
3.305562992125984
 10
-21.17166535433071
 20
3.309122047244094
 10
-21.19156692913386
 20
3.31846062992126
 10
-21.22391732283464
 20
3.331551181102362
 10
-21.26805511811024
 20
3.346385826771654
 10
-21.32331496062992
 20
3.36094094488189
 10
-21.38902362204724
 20
3.373200787401575
 10
-21.46452362204725
 20
3.381149606299213
 10
-21.54914173228346
 20
3.382763779527559
 10
-21.63892913385827
 20
12.90862598425197
 10
-21.64095669291338
 20
12.91675984251969
 10
-21.65058267716535
 20
12.9382125984252
 10
-21.67313385826772
 20
12.96857086614173
 10
-21.71394094488189
 20
13.0034094488189
 10
-21.7783188976378
 20
13.0383188976378
 10
-21.87160236220473
 20
13.06888188976378
 10
-21.9991062992126
 20
13.09067322834646
 10
-22.16616535433071
 20
13.09927952755906
 10
-22.33212598425197
 20
13.09174015748031
 10
-22.45674803149606
 20
13.07096850393701
 10
-22.54594881889764
 20
13.04135039370079
 10
-22.60564960629921
 20
13.00727952755905
 10
-22.64177559055118
 20
12.97313779527559
 10
-22.66024803149606
 20
12.94331889763779
 10
-22.66699212598425
 20
12.92220866141732
 10
-22.66792125984252
 20
12.9141968503937
  0
LWPOLYLINE
  5
62
330
1F
100
AcDbEntity
  8
Layer 1
 62
     7
370
    53
100
AcDbPolyline
 90
       17
 70
     0
 43
0.0
 10
-22.64333464566929
 20
12.91302362204724
 10
-22.64061023622047
 20
12.90500787401575
 10
-22.62910236220472
 20
12.88407874015748
 10
-22.60379921259842
 20
12.85492519685039
 10
-22.55970472440945
 20
12.82222834645669
 10
-22.4918031496063
 20
12.79067322834646
 10
-22.39509842519685
 20
12.76494488188976
 10
-22.26457480314961
 20
12.74972440944882
 10
-22.09523622047244
 20
12.74970078740157
 10
-22.07504724409449
 20
12.75000393700787
 10
-22.02198818897638
 20
12.75238582677165
 10
-21.9473188976378
 20
12.75906692913386
 10
-21.86229921259843
 20
12.77225984251968
 10
-21.77818503937008
 20
12.79418503937008
 10
-21.70624015748032
 20
12.82705905511811
 10
-21.65771653543307
 20
12.87309842519685
 10
-21.64388188976378
 20
12.9345157480315
  0
LWPOLYLINE
  5
63
330
1F
100
AcDbEntity
  8
Layer 1
 62
     7
370
    53
100
AcDbPolyline
 90
       18
 70
     0
 43
0.0
 10
-24.75081102362205
 20
-0.3685472440944882
 10
-22.51911023622047
 20
-1.933688976377953
 10
-22.50850787401575
 20
-1.94161811023622
 10
-22.4778779527559
 20
-1.961295275590551
 10
-22.42899606299213
 20
-1.98653937007874
 10
-22.36363385826771
 20
-2.011177165354331
 10
-22.28355905511811
 20
-2.02903937007874
 10
-22.19054724409449
 20
-2.03394094488189
 10
-22.08636614173228
 20
-2.019712598425197
 10
-21.9727874015748
 20
-1.980181102362205
 10
-21.75532677165354
 20
-1.88094094488189
 10
-21.37726771653543
 20
-1.709307086614173
 10
-20.89704724409449
 20
-1.491673228346457
 10
-20.3731062992126
 20
-1.254425196850394
 10
-19.86387007874016
 20
-1.023956692913386
 10
-19.42778346456693
 20
-0.8266614173228346
 10
-19.12327952755906
 20
-0.6889291338582677
 10
-19.00879133858268
 20
-0.6371535433070866
  0
LWPOLYLINE
  5
64
330
1F
100
AcDbEntity
  8
Layer 1
 62
     7
370
    53
100
AcDbPolyline
 90
       18
 70
     0
 43
0.0
 10
-25.23900787401575
 20
0.7523464566929133
 10
-22.39705905511811
 20
-1.334488188976378
 10
-22.38956692913386
 20
-1.338594488188976
 10
-22.36654724409449
 20
-1.347968503937008
 10
-22.3271811023622
 20
-1.358192913385827
 10
-22.27065354330709
 20
-1.364846456692913
 10
-22.19614566929134
 20
-1.363503937007874
 10
-22.10284251968504
 20
-1.349755905511811
 10
-21.98992125984252
 20
-1.319177165354331
 10
-21.85656692913386
 20
-1.267346456692913
 10
-21.60035039370079
 20
-1.151818897637795
 10
-21.1635157480315
 20
-0.9532992125984252
 10
-20.61225984251968
 20
-0.7021181102362205
 10
-20.0127874015748
 20
-0.4285984251968504
 10
-19.43129527559055
 20
-0.1630748031496063
 10
-18.9339842519685
 20
0.0641377952755905
 10
-18.58704724409449
 20
0.2227007874015748
 10
-18.45669291338583
 20
0.2822952755905512
  0
LWPOLYLINE
  5
65
330
1F
100
AcDbEntity
  8
Layer 1
 62
     7
370
    53
100
AcDbPolyline
 90
       26
 70
     0
 43
0.0
 10
-25.2893031496063
 20
1.730275590551181
 10
-22.68237401574803
 20
-0.1390826771653543
 10
-22.6635
 20
-0.1504212598425197
 10
-22.60817322834646
 20
-0.1781299212598425
 10
-22.51834251968504
 20
-0.212759842519685
 10
-22.39595275590551
 20
-0.2448503937007874
 10
-22.24294881889764
 20
-0.2649488188976378
 10
-22.06127165354331
 20
-0.2636023622047244
 10
-21.85287401574803
 20
-0.2313582677165354
 10
-21.6196968503937
 20
-0.158755905511811
 10
-21.29947637795276
 20
-0.026755905511811
 10
-20.86159448818898
 20
0.1620826771653543
 10
-20.35548031496063
 20
0.3848188976377953
 10
-19.83055511811024
 20
0.618503937007874
 10
-19.33624409448819
 20
0.8402007874015748
 10
-18.92197244094488
 20
1.02696062992126
 10
-18.63716535433071
 20
1.155842519685039
 10
-18.53124803149606
 20
1.20390157480315
 10
-18.5213031496063
 20
1.209090551181102
 10
-18.49526771653543
 20
1.224188976377953
 10
-18.45885433070866
 20
1.248515748031496
 10
-18.41777165354331
 20
1.281370078740157
 10
-18.37772834645669
 20
1.322066929133858
 10
-18.34442913385827
 20
1.369913385826772
 10
-18.3235905511811
 20
1.424220472440945
 10
-18.32091338582677
 20
1.484295275590551
  0
LWPOLYLINE
  5
66
330
1F
100
AcDbEntity
  8
Layer 1
 62
     7
370
    53
100
AcDbPolyline
 90
       51
 70
     0
 43
0.0
 10
-21.53133464566929
 20
3.185649606299213
 10
-21.51945669291339
 20
3.183311023622047
 10
-21.48629133858268
 20
3.176295275590551
 10
-21.43553543307087
 20
3.164606299212598
 10
-21.3708937007874
 20
3.148240157480315
 10
-21.29605511811024
 20
3.127196850393701
 10
-21.21472834645669
 20
3.10148031496063
 10
-21.1306062992126
 20
3.071090551181102
 10
-21.04738976377953
 20
3.036027559055118
 10
-20.88672440944882
 20
2.945787401574803
 10
-20.5984094488189
 20
2.769929133858268
 10
-20.22840157480315
 20
2.538551181102362
 10
-19.82263385826772
 20
2.281751968503937
 10
-19.42706299212598
 20
2.029629921259843
 10
-19.08762598425197
 20
1.812275590551181
 10
-18.85026771653543
 20
1.659795275590551
 10
-18.76094094488189
 20
1.602279527559055
 10
-18.75353149606299
 20
1.594547244094488
 10
-18.73584645669292
 20
1.573157480314961
 10
-18.71470866141732
 20
1.540811023622047
 10
-18.69694488188976
 20
1.500204724409449
 10
-18.68937007874016
 20
1.454051181102362
 10
-18.69880708661417
 20
1.405043307086614
 10
-18.73207874015748
 20
1.355893700787402
 10
-18.79600787401575
 20
1.309295275590551
 10
-21.71956299212598
 20
0.0688661417322835
 10
-21.81655118110236
 20
0.0315433070866142
 10
-21.91760236220473
 20
0.0010590551181102
 10
-22.02122834645669
 20
-0.0206299212598425
 10
-22.12594881889764
 20
-0.0315511811023622
 10
-22.23027559055118
 20
-0.0297362204724409
 10
-22.33273228346457
 20
-0.0132244094488189
 10
-22.43183070866142
 20
0.0199566929133858
 10
-22.52608661417323
 20
0.0717716535433071
 10
-24.89088976377953
 20
1.670838582677165
 10
-24.89683464566929
 20
1.678874015748032
 10
-24.91083464566929
 20
1.701228346456693
 10
-24.92713779527559
 20
1.735267716535433
 10
-24.9399842519685
 20
1.778370078740158
 10
-24.94362992125984
 20
1.827897637795276
 10
-24.93231496062992
 20
1.881224409448819
 10
-24.9002874015748
 20
1.935720472440945
 10
-24.84179527559055
 20
1.988755905511811
 10
-24.68324803149606
 20
2.067775590551181
 10
-24.38744488188976
 20
2.190771653543307
 10
-24.0031968503937
 20
2.34094094488189
 10
-23.57933858267717
 20
2.501488188976378
 10
-23.16468110236221
 20
2.655602362204724
 10
-22.80805118110236
 20
2.786488188976378
 10
-22.55827165354331
 20
2.877338582677165
 10
-22.46416141732283
 20
2.911358267716535
  0
LWPOLYLINE
  5
67
330
1F
100
AcDbEntity
  8
Layer 1
 62
     7
370
    50
100
AcDbPolyline
 90
        9
 70
     0
 43
0.0
 10
-22.74835826771654
 20
0.2327874015748032
 10
-22.74868897637795
 20
0.2431889763779528
 10
-22.74685433070866
 20
0.2717322834645669
 10
-22.7386220472441
 20
0.3144173228346457
 10
-22.71974803149606
 20
0.367248031496063
 10
-22.68600393700788
 20
0.4262244094488189
 10
-22.63314960629921
 20
0.4873543307086614
 10
-22.55694881889764
 20
0.5466417322834646
 10
-22.45316535433071
 20
0.6000826771653544
  0
LWPOLYLINE
  5
68
330
1F
100
AcDbEntity
  8
Layer 1
 62
     7
370
    40
100
AcDbPolyline
 90
        9
 70
     0
 43
0.0
 10
-21.50014960629921
 20
0.5999488188976378
 10
-21.48915748031496
 20
0.5945275590551181
 10
-21.45997244094488
 20
0.5785
 10
-21.41826771653543
 20
0.5522007874015749
 10
-21.36973228346457
 20
0.5159763779527559
 10
-21.32003937007874
 20
0.4701692913385827
 10
-21.27487007874016
 20
0.4151220472440945
 10
-21.2399094488189
 20
0.3511771653543307
 10
-21.22083464566929
 20
0.2786811023622047
  0
LWPOLYLINE
  5
69
330
1F
100
AcDbEntity
  8
Layer 1
 62
     7
370
    53
100
AcDbPolyline
 90
        2
 70
     0
 43
0.0
 10
-22.4383031496063
 20
0.0254606299212598
 10
-22.47769291338583
 20
3.127854330708661
  0
LWPOLYLINE
  5
6A
330
1F
100
AcDbEntity
  8
Layer 1
 62
     7
370
    53
100
AcDbPolyline
 90
        2
 70
     0
 43
0.0
 10
-21.50912598425197
 20
0.1623818897637795
 10
-21.55119291338583
 20
3.387448818897638
  0
LWPOLYLINE
  5
6B
330
1F
100
AcDbEntity
  8
Layer 1
 62
     7
370
    18
100
AcDbPolyline
 90
        4
 70
     1
 43
0.0
 10
-26.22466141732284
 20
-4.658763779527559
 10
-26.20987795275591
 20
-4.685629921259842
 10
-26.1951062992126
 20
-4.658759842519685
 10
-26.22466141732284
 20
-4.658763779527559
  0
LWPOLYLINE
  5
6C
330
1F
100
AcDbEntity
  8
Layer 1
 62
     7
370
    18
100
AcDbPolyline
 90
        4
 70
     1
 43
0.0
 10
-26.22791338582677
 20
12.9443031496063
 10
-26.21314173228346
 20
12.97117322834646
 10
-26.19835433070866
 20
12.94430708661417
 10
-26.22791338582677
 20
12.9443031496063
  0
LWPOLYLINE
  5
6D
330
1F
100
AcDbEntity
  8
Layer 1
 62
     7
370
    18
100
AcDbPolyline
 90
        2
 70
     0
 43
0.0
 10
-26.2083031496063
 20
-4.694586614173228
 10
-26.21156692913386
 20
12.98012992125984
  0
LWPOLYLINE
  5
6E
330
1F
100
AcDbEntity
  8
Layer 1
 62
     7
370
     9
100
AcDbPolyline
 90
        4
 70
     1
 43
0.0
 10
-28.86733464566929
 20
0.3170866141732284
 10
-28.86733464566929
 20
0.0088700787401575
 10
-29.07106692913386
 20
0.0088700787401575
 10
-28.86733464566929
 20
0.3170866141732284
  0
LWPOLYLINE
  5
6F
330
1F
100
AcDbEntity
  8
Layer 1
 62
     7
370
     9
100
AcDbPolyline
 90
       11
 70
     1
 43
0.0
 10
-28.81012598425197
 20
-0.0476141732283465
 10
-28.74271653543307
 20
-0.0476141732283465
 10
-28.74271653543307
 20
0.0088700787401575
 10
-28.81012598425197
 20
0.0088700787401575
 10
-28.81089763779528
 20
0.3766968503937008
 10
-28.8876968503937
 20
0.3766968503937008
 10
-29.16825196850394
 20
-0.0476141732283465
 10
-28.86733464566929
 20
-0.0476141732283465
 10
-28.86733464566929
 20
-0.1566338582677165
 10
-28.81012598425197
 20
-0.1566338582677165
 10
-28.81012598425197
 20
-0.0476141732283465
  0
LWPOLYLINE
  5
70
330
1F
100
AcDbEntity
  8
Layer 1
 62
     7
370
     9
100
AcDbPolyline
 90
       73
 70
     1
 43
0.0
 10
-28.50646850393701
 20
0.0857362204724409
 10
-28.51897244094488
 20
0.0863110236220472
 10
-28.53100787401575
 20
0.0880354330708661
 10
-28.54257874015748
 20
0.0909133858267717
 10
-28.55368110236221
 20
0.0949409448818898
 10
-28.56431889763779
 20
0.1001220472440945
 10
-28.57449606299213
 20
0.1064566929133858
 10
-28.58420472440945
 20
0.1139409448818898
 10
-28.59344881889764
 20
0.1225826771653543
 10
-28.60181102362205
 20
0.1319173228346457
 10
-28.60905511811024
 20
0.1416968503937008
 10
-28.61518503937008
 20
0.1519173228346457
 10
-28.62020078740158
 20
0.1625787401574803
 10
-28.62410236220472
 20
0.1736811023622047
 10
-28.62688582677166
 20
0.1852244094488189
 10
-28.62855905511811
 20
0.1972047244094488
 10
-28.62911417322834
 20
0.2096299212598425
 10
-28.62855118110236
 20
0.2217755905511811
 10
-28.62686220472441
 20
0.233503937007874
 10
-28.62404330708661
 20
0.2448188976377953
 10
-28.62010236220473
 20
0.2557165354330709
 10
-28.61503149606299
 20
0.2661968503937008
 10
-28.60883464566929
 20
0.2762598425196851
 10
-28.60151181102362
 20
0.2859055118110236
 10
-28.59306299212598
 20
0.2951377952755905
 10
-28.58398818897638
 20
0.3034094488188976
 10
-28.57439763779528
 20
0.3105787401574803
 10
-28.56429527559055
 20
0.3166417322834646
 10
-28.55367716535433
 20
0.3216023622047244
 10
-28.54254724409449
 20
0.3254606299212598
 10
-28.53090551181102
 20
0.3282165354330709
 10
-28.51875196850394
 20
0.3298661417322835
 10
-28.50608267716536
 20
0.3304173228346456
 10
-28.49365354330709
 20
0.3298464566929134
 10
-28.48164566929134
 20
0.3281377952755906
 10
-28.47005118110236
 20
0.3252913385826772
 10
-28.45887401574803
 20
0.3213031496062992
 10
-28.44811417322835
 20
0.3161732283464567
 10
-28.43776771653543
 20
0.3099094488188976
 10
-28.42784251968504
 20
0.302503937007874
 10
-28.41833070866142
 20
0.2939566929133858
 10
-28.4096968503937
 20
0.2847086614173228
 10
-28.4022125984252
 20
0.2750078740157481
 10
-28.39588188976378
 20
0.2648543307086614
 10
-28.39070078740157
 20
0.254248031496063
 10
-28.38666929133858
 20
0.2431889763779528
 10
-28.3837874015748
 20
0.2316771653543307
 10
-28.38205905511811
 20
0.2197125984251969
 10
-28.38148425196851
 20
0.2072952755905512
 10
-28.38206692913386
 20
0.195240157480315
 10
-28.38381496062992
 20
0.1835708661417323
 10
-28.38672440944882
 20
0.1722992125984252
 10
-28.39079921259842
 20
0.1614173228346457
 10
-28.39603543307087
 20
0.1509251968503937
 10
-28.40243307086614
 20
0.1408267716535433
 10
-28.40999606299212
 20
0.1311220472440945
 10
-28.41871653543307
 20
0.1218110236220472
 10
-28.42301968503937
 20
0.1177992125984252
 10
-28.42750393700787
 20
0.113992125984252
 10
-28.43217322834646
 20
0.1103937007874016
 10
-28.43703149606299
 20
0.107003937007874
 10
-28.44206692913386
 20
0.1038228346456693
 10
-28.44729133858268
 20
0.1008503937007874
 10
-28.4526968503937
 20
0.0980866141732284
 10
-28.45828346456693
 20
0.0955314960629921
 10
-28.46400393700787
 20
0.0932362204724409
 10
-28.46981496062992
 20
0.091244094488189
 10
-28.47570866141732
 20
0.0895629921259843
 10
-28.48168503937008
 20
0.0881850393700787
 10
-28.48775196850394
 20
0.0871141732283465
 10
-28.49390551181103
 20
0.0863464566929134
 10
-28.50014173228346
 20
0.0858897637795276
 10
-28.50646850393701
 20
0.0857362204724409
  0
LWPOLYLINE
  5
71
330
1F
100
AcDbEntity
  8
Layer 1
 62
     7
370
     9
100
AcDbPolyline
 90
       69
 70
     1
 43
0.0
 10
-28.68475984251969
 20
0.2057283464566929
 10
-28.68390157480315
 20
0.1868385826771654
 10
-28.68133070866142
 20
0.1688110236220473
 10
-28.67703937007874
 20
0.1516417322834646
 10
-28.67103937007874
 20
0.1353346456692913
 10
-28.66332283464567
 20
0.1198818897637795
 10
-28.65388976377953
 20
0.1052834645669291
 10
-28.64274409448819
 20
0.0915433070866142
 10
-28.62988582677165
 20
0.0786614173228346
 10
-28.61674803149606
 20
0.0678070866141732
 10
-28.60268897637795
 20
0.0582913385826772
 10
-28.5877125984252
 20
0.0501141732283465
 10
-28.57181496062992
 20
0.0432677165354331
 10
-28.55499606299212
 20
0.037759842519685
 10
-28.53725984251968
 20
0.0335905511811024
 10
-28.5186062992126
 20
0.030751968503937
 10
-28.49903149606299
 20
0.029251968503937
 10
-28.48333858267717
 20
0.0394566929133858
 10
-28.64634645669291
 20
-0.1566338582677165
 10
-28.57426377952756
 20
-0.1566338582677165
 10
-28.36581496062992
 20
0.0951220472440945
 10
-28.35644881889764
 20
0.1073858267716535
 10
-28.34833070866142
 20
0.1201535433070866
 10
-28.34146062992126
 20
0.1334173228346457
 10
-28.33583858267717
 20
0.1471889763779528
 10
-28.33146456692914
 20
0.1614566929133858
 10
-28.32834251968504
 20
0.1762322834645669
 10
-28.32646850393701
 20
0.1915118110236221
 10
-28.32584251968504
 20
0.2072952755905512
 10
-28.32666141732284
 20
0.2254685039370079
 10
-28.32912598425197
 20
0.2429448818897638
 10
-28.33322834645669
 20
0.2597244094488189
 10
-28.33897244094488
 20
0.2758070866141732
 10
-28.34635433070866
 20
0.2911929133858268
 10
-28.35538188976378
 20
0.3058818897637795
 10
-28.36604724409449
 20
0.3198700787401575
 10
-28.37835433070866
 20
0.3331614173228347
 10
-28.3919094488189
 20
0.3453818897637795
 10
-28.40612598425197
 20
0.3559763779527559
 10
-28.42100393700787
 20
0.3649370078740157
 10
-28.43654330708661
 20
0.3722716535433071
 10
-28.45274015748031
 20
0.3779803149606299
 10
-28.46959842519685
 20
0.3820551181102362
 10
-28.48711417322835
 20
0.3845
 10
-28.5052874015748
 20
0.3853149606299213
 10
-28.52372834645669
 20
0.384507874015748
 10
-28.54143307086614
 20
0.3820787401574803
 10
-28.55840551181102
 20
0.3780354330708661
 10
-28.57464173228346
 20
0.3723740157480315
 10
-28.59014173228346
 20
0.3650944881889764
 10
-28.6049094488189
 20
0.3561968503937008
 10
-28.61894488188976
 20
0.3456811023622047
 10
-28.63224409448819
 20
0.3335472440944882
 10
-28.63815748031496
 20
0.3273503937007874
 10
-28.64375196850394
 20
0.3209094488188977
 10
-28.64903149606299
 20
0.3142204724409449
 10
-28.65399212598425
 20
0.3072834645669291
 10
-28.65863385826772
 20
0.3000984251968504
 10
-28.66296062992126
 20
0.2926732283464567
 10
-28.66696456692913
 20
0.285
 10
-28.67065354330709
 20
0.2770866141732283
 10
-28.67395669291339
 20
0.2689330708661417
 10
-28.67681889763779
 20
0.2605629921259843
 10
-28.67924409448819
 20
0.2519763779527559
 10
-28.68122834645669
 20
0.2431692913385827
 10
-28.68277165354331
 20
0.2341417322834646
 10
-28.68387795275591
 20
0.2248937007874016
 10
-28.68453937007874
 20
0.2154212598425197
 10
-28.68475984251969
 20
0.2057283464566929
  0
LWPOLYLINE
  5
72
330
1F
100
AcDbEntity
  8
Layer 1
 62
     7
370
     9
100
AcDbPolyline
 90
      136
 70
     1
 43
0.0
 10
-28.16442125984252
 20
0.1790629921259843
 10
-28.12838976377953
 20
0.3218031496062992
 10
-27.93558661417323
 20
0.3218031496062992
 10
-27.93558661417323
 20
0.3766968503937008
 10
-28.1699094488189
 20
0.3766968503937008
 10
-28.2310157480315
 20
0.1374803149606299
 10
-28.17147244094488
 20
0.1108346456692913
 10
-28.16283858267716
 20
0.1167086614173228
 10
-28.15377559055118
 20
0.1218031496062992
 10
-28.14427952755905
 20
0.1261141732283464
 10
-28.13435433070866
 20
0.1296417322834646
 10
-28.124
 20
0.1323858267716535
 10
-28.11321653543307
 20
0.1343464566929134
 10
-28.10200393700788
 20
0.1355196850393701
 10
-28.09036614173228
 20
0.1359133858267716
 10
-28.07866535433071
 20
0.1353385826771654
 10
-28.06735039370079
 20
0.1336102362204724
 10
-28.05642913385827
 20
0.1307283464566929
 10
-28.04590157480315
 20
0.1266968503937008
 10
-28.03575984251968
 20
0.121511811023622
 10
-28.02601181102362
 20
0.1151771653543307
 10
-28.01665748031496
 20
0.1076889763779528
 10
-28.00769291338583
 20
0.0990472440944882
 10
-27.99924409448819
 20
0.0894055118110236
 10
-27.99192125984252
 20
0.0794094488188976
 10
-27.98572440944882
 20
0.0690629921259843
 10
-27.98065354330708
 20
0.0583622047244094
 10
-27.9767125984252
 20
0.0473031496062992
 10
-27.9738937007874
 20
0.0358897637795276
 10
-27.97220472440945
 20
0.0241220472440945
 10
-27.97164173228347
 20
0.011996062992126
 10
-27.97221653543307
 20
-0.0005472440944882
 10
-27.97394488188976
 20
-0.0125905511811024
 10
-27.97682283464567
 20
-0.0241259842519685
 10
-27.98085433070866
 20
-0.0351614173228346
 10
-27.98603543307087
 20
-0.0456929133858268
 10
-27.99237007874016
 20
-0.0557244094488189
 10
-27.99985433070866
 20
-0.065251968503937
 10
-28.00848818897638
 20
-0.0742795275590551
 10
-28.01287007874016
 20
-0.0782913385826772
 10
-28.01741732283465
 20
-0.0820944881889764
 10
-28.0221220472441
 20
-0.0856889763779528
 10
-28.02698818897638
 20
-0.0890787401574803
 10
-28.0320157480315
 20
-0.092259842519685
 10
-28.03720078740157
 20
-0.0952322834645669
 10
-28.04254724409449
 20
-0.098
 10
-28.04805511811024
 20
-0.1005590551181102
 10
-28.05379921259842
 20
-0.1028543307086614
 10
-28.05986220472441
 20
-0.1048464566929134
 10
-28.06624015748032
 20
-0.1065275590551181
 10
-28.07293700787402
 20
-0.1079055118110236
 10
-28.07995275590551
 20
-0.1089763779527559
 10
-28.08728346456693
 20
-0.109744094488189
 10
-28.09493700787402
 20
-0.1102007874015748
 10
-28.10290551181102
 20
-0.1103543307086614
 10
-28.11103543307087
 20
-0.110011811023622
 10
-28.11914960629921
 20
-0.1089803149606299
 10
-28.12725196850394
 20
-0.1072637795275591
 10
-28.13533858267716
 20
-0.1048622047244094
 10
-28.14341732283465
 20
-0.1017716535433071
 10
-28.15148031496063
 20
-0.097996062992126
 10
-28.15953149606299
 20
-0.0935314960629921
 10
-28.16757086614173
 20
-0.0883818897637795
 10
-28.1753031496063
 20
-0.0826889763779527
 10
-28.18245275590551
 20
-0.0765748031496063
 10
-28.18901181102362
 20
-0.0700433070866142
 10
-28.19498031496063
 20
-0.0630984251968504
 10
-28.20036614173228
 20
-0.0557322834645669
 10
-28.20516141732283
 20
-0.0479488188976378
 10
-28.20937007874016
 20
-0.039748031496063
 10
-28.21298818897638
 20
-0.0311299212598425
 10
-28.26627559055118
 20
-0.0483858267716535
 10
-28.26104330708661
 20
-0.0612992125984252
 10
-28.25494094488189
 20
-0.0735629921259843
 10
-28.24796850393701
 20
-0.0851771653543307
 10
-28.24012598425197
 20
-0.0961377952755905
 10
-28.23141338582677
 20
-0.1064488188976378
 10
-28.22183464566929
 20
-0.1161102362204724
 10
-28.21138188976378
 20
-0.1251220472440945
 10
-28.20006692913386
 20
-0.1334842519685039
 10
-28.18803543307087
 20
-0.1411181102362205
 10
-28.17573228346457
 20
-0.1477362204724409
 10
-28.16316141732284
 20
-0.1533307086614173
 10
-28.15032283464567
 20
-0.1579094488188976
 10
-28.1372125984252
 20
-0.1614685039370079
 10
-28.12383070866142
 20
-0.1640118110236221
 10
-28.1101811023622
 20
-0.1655354330708661
 10
-28.09625984251969
 20
-0.1660433070866142
 10
-28.07770472440945
 20
-0.1652047244094488
 10
-28.05986220472441
 20
-0.1626850393700787
 10
-28.04272834645669
 20
-0.1584842519685039
 10
-28.02630708661417
 20
-0.1526102362204724
 10
-28.01059842519685
 20
-0.1450511811023622
 10
-27.99559448818898
 20
-0.1358149606299213
 10
-27.9813031496063
 20
-0.1248976377952756
 10
-27.96771653543307
 20
-0.1123031496062992
 10
-27.95541732283464
 20
-0.0986338582677165
 10
-27.94475984251968
 20
-0.0842913385826772
 10
-27.93574015748031
 20
-0.0692755905511811
 10
-27.92836220472441
 20
-0.0535826771653543
 10
-27.92262598425197
 20
-0.0372165354330709
 10
-27.91852755905512
 20
-0.0201771653543307
 10
-27.91606692913386
 20
-0.0024645669291339
 10
-27.91524803149606
 20
0.0159212598425197
 10
-27.91605511811024
 20
0.0342086614173228
 10
-27.91847637795276
 20
0.0517204724409449
 10
-27.92251181102362
 20
0.0684645669291339
 10
-27.92816535433071
 20
0.0844409448818898
 10
-27.93543307086614
 20
0.0996417322834646
 10
-27.94432283464567
 20
0.1140748031496063
 10
-27.95482677165354
 20
0.1277362204724409
 10
-27.96694881889764
 20
0.1406299212598425
 10
-27.97314173228347
 20
0.1463543307086614
 10
-27.97958267716535
 20
0.1517716535433071
 10
-27.98626771653543
 20
0.1568818897637795
 10
-27.99320078740157
 20
0.1616889763779528
 10
-28.00037401574803
 20
0.1661929133858268
 10
-28.00779527559055
 20
0.1703937007874016
 10
-28.01545669291339
 20
0.1742913385826772
 10
-28.02336220472441
 20
0.1778858267716535
 10
-28.03143307086614
 20
0.1810984251968504
 10
-28.03957480314961
 20
0.1838858267716535
 10
-28.0477874015748
 20
0.186240157480315
 10
-28.05606692913386
 20
0.1881692913385827
 10
-28.06441338582677
 20
0.1896732283464567
 10
-28.07282677165354
 20
0.190744094488189
 10
-28.0813031496063
 20
0.1913858267716536
 10
-28.08984251968504
 20
0.1916023622047244
 10
-28.09855118110236
 20
0.1914055118110236
 10
-28.10743307086614
 20
0.1908149606299213
 10
-28.11648818897638
 20
0.1898346456692913
 10
-28.12572047244095
 20
0.1884645669291339
 10
-28.13512992125984
 20
0.1866968503937008
 10
-28.1447125984252
 20
0.1845433070866142
 10
-28.15447637795275
 20
0.182
 10
-28.16442125984252
 20
0.1790629921259843
  0
LWPOLYLINE
  5
73
330
1F
100
AcDbEntity
  8
Layer 1
 62
     7
370
     9
100
AcDbPolyline
 90
      162
 70
     1
 43
0.0
 10
-27.37767716535433
 20
-0.1550708661417323
 10
-27.32282677165354
 20
-0.1550708661417323
 10
-27.32282677165354
 20
0.0606338582677165
 10
-27.32327165354331
 20
0.0749488188976378
 10
-27.32461417322835
 20
0.0885905511811024
 10
-27.32684645669291
 20
0.1015629921259843
 10
-27.32997244094488
 20
0.1138582677165354
 10
-27.33399212598425
 20
0.1254803149606299
 10
-27.3389094488189
 20
0.1364291338582677
 10
-27.34471653543307
 20
0.1467007874015748
 10
-27.35142125984252
 20
0.1562992125984252
 10
-27.35516535433071
 20
0.1608937007874016
 10
-27.35914173228347
 20
0.165251968503937
 10
-27.36334645669291
 20
0.1693779527559055
 10
-27.3677874015748
 20
0.1732716535433071
 10
-27.37245275590551
 20
0.1769291338582677
 10
-27.37735433070866
 20
0.1803543307086614
 10
-27.38249212598425
 20
0.1835433070866142
 10
-27.38785826771653
 20
0.1865
 10
-27.39356299212599
 20
0.1891614173228346
 10
-27.39970866141732
 20
0.1914724409448819
 10
-27.40629527559055
 20
0.1934251968503937
 10
-27.41331889763779
 20
0.1950236220472441
 10
-27.4207874015748
 20
0.1962637795275591
 10
-27.4286968503937
 20
0.1971535433070866
 10
-27.43704724409449
 20
0.1976850393700788
 10
-27.44583858267717
 20
0.1978622047244094
 10
-27.45470866141732
 20
0.1975551181102362
 10
-27.46329921259843
 20
0.1966377952755906
 10
-27.4716062992126
 20
0.1951062992125984
 10
-27.47963385826772
 20
0.1929645669291339
 10
-27.48737401574803
 20
0.1902086614173228
 10
-27.49483858267716
 20
0.1868425196850394
 10
-27.50201968503937
 20
0.1828622047244094
 10
-27.50891732283464
 20
0.1782716535433071
 10
-27.51490551181102
 20
0.1736889763779527
 10
-27.52062598425197
 20
0.1687637795275591
 10
-27.52607874015748
 20
0.163503937007874
 10
-27.53125984251968
 20
0.1579094488188976
 10
-27.53616929133858
 20
0.1519842519685039
 10
-27.54081102362205
 20
0.1457283464566929
 10
-27.5451811023622
 20
0.1391456692913386
 10
-27.54927952755905
 20
0.132240157480315
 10
-27.55246850393701
 20
0.1386259842519685
 10
-27.55594881889764
 20
0.1447795275590551
 10
-27.55972440944882
 20
0.1506771653543307
 10
-27.56379133858268
 20
0.1562992125984252
 10
-27.56753149606299
 20
0.1608937007874016
 10
-27.57150393700788
 20
0.165251968503937
 10
-27.57570866141732
 20
0.1693779527559055
 10
-27.58014960629921
 20
0.1732716535433071
 10
-27.58482283464567
 20
0.1769291338582677
 10
-27.58972440944882
 20
0.1803543307086614
 10
-27.59486220472441
 20
0.1835433070866142
 10
-27.60022834645669
 20
0.1865
 10
-27.60593307086614
 20
0.1891614173228346
 10
-27.61208267716535
 20
0.1914724409448819
 10
-27.61866929133858
 20
0.1934251968503937
 10
-27.6256968503937
 20
0.1950236220472441
 10
-27.63316141732284
 20
0.1962637795275591
 10
-27.64106692913386
 20
0.1971535433070866
 10
-27.64940551181103
 20
0.1976850393700788
 10
-27.65818503937008
 20
0.1978622047244094
 10
-27.66705905511811
 20
0.1975551181102362
 10
-27.67564960629921
 20
0.1966377952755906
 10
-27.68396062992126
 20
0.1951062992125984
 10
-27.69199212598425
 20
0.1929645669291339
 10
-27.69974015748031
 20
0.1902086614173228
 10
-27.70720472440945
 20
0.1868425196850394
 10
-27.71438976377953
 20
0.1828622047244094
 10
-27.72129133858268
 20
0.1782716535433071
 10
-27.72699212598425
 20
0.1739055118110236
 10
-27.73245275590551
 20
0.169248031496063
 10
-27.73766535433071
 20
0.1642913385826772
 10
-27.74263779527559
 20
0.1590354330708662
 10
-27.74736220472441
 20
0.1534763779527559
 10
-27.75184645669291
 20
0.1476181102362205
 10
-27.75608661417323
 20
0.1414566929133858
 10
-27.76008661417323
 20
0.1349842519685039
 10
-27.76008661417323
 20
0.1900157480314961
 10
-27.81493700787401
 20
0.1900157480314961
 10
-27.81493700787401
 20
-0.1550708661417323
 10
-27.76008661417323
 20
-0.1550708661417323
 10
-27.76008661417323
 20
0.0215196850393701
 10
-27.75881102362205
 20
0.0318110236220472
 10
-27.75714173228346
 20
0.0417007874015748
 10
-27.75508267716535
 20
0.0511929133858268
 10
-27.75263385826772
 20
0.0602913385826772
 10
-27.74979133858268
 20
0.068996062992126
 10
-27.74655511811024
 20
0.0773110236220472
 10
-27.74292913385827
 20
0.085240157480315
 10
-27.7389094488189
 20
0.0927874015748032
 10
-27.73564173228347
 20
0.0981496062992126
 10
-27.7321062992126
 20
0.1032716535433071
 10
-27.72829921259843
 20
0.1081496062992126
 10
-27.72422047244094
 20
0.1127795275590551
 10
-27.71987007874016
 20
0.1171692913385827
 10
-27.71525196850394
 20
0.1213110236220473
 10
-27.71036614173228
 20
0.1252086614173228
 10
-27.7052125984252
 20
0.1288622047244095
 10
-27.69987401574803
 20
0.1321653543307087
 10
-27.69444094488189
 20
0.1350314960629921
 10
-27.68890551181102
 20
0.1374566929133858
 10
-27.68327559055118
 20
0.1394448818897638
 10
-27.67754724409449
 20
0.140996062992126
 10
-27.67172047244095
 20
0.1421023622047244
 10
-27.66579527559055
 20
0.1427677165354331
 10
-27.65977165354331
 20
0.1429881889763779
 10
-27.65389763779527
 20
0.1428700787401575
 10
-27.64841338582677
 20
0.1425196850393701
 10
-27.64331889763779
 20
0.1419370078740158
 10
-27.63862204724409
 20
0.1411181102362205
 10
-27.63431102362205
 20
0.1400669291338583
 10
-27.63039763779528
 20
0.1387795275590551
 10
-27.62687401574803
 20
0.137259842519685
 10
-27.62374409448819
 20
0.135507874015748
 10
-27.61584251968504
 20
0.1296653543307087
 10
-27.609
 20
0.1228188976377953
 10
-27.60320472440945
 20
0.1149645669291339
 10
-27.59846850393701
 20
0.1061062992125984
 10
-27.59478346456693
 20
0.096244094488189
 10
-27.59215354330709
 20
0.0853779527559055
 10
-27.59057480314961
 20
0.073507874015748
 10
-27.59004724409449
 20
0.0606338582677165
 10
-27.59004724409449
 20
-0.1550708661417323
 10
-27.53517716535433
 20
-0.1550708661417323
 10
-27.53517716535433
 20
0.0606338582677165
 10
-27.53556299212599
 20
0.0738070866141732
 10
-27.52655905511811
 20
0.0927874015748032
 10
-27.5232874015748
 20
0.0981496062992126
 10
-27.51974803149606
 20
0.1032716535433071
 10
-27.51594094488189
 20
0.1081496062992126
 10
-27.51186220472441
 20
0.1127795275590551
 10
-27.50751968503937
 20
0.1171692913385827
 10
-27.50290551181102
 20
0.1213110236220473
 10
-27.49801968503937
 20
0.1252086614173228
 10
-27.49286614173228
 20
0.1288622047244095
 10
-27.48752755905512
 20
0.1321653543307087
 10
-27.4820905511811
 20
0.1350314960629921
 10
-27.47655511811024
 20
0.1374566929133858
 10
-27.47092519685039
 20
0.1394448818897638
 10
-27.46519291338583
 20
0.140996062992126
 10
-27.45936220472441
 20
0.1421023622047244
 10
-27.45343307086614
 20
0.1427677165354331
 10
-27.44740157480315
 20
0.1429881889763779
 10
-27.44152755905512
 20
0.1428700787401575
 10
-27.43604330708661
 20
0.1425196850393701
 10
-27.43094881889764
 20
0.1419370078740158
 10
-27.42624803149606
 20
0.1411181102362205
 10
-27.42193700787401
 20
0.1400669291338583
 10
-27.4180157480315
 20
0.1387795275590551
 10
-27.41448818897638
 20
0.137259842519685
 10
-27.41135039370079
 20
0.135507874015748
 10
-27.40345669291339
 20
0.1296653543307087
 10
-27.39661811023622
 20
0.1228188976377953
 10
-27.39083070866142
 20
0.1149645669291339
 10
-27.38609448818898
 20
0.1061062992125984
 10
-27.38241338582677
 20
0.096244094488189
 10
-27.37978346456693
 20
0.0853779527559055
 10
-27.37820472440945
 20
0.073507874015748
 10
-27.37767716535433
 20
0.0606338582677165
 10
-27.37767716535433
 20
-0.1550708661417323
  0
LWPOLYLINE
  5
74
330
1F
100
AcDbEntity
  8
Layer 1
 62
     7
370
     9
100
AcDbPolyline
 90
      162
 70
     1
 43
0.0
 10
-26.77976771653543
 20
-0.1550708661417323
 10
-26.72492125984252
 20
-0.1550708661417323
 10
-26.72492125984252
 20
0.0606338582677165
 10
-26.72536614173228
 20
0.0749488188976378
 10
-26.72670866141732
 20
0.0885905511811024
 10
-26.72894094488189
 20
0.1015629921259843
 10
-26.73206692913386
 20
0.1138582677165354
 10
-26.73608661417323
 20
0.1254803149606299
 10
-26.741
 20
0.1364291338582677
 10
-26.74680708661417
 20
0.1467007874015748
 10
-26.75351181102362
 20
0.1562992125984252
 10
-26.75725590551181
 20
0.1608937007874016
 10
-26.76123228346457
 20
0.165251968503937
 10
-26.76544094488189
 20
0.1693779527559055
 10
-26.76988188976378
 20
0.1732716535433071
 10
-26.77455118110236
 20
0.1769291338582677
 10
-26.77945669291339
 20
0.1803543307086614
 10
-26.78459842519685
 20
0.1835433070866142
 10
-26.78997244094488
 20
0.1865
 10
-26.79567716535433
 20
0.1891614173228346
 10
-26.80182283464567
 20
0.1914724409448819
 10
-26.80840551181102
 20
0.1934251968503937
 10
-26.81543307086614
 20
0.1950236220472441
 10
-26.82289763779528
 20
0.1962637795275591
 10
-26.83079921259842
 20
0.1971535433070866
 10
-26.83914566929134
 20
0.1976850393700788
 10
-26.84792913385827
 20
0.1978622047244094
 10
-26.85679921259842
 20
0.1975551181102362
 10
-26.86538976377953
 20
0.1966377952755906
 10
-26.8736968503937
 20
0.1951062992125984
 10
-26.88172440944882
 20
0.1929645669291339
 10
-26.88946850393701
 20
0.1902086614173228
 10
-26.89692913385827
 20
0.1868425196850394
 10
-26.90411023622047
 20
0.1828622047244094
 10
-26.91101181102362
 20
0.1782716535433071
 10
-26.917
 20
0.1736889763779527
 10
-26.92271653543307
 20
0.1687637795275591
 10
-26.92816929133858
 20
0.163503937007874
 10
-26.93335039370079
 20
0.1579094488188976
 10
-26.93825984251968
 20
0.1519842519685039
 10
-26.94290157480315
 20
0.1457283464566929
 10
-26.94727165354331
 20
0.1391456692913386
 10
-26.95137007874016
 20
0.132240157480315
 10
-26.95455905511811
 20
0.1386259842519685
 10
-26.95803937007874
 20
0.1447795275590551
 10
-26.96181496062992
 20
0.1506771653543307
 10
-26.96588188976378
 20
0.1562992125984252
 10
-26.96962204724409
 20
0.1608937007874016
 10
-26.97359448818898
 20
0.165251968503937
 10
-26.9778031496063
 20
0.1693779527559055
 10
-26.98224015748032
 20
0.1732716535433071
 10
-26.98691338582677
 20
0.1769291338582677
 10
-26.9918188976378
 20
0.1803543307086614
 10
-26.99695275590551
 20
0.1835433070866142
 10
-27.00232283464567
 20
0.1865
 10
-27.00802755905512
 20
0.1891614173228346
 10
-27.01417322834646
 20
0.1914724409448819
 10
-27.02075984251968
 20
0.1934251968503937
 10
-27.02779133858268
 20
0.1950236220472441
 10
-27.03525984251969
 20
0.1962637795275591
 10
-27.04316535433071
 20
0.1971535433070866
 10
-27.05151181102362
 20
0.1976850393700788
 10
-27.06029921259843
 20
0.1978622047244094
 10
-27.06917322834646
 20
0.1975551181102362
 10
-27.07776377952756
 20
0.1966377952755906
 10
-27.08607480314961
 20
0.1951062992125984
 10
-27.09410236220473
 20
0.1929645669291339
 10
-27.10184645669291
 20
0.1902086614173228
 10
-27.10931102362205
 20
0.1868425196850394
 10
-27.11648818897638
 20
0.1828622047244094
 10
-27.12338188976378
 20
0.1782716535433071
 10
-27.12908267716535
 20
0.1739055118110236
 10
-27.13454330708661
 20
0.169248031496063
 10
-27.13975590551181
 20
0.1642913385826772
 10
-27.14472834645669
 20
0.1590354330708662
 10
-27.14945275590551
 20
0.1534763779527559
 10
-27.15393700787402
 20
0.1476181102362205
 10
-27.15817716535433
 20
0.1414566929133858
 10
-27.16217716535433
 20
0.1349842519685039
 10
-27.16217716535433
 20
0.1900157480314961
 10
-27.21702755905512
 20
0.1900157480314961
 10
-27.21702755905512
 20
-0.1550708661417323
 10
-27.16217716535433
 20
-0.1550708661417323
 10
-27.16217716535433
 20
0.0215196850393701
 10
-27.16090157480315
 20
0.0318110236220472
 10
-27.15923622047244
 20
0.0417007874015748
 10
-27.15717716535433
 20
0.0511929133858268
 10
-27.15472834645669
 20
0.0602913385826772
 10
-27.15188582677165
 20
0.068996062992126
 10
-27.14864960629921
 20
0.0773110236220472
 10
-27.14501968503937
 20
0.085240157480315
 10
-27.141
 20
0.0927874015748032
 10
-27.13773622047244
 20
0.0981496062992126
 10
-27.1341968503937
 20
0.1032716535433071
 10
-27.13038976377953
 20
0.1081496062992126
 10
-27.12631496062992
 20
0.1127795275590551
 10
-27.12196850393701
 20
0.1171692913385827
 10
-27.11735433070866
 20
0.1213110236220473
 10
-27.11247637795276
 20
0.1252086614173228
 10
-27.10732677165354
 20
0.1288622047244095
 10
-27.10198818897638
 20
0.1321653543307087
 10
-27.09655511811023
 20
0.1350314960629921
 10
-27.09101968503937
 20
0.1374566929133858
 10
-27.08538976377953
 20
0.1394448818897638
 10
-27.07966141732284
 20
0.140996062992126
 10
-27.07383464566929
 20
0.1421023622047244
 10
-27.0679094488189
 20
0.1427677165354331
 10
-27.06188582677165
 20
0.1429881889763779
 10
-27.05600393700787
 20
0.1428700787401575
 10
-27.0505157480315
 20
0.1425196850393701
 10
-27.04541732283464
 20
0.1419370078740158
 10
-27.04071653543307
 20
0.1411181102362205
 10
-27.03640551181102
 20
0.1400669291338583
 10
-27.03248818897638
 20
0.1387795275590551
 10
-27.02896456692913
 20
0.137259842519685
 10
-27.02583464566929
 20
0.135507874015748
 10
-27.01793700787401
 20
0.1296653543307087
 10
-27.0110905511811
 20
0.1228188976377953
 10
-27.00529921259843
 20
0.1149645669291339
 10
-27.00056299212599
 20
0.1061062992125984
 10
-26.99687795275591
 20
0.096244094488189
 10
-26.99424803149606
 20
0.0853779527559055
 10
-26.99266929133858
 20
0.073507874015748
 10
-26.99214173228346
 20
0.0606338582677165
 10
-26.99214173228346
 20
-0.1550708661417323
 10
-26.93726771653543
 20
-0.1550708661417323
 10
-26.93726771653543
 20
0.0606338582677165
 10
-26.93765354330709
 20
0.0738070866141732
 10
-26.92864960629921
 20
0.0927874015748032
 10
-26.92537795275591
 20
0.0981496062992126
 10
-26.92183858267716
 20
0.1032716535433071
 10
-26.91803149606299
 20
0.1081496062992126
 10
-26.91395275590551
 20
0.1127795275590551
 10
-26.90961023622047
 20
0.1171692913385827
 10
-26.90499606299213
 20
0.1213110236220473
 10
-26.90011023622047
 20
0.1252086614173228
 10
-26.89495669291339
 20
0.1288622047244095
 10
-26.88961811023622
 20
0.1321653543307087
 10
-26.88418503937008
 20
0.1350314960629921
 10
-26.87864960629921
 20
0.1374566929133858
 10
-26.8730157480315
 20
0.1394448818897638
 10
-26.86728346456693
 20
0.140996062992126
 10
-26.86145275590551
 20
0.1421023622047244
 10
-26.85552362204724
 20
0.1427677165354331
 10
-26.84949606299213
 20
0.1429881889763779
 10
-26.84362598425197
 20
0.1428700787401575
 10
-26.83814960629921
 20
0.1425196850393701
 10
-26.83305905511811
 20
0.1419370078740158
 10
-26.82835826771653
 20
0.1411181102362205
 10
-26.82405118110236
 20
0.1400669291338583
 10
-26.82012992125984
 20
0.1387795275590551
 10
-26.81660236220472
 20
0.137259842519685
 10
-26.81346456692913
 20
0.135507874015748
 10
-26.80557086614173
 20
0.1296653543307087
 10
-26.79872834645669
 20
0.1228188976377953
 10
-26.79293700787402
 20
0.1149645669291339
 10
-26.7881968503937
 20
0.1061062992125984
 10
-26.78451181102362
 20
0.096244094488189
 10
-26.78187795275591
 20
0.0853779527559055
 10
-26.78029527559055
 20
0.073507874015748
 10
-26.77976771653543
 20
0.0606338582677165
 10
-26.77976771653543
 20
-0.1550708661417323
  0
LWPOLYLINE
  5
75
330
1F
100
AcDbEntity
  8
Layer 1
 62
     7
370
    18
100
AcDbPolyline
 90
        4
 70
     1
 43
0.0
 10
-25.17815354330709
 20
-4.229531496062992
 10
-25.20822834645669
 20
-4.223562992125984
 10
-25.19716535433071
 20
-4.252161417322835
 10
-25.17815354330709
 20
-4.229531496062992
  0
LWPOLYLINE
  5
76
330
1F
100
AcDbEntity
  8
Layer 1
 62
     7
370
    18
100
AcDbPolyline
 90
        4
 70
     1
 43
0.0
 10
-23.36690551181102
 20
-5.751228346456693
 10
-23.35584251968504
 20
-5.779826771653544
 10
-23.38591732283465
 20
-5.773858267716536
 10
-23.36690551181102
 20
-5.751228346456693
  0
LWPOLYLINE
  5
77
330
1F
100
AcDbEntity
  8
Layer 1
 62
     7
370
    18
100
AcDbPolyline
 90
        2
 70
     0
 43
0.0
 10
-25.21610236220473
 20
-4.219011811023622
 10
-23.35
 20
-5.786795275590551
  0
LWPOLYLINE
  5
78
330
1F
100
AcDbEntity
  8
Layer 1
 62
     7
370
     9
100
AcDbPolyline
 90
       65
 70
     1
 43
0.0
 10
-26.5497125984252
 20
-5.782511811023622
 10
-26.53808661417323
 20
-5.783015748031496
 10
-26.52691338582677
 20
-5.784523622047244
 10
-26.5161968503937
 20
-5.787035433070866
 10
-26.50593700787402
 20
-5.790551181102362
 10
-26.49612598425197
 20
-5.795074803149606
 10
-26.48677165354331
 20
-5.800602362204724
 10
-26.47787007874016
 20
-5.807129921259842
 10
-26.46942125984252
 20
-5.814665354330709
 10
-26.46179133858268
 20
-5.822838582677165
 10
-26.4551811023622
 20
-5.83148031496063
 10
-26.4495905511811
 20
-5.840582677165354
 10
-26.4450157480315
 20
-5.850153543307087
 10
-26.44145669291338
 20
-5.860192913385827
 10
-26.43891338582677
 20
-5.870692913385827
 10
-26.43738976377953
 20
-5.881661417322834
 10
-26.43688188976378
 20
-5.893094488188976
 10
-26.43738582677165
 20
-5.904417322834646
 10
-26.4388937007874
 20
-5.915366141732283
 10
-26.44140551181102
 20
-5.925937007874015
 10
-26.44492125984252
 20
-5.936129921259843
 10
-26.44944094488189
 20
-5.945940944881889
 10
-26.45496456692914
 20
-5.955370078740158
 10
-26.46148818897638
 20
-5.96442125984252
 10
-26.46901181102362
 20
-5.973090551181103
 10
-26.47725984251969
 20
-5.981
 10
-26.48603149606299
 20
-5.987850393700787
 10
-26.49533070866142
 20
-5.993645669291339
 10
-26.50515354330709
 20
-5.998385826771654
 10
-26.51550393700787
 20
-6.002070866141732
 10
-26.5263779527559
 20
-6.004700787401575
 10
-26.53778346456693
 20
-6.006279527559055
 10
-26.5497125984252
 20
-6.006807086614173
 10
-26.56164960629921
 20
-6.006279527559055
 10
-26.57305905511811
 20
-6.004700787401575
 10
-26.58393700787402
 20
-6.002070866141732
 10
-26.59429133858268
 20
-5.998385826771654
 10
-26.60411417322835
 20
-5.993645669291339
 10
-26.61341338582677
 20
-5.987850393700787
 10
-26.62218503937008
 20
-5.981
 10
-26.63043307086614
 20
-5.973090551181103
 10
-26.63796456692913
 20
-5.96442125984252
 10
-26.64449212598425
 20
-5.955370078740158
 10
-26.6500157480315
 20
-5.945940944881889
 10
-26.65453543307087
 20
-5.936129921259843
 10
-26.65804724409449
 20
-5.925937007874015
 10
-26.66055511811023
 20
-5.915366141732283
 10
-26.66206299212599
 20
-5.904417322834646
 10
-26.66256299212598
 20
-5.893094488188976
 10
-26.66205511811023
 20
-5.881661417322834
 10
-26.66053149606299
 20
-5.870692913385827
 10
-26.65799212598425
 20
-5.860192913385827
 10
-26.65443307086614
 20
-5.850153543307087
 10
-26.64986220472441
 20
-5.840582677165354
 10
-26.64427165354331
 20
-5.83148031496063
 10
-26.63766929133858
 20
-5.822838582677165
 10
-26.63004724409449
 20
-5.814665354330709
 10
-26.6215905511811
 20
-5.807129921259842
 10
-26.61268110236221
 20
-5.800602362204724
 10
-26.6033188976378
 20
-5.795074803149606
 10
-26.59350393700787
 20
-5.790551181102362
 10
-26.58323622047244
 20
-5.787035433070866
 10
-26.5725157480315
 20
-5.784523622047244
 10
-26.56133858267717
 20
-5.783015748031496
 10
-26.5497125984252
 20
-5.782511811023622
  0
LWPOLYLINE
  5
79
330
1F
100
AcDbEntity
  8
Layer 1
 62
     7
370
     9
100
AcDbPolyline
 90
       65
 70
     1
 43
0.0
 10
-26.5497125984252
 20
-5.566035433070867
 10
-26.54034251968504
 20
-5.566429133858268
 10
-26.53132283464567
 20
-5.567602362204725
 10
-26.52266535433071
 20
-5.569566929133858
 10
-26.51435826771653
 20
-5.572311023622047
 10
-26.5064094488189
 20
-5.575838582677165
 10
-26.4988188976378
 20
-5.580153543307087
 10
-26.49158267716535
 20
-5.585255905511811
 10
-26.48470472440945
 20
-5.591137795275591
 10
-26.47827165354331
 20
-5.597748031496063
 10
-26.4726968503937
 20
-5.604736220472441
 10
-26.46798031496063
 20
-5.612110236220472
 10
-26.46412598425197
 20
-5.619858267716536
 10
-26.4611220472441
 20
-5.627992125984252
 10
-26.45898031496063
 20
-5.636503937007874
 10
-26.4576968503937
 20
-5.645397637795275
 10
-26.45726771653543
 20
-5.654673228346457
 10
-26.4576968503937
 20
-5.663744094488189
 10
-26.45898031496063
 20
-5.67251968503937
 10
-26.4611220472441
 20
-5.681
 10
-26.46412598425197
 20
-5.689188976377952
 10
-26.46798031496063
 20
-5.697078740157481
 10
-26.4726968503937
 20
-5.70467716535433
 10
-26.47827165354331
 20
-5.711972440944882
 10
-26.48470472440945
 20
-5.718976377952756
 10
-26.49153937007874
 20
-5.725224409448819
 10
-26.49874409448819
 20
-5.730641732283464
 10
-26.50631496062992
 20
-5.735224409448819
 10
-26.51425984251969
 20
-5.738976377952756
 10
-26.52257086614173
 20
-5.741889763779527
 10
-26.53124803149606
 20
-5.743976377952756
 10
-26.54029527559055
 20
-5.745224409448819
 10
-26.5497125984252
 20
-5.745641732283465
 10
-26.55912992125984
 20
-5.745224409448819
 10
-26.56817716535433
 20
-5.743976377952756
 10
-26.57685826771653
 20
-5.741889763779527
 10
-26.58517322834646
 20
-5.738976377952756
 10
-26.59312204724409
 20
-5.735224409448819
 10
-26.60070078740157
 20
-5.730641732283464
 10
-26.60791732283464
 20
-5.725224409448819
 10
-26.61476771653543
 20
-5.718976377952756
 10
-26.62119291338583
 20
-5.711972440944882
 10
-26.62676377952756
 20
-5.70467716535433
 10
-26.63148031496063
 20
-5.697078740157481
 10
-26.63533858267716
 20
-5.689188976377952
 10
-26.63833858267716
 20
-5.681
 10
-26.64048425196851
 20
-5.67251968503937
 10
-26.64177165354331
 20
-5.663744094488189
 10
-26.64220078740157
 20
-5.654673228346457
 10
-26.64177165354331
 20
-5.645397637795275
 10
-26.64048425196851
 20
-5.636503937007874
 10
-26.63833858267716
 20
-5.627992125984252
 10
-26.63533858267716
 20
-5.619858267716536
 10
-26.63148031496063
 20
-5.612110236220472
 10
-26.62676377952756
 20
-5.604736220472441
 10
-26.62119291338583
 20
-5.597748031496063
 10
-26.61476771653543
 20
-5.591137795275591
 10
-26.60787795275591
 20
-5.585255905511811
 10
-26.60063385826772
 20
-5.580153543307087
 10
-26.59303543307087
 20
-5.575838582677165
 10
-26.58507874015748
 20
-5.572311023622047
 10
-26.57676771653543
 20
-5.569566929133858
 10
-26.56810236220472
 20
-5.567602362204725
 10
-26.55908661417323
 20
-5.566429133858268
 10
-26.5497125984252
 20
-5.566035433070867
  0
LWPOLYLINE
  5
7A
330
1F
100
AcDbEntity
  8
Layer 1
 62
     7
370
     9
100
AcDbPolyline
 90
      121
 70
     1
 43
0.0
 10
-26.5497125984252
 20
-6.061728346456693
 10
-26.53175984251968
 20
-6.061047244094488
 10
-26.51452755905512
 20
-6.059003937007874
 10
-26.49801968503937
 20
-6.05559842519685
 10
-26.48223228346457
 20
-6.050834645669291
 10
-26.46716929133858
 20
-6.044704724409449
 10
-26.45283070866142
 20
-6.037220472440945
 10
-26.4392125984252
 20
-6.028374015748032
 10
-26.4263188976378
 20
-6.018169291338583
 10
-26.4205
 20
-6.012846456692913
 10
-26.415
 20
-6.007251968503937
 10
-26.40981889763779
 20
-6.001385826771654
 10
-26.40496062992126
 20
-5.995248031496063
 10
-26.40041732283465
 20
-5.988838582677166
 10
-26.39619291338583
 20
-5.98215748031496
 10
-26.3922874015748
 20
-5.975208661417323
 10
-26.38870078740158
 20
-5.967988188976378
 10
-26.38548031496063
 20
-5.9605
 10
-26.38269291338583
 20
-5.952744094488189
 10
-26.38033464566929
 20
-5.944716535433071
 10
-26.37840551181102
 20
-5.93642125984252
 10
-26.37690551181102
 20
-5.927854330708661
 10
-26.37583464566929
 20
-5.91901968503937
 10
-26.37519291338583
 20
-5.909909448818897
 10
-26.37498031496063
 20
-5.900531496062992
 10
-26.37534251968504
 20
-5.891043307086615
 10
-26.37642519685039
 20
-5.88157874015748
 10
-26.37823228346457
 20
-5.872137795275591
 10
-26.38075984251968
 20
-5.862716535433071
 10
-26.38400787401575
 20
-5.853314960629922
 10
-26.38798031496063
 20
-5.843937007874016
 10
-26.39267322834646
 20
-5.834582677165354
 10
-26.39808661417323
 20
-5.825251968503937
 10
-26.40418110236221
 20
-5.816157480314961
 10
-26.41090157480315
 20
-5.807488188976378
 10
-26.41824409448819
 20
-5.799244094488189
 10
-26.4262125984252
 20
-5.791433070866142
 10
-26.4348031496063
 20
-5.784051181102362
 10
-26.44401968503937
 20
-5.777098425196851
 10
-26.45385826771653
 20
-5.770574803149606
 10
-26.4643188976378
 20
-5.764484251968504
 10
-26.44944488188976
 20
-5.751204724409448
 10
-26.43654724409449
 20
-5.737645669291338
 10
-26.42563779527559
 20
-5.723803149606299
 10
-26.41670866141732
 20
-5.70967716535433
 10
-26.40976377952756
 20
-5.695271653543307
 10
-26.40479921259843
 20
-5.680582677165354
 10
-26.40182283464567
 20
-5.665614173228346
 10
-26.40083070866142
 20
-5.650362204724409
 10
-26.40151181102362
 20
-5.635314960629922
 10
-26.40355118110236
 20
-5.620968503937008
 10
-26.40695275590551
 20
-5.607318897637795
 10
-26.4117125984252
 20
-5.594374015748032
 10
-26.41783070866142
 20
-5.582125984251968
 10
-26.42531102362205
 20
-5.57057874015748
 10
-26.43414566929134
 20
-5.559728346456693
 10
-26.44434251968504
 20
-5.549574803149606
 10
-26.45511811023622
 20
-5.540755905511811
 10
-26.46657480314961
 20
-5.533114173228347
 10
-26.47871653543307
 20
-5.526645669291338
 10
-26.49154330708662
 20
-5.521350393700788
 10
-26.50505511811023
 20
-5.517232283464567
 10
-26.51925196850394
 20
-5.514287401574803
 10
-26.53413779527559
 20
-5.512523622047244
 10
-26.5497125984252
 20
-5.511933070866141
 10
-26.5652874015748
 20
-5.512523622047244
 10
-26.5801811023622
 20
-5.514287401574803
 10
-26.59438582677165
 20
-5.517232283464567
 10
-26.60790551181102
 20
-5.521350393700788
 10
-26.62074015748032
 20
-5.526645669291338
 10
-26.63288976377953
 20
-5.533114173228347
 10
-26.64435039370079
 20
-5.540755905511811
 10
-26.65512598425197
 20
-5.549574803149606
 10
-26.66532283464567
 20
-5.559720472440945
 10
-26.67415748031496
 20
-5.570551181102362
 10
-26.68162992125984
 20
-5.582070866141732
 10
-26.68774803149606
 20
-5.594275590551181
 10
-26.69250393700787
 20
-5.607165354330709
 10
-26.69590157480315
 20
-5.620748031496063
 10
-26.69793700787402
 20
-5.635015748031496
 10
-26.69861811023622
 20
-5.649976377952756
 10
-26.69762598425197
 20
-5.665314960629921
 10
-26.69464960629921
 20
-5.68036220472441
 10
-26.68969291338583
 20
-5.69511811023622
 10
-26.68274803149606
 20
-5.709578740157481
 10
-26.67381889763779
 20
-5.723744094488189
 10
-26.66290551181102
 20
-5.737622047244095
 10
-26.65000787401575
 20
-5.751200787401575
 10
-26.63512598425197
 20
-5.764484251968504
 10
-26.64559448818898
 20
-5.770574803149606
 10
-26.65543700787402
 20
-5.777098425196851
 10
-26.66465354330709
 20
-5.784051181102362
 10
-26.67324409448819
 20
-5.791433070866142
 10
-26.68120866141732
 20
-5.799244094488189
 10
-26.68855118110236
 20
-5.807488188976378
 10
-26.69526771653543
 20
-5.816157480314961
 10
-26.70136220472441
 20
-5.825251968503937
 10
-26.70678346456693
 20
-5.834602362204724
 10
-26.71148031496063
 20
-5.844011811023622
 10
-26.71545275590551
 20
-5.85348031496063
 10
-26.71870866141732
 20
-5.863007874015748
 10
-26.72123622047244
 20
-5.872594488188977
 10
-26.72304330708661
 20
-5.882240157480315
 10
-26.72412598425197
 20
-5.891944881889764
 10
-26.72448818897638
 20
-5.901712598425197
 10
-26.72368503937008
 20
-5.919232283464567
 10
-26.72127952755906
 20
-5.935901574803149
 10
-26.71726771653543
 20
-5.951728346456693
 10
-26.71165354330709
 20
-5.966708661417323
 10
-26.70443307086614
 20
-5.980842519685039
 10
-26.69561023622047
 20
-5.994129921259843
 10
-26.68518503937008
 20
-6.006574803149606
 10
-26.67315354330709
 20
-6.018169291338583
 10
-26.66025196850394
 20
-6.028374015748032
 10
-26.64662598425197
 20
-6.037220472440945
 10
-26.63228346456693
 20
-6.044704724409449
 10
-26.61721653543307
 20
-6.050834645669291
 10
-26.60142519685039
 20
-6.05559842519685
 10
-26.5849094488189
 20
-6.059003937007874
 10
-26.56767322834646
 20
-6.061047244094488
 10
-26.5497125984252
 20
-6.061728346456693
  0
LWPOLYLINE
  5
7B
330
1F
100
AcDbEntity
  8
Layer 1
 62
     7
370
     9
100
AcDbPolyline
 90
      106
 70
     1
 43
0.0
 10
-26.08150393700787
 20
-5.58251968503937
 10
-26.07245669291338
 20
-5.588669291338583
 10
-26.06402362204724
 20
-5.595653543307087
 10
-26.0561968503937
 20
-5.603468503937008
 10
-26.04898425196851
 20
-5.612122047244094
 10
-26.04238582677165
 20
-5.621606299212599
 10
-26.0363937007874
 20
-5.631925196850394
 10
-26.03101181102362
 20
-5.643074803149606
 10
-26.02624409448819
 20
-5.655055118110236
 10
-26.02092125984252
 20
-5.670952755905512
 10
-26.0163031496063
 20
-5.687086614173229
 10
-26.01239763779527
 20
-5.703452755905512
 10
-26.00920472440945
 20
-5.720055118110237
 10
-26.00672047244095
 20
-5.736889763779527
 10
-26.00494488188976
 20
-5.753956692913386
 10
-26.00387795275591
 20
-5.771255905511811
 10
-26.00352362204724
 20
-5.788791338582677
 10
-26.00588188976378
 20
-5.827610236220472
 10
-26.00860236220472
 20
-5.848692913385827
 10
-26.01215354330709
 20
-5.868614173228346
 10
-26.01653543307087
 20
-5.887366141732284
 10
-26.02175196850394
 20
-5.904956692913386
 10
-26.02779921259842
 20
-5.921381889763779
 10
-26.0346811023622
 20
-5.936645669291338
 10
-26.0423937007874
 20
-5.950744094488189
 10
-26.05093700787402
 20
-5.963681102362205
 10
-26.05874015748032
 20
-5.97342125984252
 10
-26.06695669291339
 20
-5.981866141732284
 10
-26.0755905511811
 20
-5.989007874015748
 10
-26.08464173228347
 20
-5.994854330708661
 10
-26.0941062992126
 20
-5.999397637795275
 10
-26.10398425196851
 20
-6.002645669291339
 10
-26.11428346456693
 20
-6.004594488188976
 10
-26.12499212598425
 20
-6.005244094488189
 10
-26.13694881889764
 20
-6.004598425196851
 10
-26.14833464566929
 20
-6.002669291338583
 10
-26.15914173228347
 20
-5.999452755905512
 10
-26.16937401574803
 20
-5.994948818897638
 10
-26.17902755905512
 20
-5.989157480314961
 10
-26.18811023622047
 20
-5.982086614173229
 10
-26.19661023622047
 20
-5.973728346456693
 10
-26.20453543307087
 20
-5.964090551181102
 10
-26.20788976377953
 20
-5.95940157480315
 10
-26.21109842519685
 20
-5.954570866141732
 10
-26.21416141732283
 20
-5.949594488188977
 10
-26.21707874015748
 20
-5.944472440944882
 10
-26.21984645669291
 20
-5.939200787401575
 10
-26.22246456692913
 20
-5.933783464566929
 10
-26.22493700787401
 20
-5.928220472440945
 10
-26.22725590551181
 20
-5.922503937007874
 10
-26.23149212598425
 20
-5.910866141732283
 10
-26.23518503937008
 20
-5.89907874015748
 10
-26.23833858267717
 20
-5.887145669291338
 10
-26.24095275590551
 20
-5.875070866141733
 10
-26.24314173228347
 20
-5.863003937007874
 10
-26.2449842519685
 20
-5.851133858267716
 10
-26.24647637795276
 20
-5.83946062992126
 10
-26.24761811023622
 20
-5.827996062992126
 10
-26.24848031496063
 20
-5.816181102362204
 10
-26.24909842519685
 20
-5.803503937007874
 10
-26.24946850393701
 20
-5.789964566929134
 10
-26.2495905511811
 20
-5.775574803149606
 10
-26.24945669291339
 20
-5.767948818897638
 10
-26.24905118110236
 20
-5.759881889763779
 10
-26.24837795275591
 20
-5.751374015748032
 10
-26.24743307086614
 20
-5.742421259842519
 10
-26.24621653543307
 20
-5.733023622047244
 10
-26.24473228346457
 20
-5.723177165354331
 10
-26.24297637795276
 20
-5.712877952755906
 10
-26.24095275590551
 20
-5.702129921259843
 10
-26.23835826771654
 20
-5.690185039370078
 10
-26.23527559055118
 20
-5.678299212598425
 10
-26.23170078740158
 20
-5.66646062992126
 10
-26.22764173228347
 20
-5.654673228346457
 10
-26.2254094488189
 20
-5.648862204724409
 10
-26.22301968503937
 20
-5.643200787401574
 10
-26.22047244094488
 20
-5.637688976377953
 10
-26.21776377952756
 20
-5.632322834645669
 10
-26.2148937007874
 20
-5.627106299212598
 10
-26.21186614173228
 20
-5.622035433070866
 10
-26.20867716535433
 20
-5.617114173228346
 10
-26.20533070866142
 20
-5.612338582677165
 10
-26.2018188976378
 20
-5.607744094488189
 10
-26.19813385826772
 20
-5.603385826771653
 10
-26.19427559055118
 20
-5.599259842519685
 10
-26.19024409448819
 20
-5.595366141732283
 10
-26.18604330708661
 20
-5.591708661417323
 10
-26.18166929133858
 20
-5.588283464566929
 10
-26.17712204724409
 20
-5.585090551181103
 10
-26.17240551181103
 20
-5.582133858267716
 10
-26.1675
 20
-5.579464566929134
 10
-26.16237007874016
 20
-5.577149606299213
 10
-26.15701968503937
 20
-5.5751968503937
 10
-26.15144488188976
 20
-5.573594488188976
 10
-26.14565354330709
 20
-5.572350393700788
 10
-26.13964173228347
 20
-5.57146062992126
 10
-26.13341338582677
 20
-5.570929133858268
 10
-26.12696456692913
 20
-5.570751968503937
 10
-26.12051181102362
 20
-5.570937007874016
 10
-26.11427952755906
 20
-5.571488188976378
 10
-26.10826771653543
 20
-5.572409448818898
 10
-26.10247637795275
 20
-5.573696850393701
 10
-26.09690157480315
 20
-5.575350393700788
 10
-26.09155118110236
 20
-5.577374015748031
 10
-26.08641732283465
 20
-5.579763779527559
 10
-26.08150393700787
 20
-5.58251968503937
  0
LWPOLYLINE
  5
7C
330
1F
100
AcDbEntity
  8
Layer 1
 62
     7
370
     9
100
AcDbPolyline
 90
       65
 70
     1
 43
0.0
 10
-26.12422440944882
 20
-6.060933070866142
 10
-26.10133858267717
 20
-6.05948031496063
 10
-26.07991338582677
 20
-6.055125984251968
 10
-26.05994881889764
 20
-6.047866141732284
 10
-26.04143700787402
 20
-6.037700787401575
 10
-26.02438582677165
 20
-6.024629921259843
 10
-26.00879527559055
 20
-6.008653543307086
 10
-25.99466141732283
 20
-5.989775590551181
 10
-25.98198425196851
 20
-5.967988188976378
 10
-25.97307480314961
 20
-5.948984251968504
 10
-25.96535039370079
 20
-5.928925196850393
 10
-25.95881889763779
 20
-5.907811023622047
 10
-25.95347637795276
 20
-5.885645669291338
 10
-25.9493188976378
 20
-5.862421259842519
 10
-25.94635433070866
 20
-5.838137795275591
 10
-25.94457480314961
 20
-5.8128031496063
 10
-25.94398031496063
 20
-5.786409448818898
 10
-25.94457480314961
 20
-5.760031496062992
 10
-25.94635433070866
 20
-5.734708661417323
 10
-25.9493188976378
 20
-5.710437007874016
 10
-25.95347637795276
 20
-5.687216535433071
 10
-25.95881889763779
 20
-5.665047244094488
 10
-25.96535039370079
 20
-5.643929133858268
 10
-25.97307480314961
 20
-5.623866141732283
 10
-25.98198425196851
 20
-5.604854330708662
 10
-25.99466141732283
 20
-5.583074803149606
 10
-26.00879527559055
 20
-5.564200787401575
 10
-26.02438582677165
 20
-5.548232283464567
 10
-26.04143700787402
 20
-5.535165354330709
 10
-26.05994881889764
 20
-5.525
 10
-26.07991338582677
 20
-5.517740157480315
 10
-26.10133858267717
 20
-5.513385826771653
 10
-26.12422440944882
 20
-5.511933070866141
 10
-26.14709842519685
 20
-5.513385826771653
 10
-26.1685157480315
 20
-5.517740157480315
 10
-26.18847637795276
 20
-5.525
 10
-26.20698031496063
 20
-5.535165354330709
 10
-26.22402755905512
 20
-5.548232283464567
 10
-26.23961811023622
 20
-5.564200787401575
 10
-26.25375590551181
 20
-5.583074803149606
 10
-26.26643700787401
 20
-5.604854330708662
 10
-26.27534251968504
 20
-5.623866141732283
 10
-26.28305905511811
 20
-5.643929133858268
 10
-26.2895905511811
 20
-5.665047244094488
 10
-26.29493700787402
 20
-5.687216535433071
 10
-26.29909448818898
 20
-5.710437007874016
 10
-26.30206299212598
 20
-5.734708661417323
 10
-26.30384645669291
 20
-5.760031496062992
 10
-26.30444094488189
 20
-5.786409448818898
 10
-26.30384645669291
 20
-5.8128031496063
 10
-26.30206299212598
 20
-5.838137795275591
 10
-26.29909448818898
 20
-5.862421259842519
 10
-26.29493700787402
 20
-5.885645669291338
 10
-26.2895905511811
 20
-5.907811023622047
 10
-26.28305905511811
 20
-5.928925196850393
 10
-26.27534251968504
 20
-5.948984251968504
 10
-26.26643700787401
 20
-5.967988188976378
 10
-26.25375590551181
 20
-5.989775590551181
 10
-26.23961811023622
 20
-6.008653543307086
 10
-26.22402755905512
 20
-6.024629921259843
 10
-26.20698031496063
 20
-6.037700787401575
 10
-26.18847637795276
 20
-6.047866141732284
 10
-26.1685157480315
 20
-6.055125984251968
 10
-26.14709842519685
 20
-6.05948031496063
 10
-26.12422440944882
 20
-6.060933070866142
  0
LWPOLYLINE
  5
7D
330
1F
100
AcDbEntity
  8
Layer 1
 62
     7
370
     9
100
AcDbPolyline
 90
      162
 70
     1
 43
0.0
 10
-25.40876771653543
 20
-6.052318897637795
 10
-25.35391732283465
 20
-6.052318897637795
 10
-25.35391732283465
 20
-5.836614173228346
 10
-25.35436220472441
 20
-5.822299212598425
 10
-25.35570472440945
 20
-5.80865748031496
 10
-25.35793700787401
 20
-5.795685039370079
 10
-25.36106299212598
 20
-5.783389763779527
 10
-25.36508267716535
 20
-5.771767716535433
 10
-25.37
 20
-5.760818897637796
 10
-25.37580708661417
 20
-5.750547244094488
 10
-25.38251181102362
 20
-5.740948818897638
 10
-25.38625590551181
 20
-5.73636220472441
 10
-25.39023228346457
 20
-5.732003937007874
 10
-25.39443700787401
 20
-5.727877952755906
 10
-25.39887795275591
 20
-5.723984251968504
 10
-25.40354330708661
 20
-5.720322834645669
 10
-25.40844488188976
 20
-5.716897637795276
 10
-25.41358267716535
 20
-5.713700787401574
 10
-25.41894881889764
 20
-5.710744094488189
 10
-25.42465354330709
 20
-5.708082677165354
 10
-25.43079921259843
 20
-5.705775590551181
 10
-25.43738582677165
 20
-5.70382283464567
 10
-25.4444094488189
 20
-5.702224409448819
 10
-25.4518779527559
 20
-5.700984251968504
 10
-25.4597874015748
 20
-5.700094488188976
 10
-25.46813779527559
 20
-5.699562992125984
 10
-25.47692913385827
 20
-5.699385826771653
 10
-25.48579921259843
 20
-5.699692913385827
 10
-25.49438976377953
 20
-5.700610236220473
 10
-25.5026968503937
 20
-5.702141732283464
 10
-25.51072440944882
 20
-5.704283464566929
 10
-25.51846456692913
 20
-5.70703937007874
 10
-25.52592913385827
 20
-5.710405511811024
 10
-25.53311023622047
 20
-5.714385826771654
 10
-25.54000787401575
 20
-5.718976377952756
 10
-25.54599606299213
 20
-5.72355905511811
 10
-25.55171653543307
 20
-5.728484251968504
 10
-25.55716929133858
 20
-5.733744094488189
 10
-25.56235039370079
 20
-5.739338582677165
 10
-25.56725984251969
 20
-5.745263779527559
 10
-25.57190157480315
 20
-5.75151968503937
 10
-25.57627165354331
 20
-5.758102362204724
 10
-25.58037007874016
 20
-5.765007874015748
 10
-25.58355905511811
 20
-5.758622047244095
 10
-25.58703937007874
 20
-5.752468503937008
 10
-25.59081496062992
 20
-5.746570866141732
 10
-25.59488188976378
 20
-5.740948818897638
 10
-25.5986220472441
 20
-5.73636220472441
 10
-25.60259448818898
 20
-5.732003937007874
 10
-25.60679921259842
 20
-5.727877952755906
 10
-25.61124015748031
 20
-5.723984251968504
 10
-25.61591338582677
 20
-5.720322834645669
 10
-25.62081496062992
 20
-5.716897637795276
 10
-25.62595275590551
 20
-5.713700787401574
 10
-25.63131889763779
 20
-5.710744094488189
 10
-25.63702362204724
 20
-5.708082677165354
 10
-25.64317322834646
 20
-5.705775590551181
 10
-25.64975984251969
 20
-5.70382283464567
 10
-25.6567874015748
 20
-5.702224409448819
 10
-25.66425196850394
 20
-5.700984251968504
 10
-25.67215748031496
 20
-5.700094488188976
 10
-25.68049606299213
 20
-5.699562992125984
 10
-25.68927559055118
 20
-5.699385826771653
 10
-25.69814960629921
 20
-5.699692913385827
 10
-25.70674015748031
 20
-5.700610236220473
 10
-25.71505118110236
 20
-5.702141732283464
 10
-25.72308267716535
 20
-5.704283464566929
 10
-25.73083070866142
 20
-5.70703937007874
 10
-25.73829527559055
 20
-5.710405511811024
 10
-25.74548031496063
 20
-5.714385826771654
 10
-25.75238188976378
 20
-5.718976377952756
 10
-25.75808267716535
 20
-5.72334251968504
 10
-25.76354330708661
 20
-5.728
 10
-25.76875590551181
 20
-5.732956692913386
 10
-25.77372834645669
 20
-5.738212598425197
 10
-25.77845275590551
 20
-5.743771653543307
 10
-25.78293700787401
 20
-5.749629921259842
 10
-25.78717716535433
 20
-5.755791338582677
 10
-25.79117716535433
 20
-5.762263779527559
 10
-25.79117716535433
 20
-5.707232283464567
 10
-25.84602755905512
 20
-5.707232283464567
 10
-25.84602755905512
 20
-6.052318897637795
 10
-25.79117716535433
 20
-6.052318897637795
 10
-25.79117716535433
 20
-5.875728346456693
 10
-25.78990157480315
 20
-5.865437007874016
 10
-25.78823622047244
 20
-5.855547244094488
 10
-25.78617716535433
 20
-5.846055118110236
 10
-25.78372440944882
 20
-5.836956692913386
 10
-25.78088188976378
 20
-5.828251968503937
 10
-25.77764960629921
 20
-5.819937007874016
 10
-25.77401968503937
 20
-5.812007874015748
 10
-25.77
 20
-5.80446062992126
 10
-25.76673622047244
 20
-5.79909842519685
 10
-25.7631968503937
 20
-5.793976377952756
 10
-25.75938976377953
 20
-5.78909842519685
 10
-25.75531102362205
 20
-5.784468503937008
 10
-25.75096456692913
 20
-5.780078740157481
 10
-25.74634645669291
 20
-5.775937007874016
 10
-25.74146062992126
 20
-5.77203937007874
 10
-25.7363031496063
 20
-5.768385826771653
 10
-25.73096456692913
 20
-5.765082677165354
 10
-25.72553149606299
 20
-5.762216535433071
 10
-25.71999606299213
 20
-5.759791338582677
 10
-25.71436614173228
 20
-5.757803149606299
 10
-25.70863779527559
 20
-5.756251968503937
 10
-25.70281102362205
 20
-5.755145669291339
 10
-25.69688976377953
 20
-5.75448031496063
 10
-25.69086614173228
 20
-5.754259842519685
 10
-25.68498818897638
 20
-5.754377952755905
 10
-25.67950393700787
 20
-5.754728346456693
 10
-25.67441338582677
 20
-5.755311023622047
 10
-25.6697125984252
 20
-5.756129921259842
 10
-25.66540157480315
 20
-5.757181102362205
 10
-25.66148818897638
 20
-5.758468503937008
 10
-25.65796456692913
 20
-5.759988188976378
 10
-25.65483464566929
 20
-5.761740157480315
 10
-25.64693307086614
 20
-5.767582677165354
 10
-25.6400905511811
 20
-5.774429133858268
 10
-25.63429527559055
 20
-5.782283464566929
 10
-25.62955905511811
 20
-5.791141732283465
 10
-25.62587401574803
 20
-5.801003937007874
 10
-25.62324409448819
 20
-5.811870078740157
 10
-25.62166535433071
 20
-5.823740157480315
 10
-25.62113779527559
 20
-5.836614173228346
 10
-25.62113779527559
 20
-6.052318897637795
 10
-25.56626771653543
 20
-6.052318897637795
 10
-25.56626771653543
 20
-5.836614173228346
 10
-25.56665354330709
 20
-5.82344094488189
 10
-25.55764960629921
 20
-5.80446062992126
 10
-25.55437795275591
 20
-5.79909842519685
 10
-25.55083858267717
 20
-5.793976377952756
 10
-25.54703149606299
 20
-5.78909842519685
 10
-25.54295275590551
 20
-5.784468503937008
 10
-25.53861023622047
 20
-5.780078740157481
 10
-25.53399606299213
 20
-5.775937007874016
 10
-25.52911023622047
 20
-5.77203937007874
 10
-25.52395669291339
 20
-5.768385826771653
 10
-25.51861811023622
 20
-5.765082677165354
 10
-25.51318503937008
 20
-5.762216535433071
 10
-25.50764960629921
 20
-5.759791338582677
 10
-25.5020157480315
 20
-5.757803149606299
 10
-25.49628346456693
 20
-5.756251968503937
 10
-25.49045275590551
 20
-5.755145669291339
 10
-25.48452362204725
 20
-5.75448031496063
 10
-25.47849212598425
 20
-5.754259842519685
 10
-25.47261811023622
 20
-5.754377952755905
 10
-25.46713385826772
 20
-5.754728346456693
 10
-25.46203937007874
 20
-5.755311023622047
 10
-25.45733858267717
 20
-5.756129921259842
 10
-25.45302755905512
 20
-5.757181102362205
 10
-25.4491062992126
 20
-5.758468503937008
 10
-25.44557874015748
 20
-5.759988188976378
 10
-25.44244094488189
 20
-5.761740157480315
 10
-25.43454724409449
 20
-5.767582677165354
 10
-25.42770866141732
 20
-5.774429133858268
 10
-25.42192125984252
 20
-5.782283464566929
 10
-25.41718503937008
 20
-5.791141732283465
 10
-25.41350393700787
 20
-5.801003937007874
 10
-25.41087401574803
 20
-5.811870078740157
 10
-25.40929527559055
 20
-5.823740157480315
 10
-25.40876771653543
 20
-5.836614173228346
 10
-25.40876771653543
 20
-6.052318897637795
  0
LWPOLYLINE
  5
7E
330
1F
100
AcDbEntity
  8
Layer 1
 62
     7
370
     9
100
AcDbPolyline
 90
      162
 70
     1
 43
0.0
 10
-24.81086220472441
 20
-6.052318897637795
 10
-24.75601181102362
 20
-6.052318897637795
 10
-24.75601181102362
 20
-5.836614173228346
 10
-24.75645669291339
 20
-5.822299212598425
 10
-24.75779921259842
 20
-5.80865748031496
 10
-24.76003149606299
 20
-5.795685039370079
 10
-24.76315748031496
 20
-5.783389763779527
 10
-24.76717716535433
 20
-5.771767716535433
 10
-24.7720905511811
 20
-5.760818897637796
 10
-24.77789763779528
 20
-5.750547244094488
 10
-24.78460236220472
 20
-5.740948818897638
 10
-24.78835039370079
 20
-5.73636220472441
 10
-24.79232677165354
 20
-5.732003937007874
 10
-24.79653149606299
 20
-5.727877952755906
 10
-24.80097244094488
 20
-5.723984251968504
 10
-24.80564566929134
 20
-5.720322834645669
 10
-24.81055118110236
 20
-5.716897637795276
 10
-24.81568897637795
 20
-5.713700787401574
 10
-24.82106299212598
 20
-5.710744094488189
 10
-24.82676771653543
 20
-5.708082677165354
 10
-24.83291338582677
 20
-5.705775590551181
 10
-24.83949606299213
 20
-5.70382283464567
 10
-24.84652362204724
 20
-5.702224409448819
 10
-24.85398818897638
 20
-5.700984251968504
 10
-24.86188976377953
 20
-5.700094488188976
 10
-24.87023622047244
 20
-5.699562992125984
 10
-24.87901968503937
 20
-5.699385826771653
 10
-24.88788976377953
 20
-5.699692913385827
 10
-24.89648031496063
 20
-5.700610236220473
 10
-24.9047874015748
 20
-5.702141732283464
 10
-24.91281496062992
 20
-5.704283464566929
 10
-24.92055905511811
 20
-5.70703937007874
 10
-24.92801968503937
 20
-5.710405511811024
 10
-24.93520078740157
 20
-5.714385826771654
 10
-24.94210236220473
 20
-5.718976377952756
 10
-24.9480905511811
 20
-5.72355905511811
 10
-24.95381102362205
 20
-5.728484251968504
 10
-24.95925984251969
 20
-5.733744094488189
 10
-24.96444488188977
 20
-5.739338582677165
 10
-24.96935433070866
 20
-5.745263779527559
 10
-24.97399606299212
 20
-5.75151968503937
 10
-24.97836220472441
 20
-5.758102362204724
 10
-24.98246062992126
 20
-5.765007874015748
 10
-24.98564960629921
 20
-5.758622047244095
 10
-24.98912992125984
 20
-5.752468503937008
 10
-24.99290551181102
 20
-5.746570866141732
 10
-24.99697244094488
 20
-5.740948818897638
 10
-25.0007125984252
 20
-5.73636220472441
 10
-25.00468503937008
 20
-5.732003937007874
 10
-25.0088937007874
 20
-5.727877952755906
 10
-25.01333070866142
 20
-5.723984251968504
 10
-25.01800393700787
 20
-5.720322834645669
 10
-25.0229094488189
 20
-5.716897637795276
 10
-25.02804330708661
 20
-5.713700787401574
 10
-25.03341338582677
 20
-5.710744094488189
 10
-25.03911811023622
 20
-5.708082677165354
 10
-25.04526771653543
 20
-5.705775590551181
 10
-25.05185433070866
 20
-5.70382283464567
 10
-25.05888188976378
 20
-5.702224409448819
 10
-25.06635039370079
 20
-5.700984251968504
 10
-25.07425590551181
 20
-5.700094488188976
 10
-25.0826062992126
 20
-5.699562992125984
 10
-25.09138976377953
 20
-5.699385826771653
 10
-25.10026377952756
 20
-5.699692913385827
 10
-25.10885433070866
 20
-5.700610236220473
 10
-25.11716535433071
 20
-5.702141732283464
 10
-25.12519291338583
 20
-5.704283464566929
 10
-25.13293700787402
 20
-5.70703937007874
 10
-25.14040157480315
 20
-5.710405511811024
 10
-25.14757874015748
 20
-5.714385826771654
 10
-25.15447244094488
 20
-5.718976377952756
 10
-25.16017322834645
 20
-5.72334251968504
 10
-25.16563385826772
 20
-5.728
 10
-25.17084645669291
 20
-5.732956692913386
 10
-25.1758188976378
 20
-5.738212598425197
 10
-25.18054330708662
 20
-5.743771653543307
 10
-25.18502755905512
 20
-5.749629921259842
 10
-25.18926771653543
 20
-5.755791338582677
 10
-25.19326771653543
 20
-5.762263779527559
 10
-25.19326771653543
 20
-5.707232283464567
 10
-25.24811811023622
 20
-5.707232283464567
 10
-25.24811811023622
 20
-6.052318897637795
 10
-25.19326771653543
 20
-6.052318897637795
 10
-25.19326771653543
 20
-5.875728346456693
 10
-25.19199212598425
 20
-5.865437007874016
 10
-25.19032677165354
 20
-5.855547244094488
 10
-25.18826771653543
 20
-5.846055118110236
 10
-25.18581889763779
 20
-5.836956692913386
 10
-25.18297637795276
 20
-5.828251968503937
 10
-25.17974015748031
 20
-5.819937007874016
 10
-25.17611023622047
 20
-5.812007874015748
 10
-25.1720905511811
 20
-5.80446062992126
 10
-25.16882677165354
 20
-5.79909842519685
 10
-25.16529133858268
 20
-5.793976377952756
 10
-25.1614842519685
 20
-5.78909842519685
 10
-25.15740551181102
 20
-5.784468503937008
 10
-25.15305905511811
 20
-5.780078740157481
 10
-25.14844488188976
 20
-5.775937007874016
 10
-25.14356692913386
 20
-5.77203937007874
 10
-25.13841732283464
 20
-5.768385826771653
 10
-25.13307874015748
 20
-5.765082677165354
 10
-25.12764566929134
 20
-5.762216535433071
 10
-25.12211023622047
 20
-5.759791338582677
 10
-25.11648031496063
 20
-5.757803149606299
 10
-25.11075196850394
 20
-5.756251968503937
 10
-25.1049251968504
 20
-5.755145669291339
 10
-25.09900393700788
 20
-5.75448031496063
 10
-25.09298031496063
 20
-5.754259842519685
 10
-25.08709842519685
 20
-5.754377952755905
 10
-25.0816062992126
 20
-5.754728346456693
 10
-25.07651181102362
 20
-5.755311023622047
 10
-25.07180708661417
 20
-5.756129921259842
 10
-25.06749606299213
 20
-5.757181102362205
 10
-25.06357874015748
 20
-5.758468503937008
 10
-25.06005511811023
 20
-5.759988188976378
 10
-25.05692519685039
 20
-5.761740157480315
 10
-25.04902755905512
 20
-5.767582677165354
 10
-25.0421811023622
 20
-5.774429133858268
 10
-25.03638976377953
 20
-5.782283464566929
 10
-25.03165354330709
 20
-5.791141732283465
 10
-25.02796850393701
 20
-5.801003937007874
 10
-25.02533858267716
 20
-5.811870078740157
 10
-25.02375984251968
 20
-5.823740157480315
 10
-25.02323228346457
 20
-5.836614173228346
 10
-25.02323228346457
 20
-6.052318897637795
 10
-24.96835826771654
 20
-6.052318897637795
 10
-24.96835826771654
 20
-5.836614173228346
 10
-24.96874409448819
 20
-5.82344094488189
 10
-24.95974409448819
 20
-5.80446062992126
 10
-24.95647244094488
 20
-5.79909842519685
 10
-24.95293307086614
 20
-5.793976377952756
 10
-24.9491220472441
 20
-5.78909842519685
 10
-24.94504724409449
 20
-5.784468503937008
 10
-24.94070078740157
 20
-5.780078740157481
 10
-24.93608661417323
 20
-5.775937007874016
 10
-24.93120078740158
 20
-5.77203937007874
 10
-24.92604724409449
 20
-5.768385826771653
 10
-24.92070866141732
 20
-5.765082677165354
 10
-24.91527559055118
 20
-5.762216535433071
 10
-24.90974015748031
 20
-5.759791338582677
 10
-24.90411023622047
 20
-5.757803149606299
 10
-24.8983779527559
 20
-5.756251968503937
 10
-24.89254724409449
 20
-5.755145669291339
 10
-24.88661811023622
 20
-5.75448031496063
 10
-24.88058661417323
 20
-5.754259842519685
 10
-24.87471653543307
 20
-5.754377952755905
 10
-24.86924015748032
 20
-5.754728346456693
 10
-24.86414960629921
 20
-5.755311023622047
 10
-24.85944881889764
 20
-5.756129921259842
 10
-24.85514173228346
 20
-5.757181102362205
 10
-24.85122047244095
 20
-5.758468503937008
 10
-24.84769291338583
 20
-5.759988188976378
 10
-24.84455511811024
 20
-5.761740157480315
 10
-24.83666141732283
 20
-5.767582677165354
 10
-24.8298188976378
 20
-5.774429133858268
 10
-24.82402755905512
 20
-5.782283464566929
 10
-24.81929133858268
 20
-5.791141732283465
 10
-24.81560236220473
 20
-5.801003937007874
 10
-24.81296850393701
 20
-5.811870078740157
 10
-24.81138976377953
 20
-5.823740157480315
 10
-24.81086220472441
 20
-5.836614173228346
 10
-24.81086220472441
 20
-6.052318897637795
  0
LWPOLYLINE
  5
7F
330
1F
100
AcDbEntity
  8
Layer 1
 62
     7
370
    18
100
AcDbPolyline
 90
        4
 70
     1
 43
0.0
 10
-18.86896456692913
 20
-4.344937007874016
 10
-18.85174803149606
 20
-4.319562992125984
 10
-18.88239763779528
 20
-4.318606299212599
 10
-18.86896456692913
 20
-4.344937007874016
  0
LWPOLYLINE
  5
80
330
1F
100
AcDbEntity
  8
Layer 1
 62
     7
370
    18
100
AcDbPolyline
 90
        4
 70
     1
 43
0.0
 10
-22.31840551181102
 20
-6.10461811023622
 10
-22.34905511811024
 20
-6.103665354330708
 10
-22.33183858267716
 20
-6.078291338582678
 10
-22.31840551181102
 20
-6.10461811023622
  0
LWPOLYLINE
  5
81
330
1F
100
AcDbEntity
  8
Layer 1
 62
     7
370
    18
100
AcDbPolyline
 90
        2
 70
     0
 43
0.0
 10
-18.84448818897638
 20
-4.314090551181103
 10
-22.35775196850394
 20
-6.106330708661417
  0
LWPOLYLINE
  5
82
330
1F
100
AcDbEntity
  8
Layer 1
 62
     7
370
     9
100
AcDbPolyline
 90
       65
 70
     1
 43
0.0
 10
-20.63856299212598
 20
-6.109661417322835
 10
-20.62693700787402
 20
-6.110161417322835
 10
-20.61576377952756
 20
-6.111669291338583
 10
-20.60504330708661
 20
-6.114177165354331
 10
-20.59477559055118
 20
-6.117692913385826
 10
-20.58496456692913
 20
-6.122212598425197
 10
-20.5756062992126
 20
-6.127740157480315
 10
-20.56670078740158
 20
-6.134275590551181
 10
-20.55825196850394
 20
-6.141814960629921
 10
-20.55062204724409
 20
-6.149988188976378
 10
-20.54401181102362
 20
-6.158625984251969
 10
-20.53842125984252
 20
-6.167728346456693
 10
-20.53384645669291
 20
-6.177295275590551
 10
-20.5302874015748
 20
-6.187326771653543
 10
-20.52774409448819
 20
-6.197826771653543
 10
-20.52622047244094
 20
-6.208791338582677
 10
-20.5257125984252
 20
-6.220224409448819
 10
-20.52621653543307
 20
-6.231555118110236
 10
-20.52772440944882
 20
-6.242507874015748
 10
-20.53023622047244
 20
-6.253078740157481
 10
-20.53375196850394
 20
-6.263267716535433
 10
-20.53827165354331
 20
-6.273074803149607
 10
-20.54379133858268
 20
-6.282503937007874
 10
-20.55031496062992
 20
-6.291551181102363
 10
-20.55784251968504
 20
-6.300220472440945
 10
-20.5660905511811
 20
-6.308125984251968
 10
-20.57486614173228
 20
-6.314976377952756
 10
-20.58416535433071
 20
-6.320771653543307
 10
-20.59399212598425
 20
-6.325511811023622
 10
-20.60434645669291
 20
-6.329200787401575
 10
-20.61522834645669
 20
-6.331830708661418
 10
-20.62663385826772
 20
-6.333409448818897
 10
-20.63856299212598
 20
-6.333937007874016
 10
-20.6505
 20
-6.333409448818897
 10
-20.6619094488189
 20
-6.331830708661418
 10
-20.67279133858268
 20
-6.329200787401575
 10
-20.68314173228346
 20
-6.325511811023622
 10
-20.69296850393701
 20
-6.320771653543307
 10
-20.70226771653543
 20
-6.314976377952756
 10
-20.71103937007874
 20
-6.308125984251968
 10
-20.7192874015748
 20
-6.300220472440945
 10
-20.72681889763779
 20
-6.291551181102363
 10
-20.73334645669291
 20
-6.282503937007874
 10
-20.73887007874016
 20
-6.273074803149607
 10
-20.74338582677165
 20
-6.263267716535433
 10
-20.74690157480315
 20
-6.253078740157481
 10
-20.7494094488189
 20
-6.242507874015748
 10
-20.75091732283465
 20
-6.231555118110236
 10
-20.75141732283464
 20
-6.220224409448819
 10
-20.7509094488189
 20
-6.208791338582677
 10
-20.74938582677165
 20
-6.197826771653543
 10
-20.74684645669291
 20
-6.187326771653543
 10
-20.7432874015748
 20
-6.177295275590551
 10
-20.73871653543307
 20
-6.167728346456693
 10
-20.73312598425197
 20
-6.158625984251969
 10
-20.72652362204724
 20
-6.149988188976378
 10
-20.71890157480315
 20
-6.141814960629921
 10
-20.71044488188976
 20
-6.134275590551181
 10
-20.70153543307087
 20
-6.127740157480315
 10
-20.69216929133858
 20
-6.122212598425197
 10
-20.68235433070866
 20
-6.117692913385826
 10
-20.67208661417323
 20
-6.114177165354331
 10
-20.66136614173228
 20
-6.111669291338583
 10
-20.65018897637795
 20
-6.110161417322835
 10
-20.63856299212598
 20
-6.109661417322835
  0
LWPOLYLINE
  5
83
330
1F
100
AcDbEntity
  8
Layer 1
 62
     7
370
     9
100
AcDbPolyline
 90
       65
 70
     1
 43
0.0
 10
-20.63856299212598
 20
-5.893165354330709
 10
-20.62919291338583
 20
-5.89355905511811
 10
-20.62017716535433
 20
-5.894736220472441
 10
-20.6115157480315
 20
-5.896700787401575
 10
-20.60320866141732
 20
-5.899448818897638
 10
-20.59525984251968
 20
-5.90298031496063
 10
-20.58766141732283
 20
-5.907291338582677
 10
-20.58041732283464
 20
-5.912389763779528
 10
-20.57353149606299
 20
-5.918263779527559
 10
-20.56709842519685
 20
-5.924881889763779
 10
-20.56152755905512
 20
-5.931877952755905
 10
-20.55681102362205
 20
-5.939251968503937
 10
-20.55295275590551
 20
-5.947003937007874
 10
-20.54995275590551
 20
-5.955133858267716
 10
-20.54781102362205
 20
-5.963645669291338
 10
-20.54652755905512
 20
-5.972531496062992
 10
-20.54609842519685
 20
-5.981799212598426
 10
-20.54652755905512
 20
-5.990870078740158
 10
-20.54781102362205
 20
-5.999645669291339
 10
-20.54995275590551
 20
-6.008129921259843
 10
-20.55295275590551
 20
-6.016318897637795
 10
-20.55681102362205
 20
-6.024212598425197
 10
-20.56152755905512
 20
-6.031811023622048
 10
-20.56709842519685
 20
-6.03911811023622
 10
-20.57353149606299
 20
-6.046125984251969
 10
-20.58037401574803
 20
-6.052370078740157
 10
-20.58758267716535
 20
-6.057779527559055
 10
-20.59516141732284
 20
-6.062358267716536
 10
-20.6031062992126
 20
-6.066106299212598
 10
-20.61141732283465
 20
-6.06901968503937
 10
-20.62009842519685
 20
-6.071102362204725
 10
-20.62914566929134
 20
-6.072350393700788
 10
-20.63856299212598
 20
-6.072767716535433
 10
-20.64798031496063
 20
-6.072350393700788
 10
-20.65702755905512
 20
-6.071102362204725
 10
-20.6657125984252
 20
-6.06901968503937
 10
-20.67402755905512
 20
-6.066106299212598
 10
-20.68197244094488
 20
-6.062358267716536
 10
-20.68955511811023
 20
-6.057779527559055
 10
-20.69676771653543
 20
-6.052370078740157
 10
-20.70361811023622
 20
-6.046125984251969
 10
-20.71004330708661
 20
-6.03911811023622
 10
-20.71561417322835
 20
-6.031811023622048
 10
-20.72033070866142
 20
-6.024212598425197
 10
-20.72418897637795
 20
-6.016318897637795
 10
-20.72719291338583
 20
-6.008129921259843
 10
-20.72933858267717
 20
-5.999645669291339
 10
-20.73062598425197
 20
-5.990870078740158
 10
-20.73105511811024
 20
-5.981799212598426
 10
-20.73062598425197
 20
-5.972531496062992
 10
-20.72933858267717
 20
-5.963645669291338
 10
-20.72719291338583
 20
-5.955133858267716
 10
-20.72418897637795
 20
-5.947003937007874
 10
-20.72033070866142
 20
-5.939251968503937
 10
-20.71561417322835
 20
-5.931877952755905
 10
-20.71004330708661
 20
-5.924881889763779
 10
-20.70361811023622
 20
-5.918263779527559
 10
-20.69673228346457
 20
-5.912389763779528
 10
-20.68948818897638
 20
-5.907291338582677
 10
-20.68188582677165
 20
-5.90298031496063
 10
-20.67393307086614
 20
-5.899448818897638
 10
-20.6656220472441
 20
-5.896700787401575
 10
-20.65695669291339
 20
-5.894736220472441
 10
-20.64793700787402
 20
-5.89355905511811
 10
-20.63856299212598
 20
-5.893165354330709
  0
LWPOLYLINE
  5
84
330
1F
100
AcDbEntity
  8
Layer 1
 62
     7
370
     9
100
AcDbPolyline
 90
      121
 70
     1
 43
0.0
 10
-20.63856299212598
 20
-6.388854330708662
 10
-20.62061023622047
 20
-6.388173228346457
 10
-20.60337401574803
 20
-6.386133858267717
 10
-20.58686220472441
 20
-6.382732283464567
 10
-20.57107480314961
 20
-6.377972440944882
 10
-20.55600393700787
 20
-6.371846456692913
 10
-20.54166141732284
 20
-6.364366141732283
 10
-20.52803937007874
 20
-6.355523622047244
 10
-20.51514566929134
 20
-6.345318897637795
 10
-20.50933464566929
 20
-6.339988188976378
 10
-20.50384251968504
 20
-6.334389763779527
 10
-20.49866535433071
 20
-6.328523622047245
 10
-20.49380708661417
 20
-6.322385826771654
 10
-20.48926377952756
 20
-6.315976377952756
 10
-20.48504330708661
 20
-6.309295275590551
 10
-20.48113779527559
 20
-6.302342519685039
 10
-20.47755118110236
 20
-6.295118110236221
 10
-20.47433070866142
 20
-6.287629921259843
 10
-20.47154330708661
 20
-6.279874015748032
 10
-20.46918503937008
 20
-6.271850393700787
 10
-20.46725590551181
 20
-6.26355905511811
 10
-20.46575984251968
 20
-6.254996062992126
 10
-20.46468897637795
 20
-6.246165354330708
 10
-20.46404724409449
 20
-6.23705905511811
 10
-20.46383464566929
 20
-6.227681102362205
 10
-20.4641968503937
 20
-6.218185039370079
 10
-20.46527952755905
 20
-6.208716535433071
 10
-20.46708661417323
 20
-6.199267716535434
 10
-20.46961417322835
 20
-6.18984251968504
 10
-20.47286220472441
 20
-6.180444881889763
 10
-20.47683464566929
 20
-6.171066929133858
 10
-20.48152362204724
 20
-6.161712598425197
 10
-20.48693700787402
 20
-6.152381889763779
 10
-20.49303149606299
 20
-6.143283464566929
 10
-20.49974803149606
 20
-6.134618110236221
 10
-20.5070905511811
 20
-6.126377952755906
 10
-20.51505511811024
 20
-6.118570866141733
 10
-20.52364173228347
 20
-6.111188976377953
 10
-20.53285433070866
 20
-6.104236220472441
 10
-20.54268897637795
 20
-6.097712598425197
 10
-20.55314960629921
 20
-6.091614173228346
 10
-20.53827559055118
 20
-6.078334645669291
 10
-20.52538188976378
 20
-6.064775590551181
 10
-20.51447244094488
 20
-6.050937007874015
 10
-20.50554724409449
 20
-6.036814960629921
 10
-20.4986062992126
 20
-6.022409448818897
 10
-20.49364960629921
 20
-6.007720472440945
 10
-20.49067322834646
 20
-5.992748031496063
 10
-20.4896811023622
 20
-5.977492125984252
 10
-20.49036220472441
 20
-5.962448818897638
 10
-20.49240157480315
 20
-5.948110236220472
 10
-20.49579921259842
 20
-5.934464566929134
 10
-20.50055905511811
 20
-5.921523622047244
 10
-20.50667716535433
 20
-5.909275590551181
 10
-20.51414960629921
 20
-5.897728346456693
 10
-20.5229842519685
 20
-5.886877952755905
 10
-20.53317322834646
 20
-5.876724409448819
 10
-20.54394881889764
 20
-5.86790157480315
 10
-20.5554094488189
 20
-5.860251968503937
 10
-20.56755511811023
 20
-5.853783464566929
 10
-20.58038582677165
 20
-5.848492125984252
 10
-20.59390157480315
 20
-5.844374015748032
 10
-20.60810236220473
 20
-5.841433070866142
 10
-20.62298818897638
 20
-5.839669291338582
 10
-20.63856299212598
 20
-5.839082677165354
 10
-20.65413779527559
 20
-5.839669291338582
 10
-20.66903149606299
 20
-5.841433070866142
 10
-20.68323622047244
 20
-5.844374015748032
 10
-20.69675590551181
 20
-5.848492125984252
 10
-20.7095905511811
 20
-5.853783464566929
 10
-20.72174015748032
 20
-5.860251968503937
 10
-20.73320472440945
 20
-5.86790157480315
 10
-20.74398031496063
 20
-5.876724409448819
 10
-20.75417322834646
 20
-5.886870078740158
 10
-20.76300787401575
 20
-5.897704724409449
 10
-20.77047637795276
 20
-5.909220472440945
 10
-20.77658661417323
 20
-5.921425196850394
 10
-20.78133858267717
 20
-5.934311023622048
 10
-20.78473228346457
 20
-5.947889763779528
 10
-20.78676771653543
 20
-5.962153543307086
 10
-20.78744488188977
 20
-5.977106299212599
 10
-20.78645275590551
 20
-5.992448818897638
 10
-20.78348031496063
 20
-6.0075
 10
-20.77852755905512
 20
-6.022251968503937
 10
-20.77158661417323
 20
-6.036712598425197
 10
-20.76266535433071
 20
-6.050877952755905
 10
-20.75175590551181
 20
-6.064751968503937
 10
-20.73886220472441
 20
-6.078330708661417
 10
-20.72398031496063
 20
-6.091614173228346
 10
-20.73444881889764
 20
-6.097712598425197
 10
-20.74429133858268
 20
-6.104236220472441
 10
-20.75350393700787
 20
-6.111188976377953
 10
-20.76209448818897
 20
-6.118570866141733
 10
-20.77005511811024
 20
-6.126377952755906
 10
-20.7773937007874
 20
-6.134618110236221
 10
-20.78410236220472
 20
-6.143283464566929
 10
-20.79018897637795
 20
-6.152381889763779
 10
-20.79561023622047
 20
-6.161732283464567
 10
-20.80030708661417
 20
-6.17113779527559
 10
-20.80428346456693
 20
-6.180606299212599
 10
-20.80753543307087
 20
-6.19013779527559
 10
-20.81006692913386
 20
-6.199724409448819
 10
-20.81187401574803
 20
-6.209377952755905
 10
-20.81295669291339
 20
-6.219086614173229
 10
-20.8133188976378
 20
-6.228862204724409
 10
-20.8125157480315
 20
-6.246374015748032
 10
-20.81011023622047
 20
-6.263043307086614
 10
-20.80609842519685
 20
-6.278866141732284
 10
-20.80048425196851
 20
-6.293850393700787
 10
-20.79326771653543
 20
-6.307984251968504
 10
-20.78444881889764
 20
-6.321275590551181
 10
-20.77402755905512
 20
-6.333720472440945
 10
-20.76200393700788
 20
-6.345318897637795
 10
-20.74910236220472
 20
-6.355523622047244
 10
-20.73548031496063
 20
-6.364366141732283
 10
-20.72113385826772
 20
-6.371846456692913
 10
-20.70606692913386
 20
-6.377972440944882
 10
-20.69027559055118
 20
-6.382732283464567
 10
-20.67376377952756
 20
-6.386133858267717
 10
-20.65652362204725
 20
-6.388173228346457
 10
-20.63856299212598
 20
-6.388854330708662
  0
LWPOLYLINE
  5
85
330
1F
100
AcDbEntity
  8
Layer 1
 62
     7
370
     9
100
AcDbPolyline
 90
      104
 70
     1
 43
0.0
 10
-20.17035433070866
 20
-5.909649606299213
 10
-20.16130708661417
 20
-5.915799212598425
 10
-20.15287401574803
 20
-5.922779527559055
 10
-20.14504724409449
 20
-5.93059842519685
 10
-20.13783858267717
 20
-5.939251968503937
 10
-20.13123622047244
 20
-5.948736220472441
 10
-20.12524409448819
 20
-5.959055118110236
 10
-20.11986614173228
 20
-5.970204724409449
 10
-20.11509842519685
 20
-5.982185039370079
 10
-20.10977165354331
 20
-5.998090551181102
 10
-20.10515748031496
 20
-6.014224409448819
 10
-20.10125196850394
 20
-6.030590551181103
 10
-20.09805905511811
 20
-6.047188976377953
 10
-20.09557086614173
 20
-6.06401968503937
 10
-20.09379921259843
 20
-6.081086614173229
 10
-20.09273228346457
 20
-6.098385826771653
 10
-20.09237795275591
 20
-6.11592125984252
 10
-20.09473622047244
 20
-6.154740157480315
 10
-20.09745669291339
 20
-6.175822834645669
 10
-20.10100787401575
 20
-6.195744094488189
 10
-20.10538976377953
 20
-6.2145
 10
-20.11060236220472
 20
-6.232094488188976
 10
-20.11664960629921
 20
-6.24851968503937
 10
-20.12353149606299
 20
-6.263783464566929
 10
-20.13124409448819
 20
-6.27788188976378
 10
-20.13979133858268
 20
-6.290811023622047
 10
-20.14759448818898
 20
-6.30055905511811
 10
-20.15581102362205
 20
-6.309003937007874
 10
-20.16444488188976
 20
-6.316145669291338
 10
-20.17349606299213
 20
-6.321988188976378
 10
-20.18296062992126
 20
-6.326531496062992
 10
-20.19283858267717
 20
-6.329775590551181
 10
-20.20313779527559
 20
-6.331720472440945
 10
-20.21384645669291
 20
-6.332370078740158
 10
-20.22579527559055
 20
-6.331728346456693
 10
-20.23717322834646
 20
-6.329799212598425
 10
-20.24797637795276
 20
-6.326582677165354
 10
-20.25820472440945
 20
-6.322082677165354
 10
-20.26785826771653
 20
-6.316295275590551
 10
-20.27693700787401
 20
-6.309220472440945
 10
-20.28544094488189
 20
-6.300862204724409
 10
-20.29336614173228
 20
-6.291216535433071
 10
-20.29672047244095
 20
-6.286527559055118
 10
-20.29992913385827
 20
-6.281696850393701
 10
-20.30299212598425
 20
-6.276720472440945
 10
-20.3059094488189
 20
-6.27159842519685
 10
-20.3113031496063
 20
-6.260913385826772
 10
-20.3161062992126
 20
-6.249633858267717
 10
-20.32034251968504
 20
-6.237992125984252
 10
-20.32403543307086
 20
-6.226204724409449
 10
-20.32718897637795
 20
-6.214271653543307
 10
-20.3298031496063
 20
-6.202196850393701
 10
-20.33199212598425
 20
-6.190133858267717
 10
-20.33383464566929
 20
-6.178267716535433
 10
-20.33532677165354
 20
-6.166598425196851
 10
-20.33646850393701
 20
-6.155122047244094
 10
-20.33733070866142
 20
-6.143318897637795
 10
-20.33794881889764
 20
-6.13063779527559
 10
-20.33831889763779
 20
-6.117094488188976
 10
-20.33844094488189
 20
-6.102700787401575
 10
-20.33830708661417
 20
-6.095082677165355
 10
-20.33790157480315
 20
-6.08701968503937
 10
-20.33722834645669
 20
-6.078511811023622
 10
-20.33628346456693
 20
-6.06955905511811
 10
-20.33506692913386
 20
-6.06015748031496
 10
-20.33358267716535
 20
-6.050307086614173
 10
-20.33182677165354
 20
-6.040007874015748
 10
-20.3298031496063
 20
-6.029255905511811
 10
-20.32720866141732
 20
-6.017314960629921
 10
-20.32412598425197
 20
-6.005425196850394
 10
-20.32055118110236
 20
-5.993590551181103
 10
-20.31649212598425
 20
-5.981799212598426
 10
-20.31425196850394
 20
-5.975996062992126
 10
-20.31185826771653
 20
-5.970338582677165
 10
-20.3093031496063
 20
-5.964822834645669
 10
-20.3065905511811
 20
-5.959456692913386
 10
-20.30372047244094
 20
-5.954240157480315
 10
-20.30069291338583
 20
-5.949165354330709
 10
-20.29750393700787
 20
-5.944240157480315
 10
-20.29415748031496
 20
-5.939464566929134
 10
-20.29064566929134
 20
-5.934870078740158
 10
-20.28696062992126
 20
-5.930511811023622
 10
-20.28310236220473
 20
-5.926385826771654
 10
-20.27907480314961
 20
-5.922492125984252
 10
-20.27487401574803
 20
-5.918834645669292
 10
-20.2705
 20
-5.915409448818898
 10
-20.26595275590551
 20
-5.912220472440945
 10
-20.26123622047244
 20
-5.909263779527559
 10
-20.25633070866142
 20
-5.906602362204724
 10
-20.25120078740158
 20
-5.904291338582677
 10
-20.24585433070866
 20
-5.902338582677165
 10
-20.2402874015748
 20
-5.900744094488189
 10
-20.2345
 20
-5.8995
 10
-20.22849212598425
 20
-5.898610236220472
 10
-20.22226377952756
 20
-5.89807874015748
 10
-20.2158188976378
 20
-5.89790157480315
 10
-20.20936220472441
 20
-5.898086614173228
 10
-20.20312992125984
 20
-5.89863779527559
 10
-20.19711811023622
 20
-5.899555118110237
 10
-20.19132677165354
 20
-5.90084251968504
 10
-20.18575196850394
 20
-5.902496062992126
 10
-20.18040157480315
 20
-5.904511811023622
 10
-20.17526771653543
 20
-5.906897637795276
 10
-20.17035433070866
 20
-5.909649606299213
  0
LWPOLYLINE
  5
86
330
1F
100
AcDbEntity
  8
Layer 1
 62
     7
370
     9
100
AcDbPolyline
 90
       65
 70
     1
 43
0.0
 10
-20.21307480314961
 20
-6.38805905511811
 10
-20.19018897637795
 20
-6.386606299212598
 10
-20.16876377952756
 20
-6.382251968503937
 10
-20.14879921259843
 20
-6.374992125984252
 10
-20.1302874015748
 20
-6.364826771653544
 10
-20.11323622047244
 20
-6.351755905511811
 10
-20.09764566929134
 20
-6.335783464566929
 10
-20.08351181102362
 20
-6.31690157480315
 10
-20.07083464566929
 20
-6.295118110236221
 10
-20.06192125984252
 20
-6.276114173228346
 10
-20.0541968503937
 20
-6.256055118110236
 10
-20.04766535433071
 20
-6.23494094488189
 10
-20.04231496062992
 20
-6.212775590551181
 10
-20.03815748031496
 20
-6.189555118110237
 10
-20.03518897637795
 20
-6.165275590551181
 10
-20.03340551181102
 20
-6.139948818897638
 10
-20.03281102362205
 20
-6.113562992125984
 10
-20.03340551181102
 20
-6.087177165354331
 10
-20.03518897637795
 20
-6.061846456692914
 10
-20.03815748031496
 20
-6.037570866141732
 10
-20.04231496062992
 20
-6.014346456692913
 10
-20.04766535433071
 20
-5.992181102362204
 10
-20.0541968503937
 20
-5.971066929133858
 10
-20.06192125984252
 20
-5.951007874015748
 10
-20.07083464566929
 20
-5.932003937007874
 10
-20.08351181102362
 20
-5.910224409448819
 10
-20.09764566929134
 20
-5.891350393700788
 10
-20.11323622047244
 20
-5.87538188976378
 10
-20.1302874015748
 20
-5.862314960629921
 10
-20.14879921259843
 20
-5.852149606299212
 10
-20.16876377952756
 20
-5.844889763779528
 10
-20.19018897637795
 20
-5.840535433070866
 10
-20.21307480314961
 20
-5.839082677165354
 10
-20.23594488188976
 20
-5.840535433070866
 10
-20.25735826771654
 20
-5.844889763779528
 10
-20.27731889763779
 20
-5.852149606299212
 10
-20.29582283464567
 20
-5.862314960629921
 10
-20.31287401574803
 20
-5.87538188976378
 10
-20.32846850393701
 20
-5.891350393700788
 10
-20.3426062992126
 20
-5.910224409448819
 10
-20.35529133858268
 20
-5.932003937007874
 10
-20.3641968503937
 20
-5.951007874015748
 10
-20.37191338582677
 20
-5.971066929133858
 10
-20.37844488188976
 20
-5.992181102362204
 10
-20.3837874015748
 20
-6.014346456692913
 10
-20.38794488188976
 20
-6.037570866141732
 10
-20.39091732283465
 20
-6.061846456692914
 10
-20.3926968503937
 20
-6.087177165354331
 10
-20.39329133858268
 20
-6.113562992125984
 10
-20.3926968503937
 20
-6.139948818897638
 10
-20.39091732283465
 20
-6.165275590551181
 10
-20.38794488188976
 20
-6.189555118110237
 10
-20.3837874015748
 20
-6.212775590551181
 10
-20.37844488188976
 20
-6.23494094488189
 10
-20.37191338582677
 20
-6.256055118110236
 10
-20.3641968503937
 20
-6.276114173228346
 10
-20.35529133858268
 20
-6.295118110236221
 10
-20.3426062992126
 20
-6.31690157480315
 10
-20.32846850393701
 20
-6.335783464566929
 10
-20.31287401574803
 20
-6.351755905511811
 10
-20.29582283464567
 20
-6.364826771653544
 10
-20.27731889763779
 20
-6.374992125984252
 10
-20.25735826771654
 20
-6.382251968503937
 10
-20.23594488188976
 20
-6.386606299212598
 10
-20.21307480314961
 20
-6.38805905511811
  0
LWPOLYLINE
  5
87
330
1F
100
AcDbEntity
  8
Layer 1
 62
     7
370
     9
100
AcDbPolyline
 90
      162
 70
     1
 43
0.0
 10
-19.49759842519685
 20
-6.379444881889764
 10
-19.44274803149606
 20
-6.379444881889764
 10
-19.44274803149606
 20
-6.163763779527559
 10
-19.44319291338583
 20
-6.149440944881889
 10
-19.44453543307086
 20
-6.135795275590551
 10
-19.44676771653543
 20
-6.122818897637795
 10
-19.4498937007874
 20
-6.11051968503937
 10
-19.45391338582677
 20
-6.098897637795275
 10
-19.45883070866142
 20
-6.087944881889764
 10
-19.46463779527559
 20
-6.077673228346456
 10
-19.47134251968504
 20
-6.068074803149607
 10
-19.47508661417323
 20
-6.063488188976378
 10
-19.47906299212599
 20
-6.059133858267717
 10
-19.48327165354331
 20
-6.055011811023622
 10
-19.48770866141732
 20
-6.051122047244094
 10
-19.49238188976378
 20
-6.04746062992126
 10
-19.4972874015748
 20
-6.044035433070866
 10
-19.50242913385827
 20
-6.040838582677165
 10
-19.5078031496063
 20
-6.037874015748032
 10
-19.51350787401575
 20
-6.035212598425197
 10
-19.51964960629921
 20
-6.03290157480315
 10
-19.52623622047244
 20
-6.030948818897638
 10
-19.53325984251968
 20
-6.029354330708661
 10
-19.54072834645669
 20
-6.028110236220472
 10
-19.54863779527559
 20
-6.027220472440945
 10
-19.55698818897638
 20
-6.026688976377953
 10
-19.56577952755906
 20
-6.026511811023622
 10
-19.57464960629921
 20
-6.026818897637796
 10
-19.58324015748031
 20
-6.027736220472441
 10
-19.59154724409449
 20
-6.029267716535433
 10
-19.59957480314961
 20
-6.031413385826772
 10
-19.6073188976378
 20
-6.034169291338583
 10
-19.61477952755905
 20
-6.037543307086614
 10
-19.62196062992126
 20
-6.041527559055118
 10
-19.62886220472441
 20
-6.046125984251969
 10
-19.63485039370079
 20
-6.050704724409449
 10
-19.64057086614173
 20
-6.055622047244094
 10
-19.64601968503937
 20
-6.060877952755906
 10
-19.65120472440945
 20
-6.066468503937008
 10
-19.65611417322835
 20
-6.072393700787401
 10
-19.66075590551181
 20
-6.078649606299213
 10
-19.66512204724409
 20
-6.085228346456693
 10
-19.66922047244094
 20
-6.092133858267717
 10
-19.6724094488189
 20
-6.085759842519685
 10
-19.67588976377953
 20
-6.079614173228347
 10
-19.67966535433071
 20
-6.073708661417323
 10
-19.68373228346457
 20
-6.068074803149607
 10
-19.68747244094488
 20
-6.063488188976378
 10
-19.69144094488189
 20
-6.059133858267717
 10
-19.69564566929134
 20
-6.055011811023622
 10
-19.70007874015748
 20
-6.051122047244094
 10
-19.70474803149606
 20
-6.04746062992126
 10
-19.70964960629921
 20
-6.044035433070866
 10
-19.71478346456693
 20
-6.040838582677165
 10
-19.72014960629921
 20
-6.037874015748032
 10
-19.72585433070866
 20
-6.035212598425197
 10
-19.73200393700787
 20
-6.03290157480315
 10
-19.7385905511811
 20
-6.030948818897638
 10
-19.74562204724409
 20
-6.029354330708661
 10
-19.7530905511811
 20
-6.028110236220472
 10
-19.76099606299213
 20
-6.027220472440945
 10
-19.76934251968504
 20
-6.026688976377953
 10
-19.77812992125984
 20
-6.026511811023622
 10
-19.78700393700787
 20
-6.026818897637796
 10
-19.79559448818897
 20
-6.027736220472441
 10
-19.80390551181102
 20
-6.029267716535433
 10
-19.81193307086614
 20
-6.031413385826772
 10
-19.8196811023622
 20
-6.034169291338583
 10
-19.82714566929134
 20
-6.037543307086614
 10
-19.83433070866142
 20
-6.041527559055118
 10
-19.84123228346457
 20
-6.046125984251969
 10
-19.84693307086614
 20
-6.050484251968504
 10
-19.8523937007874
 20
-6.05513779527559
 10
-19.8576062992126
 20
-6.060090551181102
 10
-19.86257874015748
 20
-6.065342519685039
 10
-19.8673031496063
 20
-6.070897637795276
 10
-19.8717874015748
 20
-6.076755905511811
 10
-19.87602755905512
 20
-6.08292125984252
 10
-19.88002755905512
 20
-6.089389763779527
 10
-19.88002755905512
 20
-6.034358267716535
 10
-19.9348779527559
 20
-6.034358267716535
 10
-19.9348779527559
 20
-6.379444881889764
 10
-19.88002755905512
 20
-6.379444881889764
 10
-19.88002755905512
 20
-6.202854330708662
 10
-19.87875196850394
 20
-6.192562992125985
 10
-19.87708661417323
 20
-6.182673228346457
 10
-19.87502755905512
 20
-6.173181102362205
 10
-19.87257874015748
 20
-6.164082677165355
 10
-19.86973622047244
 20
-6.155377952755906
 10
-19.8665
 20
-6.147062992125984
 10
-19.86287007874016
 20
-6.139133858267717
 10
-19.85885039370079
 20
-6.131586614173228
 10
-19.85558661417323
 20
-6.126224409448819
 10
-19.85205118110236
 20
-6.121106299212599
 10
-19.84824015748032
 20
-6.116232283464567
 10
-19.84416535433071
 20
-6.111602362204724
 10
-19.83981496062992
 20
-6.107216535433071
 10
-19.8351968503937
 20
-6.103070866141732
 10
-19.83031102362205
 20
-6.099169291338582
 10
-19.82515748031496
 20
-6.095511811023622
 10
-19.81981889763779
 20
-6.092212598425196
 10
-19.81438188976378
 20
-6.089350393700787
 10
-19.80885039370079
 20
-6.086925196850394
 10
-19.80321653543307
 20
-6.08494094488189
 10
-19.79748818897638
 20
-6.083397637795276
 10
-19.79166141732284
 20
-6.082291338582677
 10
-19.78574015748032
 20
-6.081629921259842
 10
-19.77971653543307
 20
-6.081409448818897
 10
-19.77383464566929
 20
-6.081527559055118
 10
-19.76834251968504
 20
-6.081877952755906
 10
-19.76324803149606
 20
-6.08246062992126
 10
-19.75854330708662
 20
-6.083275590551181
 10
-19.75423228346457
 20
-6.084326771653544
 10
-19.75031496062992
 20
-6.085610236220472
 10
-19.74679133858268
 20
-6.087122047244095
 10
-19.74366141732283
 20
-6.088870078740158
 10
-19.73576377952756
 20
-6.094712598425197
 10
-19.72891732283465
 20
-6.101562992125984
 10
-19.72312598425197
 20
-6.109413385826771
 10
-19.71838976377953
 20
-6.118275590551181
 10
-19.71470472440945
 20
-6.128137795275591
 10
-19.7120748031496
 20
-6.139007874015748
 10
-19.71049606299212
 20
-6.150881889763779
 10
-19.70996850393701
 20
-6.163763779527559
 10
-19.70996850393701
 20
-6.379444881889764
 10
-19.65511811023622
 20
-6.379444881889764
 10
-19.65511811023622
 20
-6.163763779527559
 10
-19.65550393700788
 20
-6.150566929133858
 10
-19.64650393700787
 20
-6.131586614173228
 10
-19.64323228346457
 20
-6.126224409448819
 10
-19.63969291338583
 20
-6.121106299212599
 10
-19.63588188976378
 20
-6.116232283464567
 10
-19.63180708661417
 20
-6.111602362204724
 10
-19.62746062992126
 20
-6.107216535433071
 10
-19.62284645669291
 20
-6.103070866141732
 10
-19.61796062992126
 20
-6.099169291338582
 10
-19.61280708661417
 20
-6.095511811023622
 10
-19.60746850393701
 20
-6.092212598425196
 10
-19.60203543307087
 20
-6.089350393700787
 10
-19.5965
 20
-6.086925196850394
 10
-19.59087007874016
 20
-6.08494094488189
 10
-19.58513779527559
 20
-6.083397637795276
 10
-19.57930708661417
 20
-6.082291338582677
 10
-19.57337795275591
 20
-6.081629921259842
 10
-19.56734645669291
 20
-6.081409448818897
 10
-19.56146850393701
 20
-6.081527559055118
 10
-19.5559842519685
 20
-6.081877952755906
 10
-19.55088976377953
 20
-6.08246062992126
 10
-19.54618897637795
 20
-6.083275590551181
 10
-19.5418779527559
 20
-6.084326771653544
 10
-19.53795669291339
 20
-6.085610236220472
 10
-19.53442913385827
 20
-6.087122047244095
 10
-19.53129133858268
 20
-6.088870078740158
 10
-19.52339763779528
 20
-6.094712598425197
 10
-19.51655905511811
 20
-6.101562992125984
 10
-19.51076771653543
 20
-6.109413385826771
 10
-19.50602755905512
 20
-6.118275590551181
 10
-19.50234251968504
 20
-6.128137795275591
 10
-19.49970472440945
 20
-6.139007874015748
 10
-19.49812598425197
 20
-6.150881889763779
 10
-19.49759842519685
 20
-6.163763779527559
 10
-19.49759842519685
 20
-6.379444881889764
  0
LWPOLYLINE
  5
88
330
1F
100
AcDbEntity
  8
Layer 1
 62
     7
370
     9
100
AcDbPolyline
 90
      162
 70
     1
 43
0.0
 10
-18.89968897637795
 20
-6.379444881889764
 10
-18.84486220472441
 20
-6.379444881889764
 10
-18.84486220472441
 20
-6.163763779527559
 10
-18.84530708661417
 20
-6.149440944881889
 10
-18.84664960629921
 20
-6.135795275590551
 10
-18.84888188976378
 20
-6.122818897637795
 10
-18.85200787401575
 20
-6.11051968503937
 10
-18.85602755905512
 20
-6.098897637795275
 10
-18.86094488188976
 20
-6.087944881889764
 10
-18.86675196850394
 20
-6.077673228346456
 10
-18.87345669291339
 20
-6.068074803149607
 10
-18.87720078740157
 20
-6.063488188976378
 10
-18.88117322834646
 20
-6.059133858267717
 10
-18.88537795275591
 20
-6.055011811023622
 10
-18.88981102362205
 20
-6.051122047244094
 10
-18.89448031496063
 20
-6.04746062992126
 10
-18.89938188976378
 20
-6.044035433070866
 10
-18.90451968503937
 20
-6.040838582677165
 10
-18.9098937007874
 20
-6.037874015748032
 10
-18.91559842519685
 20
-6.035212598425197
 10
-18.92174409448819
 20
-6.03290157480315
 10
-18.92833070866142
 20
-6.030948818897638
 10
-18.93535433070866
 20
-6.029354330708661
 10
-18.94282283464567
 20
-6.028110236220472
 10
-18.95073228346457
 20
-6.027220472440945
 10
-18.95908267716536
 20
-6.026688976377953
 10
-18.96787401574803
 20
-6.026511811023622
 10
-18.97674409448819
 20
-6.026818897637796
 10
-18.98533464566929
 20
-6.027736220472441
 10
-18.99364173228346
 20
-6.029267716535433
 10
-19.00166535433071
 20
-6.031413385826772
 10
-19.0094094488189
 20
-6.034169291338583
 10
-19.01687007874016
 20
-6.037543307086614
 10
-19.02405118110236
 20
-6.041527559055118
 10
-19.03095275590551
 20
-6.046125984251969
 10
-19.03694094488189
 20
-6.050704724409449
 10
-19.04266141732283
 20
-6.055622047244094
 10
-19.04811417322835
 20
-6.060877952755906
 10
-19.05329527559055
 20
-6.066468503937008
 10
-19.05820472440945
 20
-6.072393700787401
 10
-19.06284645669291
 20
-6.078649606299213
 10
-19.06721653543307
 20
-6.085228346456693
 10
-19.07131496062992
 20
-6.092133858267717
 10
-19.07450393700788
 20
-6.085759842519685
 10
-19.07798425196851
 20
-6.079614173228347
 10
-19.08175590551181
 20
-6.073708661417323
 10
-19.08582677165354
 20
-6.068074803149607
 10
-19.08956692913386
 20
-6.063488188976378
 10
-19.09353937007874
 20
-6.059133858267717
 10
-19.09774409448819
 20
-6.055011811023622
 10
-19.10218110236221
 20
-6.051122047244094
 10
-19.10685433070866
 20
-6.04746062992126
 10
-19.11175984251969
 20
-6.044035433070866
 10
-19.1168937007874
 20
-6.040838582677165
 10
-19.12226377952756
 20
-6.037874015748032
 10
-19.12796850393701
 20
-6.035212598425197
 10
-19.13411417322835
 20
-6.03290157480315
 10
-19.1406968503937
 20
-6.030948818897638
 10
-19.14772440944882
 20
-6.029354330708661
 10
-19.15518897637795
 20
-6.028110236220472
 10
-19.1630905511811
 20
-6.027220472440945
 10
-19.17143700787402
 20
-6.026688976377953
 10
-19.18022047244094
 20
-6.026511811023622
 10
-19.18909448818898
 20
-6.026818897637796
 10
-19.19768503937008
 20
-6.027736220472441
 10
-19.20599606299212
 20
-6.029267716535433
 10
-19.21402755905512
 20
-6.031413385826772
 10
-19.22177559055118
 20
-6.034169291338583
 10
-19.22924015748032
 20
-6.037543307086614
 10
-19.23642125984252
 20
-6.041527559055118
 10
-19.24332283464567
 20
-6.046125984251969
 10
-19.24902755905512
 20
-6.050484251968504
 10
-19.2544842519685
 20
-6.05513779527559
 10
-19.25970078740157
 20
-6.060090551181102
 10
-19.26466929133858
 20
-6.065342519685039
 10
-19.26939763779528
 20
-6.070897637795276
 10
-19.27388188976378
 20
-6.076755905511811
 10
-19.27812204724409
 20
-6.08292125984252
 10
-19.28212204724409
 20
-6.089389763779527
 10
-19.28212204724409
 20
-6.034358267716535
 10
-19.33697244094488
 20
-6.034358267716535
 10
-19.33697244094488
 20
-6.379444881889764
 10
-19.28212204724409
 20
-6.379444881889764
 10
-19.28212204724409
 20
-6.202854330708662
 10
-19.28084645669291
 20
-6.192562992125985
 10
-19.27917716535433
 20
-6.182673228346457
 10
-19.27711811023622
 20
-6.173181102362205
 10
-19.27466929133858
 20
-6.164082677165355
 10
-19.27182677165354
 20
-6.155377952755906
 10
-19.2685905511811
 20
-6.147062992125984
 10
-19.26496062992126
 20
-6.139133858267717
 10
-19.26094094488189
 20
-6.131586614173228
 10
-19.25767716535433
 20
-6.126224409448819
 10
-19.25414173228346
 20
-6.121106299212599
 10
-19.25033070866142
 20
-6.116232283464567
 10
-19.24625590551181
 20
-6.111602362204724
 10
-19.24190551181102
 20
-6.107216535433071
 10
-19.2372874015748
 20
-6.103070866141732
 10
-19.23240157480315
 20
-6.099169291338582
 10
-19.22724803149606
 20
-6.095511811023622
 10
-19.2219094488189
 20
-6.092212598425196
 10
-19.21647637795276
 20
-6.089350393700787
 10
-19.21094094488189
 20
-6.086925196850394
 10
-19.20531102362205
 20
-6.08494094488189
 10
-19.19958267716535
 20
-6.083397637795276
 10
-19.19375196850394
 20
-6.082291338582677
 10
-19.18783070866142
 20
-6.081629921259842
 10
-19.18180708661417
 20
-6.081409448818897
 10
-19.17592519685039
 20
-6.081527559055118
 10
-19.17043700787401
 20
-6.081877952755906
 10
-19.16534645669291
 20
-6.08246062992126
 10
-19.16064566929134
 20
-6.083275590551181
 10
-19.15634251968504
 20
-6.084326771653544
 10
-19.15242913385827
 20
-6.085610236220472
 10
-19.1489094488189
 20
-6.087122047244095
 10
-19.14577952755905
 20
-6.088870078740158
 10
-19.1378779527559
 20
-6.094712598425197
 10
-19.13103543307087
 20
-6.101562992125984
 10
-19.12524015748032
 20
-6.109413385826771
 10
-19.12050393700788
 20
-6.118275590551181
 10
-19.1168188976378
 20
-6.128137795275591
 10
-19.11418897637795
 20
-6.139007874015748
 10
-19.11261023622047
 20
-6.150881889763779
 10
-19.11208267716535
 20
-6.163763779527559
 10
-19.11208267716535
 20
-6.379444881889764
 10
-19.05720866141732
 20
-6.379444881889764
 10
-19.05720866141732
 20
-6.163763779527559
 10
-19.05759448818898
 20
-6.150566929133858
 10
-19.04859448818898
 20
-6.131586614173228
 10
-19.04532283464567
 20
-6.126224409448819
 10
-19.04178346456693
 20
-6.121106299212599
 10
-19.03797637795276
 20
-6.116232283464567
 10
-19.03389763779527
 20
-6.111602362204724
 10
-19.02955511811023
 20
-6.107216535433071
 10
-19.02494094488189
 20
-6.103070866141732
 10
-19.02005511811024
 20
-6.099169291338582
 10
-19.01490157480315
 20
-6.095511811023622
 10
-19.00956299212599
 20
-6.092212598425196
 10
-19.00412598425197
 20
-6.089350393700787
 10
-18.9985905511811
 20
-6.086925196850394
 10
-18.99296062992126
 20
-6.08494094488189
 10
-18.98722834645669
 20
-6.083397637795276
 10
-18.98139763779528
 20
-6.082291338582677
 10
-18.97546850393701
 20
-6.081629921259842
 10
-18.96943700787402
 20
-6.081409448818897
 10
-18.96356299212598
 20
-6.081527559055118
 10
-18.95807874015748
 20
-6.081877952755906
 10
-18.95298425196851
 20
-6.08246062992126
 10
-18.94828346456693
 20
-6.083275590551181
 10
-18.94397244094488
 20
-6.084326771653544
 10
-18.94005118110236
 20
-6.085610236220472
 10
-18.93652362204724
 20
-6.087122047244095
 10
-18.93338582677166
 20
-6.088870078740158
 10
-18.92549212598425
 20
-6.094712598425197
 10
-18.91864960629921
 20
-6.101562992125984
 10
-18.91285826771654
 20
-6.109413385826771
 10
-18.90811811023622
 20
-6.118275590551181
 10
-18.90443307086614
 20
-6.128137795275591
 10
-18.90179921259843
 20
-6.139007874015748
 10
-18.90021653543307
 20
-6.150881889763779
 10
-18.89968897637795
 20
-6.163763779527559
 10
-18.89968897637795
 20
-6.379444881889764
  0
ENDSEC
  0
SECTION
  2
OBJECTS
  0
DICTIONARY
  5
C
330
0
100
AcDbDictionary
281
     1
  3
ACAD_DETAILVIEWSTYLE
350
90
  3
ACAD_GROUP
350
D
  3
ACAD_LAYOUT
350
1A
  3
ACAD_MATERIAL
350
43
  3
ACAD_MLEADERSTYLE
350
5B
  3
ACAD_MLINESTYLE
350
17
  3
ACAD_PLOTSETTINGS
350
19
  3
ACAD_PLOTSTYLENAME
350
E
  3
ACAD_SCALELIST
350
47
  3
ACAD_SECTIONVIEWSTYLE
350
91
  3
ACAD_TABLESTYLE
350
59
  3
ACAD_VISUALSTYLE
350
2A
  3
ACDB_RECOMPOSE_DATA
350
8D
  3
AcDbVariableDictionary
350
89
  0
SUN
  5
5D
330
29
100
AcDbSun
 90
        1
290
     0
 63
     7
421
 16777215
 40
1.0
291
     1
 91
  2455826
 92
 54000000
292
     0
 70
     2
 71
   256
280
     1
  0
DICTIONARY
  5
90
102
{ACAD_REACTORS
330
C
102
}
330
C
100
AcDbDictionary
281
     1
  0
DICTIONARY
  5
D
102
{ACAD_REACTORS
330
C
102
}
330
C
100
AcDbDictionary
281
     1
  0
DICTIONARY
  5
1A
102
{ACAD_REACTORS
330
C
102
}
330
C
100
AcDbDictionary
281
     1
  3
Layout1
350
1E
  3
Layout2
350
26
  3
Model
350
22
  0
DICTIONARY
  5
43
102
{ACAD_REACTORS
330
C
102
}
330
C
100
AcDbDictionary
281
     1
  3
ByBlock
350
45
  3
ByLayer
350
44
  3
Global
350
46
  0
DICTIONARY
  5
5B
102
{ACAD_REACTORS
330
C
102
}
330
C
100
AcDbDictionary
281
     1
  3
Standard
350
5C
  0
DICTIONARY
  5
17
102
{ACAD_REACTORS
330
C
102
}
330
C
100
AcDbDictionary
281
     1
  3
Standard
350
18
  0
DICTIONARY
  5
19
102
{ACAD_REACTORS
330
C
102
}
330
C
100
AcDbDictionary
281
     1
  0
ACDBDICTIONARYWDFLT
  5
E
102
{ACAD_REACTORS
330
C
102
}
330
C
100
AcDbDictionary
281
     1
  3
Normal
350
F
100
AcDbDictionaryWithDefault
340
F
  0
DICTIONARY
  5
47
102
{ACAD_REACTORS
330
C
102
}
330
C
100
AcDbDictionary
281
     1
  3
A0
350
48
  3
A1
350
49
  3
A2
350
4A
  3
A3
350
4B
  3
A4
350
4C
  3
A5
350
4D
  3
A6
350
4E
  3
A7
350
4F
  3
A8
350
50
  3
A9
350
51
  3
B1
350
52
  3
B2
350
53
  3
B3
350
54
  3
B4
350
55
  3
B5
350
56
  3
B6
350
57
  3
B7
350
58
  0
DICTIONARY
  5
91
102
{ACAD_REACTORS
330
C
102
}
330
C
100
AcDbDictionary
281
     1
  0
DICTIONARY
  5
59
102
{ACAD_REACTORS
330
C
102
}
330
C
100
AcDbDictionary
281
     1
  3
Standard
350
5A
  0
DICTIONARY
  5
2A
102
{ACAD_REACTORS
330
C
102
}
330
C
100
AcDbDictionary
281
     1
  3
2dWireframe
350
2F
  3
Basic
350
32
  3
Brighten
350
36
  3
ColorChange
350
3A
  3
Conceptual
350
34
  3
Dim
350
35
  3
EdgeColorOff
350
3D
  3
Facepattern
350
39
  3
Flat
350
2B
  3
FlatWithEdges
350
2C
  3
Gouraud
350
2D
  3
GouraudWithEdges
350
2E
  3
Hidden
350
31
  3
JitterOff
350
3B
  3
Linepattern
350
38
  3
OverhangOff
350
3C
  3
Realistic
350
33
  3
Shaded
350
42
  3
Shaded with edges
350
41
  3
Shades of Gray
350
3E
  3
Sketchy
350
3F
  3
Thicken
350
37
  3
Wireframe
350
30
  3
X-Ray
350
40
  0
XRECORD
  5
8D
102
{ACAD_REACTORS
330
C
102
}
330
C
100
AcDbXrecord
280
     1
 90
        1
330
5A
  0
DICTIONARY
  5
89
102
{ACAD_REACTORS
330
C
102
}
330
C
100
AcDbDictionary
281
     1
  3
CANNOSCALE
350
8A
  3
CMLEADERSTYLE
350
8F
  3
CTABLESTYLE
350
8E
  0
LAYOUT
  5
1E
102
{ACAD_REACTORS
330
1A
102
}
330
1A
100
AcDbPlotSettings
  1

  2
none_device
  4

  6

 40
0.0
 41
0.0
 42
0.0
 43
0.0
 44
0.0
 45
0.0
 46
0.0
 47
0.0
 48
0.0
 49
0.0
140
0.0
141
0.0
142
1.0
143
1.0
 70
   688
 72
     0
 73
     0
 74
     5
  7

 75
    16
 76
     0
 77
     2
 78
   300
147
1.0
148
0.0
149
0.0
100
AcDbLayout
  1
Layout1
 70
     1
 71
     1
 10
0.0
 20
0.0
 11
12.0
 21
9.0
 12
0.0
 22
0.0
 32
0.0
 14
1.000000000000000E+20
 24
1.000000000000000E+20
 34
1.000000000000000E+20
 15
-1.000000000000000E+20
 25
-1.000000000000000E+20
 35
-1.000000000000000E+20
146
0.0
 13
0.0
 23
0.0
 33
0.0
 16
1.0
 26
0.0
 36
0.0
 17
0.0
 27
1.0
 37
0.0
 76
     0
330
1B
  0
LAYOUT
  5
26
102
{ACAD_REACTORS
330
1A
102
}
330
1A
100
AcDbPlotSettings
  1

  2
none_device
  4

  6

 40
0.0
 41
0.0
 42
0.0
 43
0.0
 44
0.0
 45
0.0
 46
0.0
 47
0.0
 48
0.0
 49
0.0
140
0.0
141
0.0
142
1.0
143
1.0
 70
   688
 72
     0
 73
     0
 74
     5
  7

 75
    16
 76
     0
 77
     2
 78
   300
147
1.0
148
0.0
149
0.0
100
AcDbLayout
  1
Layout2
 70
     1
 71
     2
 10
0.0
 20
0.0
 11
0.0
 21
0.0
 12
0.0
 22
0.0
 32
0.0
 14
0.0
 24
0.0
 34
0.0
 15
0.0
 25
0.0
 35
0.0
146
0.0
 13
0.0
 23
0.0
 33
0.0
 16
1.0
 26
0.0
 36
0.0
 17
0.0
 27
1.0
 37
0.0
 76
     0
330
23
  0
LAYOUT
  5
22
102
{ACAD_REACTORS
330
1A
102
}
330
1A
100
AcDbPlotSettings
  1

  2
none_device
  4
Letter_(8.50_x_11.00_Inches)
  6

 40
6.35
 41
6.35
 42
6.35000508
 43
6.35000508
 44
215.9
 45
279.4
 46
0.0
 47
0.0
 48
0.0
 49
0.0
140
0.0
141
0.0
142
1.0
143
1.0
 70
  1712
 72
     0
 73
     0
 74
     0
  7

 75
     0
 76
     0
 77
     2
 78
   300
147
1.0
148
0.0
149
0.0
100
AcDbLayout
  1
Model
 70
     1
 71
     0
 10
0.0
 20
0.0
 11
12.0
 21
9.0
 12
0.0
 22
0.0
 32
0.0
 14
-29.43916141732284
 24
-7.71355905511811
 34
0.0
 15
-17.74029921259843
 25
14.83635826771654
 35
0.0
146
0.0
 13
0.0
 23
0.0
 33
0.0
 16
1.0
 26
0.0
 36
0.0
 17
0.0
 27
1.0
 37
0.0
 76
     0
330
1F
331
29
  0
MATERIAL
  5
45
102
{ACAD_REACTORS
330
43
102
}
330
43
100
AcDbMaterial
  1
ByBlock
 72
     1
 94
      127
  0
MATERIAL
  5
44
102
{ACAD_REACTORS
330
43
102
}
330
43
100
AcDbMaterial
  1
ByLayer
 72
     1
 94
      127
  0
MATERIAL
  5
46
102
{ACAD_REACTORS
330
43
102
}
330
43
100
AcDbMaterial
  1
Global
 72
     1
 94
      127
  0
MLEADERSTYLE
  5
5C
102
{ACAD_REACTORS
330
5B
102
}
330
5B
100
AcDbMLeaderStyle
179
     2
170
     2
171
     1
172
     0
 90
        2
 40
0.0
 41
0.0
173
     1
 91
-1056964608
340
14
 92
       -2
290
     1
 42
0.09
291
     1
 43
0.36
  3
Standard
341
0
 44
0.18
300

342
11
174
     1
178
     6
175
     1
176
     0
 93
-1056964608
 45
0.18
292
     0
297
     0
 46
0.18
343
0
 94
-1056964608
 47
1.0
 49
1.0
140
1.0
293
     1
141
0.0
294
     1
177
     0
142
1.0
295
     0
296
     0
143
0.125
271
     0
272
     9
273
     9
298
     0
  0
MLINESTYLE
  5
18
102
{ACAD_REACTORS
330
17
102
}
330
17
100
AcDbMlineStyle
  2
Standard
 70
     0
  3

 62
   256
 51
90.0
 52
90.0
 71
     2
 49
0.5
 62
   256
  6
BYLAYER
 49
-0.5
 62
   256
  6
BYLAYER
  0
ACDBPLACEHOLDER
  5
F
102
{ACAD_REACTORS
330
E
102
}
330
E
  0
SCALE
  5
48
102
{ACAD_REACTORS
330
47
102
}
330
47
100
AcDbScale
 70
     0
300
1:1
140
1.0
141
1.0
290
     1
  0
SCALE
  5
49
102
{ACAD_REACTORS
330
47
102
}
330
47
100
AcDbScale
 70
     0
300
1/128" = 1'-0"
140
0.0078125
141
12.0
290
     0
  0
SCALE
  5
4A
102
{ACAD_REACTORS
330
47
102
}
330
47
100
AcDbScale
 70
     0
300
1/64" = 1'-0"
140
0.015625
141
12.0
290
     0
  0
SCALE
  5
4B
102
{ACAD_REACTORS
330
47
102
}
330
47
100
AcDbScale
 70
     0
300
1/32" = 1'-0"
140
0.03125
141
12.0
290
     0
  0
SCALE
  5
4C
102
{ACAD_REACTORS
330
47
102
}
330
47
100
AcDbScale
 70
     0
300
1/16" = 1'-0"
140
0.0625
141
12.0
290
     0
  0
SCALE
  5
4D
102
{ACAD_REACTORS
330
47
102
}
330
47
100
AcDbScale
 70
     0
300
3/32" = 1'-0"
140
0.09375
141
12.0
290
     0
  0
SCALE
  5
4E
102
{ACAD_REACTORS
330
47
102
}
330
47
100
AcDbScale
 70
     0
300
1/8" = 1'-0"
140
0.125
141
12.0
290
     0
  0
SCALE
  5
4F
102
{ACAD_REACTORS
330
47
102
}
330
47
100
AcDbScale
 70
     0
300
3/16" = 1'-0"
140
0.1875
141
12.0
290
     0
  0
SCALE
  5
50
102
{ACAD_REACTORS
330
47
102
}
330
47
100
AcDbScale
 70
     0
300
1/4" = 1'-0"
140
0.25
141
12.0
290
     0
  0
SCALE
  5
51
102
{ACAD_REACTORS
330
47
102
}
330
47
100
AcDbScale
 70
     0
300
3/8" = 1'-0"
140
0.375
141
12.0
290
     0
  0
SCALE
  5
52
102
{ACAD_REACTORS
330
47
102
}
330
47
100
AcDbScale
 70
     0
300
1/2" = 1'-0"
140
0.5
141
12.0
290
     0
  0
SCALE
  5
53
102
{ACAD_REACTORS
330
47
102
}
330
47
100
AcDbScale
 70
     0
300
3/4" = 1'-0"
140
0.75
141
12.0
290
     0
  0
SCALE
  5
54
102
{ACAD_REACTORS
330
47
102
}
330
47
100
AcDbScale
 70
     0
300
1" = 1'-0"
140
1.0
141
12.0
290
     0
  0
SCALE
  5
55
102
{ACAD_REACTORS
330
47
102
}
330
47
100
AcDbScale
 70
     0
300
1-1/2" = 1'-0"
140
1.5
141
12.0
290
     0
  0
SCALE
  5
56
102
{ACAD_REACTORS
330
47
102
}
330
47
100
AcDbScale
 70
     0
300
3" = 1'-0"
140
3.0
141
12.0
290
     0
  0
SCALE
  5
57
102
{ACAD_REACTORS
330
47
102
}
330
47
100
AcDbScale
 70
     0
300
6" = 1'-0"
140
6.0
141
12.0
290
     0
  0
SCALE
  5
58
102
{ACAD_REACTORS
330
47
102
}
330
47
100
AcDbScale
 70
     0
300
1'-0" = 1'-0"
140
12.0
141
12.0
290
     0
  0
TABLESTYLE
  5
5A
102
{ACAD_REACTORS
330
59
102
}
102
{ACAD_XDICTIONARY
360
8B
102
}
330
59
100
AcDbTableStyle
  3
Standard
 70
     0
 71
     0
 40
0.06
 41
0.06
280
     0
281
     0
  7
Standard
140
0.18
170
     2
 62
     0
 63
   257
283
     0
 90
        4
 91
        0
  1

274
    -2
284
     1
 64
     0
275
    -2
285
     1
 65
     0
276
    -2
286
     1
 66
     0
277
    -2
287
     1
 67
     0
278
    -2
288
     1
 68
     0
279
    -2
289
     1
 69
     0
  7
Standard
140
0.25
170
     5
 62
     0
 63
   257
283
     0
 90
        4
 91
        0
  1

274
    -2
284
     1
 64
     0
275
    -2
285
     1
 65
     0
276
    -2
286
     1
 66
     0
277
    -2
287
     1
 67
     0
278
    -2
288
     1
 68
     0
279
    -2
289
     1
 69
     0
  7
Standard
140
0.18
170
     5
 62
     0
 63
   257
283
     0
 90
        4
 91
        0
  1

274
    -2
284
     1
 64
     0
275
    -2
285
     1
 65
     0
276
    -2
286
     1
 66
     0
277
    -2
287
     1
 67
     0
278
    -2
288
     1
 68
     0
279
    -2
289
     1
 69
     0
  0
VISUALSTYLE
  5
2F
102
{ACAD_REACTORS
330
2A
102
}
330
2A
100
AcDbVisualStyle
  2
2dWireframe
 70
     4
177
     3
291
     0
 70
    58
 90
        0
176
     1
 90
        2
176
     1
 90
        0
176
     1
 90
        0
176
     1
 40
0.6
176
     1
 40
30.0
176
     1
 62
     7
420
 16777215
176
     1
 90
        1
176
     1
 90
        4
176
     1
 62
     7
176
     1
 62
   257
176
     1
 90
        1
176
     1
 90
        1
176
     1
 40
1.0
176
     1
 90
        0
176
     1
 62
   257
176
     1
 40
1.0
176
     1
 90
        1
176
     1
 90
        6
176
     1
 90
        2
176
     1
 62
     7
176
     1
 90
        5
176
     1
 90
        0
176
     1
 90
        0
176
     1
290
     0
176
     1
 90
        1
176
     1
 40
0.0
176
     1
 90
        0
176
     1
290
     1
176
     1
290
     1
176
     1
290
     0
176
     1
290
     0
176
     1
290
     0
176
     1
290
     0
176
     1
290
     0
176
     1
290
     0
176
     1
290
     0
176
     1
 90
       50
176
     1
 40
0.0
176
     1
 40
1.0
176
     1
 90
        0
176
     1
 62
    18
420
        0
176
     1
 90
       50
176
     1
 90
        3
176
     1
 62
     5
420
      255
176
     1
290
     0
176
     1
 90
       50
176
     1
 90
       50
176
     1
 90
       50
176
     1
290
     0
176
     1
 90
       50
176
     1
 62
   256
176
     0
 40
1.0
176
     0
 90
        2
176
     1
  1
strokes_ogs.tif
176
     1
290
     0
176
     1
 40
1.0
176
     1
 40
1.0
176
     1
  0
VISUALSTYLE
  5
32
102
{ACAD_REACTORS
330
2A
102
}
330
2A
100
AcDbVisualStyle
  2
Basic
 70
     7
177
     3
291
     1
 70
    58
 90
        1
176
     1
 90
        0
176
     1
 90
        1
176
     1
 90
        0
176
     1
 40
0.6
176
     1
 40
30.0
176
     1
 62
     7
420
 16777215
176
     1
 90
        0
176
     1
 90
        4
176
     1
 62
     7
176
     1
 62
   257
176
     1
 90
        1
176
     1
 90
        1
176
     1
 40
1.0
176
     1
 90
        8
176
     1
 62
     7
176
     1
 40
1.0
176
     1
 90
        1
176
     1
 90
        6
176
     1
 90
        2
176
     1
 62
     7
176
     1
 90
        5
176
     1
 90
        0
176
     1
 90
        0
176
     1
290
     0
176
     1
 90
        1
176
     1
 40
0.0
176
     1
 90
        0
176
     1
290
     0
176
     1
290
     1
176
     1
290
     1
176
     1
290
     0
176
     1
290
     0
176
     1
290
     0
176
     1
290
     0
176
     1
290
     0
176
     1
290
     0
176
     1
 90
       50
176
     1
 40
0.0
176
     1
 40
1.0
176
     1
 90
        0
176
     1
 62
    18
420
        0
176
     1
 90
       50
176
     1
 90
        3
176
     1
 62
     5
420
      255
176
     1
290
     0
176
     1
 90
       50
176
     1
 90
       50
176
     1
 90
       50
176
     1
290
     0
176
     1
 90
       50
176
     1
 62
   256
176
     0
 40
1.0
176
     0
 90
        2
176
     1
  1
strokes_ogs.tif
176
     1
290
     0
176
     1
 40
1.0
176
     1
 40
1.0
176
     1
  0
VISUALSTYLE
  5
36
102
{ACAD_REACTORS
330
2A
102
}
330
2A
100
AcDbVisualStyle
  2
Brighten
 70
    12
177
     3
291
     1
 70
    58
 90
        2
176
     1
 90
        2
176
     1
 90
        0
176
     1
 90
        0
176
     1
 40
0.6
176
     1
 40
30.0
176
     1
 62
     7
420
 16777215
176
     1
 90
        1
176
     1
 90
        4
176
     1
 62
     7
176
     1
 62
   257
176
     1
 90
        1
176
     1
 90
        1
176
     1
 40
1.0
176
     1
 90
        8
176
     1
 62
     7
176
     1
 40
1.0
176
     1
 90
        1
176
     1
 90
        6
176
     1
 90
        2
176
     1
 62
     7
176
     1
 90
        5
176
     1
 90
        0
176
     1
 90
        0
176
     1
290
     0
176
     1
 90
        1
176
     1
 40
50.0
176
     1
 90
        0
176
     1
290
     0
176
     1
290
     1
176
     1
290
     1
176
     1
290
     0
176
     1
290
     0
176
     1
290
     0
176
     1
290
     0
176
     1
290
     0
176
     1
290
     0
176
     1
 90
       50
176
     1
 40
0.0
176
     1
 40
1.0
176
     1
 90
        0
176
     1
 62
    18
420
        0
176
     1
 90
       50
176
     1
 90
        3
176
     1
 62
     5
420
      255
176
     1
290
     0
176
     1
 90
       50
176
     1
 90
       50
176
     1
 90
       50
176
     1
290
     0
176
     1
 90
       50
176
     1
 62
   256
176
     0
 40
1.0
176
     0
 90
        2
176
     1
  1
strokes_ogs.tif
176
     1
290
     0
176
     1
 40
1.0
176
     1
 40
1.0
176
     1
  0
VISUALSTYLE
  5
3A
102
{ACAD_REACTORS
330
2A
102
}
330
2A
100
AcDbVisualStyle
  2
ColorChange
 70
    16
177
     3
291
     1
 70
    58
 90
        2
176
     1
 90
        2
176
     1
 90
        3
176
     1
 90
        0
176
     1
 40
0.6
176
     1
 40
30.0
176
     1
 62
     8
420
  8421504
176
     1
 90
        1
176
     1
 90
        4
176
     1
 62
     7
176
     1
 62
   257
176
     1
 90
        1
176
     1
 90
        1
176
     1
 40
1.0
176
     1
 90
        8
176
     1
 62
     8
420
  8421504
176
     1
 40
1.0
176
     1
 90
        1
176
     1
 90
        6
176
     1
 90
        2
176
     1
 62
     7
176
     1
 90
        5
176
     1
 90
        0
176
     1
 90
        0
176
     1
290
     0
176
     1
 90
        1
176
     1
 40
0.0
176
     1
 90
        0
176
     1
290
     0
176
     1
290
     1
176
     1
290
     1
176
     1
290
     0
176
     1
290
     0
176
     1
290
     0
176
     1
290
     0
176
     1
290
     0
176
     1
290
     0
176
     1
 90
       50
176
     1
 40
0.0
176
     1
 40
1.0
176
     1
 90
        0
176
     1
 62
    18
420
        0
176
     1
 90
       50
176
     1
 90
        3
176
     1
 62
     5
420
      255
176
     1
290
     0
176
     1
 90
       50
176
     1
 90
       50
176
     1
 90
       50
176
     1
290
     0
176
     1
 90
       50
176
     1
 62
   256
176
     0
 40
1.0
176
     0
 90
        2
176
     1
  1
strokes_ogs.tif
176
     1
290
     0
176
     1
 40
1.0
176
     1
 40
1.0
176
     1
  0
VISUALSTYLE
  5
34
102
{ACAD_REACTORS
330
2A
102
}
330
2A
100
AcDbVisualStyle
  2
Conceptual
 70
     9
177
     3
291
     0
 70
    58
 90
        3
176
     1
 90
        2
176
     1
 90
        0
176
     1
 90
        0
176
     1
 40
0.6
176
     1
 40
30.0
176
     1
 62
     7
420
 16777215
176
     1
 90
        2
176
     1
 90
        2
176
     1
 62
     7
176
     1
 62
   257
176
     1
 90
        1
176
     1
 90
        1
176
     1
 40
179.0
176
     1
 90
        8
176
     1
 62
     7
176
     1
 40
1.0
176
     1
 90
        1
176
     1
 90
        6
176
     1
 90
        2
176
     1
 62
     7
176
     1
 90
        3
176
     1
 90
        0
176
     1
 90
        0
176
     1
290
     0
176
     1
 90
        1
176
     1
 40
0.0
176
     1
 90
        0
176
     1
290
     0
176
     1
290
     1
176
     1
290
     1
176
     1
290
     0
176
     1
290
     0
176
     1
290
     0
176
     1
290
     0
176
     1
290
     0
176
     1
290
     0
176
     1
 90
       50
176
     1
 40
0.0
176
     1
 40
1.0
176
     1
 90
        0
176
     1
 62
    18
420
        0
176
     1
 90
       50
176
     1
 90
        3
176
     1
 62
     5
420
      255
176
     1
290
     0
176
     1
 90
       50
176
     1
 90
       50
176
     1
 90
       50
176
     1
290
     0
176
     1
 90
       50
176
     1
 62
   256
176
     0
 40
1.0
176
     0
 90
        2
176
     1
  1
strokes_ogs.tif
176
     1
290
     0
176
     1
 40
1.0
176
     1
 40
1.0
176
     1
  0
VISUALSTYLE
  5
35
102
{ACAD_REACTORS
330
2A
102
}
330
2A
100
AcDbVisualStyle
  2
Dim
 70
    11
177
     3
291
     1
 70
    58
 90
        2
176
     1
 90
        2
176
     1
 90
        0
176
     1
 90
        0
176
     1
 40
0.6
176
     1
 40
30.0
176
     1
 62
     7
420
 16777215
176
     1
 90
        1
176
     1
 90
        4
176
     1
 62
     7
176
     1
 62
   257
176
     1
 90
        1
176
     1
 90
        1
176
     1
 40
1.0
176
     1
 90
        8
176
     1
 62
     7
176
     1
 40
1.0
176
     1
 90
        1
176
     1
 90
        6
176
     1
 90
        2
176
     1
 62
     7
176
     1
 90
        5
176
     1
 90
        0
176
     1
 90
        0
176
     1
290
     0
176
     1
 90
        1
176
     1
 40
-50.0
176
     1
 90
        0
176
     1
290
     0
176
     1
290
     1
176
     1
290
     1
176
     1
290
     0
176
     1
290
     0
176
     1
290
     0
176
     1
290
     0
176
     1
290
     0
176
     1
290
     0
176
     1
 90
       50
176
     1
 40
0.0
176
     1
 40
1.0
176
     1
 90
        0
176
     1
 62
    18
420
        0
176
     1
 90
       50
176
     1
 90
        3
176
     1
 62
     5
420
      255
176
     1
290
     0
176
     1
 90
       50
176
     1
 90
       50
176
     1
 90
       50
176
     1
290
     0
176
     1
 90
       50
176
     1
 62
   256
176
     0
 40
1.0
176
     0
 90
        2
176
     1
  1
strokes_ogs.tif
176
     1
290
     0
176
     1
 40
1.0
176
     1
 40
1.0
176
     1
  0
VISUALSTYLE
  5
3D
102
{ACAD_REACTORS
330
2A
102
}
330
2A
100
AcDbVisualStyle
  2
EdgeColorOff
 70
    22
177
     3
291
     1
 70
    58
 90
        2
176
     0
 90
        2
176
     0
 90
        0
176
     0
 90
        0
176
     0
 40
0.6
176
     0
 40
30.0
176
     0
 62
     7
420
 16777215
176
     0
 90
        1
176
     0
 90
        4
176
     0
 62
     7
176
     0
 62
   257
176
     0
 90
        1
176
     0
 90
        1
176
     0
 40
1.0
176
     0
 90
        8
176
     2
 62
     7
176
     0
 40
1.0
176
     0
 90
        1
176
     0
 90
        6
176
     0
 90
        2
176
     0
 62
     7
176
     0
 90
        5
176
     0
 90
        0
176
     0
 90
        0
176
     0
290
     0
176
     0
 90
        1
176
     0
 40
0.0
176
     0
 90
        0
176
     0
290
     0
176
     0
290
     1
176
     0
290
     1
176
     0
290
     0
176
     0
290
     0
176
     0
290
     0
176
     0
290
     0
176
     0
290
     0
176
     0
290
     0
176
     0
 90
       50
176
     0
 40
0.0
176
     0
 40
1.0
176
     0
 90
        0
176
     0
 62
    18
420
        0
176
     0
 90
       50
176
     0
 90
        3
176
     0
 62
     5
420
      255
176
     0
290
     0
176
     0
 90
       50
176
     0
 90
       50
176
     0
 90
       50
176
     0
290
     0
176
     0
 90
       50
176
     0
 62
   256
176
     0
 40
1.0
176
     0
 90
        2
176
     0
  1
strokes_ogs.tif
176
     0
290
     0
176
     0
 40
1.0
176
     0
 40
1.0
176
     0
  0
VISUALSTYLE
  5
39
102
{ACAD_REACTORS
330
2A
102
}
330
2A
100
AcDbVisualStyle
  2
Facepattern
 70
    15
177
     3
291
     1
 70
    58
 90
        2
176
     1
 90
        2
176
     1
 90
        0
176
     1
 90
        0
176
     1
 40
0.6
176
     1
 40
30.0
176
     1
 62
     7
420
 16777215
176
     1
 90
        1
176
     1
 90
        4
176
     1
 62
     7
176
     1
 62
   257
176
     1
 90
        1
176
     1
 90
        1
176
     1
 40
1.0
176
     1
 90
        8
176
     1
 62
     7
176
     1
 40
1.0
176
     1
 90
        1
176
     1
 90
        6
176
     1
 90
        2
176
     1
 62
     7
176
     1
 90
        5
176
     1
 90
        0
176
     1
 90
        0
176
     1
290
     0
176
     1
 90
        1
176
     1
 40
0.0
176
     1
 90
        0
176
     1
290
     0
176
     1
290
     1
176
     1
290
     1
176
     1
290
     0
176
     1
290
     0
176
     1
290
     0
176
     1
290
     0
176
     1
290
     0
176
     1
290
     0
176
     1
 90
       50
176
     1
 40
0.0
176
     1
 40
1.0
176
     1
 90
        0
176
     1
 62
    18
420
        0
176
     1
 90
       50
176
     1
 90
        3
176
     1
 62
     5
420
      255
176
     1
290
     0
176
     1
 90
       50
176
     1
 90
       50
176
     1
 90
       50
176
     1
290
     0
176
     1
 90
       50
176
     1
 62
   256
176
     0
 40
1.0
176
     0
 90
        2
176
     1
  1
strokes_ogs.tif
176
     1
290
     0
176
     1
 40
1.0
176
     1
 40
1.0
176
     1
  0
VISUALSTYLE
  5
2B
102
{ACAD_REACTORS
330
2A
102
}
330
2A
100
AcDbVisualStyle
  2
Flat
 70
     0
177
     3
291
     1
 70
    58
 90
        2
176
     1
 90
        1
176
     1
 90
        1
176
     1
 90
        2
176
     1
 40
0.6
176
     1
 40
30.0
176
     1
 62
     7
420
 16777215
176
     1
 90
        0
176
     1
 90
        0
176
     1
 62
     7
176
     1
 62
   257
176
     1
 90
        1
176
     1
 90
        1
176
     1
 40
1.0
176
     1
 90
        8
176
     1
 62
     7
176
     1
 40
1.0
176
     1
 90
        1
176
     1
 90
        6
176
     1
 90
        2
176
     1
 62
     7
176
     1
 90
        5
176
     1
 90
        0
176
     1
 90
        0
176
     1
290
     0
176
     1
 90
       13
176
     1
 40
0.0
176
     1
 90
        0
176
     1
290
     0
176
     1
290
     1
176
     1
290
     1
176
     1
290
     0
176
     1
290
     0
176
     1
290
     0
176
     1
290
     0
176
     1
290
     0
176
     1
290
     0
176
     1
 90
       50
176
     1
 40
0.0
176
     1
 40
1.0
176
     1
 90
        0
176
     1
 62
    18
420
        0
176
     1
 90
       50
176
     1
 90
        3
176
     1
 62
     5
420
      255
176
     1
290
     0
176
     1
 90
       50
176
     1
 90
       50
176
     1
 90
       50
176
     1
290
     0
176
     1
 90
       50
176
     1
 62
   256
176
     0
 40
1.0
176
     0
 90
        2
176
     1
  1
strokes_ogs.tif
176
     1
290
     0
176
     1
 40
1.0
176
     1
 40
1.0
176
     1
  0
VISUALSTYLE
  5
2C
102
{ACAD_REACTORS
330
2A
102
}
330
2A
100
AcDbVisualStyle
  2
FlatWithEdges
 70
     1
177
     3
291
     1
 70
    58
 90
        2
176
     1
 90
        1
176
     1
 90
        1
176
     1
 90
        2
176
     1
 40
0.6
176
     1
 40
30.0
176
     1
 62
     7
420
 16777215
176
     1
 90
        1
176
     1
 90
        0
176
     1
 62
     7
176
     1
 62
   257
176
     1
 90
        1
176
     1
 90
        1
176
     1
 40
1.0
176
     1
 90
        0
176
     1
 62
   257
176
     1
 40
1.0
176
     1
 90
        1
176
     1
 90
        6
176
     1
 90
        2
176
     1
 62
     7
176
     1
 90
        5
176
     1
 90
        0
176
     1
 90
        0
176
     1
290
     0
176
     1
 90
       13
176
     1
 40
0.0
176
     1
 90
        0
176
     1
290
     0
176
     1
290
     1
176
     1
290
     1
176
     1
290
     0
176
     1
290
     0
176
     1
290
     0
176
     1
290
     0
176
     1
290
     0
176
     1
290
     0
176
     1
 90
       50
176
     1
 40
0.0
176
     1
 40
1.0
176
     1
 90
        0
176
     1
 62
    18
420
        0
176
     1
 90
       50
176
     1
 90
        3
176
     1
 62
     5
420
      255
176
     1
290
     0
176
     1
 90
       50
176
     1
 90
       50
176
     1
 90
       50
176
     1
290
     0
176
     1
 90
       50
176
     1
 62
   256
176
     0
 40
1.0
176
     0
 90
        2
176
     1
  1
strokes_ogs.tif
176
     1
290
     0
176
     1
 40
1.0
176
     1
 40
1.0
176
     1
  0
VISUALSTYLE
  5
2D
102
{ACAD_REACTORS
330
2A
102
}
330
2A
100
AcDbVisualStyle
  2
Gouraud
 70
     2
177
     3
291
     1
 70
    58
 90
        2
176
     1
 90
        2
176
     1
 90
        1
176
     1
 90
        2
176
     1
 40
0.6
176
     1
 40
30.0
176
     1
 62
     7
420
 16777215
176
     1
 90
        0
176
     1
 90
        0
176
     1
 62
     7
176
     1
 62
   257
176
     1
 90
        1
176
     1
 90
        1
176
     1
 40
1.0
176
     1
 90
        0
176
     1
 62
     7
176
     1
 40
1.0
176
     1
 90
        1
176
     1
 90
        6
176
     1
 90
        2
176
     1
 62
     7
176
     1
 90
        5
176
     1
 90
        0
176
     1
 90
        0
176
     1
290
     0
176
     1
 90
       13
176
     1
 40
0.0
176
     1
 90
        0
176
     1
290
     0
176
     1
290
     1
176
     1
290
     1
176
     1
290
     0
176
     1
290
     0
176
     1
290
     0
176
     1
290
     0
176
     1
290
     0
176
     1
290
     0
176
     1
 90
       50
176
     1
 40
0.0
176
     1
 40
1.0
176
     1
 90
        0
176
     1
 62
    18
420
        0
176
     1
 90
       50
176
     1
 90
        3
176
     1
 62
     5
420
      255
176
     1
290
     0
176
     1
 90
       50
176
     1
 90
       50
176
     1
 90
       50
176
     1
290
     0
176
     1
 90
       50
176
     1
 62
   256
176
     0
 40
1.0
176
     0
 90
        2
176
     1
  1
strokes_ogs.tif
176
     1
290
     0
176
     1
 40
1.0
176
     1
 40
1.0
176
     1
  0
VISUALSTYLE
  5
2E
102
{ACAD_REACTORS
330
2A
102
}
330
2A
100
AcDbVisualStyle
  2
GouraudWithEdges
 70
     3
177
     3
291
     1
 70
    58
 90
        2
176
     1
 90
        2
176
     1
 90
        1
176
     1
 90
        2
176
     1
 40
0.6
176
     1
 40
30.0
176
     1
 62
     7
420
 16777215
176
     1
 90
        1
176
     1
 90
        0
176
     1
 62
     7
176
     1
 62
   257
176
     1
 90
        1
176
     1
 90
        1
176
     1
 40
1.0
176
     1
 90
        0
176
     1
 62
   257
176
     1
 40
1.0
176
     1
 90
        1
176
     1
 90
        6
176
     1
 90
        2
176
     1
 62
     7
176
     1
 90
        5
176
     1
 90
        0
176
     1
 90
        0
176
     1
290
     0
176
     1
 90
       13
176
     1
 40
0.0
176
     1
 90
        0
176
     1
290
     0
176
     1
290
     1
176
     1
290
     1
176
     1
290
     0
176
     1
290
     0
176
     1
290
     0
176
     1
290
     0
176
     1
290
     0
176
     1
290
     0
176
     1
 90
       50
176
     1
 40
0.0
176
     1
 40
1.0
176
     1
 90
        0
176
     1
 62
    18
420
        0
176
     1
 90
       50
176
     1
 90
        3
176
     1
 62
     5
420
      255
176
     1
290
     0
176
     1
 90
       50
176
     1
 90
       50
176
     1
 90
       50
176
     1
290
     0
176
     1
 90
       50
176
     1
 62
   256
176
     0
 40
1.0
176
     0
 90
        2
176
     1
  1
strokes_ogs.tif
176
     1
290
     0
176
     1
 40
1.0
176
     1
 40
1.0
176
     1
  0
VISUALSTYLE
  5
31
102
{ACAD_REACTORS
330
2A
102
}
330
2A
100
AcDbVisualStyle
  2
Hidden
 70
     6
177
     3
291
     0
 70
    58
 90
        1
176
     1
 90
        2
176
     1
 90
        2
176
     1
 90
        0
176
     1
 40
0.6
176
     1
 40
30.0
176
     1
 62
     7
420
 16777215
176
     1
 90
        2
176
     1
 90
        2
176
     1
 62
     7
176
     1
 62
   257
176
     1
 90
        2
176
     1
 90
        1
176
     1
 40
40.0
176
     1
 90
        0
176
     1
 62
   257
176
     1
 40
1.0
176
     1
 90
        1
176
     1
 90
        6
176
     1
 90
        2
176
     1
 62
     7
176
     1
 90
        3
176
     1
 90
        0
176
     1
 90
        0
176
     1
290
     0
176
     1
 90
        1
176
     1
 40
0.0
176
     1
 90
        0
176
     1
290
     0
176
     1
290
     1
176
     1
290
     1
176
     1
290
     0
176
     1
290
     0
176
     1
290
     0
176
     1
290
     0
176
     1
290
     0
176
     1
290
     0
176
     1
 90
       50
176
     1
 40
0.0
176
     1
 40
1.0
176
     1
 90
        0
176
     1
 62
    18
420
        0
176
     1
 90
       50
176
     1
 90
        3
176
     1
 62
     5
420
      255
176
     1
290
     0
176
     1
 90
       50
176
     1
 90
       50
176
     1
 90
       50
176
     1
290
     0
176
     1
 90
       50
176
     1
 62
   256
176
     0
 40
1.0
176
     0
 90
        2
176
     1
  1
strokes_ogs.tif
176
     1
290
     0
176
     1
 40
1.0
176
     1
 40
1.0
176
     1
  0
VISUALSTYLE
  5
3B
102
{ACAD_REACTORS
330
2A
102
}
330
2A
100
AcDbVisualStyle
  2
JitterOff
 70
    20
177
     3
291
     1
 70
    58
 90
        2
176
     0
 90
        2
176
     0
 90
        0
176
     0
 90
        0
176
     0
 40
0.6
176
     0
 40
30.0
176
     0
 62
     7
420
 16777215
176
     0
 90
        1
176
     0
 90
        4
176
     0
 62
     7
176
     0
 62
   257
176
     0
 90
        1
176
     0
 90
        1
176
     0
 40
1.0
176
     0
 90
       10
176
     2
 62
     7
176
     0
 40
1.0
176
     0
 90
        1
176
     0
 90
        6
176
     0
 90
        2
176
     0
 62
     7
176
     0
 90
        5
176
     0
 90
        0
176
     0
 90
        0
176
     0
290
     0
176
     0
 90
        1
176
     0
 40
0.0
176
     0
 90
        0
176
     0
290
     0
176
     0
290
     1
176
     0
290
     1
176
     0
290
     0
176
     0
290
     0
176
     0
290
     0
176
     0
290
     0
176
     0
290
     0
176
     0
290
     0
176
     0
 90
       50
176
     0
 40
0.0
176
     0
 40
1.0
176
     0
 90
        0
176
     0
 62
    18
420
        0
176
     0
 90
       50
176
     0
 90
        3
176
     0
 62
     5
420
      255
176
     0
290
     0
176
     0
 90
       50
176
     0
 90
       50
176
     0
 90
       50
176
     0
290
     0
176
     0
 90
       50
176
     0
 62
   256
176
     0
 40
1.0
176
     0
 90
        2
176
     0
  1
strokes_ogs.tif
176
     0
290
     0
176
     0
 40
1.0
176
     0
 40
1.0
176
     0
  0
VISUALSTYLE
  5
38
102
{ACAD_REACTORS
330
2A
102
}
330
2A
100
AcDbVisualStyle
  2
Linepattern
 70
    14
177
     3
291
     1
 70
    58
 90
        2
176
     1
 90
        2
176
     1
 90
        0
176
     1
 90
        0
176
     1
 40
0.6
176
     1
 40
30.0
176
     1
 62
     7
420
 16777215
176
     1
 90
        1
176
     1
 90
        4
176
     1
 62
     7
176
     1
 62
   257
176
     1
 90
        7
176
     1
 90
        7
176
     1
 40
1.0
176
     1
 90
        8
176
     1
 62
     7
176
     1
 40
1.0
176
     1
 90
        1
176
     1
 90
        6
176
     1
 90
        2
176
     1
 62
     7
176
     1
 90
        5
176
     1
 90
        0
176
     1
 90
        0
176
     1
290
     0
176
     1
 90
        1
176
     1
 40
0.0
176
     1
 90
        0
176
     1
290
     0
176
     1
290
     1
176
     1
290
     1
176
     1
290
     0
176
     1
290
     0
176
     1
290
     0
176
     1
290
     0
176
     1
290
     0
176
     1
290
     0
176
     1
 90
       50
176
     1
 40
0.0
176
     1
 40
1.0
176
     1
 90
        0
176
     1
 62
    18
420
        0
176
     1
 90
       50
176
     1
 90
        3
176
     1
 62
     5
420
      255
176
     1
290
     0
176
     1
 90
       50
176
     1
 90
       50
176
     1
 90
       50
176
     1
290
     0
176
     1
 90
       50
176
     1
 62
   256
176
     0
 40
1.0
176
     0
 90
        2
176
     1
  1
strokes_ogs.tif
176
     1
290
     0
176
     1
 40
1.0
176
     1
 40
1.0
176
     1
  0
VISUALSTYLE
  5
3C
102
{ACAD_REACTORS
330
2A
102
}
330
2A
100
AcDbVisualStyle
  2
OverhangOff
 70
    21
177
     3
291
     1
 70
    58
 90
        2
176
     0
 90
        2
176
     0
 90
        0
176
     0
 90
        0
176
     0
 40
0.6
176
     0
 40
30.0
176
     0
 62
     7
420
 16777215
176
     0
 90
        1
176
     0
 90
        4
176
     0
 62
     7
176
     0
 62
   257
176
     0
 90
        1
176
     0
 90
        1
176
     0
 40
1.0
176
     0
 90
        9
176
     2
 62
     7
176
     0
 40
1.0
176
     0
 90
        1
176
     0
 90
        6
176
     0
 90
        2
176
     0
 62
     7
176
     0
 90
        5
176
     0
 90
        0
176
     0
 90
        0
176
     0
290
     0
176
     0
 90
        1
176
     0
 40
0.0
176
     0
 90
        0
176
     0
290
     0
176
     0
290
     1
176
     0
290
     1
176
     0
290
     0
176
     0
290
     0
176
     0
290
     0
176
     0
290
     0
176
     0
290
     0
176
     0
290
     0
176
     0
 90
       50
176
     0
 40
0.0
176
     0
 40
1.0
176
     0
 90
        0
176
     0
 62
    18
420
        0
176
     0
 90
       50
176
     0
 90
        3
176
     0
 62
     5
420
      255
176
     0
290
     0
176
     0
 90
       50
176
     0
 90
       50
176
     0
 90
       50
176
     0
290
     0
176
     0
 90
       50
176
     0
 62
   256
176
     0
 40
1.0
176
     0
 90
        2
176
     0
  1
strokes_ogs.tif
176
     0
290
     0
176
     0
 40
1.0
176
     0
 40
1.0
176
     0
  0
VISUALSTYLE
  5
33
102
{ACAD_REACTORS
330
2A
102
}
330
2A
100
AcDbVisualStyle
  2
Realistic
 70
     8
177
     3
291
     0
 70
    58
 90
        2
176
     1
 90
        3
176
     1
 90
        0
176
     1
 90
        2
176
     1
 40
0.6
176
     1
 40
30.0
176
     1
 62
     7
420
 16777215
176
     1
 90
        0
176
     1
 90
        0
176
     1
 62
     7
176
     1
 62
   257
176
     1
 90
        1
176
     1
 90
        1
176
     1
 40
1.0
176
     1
 90
        8
176
     1
 62
   257
176
     1
 40
1.0
176
     1
 90
        1
176
     1
 90
        6
176
     1
 90
        2
176
     1
 62
     7
176
     1
 90
        3
176
     1
 90
        0
176
     1
 90
        0
176
     1
290
     0
176
     1
 90
       13
176
     1
 40
0.0
176
     1
 90
        0
176
     1
290
     0
176
     1
290
     1
176
     1
290
     1
176
     1
290
     0
176
     1
290
     0
176
     1
290
     0
176
     1
290
     0
176
     1
290
     0
176
     1
290
     0
176
     1
 90
       50
176
     1
 40
0.0
176
     1
 40
1.0
176
     1
 90
        0
176
     1
 62
    18
420
        0
176
     1
 90
       50
176
     1
 90
        3
176
     1
 62
     5
420
      255
176
     1
290
     0
176
     1
 90
       50
176
     1
 90
       50
176
     1
 90
       50
176
     1
290
     0
176
     1
 90
       50
176
     1
 62
   256
176
     0
 40
1.0
176
     0
 90
        2
176
     1
  1
strokes_ogs.tif
176
     1
290
     0
176
     1
 40
1.0
176
     1
 40
1.0
176
     1
  0
VISUALSTYLE
  5
42
102
{ACAD_REACTORS
330
2A
102
}
330
2A
100
AcDbVisualStyle
  2
Shaded
 70
    27
177
     3
291
     0
 70
    58
 90
        2
176
     1
 90
        2
176
     1
 90
        1
176
     1
 90
        2
176
     1
 40
0.6
176
     1
 40
30.0
176
     1
 62
     7
420
 16777215
176
     1
 90
        0
176
     1
 90
        4
176
     1
 62
     7
176
     1
 62
   257
176
     1
 90
        1
176
     1
 90
        1
176
     1
 40
1.0
176
     1
 90
        8
176
     1
 62
   257
176
     1
 40
1.0
176
     1
 90
        1
176
     1
 90
        6
176
     1
 90
        2
176
     1
 62
     8
420
  7895160
176
     1
 90
        3
176
     1
 90
        0
176
     1
 90
        0
176
     1
290
     0
176
     1
 90
        5
176
     1
 40
0.0
176
     1
 90
        0
176
     1
290
     0
176
     1
290
     1
176
     1
290
     1
176
     1
290
     0
176
     1
290
     0
176
     1
290
     0
176
     1
290
     0
176
     1
290
     0
176
     1
290
     0
176
     1
 90
       50
176
     1
 40
0.0
176
     1
 40
1.0
176
     1
 90
        0
176
     1
 62
    18
420
        0
176
     1
 90
       50
176
     1
 90
        3
176
     1
 62
     5
420
      255
176
     1
290
     0
176
     1
 90
       50
176
     1
 90
       50
176
     1
 90
       50
176
     1
290
     0
176
     1
 90
       50
176
     1
 62
   256
176
     0
 40
1.0
176
     0
 90
        2
176
     1
  1
strokes_ogs.tif
176
     1
290
     0
176
     1
 40
1.0
176
     1
 40
1.0
176
     1
  0
VISUALSTYLE
  5
41
102
{ACAD_REACTORS
330
2A
102
}
330
2A
100
AcDbVisualStyle
  2
Shaded with edges
 70
    26
177
     3
291
     0
 70
    58
 90
        2
176
     1
 90
        2
176
     1
 90
        1
176
     1
 90
        2
176
     1
 40
0.6
176
     1
 40
30.0
176
     1
 62
     7
420
 16777215
176
     1
 90
        1
176
     1
 90
       10
176
     1
 62
     7
176
     1
 62
   257
176
     1
 90
        2
176
     1
 90
        1
176
     1
 40
1.0
176
     1
 90
        8
176
     1
 62
   257
176
     1
 40
1.0
176
     1
 90
        1
176
     1
 90
        6
176
     1
 90
        2
176
     1
 62
     7
176
     1
 90
        3
176
     1
 90
        0
176
     1
 90
        0
176
     1
290
     0
176
     1
 90
        5
176
     1
 40
0.0
176
     1
 90
        0
176
     1
290
     0
176
     1
290
     1
176
     1
290
     1
176
     1
290
     0
176
     1
290
     0
176
     1
290
     0
176
     1
290
     0
176
     1
290
     0
176
     1
290
     0
176
     1
 90
       50
176
     1
 40
0.0
176
     1
 40
1.0
176
     1
 90
        0
176
     1
 62
    18
420
        0
176
     1
 90
       50
176
     1
 90
        3
176
     1
 62
     5
420
      255
176
     1
290
     0
176
     1
 90
       50
176
     1
 90
       50
176
     1
 90
       50
176
     1
290
     0
176
     1
 90
       50
176
     1
 62
   256
176
     0
 40
1.0
176
     0
 90
        2
176
     1
  1
strokes_ogs.tif
176
     1
290
     0
176
     1
 40
1.0
176
     1
 40
1.0
176
     1
  0
VISUALSTYLE
  5
3E
102
{ACAD_REACTORS
330
2A
102
}
330
2A
100
AcDbVisualStyle
  2
Shades of Gray
 70
    23
177
     3
291
     0
 70
    58
 90
        2
176
     1
 90
        2
176
     1
 90
        3
176
     1
 90
        0
176
     1
 40
0.6
176
     1
 40
30.0
176
     1
 62
     7
420
 16777215
176
     1
 90
        2
176
     1
 90
        2
176
     1
 62
     7
176
     1
 62
     7
176
     1
 90
        1
176
     1
 90
        1
176
     1
 40
40.0
176
     1
 90
        8
176
     1
 62
     7
176
     1
 40
1.0
176
     1
 90
        1
176
     1
 90
        6
176
     1
 90
        2
176
     1
 62
     7
176
     1
 90
        3
176
     1
 90
        0
176
     1
 90
        0
176
     1
290
     0
176
     1
 90
        1
176
     1
 40
0.0
176
     1
 90
        0
176
     1
290
     0
176
     1
290
     1
176
     1
290
     1
176
     1
290
     0
176
     1
290
     0
176
     1
290
     0
176
     1
290
     0
176
     1
290
     0
176
     1
290
     0
176
     1
 90
       50
176
     1
 40
0.0
176
     1
 40
1.0
176
     1
 90
        0
176
     1
 62
    18
420
        0
176
     1
 90
       50
176
     1
 90
        3
176
     1
 62
     5
420
      255
176
     1
290
     0
176
     1
 90
       50
176
     1
 90
       50
176
     1
 90
       50
176
     1
290
     0
176
     1
 90
       50
176
     1
 62
   256
176
     0
 40
1.0
176
     0
 90
        2
176
     1
  1
strokes_ogs.tif
176
     1
290
     0
176
     1
 40
1.0
176
     1
 40
1.0
176
     1
  0
VISUALSTYLE
  5
3F
102
{ACAD_REACTORS
330
2A
102
}
330
2A
100
AcDbVisualStyle
  2
Sketchy
 70
    24
177
     3
291
     0
 70
    58
 90
        1
176
     1
 90
        2
176
     1
 90
        2
176
     1
 90
        0
176
     1
 40
0.6
176
     1
 40
30.0
176
     1
 62
     7
420
 16777215
176
     1
 90
        2
176
     1
 90
        2
176
     1
 62
     7
176
     1
 62
     7
176
     1
 90
        1
176
     1
 90
        1
176
     1
 40
40.0
176
     1
 90
       11
176
     1
 62
     7
176
     1
 40
1.0
176
     1
 90
        1
176
     1
 90
        6
176
     1
 90
        2
176
     1
 62
     7
176
     1
 90
        6
176
     1
 90
        0
176
     1
 90
        0
176
     1
290
     0
176
     1
 90
        1
176
     1
 40
0.0
176
     1
 90
        0
176
     1
290
     0
176
     1
290
     1
176
     1
290
     1
176
     1
290
     0
176
     1
290
     0
176
     1
290
     0
176
     1
290
     0
176
     1
290
     0
176
     1
290
     0
176
     1
 90
       50
176
     1
 40
0.0
176
     1
 40
1.0
176
     1
 90
        0
176
     1
 62
    18
420
        0
176
     1
 90
       50
176
     1
 90
        3
176
     1
 62
     5
420
      255
176
     1
290
     0
176
     1
 90
       50
176
     1
 90
       50
176
     1
 90
       50
176
     1
290
     0
176
     1
 90
       50
176
     1
 62
   256
176
     0
 40
1.0
176
     0
 90
        2
176
     1
  1
strokes_ogs.tif
176
     1
290
     0
176
     1
 40
1.0
176
     1
 40
1.0
176
     1
  0
VISUALSTYLE
  5
37
102
{ACAD_REACTORS
330
2A
102
}
330
2A
100
AcDbVisualStyle
  2
Thicken
 70
    13
177
     3
291
     1
 70
    58
 90
        2
176
     1
 90
        2
176
     1
 90
        0
176
     1
 90
        0
176
     1
 40
0.6
176
     1
 40
30.0
176
     1
 62
     7
420
 16777215
176
     1
 90
        1
176
     1
 90
        4
176
     1
 62
     7
176
     1
 62
   257
176
     1
 90
        1
176
     1
 90
        1
176
     1
 40
1.0
176
     1
 90
       12
176
     1
 62
     7
176
     1
 40
1.0
176
     1
 90
        1
176
     1
 90
        6
176
     1
 90
        2
176
     1
 62
     7
176
     1
 90
        5
176
     1
 90
        0
176
     1
 90
        0
176
     1
290
     0
176
     1
 90
        1
176
     1
 40
0.0
176
     1
 90
        0
176
     1
290
     0
176
     1
290
     1
176
     1
290
     1
176
     1
290
     0
176
     1
290
     0
176
     1
290
     0
176
     1
290
     0
176
     1
290
     0
176
     1
290
     0
176
     1
 90
       50
176
     1
 40
0.0
176
     1
 40
1.0
176
     1
 90
        0
176
     1
 62
    18
420
        0
176
     1
 90
       50
176
     1
 90
        3
176
     1
 62
     5
420
      255
176
     1
290
     0
176
     1
 90
       50
176
     1
 90
       50
176
     1
 90
       50
176
     1
290
     0
176
     1
 90
       50
176
     1
 62
   256
176
     0
 40
1.0
176
     0
 90
        2
176
     1
  1
strokes_ogs.tif
176
     1
290
     0
176
     1
 40
1.0
176
     1
 40
1.0
176
     1
  0
VISUALSTYLE
  5
30
102
{ACAD_REACTORS
330
2A
102
}
330
2A
100
AcDbVisualStyle
  2
Wireframe
 70
     5
177
     3
291
     0
 70
    58
 90
        0
176
     1
 90
        2
176
     1
 90
        0
176
     1
 90
        0
176
     1
 40
0.6
176
     1
 40
30.0
176
     1
 62
     7
420
 16777215
176
     1
 90
        1
176
     1
 90
        4
176
     1
 62
     7
176
     1
 62
   257
176
     1
 90
        1
176
     1
 90
        1
176
     1
 40
1.0
176
     1
 90
        0
176
     1
 62
   257
176
     1
 40
1.0
176
     1
 90
        1
176
     1
 90
        6
176
     1
 90
        2
176
     1
 62
     7
176
     1
 90
        3
176
     1
 90
        0
176
     1
 90
        0
176
     1
290
     0
176
     1
 90
        1
176
     1
 40
0.0
176
     1
 90
        0
176
     1
290
     0
176
     1
290
     1
176
     1
290
     1
176
     1
290
     0
176
     1
290
     0
176
     1
290
     0
176
     1
290
     0
176
     1
290
     0
176
     1
290
     0
176
     1
 90
       50
176
     1
 40
0.0
176
     1
 40
1.0
176
     1
 90
        0
176
     1
 62
    18
420
        0
176
     1
 90
       50
176
     1
 90
        3
176
     1
 62
     5
420
      255
176
     1
290
     0
176
     1
 90
       50
176
     1
 90
       50
176
     1
 90
       50
176
     1
290
     0
176
     1
 90
       50
176
     1
 62
   256
176
     0
 40
1.0
176
     0
 90
        2
176
     1
  1
strokes_ogs.tif
176
     1
290
     0
176
     1
 40
1.0
176
     1
 40
1.0
176
     1
  0
VISUALSTYLE
  5
40
102
{ACAD_REACTORS
330
2A
102
}
330
2A
100
AcDbVisualStyle
  2
X-Ray
 70
    25
177
     3
291
     0
 70
    58
 90
        2
176
     1
 90
        2
176
     1
 90
        1
176
     1
 90
        1
176
     1
 40
0.5
176
     1
 40
30.0
176
     1
 62
     7
420
 16777215
176
     1
 90
        1
176
     1
 90
        0
176
     1
 62
     7
176
     1
 62
   257
176
     1
 90
        1
176
     1
 90
        1
176
     1
 40
1.0
176
     1
 90
        8
176
     1
 62
     7
176
     1
 40
1.0
176
     1
 90
        1
176
     1
 90
        6
176
     1
 90
        2
176
     1
 62
     7
176
     1
 90
        3
176
     1
 90
        0
176
     1
 90
        0
176
     1
290
     0
176
     1
 90
       13
176
     1
 40
0.0
176
     1
 90
        0
176
     1
290
     0
176
     1
290
     1
176
     1
290
     1
176
     1
290
     0
176
     1
290
     0
176
     1
290
     0
176
     1
290
     0
176
     1
290
     0
176
     1
290
     0
176
     1
 90
       50
176
     1
 40
0.0
176
     1
 40
1.0
176
     1
 90
        0
176
     1
 62
    18
420
        0
176
     1
 90
       50
176
     1
 90
        3
176
     1
 62
     5
420
      255
176
     1
290
     0
176
     1
 90
       50
176
     1
 90
       50
176
     1
 90
       50
176
     1
290
     0
176
     1
 90
       50
176
     1
 62
   256
176
     0
 40
1.0
176
     0
 90
        2
176
     1
  1
strokes_ogs.tif
176
     1
290
     0
176
     1
 40
1.0
176
     1
 40
1.0
176
     1
  0
DICTIONARYVAR
  5
8A
102
{ACAD_REACTORS
330
89
102
}
330
89
100
DictionaryVariables
280
     0
  1
1:1
  0
DICTIONARYVAR
  5
8F
102
{ACAD_REACTORS
330
89
102
}
330
89
100
DictionaryVariables
280
     0
  1
Standard
  0
DICTIONARYVAR
  5
8E
102
{ACAD_REACTORS
330
89
102
}
330
89
100
DictionaryVariables
280
     0
  1
Standard
  0
DICTIONARY
  5
8B
330
5A
100
AcDbDictionary
280
     1
281
     1
  3
ACAD_ROUNDTRIP_2008_TABLESTYLE_CELLSTYLEMAP
360
8C
  0
CELLSTYLEMAP
  5
8C
102
{ACAD_REACTORS
330
8B
102
}
330
8B
100
AcDbCellStyleMap
 90
        3
300
CELLSTYLE
  1
TABLEFORMAT_BEGIN
 90
        5
170
     1
 91
        0
 92
    32768
 62
   257
 93
        1
300
CONTENTFORMAT
  1
CONTENTFORMAT_BEGIN
 90
        0
 91
        0
 92
        4
 93
        0
300

 40
0.0
140
1.0
 94
        5
 62
     0
340
11
144
0.25
309
CONTENTFORMAT_END
171
     1
301
MARGIN
  1
CELLMARGIN_BEGIN
 40
0.06
 40
0.06
 40
0.06
 40
0.06
 40
0.06
 40
0.06
309
CELLMARGIN_END
 94
        6
 95
        1
302
GRIDFORMAT
  1
GRIDFORMAT_BEGIN
 90
        0
 91
        1
 62
     0
 92
       -2
340
14
 93
        0
 40
0.045
309
GRIDFORMAT_END
 95
        2
302
GRIDFORMAT
  1
GRIDFORMAT_BEGIN
 90
        0
 91
        1
 62
     0
 92
       -2
340
14
 93
        0
 40
0.045
309
GRIDFORMAT_END
 95
        4
302
GRIDFORMAT
  1
GRIDFORMAT_BEGIN
 90
        0
 91
        1
 62
     0
 92
       -2
340
14
 93
        0
 40
0.045
309
GRIDFORMAT_END
 95
        8
302
GRIDFORMAT
  1
GRIDFORMAT_BEGIN
 90
        0
 91
        1
 62
     0
 92
       -2
340
14
 93
        0
 40
0.045
309
GRIDFORMAT_END
 95
       16
302
GRIDFORMAT
  1
GRIDFORMAT_BEGIN
 90
        0
 91
        1
 62
     0
 92
       -2
340
14
 93
        0
 40
0.045
309
GRIDFORMAT_END
 95
       32
302
GRIDFORMAT
  1
GRIDFORMAT_BEGIN
 90
        0
 91
        1
 62
     0
 92
       -2
340
14
 93
        0
 40
0.045
309
GRIDFORMAT_END
309
TABLEFORMAT_END
  1
CELLSTYLE_BEGIN
 90
        1
 91
        1
300
_TITLE
309
CELLSTYLE_END
300
CELLSTYLE
  1
TABLEFORMAT_BEGIN
 90
        5
170
     1
 91
        0
 92
        0
 62
   257
 93
        1
300
CONTENTFORMAT
  1
CONTENTFORMAT_BEGIN
 90
        0
 91
        0
 92
        4
 93
        0
300

 40
0.0
140
1.0
 94
        5
 62
     0
340
11
144
0.18
309
CONTENTFORMAT_END
171
     1
301
MARGIN
  1
CELLMARGIN_BEGIN
 40
0.06
 40
0.06
 40
0.06
 40
0.06
 40
0.06
 40
0.06
309
CELLMARGIN_END
 94
        6
 95
        1
302
GRIDFORMAT
  1
GRIDFORMAT_BEGIN
 90
        0
 91
        1
 62
     0
 92
       -2
340
14
 93
        0
 40
0.045
309
GRIDFORMAT_END
 95
        2
302
GRIDFORMAT
  1
GRIDFORMAT_BEGIN
 90
        0
 91
        1
 62
     0
 92
       -2
340
14
 93
        0
 40
0.045
309
GRIDFORMAT_END
 95
        4
302
GRIDFORMAT
  1
GRIDFORMAT_BEGIN
 90
        0
 91
        1
 62
     0
 92
       -2
340
14
 93
        0
 40
0.045
309
GRIDFORMAT_END
 95
        8
302
GRIDFORMAT
  1
GRIDFORMAT_BEGIN
 90
        0
 91
        1
 62
     0
 92
       -2
340
14
 93
        0
 40
0.045
309
GRIDFORMAT_END
 95
       16
302
GRIDFORMAT
  1
GRIDFORMAT_BEGIN
 90
        0
 91
        1
 62
     0
 92
       -2
340
14
 93
        0
 40
0.045
309
GRIDFORMAT_END
 95
       32
302
GRIDFORMAT
  1
GRIDFORMAT_BEGIN
 90
        0
 91
        1
 62
     0
 92
       -2
340
14
 93
        0
 40
0.045
309
GRIDFORMAT_END
309
TABLEFORMAT_END
  1
CELLSTYLE_BEGIN
 90
        2
 91
        1
300
_HEADER
309
CELLSTYLE_END
300
CELLSTYLE
  1
TABLEFORMAT_BEGIN
 90
        5
170
     1
 91
        0
 92
        0
 62
   257
 93
        1
300
CONTENTFORMAT
  1
CONTENTFORMAT_BEGIN
 90
        0
 91
        0
 92
        4
 93
        0
300

 40
0.0
140
1.0
 94
        2
 62
     0
340
11
144
0.18
309
CONTENTFORMAT_END
171
     1
301
MARGIN
  1
CELLMARGIN_BEGIN
 40
0.06
 40
0.06
 40
0.06
 40
0.06
 40
0.06
 40
0.06
309
CELLMARGIN_END
 94
        6
 95
        1
302
GRIDFORMAT
  1
GRIDFORMAT_BEGIN
 90
        0
 91
        1
 62
     0
 92
       -2
340
14
 93
        0
 40
0.045
309
GRIDFORMAT_END
 95
        2
302
GRIDFORMAT
  1
GRIDFORMAT_BEGIN
 90
        0
 91
        1
 62
     0
 92
       -2
340
14
 93
        0
 40
0.045
309
GRIDFORMAT_END
 95
        4
302
GRIDFORMAT
  1
GRIDFORMAT_BEGIN
 90
        0
 91
        1
 62
     0
 92
       -2
340
14
 93
        0
 40
0.045
309
GRIDFORMAT_END
 95
        8
302
GRIDFORMAT
  1
GRIDFORMAT_BEGIN
 90
        0
 91
        1
 62
     0
 92
       -2
340
14
 93
        0
 40
0.045
309
GRIDFORMAT_END
 95
       16
302
GRIDFORMAT
  1
GRIDFORMAT_BEGIN
 90
        0
 91
        1
 62
     0
 92
       -2
340
14
 93
        0
 40
0.045
309
GRIDFORMAT_END
 95
       32
302
GRIDFORMAT
  1
GRIDFORMAT_BEGIN
 90
        0
 91
        1
 62
     0
 92
       -2
340
14
 93
        0
 40
0.045
309
GRIDFORMAT_END
309
TABLEFORMAT_END
  1
CELLSTYLE_BEGIN
 90
        3
 91
        2
300
_DATA
309
CELLSTYLE_END
  0
ENDSEC
  0
EOF
