  0
SECTION
  2
HEADER
  9
$ACADVER
  1
AC1027
  9
$ACADMAINTVER
 70
   105
  9
$DWGCODEPAGE
  3
ANSI_1252
  9
$LASTSAVEDBY
  1
Office Desk
  9
$REQUIREDVERSIONS
160
                 0
  9
$INSBASE
 10
0.0
 20
0.0
 30
0.0
  9
$EXTMIN
 10
4.833854330708661
 20
-5.757744094488189
 30
0.0
  9
$EXTMAX
 10
14.12999606299213
 20
-0.4462795275590551
 30
0.0
  9
$LIMMIN
 10
0.0
 20
0.0
  9
$LIMMAX
 10
12.0
 20
9.0
  9
$ORTHOMODE
 70
     0
  9
$REGENMODE
 70
     1
  9
$FILLMODE
 70
     1
  9
$QTEXTMODE
 70
     0
  9
$MIRRTEXT
 70
     1
  9
$LTSCALE
 40
1.0
  9
$ATTMODE
 70
     1
  9
$TEXTSIZE
 40
0.2
  9
$TRACEWID
 40
0.05
  9
$TEXTSTYLE
  7
Standard
  9
$CLAYER
  8
0
  9
$CELTYPE
  6
ByLayer
  9
$CECOLOR
 62
   256
  9
$CELTSCALE
 40
1.0
  9
$DISPSILH
 70
     0
  9
$DIMSCALE
 40
1.0
  9
$DIMASZ
 40
0.18
  9
$DIMEXO
 40
0.0625
  9
$DIMDLI
 40
0.38
  9
$DIMRND
 40
0.0
  9
$DIMDLE
 40
0.0
  9
$DIMEXE
 40
0.18
  9
$DIMTP
 40
0.0
  9
$DIMTM
 40
0.0
  9
$DIMTXT
 40
0.18
  9
$DIMCEN
 40
0.09
  9
$DIMTSZ
 40
0.0
  9
$DIMTOL
 70
     0
  9
$DIMLIM
 70
     0
  9
$DIMTIH
 70
     1
  9
$DIMTOH
 70
     1
  9
$DIMSE1
 70
     0
  9
$DIMSE2
 70
     0
  9
$DIMTAD
 70
     0
  9
$DIMZIN
 70
     0
  9
$DIMBLK
  1

  9
$DIMASO
 70
     1
  9
$DIMSHO
 70
     1
  9
$DIMPOST
  1

  9
$DIMAPOST
  1

  9
$DIMALT
 70
     0
  9
$DIMALTD
 70
     2
  9
$DIMALTF
 40
25.4
  9
$DIMLFAC
 40
1.0
  9
$DIMTOFL
 70
     0
  9
$DIMTVP
 40
0.0
  9
$DIMTIX
 70
     0
  9
$DIMSOXD
 70
     0
  9
$DIMSAH
 70
     0
  9
$DIMBLK1
  1

  9
$DIMBLK2
  1

  9
$DIMSTYLE
  2
Standard
  9
$DIMCLRD
 70
     0
  9
$DIMCLRE
 70
     0
  9
$DIMCLRT
 70
     0
  9
$DIMTFAC
 40
1.0
  9
$DIMGAP
 40
0.09
  9
$DIMJUST
 70
     0
  9
$DIMSD1
 70
     0
  9
$DIMSD2
 70
     0
  9
$DIMTOLJ
 70
     1
  9
$DIMTZIN
 70
     0
  9
$DIMALTZ
 70
     0
  9
$DIMALTTZ
 70
     0
  9
$DIMUPT
 70
     0
  9
$DIMDEC
 70
     4
  9
$DIMTDEC
 70
     4
  9
$DIMALTU
 70
     2
  9
$DIMALTTD
 70
     2
  9
$DIMTXSTY
  7
Standard
  9
$DIMAUNIT
 70
     0
  9
$DIMADEC
 70
     0
  9
$DIMALTRND
 40
0.0
  9
$DIMAZIN
 70
     0
  9
$DIMDSEP
 70
    46
  9
$DIMATFIT
 70
     3
  9
$DIMFRAC
 70
     0
  9
$DIMLDRBLK
  1

  9
$DIMLUNIT
 70
     2
  9
$DIMLWD
 70
    -2
  9
$DIMLWE
 70
    -2
  9
$DIMTMOVE
 70
     0
  9
$DIMFXL
 40
1.0
  9
$DIMFXLON
 70
     0
  9
$DIMJOGANG
 40
0.7853981633974483
  9
$DIMTFILL
 70
     0
  9
$DIMTFILLCLR
 70
     0
  9
$DIMARCSYM
 70
     0
  9
$DIMLTYPE
  6

  9
$DIMLTEX1
  6

  9
$DIMLTEX2
  6

  9
$DIMTXTDIRECTION
 70
     0
  9
$LUNITS
 70
     2
  9
$LUPREC
 70
     4
  9
$SKETCHINC
 40
0.1
  9
$FILLETRAD
 40
0.0
  9
$AUNITS
 70
     0
  9
$AUPREC
 70
     0
  9
$MENU
  1
.
  9
$ELEVATION
 40
0.0
  9
$PELEVATION
 40
0.0
  9
$THICKNESS
 40
0.0
  9
$LIMCHECK
 70
     0
  9
$CHAMFERA
 40
0.0
  9
$CHAMFERB
 40
0.0
  9
$CHAMFERC
 40
0.0
  9
$CHAMFERD
 40
0.0
  9
$SKPOLY
 70
     0
  9
$TDCREATE
 40
2461020.688656366
  9
$TDUCREATE
 40
2461020.459489699
  9
$TDUPDATE
 40
2461020.688656505
  9
$TDUUPDATE
 40
2461020.459489838
  9
$TDINDWG
 40
0.0000000116
  9
$TDUSRTIMER
 40
0.0000000116
  9
$USRTIMER
 70
     1
  9
$ANGBASE
 50
0.0
  9
$ANGDIR
 70
     0
  9
$PDMODE
 70
     0
  9
$PDSIZE
 40
0.0
  9
$PLINEWID
 40
0.0
  9
$SPLFRAME
 70
     0
  9
$SPLINETYPE
 70
     6
  9
$SPLINESEGS
 70
     8
  9
$HANDSEED
  5
86
  9
$SURFTAB1
 70
     6
  9
$SURFTAB2
 70
     6
  9
$SURFTYPE
 70
     6
  9
$SURFU
 70
     6
  9
$SURFV
 70
     6
  9
$UCSBASE
  2

  9
$UCSNAME
  2

  9
$UCSORG
 10
0.0
 20
0.0
 30
0.0
  9
$UCSXDIR
 10
1.0
 20
0.0
 30
0.0
  9
$UCSYDIR
 10
0.0
 20
1.0
 30
0.0
  9
$UCSORTHOREF
  2

  9
$UCSORTHOVIEW
 70
     0
  9
$UCSORGTOP
 10
0.0
 20
0.0
 30
0.0
  9
$UCSORGBOTTOM
 10
0.0
 20
0.0
 30
0.0
  9
$UCSORGLEFT
 10
0.0
 20
0.0
 30
0.0
  9
$UCSORGRIGHT
 10
0.0
 20
0.0
 30
0.0
  9
$UCSORGFRONT
 10
0.0
 20
0.0
 30
0.0
  9
$UCSORGBACK
 10
0.0
 20
0.0
 30
0.0
  9
$PUCSBASE
  2

  9
$PUCSNAME
  2

  9
$PUCSORG
 10
0.0
 20
0.0
 30
0.0
  9
$PUCSXDIR
 10
1.0
 20
0.0
 30
0.0
  9
$PUCSYDIR
 10
0.0
 20
1.0
 30
0.0
  9
$PUCSORTHOREF
  2

  9
$PUCSORTHOVIEW
 70
     0
  9
$PUCSORGTOP
 10
0.0
 20
0.0
 30
0.0
  9
$PUCSORGBOTTOM
 10
0.0
 20
0.0
 30
0.0
  9
$PUCSORGLEFT
 10
0.0
 20
0.0
 30
0.0
  9
$PUCSORGRIGHT
 10
0.0
 20
0.0
 30
0.0
  9
$PUCSORGFRONT
 10
0.0
 20
0.0
 30
0.0
  9
$PUCSORGBACK
 10
0.0
 20
0.0
 30
0.0
  9
$USERI1
 70
     0
  9
$USERI2
 70
     0
  9
$USERI3
 70
     0
  9
$USERI4
 70
     0
  9
$USERI5
 70
     0
  9
$USERR1
 40
0.0
  9
$USERR2
 40
0.0
  9
$USERR3
 40
0.0
  9
$USERR4
 40
0.0
  9
$USERR5
 40
0.0
  9
$WORLDVIEW
 70
     1
  9
$SHADEDGE
 70
     3
  9
$SHADEDIF
 70
    70
  9
$TILEMODE
 70
     1
  9
$MAXACTVP
 70
    64
  9
$PINSBASE
 10
0.0
 20
0.0
 30
0.0
  9
$PLIMCHECK
 70
     0
  9
$PEXTMIN
 10
1.000000000000000E+20
 20
1.000000000000000E+20
 30
1.000000000000000E+20
  9
$PEXTMAX
 10
-1.000000000000000E+20
 20
-1.000000000000000E+20
 30
-1.000000000000000E+20
  9
$PLIMMIN
 10
0.0
 20
0.0
  9
$PLIMMAX
 10
12.0
 20
9.0
  9
$UNITMODE
 70
     0
  9
$VISRETAIN
 70
     1
  9
$PLINEGEN
 70
     0
  9
$PSLTSCALE
 70
     1
  9
$TREEDEPTH
 70
  3020
  9
$CMLSTYLE
  2
Standard
  9
$CMLJUST
 70
     0
  9
$CMLSCALE
 40
1.0
  9
$PROXYGRAPHICS
 70
     1
  9
$MEASUREMENT
 70
     0
  9
$CELWEIGHT
370
    -1
  9
$ENDCAPS
280
     0
  9
$JOINSTYLE
280
     0
  9
$LWDISPLAY
290
     0
  9
$INSUNITS
 70
     1
  9
$HYPERLINKBASE
  1

  9
$STYLESHEET
  1

  9
$XEDIT
290
     1
  9
$CEPSNTYPE
380
     0
  9
$PSTYLEMODE
290
     1
  9
$FINGERPRINTGUID
  2
{98e1608b-f1ac-437e-97b7-1bd8c3a4fabb}
  9
$VERSIONGUID
  2
{FAEB1C32-E019-11D5-929B-00C0DF256EC4}
  9
$EXTNAMES
290
     1
  9
$PSVPSCALE
 40
0.0
  9
$OLESTARTUP
290
     0
  9
$SORTENTS
280
   127
  9
$INDEXCTL
280
     0
  9
$HIDETEXT
280
     1
  9
$XCLIPFRAME
280
     2
  9
$HALOGAP
280
     0
  9
$OBSCOLOR
 70
   257
  9
$OBSLTYPE
280
     0
  9
$INTERSECTIONDISPLAY
280
     0
  9
$INTERSECTIONCOLOR
 70
   257
  9
$DIMASSOC
280
     2
  9
$PROJECTNAME
  1

  9
$CAMERADISPLAY
290
     0
  9
$LENSLENGTH
 40
50.0
  9
$CAMERAHEIGHT
 40
0.0
  9
$STEPSPERSEC
 40
2.0
  9
$STEPSIZE
 40
6.0
  9
$3DDWFPREC
 40
2.0
  9
$PSOLWIDTH
 40
0.25
  9
$PSOLHEIGHT
 40
4.0
  9
$LOFTANG1
 40
1.570796326794897
  9
$LOFTANG2
 40
1.570796326794897
  9
$LOFTMAG1
 40
0.0
  9
$LOFTMAG2
 40
0.0
  9
$LOFTPARAM
 70
     7
  9
$LOFTNORMALS
280
     1
  9
$LATITUDE
 40
37.795
  9
$LONGITUDE
 40
-122.394
  9
$NORTHDIRECTION
 40
0.0
  9
$TIMEZONE
 70
 -8000
  9
$LIGHTGLYPHDISPLAY
280
     1
  9
$TILEMODELIGHTSYNCH
280
     1
  9
$CMATERIAL
347
44
  9
$SOLIDHIST
280
     0
  9
$SHOWHIST
280
     1
  9
$DWFFRAME
280
     2
  9
$DGNFRAME
280
     2
  9
$REALWORLDSCALE
290
     1
  9
$INTERFERECOLOR
 62
   256
  9
$CSHADOW
280
     0
  9
$SHADOWPLANELOCATION
 40
0.0
  0
ENDSEC
  0
SECTION
  2
CLASSES
  0
CLASS
  1
ACDBDICTIONARYWDFLT
  2
AcDbDictionaryWithDefault
  3
ObjectDBX Classes
 90
        0
 91
        3
280
     0
281
     0
  0
CLASS
  1
VISUALSTYLE
  2
AcDbVisualStyle
  3
ObjectDBX Classes
 90
     4095
 91
        3
280
     0
281
     0
  0
CLASS
  1
MATERIAL
  2
AcDbMaterial
  3
ObjectDBX Classes
 90
     1153
 91
        3
280
     0
281
     0
  0
CLASS
  1
SCALE
  2
AcDbScale
  3
ObjectDBX Classes
 90
     1153
 91
        3
280
     0
281
     0
  0
CLASS
  1
TABLESTYLE
  2
AcDbTableStyle
  3
ObjectDBX Classes
 90
     4095
 91
        3
280
     0
281
     0
  0
CLASS
  1
MLEADERSTYLE
  2
AcDbMLeaderStyle
  3
ACDB_MLEADERSTYLE_CLASS
 90
     4095
 91
        3
280
     0
281
     0
  0
CLASS
  1
SUN
  2
AcDbSun
  3
SCENEOE
 90
     1153
 91
        3
280
     0
281
     0
  0
CLASS
  1
DICTIONARYVAR
  2
AcDbDictionaryVar
  3
ObjectDBX Classes
 90
        0
 91
        3
280
     0
281
     0
  0
CLASS
  1
CELLSTYLEMAP
  2
AcDbCellStyleMap
  3
ObjectDBX Classes
 90
     1152
 91
        3
280
     0
281
     0
  0
ENDSEC
  0
SECTION
  2
TABLES
  0
TABLE
  2
VPORT
  5
8
330
0
100
AcDbSymbolTable
 70
     1
  0
VPORT
  5
29
330
8
100
AcDbSymbolTableRecord
100
AcDbViewportTableRecord
  2
*Active
 70
     0
 10
0.0
 20
0.0
 11
1.0
 21
1.0
 12
10.42990654205607
 22
4.5
 13
0.0
 23
0.0
 14
0.5
 24
0.5
 15
0.5
 25
0.5
 16
0.0
 26
0.0
 36
1.0
 17
0.0
 27
0.0
 37
0.0
 40
9.0
 41
1.972972972850329
 42
50.0
 43
0.0
 44
0.0
 50
0.0
 51
0.0
 71
     0
 72
   100
 73
     1
 74
     3
 75
     0
 76
     0
 77
     0
 78
     0
281
     0
 65
     1
110
0.0
120
0.0
130
0.0
111
1.0
121
0.0
131
0.0
112
0.0
122
1.0
132
0.0
 79
     0
146
0.0
348
2F
 60
     3
 61
     5
292
     1
282
     1
141
0.0
142
0.0
 63
   250
361
5D
  0
ENDTAB
  0
TABLE
  2
LTYPE
  5
5
330
0
100
AcDbSymbolTable
 70
     1
  0
LTYPE
  5
14
330
5
100
AcDbSymbolTableRecord
100
AcDbLinetypeTableRecord
  2
ByBlock
 70
     0
  3

 72
    65
 73
     0
 40
0.0
  0
LTYPE
  5
15
330
5
100
AcDbSymbolTableRecord
100
AcDbLinetypeTableRecord
  2
ByLayer
 70
     0
  3

 72
    65
 73
     0
 40
0.0
  0
LTYPE
  5
16
330
5
100
AcDbSymbolTableRecord
100
AcDbLinetypeTableRecord
  2
Continuous
 70
     0
  3
Solid line
 72
    65
 73
     0
 40
0.0
  0
ENDTAB
  0
TABLE
  2
LAYER
  5
2
330
0
100
AcDbSymbolTable
 70
     2
  0
LAYER
  5
10
330
2
100
AcDbSymbolTableRecord
100
AcDbLayerTableRecord
  2
0
 70
     0
 62
     7
  6
Continuous
370
    -3
390
F
347
46
348
0
  0
LAYER
  5
5F
330
2
100
AcDbSymbolTableRecord
100
AcDbLayerTableRecord
  2
Layer 1
 70
     0
 62
     7
  6
Continuous
370
    -3
390
F
347
46
348
0
  0
ENDTAB
  0
TABLE
  2
STYLE
  5
3
330
0
100
AcDbSymbolTable
 70
     1
  0
STYLE
  5
11
330
3
100
AcDbSymbolTableRecord
100
AcDbTextStyleTableRecord
  2
Standard
 70
     0
 40
0.0
 41
1.0
 50
0.0
 71
     0
 42
0.2
  3
txt
  4

  0
ENDTAB
  0
TABLE
  2
VIEW
  5
6
330
0
100
AcDbSymbolTable
 70
     0
  0
ENDTAB
  0
TABLE
  2
UCS
  5
7
330
0
100
AcDbSymbolTable
 70
     0
  0
ENDTAB
  0
TABLE
  2
APPID
  5
9
330
0
100
AcDbSymbolTable
 70
     2
  0
APPID
  5
12
330
9
100
AcDbSymbolTableRecord
100
AcDbRegAppTableRecord
  2
ACAD
 70
     0
  0
APPID
  5
5E
330
9
100
AcDbSymbolTableRecord
100
AcDbRegAppTableRecord
  2
ODA
 70
     0
  0
ENDTAB
  0
TABLE
  2
DIMSTYLE
  5
A
330
0
100
AcDbSymbolTable
 70
     1
100
AcDbDimStyleTable
  0
DIMSTYLE
105
27
330
A
100
AcDbSymbolTableRecord
100
AcDbDimStyleTableRecord
  2
Standard
 70
     0
178
     0
340
11
  0
ENDTAB
  0
TABLE
  2
BLOCK_RECORD
  5
1
330
0
100
AcDbSymbolTable
 70
     1
  0
BLOCK_RECORD
  5
1F
330
1
100
AcDbSymbolTableRecord
100
AcDbBlockTableRecord
  2
*Model_Space
340
22
 70
     0
280
     1
281
     0
  0
BLOCK_RECORD
  5
1B
330
1
100
AcDbSymbolTableRecord
100
AcDbBlockTableRecord
  2
*Paper_Space
340
1E
 70
     0
280
     1
281
     0
  0
BLOCK_RECORD
  5
23
330
1
100
AcDbSymbolTableRecord
100
AcDbBlockTableRecord
  2
*Paper_Space0
340
26
 70
     0
280
     1
281
     0
  0
ENDTAB
  0
ENDSEC
  0
SECTION
  2
BLOCKS
  0
BLOCK
  5
20
330
1F
100
AcDbEntity
  8
0
100
AcDbBlockBegin
  2
*Model_Space
 70
     0
 10
0.0
 20
0.0
 30
0.0
  3
*Model_Space
  1

  0
ENDBLK
  5
21
330
1F
100
AcDbEntity
  8
0
100
AcDbBlockEnd
  0
BLOCK
  5
1C
330
1B
100
AcDbEntity
 67
     1
  8
0
100
AcDbBlockBegin
  2
*Paper_Space
 70
     0
 10
0.0
 20
0.0
 30
0.0
  3
*Paper_Space
  1

  0
ENDBLK
  5
1D
330
1B
100
AcDbEntity
 67
     1
  8
0
100
AcDbBlockEnd
  0
BLOCK
  5
24
330
23
100
AcDbEntity
  8
0
100
AcDbBlockBegin
  2
*Paper_Space0
 70
     0
 10
0.0
 20
0.0
 30
0.0
  3
*Paper_Space0
  1

  0
ENDBLK
  5
25
330
23
100
AcDbEntity
  8
0
100
AcDbBlockEnd
  0
ENDSEC
  0
SECTION
  2
ENTITIES
  0
LWPOLYLINE
  5
60
330
1F
100
AcDbEntity
  8
Layer 1
 62
   250
370
     9
100
AcDbPolyline
 90
        5
 70
     1
 43
0.0
 10
4.835354330708661
 20
-5.756244094488189
 10
14.12849606299213
 20
-5.756244094488189
 10
14.12849606299213
 20
-0.4477795275590551
 10
4.835354330708661
 20
-0.4477795275590551
 10
4.835354330708661
 20
-5.756244094488189
  0
LWPOLYLINE
  5
61
330
1F
100
AcDbEntity
  8
Layer 1
 62
     7
370
     9
100
AcDbPolyline
 90
       54
 70
     1
 43
0.0
 10
5.934137795275591
 20
-3.66055905511811
 10
5.864090551181103
 20
-3.682370078740158
 10
5.871881889763779
 20
-3.919271653543307
 10
6.340326771653543
 20
-4.190444881889764
 10
6.346263779527559
 20
-4.194803149606299
 10
6.364334645669292
 20
-4.205704724409449
 10
6.394917322834646
 20
-4.219881889763779
 10
6.438397637795275
 20
-4.234070866141733
 10
6.495153543307087
 20
-4.245007874015748
 10
6.565566929133858
 20
-4.249433070866142
 10
6.65001968503937
 20
-4.244074803149607
 10
6.748897637795276
 20
-4.22567716535433
 10
8.651377952755906
 20
-3.615354330708661
 10
12.85018503937008
 20
-2.27507874015748
 10
12.85668503937008
 20
-2.273094488188976
 10
12.87403149606299
 20
-2.26751968503937
 10
12.89898818897638
 20
-2.258917322834646
 10
12.92832283464567
 20
-2.247854330708662
 10
12.95879133858268
 20
-2.234893700787401
 10
12.98716929133858
 20
-2.220594488188977
 10
13.01021653543307
 20
-2.205527559055118
 10
13.0246968503937
 20
-2.190255905511811
 10
13.02556692913386
 20
-2.183854330708662
 10
13.02785039370079
 20
-2.166614173228346
 10
13.03106299212598
 20
-2.141484251968504
 10
13.03472440944882
 20
-2.111413385826772
 10
13.03835039370079
 20
-2.079354330708661
 10
13.04145275590551
 20
-2.048251968503937
 10
13.04355511811024
 20
-2.02105905511811
 10
13.04416535433071
 20
-2.000724409448819
 10
13.04411417322835
 20
-1.99809842519685
 10
13.0422874015748
 20
-1.990645669291339
 10
13.0361968503937
 20
-1.978996062992126
 10
13.02333464566929
 20
-1.963791338582677
 10
13.0012125984252
 20
-1.945665354330709
 10
12.96732283464567
 20
-1.925251968503937
 10
12.91917716535433
 20
-1.903188976377953
 10
12.85427165354331
 20
-1.880110236220472
 10
12.44029133858268
 20
-1.715692913385827
 10
12.39750787401575
 20
-1.74996062992126
 10
12.38661023622047
 20
-1.930763779527559
 10
12.7578031496063
 20
-2.070244094488189
 10
12.75546062992126
 20
-2.078814960629921
 10
12.44654330708661
 20
-2.175437007874016
 10
6.683897637795275
 20
-3.929728346456693
 10
6.677259842519685
 20
-3.93196062992126
 10
6.658826771653543
 20
-3.937366141732284
 10
6.630795275590551
 20
-3.943992125984252
 10
6.59538188976378
 20
-3.949897637795276
 10
6.554783464566929
 20
-3.953137795275591
 10
6.51121653543307
 20
-3.951763779527559
 10
6.466885826771653
 20
-3.943838582677165
 10
6.423996062992126
 20
-3.927405511811024
 10
5.934137795275591
 20
-3.66055905511811
  0
LWPOLYLINE
  5
62
330
1F
100
AcDbEntity
  8
Layer 1
 62
     7
370
     9
100
AcDbPolyline
 90
       21
 70
     0
 43
0.0
 10
5.864090551181103
 20
-3.682370078740158
 10
6.369551181102362
 20
-3.987893700787402
 10
6.375917322834646
 20
-3.990610236220472
 10
6.394425196850394
 20
-3.997334645669291
 10
6.424208661417323
 20
-4.005925196850393
 10
6.464385826771654
 20
-4.014244094488189
 10
6.514082677165354
 20
-4.020153543307087
 10
6.572425196850394
 20
-4.021515748031496
 10
6.638535433070866
 20
-4.016185039370079
 10
6.71153937007874
 20
-4.002031496062992
 10
7.77217716535433
 20
-3.675523622047244
 10
9.942433070866143
 20
-2.992897637795275
 10
12.79255511811024
 20
-2.12398031496063
 10
12.80221653543307
 20
-2.120913385826772
 10
12.82793307086614
 20
-2.112366141732283
 10
12.86478346456693
 20
-2.099314960629921
 10
12.90785826771654
 20
-2.082736220472441
 10
12.95224803149606
 20
-2.063610236220472
 10
12.99303543307087
 20
-2.042917322834646
 10
13.02531496062992
 20
-2.021625984251969
 10
13.04416535433071
 20
-2.000724409448819
  0
LWPOLYLINE
  5
63
330
1F
100
AcDbEntity
  8
Layer 1
 62
     7
370
     9
100
AcDbPolyline
 90
       18
 70
     0
 43
0.0
 10
12.39750787401575
 20
-1.74996062992126
 10
12.90719291338583
 20
-1.933866141732284
 10
12.9293031496063
 20
-1.942728346456693
 10
12.9488937007874
 20
-1.952232283464567
 10
12.96464960629921
 20
-1.962251968503937
 10
12.97525590551181
 20
-1.972669291338583
 10
12.97939763779527
 20
-1.983358267716535
 10
12.97576771653543
 20
-1.994200787401575
 10
12.96304724409449
 20
-2.005070866141732
 10
12.93992519685039
 20
-2.015846456692914
 10
12.92627952755906
 20
-2.020814960629921
 10
12.91029133858268
 20
-2.026437007874016
 10
12.89181496062992
 20
-2.032724409448819
 10
12.87068897637795
 20
-2.039685039370079
 10
12.84675984251968
 20
-2.047330708661417
 10
12.81987795275591
 20
-2.055681102362205
 10
12.78988188976378
 20
-2.064744094488189
 10
12.75662204724409
 20
-2.074531496062992
  0
LWPOLYLINE
  5
64
330
1F
100
AcDbEntity
  8
Layer 1
 62
     7
370
     9
100
AcDbPolyline
 90
       13
 70
     0
 43
0.0
 10
5.912385826771653
 20
-3.947472440944882
 10
5.907889763779528
 20
-3.948122047244095
 10
5.894767716535433
 20
-3.952055118110236
 10
5.875858267716535
 20
-3.958232283464567
 10
5.854011811023622
 20
-3.965614173228346
 10
5.832066929133858
 20
-3.973165354330709
 10
5.812870078740158
 20
-3.97984251968504
 10
5.799267716535433
 20
-3.984610236220473
 10
5.794102362204725
 20
-3.986429133858268
 10
5.759826771653543
 20
-3.535881889763779
 10
8.576681102362205
 20
-2.733259842519685
 10
12.51655118110236
 20
-1.570744094488189
 10
12.50411023622047
 20
-1.73596062992126
  0
LWPOLYLINE
  5
65
330
1F
100
AcDbEntity
  8
Layer 1
 62
     7
370
     9
100
AcDbPolyline
 90
        2
 70
     0
 43
0.0
 10
12.4206811023622
 20
-1.943562992125984
 10
6.267114173228347
 20
-3.846287401574803
  0
LWPOLYLINE
  5
66
330
1F
100
AcDbEntity
  8
Layer 1
 62
     7
370
     9
100
AcDbPolyline
 90
        6
 70
     0
 43
0.0
 10
5.794102362204725
 20
-3.986429133858268
 10
5.707728346456693
 20
-3.925661417322835
 10
5.682610236220472
 20
-3.482263779527559
 10
8.570452755905512
 20
-2.649098425196851
 10
12.41617716535433
 20
-1.536712598425197
 10
12.52874803149606
 20
-1.563594488188976
  0
LWPOLYLINE
  5
67
330
1F
100
AcDbEntity
  8
Layer 1
 62
     7
370
     9
100
AcDbPolyline
 90
        2
 70
     0
 43
0.0
 10
5.759826771653543
 20
-3.535881889763779
 10
5.682610236220472
 20
-3.486929133858268
  0
LWPOLYLINE
  5
68
330
1F
100
AcDbEntity
  8
Layer 1
 62
     7
370
    18
100
AcDbPolyline
 90
        4
 70
     1
 43
0.0
 10
6.923685039370079
 20
-4.645322834645669
 10
6.902633858267716
 20
-4.66761811023622
 10
6.932736220472441
 20
-4.67346062992126
 10
6.923685039370079
 20
-4.645322834645669
  0
LWPOLYLINE
  5
69
330
1F
100
AcDbEntity
  8
Layer 1
 62
     7
370
    18
100
AcDbPolyline
 90
        4
 70
     1
 43
0.0
 10
13.31820472440945
 20
-2.588437007874016
 10
13.3483031496063
 20
-2.594279527559055
 10
13.32725196850394
 20
-2.616574803149606
 10
13.31820472440945
 20
-2.588437007874016
  0
LWPOLYLINE
  5
6A
330
1F
100
AcDbEntity
  8
Layer 1
 62
     7
370
    18
100
AcDbPolyline
 90
        2
 70
     0
 43
0.0
 10
6.894594488188976
 20
-4.67186220472441
 10
13.35731496062992
 20
-2.59303937007874
  0
LWPOLYLINE
  5
6B
330
1F
100
AcDbEntity
  8
Layer 1
 62
     7
370
     9
100
AcDbPolyline
 90
      120
 70
     1
 43
0.0
 10
10.25485826771654
 20
-3.866023622047244
 10
10.23852755905512
 20
-3.86744094488189
 10
10.23722834645669
 20
-3.862228346456693
 10
10.23565748031496
 20
-3.857818897637795
 10
10.23381496062992
 20
-3.854208661417323
 10
10.23168897637795
 20
-3.851409448818897
 10
10.23001968503937
 20
-3.849779527559055
 10
10.22826377952756
 20
-3.848370078740158
 10
10.22642913385827
 20
-3.847177165354331
 10
10.22451181102362
 20
-3.846200787401575
 10
10.22251181102362
 20
-3.84544094488189
 10
10.22042913385827
 20
-3.84490157480315
 10
10.21825984251969
 20
-3.844574803149606
 10
10.21601181102362
 20
-3.844468503937008
 10
10.21253937007874
 20
-3.844716535433071
 10
10.20924409448819
 20
-3.84546062992126
 10
10.20612204724409
 20
-3.846700787401575
 10
10.20317322834646
 20
-3.848437007874016
 10
10.20040157480315
 20
-3.850673228346457
 10
10.1978031496063
 20
-3.85340157480315
 10
10.19538582677165
 20
-3.856629921259842
 10
10.19314173228346
 20
-3.860358267716535
 10
10.1914094488189
 20
-3.863996062992126
 10
10.18990551181102
 20
-3.86803937007874
 10
10.18862992125984
 20
-3.872496062992126
 10
10.18757874015748
 20
-3.87736220472441
 10
10.18675590551181
 20
-3.882637795275591
 10
10.18616141732283
 20
-3.888322834645669
 10
10.18579527559055
 20
-3.89442125984252
 10
10.18565354330709
 20
-3.900929133858268
 10
10.18864566929134
 20
-3.89642125984252
 10
10.19200787401575
 20
-3.892507874015748
 10
10.19573622047244
 20
-3.889181102362205
 10
10.19983464566929
 20
-3.886429133858268
 10
10.20417322834646
 20
-3.884263779527559
 10
10.20862598425197
 20
-3.882716535433071
 10
10.21320078740158
 20
-3.881783464566929
 10
10.2178937007874
 20
-3.881472440944882
 10
10.22179527559055
 20
-3.881673228346457
 10
10.22557086614173
 20
-3.882279527559055
 10
10.22921653543307
 20
-3.883287401574803
 10
10.23273228346457
 20
-3.884700787401575
 10
10.23612598425197
 20
-3.886511811023622
 10
10.2393937007874
 20
-3.888724409448819
 10
10.24253937007874
 20
-3.891338582677165
 10
10.24555905511811
 20
-3.894350393700787
 10
10.24832283464567
 20
-3.897704724409449
 10
10.25072047244094
 20
-3.901330708661417
 10
10.25274803149606
 20
-3.905228346456693
 10
10.25440551181102
 20
-3.909397637795275
 10
10.25569291338583
 20
-3.913838582677165
 10
10.25661417322835
 20
-3.918551181102362
 10
10.25716535433071
 20
-3.923535433070866
 10
10.25735039370079
 20
-3.928791338582677
 10
10.25698031496063
 20
-3.935913385826772
 10
10.25587007874016
 20
-3.942704724409449
 10
10.25503937007874
 20
-3.945972440944882
 10
10.25401968503937
 20
-3.949153543307087
 10
10.25281496062992
 20
-3.952248031496063
 10
10.25142125984252
 20
-3.955251968503937
 10
10.24988976377953
 20
-3.958125984251969
 10
10.24825196850394
 20
-3.960807086614173
 10
10.24650787401575
 20
-3.963291338582677
 10
10.24465354330709
 20
-3.96557874015748
 10
10.24269291338583
 20
-3.967677165354331
 10
10.24062992125984
 20
-3.96957874015748
 10
10.23846062992126
 20
-3.971287401574803
 10
10.23618503937008
 20
-3.972807086614173
 10
10.23141732283465
 20
-3.975279527559055
 10
10.2264094488189
 20
-3.977047244094488
 10
10.22116929133858
 20
-3.978110236220473
 10
10.21570472440945
 20
-3.978464566929134
 10
10.21077165354331
 20
-3.978208661417323
 10
10.20605905511811
 20
-3.977448818897638
 10
10.20157086614173
 20
-3.976177165354331
 10
10.1973031496063
 20
-3.974397637795275
 10
10.19325984251969
 20
-3.972106299212598
 10
10.18943307086614
 20
-3.969303149606299
 10
10.18583070866142
 20
-3.965992125984252
 10
10.18244488188976
 20
-3.962169291338583
 10
10.17937401574803
 20
-3.957763779527559
 10
10.17671653543307
 20
-3.952677165354331
 10
10.17446850393701
 20
-3.946909448818898
 10
10.17262992125984
 20
-3.94046062992126
 10
10.17120078740157
 20
-3.933334645669291
 10
10.17018110236221
 20
-3.925527559055118
 10
10.16957086614173
 20
-3.917043307086614
 10
10.16936614173228
 20
-3.907877952755905
 10
10.16957480314961
 20
-3.897704724409449
 10
10.17020078740157
 20
-3.888291338582677
 10
10.17124803149606
 20
-3.87963779527559
 10
10.17270866141732
 20
-3.871740157480315
 10
10.1745905511811
 20
-3.864602362204725
 10
10.1768937007874
 20
-3.858224409448819
 10
10.17961023622047
 20
-3.852610236220472
 10
10.18274803149606
 20
-3.847755905511811
 10
10.18620866141732
 20
-3.843551181102362
 10
10.1899094488189
 20
-3.839905511811024
 10
10.19384645669291
 20
-3.836822834645669
 10
10.1980157480315
 20
-3.834303149606299
 10
10.20241732283464
 20
-3.83234251968504
 10
10.20705905511811
 20
-3.83094094488189
 10
10.21192913385827
 20
-3.830102362204725
 10
10.21703149606299
 20
-3.829822834645669
 10
10.22073622047244
 20
-3.829968503937008
 10
10.22429133858268
 20
-3.83040157480315
 10
10.22769291338583
 20
-3.831129921259842
 10
10.23094094488189
 20
-3.832145669291338
 10
10.23403937007874
 20
-3.833448818897638
 10
10.23698818897638
 20
-3.835047244094488
 10
10.23978346456693
 20
-3.836933070866142
 10
10.24242519685039
 20
-3.839110236220472
 10
10.24485039370079
 20
-3.841555118110236
 10
10.24702755905512
 20
-3.844267716535433
 10
10.24895669291339
 20
-3.847240157480315
 10
10.25063779527559
 20
-3.850472440944882
 10
10.25206692913386
 20
-3.853968503937008
 10
10.25324803149606
 20
-3.857728346456693
 10
10.25417716535433
 20
-3.861744094488189
 10
10.25485826771654
 20
-3.866023622047244
  0
LWPOLYLINE
  5
6C
330
1F
100
AcDbEntity
  8
Layer 1
 62
     7
370
     9
100
AcDbPolyline
 90
       65
 70
     1
 43
0.0
 10
10.18818897637795
 20
-3.928858267716536
 10
10.1883188976378
 20
-3.932712598425197
 10
10.18870472440945
 20
-3.936366141732283
 10
10.18935433070866
 20
-3.939826771653543
 10
10.19026377952756
 20
-3.943094488188976
 10
10.19142913385827
 20
-3.946165354330708
 10
10.19286220472441
 20
-3.949047244094488
 10
10.19455511811024
 20
-3.951736220472441
 10
10.19650787401575
 20
-3.954232283464567
 10
10.19861811023622
 20
-3.956484251968504
 10
10.20081102362205
 20
-3.958437007874016
 10
10.20309448818898
 20
-3.960086614173228
 10
10.20546062992126
 20
-3.961433070866142
 10
10.20791338582677
 20
-3.96248031496063
 10
10.21044881889764
 20
-3.963228346456693
 10
10.21307086614173
 20
-3.963677165354331
 10
10.21577952755906
 20
-3.963826771653543
 10
10.21815354330709
 20
-3.963685039370079
 10
10.22046062992126
 20
-3.963259842519685
 10
10.22270078740157
 20
-3.962555118110236
 10
10.22488188976378
 20
-3.961562992125984
 10
10.22699606299213
 20
-3.960291338582677
 10
10.22905118110236
 20
-3.958736220472441
 10
10.23104330708661
 20
-3.956897637795275
 10
10.23297637795276
 20
-3.954775590551181
 10
10.23475590551181
 20
-3.952409448818897
 10
10.23629921259842
 20
-3.949830708661417
 10
10.23760236220472
 20
-3.947047244094488
 10
10.23866929133858
 20
-3.944051181102362
 10
10.2395
 20
-3.940842519685039
 10
10.24009448818898
 20
-3.93742125984252
 10
10.24044881889764
 20
-3.933791338582677
 10
10.24056692913386
 20
-3.929944881889764
 10
10.24044881889764
 20
-3.926173228346457
 10
10.24009842519685
 20
-3.922622047244094
 10
10.2395157480315
 20
-3.919283464566929
 10
10.23869291338583
 20
-3.916165354330709
 10
10.23763779527559
 20
-3.913263779527559
 10
10.23634645669291
 20
-3.91057874015748
 10
10.2348188976378
 20
-3.908114173228347
 10
10.23305118110236
 20
-3.905866141732283
 10
10.23111417322835
 20
-3.903866141732284
 10
10.22907480314961
 20
-3.902133858267717
 10
10.22692913385827
 20
-3.900669291338583
 10
10.2246811023622
 20
-3.899468503937008
 10
10.22233070866142
 20
-3.898535433070866
 10
10.21987401574803
 20
-3.897870078740158
 10
10.21731496062992
 20
-3.897472440944882
 10
10.21464960629921
 20
-3.897338582677165
 10
10.21203937007874
 20
-3.897472440944882
 10
10.20951181102362
 20
-3.897870078740158
 10
10.20706692913386
 20
-3.898535433070866
 10
10.20470866141732
 20
-3.899464566929134
 10
10.20243307086614
 20
-3.900661417322834
 10
10.20024409448819
 20
-3.902122047244094
 10
10.19814173228346
 20
-3.903846456692913
 10
10.19612992125984
 20
-3.905834645669291
 10
10.19426771653543
 20
-3.908051181102362
 10
10.19265354330709
 20
-3.91046062992126
 10
10.19129133858268
 20
-3.913055118110236
 10
10.19017322834646
 20
-3.915834645669291
 10
10.18930708661417
 20
-3.918807086614173
 10
10.18868503937008
 20
-3.921968503937008
 10
10.18831496062992
 20
-3.925318897637795
 10
10.18818897637795
 20
-3.928858267716536
  0
LWPOLYLINE
  5
6D
330
1F
100
AcDbEntity
  8
Layer 1
 62
     7
370
     9
100
AcDbPolyline
 90
       65
 70
     1
 43
0.0
 10
10.2736811023622
 20
-3.904181102362205
 10
10.27385433070866
 20
-3.895307086614173
 10
10.27437007874016
 20
-3.886988188976378
 10
10.27522834645669
 20
-3.879220472440945
 10
10.27643307086614
 20
-3.872007874015748
 10
10.27798031496063
 20
-3.865346456692913
 10
10.27987007874016
 20
-3.859244094488189
 10
10.2821062992126
 20
-3.853692913385827
 10
10.28468503937008
 20
-3.848700787401575
 10
10.28759842519685
 20
-3.844279527559055
 10
10.29083858267717
 20
-3.840448818897638
 10
10.29440157480315
 20
-3.837204724409449
 10
10.29829133858268
 20
-3.834547244094488
 10
10.30250787401575
 20
-3.83248031496063
 10
10.30705118110236
 20
-3.831003937007874
 10
10.31192125984252
 20
-3.83011811023622
 10
10.31711811023622
 20
-3.829822834645669
 10
10.32174015748032
 20
-3.830062992125984
 10
10.32611023622047
 20
-3.830775590551181
 10
10.33022834645669
 20
-3.831968503937008
 10
10.33409448818898
 20
-3.833641732283465
 10
10.33770866141732
 20
-3.835791338582677
 10
10.34107480314961
 20
-3.838417322834646
 10
10.34418503937008
 20
-3.841523622047244
 10
10.34704330708662
 20
-3.845110236220473
 10
10.35015354330709
 20
-3.850082677165354
 10
10.35285039370079
 20
-3.855740157480315
 10
10.35512992125984
 20
-3.862090551181102
 10
10.357
 20
-3.869129921259843
 10
10.35844881889764
 20
-3.876862204724409
 10
10.3594842519685
 20
-3.885279527559055
 10
10.3601062992126
 20
-3.894385826771654
 10
10.36031496062992
 20
-3.904181102362205
 10
10.36014566929134
 20
-3.91301968503937
 10
10.35963385826772
 20
-3.921311023622047
 10
10.35878346456693
 20
-3.929055118110236
 10
10.35758661417323
 20
-3.936251968503937
 10
10.35605118110236
 20
-3.94290157480315
 10
10.35417322834646
 20
-3.949
 10
10.35195275590551
 20
-3.954551181102362
 10
10.34938582677165
 20
-3.959551181102362
 10
10.3464842519685
 20
-3.963984251968504
 10
10.34325196850394
 20
-3.967826771653543
 10
10.33968503937008
 20
-3.971078740157481
 10
10.3357874015748
 20
-3.973740157480315
 10
10.33155905511811
 20
-3.975807086614173
 10
10.327
 20
-3.977283464566929
 10
10.32211023622047
 20
-3.978169291338583
 10
10.31688976377953
 20
-3.978464566929134
 10
10.31225196850394
 20
-3.978204724409449
 10
10.30782677165354
 20
-3.977425196850394
 10
10.30361811023622
 20
-3.976122047244095
 10
10.29962204724409
 20
-3.974299212598425
 10
10.29584251968504
 20
-3.971956692913386
 10
10.29227559055118
 20
-3.969090551181103
 10
10.28891732283465
 20
-3.965704724409449
 10
10.28577559055118
 20
-3.961799212598425
 10
10.28294488188976
 20
-3.957251968503937
 10
10.28048818897638
 20
-3.951944881889764
 10
10.2784094488189
 20
-3.945877952755906
 10
10.27670866141732
 20
-3.939055118110236
 10
10.27538582677165
 20
-3.931472440944882
 10
10.27443700787402
 20
-3.923133858267716
 10
10.27387007874016
 20
-3.914035433070866
 10
10.2736811023622
 20
-3.904181102362205
  0
LWPOLYLINE
  5
6E
330
1F
100
AcDbEntity
  8
Layer 1
 62
     7
370
     9
100
AcDbPolyline
 90
       65
 70
     1
 43
0.0
 10
10.29046456692913
 20
-3.904145669291339
 10
10.29058267716535
 20
-3.912649606299213
 10
10.29094094488189
 20
-3.920429133858268
 10
10.29153149606299
 20
-3.927476377952756
 10
10.29236220472441
 20
-3.933791338582677
 10
10.29342519685039
 20
-3.939377952755906
 10
10.29472440944882
 20
-3.944228346456693
 10
10.29625984251969
 20
-3.948346456692913
 10
10.29802755905512
 20
-3.951728346456693
 10
10.29998031496063
 20
-3.954562992125984
 10
10.30206692913386
 20
-3.95701968503937
 10
10.3042874015748
 20
-3.95909842519685
 10
10.30664173228346
 20
-3.960803149606299
 10
10.30912598425197
 20
-3.962125984251969
 10
10.31174803149606
 20
-3.963070866141732
 10
10.3145
 20
-3.963637795275591
 10
10.31738582677165
 20
-3.963826771653543
 10
10.32011811023622
 20
-3.963637795275591
 10
10.32273622047244
 20
-3.963062992125984
 10
10.32523622047244
 20
-3.962110236220473
 10
10.32762598425197
 20
-3.960771653543307
 10
10.32989763779528
 20
-3.959051181102362
 10
10.33205905511811
 20
-3.956948818897638
 10
10.33411023622047
 20
-3.954464566929134
 10
10.33605118110236
 20
-3.95159842519685
 10
10.3378031496063
 20
-3.948173228346457
 10
10.33932283464567
 20
-3.944035433070866
 10
10.3406062992126
 20
-3.939181102362205
 10
10.34165748031496
 20
-3.933614173228346
 10
10.34247637795276
 20
-3.927322834645669
 10
10.34306299212598
 20
-3.920318897637795
 10
10.34341338582677
 20
-3.912590551181102
 10
10.34353149606299
 20
-3.904145669291339
 10
10.34341338582677
 20
-3.895610236220473
 10
10.34305511811024
 20
-3.887811023622047
 10
10.34246456692913
 20
-3.880751968503937
 10
10.34163385826772
 20
-3.874429133858268
 10
10.34057086614173
 20
-3.868842519685039
 10
10.33927165354331
 20
-3.863996062992126
 10
10.33773622047244
 20
-3.85988188976378
 10
10.33596850393701
 20
-3.8565
 10
10.33401181102362
 20
-3.853673228346457
 10
10.33191732283465
 20
-3.851228346456693
 10
10.3296811023622
 20
-3.849161417322835
 10
10.32730708661417
 20
-3.847468503937008
 10
10.32479133858268
 20
-3.846157480314961
 10
10.32213385826772
 20
-3.845216535433071
 10
10.31933858267717
 20
-3.84465748031496
 10
10.31640157480315
 20
-3.844468503937008
 10
10.31369291338583
 20
-3.84465748031496
 10
10.31109842519685
 20
-3.845232283464567
 10
10.30861811023622
 20
-3.846185039370079
 10
10.30625196850394
 20
-3.847523622047244
 10
10.30399606299213
 20
-3.849244094488189
 10
10.30185433070866
 20
-3.851346456692913
 10
10.29983070866142
 20
-3.853834645669291
 10
10.29791732283465
 20
-3.856704724409449
 10
10.29617322834646
 20
-3.860125984251968
 10
10.29466535433071
 20
-3.864259842519685
 10
10.29338188976378
 20
-3.869110236220473
 10
10.29233464566929
 20
-3.874681102362205
 10
10.2915157480315
 20
-3.880968503937008
 10
10.29093307086614
 20
-3.887972440944882
 10
10.29058267716535
 20
-3.895696850393701
 10
10.29046456692913
 20
-3.904145669291339
  0
LWPOLYLINE
  5
6F
330
1F
100
AcDbEntity
  8
Layer 1
 62
     7
370
     9
100
AcDbPolyline
 90
       65
 70
     1
 43
0.0
 10
10.37709842519685
 20
-3.904181102362205
 10
10.37727165354331
 20
-3.895307086614173
 10
10.3777874015748
 20
-3.886988188976378
 10
10.37864566929134
 20
-3.879220472440945
 10
10.37984645669291
 20
-3.872007874015748
 10
10.3813937007874
 20
-3.865346456692913
 10
10.38328346456693
 20
-3.859244094488189
 10
10.38551968503937
 20
-3.853692913385827
 10
10.38809842519685
 20
-3.848700787401575
 10
10.39101181102362
 20
-3.844279527559055
 10
10.39425196850394
 20
-3.840448818897638
 10
10.39781496062992
 20
-3.837204724409449
 10
10.40170472440945
 20
-3.834547244094488
 10
10.40592125984252
 20
-3.83248031496063
 10
10.41046456692913
 20
-3.831003937007874
 10
10.41533464566929
 20
-3.83011811023622
 10
10.42053149606299
 20
-3.829822834645669
 10
10.42515354330709
 20
-3.830062992125984
 10
10.42952755905512
 20
-3.830775590551181
 10
10.43364566929134
 20
-3.831968503937008
 10
10.43751181102362
 20
-3.833641732283465
 10
10.44112598425197
 20
-3.835791338582677
 10
10.44448818897638
 20
-3.838417322834646
 10
10.44759842519685
 20
-3.841523622047244
 10
10.45045669291339
 20
-3.845110236220473
 10
10.45356692913386
 20
-3.850082677165354
 10
10.45626377952756
 20
-3.855740157480315
 10
10.45854330708661
 20
-3.862090551181102
 10
10.46041338582677
 20
-3.869129921259843
 10
10.46186220472441
 20
-3.876862204724409
 10
10.46289763779528
 20
-3.885279527559055
 10
10.46351968503937
 20
-3.894385826771654
 10
10.46372834645669
 20
-3.904181102362205
 10
10.46355905511811
 20
-3.91301968503937
 10
10.46304724409449
 20
-3.921311023622047
 10
10.4621968503937
 20
-3.929055118110236
 10
10.461
 20
-3.936251968503937
 10
10.45946456692913
 20
-3.94290157480315
 10
10.45758661417323
 20
-3.949
 10
10.45536614173228
 20
-3.954551181102362
 10
10.4528031496063
 20
-3.959551181102362
 10
10.44990157480315
 20
-3.963984251968504
 10
10.44666929133858
 20
-3.967826771653543
 10
10.44310236220472
 20
-3.971078740157481
 10
10.43920472440945
 20
-3.973740157480315
 10
10.43497637795276
 20
-3.975807086614173
 10
10.43041732283465
 20
-3.977283464566929
 10
10.42552362204724
 20
-3.978169291338583
 10
10.4203031496063
 20
-3.978464566929134
 10
10.41566535433071
 20
-3.978204724409449
 10
10.41124015748031
 20
-3.977425196850394
 10
10.40703149606299
 20
-3.976122047244095
 10
10.40303937007874
 20
-3.974299212598425
 10
10.39925590551181
 20
-3.971956692913386
 10
10.39568897637795
 20
-3.969090551181103
 10
10.39233464566929
 20
-3.965704724409449
 10
10.38919291338583
 20
-3.961799212598425
 10
10.38636220472441
 20
-3.957251968503937
 10
10.38390551181102
 20
-3.951944881889764
 10
10.38182677165354
 20
-3.945877952755906
 10
10.38012598425197
 20
-3.939055118110236
 10
10.3788031496063
 20
-3.931472440944882
 10
10.37785433070866
 20
-3.923133858267716
 10
10.3772874015748
 20
-3.914035433070866
 10
10.37709842519685
 20
-3.904181102362205
  0
LWPOLYLINE
  5
70
330
1F
100
AcDbEntity
  8
Layer 1
 62
     7
370
     9
100
AcDbPolyline
 90
       65
 70
     1
 43
0.0
 10
10.39387795275591
 20
-3.904145669291339
 10
10.39399606299213
 20
-3.912649606299213
 10
10.39435433070866
 20
-3.920429133858268
 10
10.39494488188976
 20
-3.927476377952756
 10
10.39577559055118
 20
-3.933791338582677
 10
10.39684251968504
 20
-3.939377952755906
 10
10.39814173228346
 20
-3.944228346456693
 10
10.39967716535433
 20
-3.948346456692913
 10
10.40144488188976
 20
-3.951728346456693
 10
10.40339763779528
 20
-3.954562992125984
 10
10.4054842519685
 20
-3.95701968503937
 10
10.40770472440945
 20
-3.95909842519685
 10
10.41005905511811
 20
-3.960803149606299
 10
10.41254330708661
 20
-3.962125984251969
 10
10.41516535433071
 20
-3.963070866141732
 10
10.41791338582677
 20
-3.963637795275591
 10
10.42079921259842
 20
-3.963826771653543
 10
10.42353149606299
 20
-3.963637795275591
 10
10.42614960629921
 20
-3.963062992125984
 10
10.42865354330709
 20
-3.962110236220473
 10
10.43104330708661
 20
-3.960771653543307
 10
10.4333188976378
 20
-3.959051181102362
 10
10.43548031496063
 20
-3.956948818897638
 10
10.43752755905512
 20
-3.954464566929134
 10
10.43946456692913
 20
-3.95159842519685
 10
10.44121653543307
 20
-3.948173228346457
 10
10.44273622047244
 20
-3.944035433070866
 10
10.44402362204724
 20
-3.939181102362205
 10
10.44507480314961
 20
-3.933614173228346
 10
10.4458937007874
 20
-3.927322834645669
 10
10.44648031496063
 20
-3.920318897637795
 10
10.44683070866142
 20
-3.912590551181102
 10
10.44694881889764
 20
-3.904145669291339
 10
10.44683070866142
 20
-3.895610236220473
 10
10.44647244094488
 20
-3.887811023622047
 10
10.44588188976378
 20
-3.880751968503937
 10
10.44505118110236
 20
-3.874429133858268
 10
10.4439842519685
 20
-3.868842519685039
 10
10.44268503937008
 20
-3.863996062992126
 10
10.44114960629921
 20
-3.85988188976378
 10
10.43938188976378
 20
-3.8565
 10
10.43742913385827
 20
-3.853673228346457
 10
10.43533464566929
 20
-3.851228346456693
 10
10.43309842519685
 20
-3.849161417322835
 10
10.43072440944882
 20
-3.847468503937008
 10
10.42820472440945
 20
-3.846157480314961
 10
10.42554724409449
 20
-3.845216535433071
 10
10.42275196850394
 20
-3.84465748031496
 10
10.41981496062992
 20
-3.844468503937008
 10
10.4171062992126
 20
-3.84465748031496
 10
10.41451181102362
 20
-3.845232283464567
 10
10.41203149606299
 20
-3.846185039370079
 10
10.40966535433071
 20
-3.847523622047244
 10
10.40741338582677
 20
-3.849244094488189
 10
10.40527165354331
 20
-3.851346456692913
 10
10.40324803149606
 20
-3.853834645669291
 10
10.40133464566929
 20
-3.856704724409449
 10
10.3995905511811
 20
-3.860125984251968
 10
10.39807874015748
 20
-3.864259842519685
 10
10.39679527559055
 20
-3.869110236220473
 10
10.39574803149606
 20
-3.874681102362205
 10
10.39492913385827
 20
-3.880968503937008
 10
10.39434645669291
 20
-3.887972440944882
 10
10.39399606299213
 20
-3.895696850393701
 10
10.39387795275591
 20
-3.904145669291339
  0
LWPOLYLINE
  5
71
330
1F
100
AcDbEntity
  8
Layer 1
 62
     7
370
     9
100
AcDbPolyline
 90
      106
 70
     1
 43
0.0
 10
10.48505118110236
 20
-3.976027559055118
 10
10.48505118110236
 20
-3.870496062992126
 10
10.49979527559055
 20
-3.870496062992126
 10
10.49979527559055
 20
-3.885405511811024
 10
10.50239763779528
 20
-3.881523622047244
 10
10.50533464566929
 20
-3.87811811023622
 10
10.5086062992126
 20
-3.875185039370079
 10
10.51222834645669
 20
-3.872728346456693
 10
10.51613385826772
 20
-3.870771653543307
 10
10.5202125984252
 20
-3.869374015748031
 10
10.52446456692913
 20
-3.868535433070866
 10
10.52890157480315
 20
-3.868255905511811
 10
10.53377559055118
 20
-3.868547244094488
 10
10.53825590551181
 20
-3.869429133858268
 10
10.54233858267717
 20
-3.870897637795276
 10
10.54602362204724
 20
-3.872964566929134
 10
10.54925984251969
 20
-3.87557874015748
 10
10.552
 20
-3.878736220472441
 10
10.55424409448819
 20
-3.882444881889764
 10
10.55599606299213
 20
-3.886700787401575
 10
10.55899212598425
 20
-3.88238188976378
 10
10.56220078740157
 20
-3.878637795275591
 10
10.56562204724409
 20
-3.875468503937008
 10
10.56925984251968
 20
-3.872866141732283
 10
10.57310236220472
 20
-3.87084251968504
 10
10.57714173228347
 20
-3.869405511811024
 10
10.58138188976378
 20
-3.868543307086614
 10
10.58581889763779
 20
-3.868255905511811
 10
10.5891968503937
 20
-3.868389763779528
 10
10.5923937007874
 20
-3.868783464566929
 10
10.59540551181102
 20
-3.869444881889764
 10
10.59823228346457
 20
-3.870366141732283
 10
10.6008779527559
 20
-3.871555118110236
 10
10.60333858267717
 20
-3.873003937007874
 10
10.60561417322835
 20
-3.874720472440945
 10
10.60770472440945
 20
-3.876696850393701
 10
10.60957874015748
 20
-3.878964566929134
 10
10.61120078740158
 20
-3.881543307086614
 10
10.61257086614173
 20
-3.88444094488189
 10
10.61369291338583
 20
-3.887653543307087
 10
10.61456299212598
 20
-3.891185039370079
 10
10.61518503937008
 20
-3.895027559055118
 10
10.61555511811024
 20
-3.899188976377953
 10
10.6156811023622
 20
-3.903669291338583
 10
10.6156811023622
 20
-3.976027559055118
 10
10.59935039370079
 20
-3.976027559055118
 10
10.59935039370079
 20
-3.909606299212598
 10
10.59923622047244
 20
-3.904370078740158
 10
10.59889763779528
 20
-3.899948818897638
 10
10.59833070866142
 20
-3.896346456692914
 10
10.59753937007874
 20
-3.893566929133858
 10
10.59646456692913
 20
-3.891358267716535
 10
10.59512204724409
 20
-3.889409448818898
 10
10.5935
 20
-3.887716535433071
 10
10.59160236220472
 20
-3.886287401574803
 10
10.58947637795276
 20
-3.885153543307087
 10
10.58723228346457
 20
-3.884350393700787
 10
10.58486614173228
 20
-3.883870078740157
 10
10.58237401574803
 20
-3.883712598425197
 10
10.57979921259843
 20
-3.883830708661417
 10
10.57734645669291
 20
-3.884181102362205
 10
10.57501968503937
 20
-3.884767716535433
 10
10.57281102362205
 20
-3.885590551181102
 10
10.57072440944882
 20
-3.886645669291338
 10
10.56875590551181
 20
-3.887933070866142
 10
10.56690551181102
 20
-3.889452755905512
 10
10.56517716535433
 20
-3.891204724409449
 10
10.5636220472441
 20
-3.893216535433071
 10
10.56227165354331
 20
-3.895492125984252
 10
10.56112992125984
 20
-3.898035433070866
 10
10.56019291338583
 20
-3.900846456692913
 10
10.55946456692913
 20
-3.903921259842519
 10
10.55894094488189
 20
-3.907271653543307
 10
10.55862992125984
 20
-3.910889763779528
 10
10.55852362204724
 20
-3.914783464566929
 10
10.55852362204724
 20
-3.976027559055118
 10
10.54220078740157
 20
-3.976027559055118
 10
10.54220078740157
 20
-3.90753937007874
 10
10.54192519685039
 20
-3.901468503937008
 10
10.54109448818898
 20
-3.896370078740158
 10
10.54046850393701
 20
-3.894181102362205
 10
10.53970078740157
 20
-3.892236220472441
 10
10.53879527559055
 20
-3.890527559055118
 10
10.53774409448819
 20
-3.889062992125984
 10
10.53529133858268
 20
-3.886732283464567
 10
10.53241732283464
 20
-3.88505905511811
 10
10.52912598425197
 20
-3.884051181102362
 10
10.52541732283465
 20
-3.883712598425197
 10
10.5227125984252
 20
-3.883838582677166
 10
10.52015354330709
 20
-3.884220472440945
 10
10.51774015748031
 20
-3.884854330708662
 10
10.51547244094488
 20
-3.885744094488189
 10
10.51334645669291
 20
-3.886881889763779
 10
10.51137007874016
 20
-3.888275590551181
 10
10.50953543307087
 20
-3.889917322834646
 10
10.50784645669291
 20
-3.891811023622047
 10
10.50633070866142
 20
-3.894043307086614
 10
10.50501968503937
 20
-3.896688976377953
 10
10.5039094488189
 20
-3.899751968503937
 10
10.503
 20
-3.903228346456693
 10
10.50229527559055
 20
-3.907125984251969
 10
10.5017874015748
 20
-3.91144094488189
 10
10.50148818897638
 20
-3.916177165354331
 10
10.50138582677165
 20
-3.921330708661417
 10
10.50138582677165
 20
-3.976027559055118
 10
10.48505118110236
 20
-3.976027559055118
  0
LWPOLYLINE
  5
72
330
1F
100
AcDbEntity
  8
Layer 1
 62
     7
370
     9
100
AcDbPolyline
 90
      106
 70
     1
 43
0.0
 10
10.63999212598425
 20
-3.976027559055118
 10
10.63999212598425
 20
-3.870496062992126
 10
10.65473228346457
 20
-3.870496062992126
 10
10.65473228346457
 20
-3.885405511811024
 10
10.65733070866142
 20
-3.881523622047244
 10
10.66026377952756
 20
-3.87811811023622
 10
10.66353543307087
 20
-3.875185039370079
 10
10.66715748031496
 20
-3.872728346456693
 10
10.67106299212598
 20
-3.870771653543307
 10
10.67514173228346
 20
-3.869374015748031
 10
10.6793937007874
 20
-3.868535433070866
 10
10.68383070866142
 20
-3.868255905511811
 10
10.68870472440945
 20
-3.868547244094488
 10
10.69318503937008
 20
-3.869429133858268
 10
10.69726771653543
 20
-3.870897637795276
 10
10.70095275590551
 20
-3.872964566929134
 10
10.70419291338583
 20
-3.87557874015748
 10
10.70693700787402
 20
-3.878736220472441
 10
10.70918503937008
 20
-3.882444881889764
 10
10.71093307086614
 20
-3.886700787401575
 10
10.71392913385827
 20
-3.88238188976378
 10
10.71713779527559
 20
-3.878637795275591
 10
10.72055905511811
 20
-3.875468503937008
 10
10.7241968503937
 20
-3.872866141732283
 10
10.72803937007874
 20
-3.87084251968504
 10
10.73208267716536
 20
-3.869405511811024
 10
10.73632283464567
 20
-3.868543307086614
 10
10.74075984251968
 20
-3.868255905511811
 10
10.74413779527559
 20
-3.868389763779528
 10
10.74733464566929
 20
-3.868783464566929
 10
10.75034645669291
 20
-3.869444881889764
 10
10.75317322834646
 20
-3.870366141732283
 10
10.75581496062992
 20
-3.871555118110236
 10
10.75827559055118
 20
-3.873003937007874
 10
10.76055118110236
 20
-3.874720472440945
 10
10.76264173228346
 20
-3.876696850393701
 10
10.76451181102362
 20
-3.878964566929134
 10
10.76613385826772
 20
-3.881543307086614
 10
10.76750393700787
 20
-3.88444094488189
 10
10.76862204724409
 20
-3.887653543307087
 10
10.76949212598425
 20
-3.891185039370079
 10
10.77011417322835
 20
-3.895027559055118
 10
10.7704842519685
 20
-3.899188976377953
 10
10.77061023622047
 20
-3.903669291338583
 10
10.77061023622047
 20
-3.976027559055118
 10
10.7542874015748
 20
-3.976027559055118
 10
10.7542874015748
 20
-3.909606299212598
 10
10.75417322834646
 20
-3.904370078740158
 10
10.75383464566929
 20
-3.899948818897638
 10
10.75326771653543
 20
-3.896346456692914
 10
10.75247637795276
 20
-3.893566929133858
 10
10.75140551181102
 20
-3.891358267716535
 10
10.75005905511811
 20
-3.889409448818898
 10
10.74844094488189
 20
-3.887716535433071
 10
10.74653937007874
 20
-3.886287401574803
 10
10.74441338582677
 20
-3.885153543307087
 10
10.74216929133858
 20
-3.884350393700787
 10
10.7398031496063
 20
-3.883870078740157
 10
10.73731102362205
 20
-3.883712598425197
 10
10.73473622047244
 20
-3.883830708661417
 10
10.7322874015748
 20
-3.884181102362205
 10
10.72995669291338
 20
-3.884767716535433
 10
10.72775196850394
 20
-3.885590551181102
 10
10.72566535433071
 20
-3.886645669291338
 10
10.7236968503937
 20
-3.887933070866142
 10
10.72184645669291
 20
-3.889452755905512
 10
10.72011811023622
 20
-3.891204724409449
 10
10.71856299212598
 20
-3.893216535433071
 10
10.7172125984252
 20
-3.895492125984252
 10
10.71606692913386
 20
-3.898035433070866
 10
10.71512992125984
 20
-3.900846456692913
 10
10.71440157480315
 20
-3.903921259842519
 10
10.71387795275591
 20
-3.907271653543307
 10
10.71356692913386
 20
-3.910889763779528
 10
10.71346062992126
 20
-3.914783464566929
 10
10.71346062992126
 20
-3.976027559055118
 10
10.69712992125984
 20
-3.976027559055118
 10
10.69712992125984
 20
-3.90753937007874
 10
10.69685433070866
 20
-3.901468503937008
 10
10.69602362204724
 20
-3.896370078740158
 10
10.69539763779528
 20
-3.894181102362205
 10
10.69462992125984
 20
-3.892236220472441
 10
10.69372440944882
 20
-3.890527559055118
 10
10.69267322834646
 20
-3.889062992125984
 10
10.69022047244095
 20
-3.886732283464567
 10
10.68734645669291
 20
-3.88505905511811
 10
10.68405511811024
 20
-3.884051181102362
 10
10.68034645669291
 20
-3.883712598425197
 10
10.67764173228347
 20
-3.883838582677166
 10
10.67508267716535
 20
-3.884220472440945
 10
10.67266929133858
 20
-3.884854330708662
 10
10.67040157480315
 20
-3.885744094488189
 10
10.66827559055118
 20
-3.886881889763779
 10
10.66629921259842
 20
-3.888275590551181
 10
10.66446456692913
 20
-3.889917322834646
 10
10.66277559055118
 20
-3.891811023622047
 10
10.66125984251969
 20
-3.894043307086614
 10
10.65994881889764
 20
-3.896688976377953
 10
10.65883858267716
 20
-3.899751968503937
 10
10.65792913385827
 20
-3.903228346456693
 10
10.65722440944882
 20
-3.907125984251969
 10
10.65671653543307
 20
-3.91144094488189
 10
10.65641732283465
 20
-3.916177165354331
 10
10.65631496062992
 20
-3.921330708661417
 10
10.65631496062992
 20
-3.976027559055118
 10
10.63999212598425
 20
-3.976027559055118
  0
LWPOLYLINE
  5
73
330
1F
100
AcDbEntity
  8
Layer 1
 62
     7
370
    18
100
AcDbPolyline
 90
        4
 70
     1
 43
0.0
 10
6.589874015748031
 20
-4.837763779527559
 10
6.62044094488189
 20
-4.840188976377953
 10
6.606125984251968
 20
-4.813074803149607
 10
6.589874015748031
 20
-4.837763779527559
  0
LWPOLYLINE
  5
74
330
1F
100
AcDbEntity
  8
Layer 1
 62
     7
370
    18
100
AcDbPolyline
 90
        4
 70
     1
 43
0.0
 10
5.426799212598425
 20
-4.0723031496063
 10
5.412484251968504
 20
-4.045188976377953
 10
5.443051181102362
 20
-4.047610236220472
 10
5.426799212598425
 20
-4.0723031496063
  0
LWPOLYLINE
  5
75
330
1F
100
AcDbEntity
  8
Layer 1
 62
     7
370
    18
100
AcDbPolyline
 90
        2
 70
     0
 43
0.0
 10
6.628791338582677
 20
-4.843799212598425
 10
5.405870078740158
 20
-4.038948818897638
  0
LWPOLYLINE
  5
76
330
1F
100
AcDbEntity
  8
Layer 1
 62
     7
370
     9
100
AcDbPolyline
 90
      113
 70
     1
 43
0.0
 10
5.432944881889764
 20
-4.679358267716536
 10
5.428464566929134
 20
-4.67715748031496
 10
5.424570866141733
 20
-4.674527559055118
 10
5.421263779527559
 20
-4.671468503937008
 10
5.418543307086614
 20
-4.667972440944882
 10
5.416397637795275
 20
-4.664051181102362
 10
5.414870078740157
 20
-4.659669291338583
 10
5.413956692913386
 20
-4.654830708661417
 10
5.413653543307086
 20
-4.64953937007874
 10
5.413818897637795
 20
-4.645492125984252
 10
5.414314960629921
 20
-4.641633858267716
 10
5.415137795275591
 20
-4.637968503937008
 10
5.416291338582677
 20
-4.634492125984252
 10
5.417775590551181
 20
-4.631212598425197
 10
5.419586614173229
 20
-4.628122047244094
 10
5.421728346456693
 20
-4.625224409448819
 10
5.424196850393701
 20
-4.622523622047244
 10
5.426929133858268
 20
-4.620082677165354
 10
5.429826771653543
 20
-4.617964566929134
 10
5.432897637795276
 20
-4.616169291338583
 10
5.436133858267716
 20
-4.614700787401575
 10
5.43953937007874
 20
-4.613555118110236
 10
5.443114173228347
 20
-4.612736220472441
 10
5.446858267716536
 20
-4.612248031496063
 10
5.450771653543307
 20
-4.612082677165354
 10
5.454692913385827
 20
-4.612248031496063
 10
5.458452755905512
 20
-4.612751968503937
 10
5.462047244094488
 20
-4.613582677165354
 10
5.465472440944882
 20
-4.614751968503937
 10
5.468736220472441
 20
-4.616248031496063
 10
5.471830708661417
 20
-4.61807874015748
 10
5.474755905511811
 20
-4.620240157480315
 10
5.477515748031496
 20
-4.622728346456693
 10
5.480007874015748
 20
-4.62548031496063
 10
5.482169291338582
 20
-4.628429133858268
 10
5.484
 20
-4.631566929133858
 10
5.4855
 20
-4.634901574803149
 10
5.486665354330708
 20
-4.638425196850394
 10
5.487496062992126
 20
-4.642141732283465
 10
5.488
 20
-4.646047244094488
 10
5.488165354330708
 20
-4.650145669291339
 10
5.487870078740158
 20
-4.655204724409449
 10
5.486984251968504
 20
-4.659858267716535
 10
5.485503937007874
 20
-4.664114173228347
 10
5.483429133858268
 20
-4.667972440944882
 10
5.480755905511811
 20
-4.671429133858267
 10
5.477468503937008
 20
-4.674476377952756
 10
5.473574803149607
 20
-4.67711811023622
 10
5.469062992125984
 20
-4.679358267716536
 10
5.471925196850393
 20
-4.680507874015748
 10
5.474614173228346
 20
-4.681818897637795
 10
5.477133858267717
 20
-4.683295275590551
 10
5.479476377952756
 20
-4.684933070866141
 10
5.481649606299213
 20
-4.686740157480315
 10
5.483653543307087
 20
-4.688708661417323
 10
5.48548031496063
 20
-4.690846456692913
 10
5.487137795275591
 20
-4.693153543307087
 10
5.488622047244094
 20
-4.695602362204724
 10
5.489909448818898
 20
-4.698192913385827
 10
5.490996062992126
 20
-4.700933070866141
 10
5.491885826771654
 20
-4.703818897637795
 10
5.49257874015748
 20
-4.706842519685039
 10
5.493070866141732
 20
-4.710011811023622
 10
5.493366141732284
 20
-4.71332283464567
 10
5.493464566929134
 20
-4.716775590551181
 10
5.493271653543307
 20
-4.721515748031496
 10
5.492700787401575
 20
-4.726035433070866
 10
5.491744094488189
 20
-4.730334645669291
 10
5.490409448818897
 20
-4.734405511811024
 10
5.488688976377952
 20
-4.738255905511811
 10
5.486594488188977
 20
-4.741881889763779
 10
5.484118110236221
 20
-4.74528346456693
 10
5.481259842519685
 20
-4.748456692913386
 10
5.478122047244095
 20
-4.751330708661417
 10
5.474799212598425
 20
-4.753818897637795
 10
5.471291338582677
 20
-4.755929133858268
 10
5.467598425196851
 20
-4.757653543307087
 10
5.463724409448819
 20
-4.758996062992126
 10
5.459673228346457
 20
-4.759956692913386
 10
5.455437007874016
 20
-4.760531496062992
 10
5.451023622047244
 20
-4.760724409448819
 10
5.446555118110236
 20
-4.760531496062992
 10
5.442275590551181
 20
-4.759956692913386
 10
5.438181102362205
 20
-4.758996062992126
 10
5.434279527559055
 20
-4.757653543307087
 10
5.430562992125984
 20
-4.755929133858268
 10
5.42703937007874
 20
-4.753818897637795
 10
5.423704724409449
 20
-4.751330708661417
 10
5.420562992125984
 20
-4.748456692913386
 10
5.417704724409449
 20
-4.745275590551181
 10
5.415228346456693
 20
-4.741854330708661
 10
5.413133858267717
 20
-4.738192913385827
 10
5.411413385826772
 20
-4.734291338582677
 10
5.410078740157481
 20
-4.730149606299213
 10
5.409122047244095
 20
-4.725763779527559
 10
5.408551181102363
 20
-4.721133858267716
 10
5.408358267716536
 20
-4.716263779527559
 10
5.40846062992126
 20
-4.712696850393701
 10
5.408763779527559
 20
-4.709287401574803
 10
5.409275590551181
 20
-4.70603937007874
 10
5.409988188976378
 20
-4.702948818897638
 10
5.410909448818898
 20
-4.70001968503937
 10
5.412031496062992
 20
-4.697255905511811
 10
5.413362204724409
 20
-4.694649606299213
 10
5.414897637795276
 20
-4.692204724409449
 10
5.416606299212599
 20
-4.689933070866141
 10
5.418468503937008
 20
-4.687850393700788
 10
5.420492125984252
 20
-4.68596062992126
 10
5.422669291338583
 20
-4.684255905511811
 10
5.425003937007874
 20
-4.682744094488189
 10
5.427496062992126
 20
-4.681425196850394
 10
5.430141732283465
 20
-4.680295275590551
 10
5.432944881889764
 20
-4.679358267716536
  0
LWPOLYLINE
  5
77
330
1F
100
AcDbEntity
  8
Layer 1
 62
     7
370
     9
100
AcDbPolyline
 90
       65
 70
     1
 43
0.0
 10
5.429972440944882
 20
-4.648996062992126
 10
5.430066929133858
 20
-4.65161811023622
 10
5.430350393700787
 20
-4.654102362204725
 10
5.430826771653543
 20
-4.656444881889763
 10
5.431488188976378
 20
-4.658653543307087
 10
5.432346456692914
 20
-4.660720472440945
 10
5.433393700787401
 20
-4.662653543307087
 10
5.434629921259843
 20
-4.664444881889763
 10
5.436062992125985
 20
-4.666102362204724
 10
5.437625984251969
 20
-4.667594488188977
 10
5.439275590551181
 20
-4.668885826771653
 10
5.441015748031496
 20
-4.669984251968504
 10
5.44284251968504
 20
-4.670877952755905
 10
5.444755905511811
 20
-4.67157874015748
 10
5.446759842519685
 20
-4.672074803149607
 10
5.448846456692913
 20
-4.672377952755905
 10
5.451023622047244
 20
-4.672476377952756
 10
5.453145669291339
 20
-4.672377952755905
 10
5.455185039370079
 20
-4.672082677165355
 10
5.457149606299213
 20
-4.671590551181103
 10
5.459031496062992
 20
-4.670905511811023
 10
5.460834645669292
 20
-4.670023622047244
 10
5.462555118110236
 20
-4.668944881889764
 10
5.464196850393701
 20
-4.667669291338583
 10
5.465755905511811
 20
-4.666200787401575
 10
5.467188976377953
 20
-4.664582677165354
 10
5.468429133858268
 20
-4.662846456692914
 10
5.469476377952756
 20
-4.660992125984252
 10
5.470330708661417
 20
-4.65901968503937
 10
5.470996062992126
 20
-4.656937007874015
 10
5.471472440944882
 20
-4.654740157480315
 10
5.471755905511811
 20
-4.652429133858267
 10
5.471850393700787
 20
-4.650007874015748
 10
5.471751968503937
 20
-4.6475
 10
5.47146062992126
 20
-4.645110236220472
 10
5.470968503937008
 20
-4.642838582677165
 10
5.470287401574804
 20
-4.640685039370079
 10
5.469405511811024
 20
-4.638645669291338
 10
5.468330708661417
 20
-4.636724409448819
 10
5.467062992125984
 20
-4.634921259842519
 10
5.465602362204725
 20
-4.633236220472441
 10
5.463996062992126
 20
-4.631712598425197
 10
5.462322834645669
 20
-4.630389763779528
 10
5.46057874015748
 20
-4.629271653543307
 10
5.458767716535433
 20
-4.628354330708661
 10
5.456881889763779
 20
-4.627641732283465
 10
5.454929133858267
 20
-4.627133858267716
 10
5.45290157480315
 20
-4.626830708661418
 10
5.450807086614173
 20
-4.626728346456693
 10
5.448708661417323
 20
-4.626826771653543
 10
5.446685039370078
 20
-4.627125984251968
 10
5.444736220472441
 20
-4.627625984251969
 10
5.44286220472441
 20
-4.628322834645669
 10
5.441062992125985
 20
-4.629220472440945
 10
5.439338582677165
 20
-4.630314960629922
 10
5.437688976377952
 20
-4.631606299212598
 10
5.436110236220473
 20
-4.633094488188976
 10
5.434673228346456
 20
-4.634736220472441
 10
5.433429133858268
 20
-4.636476377952756
 10
5.432374015748032
 20
-4.638314960629922
 10
5.431511811023622
 20
-4.640255905511811
 10
5.430838582677166
 20
-4.642295275590551
 10
5.430358267716535
 20
-4.644433070866142
 10
5.430066929133858
 20
-4.646665354330708
 10
5.429972440944882
 20
-4.648996062992126
  0
LWPOLYLINE
  5
78
330
1F
100
AcDbEntity
  8
Layer 1
 62
     7
370
     9
100
AcDbPolyline
 90
       65
 70
     1
 43
0.0
 10
5.424673228346457
 20
-4.716295275590551
 10
5.424795275590551
 20
-4.719570866141733
 10
5.425157480314961
 20
-4.722677165354331
 10
5.425759842519685
 20
-4.725622047244094
 10
5.426606299212598
 20
-4.72840157480315
 10
5.4276968503937
 20
-4.73101968503937
 10
5.429031496062992
 20
-4.733472440944882
 10
5.430606299212599
 20
-4.735759842519685
 10
5.432429133858268
 20
-4.737885826771653
 10
5.434421259842519
 20
-4.739803149606299
 10
5.436507874015748
 20
-4.741468503937008
 10
5.438688976377953
 20
-4.742877952755905
 10
5.440968503937007
 20
-4.744031496062992
 10
5.443338582677165
 20
-4.744929133858268
 10
5.445807086614173
 20
-4.745570866141732
 10
5.448370078740157
 20
-4.745956692913386
 10
5.451023622047244
 20
-4.746086614173229
 10
5.453700787401575
 20
-4.745964566929134
 10
5.456271653543307
 20
-4.745590551181103
 10
5.458740157480315
 20
-4.744972440944882
 10
5.461106299212599
 20
-4.744106299212598
 10
5.463370078740158
 20
-4.742992125984252
 10
5.465527559055118
 20
-4.741629921259842
 10
5.467582677165354
 20
-4.74001968503937
 10
5.469535433070866
 20
-4.73815748031496
 10
5.471318897637795
 20
-4.73607874015748
 10
5.472866141732283
 20
-4.733838582677166
 10
5.474173228346457
 20
-4.731429133858268
 10
5.475244094488189
 20
-4.728854330708661
 10
5.47607874015748
 20
-4.726118110236221
 10
5.476673228346456
 20
-4.723212598425197
 10
5.477031496062992
 20
-4.720141732283465
 10
5.477149606299212
 20
-4.716905511811023
 10
5.477027559055118
 20
-4.713633858267716
 10
5.476661417322835
 20
-4.710527559055119
 10
5.476047244094488
 20
-4.707582677165354
 10
5.475192913385826
 20
-4.704807086614173
 10
5.474090551181102
 20
-4.702188976377953
 10
5.472748031496063
 20
-4.699740157480315
 10
5.471157480314961
 20
-4.697448818897638
 10
5.469322834645669
 20
-4.695318897637796
 10
5.467314960629921
 20
-4.69340157480315
 10
5.465212598425197
 20
-4.691736220472441
 10
5.463015748031496
 20
-4.690326771653544
 10
5.460720472440945
 20
-4.689173228346457
 10
5.458330708661418
 20
-4.688275590551181
 10
5.45584251968504
 20
-4.687633858267716
 10
5.453259842519685
 20
-4.687248031496063
 10
5.450582677165355
 20
-4.68711811023622
 10
5.447933070866141
 20
-4.687244094488189
 10
5.445381889763779
 20
-4.687625984251969
 10
5.442933070866141
 20
-4.688263779527559
 10
5.440582677165354
 20
-4.689153543307087
 10
5.438338582677165
 20
-4.690299212598426
 10
5.436192913385827
 20
-4.691696850393701
 10
5.434149606299212
 20
-4.693346456692914
 10
5.432212598425197
 20
-4.695251968503937
 10
5.43044094488189
 20
-4.697362204724409
 10
5.428909448818898
 20
-4.69961811023622
 10
5.427614173228346
 20
-4.702027559055118
 10
5.426555118110236
 20
-4.704582677165354
 10
5.425728346456693
 20
-4.707287401574803
 10
5.425141732283465
 20
-4.710141732283464
 10
5.424791338582677
 20
-4.713145669291339
 10
5.424673228346457
 20
-4.716295275590551
  0
LWPOLYLINE
  5
79
330
1F
100
AcDbEntity
  8
Layer 1
 62
     7
370
     9
100
AcDbPolyline
 90
       12
 70
     1
 43
0.0
 10
5.559834645669292
 20
-4.758287401574803
 10
5.559834645669292
 20
-4.723515748031496
 10
5.503830708661417
 20
-4.723515748031496
 10
5.503830708661417
 20
-4.707043307086614
 10
5.562433070866142
 20
-4.612692913385827
 10
5.575692913385827
 20
-4.612692913385827
 10
5.575692913385827
 20
-4.707043307086614
 10
5.59334251968504
 20
-4.707043307086614
 10
5.59334251968504
 20
-4.723515748031496
 10
5.575692913385827
 20
-4.723515748031496
 10
5.575692913385827
 20
-4.758287401574803
 10
5.559834645669292
 20
-4.758287401574803
  0
LWPOLYLINE
  5
7A
330
1F
100
AcDbEntity
  8
Layer 1
 62
     7
370
     9
100
AcDbPolyline
 90
        4
 70
     1
 43
0.0
 10
5.559834645669292
 20
-4.707043307086614
 10
5.559834645669292
 20
-4.641401574803149
 10
5.519555118110236
 20
-4.707043307086614
 10
5.559834645669292
 20
-4.707043307086614
  0
LWPOLYLINE
  5
7B
330
1F
100
AcDbEntity
  8
Layer 1
 62
     7
370
     9
100
AcDbPolyline
 90
      106
 70
     1
 43
0.0
 10
5.613846456692913
 20
-4.758287401574803
 10
5.613846456692913
 20
-4.652755905511811
 10
5.628181102362205
 20
-4.652755905511811
 10
5.628181102362205
 20
-4.667669291338583
 10
5.630712598425196
 20
-4.663787401574803
 10
5.633562992125984
 20
-4.660377952755906
 10
5.636748031496063
 20
-4.657444881889764
 10
5.640267716535433
 20
-4.654988188976378
 10
5.644066929133858
 20
-4.653031496062992
 10
5.648027559055119
 20
-4.651633858267717
 10
5.652161417322835
 20
-4.650795275590551
 10
5.656476377952756
 20
-4.650515748031496
 10
5.661216535433071
 20
-4.650807086614173
 10
5.665566929133858
 20
-4.651688976377953
 10
5.669531496062993
 20
-4.653161417322835
 10
5.673114173228346
 20
-4.655228346456693
 10
5.676263779527559
 20
-4.657838582677165
 10
5.678929133858268
 20
-4.660996062992126
 10
5.681114173228346
 20
-4.664704724409448
 10
5.682818897637795
 20
-4.66896062992126
 10
5.685732283464567
 20
-4.664641732283465
 10
5.688850393700787
 20
-4.66090157480315
 10
5.69217716535433
 20
-4.657728346456693
 10
5.695712598425197
 20
-4.655129921259842
 10
5.699448818897638
 20
-4.653106299212598
 10
5.703377952755906
 20
-4.651665354330708
 10
5.707496062992126
 20
-4.6508031496063
 10
5.711811023622047
 20
-4.650515748031496
 10
5.71509842519685
 20
-4.650649606299212
 10
5.718204724409449
 20
-4.651043307086614
 10
5.721129921259842
 20
-4.651704724409448
 10
5.72388188976378
 20
-4.652629921259843
 10
5.726452755905512
 20
-4.653814960629921
 10
5.728842519685039
 20
-4.655267716535433
 10
5.731055118110236
 20
-4.65698031496063
 10
5.733086614173228
 20
-4.658956692913386
 10
5.734909448818898
 20
-4.661224409448819
 10
5.736484251968504
 20
-4.663803149606299
 10
5.737818897637795
 20
-4.666700787401575
 10
5.738909448818897
 20
-4.669913385826772
 10
5.739755905511811
 20
-4.673444881889764
 10
5.740358267716536
 20
-4.677287401574803
 10
5.740720472440945
 20
-4.681448818897638
 10
5.74084251968504
 20
-4.685929133858267
 10
5.74084251968504
 20
-4.758287401574803
 10
5.724964566929134
 20
-4.758287401574803
 10
5.724964566929134
 20
-4.691866141732284
 10
5.724854330708661
 20
-4.686629921259843
 10
5.724523622047244
 20
-4.682212598425197
 10
5.723972440944882
 20
-4.678610236220472
 10
5.723204724409449
 20
-4.675826771653544
 10
5.722161417322835
 20
-4.673622047244095
 10
5.720854330708661
 20
-4.671669291338583
 10
5.719279527559055
 20
-4.66998031496063
 10
5.717433070866142
 20
-4.668551181102362
 10
5.715366141732283
 20
-4.667413385826771
 10
5.713185039370079
 20
-4.666610236220473
 10
5.710885826771653
 20
-4.666129921259842
 10
5.70846062992126
 20
-4.665972440944882
 10
5.705956692913386
 20
-4.666090551181102
 10
5.703574803149606
 20
-4.66644094488189
 10
5.701311023622047
 20
-4.667031496062992
 10
5.699165354330709
 20
-4.667850393700787
 10
5.697137795275591
 20
-4.668905511811023
 10
5.695224409448818
 20
-4.670192913385827
 10
5.693425196850393
 20
-4.671712598425197
 10
5.691744094488189
 20
-4.673464566929134
 10
5.690232283464567
 20
-4.675476377952756
 10
5.68892125984252
 20
-4.677755905511811
 10
5.687807086614173
 20
-4.680299212598425
 10
5.686897637795275
 20
-4.683106299212598
 10
5.686188976377953
 20
-4.686185039370079
 10
5.685681102362205
 20
-4.689535433070867
 10
5.685377952755905
 20
-4.693153543307087
 10
5.685275590551181
 20
-4.697047244094488
 10
5.685275590551181
 20
-4.758287401574803
 10
5.669397637795275
 20
-4.758287401574803
 10
5.669397637795275
 20
-4.689799212598425
 10
5.669129921259842
 20
-4.683728346456693
 10
5.668322834645669
 20
-4.678629921259843
 10
5.667712598425197
 20
-4.67644094488189
 10
5.666972440944882
 20
-4.674496062992126
 10
5.666090551181102
 20
-4.672787401574803
 10
5.665074803149606
 20
-4.671322834645669
 10
5.662688976377953
 20
-4.668992125984252
 10
5.659897637795275
 20
-4.667318897637795
 10
5.656696850393701
 20
-4.666311023622047
 10
5.653090551181102
 20
-4.665972440944882
 10
5.65046062992126
 20
-4.66609842519685
 10
5.647972440944882
 20
-4.66648031496063
 10
5.645625984251969
 20
-4.667114173228346
 10
5.64342125984252
 20
-4.668003937007874
 10
5.641354330708661
 20
-4.669145669291338
 10
5.639433070866142
 20
-4.670535433070866
 10
5.637649606299212
 20
-4.672181102362205
 10
5.636007874015748
 20
-4.674074803149606
 10
5.634535433070866
 20
-4.676307086614173
 10
5.633255905511811
 20
-4.678952755905512
 10
5.632177165354331
 20
-4.682011811023622
 10
5.631295275590551
 20
-4.685492125984252
 10
5.630606299212598
 20
-4.689389763779528
 10
5.630118110236221
 20
-4.693704724409449
 10
5.629822834645669
 20
-4.698437007874015
 10
5.629724409448819
 20
-4.703590551181103
 10
5.629724409448819
 20
-4.758287401574803
 10
5.613846456692913
 20
-4.758287401574803
  0
LWPOLYLINE
  5
7C
330
1F
100
AcDbEntity
  8
Layer 1
 62
     7
370
     9
100
AcDbPolyline
 90
      106
 70
     1
 43
0.0
 10
5.764476377952755
 20
-4.758287401574803
 10
5.764476377952755
 20
-4.652755905511811
 10
5.778799212598425
 20
-4.652755905511811
 10
5.778799212598425
 20
-4.667669291338583
 10
5.781330708661417
 20
-4.663787401574803
 10
5.784185039370079
 20
-4.660377952755906
 10
5.787366141732283
 20
-4.657444881889764
 10
5.790889763779528
 20
-4.654988188976378
 10
5.794685039370079
 20
-4.653031496062992
 10
5.798645669291338
 20
-4.651633858267717
 10
5.802779527559055
 20
-4.650795275590551
 10
5.80709842519685
 20
-4.650515748031496
 10
5.811838582677165
 20
-4.650807086614173
 10
5.816188976377953
 20
-4.651688976377953
 10
5.82015748031496
 20
-4.653161417322835
 10
5.823744094488189
 20
-4.655228346456693
 10
5.826893700787402
 20
-4.657838582677165
 10
5.829559055118111
 20
-4.660996062992126
 10
5.831744094488189
 20
-4.664704724409448
 10
5.833448818897637
 20
-4.66896062992126
 10
5.836362204724409
 20
-4.664641732283465
 10
5.83948031496063
 20
-4.66090157480315
 10
5.842807086614173
 20
-4.657728346456693
 10
5.846342519685039
 20
-4.655129921259842
 10
5.85007874015748
 20
-4.653106299212598
 10
5.854007874015748
 20
-4.651665354330708
 10
5.858125984251968
 20
-4.6508031496063
 10
5.862440944881889
 20
-4.650515748031496
 10
5.865728346456692
 20
-4.650649606299212
 10
5.868834645669291
 20
-4.651043307086614
 10
5.871759842519685
 20
-4.651704724409448
 10
5.874511811023622
 20
-4.652629921259843
 10
5.87707874015748
 20
-4.653814960629921
 10
5.879468503937008
 20
-4.655267716535433
 10
5.881677165354331
 20
-4.65698031496063
 10
5.883708661417323
 20
-4.658956692913386
 10
5.885527559055118
 20
-4.661224409448819
 10
5.887106299212598
 20
-4.663803149606299
 10
5.88844094488189
 20
-4.666700787401575
 10
5.889531496062992
 20
-4.669913385826772
 10
5.890377952755905
 20
-4.673444881889764
 10
5.89098031496063
 20
-4.677287401574803
 10
5.89134251968504
 20
-4.681448818897638
 10
5.891464566929134
 20
-4.685929133858267
 10
5.891464566929134
 20
-4.758287401574803
 10
5.875594488188977
 20
-4.758287401574803
 10
5.875594488188977
 20
-4.691866141732284
 10
5.875484251968504
 20
-4.686629921259843
 10
5.875153543307087
 20
-4.682212598425197
 10
5.874602362204724
 20
-4.678610236220472
 10
5.873834645669291
 20
-4.675826771653544
 10
5.872791338582677
 20
-4.673622047244095
 10
5.871484251968504
 20
-4.671669291338583
 10
5.869909448818897
 20
-4.66998031496063
 10
5.868062992125984
 20
-4.668551181102362
 10
5.865996062992126
 20
-4.667413385826771
 10
5.863814960629921
 20
-4.666610236220473
 10
5.861515748031496
 20
-4.666129921259842
 10
5.859090551181103
 20
-4.665972440944882
 10
5.856586614173229
 20
-4.666090551181102
 10
5.854204724409449
 20
-4.66644094488189
 10
5.85194094488189
 20
-4.667031496062992
 10
5.849795275590552
 20
-4.667850393700787
 10
5.847767716535433
 20
-4.668905511811023
 10
5.845854330708661
 20
-4.670192913385827
 10
5.844055118110236
 20
-4.671712598425197
 10
5.842374015748032
 20
-4.673464566929134
 10
5.840862204724409
 20
-4.675476377952756
 10
5.839551181102363
 20
-4.677755905511811
 10
5.838437007874016
 20
-4.680299212598425
 10
5.837527559055118
 20
-4.683106299212598
 10
5.836818897637795
 20
-4.686185039370079
 10
5.836311023622048
 20
-4.689535433070867
 10
5.836007874015748
 20
-4.693153543307087
 10
5.835905511811023
 20
-4.697047244094488
 10
5.835905511811023
 20
-4.758287401574803
 10
5.820027559055118
 20
-4.758287401574803
 10
5.820027559055118
 20
-4.689799212598425
 10
5.819759842519685
 20
-4.683728346456693
 10
5.818948818897637
 20
-4.678629921259843
 10
5.818342519685039
 20
-4.67644094488189
 10
5.817594488188976
 20
-4.674496062992126
 10
5.816712598425197
 20
-4.672787401574803
 10
5.815692913385827
 20
-4.671322834645669
 10
5.813307086614174
 20
-4.668992125984252
 10
5.810515748031496
 20
-4.667318897637795
 10
5.807314960629921
 20
-4.666311023622047
 10
5.803712598425196
 20
-4.665972440944882
 10
5.801082677165354
 20
-4.66609842519685
 10
5.798594488188976
 20
-4.66648031496063
 10
5.796244094488189
 20
-4.667114173228346
 10
5.79403937007874
 20
-4.668003937007874
 10
5.791976377952756
 20
-4.669145669291338
 10
5.790051181102362
 20
-4.670535433070866
 10
5.788267716535433
 20
-4.672181102362205
 10
5.786625984251969
 20
-4.674074803149606
 10
5.785153543307087
 20
-4.676307086614173
 10
5.783877952755906
 20
-4.678952755905512
 10
5.782799212598425
 20
-4.682011811023622
 10
5.781917322834646
 20
-4.685492125984252
 10
5.781228346456693
 20
-4.689389763779528
 10
5.780740157480315
 20
-4.693704724409449
 10
5.780444881889764
 20
-4.698437007874015
 10
5.780346456692913
 20
-4.703590551181103
 10
5.780346456692913
 20
-4.758287401574803
 10
5.764476377952755
 20
-4.758287401574803
  0
ENDSEC
  0
SECTION
  2
OBJECTS
  0
DICTIONARY
  5
C
330
0
100
AcDbDictionary
281
     1
  3
ACAD_DETAILVIEWSTYLE
350
84
  3
ACAD_GROUP
350
D
  3
ACAD_LAYOUT
350
1A
  3
ACAD_MATERIAL
350
43
  3
ACAD_MLEADERSTYLE
350
5B
  3
ACAD_MLINESTYLE
350
17
  3
ACAD_PLOTSETTINGS
350
19
  3
ACAD_PLOTSTYLENAME
350
E
  3
ACAD_SCALELIST
350
47
  3
ACAD_SECTIONVIEWSTYLE
350
85
  3
ACAD_TABLESTYLE
350
59
  3
ACAD_VISUALSTYLE
350
2A
  3
ACDB_RECOMPOSE_DATA
350
81
  3
AcDbVariableDictionary
350
7D
  0
SUN
  5
5D
330
29
100
AcDbSun
 90
        1
290
     0
 63
     7
421
 16777215
 40
1.0
291
     1
 91
  2455826
 92
 54000000
292
     0
 70
     2
 71
   256
280
     1
  0
DICTIONARY
  5
84
102
{ACAD_REACTORS
330
C
102
}
330
C
100
AcDbDictionary
281
     1
  0
DICTIONARY
  5
D
102
{ACAD_REACTORS
330
C
102
}
330
C
100
AcDbDictionary
281
     1
  0
DICTIONARY
  5
1A
102
{ACAD_REACTORS
330
C
102
}
330
C
100
AcDbDictionary
281
     1
  3
Layout1
350
1E
  3
Layout2
350
26
  3
Model
350
22
  0
DICTIONARY
  5
43
102
{ACAD_REACTORS
330
C
102
}
330
C
100
AcDbDictionary
281
     1
  3
ByBlock
350
45
  3
ByLayer
350
44
  3
Global
350
46
  0
DICTIONARY
  5
5B
102
{ACAD_REACTORS
330
C
102
}
330
C
100
AcDbDictionary
281
     1
  3
Standard
350
5C
  0
DICTIONARY
  5
17
102
{ACAD_REACTORS
330
C
102
}
330
C
100
AcDbDictionary
281
     1
  3
Standard
350
18
  0
DICTIONARY
  5
19
102
{ACAD_REACTORS
330
C
102
}
330
C
100
AcDbDictionary
281
     1
  0
ACDBDICTIONARYWDFLT
  5
E
102
{ACAD_REACTORS
330
C
102
}
330
C
100
AcDbDictionary
281
     1
  3
Normal
350
F
100
AcDbDictionaryWithDefault
340
F
  0
DICTIONARY
  5
47
102
{ACAD_REACTORS
330
C
102
}
330
C
100
AcDbDictionary
281
     1
  3
A0
350
48
  3
A1
350
49
  3
A2
350
4A
  3
A3
350
4B
  3
A4
350
4C
  3
A5
350
4D
  3
A6
350
4E
  3
A7
350
4F
  3
A8
350
50
  3
A9
350
51
  3
B1
350
52
  3
B2
350
53
  3
B3
350
54
  3
B4
350
55
  3
B5
350
56
  3
B6
350
57
  3
B7
350
58
  0
DICTIONARY
  5
85
102
{ACAD_REACTORS
330
C
102
}
330
C
100
AcDbDictionary
281
     1
  0
DICTIONARY
  5
59
102
{ACAD_REACTORS
330
C
102
}
330
C
100
AcDbDictionary
281
     1
  3
Standard
350
5A
  0
DICTIONARY
  5
2A
102
{ACAD_REACTORS
330
C
102
}
330
C
100
AcDbDictionary
281
     1
  3
2dWireframe
350
2F
  3
Basic
350
32
  3
Brighten
350
36
  3
ColorChange
350
3A
  3
Conceptual
350
34
  3
Dim
350
35
  3
EdgeColorOff
350
3D
  3
Facepattern
350
39
  3
Flat
350
2B
  3
FlatWithEdges
350
2C
  3
Gouraud
350
2D
  3
GouraudWithEdges
350
2E
  3
Hidden
350
31
  3
JitterOff
350
3B
  3
Linepattern
350
38
  3
OverhangOff
350
3C
  3
Realistic
350
33
  3
Shaded
350
42
  3
Shaded with edges
350
41
  3
Shades of Gray
350
3E
  3
Sketchy
350
3F
  3
Thicken
350
37
  3
Wireframe
350
30
  3
X-Ray
350
40
  0
XRECORD
  5
81
102
{ACAD_REACTORS
330
C
102
}
330
C
100
AcDbXrecord
280
     1
 90
        1
330
5A
  0
DICTIONARY
  5
7D
102
{ACAD_REACTORS
330
C
102
}
330
C
100
AcDbDictionary
281
     1
  3
CANNOSCALE
350
7E
  3
CMLEADERSTYLE
350
83
  3
CTABLESTYLE
350
82
  0
LAYOUT
  5
1E
102
{ACAD_REACTORS
330
1A
102
}
330
1A
100
AcDbPlotSettings
  1

  2
none_device
  4

  6

 40
0.0
 41
0.0
 42
0.0
 43
0.0
 44
0.0
 45
0.0
 46
0.0
 47
0.0
 48
0.0
 49
0.0
140
0.0
141
0.0
142
1.0
143
1.0
 70
   688
 72
     0
 73
     0
 74
     5
  7

 75
    16
 76
     0
 77
     2
 78
   300
147
1.0
148
0.0
149
0.0
100
AcDbLayout
  1
Layout1
 70
     1
 71
     1
 10
0.0
 20
0.0
 11
12.0
 21
9.0
 12
0.0
 22
0.0
 32
0.0
 14
1.000000000000000E+20
 24
1.000000000000000E+20
 34
1.000000000000000E+20
 15
-1.000000000000000E+20
 25
-1.000000000000000E+20
 35
-1.000000000000000E+20
146
0.0
 13
0.0
 23
0.0
 33
0.0
 16
1.0
 26
0.0
 36
0.0
 17
0.0
 27
1.0
 37
0.0
 76
     0
330
1B
  0
LAYOUT
  5
26
102
{ACAD_REACTORS
330
1A
102
}
330
1A
100
AcDbPlotSettings
  1

  2
none_device
  4

  6

 40
0.0
 41
0.0
 42
0.0
 43
0.0
 44
0.0
 45
0.0
 46
0.0
 47
0.0
 48
0.0
 49
0.0
140
0.0
141
0.0
142
1.0
143
1.0
 70
   688
 72
     0
 73
     0
 74
     5
  7

 75
    16
 76
     0
 77
     2
 78
   300
147
1.0
148
0.0
149
0.0
100
AcDbLayout
  1
Layout2
 70
     1
 71
     2
 10
0.0
 20
0.0
 11
0.0
 21
0.0
 12
0.0
 22
0.0
 32
0.0
 14
0.0
 24
0.0
 34
0.0
 15
0.0
 25
0.0
 35
0.0
146
0.0
 13
0.0
 23
0.0
 33
0.0
 16
1.0
 26
0.0
 36
0.0
 17
0.0
 27
1.0
 37
0.0
 76
     0
330
23
  0
LAYOUT
  5
22
102
{ACAD_REACTORS
330
1A
102
}
330
1A
100
AcDbPlotSettings
  1

  2
none_device
  4
Letter_(8.50_x_11.00_Inches)
  6

 40
6.35
 41
6.35
 42
6.35000508
 43
6.35000508
 44
215.9
 45
279.4
 46
0.0
 47
0.0
 48
0.0
 49
0.0
140
0.0
141
0.0
142
1.0
143
1.0
 70
  1712
 72
     0
 73
     0
 74
     0
  7

 75
     0
 76
     0
 77
     2
 78
   300
147
1.0
148
0.0
149
0.0
100
AcDbLayout
  1
Model
 70
     1
 71
     0
 10
0.0
 20
0.0
 11
12.0
 21
9.0
 12
0.0
 22
0.0
 32
0.0
 14
4.833854330708661
 24
-5.757744094488189
 34
0.0
 15
14.12999606299213
 25
-0.4462795275590551
 35
0.0
146
0.0
 13
0.0
 23
0.0
 33
0.0
 16
1.0
 26
0.0
 36
0.0
 17
0.0
 27
1.0
 37
0.0
 76
     0
330
1F
331
29
  0
MATERIAL
  5
45
102
{ACAD_REACTORS
330
43
102
}
330
43
100
AcDbMaterial
  1
ByBlock
 72
     1
 94
      127
  0
MATERIAL
  5
44
102
{ACAD_REACTORS
330
43
102
}
330
43
100
AcDbMaterial
  1
ByLayer
 72
     1
 94
      127
  0
MATERIAL
  5
46
102
{ACAD_REACTORS
330
43
102
}
330
43
100
AcDbMaterial
  1
Global
 72
     1
 94
      127
  0
MLEADERSTYLE
  5
5C
102
{ACAD_REACTORS
330
5B
102
}
330
5B
100
AcDbMLeaderStyle
179
     2
170
     2
171
     1
172
     0
 90
        2
 40
0.0
 41
0.0
173
     1
 91
-1056964608
340
14
 92
       -2
290
     1
 42
0.09
291
     1
 43
0.36
  3
Standard
341
0
 44
0.18
300

342
11
174
     1
178
     6
175
     1
176
     0
 93
-1056964608
 45
0.18
292
     0
297
     0
 46
0.18
343
0
 94
-1056964608
 47
1.0
 49
1.0
140
1.0
293
     1
141
0.0
294
     1
177
     0
142
1.0
295
     0
296
     0
143
0.125
271
     0
272
     9
273
     9
298
     0
  0
MLINESTYLE
  5
18
102
{ACAD_REACTORS
330
17
102
}
330
17
100
AcDbMlineStyle
  2
Standard
 70
     0
  3

 62
   256
 51
90.0
 52
90.0
 71
     2
 49
0.5
 62
   256
  6
BYLAYER
 49
-0.5
 62
   256
  6
BYLAYER
  0
ACDBPLACEHOLDER
  5
F
102
{ACAD_REACTORS
330
E
102
}
330
E
  0
SCALE
  5
48
102
{ACAD_REACTORS
330
47
102
}
330
47
100
AcDbScale
 70
     0
300
1:1
140
1.0
141
1.0
290
     1
  0
SCALE
  5
49
102
{ACAD_REACTORS
330
47
102
}
330
47
100
AcDbScale
 70
     0
300
1/128" = 1'-0"
140
0.0078125
141
12.0
290
     0
  0
SCALE
  5
4A
102
{ACAD_REACTORS
330
47
102
}
330
47
100
AcDbScale
 70
     0
300
1/64" = 1'-0"
140
0.015625
141
12.0
290
     0
  0
SCALE
  5
4B
102
{ACAD_REACTORS
330
47
102
}
330
47
100
AcDbScale
 70
     0
300
1/32" = 1'-0"
140
0.03125
141
12.0
290
     0
  0
SCALE
  5
4C
102
{ACAD_REACTORS
330
47
102
}
330
47
100
AcDbScale
 70
     0
300
1/16" = 1'-0"
140
0.0625
141
12.0
290
     0
  0
SCALE
  5
4D
102
{ACAD_REACTORS
330
47
102
}
330
47
100
AcDbScale
 70
     0
300
3/32" = 1'-0"
140
0.09375
141
12.0
290
     0
  0
SCALE
  5
4E
102
{ACAD_REACTORS
330
47
102
}
330
47
100
AcDbScale
 70
     0
300
1/8" = 1'-0"
140
0.125
141
12.0
290
     0
  0
SCALE
  5
4F
102
{ACAD_REACTORS
330
47
102
}
330
47
100
AcDbScale
 70
     0
300
3/16" = 1'-0"
140
0.1875
141
12.0
290
     0
  0
SCALE
  5
50
102
{ACAD_REACTORS
330
47
102
}
330
47
100
AcDbScale
 70
     0
300
1/4" = 1'-0"
140
0.25
141
12.0
290
     0
  0
SCALE
  5
51
102
{ACAD_REACTORS
330
47
102
}
330
47
100
AcDbScale
 70
     0
300
3/8" = 1'-0"
140
0.375
141
12.0
290
     0
  0
SCALE
  5
52
102
{ACAD_REACTORS
330
47
102
}
330
47
100
AcDbScale
 70
     0
300
1/2" = 1'-0"
140
0.5
141
12.0
290
     0
  0
SCALE
  5
53
102
{ACAD_REACTORS
330
47
102
}
330
47
100
AcDbScale
 70
     0
300
3/4" = 1'-0"
140
0.75
141
12.0
290
     0
  0
SCALE
  5
54
102
{ACAD_REACTORS
330
47
102
}
330
47
100
AcDbScale
 70
     0
300
1" = 1'-0"
140
1.0
141
12.0
290
     0
  0
SCALE
  5
55
102
{ACAD_REACTORS
330
47
102
}
330
47
100
AcDbScale
 70
     0
300
1-1/2" = 1'-0"
140
1.5
141
12.0
290
     0
  0
SCALE
  5
56
102
{ACAD_REACTORS
330
47
102
}
330
47
100
AcDbScale
 70
     0
300
3" = 1'-0"
140
3.0
141
12.0
290
     0
  0
SCALE
  5
57
102
{ACAD_REACTORS
330
47
102
}
330
47
100
AcDbScale
 70
     0
300
6" = 1'-0"
140
6.0
141
12.0
290
     0
  0
SCALE
  5
58
102
{ACAD_REACTORS
330
47
102
}
330
47
100
AcDbScale
 70
     0
300
1'-0" = 1'-0"
140
12.0
141
12.0
290
     0
  0
TABLESTYLE
  5
5A
102
{ACAD_REACTORS
330
59
102
}
102
{ACAD_XDICTIONARY
360
7F
102
}
330
59
100
AcDbTableStyle
  3
Standard
 70
     0
 71
     0
 40
0.06
 41
0.06
280
     0
281
     0
  7
Standard
140
0.18
170
     2
 62
     0
 63
   257
283
     0
 90
        4
 91
        0
  1

274
    -2
284
     1
 64
     0
275
    -2
285
     1
 65
     0
276
    -2
286
     1
 66
     0
277
    -2
287
     1
 67
     0
278
    -2
288
     1
 68
     0
279
    -2
289
     1
 69
     0
  7
Standard
140
0.25
170
     5
 62
     0
 63
   257
283
     0
 90
        4
 91
        0
  1

274
    -2
284
     1
 64
     0
275
    -2
285
     1
 65
     0
276
    -2
286
     1
 66
     0
277
    -2
287
     1
 67
     0
278
    -2
288
     1
 68
     0
279
    -2
289
     1
 69
     0
  7
Standard
140
0.18
170
     5
 62
     0
 63
   257
283
     0
 90
        4
 91
        0
  1

274
    -2
284
     1
 64
     0
275
    -2
285
     1
 65
     0
276
    -2
286
     1
 66
     0
277
    -2
287
     1
 67
     0
278
    -2
288
     1
 68
     0
279
    -2
289
     1
 69
     0
  0
VISUALSTYLE
  5
2F
102
{ACAD_REACTORS
330
2A
102
}
330
2A
100
AcDbVisualStyle
  2
2dWireframe
 70
     4
177
     3
291
     0
 70
    58
 90
        0
176
     1
 90
        2
176
     1
 90
        0
176
     1
 90
        0
176
     1
 40
0.6
176
     1
 40
30.0
176
     1
 62
     7
420
 16777215
176
     1
 90
        1
176
     1
 90
        4
176
     1
 62
     7
176
     1
 62
   257
176
     1
 90
        1
176
     1
 90
        1
176
     1
 40
1.0
176
     1
 90
        0
176
     1
 62
   257
176
     1
 40
1.0
176
     1
 90
        1
176
     1
 90
        6
176
     1
 90
        2
176
     1
 62
     7
176
     1
 90
        5
176
     1
 90
        0
176
     1
 90
        0
176
     1
290
     0
176
     1
 90
        1
176
     1
 40
0.0
176
     1
 90
        0
176
     1
290
     1
176
     1
290
     1
176
     1
290
     0
176
     1
290
     0
176
     1
290
     0
176
     1
290
     0
176
     1
290
     0
176
     1
290
     0
176
     1
290
     0
176
     1
 90
       50
176
     1
 40
0.0
176
     1
 40
1.0
176
     1
 90
        0
176
     1
 62
    18
420
        0
176
     1
 90
       50
176
     1
 90
        3
176
     1
 62
     5
420
      255
176
     1
290
     0
176
     1
 90
       50
176
     1
 90
       50
176
     1
 90
       50
176
     1
290
     0
176
     1
 90
       50
176
     1
 62
   256
176
     0
 40
1.0
176
     0
 90
        2
176
     1
  1
strokes_ogs.tif
176
     1
290
     0
176
     1
 40
1.0
176
     1
 40
1.0
176
     1
  0
VISUALSTYLE
  5
32
102
{ACAD_REACTORS
330
2A
102
}
330
2A
100
AcDbVisualStyle
  2
Basic
 70
     7
177
     3
291
     1
 70
    58
 90
        1
176
     1
 90
        0
176
     1
 90
        1
176
     1
 90
        0
176
     1
 40
0.6
176
     1
 40
30.0
176
     1
 62
     7
420
 16777215
176
     1
 90
        0
176
     1
 90
        4
176
     1
 62
     7
176
     1
 62
   257
176
     1
 90
        1
176
     1
 90
        1
176
     1
 40
1.0
176
     1
 90
        8
176
     1
 62
     7
176
     1
 40
1.0
176
     1
 90
        1
176
     1
 90
        6
176
     1
 90
        2
176
     1
 62
     7
176
     1
 90
        5
176
     1
 90
        0
176
     1
 90
        0
176
     1
290
     0
176
     1
 90
        1
176
     1
 40
0.0
176
     1
 90
        0
176
     1
290
     0
176
     1
290
     1
176
     1
290
     1
176
     1
290
     0
176
     1
290
     0
176
     1
290
     0
176
     1
290
     0
176
     1
290
     0
176
     1
290
     0
176
     1
 90
       50
176
     1
 40
0.0
176
     1
 40
1.0
176
     1
 90
        0
176
     1
 62
    18
420
        0
176
     1
 90
       50
176
     1
 90
        3
176
     1
 62
     5
420
      255
176
     1
290
     0
176
     1
 90
       50
176
     1
 90
       50
176
     1
 90
       50
176
     1
290
     0
176
     1
 90
       50
176
     1
 62
   256
176
     0
 40
1.0
176
     0
 90
        2
176
     1
  1
strokes_ogs.tif
176
     1
290
     0
176
     1
 40
1.0
176
     1
 40
1.0
176
     1
  0
VISUALSTYLE
  5
36
102
{ACAD_REACTORS
330
2A
102
}
330
2A
100
AcDbVisualStyle
  2
Brighten
 70
    12
177
     3
291
     1
 70
    58
 90
        2
176
     1
 90
        2
176
     1
 90
        0
176
     1
 90
        0
176
     1
 40
0.6
176
     1
 40
30.0
176
     1
 62
     7
420
 16777215
176
     1
 90
        1
176
     1
 90
        4
176
     1
 62
     7
176
     1
 62
   257
176
     1
 90
        1
176
     1
 90
        1
176
     1
 40
1.0
176
     1
 90
        8
176
     1
 62
     7
176
     1
 40
1.0
176
     1
 90
        1
176
     1
 90
        6
176
     1
 90
        2
176
     1
 62
     7
176
     1
 90
        5
176
     1
 90
        0
176
     1
 90
        0
176
     1
290
     0
176
     1
 90
        1
176
     1
 40
50.0
176
     1
 90
        0
176
     1
290
     0
176
     1
290
     1
176
     1
290
     1
176
     1
290
     0
176
     1
290
     0
176
     1
290
     0
176
     1
290
     0
176
     1
290
     0
176
     1
290
     0
176
     1
 90
       50
176
     1
 40
0.0
176
     1
 40
1.0
176
     1
 90
        0
176
     1
 62
    18
420
        0
176
     1
 90
       50
176
     1
 90
        3
176
     1
 62
     5
420
      255
176
     1
290
     0
176
     1
 90
       50
176
     1
 90
       50
176
     1
 90
       50
176
     1
290
     0
176
     1
 90
       50
176
     1
 62
   256
176
     0
 40
1.0
176
     0
 90
        2
176
     1
  1
strokes_ogs.tif
176
     1
290
     0
176
     1
 40
1.0
176
     1
 40
1.0
176
     1
  0
VISUALSTYLE
  5
3A
102
{ACAD_REACTORS
330
2A
102
}
330
2A
100
AcDbVisualStyle
  2
ColorChange
 70
    16
177
     3
291
     1
 70
    58
 90
        2
176
     1
 90
        2
176
     1
 90
        3
176
     1
 90
        0
176
     1
 40
0.6
176
     1
 40
30.0
176
     1
 62
     8
420
  8421504
176
     1
 90
        1
176
     1
 90
        4
176
     1
 62
     7
176
     1
 62
   257
176
     1
 90
        1
176
     1
 90
        1
176
     1
 40
1.0
176
     1
 90
        8
176
     1
 62
     8
420
  8421504
176
     1
 40
1.0
176
     1
 90
        1
176
     1
 90
        6
176
     1
 90
        2
176
     1
 62
     7
176
     1
 90
        5
176
     1
 90
        0
176
     1
 90
        0
176
     1
290
     0
176
     1
 90
        1
176
     1
 40
0.0
176
     1
 90
        0
176
     1
290
     0
176
     1
290
     1
176
     1
290
     1
176
     1
290
     0
176
     1
290
     0
176
     1
290
     0
176
     1
290
     0
176
     1
290
     0
176
     1
290
     0
176
     1
 90
       50
176
     1
 40
0.0
176
     1
 40
1.0
176
     1
 90
        0
176
     1
 62
    18
420
        0
176
     1
 90
       50
176
     1
 90
        3
176
     1
 62
     5
420
      255
176
     1
290
     0
176
     1
 90
       50
176
     1
 90
       50
176
     1
 90
       50
176
     1
290
     0
176
     1
 90
       50
176
     1
 62
   256
176
     0
 40
1.0
176
     0
 90
        2
176
     1
  1
strokes_ogs.tif
176
     1
290
     0
176
     1
 40
1.0
176
     1
 40
1.0
176
     1
  0
VISUALSTYLE
  5
34
102
{ACAD_REACTORS
330
2A
102
}
330
2A
100
AcDbVisualStyle
  2
Conceptual
 70
     9
177
     3
291
     0
 70
    58
 90
        3
176
     1
 90
        2
176
     1
 90
        0
176
     1
 90
        0
176
     1
 40
0.6
176
     1
 40
30.0
176
     1
 62
     7
420
 16777215
176
     1
 90
        2
176
     1
 90
        2
176
     1
 62
     7
176
     1
 62
   257
176
     1
 90
        1
176
     1
 90
        1
176
     1
 40
179.0
176
     1
 90
        8
176
     1
 62
     7
176
     1
 40
1.0
176
     1
 90
        1
176
     1
 90
        6
176
     1
 90
        2
176
     1
 62
     7
176
     1
 90
        3
176
     1
 90
        0
176
     1
 90
        0
176
     1
290
     0
176
     1
 90
        1
176
     1
 40
0.0
176
     1
 90
        0
176
     1
290
     0
176
     1
290
     1
176
     1
290
     1
176
     1
290
     0
176
     1
290
     0
176
     1
290
     0
176
     1
290
     0
176
     1
290
     0
176
     1
290
     0
176
     1
 90
       50
176
     1
 40
0.0
176
     1
 40
1.0
176
     1
 90
        0
176
     1
 62
    18
420
        0
176
     1
 90
       50
176
     1
 90
        3
176
     1
 62
     5
420
      255
176
     1
290
     0
176
     1
 90
       50
176
     1
 90
       50
176
     1
 90
       50
176
     1
290
     0
176
     1
 90
       50
176
     1
 62
   256
176
     0
 40
1.0
176
     0
 90
        2
176
     1
  1
strokes_ogs.tif
176
     1
290
     0
176
     1
 40
1.0
176
     1
 40
1.0
176
     1
  0
VISUALSTYLE
  5
35
102
{ACAD_REACTORS
330
2A
102
}
330
2A
100
AcDbVisualStyle
  2
Dim
 70
    11
177
     3
291
     1
 70
    58
 90
        2
176
     1
 90
        2
176
     1
 90
        0
176
     1
 90
        0
176
     1
 40
0.6
176
     1
 40
30.0
176
     1
 62
     7
420
 16777215
176
     1
 90
        1
176
     1
 90
        4
176
     1
 62
     7
176
     1
 62
   257
176
     1
 90
        1
176
     1
 90
        1
176
     1
 40
1.0
176
     1
 90
        8
176
     1
 62
     7
176
     1
 40
1.0
176
     1
 90
        1
176
     1
 90
        6
176
     1
 90
        2
176
     1
 62
     7
176
     1
 90
        5
176
     1
 90
        0
176
     1
 90
        0
176
     1
290
     0
176
     1
 90
        1
176
     1
 40
-50.0
176
     1
 90
        0
176
     1
290
     0
176
     1
290
     1
176
     1
290
     1
176
     1
290
     0
176
     1
290
     0
176
     1
290
     0
176
     1
290
     0
176
     1
290
     0
176
     1
290
     0
176
     1
 90
       50
176
     1
 40
0.0
176
     1
 40
1.0
176
     1
 90
        0
176
     1
 62
    18
420
        0
176
     1
 90
       50
176
     1
 90
        3
176
     1
 62
     5
420
      255
176
     1
290
     0
176
     1
 90
       50
176
     1
 90
       50
176
     1
 90
       50
176
     1
290
     0
176
     1
 90
       50
176
     1
 62
   256
176
     0
 40
1.0
176
     0
 90
        2
176
     1
  1
strokes_ogs.tif
176
     1
290
     0
176
     1
 40
1.0
176
     1
 40
1.0
176
     1
  0
VISUALSTYLE
  5
3D
102
{ACAD_REACTORS
330
2A
102
}
330
2A
100
AcDbVisualStyle
  2
EdgeColorOff
 70
    22
177
     3
291
     1
 70
    58
 90
        2
176
     0
 90
        2
176
     0
 90
        0
176
     0
 90
        0
176
     0
 40
0.6
176
     0
 40
30.0
176
     0
 62
     7
420
 16777215
176
     0
 90
        1
176
     0
 90
        4
176
     0
 62
     7
176
     0
 62
   257
176
     0
 90
        1
176
     0
 90
        1
176
     0
 40
1.0
176
     0
 90
        8
176
     2
 62
     7
176
     0
 40
1.0
176
     0
 90
        1
176
     0
 90
        6
176
     0
 90
        2
176
     0
 62
     7
176
     0
 90
        5
176
     0
 90
        0
176
     0
 90
        0
176
     0
290
     0
176
     0
 90
        1
176
     0
 40
0.0
176
     0
 90
        0
176
     0
290
     0
176
     0
290
     1
176
     0
290
     1
176
     0
290
     0
176
     0
290
     0
176
     0
290
     0
176
     0
290
     0
176
     0
290
     0
176
     0
290
     0
176
     0
 90
       50
176
     0
 40
0.0
176
     0
 40
1.0
176
     0
 90
        0
176
     0
 62
    18
420
        0
176
     0
 90
       50
176
     0
 90
        3
176
     0
 62
     5
420
      255
176
     0
290
     0
176
     0
 90
       50
176
     0
 90
       50
176
     0
 90
       50
176
     0
290
     0
176
     0
 90
       50
176
     0
 62
   256
176
     0
 40
1.0
176
     0
 90
        2
176
     0
  1
strokes_ogs.tif
176
     0
290
     0
176
     0
 40
1.0
176
     0
 40
1.0
176
     0
  0
VISUALSTYLE
  5
39
102
{ACAD_REACTORS
330
2A
102
}
330
2A
100
AcDbVisualStyle
  2
Facepattern
 70
    15
177
     3
291
     1
 70
    58
 90
        2
176
     1
 90
        2
176
     1
 90
        0
176
     1
 90
        0
176
     1
 40
0.6
176
     1
 40
30.0
176
     1
 62
     7
420
 16777215
176
     1
 90
        1
176
     1
 90
        4
176
     1
 62
     7
176
     1
 62
   257
176
     1
 90
        1
176
     1
 90
        1
176
     1
 40
1.0
176
     1
 90
        8
176
     1
 62
     7
176
     1
 40
1.0
176
     1
 90
        1
176
     1
 90
        6
176
     1
 90
        2
176
     1
 62
     7
176
     1
 90
        5
176
     1
 90
        0
176
     1
 90
        0
176
     1
290
     0
176
     1
 90
        1
176
     1
 40
0.0
176
     1
 90
        0
176
     1
290
     0
176
     1
290
     1
176
     1
290
     1
176
     1
290
     0
176
     1
290
     0
176
     1
290
     0
176
     1
290
     0
176
     1
290
     0
176
     1
290
     0
176
     1
 90
       50
176
     1
 40
0.0
176
     1
 40
1.0
176
     1
 90
        0
176
     1
 62
    18
420
        0
176
     1
 90
       50
176
     1
 90
        3
176
     1
 62
     5
420
      255
176
     1
290
     0
176
     1
 90
       50
176
     1
 90
       50
176
     1
 90
       50
176
     1
290
     0
176
     1
 90
       50
176
     1
 62
   256
176
     0
 40
1.0
176
     0
 90
        2
176
     1
  1
strokes_ogs.tif
176
     1
290
     0
176
     1
 40
1.0
176
     1
 40
1.0
176
     1
  0
VISUALSTYLE
  5
2B
102
{ACAD_REACTORS
330
2A
102
}
330
2A
100
AcDbVisualStyle
  2
Flat
 70
     0
177
     3
291
     1
 70
    58
 90
        2
176
     1
 90
        1
176
     1
 90
        1
176
     1
 90
        2
176
     1
 40
0.6
176
     1
 40
30.0
176
     1
 62
     7
420
 16777215
176
     1
 90
        0
176
     1
 90
        0
176
     1
 62
     7
176
     1
 62
   257
176
     1
 90
        1
176
     1
 90
        1
176
     1
 40
1.0
176
     1
 90
        8
176
     1
 62
     7
176
     1
 40
1.0
176
     1
 90
        1
176
     1
 90
        6
176
     1
 90
        2
176
     1
 62
     7
176
     1
 90
        5
176
     1
 90
        0
176
     1
 90
        0
176
     1
290
     0
176
     1
 90
       13
176
     1
 40
0.0
176
     1
 90
        0
176
     1
290
     0
176
     1
290
     1
176
     1
290
     1
176
     1
290
     0
176
     1
290
     0
176
     1
290
     0
176
     1
290
     0
176
     1
290
     0
176
     1
290
     0
176
     1
 90
       50
176
     1
 40
0.0
176
     1
 40
1.0
176
     1
 90
        0
176
     1
 62
    18
420
        0
176
     1
 90
       50
176
     1
 90
        3
176
     1
 62
     5
420
      255
176
     1
290
     0
176
     1
 90
       50
176
     1
 90
       50
176
     1
 90
       50
176
     1
290
     0
176
     1
 90
       50
176
     1
 62
   256
176
     0
 40
1.0
176
     0
 90
        2
176
     1
  1
strokes_ogs.tif
176
     1
290
     0
176
     1
 40
1.0
176
     1
 40
1.0
176
     1
  0
VISUALSTYLE
  5
2C
102
{ACAD_REACTORS
330
2A
102
}
330
2A
100
AcDbVisualStyle
  2
FlatWithEdges
 70
     1
177
     3
291
     1
 70
    58
 90
        2
176
     1
 90
        1
176
     1
 90
        1
176
     1
 90
        2
176
     1
 40
0.6
176
     1
 40
30.0
176
     1
 62
     7
420
 16777215
176
     1
 90
        1
176
     1
 90
        0
176
     1
 62
     7
176
     1
 62
   257
176
     1
 90
        1
176
     1
 90
        1
176
     1
 40
1.0
176
     1
 90
        0
176
     1
 62
   257
176
     1
 40
1.0
176
     1
 90
        1
176
     1
 90
        6
176
     1
 90
        2
176
     1
 62
     7
176
     1
 90
        5
176
     1
 90
        0
176
     1
 90
        0
176
     1
290
     0
176
     1
 90
       13
176
     1
 40
0.0
176
     1
 90
        0
176
     1
290
     0
176
     1
290
     1
176
     1
290
     1
176
     1
290
     0
176
     1
290
     0
176
     1
290
     0
176
     1
290
     0
176
     1
290
     0
176
     1
290
     0
176
     1
 90
       50
176
     1
 40
0.0
176
     1
 40
1.0
176
     1
 90
        0
176
     1
 62
    18
420
        0
176
     1
 90
       50
176
     1
 90
        3
176
     1
 62
     5
420
      255
176
     1
290
     0
176
     1
 90
       50
176
     1
 90
       50
176
     1
 90
       50
176
     1
290
     0
176
     1
 90
       50
176
     1
 62
   256
176
     0
 40
1.0
176
     0
 90
        2
176
     1
  1
strokes_ogs.tif
176
     1
290
     0
176
     1
 40
1.0
176
     1
 40
1.0
176
     1
  0
VISUALSTYLE
  5
2D
102
{ACAD_REACTORS
330
2A
102
}
330
2A
100
AcDbVisualStyle
  2
Gouraud
 70
     2
177
     3
291
     1
 70
    58
 90
        2
176
     1
 90
        2
176
     1
 90
        1
176
     1
 90
        2
176
     1
 40
0.6
176
     1
 40
30.0
176
     1
 62
     7
420
 16777215
176
     1
 90
        0
176
     1
 90
        0
176
     1
 62
     7
176
     1
 62
   257
176
     1
 90
        1
176
     1
 90
        1
176
     1
 40
1.0
176
     1
 90
        0
176
     1
 62
     7
176
     1
 40
1.0
176
     1
 90
        1
176
     1
 90
        6
176
     1
 90
        2
176
     1
 62
     7
176
     1
 90
        5
176
     1
 90
        0
176
     1
 90
        0
176
     1
290
     0
176
     1
 90
       13
176
     1
 40
0.0
176
     1
 90
        0
176
     1
290
     0
176
     1
290
     1
176
     1
290
     1
176
     1
290
     0
176
     1
290
     0
176
     1
290
     0
176
     1
290
     0
176
     1
290
     0
176
     1
290
     0
176
     1
 90
       50
176
     1
 40
0.0
176
     1
 40
1.0
176
     1
 90
        0
176
     1
 62
    18
420
        0
176
     1
 90
       50
176
     1
 90
        3
176
     1
 62
     5
420
      255
176
     1
290
     0
176
     1
 90
       50
176
     1
 90
       50
176
     1
 90
       50
176
     1
290
     0
176
     1
 90
       50
176
     1
 62
   256
176
     0
 40
1.0
176
     0
 90
        2
176
     1
  1
strokes_ogs.tif
176
     1
290
     0
176
     1
 40
1.0
176
     1
 40
1.0
176
     1
  0
VISUALSTYLE
  5
2E
102
{ACAD_REACTORS
330
2A
102
}
330
2A
100
AcDbVisualStyle
  2
GouraudWithEdges
 70
     3
177
     3
291
     1
 70
    58
 90
        2
176
     1
 90
        2
176
     1
 90
        1
176
     1
 90
        2
176
     1
 40
0.6
176
     1
 40
30.0
176
     1
 62
     7
420
 16777215
176
     1
 90
        1
176
     1
 90
        0
176
     1
 62
     7
176
     1
 62
   257
176
     1
 90
        1
176
     1
 90
        1
176
     1
 40
1.0
176
     1
 90
        0
176
     1
 62
   257
176
     1
 40
1.0
176
     1
 90
        1
176
     1
 90
        6
176
     1
 90
        2
176
     1
 62
     7
176
     1
 90
        5
176
     1
 90
        0
176
     1
 90
        0
176
     1
290
     0
176
     1
 90
       13
176
     1
 40
0.0
176
     1
 90
        0
176
     1
290
     0
176
     1
290
     1
176
     1
290
     1
176
     1
290
     0
176
     1
290
     0
176
     1
290
     0
176
     1
290
     0
176
     1
290
     0
176
     1
290
     0
176
     1
 90
       50
176
     1
 40
0.0
176
     1
 40
1.0
176
     1
 90
        0
176
     1
 62
    18
420
        0
176
     1
 90
       50
176
     1
 90
        3
176
     1
 62
     5
420
      255
176
     1
290
     0
176
     1
 90
       50
176
     1
 90
       50
176
     1
 90
       50
176
     1
290
     0
176
     1
 90
       50
176
     1
 62
   256
176
     0
 40
1.0
176
     0
 90
        2
176
     1
  1
strokes_ogs.tif
176
     1
290
     0
176
     1
 40
1.0
176
     1
 40
1.0
176
     1
  0
VISUALSTYLE
  5
31
102
{ACAD_REACTORS
330
2A
102
}
330
2A
100
AcDbVisualStyle
  2
Hidden
 70
     6
177
     3
291
     0
 70
    58
 90
        1
176
     1
 90
        2
176
     1
 90
        2
176
     1
 90
        0
176
     1
 40
0.6
176
     1
 40
30.0
176
     1
 62
     7
420
 16777215
176
     1
 90
        2
176
     1
 90
        2
176
     1
 62
     7
176
     1
 62
   257
176
     1
 90
        2
176
     1
 90
        1
176
     1
 40
40.0
176
     1
 90
        0
176
     1
 62
   257
176
     1
 40
1.0
176
     1
 90
        1
176
     1
 90
        6
176
     1
 90
        2
176
     1
 62
     7
176
     1
 90
        3
176
     1
 90
        0
176
     1
 90
        0
176
     1
290
     0
176
     1
 90
        1
176
     1
 40
0.0
176
     1
 90
        0
176
     1
290
     0
176
     1
290
     1
176
     1
290
     1
176
     1
290
     0
176
     1
290
     0
176
     1
290
     0
176
     1
290
     0
176
     1
290
     0
176
     1
290
     0
176
     1
 90
       50
176
     1
 40
0.0
176
     1
 40
1.0
176
     1
 90
        0
176
     1
 62
    18
420
        0
176
     1
 90
       50
176
     1
 90
        3
176
     1
 62
     5
420
      255
176
     1
290
     0
176
     1
 90
       50
176
     1
 90
       50
176
     1
 90
       50
176
     1
290
     0
176
     1
 90
       50
176
     1
 62
   256
176
     0
 40
1.0
176
     0
 90
        2
176
     1
  1
strokes_ogs.tif
176
     1
290
     0
176
     1
 40
1.0
176
     1
 40
1.0
176
     1
  0
VISUALSTYLE
  5
3B
102
{ACAD_REACTORS
330
2A
102
}
330
2A
100
AcDbVisualStyle
  2
JitterOff
 70
    20
177
     3
291
     1
 70
    58
 90
        2
176
     0
 90
        2
176
     0
 90
        0
176
     0
 90
        0
176
     0
 40
0.6
176
     0
 40
30.0
176
     0
 62
     7
420
 16777215
176
     0
 90
        1
176
     0
 90
        4
176
     0
 62
     7
176
     0
 62
   257
176
     0
 90
        1
176
     0
 90
        1
176
     0
 40
1.0
176
     0
 90
       10
176
     2
 62
     7
176
     0
 40
1.0
176
     0
 90
        1
176
     0
 90
        6
176
     0
 90
        2
176
     0
 62
     7
176
     0
 90
        5
176
     0
 90
        0
176
     0
 90
        0
176
     0
290
     0
176
     0
 90
        1
176
     0
 40
0.0
176
     0
 90
        0
176
     0
290
     0
176
     0
290
     1
176
     0
290
     1
176
     0
290
     0
176
     0
290
     0
176
     0
290
     0
176
     0
290
     0
176
     0
290
     0
176
     0
290
     0
176
     0
 90
       50
176
     0
 40
0.0
176
     0
 40
1.0
176
     0
 90
        0
176
     0
 62
    18
420
        0
176
     0
 90
       50
176
     0
 90
        3
176
     0
 62
     5
420
      255
176
     0
290
     0
176
     0
 90
       50
176
     0
 90
       50
176
     0
 90
       50
176
     0
290
     0
176
     0
 90
       50
176
     0
 62
   256
176
     0
 40
1.0
176
     0
 90
        2
176
     0
  1
strokes_ogs.tif
176
     0
290
     0
176
     0
 40
1.0
176
     0
 40
1.0
176
     0
  0
VISUALSTYLE
  5
38
102
{ACAD_REACTORS
330
2A
102
}
330
2A
100
AcDbVisualStyle
  2
Linepattern
 70
    14
177
     3
291
     1
 70
    58
 90
        2
176
     1
 90
        2
176
     1
 90
        0
176
     1
 90
        0
176
     1
 40
0.6
176
     1
 40
30.0
176
     1
 62
     7
420
 16777215
176
     1
 90
        1
176
     1
 90
        4
176
     1
 62
     7
176
     1
 62
   257
176
     1
 90
        7
176
     1
 90
        7
176
     1
 40
1.0
176
     1
 90
        8
176
     1
 62
     7
176
     1
 40
1.0
176
     1
 90
        1
176
     1
 90
        6
176
     1
 90
        2
176
     1
 62
     7
176
     1
 90
        5
176
     1
 90
        0
176
     1
 90
        0
176
     1
290
     0
176
     1
 90
        1
176
     1
 40
0.0
176
     1
 90
        0
176
     1
290
     0
176
     1
290
     1
176
     1
290
     1
176
     1
290
     0
176
     1
290
     0
176
     1
290
     0
176
     1
290
     0
176
     1
290
     0
176
     1
290
     0
176
     1
 90
       50
176
     1
 40
0.0
176
     1
 40
1.0
176
     1
 90
        0
176
     1
 62
    18
420
        0
176
     1
 90
       50
176
     1
 90
        3
176
     1
 62
     5
420
      255
176
     1
290
     0
176
     1
 90
       50
176
     1
 90
       50
176
     1
 90
       50
176
     1
290
     0
176
     1
 90
       50
176
     1
 62
   256
176
     0
 40
1.0
176
     0
 90
        2
176
     1
  1
strokes_ogs.tif
176
     1
290
     0
176
     1
 40
1.0
176
     1
 40
1.0
176
     1
  0
VISUALSTYLE
  5
3C
102
{ACAD_REACTORS
330
2A
102
}
330
2A
100
AcDbVisualStyle
  2
OverhangOff
 70
    21
177
     3
291
     1
 70
    58
 90
        2
176
     0
 90
        2
176
     0
 90
        0
176
     0
 90
        0
176
     0
 40
0.6
176
     0
 40
30.0
176
     0
 62
     7
420
 16777215
176
     0
 90
        1
176
     0
 90
        4
176
     0
 62
     7
176
     0
 62
   257
176
     0
 90
        1
176
     0
 90
        1
176
     0
 40
1.0
176
     0
 90
        9
176
     2
 62
     7
176
     0
 40
1.0
176
     0
 90
        1
176
     0
 90
        6
176
     0
 90
        2
176
     0
 62
     7
176
     0
 90
        5
176
     0
 90
        0
176
     0
 90
        0
176
     0
290
     0
176
     0
 90
        1
176
     0
 40
0.0
176
     0
 90
        0
176
     0
290
     0
176
     0
290
     1
176
     0
290
     1
176
     0
290
     0
176
     0
290
     0
176
     0
290
     0
176
     0
290
     0
176
     0
290
     0
176
     0
290
     0
176
     0
 90
       50
176
     0
 40
0.0
176
     0
 40
1.0
176
     0
 90
        0
176
     0
 62
    18
420
        0
176
     0
 90
       50
176
     0
 90
        3
176
     0
 62
     5
420
      255
176
     0
290
     0
176
     0
 90
       50
176
     0
 90
       50
176
     0
 90
       50
176
     0
290
     0
176
     0
 90
       50
176
     0
 62
   256
176
     0
 40
1.0
176
     0
 90
        2
176
     0
  1
strokes_ogs.tif
176
     0
290
     0
176
     0
 40
1.0
176
     0
 40
1.0
176
     0
  0
VISUALSTYLE
  5
33
102
{ACAD_REACTORS
330
2A
102
}
330
2A
100
AcDbVisualStyle
  2
Realistic
 70
     8
177
     3
291
     0
 70
    58
 90
        2
176
     1
 90
        3
176
     1
 90
        0
176
     1
 90
        2
176
     1
 40
0.6
176
     1
 40
30.0
176
     1
 62
     7
420
 16777215
176
     1
 90
        0
176
     1
 90
        0
176
     1
 62
     7
176
     1
 62
   257
176
     1
 90
        1
176
     1
 90
        1
176
     1
 40
1.0
176
     1
 90
        8
176
     1
 62
   257
176
     1
 40
1.0
176
     1
 90
        1
176
     1
 90
        6
176
     1
 90
        2
176
     1
 62
     7
176
     1
 90
        3
176
     1
 90
        0
176
     1
 90
        0
176
     1
290
     0
176
     1
 90
       13
176
     1
 40
0.0
176
     1
 90
        0
176
     1
290
     0
176
     1
290
     1
176
     1
290
     1
176
     1
290
     0
176
     1
290
     0
176
     1
290
     0
176
     1
290
     0
176
     1
290
     0
176
     1
290
     0
176
     1
 90
       50
176
     1
 40
0.0
176
     1
 40
1.0
176
     1
 90
        0
176
     1
 62
    18
420
        0
176
     1
 90
       50
176
     1
 90
        3
176
     1
 62
     5
420
      255
176
     1
290
     0
176
     1
 90
       50
176
     1
 90
       50
176
     1
 90
       50
176
     1
290
     0
176
     1
 90
       50
176
     1
 62
   256
176
     0
 40
1.0
176
     0
 90
        2
176
     1
  1
strokes_ogs.tif
176
     1
290
     0
176
     1
 40
1.0
176
     1
 40
1.0
176
     1
  0
VISUALSTYLE
  5
42
102
{ACAD_REACTORS
330
2A
102
}
330
2A
100
AcDbVisualStyle
  2
Shaded
 70
    27
177
     3
291
     0
 70
    58
 90
        2
176
     1
 90
        2
176
     1
 90
        1
176
     1
 90
        2
176
     1
 40
0.6
176
     1
 40
30.0
176
     1
 62
     7
420
 16777215
176
     1
 90
        0
176
     1
 90
        4
176
     1
 62
     7
176
     1
 62
   257
176
     1
 90
        1
176
     1
 90
        1
176
     1
 40
1.0
176
     1
 90
        8
176
     1
 62
   257
176
     1
 40
1.0
176
     1
 90
        1
176
     1
 90
        6
176
     1
 90
        2
176
     1
 62
     8
420
  7895160
176
     1
 90
        3
176
     1
 90
        0
176
     1
 90
        0
176
     1
290
     0
176
     1
 90
        5
176
     1
 40
0.0
176
     1
 90
        0
176
     1
290
     0
176
     1
290
     1
176
     1
290
     1
176
     1
290
     0
176
     1
290
     0
176
     1
290
     0
176
     1
290
     0
176
     1
290
     0
176
     1
290
     0
176
     1
 90
       50
176
     1
 40
0.0
176
     1
 40
1.0
176
     1
 90
        0
176
     1
 62
    18
420
        0
176
     1
 90
       50
176
     1
 90
        3
176
     1
 62
     5
420
      255
176
     1
290
     0
176
     1
 90
       50
176
     1
 90
       50
176
     1
 90
       50
176
     1
290
     0
176
     1
 90
       50
176
     1
 62
   256
176
     0
 40
1.0
176
     0
 90
        2
176
     1
  1
strokes_ogs.tif
176
     1
290
     0
176
     1
 40
1.0
176
     1
 40
1.0
176
     1
  0
VISUALSTYLE
  5
41
102
{ACAD_REACTORS
330
2A
102
}
330
2A
100
AcDbVisualStyle
  2
Shaded with edges
 70
    26
177
     3
291
     0
 70
    58
 90
        2
176
     1
 90
        2
176
     1
 90
        1
176
     1
 90
        2
176
     1
 40
0.6
176
     1
 40
30.0
176
     1
 62
     7
420
 16777215
176
     1
 90
        1
176
     1
 90
       10
176
     1
 62
     7
176
     1
 62
   257
176
     1
 90
        2
176
     1
 90
        1
176
     1
 40
1.0
176
     1
 90
        8
176
     1
 62
   257
176
     1
 40
1.0
176
     1
 90
        1
176
     1
 90
        6
176
     1
 90
        2
176
     1
 62
     7
176
     1
 90
        3
176
     1
 90
        0
176
     1
 90
        0
176
     1
290
     0
176
     1
 90
        5
176
     1
 40
0.0
176
     1
 90
        0
176
     1
290
     0
176
     1
290
     1
176
     1
290
     1
176
     1
290
     0
176
     1
290
     0
176
     1
290
     0
176
     1
290
     0
176
     1
290
     0
176
     1
290
     0
176
     1
 90
       50
176
     1
 40
0.0
176
     1
 40
1.0
176
     1
 90
        0
176
     1
 62
    18
420
        0
176
     1
 90
       50
176
     1
 90
        3
176
     1
 62
     5
420
      255
176
     1
290
     0
176
     1
 90
       50
176
     1
 90
       50
176
     1
 90
       50
176
     1
290
     0
176
     1
 90
       50
176
     1
 62
   256
176
     0
 40
1.0
176
     0
 90
        2
176
     1
  1
strokes_ogs.tif
176
     1
290
     0
176
     1
 40
1.0
176
     1
 40
1.0
176
     1
  0
VISUALSTYLE
  5
3E
102
{ACAD_REACTORS
330
2A
102
}
330
2A
100
AcDbVisualStyle
  2
Shades of Gray
 70
    23
177
     3
291
     0
 70
    58
 90
        2
176
     1
 90
        2
176
     1
 90
        3
176
     1
 90
        0
176
     1
 40
0.6
176
     1
 40
30.0
176
     1
 62
     7
420
 16777215
176
     1
 90
        2
176
     1
 90
        2
176
     1
 62
     7
176
     1
 62
     7
176
     1
 90
        1
176
     1
 90
        1
176
     1
 40
40.0
176
     1
 90
        8
176
     1
 62
     7
176
     1
 40
1.0
176
     1
 90
        1
176
     1
 90
        6
176
     1
 90
        2
176
     1
 62
     7
176
     1
 90
        3
176
     1
 90
        0
176
     1
 90
        0
176
     1
290
     0
176
     1
 90
        1
176
     1
 40
0.0
176
     1
 90
        0
176
     1
290
     0
176
     1
290
     1
176
     1
290
     1
176
     1
290
     0
176
     1
290
     0
176
     1
290
     0
176
     1
290
     0
176
     1
290
     0
176
     1
290
     0
176
     1
 90
       50
176
     1
 40
0.0
176
     1
 40
1.0
176
     1
 90
        0
176
     1
 62
    18
420
        0
176
     1
 90
       50
176
     1
 90
        3
176
     1
 62
     5
420
      255
176
     1
290
     0
176
     1
 90
       50
176
     1
 90
       50
176
     1
 90
       50
176
     1
290
     0
176
     1
 90
       50
176
     1
 62
   256
176
     0
 40
1.0
176
     0
 90
        2
176
     1
  1
strokes_ogs.tif
176
     1
290
     0
176
     1
 40
1.0
176
     1
 40
1.0
176
     1
  0
VISUALSTYLE
  5
3F
102
{ACAD_REACTORS
330
2A
102
}
330
2A
100
AcDbVisualStyle
  2
Sketchy
 70
    24
177
     3
291
     0
 70
    58
 90
        1
176
     1
 90
        2
176
     1
 90
        2
176
     1
 90
        0
176
     1
 40
0.6
176
     1
 40
30.0
176
     1
 62
     7
420
 16777215
176
     1
 90
        2
176
     1
 90
        2
176
     1
 62
     7
176
     1
 62
     7
176
     1
 90
        1
176
     1
 90
        1
176
     1
 40
40.0
176
     1
 90
       11
176
     1
 62
     7
176
     1
 40
1.0
176
     1
 90
        1
176
     1
 90
        6
176
     1
 90
        2
176
     1
 62
     7
176
     1
 90
        6
176
     1
 90
        0
176
     1
 90
        0
176
     1
290
     0
176
     1
 90
        1
176
     1
 40
0.0
176
     1
 90
        0
176
     1
290
     0
176
     1
290
     1
176
     1
290
     1
176
     1
290
     0
176
     1
290
     0
176
     1
290
     0
176
     1
290
     0
176
     1
290
     0
176
     1
290
     0
176
     1
 90
       50
176
     1
 40
0.0
176
     1
 40
1.0
176
     1
 90
        0
176
     1
 62
    18
420
        0
176
     1
 90
       50
176
     1
 90
        3
176
     1
 62
     5
420
      255
176
     1
290
     0
176
     1
 90
       50
176
     1
 90
       50
176
     1
 90
       50
176
     1
290
     0
176
     1
 90
       50
176
     1
 62
   256
176
     0
 40
1.0
176
     0
 90
        2
176
     1
  1
strokes_ogs.tif
176
     1
290
     0
176
     1
 40
1.0
176
     1
 40
1.0
176
     1
  0
VISUALSTYLE
  5
37
102
{ACAD_REACTORS
330
2A
102
}
330
2A
100
AcDbVisualStyle
  2
Thicken
 70
    13
177
     3
291
     1
 70
    58
 90
        2
176
     1
 90
        2
176
     1
 90
        0
176
     1
 90
        0
176
     1
 40
0.6
176
     1
 40
30.0
176
     1
 62
     7
420
 16777215
176
     1
 90
        1
176
     1
 90
        4
176
     1
 62
     7
176
     1
 62
   257
176
     1
 90
        1
176
     1
 90
        1
176
     1
 40
1.0
176
     1
 90
       12
176
     1
 62
     7
176
     1
 40
1.0
176
     1
 90
        1
176
     1
 90
        6
176
     1
 90
        2
176
     1
 62
     7
176
     1
 90
        5
176
     1
 90
        0
176
     1
 90
        0
176
     1
290
     0
176
     1
 90
        1
176
     1
 40
0.0
176
     1
 90
        0
176
     1
290
     0
176
     1
290
     1
176
     1
290
     1
176
     1
290
     0
176
     1
290
     0
176
     1
290
     0
176
     1
290
     0
176
     1
290
     0
176
     1
290
     0
176
     1
 90
       50
176
     1
 40
0.0
176
     1
 40
1.0
176
     1
 90
        0
176
     1
 62
    18
420
        0
176
     1
 90
       50
176
     1
 90
        3
176
     1
 62
     5
420
      255
176
     1
290
     0
176
     1
 90
       50
176
     1
 90
       50
176
     1
 90
       50
176
     1
290
     0
176
     1
 90
       50
176
     1
 62
   256
176
     0
 40
1.0
176
     0
 90
        2
176
     1
  1
strokes_ogs.tif
176
     1
290
     0
176
     1
 40
1.0
176
     1
 40
1.0
176
     1
  0
VISUALSTYLE
  5
30
102
{ACAD_REACTORS
330
2A
102
}
330
2A
100
AcDbVisualStyle
  2
Wireframe
 70
     5
177
     3
291
     0
 70
    58
 90
        0
176
     1
 90
        2
176
     1
 90
        0
176
     1
 90
        0
176
     1
 40
0.6
176
     1
 40
30.0
176
     1
 62
     7
420
 16777215
176
     1
 90
        1
176
     1
 90
        4
176
     1
 62
     7
176
     1
 62
   257
176
     1
 90
        1
176
     1
 90
        1
176
     1
 40
1.0
176
     1
 90
        0
176
     1
 62
   257
176
     1
 40
1.0
176
     1
 90
        1
176
     1
 90
        6
176
     1
 90
        2
176
     1
 62
     7
176
     1
 90
        3
176
     1
 90
        0
176
     1
 90
        0
176
     1
290
     0
176
     1
 90
        1
176
     1
 40
0.0
176
     1
 90
        0
176
     1
290
     0
176
     1
290
     1
176
     1
290
     1
176
     1
290
     0
176
     1
290
     0
176
     1
290
     0
176
     1
290
     0
176
     1
290
     0
176
     1
290
     0
176
     1
 90
       50
176
     1
 40
0.0
176
     1
 40
1.0
176
     1
 90
        0
176
     1
 62
    18
420
        0
176
     1
 90
       50
176
     1
 90
        3
176
     1
 62
     5
420
      255
176
     1
290
     0
176
     1
 90
       50
176
     1
 90
       50
176
     1
 90
       50
176
     1
290
     0
176
     1
 90
       50
176
     1
 62
   256
176
     0
 40
1.0
176
     0
 90
        2
176
     1
  1
strokes_ogs.tif
176
     1
290
     0
176
     1
 40
1.0
176
     1
 40
1.0
176
     1
  0
VISUALSTYLE
  5
40
102
{ACAD_REACTORS
330
2A
102
}
330
2A
100
AcDbVisualStyle
  2
X-Ray
 70
    25
177
     3
291
     0
 70
    58
 90
        2
176
     1
 90
        2
176
     1
 90
        1
176
     1
 90
        1
176
     1
 40
0.5
176
     1
 40
30.0
176
     1
 62
     7
420
 16777215
176
     1
 90
        1
176
     1
 90
        0
176
     1
 62
     7
176
     1
 62
   257
176
     1
 90
        1
176
     1
 90
        1
176
     1
 40
1.0
176
     1
 90
        8
176
     1
 62
     7
176
     1
 40
1.0
176
     1
 90
        1
176
     1
 90
        6
176
     1
 90
        2
176
     1
 62
     7
176
     1
 90
        3
176
     1
 90
        0
176
     1
 90
        0
176
     1
290
     0
176
     1
 90
       13
176
     1
 40
0.0
176
     1
 90
        0
176
     1
290
     0
176
     1
290
     1
176
     1
290
     1
176
     1
290
     0
176
     1
290
     0
176
     1
290
     0
176
     1
290
     0
176
     1
290
     0
176
     1
290
     0
176
     1
 90
       50
176
     1
 40
0.0
176
     1
 40
1.0
176
     1
 90
        0
176
     1
 62
    18
420
        0
176
     1
 90
       50
176
     1
 90
        3
176
     1
 62
     5
420
      255
176
     1
290
     0
176
     1
 90
       50
176
     1
 90
       50
176
     1
 90
       50
176
     1
290
     0
176
     1
 90
       50
176
     1
 62
   256
176
     0
 40
1.0
176
     0
 90
        2
176
     1
  1
strokes_ogs.tif
176
     1
290
     0
176
     1
 40
1.0
176
     1
 40
1.0
176
     1
  0
DICTIONARYVAR
  5
7E
102
{ACAD_REACTORS
330
7D
102
}
330
7D
100
DictionaryVariables
280
     0
  1
1:1
  0
DICTIONARYVAR
  5
83
102
{ACAD_REACTORS
330
7D
102
}
330
7D
100
DictionaryVariables
280
     0
  1
Standard
  0
DICTIONARYVAR
  5
82
102
{ACAD_REACTORS
330
7D
102
}
330
7D
100
DictionaryVariables
280
     0
  1
Standard
  0
DICTIONARY
  5
7F
330
5A
100
AcDbDictionary
280
     1
281
     1
  3
ACAD_ROUNDTRIP_2008_TABLESTYLE_CELLSTYLEMAP
360
80
  0
CELLSTYLEMAP
  5
80
102
{ACAD_REACTORS
330
7F
102
}
330
7F
100
AcDbCellStyleMap
 90
        3
300
CELLSTYLE
  1
TABLEFORMAT_BEGIN
 90
        5
170
     1
 91
        0
 92
    32768
 62
   257
 93
        1
300
CONTENTFORMAT
  1
CONTENTFORMAT_BEGIN
 90
        0
 91
        0
 92
        4
 93
        0
300

 40
0.0
140
1.0
 94
        5
 62
     0
340
11
144
0.25
309
CONTENTFORMAT_END
171
     1
301
MARGIN
  1
CELLMARGIN_BEGIN
 40
0.06
 40
0.06
 40
0.06
 40
0.06
 40
0.06
 40
0.06
309
CELLMARGIN_END
 94
        6
 95
        1
302
GRIDFORMAT
  1
GRIDFORMAT_BEGIN
 90
        0
 91
        1
 62
     0
 92
       -2
340
14
 93
        0
 40
0.045
309
GRIDFORMAT_END
 95
        2
302
GRIDFORMAT
  1
GRIDFORMAT_BEGIN
 90
        0
 91
        1
 62
     0
 92
       -2
340
14
 93
        0
 40
0.045
309
GRIDFORMAT_END
 95
        4
302
GRIDFORMAT
  1
GRIDFORMAT_BEGIN
 90
        0
 91
        1
 62
     0
 92
       -2
340
14
 93
        0
 40
0.045
309
GRIDFORMAT_END
 95
        8
302
GRIDFORMAT
  1
GRIDFORMAT_BEGIN
 90
        0
 91
        1
 62
     0
 92
       -2
340
14
 93
        0
 40
0.045
309
GRIDFORMAT_END
 95
       16
302
GRIDFORMAT
  1
GRIDFORMAT_BEGIN
 90
        0
 91
        1
 62
     0
 92
       -2
340
14
 93
        0
 40
0.045
309
GRIDFORMAT_END
 95
       32
302
GRIDFORMAT
  1
GRIDFORMAT_BEGIN
 90
        0
 91
        1
 62
     0
 92
       -2
340
14
 93
        0
 40
0.045
309
GRIDFORMAT_END
309
TABLEFORMAT_END
  1
CELLSTYLE_BEGIN
 90
        1
 91
        1
300
_TITLE
309
CELLSTYLE_END
300
CELLSTYLE
  1
TABLEFORMAT_BEGIN
 90
        5
170
     1
 91
        0
 92
        0
 62
   257
 93
        1
300
CONTENTFORMAT
  1
CONTENTFORMAT_BEGIN
 90
        0
 91
        0
 92
        4
 93
        0
300

 40
0.0
140
1.0
 94
        5
 62
     0
340
11
144
0.18
309
CONTENTFORMAT_END
171
     1
301
MARGIN
  1
CELLMARGIN_BEGIN
 40
0.06
 40
0.06
 40
0.06
 40
0.06
 40
0.06
 40
0.06
309
CELLMARGIN_END
 94
        6
 95
        1
302
GRIDFORMAT
  1
GRIDFORMAT_BEGIN
 90
        0
 91
        1
 62
     0
 92
       -2
340
14
 93
        0
 40
0.045
309
GRIDFORMAT_END
 95
        2
302
GRIDFORMAT
  1
GRIDFORMAT_BEGIN
 90
        0
 91
        1
 62
     0
 92
       -2
340
14
 93
        0
 40
0.045
309
GRIDFORMAT_END
 95
        4
302
GRIDFORMAT
  1
GRIDFORMAT_BEGIN
 90
        0
 91
        1
 62
     0
 92
       -2
340
14
 93
        0
 40
0.045
309
GRIDFORMAT_END
 95
        8
302
GRIDFORMAT
  1
GRIDFORMAT_BEGIN
 90
        0
 91
        1
 62
     0
 92
       -2
340
14
 93
        0
 40
0.045
309
GRIDFORMAT_END
 95
       16
302
GRIDFORMAT
  1
GRIDFORMAT_BEGIN
 90
        0
 91
        1
 62
     0
 92
       -2
340
14
 93
        0
 40
0.045
309
GRIDFORMAT_END
 95
       32
302
GRIDFORMAT
  1
GRIDFORMAT_BEGIN
 90
        0
 91
        1
 62
     0
 92
       -2
340
14
 93
        0
 40
0.045
309
GRIDFORMAT_END
309
TABLEFORMAT_END
  1
CELLSTYLE_BEGIN
 90
        2
 91
        1
300
_HEADER
309
CELLSTYLE_END
300
CELLSTYLE
  1
TABLEFORMAT_BEGIN
 90
        5
170
     1
 91
        0
 92
        0
 62
   257
 93
        1
300
CONTENTFORMAT
  1
CONTENTFORMAT_BEGIN
 90
        0
 91
        0
 92
        4
 93
        0
300

 40
0.0
140
1.0
 94
        2
 62
     0
340
11
144
0.18
309
CONTENTFORMAT_END
171
     1
301
MARGIN
  1
CELLMARGIN_BEGIN
 40
0.06
 40
0.06
 40
0.06
 40
0.06
 40
0.06
 40
0.06
309
CELLMARGIN_END
 94
        6
 95
        1
302
GRIDFORMAT
  1
GRIDFORMAT_BEGIN
 90
        0
 91
        1
 62
     0
 92
       -2
340
14
 93
        0
 40
0.045
309
GRIDFORMAT_END
 95
        2
302
GRIDFORMAT
  1
GRIDFORMAT_BEGIN
 90
        0
 91
        1
 62
     0
 92
       -2
340
14
 93
        0
 40
0.045
309
GRIDFORMAT_END
 95
        4
302
GRIDFORMAT
  1
GRIDFORMAT_BEGIN
 90
        0
 91
        1
 62
     0
 92
       -2
340
14
 93
        0
 40
0.045
309
GRIDFORMAT_END
 95
        8
302
GRIDFORMAT
  1
GRIDFORMAT_BEGIN
 90
        0
 91
        1
 62
     0
 92
       -2
340
14
 93
        0
 40
0.045
309
GRIDFORMAT_END
 95
       16
302
GRIDFORMAT
  1
GRIDFORMAT_BEGIN
 90
        0
 91
        1
 62
     0
 92
       -2
340
14
 93
        0
 40
0.045
309
GRIDFORMAT_END
 95
       32
302
GRIDFORMAT
  1
GRIDFORMAT_BEGIN
 90
        0
 91
        1
 62
     0
 92
       -2
340
14
 93
        0
 40
0.045
309
GRIDFORMAT_END
309
TABLEFORMAT_END
  1
CELLSTYLE_BEGIN
 90
        3
 91
        2
300
_DATA
309
CELLSTYLE_END
  0
ENDSEC
  0
EOF
