  0
SECTION
  2
HEADER
  9
$ACADVER
  1
AC1027
  9
$ACADMAINTVER
 70
   105
  9
$DWGCODEPAGE
  3
ANSI_1252
  9
$LASTSAVEDBY
  1
Office Desk
  9
$REQUIREDVERSIONS
160
                 0
  9
$INSBASE
 10
0.0
 20
0.0
 30
0.0
  9
$EXTMIN
 10
-12.14701181102362
 20
-15.91848031496063
 30
0.0
  9
$EXTMAX
 10
2.777448818897638
 20
-8.827665354330708
 30
0.0
  9
$LIMMIN
 10
0.0
 20
0.0
  9
$LIMMAX
 10
12.0
 20
9.0
  9
$ORTHOMODE
 70
     0
  9
$REGENMODE
 70
     1
  9
$FILLMODE
 70
     1
  9
$QTEXTMODE
 70
     0
  9
$MIRRTEXT
 70
     1
  9
$LTSCALE
 40
1.0
  9
$ATTMODE
 70
     1
  9
$TEXTSIZE
 40
0.2
  9
$TRACEWID
 40
0.05
  9
$TEXTSTYLE
  7
Standard
  9
$CLAYER
  8
0
  9
$CELTYPE
  6
ByLayer
  9
$CECOLOR
 62
   256
  9
$CELTSCALE
 40
1.0
  9
$DISPSILH
 70
     0
  9
$DIMSCALE
 40
1.0
  9
$DIMASZ
 40
0.18
  9
$DIMEXO
 40
0.0625
  9
$DIMDLI
 40
0.38
  9
$DIMRND
 40
0.0
  9
$DIMDLE
 40
0.0
  9
$DIMEXE
 40
0.18
  9
$DIMTP
 40
0.0
  9
$DIMTM
 40
0.0
  9
$DIMTXT
 40
0.18
  9
$DIMCEN
 40
0.09
  9
$DIMTSZ
 40
0.0
  9
$DIMTOL
 70
     0
  9
$DIMLIM
 70
     0
  9
$DIMTIH
 70
     1
  9
$DIMTOH
 70
     1
  9
$DIMSE1
 70
     0
  9
$DIMSE2
 70
     0
  9
$DIMTAD
 70
     0
  9
$DIMZIN
 70
     0
  9
$DIMBLK
  1

  9
$DIMASO
 70
     1
  9
$DIMSHO
 70
     1
  9
$DIMPOST
  1

  9
$DIMAPOST
  1

  9
$DIMALT
 70
     0
  9
$DIMALTD
 70
     2
  9
$DIMALTF
 40
25.4
  9
$DIMLFAC
 40
1.0
  9
$DIMTOFL
 70
     0
  9
$DIMTVP
 40
0.0
  9
$DIMTIX
 70
     0
  9
$DIMSOXD
 70
     0
  9
$DIMSAH
 70
     0
  9
$DIMBLK1
  1

  9
$DIMBLK2
  1

  9
$DIMSTYLE
  2
Standard
  9
$DIMCLRD
 70
     0
  9
$DIMCLRE
 70
     0
  9
$DIMCLRT
 70
     0
  9
$DIMTFAC
 40
1.0
  9
$DIMGAP
 40
0.09
  9
$DIMJUST
 70
     0
  9
$DIMSD1
 70
     0
  9
$DIMSD2
 70
     0
  9
$DIMTOLJ
 70
     1
  9
$DIMTZIN
 70
     0
  9
$DIMALTZ
 70
     0
  9
$DIMALTTZ
 70
     0
  9
$DIMUPT
 70
     0
  9
$DIMDEC
 70
     4
  9
$DIMTDEC
 70
     4
  9
$DIMALTU
 70
     2
  9
$DIMALTTD
 70
     2
  9
$DIMTXSTY
  7
Standard
  9
$DIMAUNIT
 70
     0
  9
$DIMADEC
 70
     0
  9
$DIMALTRND
 40
0.0
  9
$DIMAZIN
 70
     0
  9
$DIMDSEP
 70
    46
  9
$DIMATFIT
 70
     3
  9
$DIMFRAC
 70
     0
  9
$DIMLDRBLK
  1

  9
$DIMLUNIT
 70
     2
  9
$DIMLWD
 70
    -2
  9
$DIMLWE
 70
    -2
  9
$DIMTMOVE
 70
     0
  9
$DIMFXL
 40
1.0
  9
$DIMFXLON
 70
     0
  9
$DIMJOGANG
 40
0.7853981633974483
  9
$DIMTFILL
 70
     0
  9
$DIMTFILLCLR
 70
     0
  9
$DIMARCSYM
 70
     0
  9
$DIMLTYPE
  6

  9
$DIMLTEX1
  6

  9
$DIMLTEX2
  6

  9
$DIMTXTDIRECTION
 70
     0
  9
$LUNITS
 70
     2
  9
$LUPREC
 70
     4
  9
$SKETCHINC
 40
0.1
  9
$FILLETRAD
 40
0.0
  9
$AUNITS
 70
     0
  9
$AUPREC
 70
     0
  9
$MENU
  1
.
  9
$ELEVATION
 40
0.0
  9
$PELEVATION
 40
0.0
  9
$THICKNESS
 40
0.0
  9
$LIMCHECK
 70
     0
  9
$CHAMFERA
 40
0.0
  9
$CHAMFERB
 40
0.0
  9
$CHAMFERC
 40
0.0
  9
$CHAMFERD
 40
0.0
  9
$SKPOLY
 70
     0
  9
$TDCREATE
 40
2461020.692443033
  9
$TDUCREATE
 40
2461020.463276366
  9
$TDUPDATE
 40
2461020.692443218
  9
$TDUUPDATE
 40
2461020.463276551
  9
$TDINDWG
 40
0.0000000116
  9
$TDUSRTIMER
 40
0.0000000116
  9
$USRTIMER
 70
     1
  9
$ANGBASE
 50
0.0
  9
$ANGDIR
 70
     0
  9
$PDMODE
 70
     0
  9
$PDSIZE
 40
0.0
  9
$PLINEWID
 40
0.0
  9
$SPLFRAME
 70
     0
  9
$SPLINETYPE
 70
     6
  9
$SPLINESEGS
 70
     8
  9
$HANDSEED
  5
85
  9
$SURFTAB1
 70
     6
  9
$SURFTAB2
 70
     6
  9
$SURFTYPE
 70
     6
  9
$SURFU
 70
     6
  9
$SURFV
 70
     6
  9
$UCSBASE
  2

  9
$UCSNAME
  2

  9
$UCSORG
 10
0.0
 20
0.0
 30
0.0
  9
$UCSXDIR
 10
1.0
 20
0.0
 30
0.0
  9
$UCSYDIR
 10
0.0
 20
1.0
 30
0.0
  9
$UCSORTHOREF
  2

  9
$UCSORTHOVIEW
 70
     0
  9
$UCSORGTOP
 10
0.0
 20
0.0
 30
0.0
  9
$UCSORGBOTTOM
 10
0.0
 20
0.0
 30
0.0
  9
$UCSORGLEFT
 10
0.0
 20
0.0
 30
0.0
  9
$UCSORGRIGHT
 10
0.0
 20
0.0
 30
0.0
  9
$UCSORGFRONT
 10
0.0
 20
0.0
 30
0.0
  9
$UCSORGBACK
 10
0.0
 20
0.0
 30
0.0
  9
$PUCSBASE
  2

  9
$PUCSNAME
  2

  9
$PUCSORG
 10
0.0
 20
0.0
 30
0.0
  9
$PUCSXDIR
 10
1.0
 20
0.0
 30
0.0
  9
$PUCSYDIR
 10
0.0
 20
1.0
 30
0.0
  9
$PUCSORTHOREF
  2

  9
$PUCSORTHOVIEW
 70
     0
  9
$PUCSORGTOP
 10
0.0
 20
0.0
 30
0.0
  9
$PUCSORGBOTTOM
 10
0.0
 20
0.0
 30
0.0
  9
$PUCSORGLEFT
 10
0.0
 20
0.0
 30
0.0
  9
$PUCSORGRIGHT
 10
0.0
 20
0.0
 30
0.0
  9
$PUCSORGFRONT
 10
0.0
 20
0.0
 30
0.0
  9
$PUCSORGBACK
 10
0.0
 20
0.0
 30
0.0
  9
$USERI1
 70
     0
  9
$USERI2
 70
     0
  9
$USERI3
 70
     0
  9
$USERI4
 70
     0
  9
$USERI5
 70
     0
  9
$USERR1
 40
0.0
  9
$USERR2
 40
0.0
  9
$USERR3
 40
0.0
  9
$USERR4
 40
0.0
  9
$USERR5
 40
0.0
  9
$WORLDVIEW
 70
     1
  9
$SHADEDGE
 70
     3
  9
$SHADEDIF
 70
    70
  9
$TILEMODE
 70
     1
  9
$MAXACTVP
 70
    64
  9
$PINSBASE
 10
0.0
 20
0.0
 30
0.0
  9
$PLIMCHECK
 70
     0
  9
$PEXTMIN
 10
1.000000000000000E+20
 20
1.000000000000000E+20
 30
1.000000000000000E+20
  9
$PEXTMAX
 10
-1.000000000000000E+20
 20
-1.000000000000000E+20
 30
-1.000000000000000E+20
  9
$PLIMMIN
 10
0.0
 20
0.0
  9
$PLIMMAX
 10
12.0
 20
9.0
  9
$UNITMODE
 70
     0
  9
$VISRETAIN
 70
     1
  9
$PLINEGEN
 70
     0
  9
$PSLTSCALE
 70
     1
  9
$TREEDEPTH
 70
  3020
  9
$CMLSTYLE
  2
Standard
  9
$CMLJUST
 70
     0
  9
$CMLSCALE
 40
1.0
  9
$PROXYGRAPHICS
 70
     1
  9
$MEASUREMENT
 70
     0
  9
$CELWEIGHT
370
    -1
  9
$ENDCAPS
280
     0
  9
$JOINSTYLE
280
     0
  9
$LWDISPLAY
290
     0
  9
$INSUNITS
 70
     1
  9
$HYPERLINKBASE
  1

  9
$STYLESHEET
  1

  9
$XEDIT
290
     1
  9
$CEPSNTYPE
380
     0
  9
$PSTYLEMODE
290
     1
  9
$FINGERPRINTGUID
  2
{ebe347de-da15-42c5-ad3c-f7a8450c7b01}
  9
$VERSIONGUID
  2
{FAEB1C32-E019-11D5-929B-00C0DF256EC4}
  9
$EXTNAMES
290
     1
  9
$PSVPSCALE
 40
0.0
  9
$OLESTARTUP
290
     0
  9
$SORTENTS
280
   127
  9
$INDEXCTL
280
     0
  9
$HIDETEXT
280
     1
  9
$XCLIPFRAME
280
     2
  9
$HALOGAP
280
     0
  9
$OBSCOLOR
 70
   257
  9
$OBSLTYPE
280
     0
  9
$INTERSECTIONDISPLAY
280
     0
  9
$INTERSECTIONCOLOR
 70
   257
  9
$DIMASSOC
280
     2
  9
$PROJECTNAME
  1

  9
$CAMERADISPLAY
290
     0
  9
$LENSLENGTH
 40
50.0
  9
$CAMERAHEIGHT
 40
0.0
  9
$STEPSPERSEC
 40
2.0
  9
$STEPSIZE
 40
6.0
  9
$3DDWFPREC
 40
2.0
  9
$PSOLWIDTH
 40
0.25
  9
$PSOLHEIGHT
 40
4.0
  9
$LOFTANG1
 40
1.570796326794897
  9
$LOFTANG2
 40
1.570796326794897
  9
$LOFTMAG1
 40
0.0
  9
$LOFTMAG2
 40
0.0
  9
$LOFTPARAM
 70
     7
  9
$LOFTNORMALS
280
     1
  9
$LATITUDE
 40
37.795
  9
$LONGITUDE
 40
-122.394
  9
$NORTHDIRECTION
 40
0.0
  9
$TIMEZONE
 70
 -8000
  9
$LIGHTGLYPHDISPLAY
280
     1
  9
$TILEMODELIGHTSYNCH
280
     1
  9
$CMATERIAL
347
44
  9
$SOLIDHIST
280
     0
  9
$SHOWHIST
280
     1
  9
$DWFFRAME
280
     2
  9
$DGNFRAME
280
     2
  9
$REALWORLDSCALE
290
     1
  9
$INTERFERECOLOR
 62
   256
  9
$CSHADOW
280
     0
  9
$SHADOWPLANELOCATION
 40
0.0
  0
ENDSEC
  0
SECTION
  2
CLASSES
  0
CLASS
  1
ACDBDICTIONARYWDFLT
  2
AcDbDictionaryWithDefault
  3
ObjectDBX Classes
 90
        0
 91
        3
280
     0
281
     0
  0
CLASS
  1
VISUALSTYLE
  2
AcDbVisualStyle
  3
ObjectDBX Classes
 90
     4095
 91
        3
280
     0
281
     0
  0
CLASS
  1
MATERIAL
  2
AcDbMaterial
  3
ObjectDBX Classes
 90
     1153
 91
        3
280
     0
281
     0
  0
CLASS
  1
SCALE
  2
AcDbScale
  3
ObjectDBX Classes
 90
     1153
 91
        3
280
     0
281
     0
  0
CLASS
  1
TABLESTYLE
  2
AcDbTableStyle
  3
ObjectDBX Classes
 90
     4095
 91
        3
280
     0
281
     0
  0
CLASS
  1
MLEADERSTYLE
  2
AcDbMLeaderStyle
  3
ACDB_MLEADERSTYLE_CLASS
 90
     4095
 91
        3
280
     0
281
     0
  0
CLASS
  1
SUN
  2
AcDbSun
  3
SCENEOE
 90
     1153
 91
        3
280
     0
281
     0
  0
CLASS
  1
DICTIONARYVAR
  2
AcDbDictionaryVar
  3
ObjectDBX Classes
 90
        0
 91
        3
280
     0
281
     0
  0
CLASS
  1
CELLSTYLEMAP
  2
AcDbCellStyleMap
  3
ObjectDBX Classes
 90
     1152
 91
        3
280
     0
281
     0
  0
ENDSEC
  0
SECTION
  2
TABLES
  0
TABLE
  2
VPORT
  5
8
330
0
100
AcDbSymbolTable
 70
     1
  0
VPORT
  5
29
330
8
100
AcDbSymbolTableRecord
100
AcDbViewportTableRecord
  2
*Active
 70
     0
 10
0.0
 20
0.0
 11
1.0
 21
1.0
 12
10.42990654205607
 22
4.5
 13
0.0
 23
0.0
 14
0.5
 24
0.5
 15
0.5
 25
0.5
 16
0.0
 26
0.0
 36
1.0
 17
0.0
 27
0.0
 37
0.0
 40
9.0
 41
1.972972972850329
 42
50.0
 43
0.0
 44
0.0
 50
0.0
 51
0.0
 71
     0
 72
   100
 73
     1
 74
     3
 75
     0
 76
     0
 77
     0
 78
     0
281
     0
 65
     1
110
0.0
120
0.0
130
0.0
111
1.0
121
0.0
131
0.0
112
0.0
122
1.0
132
0.0
 79
     0
146
0.0
348
2F
 60
     3
 61
     5
292
     1
282
     1
141
0.0
142
0.0
 63
   250
361
5D
  0
ENDTAB
  0
TABLE
  2
LTYPE
  5
5
330
0
100
AcDbSymbolTable
 70
     1
  0
LTYPE
  5
14
330
5
100
AcDbSymbolTableRecord
100
AcDbLinetypeTableRecord
  2
ByBlock
 70
     0
  3

 72
    65
 73
     0
 40
0.0
  0
LTYPE
  5
15
330
5
100
AcDbSymbolTableRecord
100
AcDbLinetypeTableRecord
  2
ByLayer
 70
     0
  3

 72
    65
 73
     0
 40
0.0
  0
LTYPE
  5
16
330
5
100
AcDbSymbolTableRecord
100
AcDbLinetypeTableRecord
  2
Continuous
 70
     0
  3
Solid line
 72
    65
 73
     0
 40
0.0
  0
ENDTAB
  0
TABLE
  2
LAYER
  5
2
330
0
100
AcDbSymbolTable
 70
     2
  0
LAYER
  5
10
330
2
100
AcDbSymbolTableRecord
100
AcDbLayerTableRecord
  2
0
 70
     0
 62
     7
  6
Continuous
370
    -3
390
F
347
46
348
0
  0
LAYER
  5
5F
330
2
100
AcDbSymbolTableRecord
100
AcDbLayerTableRecord
  2
Layer 1
 70
     0
 62
     7
  6
Continuous
370
    -3
390
F
347
46
348
0
  0
ENDTAB
  0
TABLE
  2
STYLE
  5
3
330
0
100
AcDbSymbolTable
 70
     1
  0
STYLE
  5
11
330
3
100
AcDbSymbolTableRecord
100
AcDbTextStyleTableRecord
  2
Standard
 70
     0
 40
0.0
 41
1.0
 50
0.0
 71
     0
 42
0.2
  3
txt
  4

  0
ENDTAB
  0
TABLE
  2
VIEW
  5
6
330
0
100
AcDbSymbolTable
 70
     0
  0
ENDTAB
  0
TABLE
  2
UCS
  5
7
330
0
100
AcDbSymbolTable
 70
     0
  0
ENDTAB
  0
TABLE
  2
APPID
  5
9
330
0
100
AcDbSymbolTable
 70
     2
  0
APPID
  5
12
330
9
100
AcDbSymbolTableRecord
100
AcDbRegAppTableRecord
  2
ACAD
 70
     0
  0
APPID
  5
5E
330
9
100
AcDbSymbolTableRecord
100
AcDbRegAppTableRecord
  2
ODA
 70
     0
  0
ENDTAB
  0
TABLE
  2
DIMSTYLE
  5
A
330
0
100
AcDbSymbolTable
 70
     1
100
AcDbDimStyleTable
  0
DIMSTYLE
105
27
330
A
100
AcDbSymbolTableRecord
100
AcDbDimStyleTableRecord
  2
Standard
 70
     0
178
     0
340
11
  0
ENDTAB
  0
TABLE
  2
BLOCK_RECORD
  5
1
330
0
100
AcDbSymbolTable
 70
     1
  0
BLOCK_RECORD
  5
1F
330
1
100
AcDbSymbolTableRecord
100
AcDbBlockTableRecord
  2
*Model_Space
340
22
 70
     0
280
     1
281
     0
  0
BLOCK_RECORD
  5
1B
330
1
100
AcDbSymbolTableRecord
100
AcDbBlockTableRecord
  2
*Paper_Space
340
1E
 70
     0
280
     1
281
     0
  0
BLOCK_RECORD
  5
23
330
1
100
AcDbSymbolTableRecord
100
AcDbBlockTableRecord
  2
*Paper_Space0
340
26
 70
     0
280
     1
281
     0
  0
ENDTAB
  0
ENDSEC
  0
SECTION
  2
BLOCKS
  0
BLOCK
  5
20
330
1F
100
AcDbEntity
  8
0
100
AcDbBlockBegin
  2
*Model_Space
 70
     0
 10
0.0
 20
0.0
 30
0.0
  3
*Model_Space
  1

  0
ENDBLK
  5
21
330
1F
100
AcDbEntity
  8
0
100
AcDbBlockEnd
  0
BLOCK
  5
1C
330
1B
100
AcDbEntity
 67
     1
  8
0
100
AcDbBlockBegin
  2
*Paper_Space
 70
     0
 10
0.0
 20
0.0
 30
0.0
  3
*Paper_Space
  1

  0
ENDBLK
  5
1D
330
1B
100
AcDbEntity
 67
     1
  8
0
100
AcDbBlockEnd
  0
BLOCK
  5
24
330
23
100
AcDbEntity
  8
0
100
AcDbBlockBegin
  2
*Paper_Space0
 70
     0
 10
0.0
 20
0.0
 30
0.0
  3
*Paper_Space0
  1

  0
ENDBLK
  5
25
330
23
100
AcDbEntity
  8
0
100
AcDbBlockEnd
  0
ENDSEC
  0
SECTION
  2
ENTITIES
  0
LWPOLYLINE
  5
60
330
1F
100
AcDbEntity
  8
Layer 1
 62
   250
370
     9
100
AcDbPolyline
 90
        5
 70
     1
 43
0.0
 10
-12.14551181102362
 20
-15.91697637795276
 10
2.775944881889764
 20
-15.91697637795276
 10
2.775944881889764
 20
-8.829165354330708
 10
-12.14551181102362
 20
-8.829165354330708
 10
-12.14551181102362
 20
-15.91697637795276
  0
LWPOLYLINE
  5
61
330
1F
100
AcDbEntity
  8
Layer 1
 62
     7
370
     9
100
AcDbPolyline
 90
       69
 70
     1
 43
0.0
 10
-10.11379527559055
 20
-13.1491811023622
 10
-10.02951181102362
 20
-13.11218110236221
 10
-8.28544094488189
 20
-13.79257086614173
 10
-8.274015748031497
 20
-13.79875196850394
 10
-8.24042125984252
 20
-13.8137125984252
 10
-8.185688976377953
 20
-13.83207874015748
 10
-8.11084251968504
 20
-13.84847637795276
 10
-8.016909448818897
 20
-13.85753149606299
 10
-7.90492125984252
 20
-13.85387007874016
 10
-7.775901574803149
 20
-13.83212204724409
 10
-7.63088188976378
 20
-13.7869094488189
 10
-4.258338582677165
 20
-12.50661023622047
 10
1.223527559055118
 20
-10.54432283464567
 10
1.235535433070866
 20
-10.5418937007874
 10
1.265657480314961
 20
-10.53496850393701
 10
1.305031496062992
 20
-10.5241062992126
 10
1.344795275590551
 20
-10.50985826771653
 10
1.376090551181102
 20
-10.49277559055118
 10
1.390055118110236
 20
-10.4734094488189
 10
1.377834645669291
 20
-10.4523188976378
 10
1.33055905511811
 20
-10.43004724409449
 10
-0.5520629921259842
 20
-9.94161811023622
 10
-0.3985708661417323
 20
-9.888212598425197
 10
1.42257874015748
 20
-10.36426771653543
 10
1.429444881889764
 20
-10.3664094488189
 10
1.447484251968504
 20
-10.37277165354331
 10
1.472854330708661
 20
-10.38325590551181
 10
1.501712598425197
 20
-10.39777165354331
 10
1.530228346456693
 20
-10.41621653543307
 10
1.554551181102362
 20
-10.4385
 10
1.570846456692913
 20
-10.46452362204724
 10
1.575271653543307
 20
-10.49419291338583
 10
1.574681102362205
 20
-10.50651968503937
 10
1.573062992125984
 20
-10.53938582677165
 10
1.570645669291339
 20
-10.58661811023622
 10
1.567661417322835
 20
-10.64204724409449
 10
1.564338582677165
 20
-10.6995
 10
1.560905511811024
 20
-10.7528031496063
 10
1.557590551181102
 20
-10.7957874015748
 10
1.554625984251969
 20
-10.82227952755906
 10
1.552645669291339
 20
-10.82490157480315
 10
1.545472440944882
 20
-10.83246850393701
 10
1.531267716535433
 20
-10.84452362204724
 10
1.508177165354331
 20
-10.86061811023622
 10
1.474362204724409
 20
-10.88029527559055
 10
1.427972440944882
 20
-10.90310236220472
 10
1.367165354330709
 20
-10.9285905511811
 10
1.29009842519685
 20
-10.95629921259843
 10
1.21446062992126
 20
-10.98153543307087
 10
1.157425196850394
 20
-11.0005
 10
1.11636220472441
 20
-11.0140905511811
 10
1.088653543307087
 20
-11.02320078740157
 10
1.071669291338583
 20
-11.02872440944882
 10
1.062787401574803
 20
-11.03156299212598
 10
1.059381889763779
 20
-11.0326062992126
 10
1.058830708661417
 20
-11.03275590551181
 10
0.0157755905511811
 20
-11.42744094488189
 10
-7.379665354330709
 20
-14.21726771653543
 10
-7.399011811023622
 20
-14.22515748031496
 10
-7.453
 20
-14.24536614173228
 10
-7.535562992125985
 20
-14.2727125984252
 10
-7.640625984251969
 20
-14.30200393700787
 10
-7.762122047244095
 20
-14.32805905511811
 10
-7.893972440944882
 20
-14.34569291338583
 10
-8.030114173228347
 20
-14.34972047244094
 10
-8.164468503937007
 20
-14.33494881889764
 10
-9.06903937007874
 20
-13.96863385826772
 10
-10.08971653543307
 20
-13.53152362204724
 10
-10.11379527559055
 20
-13.1491811023622
  0
LWPOLYLINE
  5
62
330
1F
100
AcDbEntity
  8
Layer 1
 62
     7
370
     9
100
AcDbPolyline
 90
       20
 70
     0
 43
0.0
 10
-10.11379527559055
 20
-13.1491811023622
 10
-8.256523622047244
 20
-13.92866929133858
 10
-8.245342519685039
 20
-13.93296062992126
 10
-8.213023622047244
 20
-13.94325984251969
 10
-8.161393700787402
 20
-13.95568897637795
 10
-8.092295275590551
 20
-13.96638582677165
 10
-8.00755905511811
 20
-13.97147244094488
 10
-7.909015748031496
 20
-13.96707874015748
 10
-7.7985
 20
-13.94933858267717
 10
-7.677846456692913
 20
-13.91437795275591
 10
-3.713248031496063
 20
-12.43138188976378
 10
1.027511811023622
 20
-10.70961023622047
 10
1.048188976377953
 20
-10.70289763779528
 10
1.103299212598425
 20
-10.68457480314961
 10
1.182452755905512
 20
-10.65735826771654
 10
1.275263779527559
 20
-10.62396062992126
 10
1.371338582677165
 20
-10.58710236220472
 10
1.460287401574803
 20
-10.54950393700787
 10
1.531728346456693
 20
-10.51387795275591
 10
1.575271653543307
 20
-10.48294094488189
  0
LWPOLYLINE
  5
63
330
1F
100
AcDbEntity
  8
Layer 1
 62
     7
370
     9
100
AcDbPolyline
 90
       11
 70
     0
 43
0.0
 10
-9.866417322834646
 20
-13.16323228346457
 10
-9.866988188976379
 20
-13.16207086614173
 10
-9.867811023622048
 20
-13.15878346456693
 10
-9.867566929133858
 20
-13.15367322834646
 10
-9.86492125984252
 20
-13.14705118110236
 10
-9.858547244094488
 20
-13.13920866141732
 10
-9.847125984251969
 20
-13.13045669291339
 10
-9.829318897637796
 20
-13.12109448818898
 10
-9.803811023622048
 20
-13.11142913385827
 10
-7.27553937007874
 20
-12.25545669291339
 10
-0.5520629921259842
 20
-9.94161811023622
  0
LWPOLYLINE
  5
64
330
1F
100
AcDbEntity
  8
Layer 1
 62
     7
370
     9
100
AcDbPolyline
 90
       11
 70
     0
 43
0.0
 10
1.310877952755906
 20
-10.5427874015748
 10
1.210614173228346
 20
-10.50124015748031
 10
0.9900236220472441
 20
-10.43387795275591
 10
0.6903149606299213
 20
-10.35037401574803
 10
0.3526929133858268
 20
-10.26037795275591
 10
0.0183661417322835
 20
-10.17356299212598
 10
-0.2714566929133858
 20
-10.0995905511811
 10
-0.4755708661417323
 20
-10.04811811023622
 10
-0.5527637795275591
 20
-10.02881496062992
 10
-5.931905511811023
 20
-11.87884251968504
 10
-9.733204724409449
 20
-13.16892519685039
  0
LWPOLYLINE
  5
65
330
1F
100
AcDbEntity
  8
Layer 1
 62
     7
370
     9
100
AcDbPolyline
 90
        3
 70
     0
 43
0.0
 10
-9.844437007874015
 20
-13.1287874015748
 10
-8.928622047244094
 20
-13.51177952755905
 10
-8.129913385826772
 20
-13.83103543307087
  0
LWPOLYLINE
  5
66
330
1F
100
AcDbEntity
  8
Layer 1
 62
     7
370
     9
100
AcDbPolyline
 90
        9
 70
     0
 43
0.0
 10
-9.560933070866142
 20
-13.25868110236221
 10
-9.166291338582678
 20
-13.1261062992126
 10
-8.122531496062992
 20
-12.76829133858268
 10
-6.645944881889764
 20
-12.26011023622047
 10
-4.952818897637795
 20
-11.67643700787402
 10
-3.259437007874016
 20
-11.09213385826772
 10
-1.782094488188976
 20
-10.58208267716535
 10
-0.7370748031496063
 20
-10.22114173228347
 10
-0.3406732283464567
 20
-10.08419291338583
  0
LWPOLYLINE
  5
67
330
1F
100
AcDbEntity
  8
Layer 1
 62
     7
370
     9
100
AcDbPolyline
 90
       15
 70
     0
 43
0.0
 10
-10.02420866141732
 20
-13.56903543307087
 10
-10.03155118110236
 20
-13.56958661417323
 10
-10.05294094488189
 20
-13.57604724409449
 10
-10.08374803149606
 20
-13.58657086614173
 10
-10.11934251968504
 20
-13.5993188976378
 10
-10.15508661417323
 20
-13.61244094488189
 10
-10.18635433070866
 20
-13.62409448818898
 10
-10.20851181102362
 20
-13.63244094488189
 10
-10.21692519685039
 20
-13.63563385826772
 10
-10.36147637795276
 20
-13.57888976377953
 10
-10.43585433070866
 20
-12.86058267716535
 10
-4.505787401574803
 20
-10.88700393700787
 10
-0.5648070866141732
 20
-9.579220472440944
 10
-0.3961732283464567
 20
-9.62672440944882
 10
-0.3985708661417323
 20
-9.888212598425197
  0
LWPOLYLINE
  5
68
330
1F
100
AcDbEntity
  8
Layer 1
 62
     7
370
     9
100
AcDbPolyline
 90
        4
 70
     0
 43
0.0
 10
-0.3961732283464567
 20
-9.62672440944882
 10
-2.55696062992126
 20
-10.33961023622047
 10
-10.28920078740157
 20
-12.91657480314961
 10
-10.21692519685039
 20
-13.63563385826772
  0
LWPOLYLINE
  5
69
330
1F
100
AcDbEntity
  8
Layer 1
 62
     7
370
     9
100
AcDbPolyline
 90
        2
 70
     0
 43
0.0
 10
-10.28920078740157
 20
-12.91657480314961
 10
-10.43585433070866
 20
-12.86058267716535
  0
LWPOLYLINE
  5
6A
330
1F
100
AcDbEntity
  8
Layer 1
 62
     7
370
    18
100
AcDbPolyline
 90
        4
 70
     1
 43
0.0
 10
-7.505582677165354
 20
-15.21088582677165
 10
-7.524933070866142
 20
-15.23467322834646
 10
-7.49448031496063
 20
-15.23827952755905
 10
-7.505582677165354
 20
-15.21088582677165
  0
LWPOLYLINE
  5
6B
330
1F
100
AcDbEntity
  8
Layer 1
 62
     7
370
    18
100
AcDbPolyline
 90
        4
 70
     1
 43
0.0
 10
1.923586614173228
 20
-11.39012992125984
 10
1.95403937007874
 20
-11.39374015748031
 10
1.934688976377953
 20
-11.41752755905512
 10
1.923586614173228
 20
-11.39012992125984
  0
LWPOLYLINE
  5
6C
330
1F
100
AcDbEntity
  8
Layer 1
 62
     7
370
    18
100
AcDbPolyline
 90
        2
 70
     0
 43
0.0
 10
-7.532641732283465
 20
-15.2395
 10
1.962933070866142
 20
-11.39183858267717
  0
LWPOLYLINE
  5
6D
330
1F
100
AcDbEntity
  8
Layer 1
 62
     7
370
     9
100
AcDbPolyline
 90
      128
 70
     1
 43
0.0
 10
-2.670791338582677
 20
-13.84882283464567
 10
-2.651165354330709
 20
-13.76933464566929
 10
-2.546173228346457
 20
-13.76933464566929
 10
-2.546173228346457
 20
-13.73876377952756
 10
-2.673783464566929
 20
-13.73876377952756
 10
-2.707066929133858
 20
-13.87196456692913
 10
-2.67463779527559
 20
-13.88681102362205
 10
-2.669929133858268
 20
-13.88353543307087
 10
-2.664992125984252
 20
-13.8806968503937
 10
-2.659818897637795
 20
-13.87829921259842
 10
-2.654413385826772
 20
-13.87633464566929
 10
-2.648775590551181
 20
-13.87480708661417
 10
-2.64290157480315
 20
-13.87371653543307
 10
-2.636795275590551
 20
-13.87305905511811
 10
-2.630456692913386
 20
-13.87284251968504
 10
-2.624082677165354
 20
-13.87316141732284
 10
-2.617925196850394
 20
-13.87412598425197
 10
-2.611976377952756
 20
-13.87572834645669
 10
-2.606244094488189
 20
-13.87797244094488
 10
-2.600720472440945
 20
-13.88085826771654
 10
-2.595413385826772
 20
-13.88438582677165
 10
-2.590314960629921
 20
-13.88855118110236
 10
-2.585433070866142
 20
-13.89336220472441
 10
-2.580830708661417
 20
-13.89872834645669
 10
-2.576846456692913
 20
-13.90429133858268
 10
-2.573472440944882
 20
-13.91005511811024
 10
-2.570712598425197
 20
-13.91601968503937
 10
-2.568566929133858
 20
-13.92217716535433
 10
-2.567031496062992
 20
-13.92853543307087
 10
-2.566114173228347
 20
-13.93509448818898
 10
-2.565807086614173
 20
-13.94184645669291
 10
-2.566122047244094
 20
-13.94882677165354
 10
-2.56705905511811
 20
-13.95552755905512
 10
-2.568625984251968
 20
-13.96195275590551
 10
-2.570818897637795
 20
-13.96809842519685
 10
-2.57363779527559
 20
-13.97396456692913
 10
-2.577086614173228
 20
-13.97955118110236
 10
-2.581157480314961
 20
-13.98485826771654
 10
-2.585854330708661
 20
-13.98988582677165
 10
-2.590728346456693
 20
-13.99423622047244
 10
-2.595944881889764
 20
-13.99812598425197
 10
-2.601503937007874
 20
-14.00155118110236
 10
-2.607409448818898
 20
-14.00451968503937
 10
-2.61053937007874
 20
-14.00579527559055
 10
-2.613842519685039
 20
-14.00690551181102
 10
-2.617318897637795
 20
-14.00784251968504
 10
-2.620968503937008
 20
-14.00861023622047
 10
-2.628779527559055
 20
-14.00963385826772
 10
-2.637287401574803
 20
-14.00997637795276
 10
-2.641712598425197
 20
-14.00978346456693
 10
-2.646129921259842
 20
-14.0092125984252
 10
-2.65053937007874
 20
-14.00825590551181
 10
-2.654944881889764
 20
-14.00691732283465
 10
-2.65934251968504
 20
-14.0051968503937
 10
-2.663732283464567
 20
-14.00309448818898
 10
-2.66811811023622
 20
-14.00061023622047
 10
-2.672492125984252
 20
-13.99774015748032
 10
-2.676708661417323
 20
-13.99457086614173
 10
-2.680602362204724
 20
-13.99116929133858
 10
-2.684181102362205
 20
-13.98753149606299
 10
-2.687433070866142
 20
-13.98366535433071
 10
-2.690370078740158
 20
-13.97956299212598
 10
-2.69298031496063
 20
-13.97523228346457
 10
-2.695271653543307
 20
-13.97066535433071
 10
-2.697244094488189
 20
-13.96586614173228
 10
-2.726279527559055
 20
-13.97546456692913
 10
-2.723425196850394
 20
-13.98265748031496
 10
-2.720102362204724
 20
-13.98948818897638
 10
-2.716303149606299
 20
-13.99595275590551
 10
-2.712031496062992
 20
-14.00205511811024
 10
-2.707283464566929
 20
-14.00779921259842
 10
-2.702066929133858
 20
-14.01317716535433
 10
-2.69638188976378
 20
-14.0181968503937
 10
-2.690220472440945
 20
-14.02285433070866
 10
-2.683661417322835
 20
-14.02710236220472
 10
-2.67696062992126
 20
-14.03078346456693
 10
-2.670110236220472
 20
-14.03389763779528
 10
-2.663114173228347
 20
-14.03644881889764
 10
-2.655972440944882
 20
-14.03842913385827
 10
-2.648685039370079
 20
-14.03984645669291
 10
-2.641248031496063
 20
-14.0406968503937
 10
-2.633665354330708
 20
-14.04098031496063
 10
-2.623562992125984
 20
-14.04051181102362
 10
-2.613846456692913
 20
-14.03911023622047
 10
-2.604515748031496
 20
-14.03677559055118
 10
-2.595574803149606
 20
-14.03350393700787
 10
-2.587015748031496
 20
-14.02929527559055
 10
-2.578846456692913
 20
-14.02415354330709
 10
-2.571062992125984
 20
-14.01807480314961
 10
-2.563669291338583
 20
-14.01105905511811
 10
-2.556964566929134
 20
-14.00344881889764
 10
-2.551157480314961
 20
-13.99546456692913
 10
-2.546240157480315
 20
-13.9871062992126
 10
-2.542220472440945
 20
-13.97836614173228
 10
-2.539090551181102
 20
-13.96925590551181
 10
-2.536858267716535
 20
-13.95976771653543
 10
-2.535515748031496
 20
-13.94990157480315
 10
-2.535070866141732
 20
-13.93966141732284
 10
-2.535511811023622
 20
-13.92947637795276
 10
-2.536834645669291
 20
-13.91972047244094
 10
-2.539035433070866
 20
-13.9103937007874
 10
-2.54211811023622
 20
-13.9015
 10
-2.54607874015748
 20
-13.89303543307087
 10
-2.55092125984252
 20
-13.885
 10
-2.556645669291338
 20
-13.87739763779528
 10
-2.563248031496063
 20
-13.87022047244094
 10
-2.566622047244095
 20
-13.86702755905512
 10
-2.570129921259842
 20
-13.86400787401575
 10
-2.573771653543307
 20
-13.86115748031496
 10
-2.577543307086614
 20
-13.85848031496063
 10
-2.581448818897638
 20
-13.85597244094488
 10
-2.585492125984252
 20
-13.85363779527559
 10
-2.589665354330709
 20
-13.85146850393701
 10
-2.593976377952756
 20
-13.84947244094488
 10
-2.598370078740158
 20
-13.84768503937008
 10
-2.602803149606299
 20
-13.84613385826772
 10
-2.607271653543307
 20
-13.8448188976378
 10
-2.611783464566929
 20
-13.84374409448819
 10
-2.616330708661417
 20
-13.84290551181102
 10
-2.620913385826772
 20
-13.84230708661417
 10
-2.625531496062992
 20
-13.84194488188976
 10
-2.630181102362205
 20
-13.84182677165354
 10
-2.63492125984252
 20
-13.84193700787402
 10
-2.639755905511811
 20
-13.84226377952756
 10
-2.644685039370079
 20
-13.84281496062992
 10
-2.649712598425197
 20
-13.84357874015748
 10
-2.660055118110236
 20
-13.84576771653543
 10
-2.670791338582677
 20
-13.84882283464567
  0
LWPOLYLINE
  5
6E
330
1F
100
AcDbEntity
  8
Layer 1
 62
     7
370
     9
100
AcDbPolyline
 90
      128
 70
     1
 43
0.0
 10
-2.43605905511811
 20
-13.84882283464567
 10
-2.416437007874016
 20
-13.76933464566929
 10
-2.31144094488189
 20
-13.76933464566929
 10
-2.31144094488189
 20
-13.73876377952756
 10
-2.439051181102362
 20
-13.73876377952756
 10
-2.472338582677165
 20
-13.87196456692913
 10
-2.439909448818898
 20
-13.88681102362205
 10
-2.435204724409449
 20
-13.88353543307087
 10
-2.430263779527559
 20
-13.8806968503937
 10
-2.425094488188976
 20
-13.87829921259842
 10
-2.419688976377953
 20
-13.87633464566929
 10
-2.414047244094488
 20
-13.87480708661417
 10
-2.408177165354331
 20
-13.87371653543307
 10
-2.402070866141732
 20
-13.87305905511811
 10
-2.395728346456693
 20
-13.87284251968504
 10
-2.389354330708661
 20
-13.87316141732284
 10
-2.383192913385827
 20
-13.87412598425197
 10
-2.377248031496063
 20
-13.87572834645669
 10
-2.371515748031496
 20
-13.87797244094488
 10
-2.365992125984252
 20
-13.88085826771654
 10
-2.360688976377953
 20
-13.88438582677165
 10
-2.355594488188976
 20
-13.88855118110236
 10
-2.350712598425197
 20
-13.89336220472441
 10
-2.346110236220472
 20
-13.89872834645669
 10
-2.34211811023622
 20
-13.90429133858268
 10
-2.338744094488189
 20
-13.91005511811024
 10
-2.335984251968504
 20
-13.91601968503937
 10
-2.333834645669291
 20
-13.92217716535433
 10
-2.332303149606299
 20
-13.92853543307087
 10
-2.331381889763779
 20
-13.93509448818898
 10
-2.331074803149606
 20
-13.94184645669291
 10
-2.331389763779528
 20
-13.94882677165354
 10
-2.332330708661417
 20
-13.95552755905512
 10
-2.333897637795276
 20
-13.96195275590551
 10
-2.336090551181103
 20
-13.96809842519685
 10
-2.338913385826772
 20
-13.97396456692913
 10
-2.342358267716536
 20
-13.97955118110236
 10
-2.346433070866142
 20
-13.98485826771654
 10
-2.351133858267716
 20
-13.98988582677165
 10
-2.356003937007874
 20
-13.99423622047244
 10
-2.361220472440945
 20
-13.99812598425197
 10
-2.366779527559055
 20
-14.00155118110236
 10
-2.372688976377953
 20
-14.00451968503937
 10
-2.375814960629921
 20
-14.00579527559055
 10
-2.379118110236221
 20
-14.00690551181102
 10
-2.382590551181103
 20
-14.00784251968504
 10
-2.386240157480315
 20
-14.00861023622047
 10
-2.394051181102362
 20
-14.00963385826772
 10
-2.40255905511811
 20
-14.00997637795276
 10
-2.406984251968504
 20
-14.00978346456693
 10
-2.411405511811024
 20
-14.0092125984252
 10
-2.415814960629921
 20
-14.00825590551181
 10
-2.420220472440945
 20
-14.00691732283465
 10
-2.42461811023622
 20
-14.0051968503937
 10
-2.429007874015748
 20
-14.00309448818898
 10
-2.433393700787402
 20
-14.00061023622047
 10
-2.437771653543307
 20
-13.99774015748032
 10
-2.441984251968504
 20
-13.99457086614173
 10
-2.445877952755906
 20
-13.99116929133858
 10
-2.449452755905512
 20
-13.98753149606299
 10
-2.452704724409449
 20
-13.98366535433071
 10
-2.455641732283464
 20
-13.97956299212598
 10
-2.458255905511811
 20
-13.97523228346457
 10
-2.460547244094488
 20
-13.97066535433071
 10
-2.462523622047244
 20
-13.96586614173228
 10
-2.491551181102362
 20
-13.97546456692913
 10
-2.488696850393701
 20
-13.98265748031496
 10
-2.485374015748032
 20
-13.98948818897638
 10
-2.481574803149606
 20
-13.99595275590551
 10
-2.477303149606299
 20
-14.00205511811024
 10
-2.47255905511811
 20
-14.00779921259842
 10
-2.467342519685039
 20
-14.01317716535433
 10
-2.461653543307087
 20
-14.0181968503937
 10
-2.455488188976378
 20
-14.02285433070866
 10
-2.448933070866142
 20
-14.02710236220472
 10
-2.442232283464567
 20
-14.03078346456693
 10
-2.43538188976378
 20
-14.03389763779528
 10
-2.428389763779528
 20
-14.03644881889764
 10
-2.421244094488189
 20
-14.03842913385827
 10
-2.413956692913386
 20
-14.03984645669291
 10
-2.40651968503937
 20
-14.0406968503937
 10
-2.398937007874016
 20
-14.04098031496063
 10
-2.388834645669291
 20
-14.04051181102362
 10
-2.379118110236221
 20
-14.03911023622047
 10
-2.369787401574803
 20
-14.03677559055118
 10
-2.360842519685039
 20
-14.03350393700787
 10
-2.352287401574803
 20
-14.02929527559055
 10
-2.344118110236221
 20
-14.02415354330709
 10
-2.336334645669291
 20
-14.01807480314961
 10
-2.32894094488189
 20
-14.01105905511811
 10
-2.322240157480315
 20
-14.00344881889764
 10
-2.316433070866142
 20
-13.99546456692913
 10
-2.311515748031496
 20
-13.9871062992126
 10
-2.307492125984252
 20
-13.97836614173228
 10
-2.30436220472441
 20
-13.96925590551181
 10
-2.302125984251969
 20
-13.95976771653543
 10
-2.300787401574803
 20
-13.94990157480315
 10
-2.300338582677165
 20
-13.93966141732284
 10
-2.300779527559055
 20
-13.92947637795276
 10
-2.302102362204725
 20
-13.91972047244094
 10
-2.304303149606299
 20
-13.9103937007874
 10
-2.307385826771653
 20
-13.9015
 10
-2.311350393700788
 20
-13.89303543307087
 10
-2.316192913385827
 20
-13.885
 10
-2.321913385826772
 20
-13.87739763779528
 10
-2.328515748031496
 20
-13.87022047244094
 10
-2.331889763779528
 20
-13.86702755905512
 10
-2.335397637795276
 20
-13.86400787401575
 10
-2.33903937007874
 20
-13.86115748031496
 10
-2.342811023622047
 20
-13.85848031496063
 10
-2.346720472440945
 20
-13.85597244094488
 10
-2.350759842519685
 20
-13.85363779527559
 10
-2.354937007874016
 20
-13.85146850393701
 10
-2.359244094488189
 20
-13.84947244094488
 10
-2.36363779527559
 20
-13.84768503937008
 10
-2.368070866141732
 20
-13.84613385826772
 10
-2.372543307086614
 20
-13.8448188976378
 10
-2.377051181102362
 20
-13.84374409448819
 10
-2.38159842519685
 20
-13.84290551181102
 10
-2.386181102362205
 20
-13.84230708661417
 10
-2.390799212598425
 20
-13.84194488188976
 10
-2.395448818897638
 20
-13.84182677165354
 10
-2.400192913385827
 20
-13.84193700787402
 10
-2.405027559055118
 20
-13.84226377952756
 10
-2.40996062992126
 20
-13.84281496062992
 10
-2.414984251968504
 20
-13.84357874015748
 10
-2.425326771653543
 20
-13.84576771653543
 10
-2.43605905511811
 20
-13.84882283464567
  0
LWPOLYLINE
  5
6F
330
1F
100
AcDbEntity
  8
Layer 1
 62
     7
370
     9
100
AcDbPolyline
 90
       81
 70
     1
 43
0.0
 10
-2.134964566929134
 20
-13.77326377952756
 10
-2.13003937007874
 20
-13.77668897637795
 10
-2.125444881889764
 20
-13.78057874015748
 10
-2.121188976377953
 20
-13.78493307086614
 10
-2.117259842519685
 20
-13.78975196850394
 10
-2.113669291338583
 20
-13.79503149606299
 10
-2.110409448818898
 20
-13.80077952755905
 10
-2.10748031496063
 20
-13.80698818897638
 10
-2.104889763779528
 20
-13.81365748031496
 10
-2.101988188976378
 20
-13.8225157480315
 10
-2.099472440944882
 20
-13.8315
 10
-2.097342519685039
 20
-13.84061417322835
 10
-2.095602362204724
 20
-13.84985826771654
 10
-2.094248031496063
 20
-13.85923228346457
 10
-2.093283464566929
 20
-13.86873228346457
 10
-2.092700787401575
 20
-13.87836220472441
 10
-2.092507874015748
 20
-13.88812204724409
 10
-2.093787401574803
 20
-13.90974803149606
 10
-2.095267716535433
 20
-13.92148818897638
 10
-2.097200787401575
 20
-13.93258267716535
 10
-2.099590551181102
 20
-13.94302362204724
 10
-2.102429133858268
 20
-13.9528188976378
 10
-2.105724409448819
 20
-13.96196456692913
 10
-2.109476377952756
 20
-13.97046456692913
 10
-2.113677165354331
 20
-13.97831102362205
 10
-2.118334645669291
 20
-13.98551181102362
 10
-2.12257874015748
 20
-13.99093700787401
 10
-2.127055118110236
 20
-13.99563779527559
 10
-2.131751968503937
 20
-13.99961811023622
 10
-2.136681102362205
 20
-14.00287401574803
 10
-2.141834645669291
 20
-14.00540551181102
 10
-2.147216535433071
 20
-14.00721653543307
 10
-2.152826771653543
 20
-14.0083031496063
 10
-2.158665354330709
 20
-14.00866535433071
 10
-2.165177165354331
 20
-14.00830708661417
 10
-2.171374015748031
 20
-14.00723228346457
 10
-2.177255905511811
 20
-14.00544094488189
 10
-2.182826771653543
 20
-14.00293307086614
 10
-2.188082677165355
 20
-13.99970472440945
 10
-2.193027559055118
 20
-13.99576377952756
 10
-2.197661417322835
 20
-13.99110236220472
 10
-2.20198031496063
 20
-13.98572834645669
 10
-2.205551181102362
 20
-13.98043700787402
 10
-2.208803149606299
 20
-13.97481496062992
 10
-2.211736220472441
 20
-13.96886614173228
 10
-2.214350393700788
 20
-13.96259842519685
 10
-2.216657480314961
 20
-13.95611023622047
 10
-2.218673228346457
 20
-13.94954330708661
 10
-2.220393700787402
 20
-13.94289763779528
 10
-2.221822834645669
 20
-13.93617322834646
 10
-2.225452755905512
 20
-13.90996456692913
 10
-2.226515748031496
 20
-13.88076771653543
 10
-2.226224409448819
 20
-13.87203937007874
 10
-2.225346456692913
 20
-13.86231496062992
 10
-2.223877952755906
 20
-13.85159448818898
 10
-2.221822834645669
 20
-13.83986614173228
 10
-2.214566929133858
 20
-13.81344094488189
 10
-2.212043307086614
 20
-13.80705905511811
 10
-2.209173228346457
 20
-13.801
 10
-2.20596062992126
 20
-13.79526771653543
 10
-2.20240157480315
 20
-13.78986614173228
 10
-2.19848031496063
 20
-13.78488188976378
 10
-2.194185039370079
 20
-13.78041732283465
 10
-2.18951968503937
 20
-13.77647244094488
 10
-2.18448031496063
 20
-13.77304724409449
 10
-2.181807086614173
 20
-13.77156299212598
 10
-2.179011811023622
 20
-13.77027559055118
 10
-2.176094488188976
 20
-13.76918897637795
 10
-2.17305905511811
 20
-13.76829921259842
 10
-2.169905511811024
 20
-13.76760236220472
 10
-2.166629921259843
 20
-13.76711023622047
 10
-2.163232283464567
 20
-13.76681102362205
 10
-2.159716535433071
 20
-13.7667125984252
 10
-2.156204724409449
 20
-13.76681496062992
 10
-2.152811023622047
 20
-13.76712204724409
 10
-2.14953937007874
 20
-13.76763385826772
 10
-2.146385826771653
 20
-13.76835433070866
 10
-2.143350393700787
 20
-13.76927559055118
 10
-2.140437007874016
 20
-13.77040157480315
 10
-2.137641732283464
 20
-13.77172834645669
 10
-2.134964566929134
 20
-13.77326377952756
  0
LWPOLYLINE
  5
70
330
1F
100
AcDbEntity
  8
Layer 1
 62
     7
370
     9
100
AcDbPolyline
 90
       65
 70
     1
 43
0.0
 10
-2.158220472440945
 20
-14.03966929133858
 10
-2.145763779527559
 20
-14.03886220472441
 10
-2.13409842519685
 20
-14.03643700787402
 10
-2.123228346456693
 20
-14.0323937007874
 10
-2.113153543307086
 20
-14.02673228346457
 10
-2.103870078740158
 20
-14.01945669291339
 10
-2.095377952755905
 20
-14.01055905511811
 10
-2.087681102362205
 20
-14.00004724409449
 10
-2.080775590551181
 20
-13.98791732283465
 10
-2.075925196850394
 20
-13.97733070866142
 10
-2.071720472440945
 20
-13.96616141732284
 10
-2.068161417322834
 20
-13.95440157480315
 10
-2.065251968503937
 20
-13.94205905511811
 10
-2.062988188976378
 20
-13.92912598425197
 10
-2.061370078740158
 20
-13.9156062992126
 10
-2.06040157480315
 20
-13.90150393700787
 10
-2.06007874015748
 20
-13.88681102362205
 10
-2.06040157480315
 20
-13.87211811023622
 10
-2.061370078740158
 20
-13.8580157480315
 10
-2.062988188976378
 20
-13.84449606299213
 10
-2.065251968503937
 20
-13.83156692913386
 10
-2.068161417322834
 20
-13.81922047244094
 10
-2.071720472440945
 20
-13.80746456692913
 10
-2.075925196850394
 20
-13.79629527559055
 10
-2.080775590551181
 20
-13.78570866141732
 10
-2.087681102362205
 20
-13.77358267716535
 10
-2.095377952755905
 20
-13.76307086614173
 10
-2.103870078740158
 20
-13.75417322834646
 10
-2.113153543307086
 20
-13.74689763779527
 10
-2.123228346456693
 20
-13.74123228346457
 10
-2.13409842519685
 20
-13.73718897637795
 10
-2.145763779527559
 20
-13.73476377952756
 10
-2.158220472440945
 20
-13.73395275590551
 10
-2.170685039370079
 20
-13.73476377952756
 10
-2.182354330708661
 20
-13.73718897637795
 10
-2.193228346456693
 20
-13.74123228346457
 10
-2.203311023622047
 20
-13.74689763779527
 10
-2.212594488188977
 20
-13.75417322834646
 10
-2.221086614173228
 20
-13.76307086614173
 10
-2.228783464566929
 20
-13.77358267716535
 10
-2.235688976377953
 20
-13.78570866141732
 10
-2.24053937007874
 20
-13.79629527559055
 10
-2.244744094488189
 20
-13.80746456692913
 10
-2.248299212598425
 20
-13.81922047244094
 10
-2.251212598425197
 20
-13.83156692913386
 10
-2.253476377952756
 20
-13.84449606299213
 10
-2.255090551181103
 20
-13.8580157480315
 10
-2.256062992125984
 20
-13.87211811023622
 10
-2.256385826771654
 20
-13.88681102362205
 10
-2.256062992125984
 20
-13.90150393700787
 10
-2.255090551181103
 20
-13.9156062992126
 10
-2.253476377952756
 20
-13.92912598425197
 10
-2.251212598425197
 20
-13.94205905511811
 10
-2.248299212598425
 20
-13.95440157480315
 10
-2.244744094488189
 20
-13.96616141732284
 10
-2.24053937007874
 20
-13.97733070866142
 10
-2.235688976377953
 20
-13.98791732283465
 10
-2.228783464566929
 20
-14.00004724409449
 10
-2.221086614173228
 20
-14.01055905511811
 10
-2.212594488188977
 20
-14.01945669291339
 10
-2.203311023622047
 20
-14.02673228346457
 10
-2.193228346456693
 20
-14.0323937007874
 10
-2.182354330708661
 20
-14.03643700787402
 10
-2.170685039370079
 20
-14.03886220472441
 10
-2.158220472440945
 20
-14.03966929133858
  0
LWPOLYLINE
  5
71
330
1F
100
AcDbEntity
  8
Layer 1
 62
     7
370
     9
100
AcDbPolyline
 90
      147
 70
     1
 43
0.0
 10
-1.76857874015748
 20
-14.03486220472441
 10
-1.738708661417323
 20
-14.03486220472441
 10
-1.738708661417323
 20
-13.91476377952756
 10
-1.738952755905512
 20
-13.90679133858268
 10
-1.739681102362205
 20
-13.89919291338583
 10
-1.740897637795276
 20
-13.89197244094488
 10
-1.742602362204724
 20
-13.88512204724409
 10
-1.744791338582677
 20
-13.87864960629921
 10
-1.747468503937008
 20
-13.87255118110236
 10
-1.750629921259843
 20
-13.86683070866142
 10
-1.754279527559055
 20
-13.86148031496063
 10
-1.75848031496063
 20
-13.8565
 10
-1.763192913385827
 20
-13.85203937007874
 10
-1.768409448818898
 20
-13.84809842519685
 10
-1.774129921259842
 20
-13.84467322834646
 10
-1.777236220472441
 20
-13.84318897637795
 10
-1.780582677165354
 20
-13.84190157480315
 10
-1.784173228346457
 20
-13.84081102362205
 10
-1.788
 20
-13.83992125984252
 10
-1.792066929133858
 20
-13.83922834645669
 10
-1.796374015748031
 20
-13.83873228346457
 10
-1.800925196850394
 20
-13.83843700787402
 10
-1.805712598425197
 20
-13.83833858267717
 10
-1.810543307086614
 20
-13.83850787401575
 10
-1.815220472440945
 20
-13.83901968503937
 10
-1.819744094488189
 20
-13.83987401574803
 10
-1.824114173228346
 20
-13.84106692913386
 10
-1.828330708661417
 20
-13.84260236220472
 10
-1.832397637795276
 20
-13.84447637795276
 10
-1.836311023622047
 20
-13.8466968503937
 10
-1.840070866141732
 20
-13.84925590551181
 10
-1.843330708661417
 20
-13.85180708661417
 10
-1.84644094488189
 20
-13.85454724409449
 10
-1.849409448818898
 20
-13.85747637795276
 10
-1.852228346456693
 20
-13.8605905511811
 10
-1.854905511811024
 20
-13.86388976377953
 10
-1.857433070866142
 20
-13.86737007874016
 10
-1.859811023622047
 20
-13.87103149606299
 10
-1.862047244094488
 20
-13.87487401574803
 10
-1.86994094488189
 20
-13.86148031496063
 10
-1.874141732283465
 20
-13.8565
 10
-1.878854330708661
 20
-13.85203937007874
 10
-1.884066929133858
 20
-13.84809842519685
 10
-1.889783464566929
 20
-13.84467322834646
 10
-1.892893700787402
 20
-13.84318897637795
 10
-1.896244094488189
 20
-13.84190157480315
 10
-1.899830708661417
 20
-13.84081102362205
 10
-1.903661417322835
 20
-13.83992125984252
 10
-1.907728346456693
 20
-13.83922834645669
 10
-1.912035433070866
 20
-13.83873228346457
 10
-1.91657874015748
 20
-13.83843700787402
 10
-1.921366141732283
 20
-13.83833858267717
 10
-1.926200787401575
 20
-13.83850787401575
 10
-1.930877952755905
 20
-13.83901968503937
 10
-1.935405511811024
 20
-13.83987401574803
 10
-1.939775590551181
 20
-13.84106692913386
 10
-1.943996062992126
 20
-13.84260236220472
 10
-1.94805905511811
 20
-13.84447637795276
 10
-1.951968503937008
 20
-13.8466968503937
 10
-1.955724409448819
 20
-13.84925590551181
 10
-1.958830708661417
 20
-13.85168503937008
 10
-1.961803149606299
 20
-13.85427952755905
 10
-1.964645669291339
 20
-13.85703937007874
 10
-1.967354330708661
 20
-13.85996850393701
 10
-1.969925196850394
 20
-13.86305905511811
 10
-1.972366141732284
 20
-13.86631889763779
 10
-1.974673228346457
 20
-13.86974803149606
 10
-1.976846456692913
 20
-13.87334645669291
 10
-1.976846456692913
 20
-13.8427125984252
 10
-2.006724409448819
 20
-13.8427125984252
 10
-2.006724409448819
 20
-14.03486220472441
 10
-1.976846456692913
 20
-14.03486220472441
 10
-1.976846456692913
 20
-13.93653543307087
 10
-1.976153543307087
 20
-13.9308031496063
 10
-1.975248031496063
 20
-13.92529527559055
 10
-1.974125984251969
 20
-13.92001181102362
 10
-1.972791338582677
 20
-13.91494488188976
 10
-1.971244094488189
 20
-13.91010236220473
 10
-1.96948031496063
 20
-13.90547637795276
 10
-1.967507874015748
 20
-13.90106299212598
 10
-1.965318897637795
 20
-13.89686220472441
 10
-1.96353937007874
 20
-13.89387401574803
 10
-1.961614173228347
 20
-13.89101968503937
 10
-1.959543307086614
 20
-13.8883031496063
 10
-1.957322834645669
 20
-13.88572440944882
 10
-1.954956692913386
 20
-13.88327952755906
 10
-1.952444881889764
 20
-13.88097244094488
 10
-1.949783464566929
 20
-13.8788031496063
 10
-1.946976377952756
 20
-13.87677165354331
 10
-1.944066929133858
 20
-13.87492913385827
 10
-1.941106299212598
 20
-13.87333070866142
 10
-1.938090551181102
 20
-13.87198031496063
 10
-1.935023622047244
 20
-13.87087401574803
 10
-1.93190157480315
 20
-13.8700157480315
 10
-1.928724409448819
 20
-13.86940157480315
 10
-1.925496062992126
 20
-13.86903149606299
 10
-1.922212598425197
 20
-13.8689094488189
 10
-1.916031496062992
 20
-13.86916929133858
 10
-1.910696850393701
 20
-13.86994881889764
 10
-1.908350393700787
 20
-13.87053149606299
 10
-1.906216535433071
 20
-13.87124409448819
 10
-1.904295275590551
 20
-13.87208661417323
 10
-1.902586614173228
 20
-13.87305905511811
 10
-1.898283464566929
 20
-13.87631102362205
 10
-1.894555118110236
 20
-13.88012598425197
 10
-1.89140157480315
 20
-13.88449606299213
 10
-1.888822834645669
 20
-13.88942913385827
 10
-1.886814960629921
 20
-13.89492519685039
 10
-1.885377952755906
 20
-13.90097637795276
 10
-1.88451968503937
 20
-13.9075905511811
 10
-1.884232283464567
 20
-13.91476377952756
 10
-1.884232283464567
 20
-14.03486220472441
 10
-1.854374015748032
 20
-14.03486220472441
 10
-1.854374015748032
 20
-13.91476377952756
 10
-1.85457874015748
 20
-13.90740551181102
 10
-1.849669291338583
 20
-13.89686220472441
 10
-1.847889763779528
 20
-13.89387401574803
 10
-1.84596062992126
 20
-13.89101968503937
 10
-1.843889763779528
 20
-13.8883031496063
 10
-1.841669291338583
 20
-13.88572440944882
 10
-1.839303149606299
 20
-13.88327952755906
 10
-1.836787401574803
 20
-13.88097244094488
 10
-1.834129921259843
 20
-13.8788031496063
 10
-1.831322834645669
 20
-13.87677165354331
 10
-1.828413385826772
 20
-13.87492913385827
 10
-1.825452755905512
 20
-13.87333070866142
 10
-1.82244094488189
 20
-13.87198031496063
 10
-1.819374015748032
 20
-13.87087401574803
 10
-1.816251968503937
 20
-13.8700157480315
 10
-1.81307874015748
 20
-13.86940157480315
 10
-1.809850393700787
 20
-13.86903149606299
 10
-1.806570866141732
 20
-13.8689094488189
 10
-1.800377952755906
 20
-13.86916929133858
 10
-1.79503937007874
 20
-13.86994881889764
 10
-1.792692913385827
 20
-13.87053149606299
 10
-1.79055905511811
 20
-13.87124409448819
 10
-1.788641732283464
 20
-13.87208661417323
 10
-1.786937007874016
 20
-13.87305905511811
 10
-1.782629921259842
 20
-13.87631102362205
 10
-1.77890157480315
 20
-13.88012598425197
 10
-1.775744094488189
 20
-13.88449606299213
 10
-1.773165354330709
 20
-13.88942913385827
 10
-1.771157480314961
 20
-13.89492519685039
 10
-1.769724409448819
 20
-13.90097637795276
 10
-1.768866141732284
 20
-13.9075905511811
 10
-1.76857874015748
 20
-13.91476377952756
 10
-1.76857874015748
 20
-14.03486220472441
  0
LWPOLYLINE
  5
72
330
1F
100
AcDbEntity
  8
Layer 1
 62
     7
370
     9
100
AcDbPolyline
 90
      147
 70
     1
 43
0.0
 10
-1.44294094488189
 20
-14.03486220472441
 10
-1.413070866141732
 20
-14.03486220472441
 10
-1.413070866141732
 20
-13.91476377952756
 10
-1.413314960629921
 20
-13.90679133858268
 10
-1.414043307086614
 20
-13.89919291338583
 10
-1.415259842519685
 20
-13.89197244094488
 10
-1.416964566929134
 20
-13.88512204724409
 10
-1.419153543307087
 20
-13.87864960629921
 10
-1.421826771653543
 20
-13.87255118110236
 10
-1.424988188976378
 20
-13.86683070866142
 10
-1.428637795275591
 20
-13.86148031496063
 10
-1.432846456692913
 20
-13.8565
 10
-1.43755905511811
 20
-13.85203937007874
 10
-1.442775590551181
 20
-13.84809842519685
 10
-1.448492125984252
 20
-13.84467322834646
 10
-1.451602362204724
 20
-13.84318897637795
 10
-1.454948818897638
 20
-13.84190157480315
 10
-1.45853937007874
 20
-13.84081102362205
 10
-1.462366141732284
 20
-13.83992125984252
 10
-1.466433070866142
 20
-13.83922834645669
 10
-1.470740157480315
 20
-13.83873228346457
 10
-1.475287401574803
 20
-13.83843700787402
 10
-1.480074803149606
 20
-13.83833858267717
 10
-1.484905511811024
 20
-13.83850787401575
 10
-1.489586614173228
 20
-13.83901968503937
 10
-1.494110236220472
 20
-13.83987401574803
 10
-1.498484251968504
 20
-13.84106692913386
 10
-1.502700787401575
 20
-13.84260236220472
 10
-1.506763779527559
 20
-13.84447637795276
 10
-1.510677165354331
 20
-13.8466968503937
 10
-1.514433070866142
 20
-13.84925590551181
 10
-1.517692913385827
 20
-13.85180708661417
 10
-1.520807086614173
 20
-13.85454724409449
 10
-1.523775590551181
 20
-13.85747637795276
 10
-1.52659842519685
 20
-13.8605905511811
 10
-1.529271653543307
 20
-13.86388976377953
 10
-1.531795275590551
 20
-13.86737007874016
 10
-1.534177165354331
 20
-13.87103149606299
 10
-1.536409448818898
 20
-13.87487401574803
 10
-1.544303149606299
 20
-13.86148031496063
 10
-1.548507874015748
 20
-13.8565
 10
-1.553220472440945
 20
-13.85203937007874
 10
-1.558433070866142
 20
-13.84809842519685
 10
-1.564153543307087
 20
-13.84467322834646
 10
-1.567259842519685
 20
-13.84318897637795
 10
-1.570606299212598
 20
-13.84190157480315
 10
-1.574192913385827
 20
-13.84081102362205
 10
-1.57801968503937
 20
-13.83992125984252
 10
-1.582090551181102
 20
-13.83922834645669
 10
-1.586397637795276
 20
-13.83873228346457
 10
-1.590944881889764
 20
-13.83843700787402
 10
-1.595736220472441
 20
-13.83833858267717
 10
-1.600566929133858
 20
-13.83850787401575
 10
-1.605244094488189
 20
-13.83901968503937
 10
-1.609767716535433
 20
-13.83987401574803
 10
-1.614137795275591
 20
-13.84106692913386
 10
-1.618354330708661
 20
-13.84260236220472
 10
-1.62242125984252
 20
-13.84447637795276
 10
-1.626334645669291
 20
-13.8466968503937
 10
-1.630094488188976
 20
-13.84925590551181
 10
-1.633196850393701
 20
-13.85168503937008
 10
-1.636169291338583
 20
-13.85427952755905
 10
-1.639007874015748
 20
-13.85703937007874
 10
-1.641712598425197
 20
-13.85996850393701
 10
-1.644287401574803
 20
-13.86305905511811
 10
-1.646732283464567
 20
-13.86631889763779
 10
-1.64903937007874
 20
-13.86974803149606
 10
-1.651216535433071
 20
-13.87334645669291
 10
-1.651216535433071
 20
-13.8427125984252
 10
-1.681094488188976
 20
-13.8427125984252
 10
-1.681094488188976
 20
-14.03486220472441
 10
-1.651216535433071
 20
-14.03486220472441
 10
-1.651216535433071
 20
-13.93653543307087
 10
-1.65051968503937
 20
-13.9308031496063
 10
-1.649614173228346
 20
-13.92529527559055
 10
-1.648492125984252
 20
-13.92001181102362
 10
-1.647157480314961
 20
-13.91494488188976
 10
-1.645610236220473
 20
-13.91010236220473
 10
-1.643850393700787
 20
-13.90547637795276
 10
-1.641877952755906
 20
-13.90106299212598
 10
-1.639688976377953
 20
-13.89686220472441
 10
-1.637909448818898
 20
-13.89387401574803
 10
-1.635984251968504
 20
-13.89101968503937
 10
-1.633909448818898
 20
-13.8883031496063
 10
-1.631688976377953
 20
-13.88572440944882
 10
-1.629322834645669
 20
-13.88327952755906
 10
-1.626811023622047
 20
-13.88097244094488
 10
-1.624149606299213
 20
-13.8788031496063
 10
-1.621346456692913
 20
-13.87677165354331
 10
-1.618437007874016
 20
-13.87492913385827
 10
-1.615476377952756
 20
-13.87333070866142
 10
-1.61246062992126
 20
-13.87198031496063
 10
-1.609393700787402
 20
-13.87087401574803
 10
-1.606271653543307
 20
-13.8700157480315
 10
-1.603094488188976
 20
-13.86940157480315
 10
-1.599866141732283
 20
-13.86903149606299
 10
-1.596582677165354
 20
-13.8689094488189
 10
-1.590393700787402
 20
-13.86916929133858
 10
-1.585062992125984
 20
-13.86994881889764
 10
-1.582716535433071
 20
-13.87053149606299
 10
-1.580586614173228
 20
-13.87124409448819
 10
-1.578665354330709
 20
-13.87208661417323
 10
-1.576956692913386
 20
-13.87305905511811
 10
-1.572653543307087
 20
-13.87631102362205
 10
-1.568925196850394
 20
-13.88012598425197
 10
-1.565771653543307
 20
-13.88449606299213
 10
-1.563192913385827
 20
-13.88942913385827
 10
-1.561185039370079
 20
-13.89492519685039
 10
-1.559748031496063
 20
-13.90097637795276
 10
-1.558889763779528
 20
-13.9075905511811
 10
-1.558602362204724
 20
-13.91476377952756
 10
-1.558602362204724
 20
-14.03486220472441
 10
-1.528732283464567
 20
-14.03486220472441
 10
-1.528732283464567
 20
-13.91476377952756
 10
-1.528948818897638
 20
-13.90740551181102
 10
-1.524027559055118
 20
-13.89686220472441
 10
-1.522248031496063
 20
-13.89387401574803
 10
-1.520322834645669
 20
-13.89101968503937
 10
-1.518248031496063
 20
-13.8883031496063
 10
-1.516031496062992
 20
-13.88572440944882
 10
-1.513665354330709
 20
-13.88327952755906
 10
-1.511149606299213
 20
-13.88097244094488
 10
-1.508492125984252
 20
-13.8788031496063
 10
-1.505681102362205
 20
-13.87677165354331
 10
-1.502771653543307
 20
-13.87492913385827
 10
-1.499811023622047
 20
-13.87333070866142
 10
-1.496799212598425
 20
-13.87198031496063
 10
-1.493732283464567
 20
-13.87087401574803
 10
-1.490610236220473
 20
-13.8700157480315
 10
-1.487437007874016
 20
-13.86940157480315
 10
-1.484208661417323
 20
-13.86903149606299
 10
-1.480929133858268
 20
-13.8689094488189
 10
-1.474740157480315
 20
-13.86916929133858
 10
-1.469405511811024
 20
-13.86994881889764
 10
-1.46705905511811
 20
-13.87053149606299
 10
-1.464925196850394
 20
-13.87124409448819
 10
-1.463003937007874
 20
-13.87208661417323
 10
-1.461295275590551
 20
-13.87305905511811
 10
-1.456992125984252
 20
-13.87631102362205
 10
-1.453263779527559
 20
-13.88012598425197
 10
-1.450110236220473
 20
-13.88449606299213
 10
-1.447531496062992
 20
-13.88942913385827
 10
-1.445523622047244
 20
-13.89492519685039
 10
-1.444086614173228
 20
-13.90097637795276
 10
-1.443228346456693
 20
-13.9075905511811
 10
-1.44294094488189
 20
-13.91476377952756
 10
-1.44294094488189
 20
-14.03486220472441
  0
LWPOLYLINE
  5
73
330
1F
100
AcDbEntity
  8
Layer 1
 62
     7
370
    18
100
AcDbPolyline
 90
        4
 70
     1
 43
0.0
 10
-7.988110236220472
 20
-15.28734645669291
 10
-7.957503937007874
 20
-15.2854842519685
 10
-7.97546062992126
 20
-15.26062992125984
 10
-7.988110236220472
 20
-15.28734645669291
  0
LWPOLYLINE
  5
74
330
1F
100
AcDbEntity
  8
Layer 1
 62
     7
370
    18
100
AcDbPolyline
 90
        4
 70
     1
 43
0.0
 10
-10.92912598425197
 20
-13.89488188976378
 10
-10.94708661417323
 20
-13.87002755905512
 10
-10.91648031496063
 20
-13.86816535433071
 10
-10.92912598425197
 20
-13.89488188976378
  0
LWPOLYLINE
  5
75
330
1F
100
AcDbEntity
  8
Layer 1
 62
     7
370
    18
100
AcDbPolyline
 90
        2
 70
     0
 43
0.0
 10
-7.948736220472441
 20
-15.2878937007874
 10
-10.95450787401575
 20
-13.86477165354331
  0
LWPOLYLINE
  5
76
330
1F
100
AcDbEntity
  8
Layer 1
 62
     7
370
     9
100
AcDbPolyline
 90
        7
 70
     1
 43
0.0
 10
-10.30493307086614
 20
-15.15818503937008
 10
-10.27506299212599
 20
-15.15818503937008
 10
-10.27506299212599
 20
-14.85772047244095
 10
-10.34675984251968
 20
-14.86557086614173
 10
-10.34675984251968
 20
-14.8922125984252
 10
-10.30493307086614
 20
-14.8922125984252
 10
-10.30493307086614
 20
-15.15818503937008
  0
LWPOLYLINE
  5
77
330
1F
100
AcDbEntity
  8
Layer 1
 62
     7
370
     9
100
AcDbPolyline
 90
        4
 70
     1
 43
0.0
 10
-10.07531889763779
 20
-14.89439763779528
 10
-10.07531889763779
 20
-15.06603543307087
 10
-10.1862874015748
 20
-15.06603543307087
 10
-10.07531889763779
 20
-14.89439763779528
  0
LWPOLYLINE
  5
78
330
1F
100
AcDbEntity
  8
Layer 1
 62
     7
370
     9
100
AcDbPolyline
 90
       11
 70
     1
 43
0.0
 10
-10.04416929133858
 20
-15.0974842519685
 10
-10.00746062992126
 20
-15.0974842519685
 10
-10.00746062992126
 20
-15.06603543307087
 10
-10.04416929133858
 20
-15.06603543307087
 10
-10.04459448818898
 20
-14.86120472440945
 10
-10.08642125984252
 20
-14.86120472440945
 10
-10.23922047244094
 20
-15.0974842519685
 10
-10.07531889763779
 20
-15.0974842519685
 10
-10.07531889763779
 20
-15.15818503937008
 10
-10.04416929133858
 20
-15.15818503937008
 10
-10.04416929133858
 20
-15.0974842519685
  0
LWPOLYLINE
  5
79
330
1F
100
AcDbEntity
  8
Layer 1
 62
     7
370
     9
100
AcDbPolyline
 90
      128
 70
     1
 43
0.0
 10
-9.91101968503937
 20
-14.97126771653543
 10
-9.891393700787402
 20
-14.89177952755906
 10
-9.786401574803149
 20
-14.89177952755906
 10
-9.786401574803149
 20
-14.86120472440945
 10
-9.914
 20
-14.86120472440945
 10
-9.947295275590552
 20
-14.9944094488189
 10
-9.914858267716536
 20
-15.00925590551181
 10
-9.910153543307086
 20
-15.00598031496063
 10
-9.905216535433071
 20
-15.00314173228347
 10
-9.900043307086614
 20
-15.00074409448819
 10
-9.89463779527559
 20
-14.99877952755905
 10
-9.889
 20
-14.99725196850394
 10
-9.883129921259842
 20
-14.99616141732283
 10
-9.877023622047243
 20
-14.99550393700787
 10
-9.870685039370079
 20
-14.9952874015748
 10
-9.864307086614174
 20
-14.9956062992126
 10
-9.85814566929134
 20
-14.99657086614173
 10
-9.852196850393701
 20
-14.99817322834646
 10
-9.846464566929134
 20
-15.00041732283464
 10
-9.840944881889763
 20
-15.00330708661417
 10
-9.835637795275591
 20
-15.00683464566929
 10
-9.830543307086614
 20
-15.01100393700787
 10
-9.825661417322834
 20
-15.01581889763779
 10
-9.821062992125984
 20
-15.02118503937008
 10
-9.817074803149607
 20
-15.02674803149606
 10
-9.813700787401574
 20
-15.03250787401575
 10
-9.81094094488189
 20
-15.03846850393701
 10
-9.808795275590551
 20
-15.04462598425197
 10
-9.80726377952756
 20
-15.0509842519685
 10
-9.806342519685039
 20
-15.05753937007874
 10
-9.806035433070866
 20
-15.06429133858268
 10
-9.806350393700788
 20
-15.07127559055118
 10
-9.807287401574802
 20
-15.07798031496063
 10
-9.80885433070866
 20
-15.08440157480315
 10
-9.811047244094489
 20
-15.09054724409449
 10
-9.81386220472441
 20
-15.09641338582677
 10
-9.817311023622047
 20
-15.102
 10
-9.82138188976378
 20
-15.1073031496063
 10
-9.826082677165354
 20
-15.11233070866142
 10
-9.830952755905512
 20
-15.1166811023622
 10
-9.836169291338583
 20
-15.12057086614173
 10
-9.841732283464568
 20
-15.12399606299213
 10
-9.84763779527559
 20
-15.12696062992126
 10
-9.850767716535433
 20
-15.12824015748031
 10
-9.854066929133857
 20
-15.12934645669291
 10
-9.857543307086614
 20
-15.13028346456693
 10
-9.861192913385826
 20
-15.13105511811024
 10
-9.869007874015749
 20
-15.13207874015748
 10
-9.877515748031495
 20
-15.13242125984252
 10
-9.881937007874015
 20
-15.13222834645669
 10
-9.886354330708661
 20
-15.13165748031496
 10
-9.890763779527559
 20
-15.13070078740157
 10
-9.895169291338583
 20
-15.12936220472441
 10
-9.899566929133858
 20
-15.12764173228346
 10
-9.903956692913386
 20
-15.12553937007874
 10
-9.90834251968504
 20
-15.12305511811024
 10
-9.912720472440945
 20
-15.12018503937008
 10
-9.916937007874015
 20
-15.1170157480315
 10
-9.920830708661418
 20
-15.11361417322835
 10
-9.924409448818897
 20
-15.10997637795276
 10
-9.927661417322835
 20
-15.10611023622047
 10
-9.93059842519685
 20
-15.10200787401575
 10
-9.933208661417323
 20
-15.09767716535433
 10
-9.9355
 20
-15.09311023622047
 10
-9.937472440944882
 20
-15.08831102362205
 10
-9.966507874015749
 20
-15.09791732283465
 10
-9.96365748031496
 20
-15.1051062992126
 10
-9.960330708661417
 20
-15.11193307086614
 10
-9.956531496062992
 20
-15.11839763779528
 10
-9.952259842519686
 20
-15.12450393700787
 10
-9.947511811023622
 20
-15.13024409448819
 10
-9.942291338582677
 20
-15.13562204724409
 10
-9.936602362204724
 20
-15.14064173228346
 10
-9.930437007874016
 20
-15.14529921259843
 10
-9.923881889763779
 20
-15.14954724409449
 10
-9.917181102362205
 20
-15.15322834645669
 10
-9.910334645669291
 20
-15.15634645669291
 10
-9.903338582677165
 20
-15.15889763779528
 10
-9.8961968503937
 20
-15.16088188976378
 10
-9.888909448818898
 20
-15.1623031496063
 10
-9.881476377952756
 20
-15.16315354330709
 10
-9.873897637795276
 20
-15.16343700787402
 10
-9.863795275590551
 20
-15.16296850393701
 10
-9.85407874015748
 20
-15.16156692913386
 10
-9.844748031496064
 20
-15.15922834645669
 10
-9.8358031496063
 20
-15.15595275590551
 10
-9.827244094488188
 20
-15.15174409448819
 10
-9.819070866141733
 20
-15.14659842519685
 10
-9.811287401574804
 20
-15.14051968503937
 10
-9.803889763779528
 20
-15.13350393700787
 10
-9.797188976377953
 20
-15.1258937007874
 10
-9.79138188976378
 20
-15.1179094488189
 10
-9.786468503937009
 20
-15.10954724409449
 10
-9.782448818897638
 20
-15.10081102362205
 10
-9.779318897637795
 20
-15.0916968503937
 10
-9.777086614173228
 20
-15.08220866141732
 10
-9.77574409448819
 20
-15.07234645669291
 10
-9.775299212598425
 20
-15.0621062992126
 10
-9.775740157480316
 20
-15.05192125984252
 10
-9.77705905511811
 20
-15.04216535433071
 10
-9.779259842519686
 20
-15.03283858267717
 10
-9.78234251968504
 20
-15.02394488188976
 10
-9.786303149606299
 20
-15.01548031496063
 10
-9.791141732283464
 20
-15.00744488188976
 10
-9.796862204724409
 20
-14.99984251968504
 10
-9.803464566929135
 20
-14.99266535433071
 10
-9.806838582677166
 20
-14.98947244094488
 10
-9.810350393700787
 20
-14.98645275590551
 10
-9.813992125984251
 20
-14.9836062992126
 10
-9.817767716535434
 20
-14.98092913385827
 10
-9.821673228346457
 20
-14.97842125984252
 10
-9.825712598425197
 20
-14.97608267716535
 10
-9.829885826771653
 20
-14.97391732283465
 10
-9.834192913385827
 20
-14.97191732283465
 10
-9.838586614173229
 20
-14.97012992125984
 10
-9.843023622047244
 20
-14.96857874015748
 10
-9.847496062992127
 20
-14.96726377952756
 10
-9.852003937007874
 20
-14.96619291338583
 10
-9.856551181102363
 20
-14.96535433070866
 10
-9.861129921259842
 20
-14.96475590551181
 10
-9.865748031496063
 20
-14.96439763779528
 10
-9.870397637795275
 20
-14.96427952755906
 10
-9.875141732283465
 20
-14.96438976377953
 10
-9.87998031496063
 20
-14.96471653543307
 10
-9.884913385826772
 20
-14.96526377952756
 10
-9.88994094488189
 20
-14.96602755905512
 10
-9.900283464566929
 20
-14.9682125984252
 10
-9.91101968503937
 20
-14.97126771653543
  0
LWPOLYLINE
  5
7A
330
1F
100
AcDbEntity
  8
Layer 1
 62
     7
370
     9
100
AcDbPolyline
 90
      147
 70
     1
 43
0.0
 10
-9.482531496062991
 20
-15.15730708661417
 10
-9.452661417322835
 20
-15.15730708661417
 10
-9.452661417322835
 20
-15.03720866141732
 10
-9.452905511811023
 20
-15.02923622047244
 10
-9.453633858267716
 20
-15.02163779527559
 10
-9.454850393700788
 20
-15.01441732283465
 10
-9.456555118110236
 20
-15.00756692913386
 10
-9.458744094488189
 20
-15.00109448818898
 10
-9.461417322834645
 20
-14.99499606299213
 10
-9.46457874015748
 20
-14.98927559055118
 10
-9.468228346456693
 20
-14.98392519685039
 10
-9.472433070866142
 20
-14.97895275590551
 10
-9.477141732283464
 20
-14.97448818897638
 10
-9.48236220472441
 20
-14.97054330708661
 10
-9.488082677165353
 20
-14.96711811023622
 10
-9.491188976377952
 20
-14.96563385826772
 10
-9.494535433070865
 20
-14.96434645669291
 10
-9.498122047244095
 20
-14.96325984251968
 10
-9.501948818897638
 20
-14.96237007874016
 10
-9.50601968503937
 20
-14.96167322834646
 10
-9.510326771653544
 20
-14.9611811023622
 10
-9.514874015748031
 20
-14.96088188976378
 10
-9.519665354330709
 20
-14.96078346456693
 10
-9.524496062992126
 20
-14.96095275590551
 10
-9.529173228346457
 20
-14.96146456692913
 10
-9.533696850393701
 20
-14.96231889763779
 10
-9.538066929133858
 20
-14.9635157480315
 10
-9.542283464566928
 20
-14.96504724409449
 10
-9.546350393700788
 20
-14.96692519685039
 10
-9.550263779527558
 20
-14.96914173228346
 10
-9.554023622047245
 20
-14.97170078740158
 10
-9.557279527559055
 20
-14.97425196850394
 10
-9.560393700787401
 20
-14.97699212598425
 10
-9.563358267716536
 20
-14.97992125984252
 10
-9.566181102362204
 20
-14.98303543307087
 10
-9.568854330708662
 20
-14.98633464566929
 10
-9.57138188976378
 20
-14.98981496062992
 10
-9.573763779527559
 20
-14.99347637795276
 10
-9.576
 20
-14.9973188976378
 10
-9.583893700787401
 20
-14.98392519685039
 10
-9.588094488188977
 20
-14.97895275590551
 10
-9.592803149606299
 20
-14.97448818897638
 10
-9.598015748031496
 20
-14.97054330708661
 10
-9.603732283464566
 20
-14.96711811023622
 10
-9.60684251968504
 20
-14.96563385826772
 10
-9.610192913385827
 20
-14.96434645669291
 10
-9.613779527559055
 20
-14.96325984251968
 10
-9.617610236220472
 20
-14.96237007874016
 10
-9.621677165354331
 20
-14.96167322834646
 10
-9.625984251968504
 20
-14.9611811023622
 10
-9.630527559055118
 20
-14.96088188976378
 10
-9.635314960629922
 20
-14.96078346456693
 10
-9.640149606299213
 20
-14.96095275590551
 10
-9.644826771653543
 20
-14.96146456692913
 10
-9.649354330708661
 20
-14.96231889763779
 10
-9.653724409448818
 20
-14.9635157480315
 10
-9.657944881889764
 20
-14.96504724409449
 10
-9.662007874015748
 20
-14.96692519685039
 10
-9.665917322834646
 20
-14.96914173228346
 10
-9.669673228346456
 20
-14.97170078740158
 10
-9.672779527559054
 20
-14.97412992125984
 10
-9.675751968503937
 20
-14.97672440944882
 10
-9.678590551181102
 20
-14.9794842519685
 10
-9.681299212598425
 20
-14.98241338582677
 10
-9.683874015748032
 20
-14.98550393700787
 10
-9.686311023622046
 20
-14.98876377952756
 10
-9.688622047244095
 20
-14.99219291338583
 10
-9.69079527559055
 20
-14.99579133858268
 10
-9.69079527559055
 20
-14.96515748031496
 10
-9.720677165354331
 20
-14.96515748031496
 10
-9.720677165354331
 20
-15.15730708661417
 10
-9.69079527559055
 20
-15.15730708661417
 10
-9.69079527559055
 20
-15.05898031496063
 10
-9.690102362204724
 20
-15.05324803149606
 10
-9.689196850393701
 20
-15.04774409448819
 10
-9.688078740157481
 20
-15.04246062992126
 10
-9.686744094488189
 20
-15.03739763779527
 10
-9.685196850393702
 20
-15.03255118110236
 10
-9.683433070866142
 20
-15.02792519685039
 10
-9.68146062992126
 20
-15.02350787401575
 10
-9.679271653543307
 20
-15.01930708661417
 10
-9.677492125984251
 20
-15.0163188976378
 10
-9.675566929133858
 20
-15.01346456692913
 10
-9.673492125984252
 20
-15.01074803149606
 10
-9.671275590551181
 20
-15.00816929133858
 10
-9.668909448818898
 20
-15.00572834645669
 10
-9.6663937007874
 20
-15.00342125984252
 10
-9.66373622047244
 20
-15.00125196850394
 10
-9.660925196850394
 20
-14.99921653543307
 10
-9.658015748031495
 20
-14.99737401574803
 10
-9.655055118110237
 20
-14.99577559055118
 10
-9.652043307086615
 20
-14.99442519685039
 10
-9.648976377952756
 20
-14.9933188976378
 10
-9.645854330708662
 20
-14.99246062992126
 10
-9.64267716535433
 20
-14.99184645669291
 10
-9.639444881889764
 20
-14.99147637795276
 10
-9.636161417322835
 20
-14.99135433070866
 10
-9.62998031496063
 20
-14.99161417322835
 10
-9.624649606299213
 20
-14.99238976377953
 10
-9.6223031496063
 20
-14.99297637795276
 10
-9.620169291338582
 20
-14.99368897637795
 10
-9.618248031496062
 20
-14.99453149606299
 10
-9.61653937007874
 20
-14.99550393700787
 10
-9.612236220472441
 20
-14.99875984251969
 10
-9.608507874015748
 20
-15.00257480314961
 10
-9.60535433070866
 20
-15.00694881889764
 10
-9.602771653543307
 20
-15.01188188976378
 10
-9.60076377952756
 20
-15.01737795275591
 10
-9.599330708661418
 20
-15.02342913385827
 10
-9.598468503937008
 20
-15.03003937007874
 10
-9.598181102362204
 20
-15.03720866141732
 10
-9.598181102362204
 20
-15.15730708661417
 10
-9.568311023622048
 20
-15.15730708661417
 10
-9.568311023622048
 20
-15.03720866141732
 10
-9.568531496062992
 20
-15.02986220472441
 10
-9.56361811023622
 20
-15.01930708661417
 10
-9.561838582677165
 20
-15.0163188976378
 10
-9.559909448818898
 20
-15.01346456692913
 10
-9.557838582677165
 20
-15.01074803149606
 10
-9.555618110236221
 20
-15.00816929133858
 10
-9.553251968503938
 20
-15.00572834645669
 10
-9.55073622047244
 20
-15.00342125984252
 10
-9.54807874015748
 20
-15.00125196850394
 10
-9.545271653543306
 20
-14.99921653543307
 10
-9.542362204724409
 20
-14.99737401574803
 10
-9.539401574803149
 20
-14.99577559055118
 10
-9.536389763779528
 20
-14.99442519685039
 10
-9.53332283464567
 20
-14.9933188976378
 10
-9.530200787401574
 20
-14.99246062992126
 10
-9.527027559055117
 20
-14.99184645669291
 10
-9.523799212598425
 20
-14.99147637795276
 10
-9.52051968503937
 20
-14.99135433070866
 10
-9.514326771653543
 20
-14.99161417322835
 10
-9.508988188976378
 20
-14.99238976377953
 10
-9.506641732283464
 20
-14.99297637795276
 10
-9.504507874015747
 20
-14.99368897637795
 10
-9.502590551181102
 20
-14.99453149606299
 10
-9.500885826771654
 20
-14.99550393700787
 10
-9.49657874015748
 20
-14.99875984251969
 10
-9.492850393700788
 20
-15.00257480314961
 10
-9.4896968503937
 20
-15.00694881889764
 10
-9.487114173228347
 20
-15.01188188976378
 10
-9.485110236220473
 20
-15.01737795275591
 10
-9.483677165354331
 20
-15.02342913385827
 10
-9.482818897637795
 20
-15.03003937007874
 10
-9.482531496062991
 20
-15.03720866141732
 10
-9.482531496062991
 20
-15.15730708661417
  0
LWPOLYLINE
  5
7B
330
1F
100
AcDbEntity
  8
Layer 1
 62
     7
370
     9
100
AcDbPolyline
 90
      147
 70
     1
 43
0.0
 10
-9.156889763779528
 20
-15.15730708661417
 10
-9.12701968503937
 20
-15.15730708661417
 10
-9.12701968503937
 20
-15.03720866141732
 10
-9.127263779527558
 20
-15.02923622047244
 10
-9.127992125984251
 20
-15.02163779527559
 10
-9.129208661417323
 20
-15.01441732283465
 10
-9.130913385826771
 20
-15.00756692913386
 10
-9.133102362204724
 20
-15.00109448818898
 10
-9.135779527559055
 20
-14.99499606299213
 10
-9.13894094488189
 20
-14.98927559055118
 10
-9.142590551181103
 20
-14.98392519685039
 10
-9.14679527559055
 20
-14.97895275590551
 10
-9.151507874015747
 20
-14.97448818897638
 10
-9.156720472440945
 20
-14.97054330708661
 10
-9.16244094488189
 20
-14.96711811023622
 10
-9.165551181102362
 20
-14.96563385826772
 10
-9.168901574803149
 20
-14.96434645669291
 10
-9.172488188976377
 20
-14.96325984251968
 10
-9.176318897637795
 20
-14.96237007874016
 10
-9.180385826771653
 20
-14.96167322834646
 10
-9.184692913385827
 20
-14.9611811023622
 10
-9.189236220472441
 20
-14.96088188976378
 10
-9.194023622047244
 20
-14.96078346456693
 10
-9.198858267716535
 20
-14.96095275590551
 10
-9.203535433070867
 20
-14.96146456692913
 10
-9.208062992125985
 20
-14.96231889763779
 10
-9.212433070866142
 20
-14.9635157480315
 10
-9.216653543307087
 20
-14.96504724409449
 10
-9.220716535433072
 20
-14.96692519685039
 10
-9.224625984251968
 20
-14.96914173228346
 10
-9.22838188976378
 20
-14.97170078740158
 10
-9.231641732283464
 20
-14.97425196850394
 10
-9.234759842519685
 20
-14.97699212598425
 10
-9.23772440944882
 20
-14.97992125984252
 10
-9.240547244094488
 20
-14.98303543307087
 10
-9.243220472440944
 20
-14.98633464566929
 10
-9.245748031496063
 20
-14.98981496062992
 10
-9.248125984251969
 20
-14.99347637795276
 10
-9.250358267716535
 20
-14.9973188976378
 10
-9.258251968503936
 20
-14.98392519685039
 10
-9.262456692913386
 20
-14.97895275590551
 10
-9.267169291338583
 20
-14.97448818897638
 10
-9.27238188976378
 20
-14.97054330708661
 10
-9.278102362204724
 20
-14.96711811023622
 10
-9.281208661417322
 20
-14.96563385826772
 10
-9.28455905511811
 20
-14.96434645669291
 10
-9.288145669291339
 20
-14.96325984251968
 10
-9.291972440944882
 20
-14.96237007874016
 10
-9.29603937007874
 20
-14.96167322834646
 10
-9.300346456692914
 20
-14.9611811023622
 10
-9.304897637795275
 20
-14.96088188976378
 10
-9.309685039370079
 20
-14.96078346456693
 10
-9.314515748031496
 20
-14.96095275590551
 10
-9.319192913385827
 20
-14.96146456692913
 10
-9.323716535433071
 20
-14.96231889763779
 10
-9.328086614173229
 20
-14.9635157480315
 10
-9.332303149606298
 20
-14.96504724409449
 10
-9.336370078740158
 20
-14.96692519685039
 10
-9.340283464566928
 20
-14.96914173228346
 10
-9.344043307086615
 20
-14.97170078740158
 10
-9.347145669291338
 20
-14.97412992125984
 10
-9.35011811023622
 20
-14.97672440944882
 10
-9.35296062992126
 20
-14.9794842519685
 10
-9.355665354330709
 20
-14.98241338582677
 10
-9.358240157480315
 20
-14.98550393700787
 10
-9.360681102362205
 20
-14.98876377952756
 10
-9.362992125984253
 20
-14.99219291338583
 10
-9.365165354330708
 20
-14.99579133858268
 10
-9.365165354330708
 20
-14.96515748031496
 10
-9.395047244094489
 20
-14.96515748031496
 10
-9.395047244094489
 20
-15.15730708661417
 10
-9.365165354330708
 20
-15.15730708661417
 10
-9.365165354330708
 20
-15.05898031496063
 10
-9.364472440944882
 20
-15.05324803149606
 10
-9.363562992125985
 20
-15.04774409448819
 10
-9.362444881889763
 20
-15.04246062992126
 10
-9.361110236220473
 20
-15.03739763779527
 10
-9.359562992125984
 20
-15.03255118110236
 10
-9.3578031496063
 20
-15.02792519685039
 10
-9.355830708661417
 20
-15.02350787401575
 10
-9.353641732283464
 20
-15.01930708661417
 10
-9.351862204724409
 20
-15.0163188976378
 10
-9.349933070866141
 20
-15.01346456692913
 10
-9.347862204724409
 20
-15.01074803149606
 10
-9.345641732283465
 20
-15.00816929133858
 10
-9.343275590551182
 20
-15.00572834645669
 10
-9.340759842519684
 20
-15.00342125984252
 10
-9.338102362204724
 20
-15.00125196850394
 10
-9.335295275590552
 20
-14.99921653543307
 10
-9.332385826771654
 20
-14.99737401574803
 10
-9.329425196850394
 20
-14.99577559055118
 10
-9.326413385826772
 20
-14.99442519685039
 10
-9.323346456692914
 20
-14.9933188976378
 10
-9.32022440944882
 20
-14.99246062992126
 10
-9.317047244094487
 20
-14.99184645669291
 10
-9.313814960629921
 20
-14.99147637795276
 10
-9.310531496062993
 20
-14.99135433070866
 10
-9.30434251968504
 20
-14.99161417322835
 10
-9.299011811023622
 20
-14.99238976377953
 10
-9.296665354330708
 20
-14.99297637795276
 10
-9.294531496062993
 20
-14.99368897637795
 10
-9.292614173228346
 20
-14.99453149606299
 10
-9.290909448818898
 20
-14.99550393700787
 10
-9.286606299212599
 20
-14.99875984251969
 10
-9.282877952755905
 20
-15.00257480314961
 10
-9.279720472440944
 20
-15.00694881889764
 10
-9.277141732283464
 20
-15.01188188976378
 10
-9.275133858267717
 20
-15.01737795275591
 10
-9.273696850393701
 20
-15.02342913385827
 10
-9.272838582677165
 20
-15.03003937007874
 10
-9.272551181102362
 20
-15.03720866141732
 10
-9.272551181102362
 20
-15.15730708661417
 10
-9.242681102362205
 20
-15.15730708661417
 10
-9.242681102362205
 20
-15.03720866141732
 10
-9.242897637795275
 20
-15.02986220472441
 10
-9.237976377952755
 20
-15.01930708661417
 10
-9.2361968503937
 20
-15.0163188976378
 10
-9.234271653543306
 20
-15.01346456692913
 10
-9.232200787401576
 20
-15.01074803149606
 10
-9.22998031496063
 20
-15.00816929133858
 10
-9.227614173228346
 20
-15.00572834645669
 10
-9.225102362204725
 20
-15.00342125984252
 10
-9.222440944881889
 20
-15.00125196850394
 10
-9.219633858267716
 20
-14.99921653543307
 10
-9.216724409448819
 20
-14.99737401574803
 10
-9.213763779527559
 20
-14.99577559055118
 10
-9.210748031496063
 20
-14.99442519685039
 10
-9.207681102362205
 20
-14.9933188976378
 10
-9.204562992125984
 20
-14.99246062992126
 10
-9.201389763779527
 20
-14.99184645669291
 10
-9.198161417322835
 20
-14.99147637795276
 10
-9.19488188976378
 20
-14.99135433070866
 10
-9.188692913385827
 20
-14.99161417322835
 10
-9.183358267716535
 20
-14.99238976377953
 10
-9.181007874015748
 20
-14.99297637795276
 10
-9.17887401574803
 20
-14.99368897637795
 10
-9.176952755905512
 20
-14.99453149606299
 10
-9.175244094488189
 20
-14.99550393700787
 10
-9.17094094488189
 20
-14.99875984251969
 10
-9.167212598425197
 20
-15.00257480314961
 10
-9.164059055118111
 20
-15.00694881889764
 10
-9.16148031496063
 20
-15.01188188976378
 10
-9.159472440944882
 20
-15.01737795275591
 10
-9.158035433070866
 20
-15.02342913385827
 10
-9.15717716535433
 20
-15.03003937007874
 10
-9.156889763779528
 20
-15.03720866141732
 10
-9.156889763779528
 20
-15.15730708661417
  0
ENDSEC
  0
SECTION
  2
OBJECTS
  0
DICTIONARY
  5
C
330
0
100
AcDbDictionary
281
     1
  3
ACAD_DETAILVIEWSTYLE
350
83
  3
ACAD_GROUP
350
D
  3
ACAD_LAYOUT
350
1A
  3
ACAD_MATERIAL
350
43
  3
ACAD_MLEADERSTYLE
350
5B
  3
ACAD_MLINESTYLE
350
17
  3
ACAD_PLOTSETTINGS
350
19
  3
ACAD_PLOTSTYLENAME
350
E
  3
ACAD_SCALELIST
350
47
  3
ACAD_SECTIONVIEWSTYLE
350
84
  3
ACAD_TABLESTYLE
350
59
  3
ACAD_VISUALSTYLE
350
2A
  3
ACDB_RECOMPOSE_DATA
350
80
  3
AcDbVariableDictionary
350
7C
  0
SUN
  5
5D
330
29
100
AcDbSun
 90
        1
290
     0
 63
     7
421
 16777215
 40
1.0
291
     1
 91
  2455826
 92
 54000000
292
     0
 70
     2
 71
   256
280
     1
  0
DICTIONARY
  5
83
102
{ACAD_REACTORS
330
C
102
}
330
C
100
AcDbDictionary
281
     1
  0
DICTIONARY
  5
D
102
{ACAD_REACTORS
330
C
102
}
330
C
100
AcDbDictionary
281
     1
  0
DICTIONARY
  5
1A
102
{ACAD_REACTORS
330
C
102
}
330
C
100
AcDbDictionary
281
     1
  3
Layout1
350
1E
  3
Layout2
350
26
  3
Model
350
22
  0
DICTIONARY
  5
43
102
{ACAD_REACTORS
330
C
102
}
330
C
100
AcDbDictionary
281
     1
  3
ByBlock
350
45
  3
ByLayer
350
44
  3
Global
350
46
  0
DICTIONARY
  5
5B
102
{ACAD_REACTORS
330
C
102
}
330
C
100
AcDbDictionary
281
     1
  3
Standard
350
5C
  0
DICTIONARY
  5
17
102
{ACAD_REACTORS
330
C
102
}
330
C
100
AcDbDictionary
281
     1
  3
Standard
350
18
  0
DICTIONARY
  5
19
102
{ACAD_REACTORS
330
C
102
}
330
C
100
AcDbDictionary
281
     1
  0
ACDBDICTIONARYWDFLT
  5
E
102
{ACAD_REACTORS
330
C
102
}
330
C
100
AcDbDictionary
281
     1
  3
Normal
350
F
100
AcDbDictionaryWithDefault
340
F
  0
DICTIONARY
  5
47
102
{ACAD_REACTORS
330
C
102
}
330
C
100
AcDbDictionary
281
     1
  3
A0
350
48
  3
A1
350
49
  3
A2
350
4A
  3
A3
350
4B
  3
A4
350
4C
  3
A5
350
4D
  3
A6
350
4E
  3
A7
350
4F
  3
A8
350
50
  3
A9
350
51
  3
B1
350
52
  3
B2
350
53
  3
B3
350
54
  3
B4
350
55
  3
B5
350
56
  3
B6
350
57
  3
B7
350
58
  0
DICTIONARY
  5
84
102
{ACAD_REACTORS
330
C
102
}
330
C
100
AcDbDictionary
281
     1
  0
DICTIONARY
  5
59
102
{ACAD_REACTORS
330
C
102
}
330
C
100
AcDbDictionary
281
     1
  3
Standard
350
5A
  0
DICTIONARY
  5
2A
102
{ACAD_REACTORS
330
C
102
}
330
C
100
AcDbDictionary
281
     1
  3
2dWireframe
350
2F
  3
Basic
350
32
  3
Brighten
350
36
  3
ColorChange
350
3A
  3
Conceptual
350
34
  3
Dim
350
35
  3
EdgeColorOff
350
3D
  3
Facepattern
350
39
  3
Flat
350
2B
  3
FlatWithEdges
350
2C
  3
Gouraud
350
2D
  3
GouraudWithEdges
350
2E
  3
Hidden
350
31
  3
JitterOff
350
3B
  3
Linepattern
350
38
  3
OverhangOff
350
3C
  3
Realistic
350
33
  3
Shaded
350
42
  3
Shaded with edges
350
41
  3
Shades of Gray
350
3E
  3
Sketchy
350
3F
  3
Thicken
350
37
  3
Wireframe
350
30
  3
X-Ray
350
40
  0
XRECORD
  5
80
102
{ACAD_REACTORS
330
C
102
}
330
C
100
AcDbXrecord
280
     1
 90
        1
330
5A
  0
DICTIONARY
  5
7C
102
{ACAD_REACTORS
330
C
102
}
330
C
100
AcDbDictionary
281
     1
  3
CANNOSCALE
350
7D
  3
CMLEADERSTYLE
350
82
  3
CTABLESTYLE
350
81
  0
LAYOUT
  5
1E
102
{ACAD_REACTORS
330
1A
102
}
330
1A
100
AcDbPlotSettings
  1

  2
none_device
  4

  6

 40
0.0
 41
0.0
 42
0.0
 43
0.0
 44
0.0
 45
0.0
 46
0.0
 47
0.0
 48
0.0
 49
0.0
140
0.0
141
0.0
142
1.0
143
1.0
 70
   688
 72
     0
 73
     0
 74
     5
  7

 75
    16
 76
     0
 77
     2
 78
   300
147
1.0
148
0.0
149
0.0
100
AcDbLayout
  1
Layout1
 70
     1
 71
     1
 10
0.0
 20
0.0
 11
12.0
 21
9.0
 12
0.0
 22
0.0
 32
0.0
 14
1.000000000000000E+20
 24
1.000000000000000E+20
 34
1.000000000000000E+20
 15
-1.000000000000000E+20
 25
-1.000000000000000E+20
 35
-1.000000000000000E+20
146
0.0
 13
0.0
 23
0.0
 33
0.0
 16
1.0
 26
0.0
 36
0.0
 17
0.0
 27
1.0
 37
0.0
 76
     0
330
1B
  0
LAYOUT
  5
26
102
{ACAD_REACTORS
330
1A
102
}
330
1A
100
AcDbPlotSettings
  1

  2
none_device
  4

  6

 40
0.0
 41
0.0
 42
0.0
 43
0.0
 44
0.0
 45
0.0
 46
0.0
 47
0.0
 48
0.0
 49
0.0
140
0.0
141
0.0
142
1.0
143
1.0
 70
   688
 72
     0
 73
     0
 74
     5
  7

 75
    16
 76
     0
 77
     2
 78
   300
147
1.0
148
0.0
149
0.0
100
AcDbLayout
  1
Layout2
 70
     1
 71
     2
 10
0.0
 20
0.0
 11
0.0
 21
0.0
 12
0.0
 22
0.0
 32
0.0
 14
0.0
 24
0.0
 34
0.0
 15
0.0
 25
0.0
 35
0.0
146
0.0
 13
0.0
 23
0.0
 33
0.0
 16
1.0
 26
0.0
 36
0.0
 17
0.0
 27
1.0
 37
0.0
 76
     0
330
23
  0
LAYOUT
  5
22
102
{ACAD_REACTORS
330
1A
102
}
330
1A
100
AcDbPlotSettings
  1

  2
none_device
  4
Letter_(8.50_x_11.00_Inches)
  6

 40
6.35
 41
6.35
 42
6.35000508
 43
6.35000508
 44
215.9
 45
279.4
 46
0.0
 47
0.0
 48
0.0
 49
0.0
140
0.0
141
0.0
142
1.0
143
1.0
 70
  1712
 72
     0
 73
     0
 74
     0
  7

 75
     0
 76
     0
 77
     2
 78
   300
147
1.0
148
0.0
149
0.0
100
AcDbLayout
  1
Model
 70
     1
 71
     0
 10
0.0
 20
0.0
 11
12.0
 21
9.0
 12
0.0
 22
0.0
 32
0.0
 14
-12.14701181102362
 24
-15.91848031496063
 34
0.0
 15
2.777448818897638
 25
-8.827665354330708
 35
0.0
146
0.0
 13
0.0
 23
0.0
 33
0.0
 16
1.0
 26
0.0
 36
0.0
 17
0.0
 27
1.0
 37
0.0
 76
     0
330
1F
331
29
  0
MATERIAL
  5
45
102
{ACAD_REACTORS
330
43
102
}
330
43
100
AcDbMaterial
  1
ByBlock
 72
     1
 94
      127
  0
MATERIAL
  5
44
102
{ACAD_REACTORS
330
43
102
}
330
43
100
AcDbMaterial
  1
ByLayer
 72
     1
 94
      127
  0
MATERIAL
  5
46
102
{ACAD_REACTORS
330
43
102
}
330
43
100
AcDbMaterial
  1
Global
 72
     1
 94
      127
  0
MLEADERSTYLE
  5
5C
102
{ACAD_REACTORS
330
5B
102
}
330
5B
100
AcDbMLeaderStyle
179
     2
170
     2
171
     1
172
     0
 90
        2
 40
0.0
 41
0.0
173
     1
 91
-1056964608
340
14
 92
       -2
290
     1
 42
0.09
291
     1
 43
0.36
  3
Standard
341
0
 44
0.18
300

342
11
174
     1
178
     6
175
     1
176
     0
 93
-1056964608
 45
0.18
292
     0
297
     0
 46
0.18
343
0
 94
-1056964608
 47
1.0
 49
1.0
140
1.0
293
     1
141
0.0
294
     1
177
     0
142
1.0
295
     0
296
     0
143
0.125
271
     0
272
     9
273
     9
298
     0
  0
MLINESTYLE
  5
18
102
{ACAD_REACTORS
330
17
102
}
330
17
100
AcDbMlineStyle
  2
Standard
 70
     0
  3

 62
   256
 51
90.0
 52
90.0
 71
     2
 49
0.5
 62
   256
  6
BYLAYER
 49
-0.5
 62
   256
  6
BYLAYER
  0
ACDBPLACEHOLDER
  5
F
102
{ACAD_REACTORS
330
E
102
}
330
E
  0
SCALE
  5
48
102
{ACAD_REACTORS
330
47
102
}
330
47
100
AcDbScale
 70
     0
300
1:1
140
1.0
141
1.0
290
     1
  0
SCALE
  5
49
102
{ACAD_REACTORS
330
47
102
}
330
47
100
AcDbScale
 70
     0
300
1/128" = 1'-0"
140
0.0078125
141
12.0
290
     0
  0
SCALE
  5
4A
102
{ACAD_REACTORS
330
47
102
}
330
47
100
AcDbScale
 70
     0
300
1/64" = 1'-0"
140
0.015625
141
12.0
290
     0
  0
SCALE
  5
4B
102
{ACAD_REACTORS
330
47
102
}
330
47
100
AcDbScale
 70
     0
300
1/32" = 1'-0"
140
0.03125
141
12.0
290
     0
  0
SCALE
  5
4C
102
{ACAD_REACTORS
330
47
102
}
330
47
100
AcDbScale
 70
     0
300
1/16" = 1'-0"
140
0.0625
141
12.0
290
     0
  0
SCALE
  5
4D
102
{ACAD_REACTORS
330
47
102
}
330
47
100
AcDbScale
 70
     0
300
3/32" = 1'-0"
140
0.09375
141
12.0
290
     0
  0
SCALE
  5
4E
102
{ACAD_REACTORS
330
47
102
}
330
47
100
AcDbScale
 70
     0
300
1/8" = 1'-0"
140
0.125
141
12.0
290
     0
  0
SCALE
  5
4F
102
{ACAD_REACTORS
330
47
102
}
330
47
100
AcDbScale
 70
     0
300
3/16" = 1'-0"
140
0.1875
141
12.0
290
     0
  0
SCALE
  5
50
102
{ACAD_REACTORS
330
47
102
}
330
47
100
AcDbScale
 70
     0
300
1/4" = 1'-0"
140
0.25
141
12.0
290
     0
  0
SCALE
  5
51
102
{ACAD_REACTORS
330
47
102
}
330
47
100
AcDbScale
 70
     0
300
3/8" = 1'-0"
140
0.375
141
12.0
290
     0
  0
SCALE
  5
52
102
{ACAD_REACTORS
330
47
102
}
330
47
100
AcDbScale
 70
     0
300
1/2" = 1'-0"
140
0.5
141
12.0
290
     0
  0
SCALE
  5
53
102
{ACAD_REACTORS
330
47
102
}
330
47
100
AcDbScale
 70
     0
300
3/4" = 1'-0"
140
0.75
141
12.0
290
     0
  0
SCALE
  5
54
102
{ACAD_REACTORS
330
47
102
}
330
47
100
AcDbScale
 70
     0
300
1" = 1'-0"
140
1.0
141
12.0
290
     0
  0
SCALE
  5
55
102
{ACAD_REACTORS
330
47
102
}
330
47
100
AcDbScale
 70
     0
300
1-1/2" = 1'-0"
140
1.5
141
12.0
290
     0
  0
SCALE
  5
56
102
{ACAD_REACTORS
330
47
102
}
330
47
100
AcDbScale
 70
     0
300
3" = 1'-0"
140
3.0
141
12.0
290
     0
  0
SCALE
  5
57
102
{ACAD_REACTORS
330
47
102
}
330
47
100
AcDbScale
 70
     0
300
6" = 1'-0"
140
6.0
141
12.0
290
     0
  0
SCALE
  5
58
102
{ACAD_REACTORS
330
47
102
}
330
47
100
AcDbScale
 70
     0
300
1'-0" = 1'-0"
140
12.0
141
12.0
290
     0
  0
TABLESTYLE
  5
5A
102
{ACAD_REACTORS
330
59
102
}
102
{ACAD_XDICTIONARY
360
7E
102
}
330
59
100
AcDbTableStyle
  3
Standard
 70
     0
 71
     0
 40
0.06
 41
0.06
280
     0
281
     0
  7
Standard
140
0.18
170
     2
 62
     0
 63
   257
283
     0
 90
        4
 91
        0
  1

274
    -2
284
     1
 64
     0
275
    -2
285
     1
 65
     0
276
    -2
286
     1
 66
     0
277
    -2
287
     1
 67
     0
278
    -2
288
     1
 68
     0
279
    -2
289
     1
 69
     0
  7
Standard
140
0.25
170
     5
 62
     0
 63
   257
283
     0
 90
        4
 91
        0
  1

274
    -2
284
     1
 64
     0
275
    -2
285
     1
 65
     0
276
    -2
286
     1
 66
     0
277
    -2
287
     1
 67
     0
278
    -2
288
     1
 68
     0
279
    -2
289
     1
 69
     0
  7
Standard
140
0.18
170
     5
 62
     0
 63
   257
283
     0
 90
        4
 91
        0
  1

274
    -2
284
     1
 64
     0
275
    -2
285
     1
 65
     0
276
    -2
286
     1
 66
     0
277
    -2
287
     1
 67
     0
278
    -2
288
     1
 68
     0
279
    -2
289
     1
 69
     0
  0
VISUALSTYLE
  5
2F
102
{ACAD_REACTORS
330
2A
102
}
330
2A
100
AcDbVisualStyle
  2
2dWireframe
 70
     4
177
     3
291
     0
 70
    58
 90
        0
176
     1
 90
        2
176
     1
 90
        0
176
     1
 90
        0
176
     1
 40
0.6
176
     1
 40
30.0
176
     1
 62
     7
420
 16777215
176
     1
 90
        1
176
     1
 90
        4
176
     1
 62
     7
176
     1
 62
   257
176
     1
 90
        1
176
     1
 90
        1
176
     1
 40
1.0
176
     1
 90
        0
176
     1
 62
   257
176
     1
 40
1.0
176
     1
 90
        1
176
     1
 90
        6
176
     1
 90
        2
176
     1
 62
     7
176
     1
 90
        5
176
     1
 90
        0
176
     1
 90
        0
176
     1
290
     0
176
     1
 90
        1
176
     1
 40
0.0
176
     1
 90
        0
176
     1
290
     1
176
     1
290
     1
176
     1
290
     0
176
     1
290
     0
176
     1
290
     0
176
     1
290
     0
176
     1
290
     0
176
     1
290
     0
176
     1
290
     0
176
     1
 90
       50
176
     1
 40
0.0
176
     1
 40
1.0
176
     1
 90
        0
176
     1
 62
    18
420
        0
176
     1
 90
       50
176
     1
 90
        3
176
     1
 62
     5
420
      255
176
     1
290
     0
176
     1
 90
       50
176
     1
 90
       50
176
     1
 90
       50
176
     1
290
     0
176
     1
 90
       50
176
     1
 62
   256
176
     0
 40
1.0
176
     0
 90
        2
176
     1
  1
strokes_ogs.tif
176
     1
290
     0
176
     1
 40
1.0
176
     1
 40
1.0
176
     1
  0
VISUALSTYLE
  5
32
102
{ACAD_REACTORS
330
2A
102
}
330
2A
100
AcDbVisualStyle
  2
Basic
 70
     7
177
     3
291
     1
 70
    58
 90
        1
176
     1
 90
        0
176
     1
 90
        1
176
     1
 90
        0
176
     1
 40
0.6
176
     1
 40
30.0
176
     1
 62
     7
420
 16777215
176
     1
 90
        0
176
     1
 90
        4
176
     1
 62
     7
176
     1
 62
   257
176
     1
 90
        1
176
     1
 90
        1
176
     1
 40
1.0
176
     1
 90
        8
176
     1
 62
     7
176
     1
 40
1.0
176
     1
 90
        1
176
     1
 90
        6
176
     1
 90
        2
176
     1
 62
     7
176
     1
 90
        5
176
     1
 90
        0
176
     1
 90
        0
176
     1
290
     0
176
     1
 90
        1
176
     1
 40
0.0
176
     1
 90
        0
176
     1
290
     0
176
     1
290
     1
176
     1
290
     1
176
     1
290
     0
176
     1
290
     0
176
     1
290
     0
176
     1
290
     0
176
     1
290
     0
176
     1
290
     0
176
     1
 90
       50
176
     1
 40
0.0
176
     1
 40
1.0
176
     1
 90
        0
176
     1
 62
    18
420
        0
176
     1
 90
       50
176
     1
 90
        3
176
     1
 62
     5
420
      255
176
     1
290
     0
176
     1
 90
       50
176
     1
 90
       50
176
     1
 90
       50
176
     1
290
     0
176
     1
 90
       50
176
     1
 62
   256
176
     0
 40
1.0
176
     0
 90
        2
176
     1
  1
strokes_ogs.tif
176
     1
290
     0
176
     1
 40
1.0
176
     1
 40
1.0
176
     1
  0
VISUALSTYLE
  5
36
102
{ACAD_REACTORS
330
2A
102
}
330
2A
100
AcDbVisualStyle
  2
Brighten
 70
    12
177
     3
291
     1
 70
    58
 90
        2
176
     1
 90
        2
176
     1
 90
        0
176
     1
 90
        0
176
     1
 40
0.6
176
     1
 40
30.0
176
     1
 62
     7
420
 16777215
176
     1
 90
        1
176
     1
 90
        4
176
     1
 62
     7
176
     1
 62
   257
176
     1
 90
        1
176
     1
 90
        1
176
     1
 40
1.0
176
     1
 90
        8
176
     1
 62
     7
176
     1
 40
1.0
176
     1
 90
        1
176
     1
 90
        6
176
     1
 90
        2
176
     1
 62
     7
176
     1
 90
        5
176
     1
 90
        0
176
     1
 90
        0
176
     1
290
     0
176
     1
 90
        1
176
     1
 40
50.0
176
     1
 90
        0
176
     1
290
     0
176
     1
290
     1
176
     1
290
     1
176
     1
290
     0
176
     1
290
     0
176
     1
290
     0
176
     1
290
     0
176
     1
290
     0
176
     1
290
     0
176
     1
 90
       50
176
     1
 40
0.0
176
     1
 40
1.0
176
     1
 90
        0
176
     1
 62
    18
420
        0
176
     1
 90
       50
176
     1
 90
        3
176
     1
 62
     5
420
      255
176
     1
290
     0
176
     1
 90
       50
176
     1
 90
       50
176
     1
 90
       50
176
     1
290
     0
176
     1
 90
       50
176
     1
 62
   256
176
     0
 40
1.0
176
     0
 90
        2
176
     1
  1
strokes_ogs.tif
176
     1
290
     0
176
     1
 40
1.0
176
     1
 40
1.0
176
     1
  0
VISUALSTYLE
  5
3A
102
{ACAD_REACTORS
330
2A
102
}
330
2A
100
AcDbVisualStyle
  2
ColorChange
 70
    16
177
     3
291
     1
 70
    58
 90
        2
176
     1
 90
        2
176
     1
 90
        3
176
     1
 90
        0
176
     1
 40
0.6
176
     1
 40
30.0
176
     1
 62
     8
420
  8421504
176
     1
 90
        1
176
     1
 90
        4
176
     1
 62
     7
176
     1
 62
   257
176
     1
 90
        1
176
     1
 90
        1
176
     1
 40
1.0
176
     1
 90
        8
176
     1
 62
     8
420
  8421504
176
     1
 40
1.0
176
     1
 90
        1
176
     1
 90
        6
176
     1
 90
        2
176
     1
 62
     7
176
     1
 90
        5
176
     1
 90
        0
176
     1
 90
        0
176
     1
290
     0
176
     1
 90
        1
176
     1
 40
0.0
176
     1
 90
        0
176
     1
290
     0
176
     1
290
     1
176
     1
290
     1
176
     1
290
     0
176
     1
290
     0
176
     1
290
     0
176
     1
290
     0
176
     1
290
     0
176
     1
290
     0
176
     1
 90
       50
176
     1
 40
0.0
176
     1
 40
1.0
176
     1
 90
        0
176
     1
 62
    18
420
        0
176
     1
 90
       50
176
     1
 90
        3
176
     1
 62
     5
420
      255
176
     1
290
     0
176
     1
 90
       50
176
     1
 90
       50
176
     1
 90
       50
176
     1
290
     0
176
     1
 90
       50
176
     1
 62
   256
176
     0
 40
1.0
176
     0
 90
        2
176
     1
  1
strokes_ogs.tif
176
     1
290
     0
176
     1
 40
1.0
176
     1
 40
1.0
176
     1
  0
VISUALSTYLE
  5
34
102
{ACAD_REACTORS
330
2A
102
}
330
2A
100
AcDbVisualStyle
  2
Conceptual
 70
     9
177
     3
291
     0
 70
    58
 90
        3
176
     1
 90
        2
176
     1
 90
        0
176
     1
 90
        0
176
     1
 40
0.6
176
     1
 40
30.0
176
     1
 62
     7
420
 16777215
176
     1
 90
        2
176
     1
 90
        2
176
     1
 62
     7
176
     1
 62
   257
176
     1
 90
        1
176
     1
 90
        1
176
     1
 40
179.0
176
     1
 90
        8
176
     1
 62
     7
176
     1
 40
1.0
176
     1
 90
        1
176
     1
 90
        6
176
     1
 90
        2
176
     1
 62
     7
176
     1
 90
        3
176
     1
 90
        0
176
     1
 90
        0
176
     1
290
     0
176
     1
 90
        1
176
     1
 40
0.0
176
     1
 90
        0
176
     1
290
     0
176
     1
290
     1
176
     1
290
     1
176
     1
290
     0
176
     1
290
     0
176
     1
290
     0
176
     1
290
     0
176
     1
290
     0
176
     1
290
     0
176
     1
 90
       50
176
     1
 40
0.0
176
     1
 40
1.0
176
     1
 90
        0
176
     1
 62
    18
420
        0
176
     1
 90
       50
176
     1
 90
        3
176
     1
 62
     5
420
      255
176
     1
290
     0
176
     1
 90
       50
176
     1
 90
       50
176
     1
 90
       50
176
     1
290
     0
176
     1
 90
       50
176
     1
 62
   256
176
     0
 40
1.0
176
     0
 90
        2
176
     1
  1
strokes_ogs.tif
176
     1
290
     0
176
     1
 40
1.0
176
     1
 40
1.0
176
     1
  0
VISUALSTYLE
  5
35
102
{ACAD_REACTORS
330
2A
102
}
330
2A
100
AcDbVisualStyle
  2
Dim
 70
    11
177
     3
291
     1
 70
    58
 90
        2
176
     1
 90
        2
176
     1
 90
        0
176
     1
 90
        0
176
     1
 40
0.6
176
     1
 40
30.0
176
     1
 62
     7
420
 16777215
176
     1
 90
        1
176
     1
 90
        4
176
     1
 62
     7
176
     1
 62
   257
176
     1
 90
        1
176
     1
 90
        1
176
     1
 40
1.0
176
     1
 90
        8
176
     1
 62
     7
176
     1
 40
1.0
176
     1
 90
        1
176
     1
 90
        6
176
     1
 90
        2
176
     1
 62
     7
176
     1
 90
        5
176
     1
 90
        0
176
     1
 90
        0
176
     1
290
     0
176
     1
 90
        1
176
     1
 40
-50.0
176
     1
 90
        0
176
     1
290
     0
176
     1
290
     1
176
     1
290
     1
176
     1
290
     0
176
     1
290
     0
176
     1
290
     0
176
     1
290
     0
176
     1
290
     0
176
     1
290
     0
176
     1
 90
       50
176
     1
 40
0.0
176
     1
 40
1.0
176
     1
 90
        0
176
     1
 62
    18
420
        0
176
     1
 90
       50
176
     1
 90
        3
176
     1
 62
     5
420
      255
176
     1
290
     0
176
     1
 90
       50
176
     1
 90
       50
176
     1
 90
       50
176
     1
290
     0
176
     1
 90
       50
176
     1
 62
   256
176
     0
 40
1.0
176
     0
 90
        2
176
     1
  1
strokes_ogs.tif
176
     1
290
     0
176
     1
 40
1.0
176
     1
 40
1.0
176
     1
  0
VISUALSTYLE
  5
3D
102
{ACAD_REACTORS
330
2A
102
}
330
2A
100
AcDbVisualStyle
  2
EdgeColorOff
 70
    22
177
     3
291
     1
 70
    58
 90
        2
176
     0
 90
        2
176
     0
 90
        0
176
     0
 90
        0
176
     0
 40
0.6
176
     0
 40
30.0
176
     0
 62
     7
420
 16777215
176
     0
 90
        1
176
     0
 90
        4
176
     0
 62
     7
176
     0
 62
   257
176
     0
 90
        1
176
     0
 90
        1
176
     0
 40
1.0
176
     0
 90
        8
176
     2
 62
     7
176
     0
 40
1.0
176
     0
 90
        1
176
     0
 90
        6
176
     0
 90
        2
176
     0
 62
     7
176
     0
 90
        5
176
     0
 90
        0
176
     0
 90
        0
176
     0
290
     0
176
     0
 90
        1
176
     0
 40
0.0
176
     0
 90
        0
176
     0
290
     0
176
     0
290
     1
176
     0
290
     1
176
     0
290
     0
176
     0
290
     0
176
     0
290
     0
176
     0
290
     0
176
     0
290
     0
176
     0
290
     0
176
     0
 90
       50
176
     0
 40
0.0
176
     0
 40
1.0
176
     0
 90
        0
176
     0
 62
    18
420
        0
176
     0
 90
       50
176
     0
 90
        3
176
     0
 62
     5
420
      255
176
     0
290
     0
176
     0
 90
       50
176
     0
 90
       50
176
     0
 90
       50
176
     0
290
     0
176
     0
 90
       50
176
     0
 62
   256
176
     0
 40
1.0
176
     0
 90
        2
176
     0
  1
strokes_ogs.tif
176
     0
290
     0
176
     0
 40
1.0
176
     0
 40
1.0
176
     0
  0
VISUALSTYLE
  5
39
102
{ACAD_REACTORS
330
2A
102
}
330
2A
100
AcDbVisualStyle
  2
Facepattern
 70
    15
177
     3
291
     1
 70
    58
 90
        2
176
     1
 90
        2
176
     1
 90
        0
176
     1
 90
        0
176
     1
 40
0.6
176
     1
 40
30.0
176
     1
 62
     7
420
 16777215
176
     1
 90
        1
176
     1
 90
        4
176
     1
 62
     7
176
     1
 62
   257
176
     1
 90
        1
176
     1
 90
        1
176
     1
 40
1.0
176
     1
 90
        8
176
     1
 62
     7
176
     1
 40
1.0
176
     1
 90
        1
176
     1
 90
        6
176
     1
 90
        2
176
     1
 62
     7
176
     1
 90
        5
176
     1
 90
        0
176
     1
 90
        0
176
     1
290
     0
176
     1
 90
        1
176
     1
 40
0.0
176
     1
 90
        0
176
     1
290
     0
176
     1
290
     1
176
     1
290
     1
176
     1
290
     0
176
     1
290
     0
176
     1
290
     0
176
     1
290
     0
176
     1
290
     0
176
     1
290
     0
176
     1
 90
       50
176
     1
 40
0.0
176
     1
 40
1.0
176
     1
 90
        0
176
     1
 62
    18
420
        0
176
     1
 90
       50
176
     1
 90
        3
176
     1
 62
     5
420
      255
176
     1
290
     0
176
     1
 90
       50
176
     1
 90
       50
176
     1
 90
       50
176
     1
290
     0
176
     1
 90
       50
176
     1
 62
   256
176
     0
 40
1.0
176
     0
 90
        2
176
     1
  1
strokes_ogs.tif
176
     1
290
     0
176
     1
 40
1.0
176
     1
 40
1.0
176
     1
  0
VISUALSTYLE
  5
2B
102
{ACAD_REACTORS
330
2A
102
}
330
2A
100
AcDbVisualStyle
  2
Flat
 70
     0
177
     3
291
     1
 70
    58
 90
        2
176
     1
 90
        1
176
     1
 90
        1
176
     1
 90
        2
176
     1
 40
0.6
176
     1
 40
30.0
176
     1
 62
     7
420
 16777215
176
     1
 90
        0
176
     1
 90
        0
176
     1
 62
     7
176
     1
 62
   257
176
     1
 90
        1
176
     1
 90
        1
176
     1
 40
1.0
176
     1
 90
        8
176
     1
 62
     7
176
     1
 40
1.0
176
     1
 90
        1
176
     1
 90
        6
176
     1
 90
        2
176
     1
 62
     7
176
     1
 90
        5
176
     1
 90
        0
176
     1
 90
        0
176
     1
290
     0
176
     1
 90
       13
176
     1
 40
0.0
176
     1
 90
        0
176
     1
290
     0
176
     1
290
     1
176
     1
290
     1
176
     1
290
     0
176
     1
290
     0
176
     1
290
     0
176
     1
290
     0
176
     1
290
     0
176
     1
290
     0
176
     1
 90
       50
176
     1
 40
0.0
176
     1
 40
1.0
176
     1
 90
        0
176
     1
 62
    18
420
        0
176
     1
 90
       50
176
     1
 90
        3
176
     1
 62
     5
420
      255
176
     1
290
     0
176
     1
 90
       50
176
     1
 90
       50
176
     1
 90
       50
176
     1
290
     0
176
     1
 90
       50
176
     1
 62
   256
176
     0
 40
1.0
176
     0
 90
        2
176
     1
  1
strokes_ogs.tif
176
     1
290
     0
176
     1
 40
1.0
176
     1
 40
1.0
176
     1
  0
VISUALSTYLE
  5
2C
102
{ACAD_REACTORS
330
2A
102
}
330
2A
100
AcDbVisualStyle
  2
FlatWithEdges
 70
     1
177
     3
291
     1
 70
    58
 90
        2
176
     1
 90
        1
176
     1
 90
        1
176
     1
 90
        2
176
     1
 40
0.6
176
     1
 40
30.0
176
     1
 62
     7
420
 16777215
176
     1
 90
        1
176
     1
 90
        0
176
     1
 62
     7
176
     1
 62
   257
176
     1
 90
        1
176
     1
 90
        1
176
     1
 40
1.0
176
     1
 90
        0
176
     1
 62
   257
176
     1
 40
1.0
176
     1
 90
        1
176
     1
 90
        6
176
     1
 90
        2
176
     1
 62
     7
176
     1
 90
        5
176
     1
 90
        0
176
     1
 90
        0
176
     1
290
     0
176
     1
 90
       13
176
     1
 40
0.0
176
     1
 90
        0
176
     1
290
     0
176
     1
290
     1
176
     1
290
     1
176
     1
290
     0
176
     1
290
     0
176
     1
290
     0
176
     1
290
     0
176
     1
290
     0
176
     1
290
     0
176
     1
 90
       50
176
     1
 40
0.0
176
     1
 40
1.0
176
     1
 90
        0
176
     1
 62
    18
420
        0
176
     1
 90
       50
176
     1
 90
        3
176
     1
 62
     5
420
      255
176
     1
290
     0
176
     1
 90
       50
176
     1
 90
       50
176
     1
 90
       50
176
     1
290
     0
176
     1
 90
       50
176
     1
 62
   256
176
     0
 40
1.0
176
     0
 90
        2
176
     1
  1
strokes_ogs.tif
176
     1
290
     0
176
     1
 40
1.0
176
     1
 40
1.0
176
     1
  0
VISUALSTYLE
  5
2D
102
{ACAD_REACTORS
330
2A
102
}
330
2A
100
AcDbVisualStyle
  2
Gouraud
 70
     2
177
     3
291
     1
 70
    58
 90
        2
176
     1
 90
        2
176
     1
 90
        1
176
     1
 90
        2
176
     1
 40
0.6
176
     1
 40
30.0
176
     1
 62
     7
420
 16777215
176
     1
 90
        0
176
     1
 90
        0
176
     1
 62
     7
176
     1
 62
   257
176
     1
 90
        1
176
     1
 90
        1
176
     1
 40
1.0
176
     1
 90
        0
176
     1
 62
     7
176
     1
 40
1.0
176
     1
 90
        1
176
     1
 90
        6
176
     1
 90
        2
176
     1
 62
     7
176
     1
 90
        5
176
     1
 90
        0
176
     1
 90
        0
176
     1
290
     0
176
     1
 90
       13
176
     1
 40
0.0
176
     1
 90
        0
176
     1
290
     0
176
     1
290
     1
176
     1
290
     1
176
     1
290
     0
176
     1
290
     0
176
     1
290
     0
176
     1
290
     0
176
     1
290
     0
176
     1
290
     0
176
     1
 90
       50
176
     1
 40
0.0
176
     1
 40
1.0
176
     1
 90
        0
176
     1
 62
    18
420
        0
176
     1
 90
       50
176
     1
 90
        3
176
     1
 62
     5
420
      255
176
     1
290
     0
176
     1
 90
       50
176
     1
 90
       50
176
     1
 90
       50
176
     1
290
     0
176
     1
 90
       50
176
     1
 62
   256
176
     0
 40
1.0
176
     0
 90
        2
176
     1
  1
strokes_ogs.tif
176
     1
290
     0
176
     1
 40
1.0
176
     1
 40
1.0
176
     1
  0
VISUALSTYLE
  5
2E
102
{ACAD_REACTORS
330
2A
102
}
330
2A
100
AcDbVisualStyle
  2
GouraudWithEdges
 70
     3
177
     3
291
     1
 70
    58
 90
        2
176
     1
 90
        2
176
     1
 90
        1
176
     1
 90
        2
176
     1
 40
0.6
176
     1
 40
30.0
176
     1
 62
     7
420
 16777215
176
     1
 90
        1
176
     1
 90
        0
176
     1
 62
     7
176
     1
 62
   257
176
     1
 90
        1
176
     1
 90
        1
176
     1
 40
1.0
176
     1
 90
        0
176
     1
 62
   257
176
     1
 40
1.0
176
     1
 90
        1
176
     1
 90
        6
176
     1
 90
        2
176
     1
 62
     7
176
     1
 90
        5
176
     1
 90
        0
176
     1
 90
        0
176
     1
290
     0
176
     1
 90
       13
176
     1
 40
0.0
176
     1
 90
        0
176
     1
290
     0
176
     1
290
     1
176
     1
290
     1
176
     1
290
     0
176
     1
290
     0
176
     1
290
     0
176
     1
290
     0
176
     1
290
     0
176
     1
290
     0
176
     1
 90
       50
176
     1
 40
0.0
176
     1
 40
1.0
176
     1
 90
        0
176
     1
 62
    18
420
        0
176
     1
 90
       50
176
     1
 90
        3
176
     1
 62
     5
420
      255
176
     1
290
     0
176
     1
 90
       50
176
     1
 90
       50
176
     1
 90
       50
176
     1
290
     0
176
     1
 90
       50
176
     1
 62
   256
176
     0
 40
1.0
176
     0
 90
        2
176
     1
  1
strokes_ogs.tif
176
     1
290
     0
176
     1
 40
1.0
176
     1
 40
1.0
176
     1
  0
VISUALSTYLE
  5
31
102
{ACAD_REACTORS
330
2A
102
}
330
2A
100
AcDbVisualStyle
  2
Hidden
 70
     6
177
     3
291
     0
 70
    58
 90
        1
176
     1
 90
        2
176
     1
 90
        2
176
     1
 90
        0
176
     1
 40
0.6
176
     1
 40
30.0
176
     1
 62
     7
420
 16777215
176
     1
 90
        2
176
     1
 90
        2
176
     1
 62
     7
176
     1
 62
   257
176
     1
 90
        2
176
     1
 90
        1
176
     1
 40
40.0
176
     1
 90
        0
176
     1
 62
   257
176
     1
 40
1.0
176
     1
 90
        1
176
     1
 90
        6
176
     1
 90
        2
176
     1
 62
     7
176
     1
 90
        3
176
     1
 90
        0
176
     1
 90
        0
176
     1
290
     0
176
     1
 90
        1
176
     1
 40
0.0
176
     1
 90
        0
176
     1
290
     0
176
     1
290
     1
176
     1
290
     1
176
     1
290
     0
176
     1
290
     0
176
     1
290
     0
176
     1
290
     0
176
     1
290
     0
176
     1
290
     0
176
     1
 90
       50
176
     1
 40
0.0
176
     1
 40
1.0
176
     1
 90
        0
176
     1
 62
    18
420
        0
176
     1
 90
       50
176
     1
 90
        3
176
     1
 62
     5
420
      255
176
     1
290
     0
176
     1
 90
       50
176
     1
 90
       50
176
     1
 90
       50
176
     1
290
     0
176
     1
 90
       50
176
     1
 62
   256
176
     0
 40
1.0
176
     0
 90
        2
176
     1
  1
strokes_ogs.tif
176
     1
290
     0
176
     1
 40
1.0
176
     1
 40
1.0
176
     1
  0
VISUALSTYLE
  5
3B
102
{ACAD_REACTORS
330
2A
102
}
330
2A
100
AcDbVisualStyle
  2
JitterOff
 70
    20
177
     3
291
     1
 70
    58
 90
        2
176
     0
 90
        2
176
     0
 90
        0
176
     0
 90
        0
176
     0
 40
0.6
176
     0
 40
30.0
176
     0
 62
     7
420
 16777215
176
     0
 90
        1
176
     0
 90
        4
176
     0
 62
     7
176
     0
 62
   257
176
     0
 90
        1
176
     0
 90
        1
176
     0
 40
1.0
176
     0
 90
       10
176
     2
 62
     7
176
     0
 40
1.0
176
     0
 90
        1
176
     0
 90
        6
176
     0
 90
        2
176
     0
 62
     7
176
     0
 90
        5
176
     0
 90
        0
176
     0
 90
        0
176
     0
290
     0
176
     0
 90
        1
176
     0
 40
0.0
176
     0
 90
        0
176
     0
290
     0
176
     0
290
     1
176
     0
290
     1
176
     0
290
     0
176
     0
290
     0
176
     0
290
     0
176
     0
290
     0
176
     0
290
     0
176
     0
290
     0
176
     0
 90
       50
176
     0
 40
0.0
176
     0
 40
1.0
176
     0
 90
        0
176
     0
 62
    18
420
        0
176
     0
 90
       50
176
     0
 90
        3
176
     0
 62
     5
420
      255
176
     0
290
     0
176
     0
 90
       50
176
     0
 90
       50
176
     0
 90
       50
176
     0
290
     0
176
     0
 90
       50
176
     0
 62
   256
176
     0
 40
1.0
176
     0
 90
        2
176
     0
  1
strokes_ogs.tif
176
     0
290
     0
176
     0
 40
1.0
176
     0
 40
1.0
176
     0
  0
VISUALSTYLE
  5
38
102
{ACAD_REACTORS
330
2A
102
}
330
2A
100
AcDbVisualStyle
  2
Linepattern
 70
    14
177
     3
291
     1
 70
    58
 90
        2
176
     1
 90
        2
176
     1
 90
        0
176
     1
 90
        0
176
     1
 40
0.6
176
     1
 40
30.0
176
     1
 62
     7
420
 16777215
176
     1
 90
        1
176
     1
 90
        4
176
     1
 62
     7
176
     1
 62
   257
176
     1
 90
        7
176
     1
 90
        7
176
     1
 40
1.0
176
     1
 90
        8
176
     1
 62
     7
176
     1
 40
1.0
176
     1
 90
        1
176
     1
 90
        6
176
     1
 90
        2
176
     1
 62
     7
176
     1
 90
        5
176
     1
 90
        0
176
     1
 90
        0
176
     1
290
     0
176
     1
 90
        1
176
     1
 40
0.0
176
     1
 90
        0
176
     1
290
     0
176
     1
290
     1
176
     1
290
     1
176
     1
290
     0
176
     1
290
     0
176
     1
290
     0
176
     1
290
     0
176
     1
290
     0
176
     1
290
     0
176
     1
 90
       50
176
     1
 40
0.0
176
     1
 40
1.0
176
     1
 90
        0
176
     1
 62
    18
420
        0
176
     1
 90
       50
176
     1
 90
        3
176
     1
 62
     5
420
      255
176
     1
290
     0
176
     1
 90
       50
176
     1
 90
       50
176
     1
 90
       50
176
     1
290
     0
176
     1
 90
       50
176
     1
 62
   256
176
     0
 40
1.0
176
     0
 90
        2
176
     1
  1
strokes_ogs.tif
176
     1
290
     0
176
     1
 40
1.0
176
     1
 40
1.0
176
     1
  0
VISUALSTYLE
  5
3C
102
{ACAD_REACTORS
330
2A
102
}
330
2A
100
AcDbVisualStyle
  2
OverhangOff
 70
    21
177
     3
291
     1
 70
    58
 90
        2
176
     0
 90
        2
176
     0
 90
        0
176
     0
 90
        0
176
     0
 40
0.6
176
     0
 40
30.0
176
     0
 62
     7
420
 16777215
176
     0
 90
        1
176
     0
 90
        4
176
     0
 62
     7
176
     0
 62
   257
176
     0
 90
        1
176
     0
 90
        1
176
     0
 40
1.0
176
     0
 90
        9
176
     2
 62
     7
176
     0
 40
1.0
176
     0
 90
        1
176
     0
 90
        6
176
     0
 90
        2
176
     0
 62
     7
176
     0
 90
        5
176
     0
 90
        0
176
     0
 90
        0
176
     0
290
     0
176
     0
 90
        1
176
     0
 40
0.0
176
     0
 90
        0
176
     0
290
     0
176
     0
290
     1
176
     0
290
     1
176
     0
290
     0
176
     0
290
     0
176
     0
290
     0
176
     0
290
     0
176
     0
290
     0
176
     0
290
     0
176
     0
 90
       50
176
     0
 40
0.0
176
     0
 40
1.0
176
     0
 90
        0
176
     0
 62
    18
420
        0
176
     0
 90
       50
176
     0
 90
        3
176
     0
 62
     5
420
      255
176
     0
290
     0
176
     0
 90
       50
176
     0
 90
       50
176
     0
 90
       50
176
     0
290
     0
176
     0
 90
       50
176
     0
 62
   256
176
     0
 40
1.0
176
     0
 90
        2
176
     0
  1
strokes_ogs.tif
176
     0
290
     0
176
     0
 40
1.0
176
     0
 40
1.0
176
     0
  0
VISUALSTYLE
  5
33
102
{ACAD_REACTORS
330
2A
102
}
330
2A
100
AcDbVisualStyle
  2
Realistic
 70
     8
177
     3
291
     0
 70
    58
 90
        2
176
     1
 90
        3
176
     1
 90
        0
176
     1
 90
        2
176
     1
 40
0.6
176
     1
 40
30.0
176
     1
 62
     7
420
 16777215
176
     1
 90
        0
176
     1
 90
        0
176
     1
 62
     7
176
     1
 62
   257
176
     1
 90
        1
176
     1
 90
        1
176
     1
 40
1.0
176
     1
 90
        8
176
     1
 62
   257
176
     1
 40
1.0
176
     1
 90
        1
176
     1
 90
        6
176
     1
 90
        2
176
     1
 62
     7
176
     1
 90
        3
176
     1
 90
        0
176
     1
 90
        0
176
     1
290
     0
176
     1
 90
       13
176
     1
 40
0.0
176
     1
 90
        0
176
     1
290
     0
176
     1
290
     1
176
     1
290
     1
176
     1
290
     0
176
     1
290
     0
176
     1
290
     0
176
     1
290
     0
176
     1
290
     0
176
     1
290
     0
176
     1
 90
       50
176
     1
 40
0.0
176
     1
 40
1.0
176
     1
 90
        0
176
     1
 62
    18
420
        0
176
     1
 90
       50
176
     1
 90
        3
176
     1
 62
     5
420
      255
176
     1
290
     0
176
     1
 90
       50
176
     1
 90
       50
176
     1
 90
       50
176
     1
290
     0
176
     1
 90
       50
176
     1
 62
   256
176
     0
 40
1.0
176
     0
 90
        2
176
     1
  1
strokes_ogs.tif
176
     1
290
     0
176
     1
 40
1.0
176
     1
 40
1.0
176
     1
  0
VISUALSTYLE
  5
42
102
{ACAD_REACTORS
330
2A
102
}
330
2A
100
AcDbVisualStyle
  2
Shaded
 70
    27
177
     3
291
     0
 70
    58
 90
        2
176
     1
 90
        2
176
     1
 90
        1
176
     1
 90
        2
176
     1
 40
0.6
176
     1
 40
30.0
176
     1
 62
     7
420
 16777215
176
     1
 90
        0
176
     1
 90
        4
176
     1
 62
     7
176
     1
 62
   257
176
     1
 90
        1
176
     1
 90
        1
176
     1
 40
1.0
176
     1
 90
        8
176
     1
 62
   257
176
     1
 40
1.0
176
     1
 90
        1
176
     1
 90
        6
176
     1
 90
        2
176
     1
 62
     8
420
  7895160
176
     1
 90
        3
176
     1
 90
        0
176
     1
 90
        0
176
     1
290
     0
176
     1
 90
        5
176
     1
 40
0.0
176
     1
 90
        0
176
     1
290
     0
176
     1
290
     1
176
     1
290
     1
176
     1
290
     0
176
     1
290
     0
176
     1
290
     0
176
     1
290
     0
176
     1
290
     0
176
     1
290
     0
176
     1
 90
       50
176
     1
 40
0.0
176
     1
 40
1.0
176
     1
 90
        0
176
     1
 62
    18
420
        0
176
     1
 90
       50
176
     1
 90
        3
176
     1
 62
     5
420
      255
176
     1
290
     0
176
     1
 90
       50
176
     1
 90
       50
176
     1
 90
       50
176
     1
290
     0
176
     1
 90
       50
176
     1
 62
   256
176
     0
 40
1.0
176
     0
 90
        2
176
     1
  1
strokes_ogs.tif
176
     1
290
     0
176
     1
 40
1.0
176
     1
 40
1.0
176
     1
  0
VISUALSTYLE
  5
41
102
{ACAD_REACTORS
330
2A
102
}
330
2A
100
AcDbVisualStyle
  2
Shaded with edges
 70
    26
177
     3
291
     0
 70
    58
 90
        2
176
     1
 90
        2
176
     1
 90
        1
176
     1
 90
        2
176
     1
 40
0.6
176
     1
 40
30.0
176
     1
 62
     7
420
 16777215
176
     1
 90
        1
176
     1
 90
       10
176
     1
 62
     7
176
     1
 62
   257
176
     1
 90
        2
176
     1
 90
        1
176
     1
 40
1.0
176
     1
 90
        8
176
     1
 62
   257
176
     1
 40
1.0
176
     1
 90
        1
176
     1
 90
        6
176
     1
 90
        2
176
     1
 62
     7
176
     1
 90
        3
176
     1
 90
        0
176
     1
 90
        0
176
     1
290
     0
176
     1
 90
        5
176
     1
 40
0.0
176
     1
 90
        0
176
     1
290
     0
176
     1
290
     1
176
     1
290
     1
176
     1
290
     0
176
     1
290
     0
176
     1
290
     0
176
     1
290
     0
176
     1
290
     0
176
     1
290
     0
176
     1
 90
       50
176
     1
 40
0.0
176
     1
 40
1.0
176
     1
 90
        0
176
     1
 62
    18
420
        0
176
     1
 90
       50
176
     1
 90
        3
176
     1
 62
     5
420
      255
176
     1
290
     0
176
     1
 90
       50
176
     1
 90
       50
176
     1
 90
       50
176
     1
290
     0
176
     1
 90
       50
176
     1
 62
   256
176
     0
 40
1.0
176
     0
 90
        2
176
     1
  1
strokes_ogs.tif
176
     1
290
     0
176
     1
 40
1.0
176
     1
 40
1.0
176
     1
  0
VISUALSTYLE
  5
3E
102
{ACAD_REACTORS
330
2A
102
}
330
2A
100
AcDbVisualStyle
  2
Shades of Gray
 70
    23
177
     3
291
     0
 70
    58
 90
        2
176
     1
 90
        2
176
     1
 90
        3
176
     1
 90
        0
176
     1
 40
0.6
176
     1
 40
30.0
176
     1
 62
     7
420
 16777215
176
     1
 90
        2
176
     1
 90
        2
176
     1
 62
     7
176
     1
 62
     7
176
     1
 90
        1
176
     1
 90
        1
176
     1
 40
40.0
176
     1
 90
        8
176
     1
 62
     7
176
     1
 40
1.0
176
     1
 90
        1
176
     1
 90
        6
176
     1
 90
        2
176
     1
 62
     7
176
     1
 90
        3
176
     1
 90
        0
176
     1
 90
        0
176
     1
290
     0
176
     1
 90
        1
176
     1
 40
0.0
176
     1
 90
        0
176
     1
290
     0
176
     1
290
     1
176
     1
290
     1
176
     1
290
     0
176
     1
290
     0
176
     1
290
     0
176
     1
290
     0
176
     1
290
     0
176
     1
290
     0
176
     1
 90
       50
176
     1
 40
0.0
176
     1
 40
1.0
176
     1
 90
        0
176
     1
 62
    18
420
        0
176
     1
 90
       50
176
     1
 90
        3
176
     1
 62
     5
420
      255
176
     1
290
     0
176
     1
 90
       50
176
     1
 90
       50
176
     1
 90
       50
176
     1
290
     0
176
     1
 90
       50
176
     1
 62
   256
176
     0
 40
1.0
176
     0
 90
        2
176
     1
  1
strokes_ogs.tif
176
     1
290
     0
176
     1
 40
1.0
176
     1
 40
1.0
176
     1
  0
VISUALSTYLE
  5
3F
102
{ACAD_REACTORS
330
2A
102
}
330
2A
100
AcDbVisualStyle
  2
Sketchy
 70
    24
177
     3
291
     0
 70
    58
 90
        1
176
     1
 90
        2
176
     1
 90
        2
176
     1
 90
        0
176
     1
 40
0.6
176
     1
 40
30.0
176
     1
 62
     7
420
 16777215
176
     1
 90
        2
176
     1
 90
        2
176
     1
 62
     7
176
     1
 62
     7
176
     1
 90
        1
176
     1
 90
        1
176
     1
 40
40.0
176
     1
 90
       11
176
     1
 62
     7
176
     1
 40
1.0
176
     1
 90
        1
176
     1
 90
        6
176
     1
 90
        2
176
     1
 62
     7
176
     1
 90
        6
176
     1
 90
        0
176
     1
 90
        0
176
     1
290
     0
176
     1
 90
        1
176
     1
 40
0.0
176
     1
 90
        0
176
     1
290
     0
176
     1
290
     1
176
     1
290
     1
176
     1
290
     0
176
     1
290
     0
176
     1
290
     0
176
     1
290
     0
176
     1
290
     0
176
     1
290
     0
176
     1
 90
       50
176
     1
 40
0.0
176
     1
 40
1.0
176
     1
 90
        0
176
     1
 62
    18
420
        0
176
     1
 90
       50
176
     1
 90
        3
176
     1
 62
     5
420
      255
176
     1
290
     0
176
     1
 90
       50
176
     1
 90
       50
176
     1
 90
       50
176
     1
290
     0
176
     1
 90
       50
176
     1
 62
   256
176
     0
 40
1.0
176
     0
 90
        2
176
     1
  1
strokes_ogs.tif
176
     1
290
     0
176
     1
 40
1.0
176
     1
 40
1.0
176
     1
  0
VISUALSTYLE
  5
37
102
{ACAD_REACTORS
330
2A
102
}
330
2A
100
AcDbVisualStyle
  2
Thicken
 70
    13
177
     3
291
     1
 70
    58
 90
        2
176
     1
 90
        2
176
     1
 90
        0
176
     1
 90
        0
176
     1
 40
0.6
176
     1
 40
30.0
176
     1
 62
     7
420
 16777215
176
     1
 90
        1
176
     1
 90
        4
176
     1
 62
     7
176
     1
 62
   257
176
     1
 90
        1
176
     1
 90
        1
176
     1
 40
1.0
176
     1
 90
       12
176
     1
 62
     7
176
     1
 40
1.0
176
     1
 90
        1
176
     1
 90
        6
176
     1
 90
        2
176
     1
 62
     7
176
     1
 90
        5
176
     1
 90
        0
176
     1
 90
        0
176
     1
290
     0
176
     1
 90
        1
176
     1
 40
0.0
176
     1
 90
        0
176
     1
290
     0
176
     1
290
     1
176
     1
290
     1
176
     1
290
     0
176
     1
290
     0
176
     1
290
     0
176
     1
290
     0
176
     1
290
     0
176
     1
290
     0
176
     1
 90
       50
176
     1
 40
0.0
176
     1
 40
1.0
176
     1
 90
        0
176
     1
 62
    18
420
        0
176
     1
 90
       50
176
     1
 90
        3
176
     1
 62
     5
420
      255
176
     1
290
     0
176
     1
 90
       50
176
     1
 90
       50
176
     1
 90
       50
176
     1
290
     0
176
     1
 90
       50
176
     1
 62
   256
176
     0
 40
1.0
176
     0
 90
        2
176
     1
  1
strokes_ogs.tif
176
     1
290
     0
176
     1
 40
1.0
176
     1
 40
1.0
176
     1
  0
VISUALSTYLE
  5
30
102
{ACAD_REACTORS
330
2A
102
}
330
2A
100
AcDbVisualStyle
  2
Wireframe
 70
     5
177
     3
291
     0
 70
    58
 90
        0
176
     1
 90
        2
176
     1
 90
        0
176
     1
 90
        0
176
     1
 40
0.6
176
     1
 40
30.0
176
     1
 62
     7
420
 16777215
176
     1
 90
        1
176
     1
 90
        4
176
     1
 62
     7
176
     1
 62
   257
176
     1
 90
        1
176
     1
 90
        1
176
     1
 40
1.0
176
     1
 90
        0
176
     1
 62
   257
176
     1
 40
1.0
176
     1
 90
        1
176
     1
 90
        6
176
     1
 90
        2
176
     1
 62
     7
176
     1
 90
        3
176
     1
 90
        0
176
     1
 90
        0
176
     1
290
     0
176
     1
 90
        1
176
     1
 40
0.0
176
     1
 90
        0
176
     1
290
     0
176
     1
290
     1
176
     1
290
     1
176
     1
290
     0
176
     1
290
     0
176
     1
290
     0
176
     1
290
     0
176
     1
290
     0
176
     1
290
     0
176
     1
 90
       50
176
     1
 40
0.0
176
     1
 40
1.0
176
     1
 90
        0
176
     1
 62
    18
420
        0
176
     1
 90
       50
176
     1
 90
        3
176
     1
 62
     5
420
      255
176
     1
290
     0
176
     1
 90
       50
176
     1
 90
       50
176
     1
 90
       50
176
     1
290
     0
176
     1
 90
       50
176
     1
 62
   256
176
     0
 40
1.0
176
     0
 90
        2
176
     1
  1
strokes_ogs.tif
176
     1
290
     0
176
     1
 40
1.0
176
     1
 40
1.0
176
     1
  0
VISUALSTYLE
  5
40
102
{ACAD_REACTORS
330
2A
102
}
330
2A
100
AcDbVisualStyle
  2
X-Ray
 70
    25
177
     3
291
     0
 70
    58
 90
        2
176
     1
 90
        2
176
     1
 90
        1
176
     1
 90
        1
176
     1
 40
0.5
176
     1
 40
30.0
176
     1
 62
     7
420
 16777215
176
     1
 90
        1
176
     1
 90
        0
176
     1
 62
     7
176
     1
 62
   257
176
     1
 90
        1
176
     1
 90
        1
176
     1
 40
1.0
176
     1
 90
        8
176
     1
 62
     7
176
     1
 40
1.0
176
     1
 90
        1
176
     1
 90
        6
176
     1
 90
        2
176
     1
 62
     7
176
     1
 90
        3
176
     1
 90
        0
176
     1
 90
        0
176
     1
290
     0
176
     1
 90
       13
176
     1
 40
0.0
176
     1
 90
        0
176
     1
290
     0
176
     1
290
     1
176
     1
290
     1
176
     1
290
     0
176
     1
290
     0
176
     1
290
     0
176
     1
290
     0
176
     1
290
     0
176
     1
290
     0
176
     1
 90
       50
176
     1
 40
0.0
176
     1
 40
1.0
176
     1
 90
        0
176
     1
 62
    18
420
        0
176
     1
 90
       50
176
     1
 90
        3
176
     1
 62
     5
420
      255
176
     1
290
     0
176
     1
 90
       50
176
     1
 90
       50
176
     1
 90
       50
176
     1
290
     0
176
     1
 90
       50
176
     1
 62
   256
176
     0
 40
1.0
176
     0
 90
        2
176
     1
  1
strokes_ogs.tif
176
     1
290
     0
176
     1
 40
1.0
176
     1
 40
1.0
176
     1
  0
DICTIONARYVAR
  5
7D
102
{ACAD_REACTORS
330
7C
102
}
330
7C
100
DictionaryVariables
280
     0
  1
1:1
  0
DICTIONARYVAR
  5
82
102
{ACAD_REACTORS
330
7C
102
}
330
7C
100
DictionaryVariables
280
     0
  1
Standard
  0
DICTIONARYVAR
  5
81
102
{ACAD_REACTORS
330
7C
102
}
330
7C
100
DictionaryVariables
280
     0
  1
Standard
  0
DICTIONARY
  5
7E
330
5A
100
AcDbDictionary
280
     1
281
     1
  3
ACAD_ROUNDTRIP_2008_TABLESTYLE_CELLSTYLEMAP
360
7F
  0
CELLSTYLEMAP
  5
7F
102
{ACAD_REACTORS
330
7E
102
}
330
7E
100
AcDbCellStyleMap
 90
        3
300
CELLSTYLE
  1
TABLEFORMAT_BEGIN
 90
        5
170
     1
 91
        0
 92
    32768
 62
   257
 93
        1
300
CONTENTFORMAT
  1
CONTENTFORMAT_BEGIN
 90
        0
 91
        0
 92
        4
 93
        0
300

 40
0.0
140
1.0
 94
        5
 62
     0
340
11
144
0.25
309
CONTENTFORMAT_END
171
     1
301
MARGIN
  1
CELLMARGIN_BEGIN
 40
0.06
 40
0.06
 40
0.06
 40
0.06
 40
0.06
 40
0.06
309
CELLMARGIN_END
 94
        6
 95
        1
302
GRIDFORMAT
  1
GRIDFORMAT_BEGIN
 90
        0
 91
        1
 62
     0
 92
       -2
340
14
 93
        0
 40
0.045
309
GRIDFORMAT_END
 95
        2
302
GRIDFORMAT
  1
GRIDFORMAT_BEGIN
 90
        0
 91
        1
 62
     0
 92
       -2
340
14
 93
        0
 40
0.045
309
GRIDFORMAT_END
 95
        4
302
GRIDFORMAT
  1
GRIDFORMAT_BEGIN
 90
        0
 91
        1
 62
     0
 92
       -2
340
14
 93
        0
 40
0.045
309
GRIDFORMAT_END
 95
        8
302
GRIDFORMAT
  1
GRIDFORMAT_BEGIN
 90
        0
 91
        1
 62
     0
 92
       -2
340
14
 93
        0
 40
0.045
309
GRIDFORMAT_END
 95
       16
302
GRIDFORMAT
  1
GRIDFORMAT_BEGIN
 90
        0
 91
        1
 62
     0
 92
       -2
340
14
 93
        0
 40
0.045
309
GRIDFORMAT_END
 95
       32
302
GRIDFORMAT
  1
GRIDFORMAT_BEGIN
 90
        0
 91
        1
 62
     0
 92
       -2
340
14
 93
        0
 40
0.045
309
GRIDFORMAT_END
309
TABLEFORMAT_END
  1
CELLSTYLE_BEGIN
 90
        1
 91
        1
300
_TITLE
309
CELLSTYLE_END
300
CELLSTYLE
  1
TABLEFORMAT_BEGIN
 90
        5
170
     1
 91
        0
 92
        0
 62
   257
 93
        1
300
CONTENTFORMAT
  1
CONTENTFORMAT_BEGIN
 90
        0
 91
        0
 92
        4
 93
        0
300

 40
0.0
140
1.0
 94
        5
 62
     0
340
11
144
0.18
309
CONTENTFORMAT_END
171
     1
301
MARGIN
  1
CELLMARGIN_BEGIN
 40
0.06
 40
0.06
 40
0.06
 40
0.06
 40
0.06
 40
0.06
309
CELLMARGIN_END
 94
        6
 95
        1
302
GRIDFORMAT
  1
GRIDFORMAT_BEGIN
 90
        0
 91
        1
 62
     0
 92
       -2
340
14
 93
        0
 40
0.045
309
GRIDFORMAT_END
 95
        2
302
GRIDFORMAT
  1
GRIDFORMAT_BEGIN
 90
        0
 91
        1
 62
     0
 92
       -2
340
14
 93
        0
 40
0.045
309
GRIDFORMAT_END
 95
        4
302
GRIDFORMAT
  1
GRIDFORMAT_BEGIN
 90
        0
 91
        1
 62
     0
 92
       -2
340
14
 93
        0
 40
0.045
309
GRIDFORMAT_END
 95
        8
302
GRIDFORMAT
  1
GRIDFORMAT_BEGIN
 90
        0
 91
        1
 62
     0
 92
       -2
340
14
 93
        0
 40
0.045
309
GRIDFORMAT_END
 95
       16
302
GRIDFORMAT
  1
GRIDFORMAT_BEGIN
 90
        0
 91
        1
 62
     0
 92
       -2
340
14
 93
        0
 40
0.045
309
GRIDFORMAT_END
 95
       32
302
GRIDFORMAT
  1
GRIDFORMAT_BEGIN
 90
        0
 91
        1
 62
     0
 92
       -2
340
14
 93
        0
 40
0.045
309
GRIDFORMAT_END
309
TABLEFORMAT_END
  1
CELLSTYLE_BEGIN
 90
        2
 91
        1
300
_HEADER
309
CELLSTYLE_END
300
CELLSTYLE
  1
TABLEFORMAT_BEGIN
 90
        5
170
     1
 91
        0
 92
        0
 62
   257
 93
        1
300
CONTENTFORMAT
  1
CONTENTFORMAT_BEGIN
 90
        0
 91
        0
 92
        4
 93
        0
300

 40
0.0
140
1.0
 94
        2
 62
     0
340
11
144
0.18
309
CONTENTFORMAT_END
171
     1
301
MARGIN
  1
CELLMARGIN_BEGIN
 40
0.06
 40
0.06
 40
0.06
 40
0.06
 40
0.06
 40
0.06
309
CELLMARGIN_END
 94
        6
 95
        1
302
GRIDFORMAT
  1
GRIDFORMAT_BEGIN
 90
        0
 91
        1
 62
     0
 92
       -2
340
14
 93
        0
 40
0.045
309
GRIDFORMAT_END
 95
        2
302
GRIDFORMAT
  1
GRIDFORMAT_BEGIN
 90
        0
 91
        1
 62
     0
 92
       -2
340
14
 93
        0
 40
0.045
309
GRIDFORMAT_END
 95
        4
302
GRIDFORMAT
  1
GRIDFORMAT_BEGIN
 90
        0
 91
        1
 62
     0
 92
       -2
340
14
 93
        0
 40
0.045
309
GRIDFORMAT_END
 95
        8
302
GRIDFORMAT
  1
GRIDFORMAT_BEGIN
 90
        0
 91
        1
 62
     0
 92
       -2
340
14
 93
        0
 40
0.045
309
GRIDFORMAT_END
 95
       16
302
GRIDFORMAT
  1
GRIDFORMAT_BEGIN
 90
        0
 91
        1
 62
     0
 92
       -2
340
14
 93
        0
 40
0.045
309
GRIDFORMAT_END
 95
       32
302
GRIDFORMAT
  1
GRIDFORMAT_BEGIN
 90
        0
 91
        1
 62
     0
 92
       -2
340
14
 93
        0
 40
0.045
309
GRIDFORMAT_END
309
TABLEFORMAT_END
  1
CELLSTYLE_BEGIN
 90
        3
 91
        2
300
_DATA
309
CELLSTYLE_END
  0
ENDSEC
  0
EOF
