  0
SECTION
  2
HEADER
  9
$ACADVER
  1
AC1027
  9
$ACADMAINTVER
 70
   105
  9
$DWGCODEPAGE
  3
ANSI_1252
  9
$LASTSAVEDBY
  1
Office Desk
  9
$REQUIREDVERSIONS
160
                 0
  9
$INSBASE
 10
0.0
 20
0.0
 30
0.0
  9
$EXTMIN
 10
-12.69150393700787
 20
1.209196850393701
 30
0.0
  9
$EXTMAX
 10
-5.280220472440945
 20
7.77905905511811
 30
0.0
  9
$LIMMIN
 10
0.0
 20
0.0
  9
$LIMMAX
 10
12.0
 20
9.0
  9
$ORTHOMODE
 70
     0
  9
$REGENMODE
 70
     1
  9
$FILLMODE
 70
     1
  9
$QTEXTMODE
 70
     0
  9
$MIRRTEXT
 70
     1
  9
$LTSCALE
 40
1.0
  9
$ATTMODE
 70
     1
  9
$TEXTSIZE
 40
0.2
  9
$TRACEWID
 40
0.05
  9
$TEXTSTYLE
  7
Standard
  9
$CLAYER
  8
0
  9
$CELTYPE
  6
ByLayer
  9
$CECOLOR
 62
   256
  9
$CELTSCALE
 40
1.0
  9
$DISPSILH
 70
     0
  9
$DIMSCALE
 40
1.0
  9
$DIMASZ
 40
0.18
  9
$DIMEXO
 40
0.0625
  9
$DIMDLI
 40
0.38
  9
$DIMRND
 40
0.0
  9
$DIMDLE
 40
0.0
  9
$DIMEXE
 40
0.18
  9
$DIMTP
 40
0.0
  9
$DIMTM
 40
0.0
  9
$DIMTXT
 40
0.18
  9
$DIMCEN
 40
0.09
  9
$DIMTSZ
 40
0.0
  9
$DIMTOL
 70
     0
  9
$DIMLIM
 70
     0
  9
$DIMTIH
 70
     1
  9
$DIMTOH
 70
     1
  9
$DIMSE1
 70
     0
  9
$DIMSE2
 70
     0
  9
$DIMTAD
 70
     0
  9
$DIMZIN
 70
     0
  9
$DIMBLK
  1

  9
$DIMASO
 70
     1
  9
$DIMSHO
 70
     1
  9
$DIMPOST
  1

  9
$DIMAPOST
  1

  9
$DIMALT
 70
     0
  9
$DIMALTD
 70
     2
  9
$DIMALTF
 40
25.4
  9
$DIMLFAC
 40
1.0
  9
$DIMTOFL
 70
     0
  9
$DIMTVP
 40
0.0
  9
$DIMTIX
 70
     0
  9
$DIMSOXD
 70
     0
  9
$DIMSAH
 70
     0
  9
$DIMBLK1
  1

  9
$DIMBLK2
  1

  9
$DIMSTYLE
  2
Standard
  9
$DIMCLRD
 70
     0
  9
$DIMCLRE
 70
     0
  9
$DIMCLRT
 70
     0
  9
$DIMTFAC
 40
1.0
  9
$DIMGAP
 40
0.09
  9
$DIMJUST
 70
     0
  9
$DIMSD1
 70
     0
  9
$DIMSD2
 70
     0
  9
$DIMTOLJ
 70
     1
  9
$DIMTZIN
 70
     0
  9
$DIMALTZ
 70
     0
  9
$DIMALTTZ
 70
     0
  9
$DIMUPT
 70
     0
  9
$DIMDEC
 70
     4
  9
$DIMTDEC
 70
     4
  9
$DIMALTU
 70
     2
  9
$DIMALTTD
 70
     2
  9
$DIMTXSTY
  7
Standard
  9
$DIMAUNIT
 70
     0
  9
$DIMADEC
 70
     0
  9
$DIMALTRND
 40
0.0
  9
$DIMAZIN
 70
     0
  9
$DIMDSEP
 70
    46
  9
$DIMATFIT
 70
     3
  9
$DIMFRAC
 70
     0
  9
$DIMLDRBLK
  1

  9
$DIMLUNIT
 70
     2
  9
$DIMLWD
 70
    -2
  9
$DIMLWE
 70
    -2
  9
$DIMTMOVE
 70
     0
  9
$DIMFXL
 40
1.0
  9
$DIMFXLON
 70
     0
  9
$DIMJOGANG
 40
0.7853981633974483
  9
$DIMTFILL
 70
     0
  9
$DIMTFILLCLR
 70
     0
  9
$DIMARCSYM
 70
     0
  9
$DIMLTYPE
  6

  9
$DIMLTEX1
  6

  9
$DIMLTEX2
  6

  9
$DIMTXTDIRECTION
 70
     0
  9
$LUNITS
 70
     2
  9
$LUPREC
 70
     4
  9
$SKETCHINC
 40
0.1
  9
$FILLETRAD
 40
0.0
  9
$AUNITS
 70
     0
  9
$AUPREC
 70
     0
  9
$MENU
  1
.
  9
$ELEVATION
 40
0.0
  9
$PELEVATION
 40
0.0
  9
$THICKNESS
 40
0.0
  9
$LIMCHECK
 70
     0
  9
$CHAMFERA
 40
0.0
  9
$CHAMFERB
 40
0.0
  9
$CHAMFERC
 40
0.0
  9
$CHAMFERD
 40
0.0
  9
$SKPOLY
 70
     0
  9
$TDCREATE
 40
2461020.695153438
  9
$TDUCREATE
 40
2461020.465986771
  9
$TDUPDATE
 40
2461020.6951536
  9
$TDUUPDATE
 40
2461020.465986933
  9
$TDINDWG
 40
0.0000000116
  9
$TDUSRTIMER
 40
0.0000000116
  9
$USRTIMER
 70
     1
  9
$ANGBASE
 50
0.0
  9
$ANGDIR
 70
     0
  9
$PDMODE
 70
     0
  9
$PDSIZE
 40
0.0
  9
$PLINEWID
 40
0.0
  9
$SPLFRAME
 70
     0
  9
$SPLINETYPE
 70
     6
  9
$SPLINESEGS
 70
     8
  9
$HANDSEED
  5
8F
  9
$SURFTAB1
 70
     6
  9
$SURFTAB2
 70
     6
  9
$SURFTYPE
 70
     6
  9
$SURFU
 70
     6
  9
$SURFV
 70
     6
  9
$UCSBASE
  2

  9
$UCSNAME
  2

  9
$UCSORG
 10
0.0
 20
0.0
 30
0.0
  9
$UCSXDIR
 10
1.0
 20
0.0
 30
0.0
  9
$UCSYDIR
 10
0.0
 20
1.0
 30
0.0
  9
$UCSORTHOREF
  2

  9
$UCSORTHOVIEW
 70
     0
  9
$UCSORGTOP
 10
0.0
 20
0.0
 30
0.0
  9
$UCSORGBOTTOM
 10
0.0
 20
0.0
 30
0.0
  9
$UCSORGLEFT
 10
0.0
 20
0.0
 30
0.0
  9
$UCSORGRIGHT
 10
0.0
 20
0.0
 30
0.0
  9
$UCSORGFRONT
 10
0.0
 20
0.0
 30
0.0
  9
$UCSORGBACK
 10
0.0
 20
0.0
 30
0.0
  9
$PUCSBASE
  2

  9
$PUCSNAME
  2

  9
$PUCSORG
 10
0.0
 20
0.0
 30
0.0
  9
$PUCSXDIR
 10
1.0
 20
0.0
 30
0.0
  9
$PUCSYDIR
 10
0.0
 20
1.0
 30
0.0
  9
$PUCSORTHOREF
  2

  9
$PUCSORTHOVIEW
 70
     0
  9
$PUCSORGTOP
 10
0.0
 20
0.0
 30
0.0
  9
$PUCSORGBOTTOM
 10
0.0
 20
0.0
 30
0.0
  9
$PUCSORGLEFT
 10
0.0
 20
0.0
 30
0.0
  9
$PUCSORGRIGHT
 10
0.0
 20
0.0
 30
0.0
  9
$PUCSORGFRONT
 10
0.0
 20
0.0
 30
0.0
  9
$PUCSORGBACK
 10
0.0
 20
0.0
 30
0.0
  9
$USERI1
 70
     0
  9
$USERI2
 70
     0
  9
$USERI3
 70
     0
  9
$USERI4
 70
     0
  9
$USERI5
 70
     0
  9
$USERR1
 40
0.0
  9
$USERR2
 40
0.0
  9
$USERR3
 40
0.0
  9
$USERR4
 40
0.0
  9
$USERR5
 40
0.0
  9
$WORLDVIEW
 70
     1
  9
$SHADEDGE
 70
     3
  9
$SHADEDIF
 70
    70
  9
$TILEMODE
 70
     1
  9
$MAXACTVP
 70
    64
  9
$PINSBASE
 10
0.0
 20
0.0
 30
0.0
  9
$PLIMCHECK
 70
     0
  9
$PEXTMIN
 10
1.000000000000000E+20
 20
1.000000000000000E+20
 30
1.000000000000000E+20
  9
$PEXTMAX
 10
-1.000000000000000E+20
 20
-1.000000000000000E+20
 30
-1.000000000000000E+20
  9
$PLIMMIN
 10
0.0
 20
0.0
  9
$PLIMMAX
 10
12.0
 20
9.0
  9
$UNITMODE
 70
     0
  9
$VISRETAIN
 70
     1
  9
$PLINEGEN
 70
     0
  9
$PSLTSCALE
 70
     1
  9
$TREEDEPTH
 70
  3020
  9
$CMLSTYLE
  2
Standard
  9
$CMLJUST
 70
     0
  9
$CMLSCALE
 40
1.0
  9
$PROXYGRAPHICS
 70
     1
  9
$MEASUREMENT
 70
     0
  9
$CELWEIGHT
370
    -1
  9
$ENDCAPS
280
     0
  9
$JOINSTYLE
280
     0
  9
$LWDISPLAY
290
     0
  9
$INSUNITS
 70
     1
  9
$HYPERLINKBASE
  1

  9
$STYLESHEET
  1

  9
$XEDIT
290
     1
  9
$CEPSNTYPE
380
     0
  9
$PSTYLEMODE
290
     1
  9
$FINGERPRINTGUID
  2
{d5367420-651a-420a-9bc4-19e0f409011f}
  9
$VERSIONGUID
  2
{FAEB1C32-E019-11D5-929B-00C0DF256EC4}
  9
$EXTNAMES
290
     1
  9
$PSVPSCALE
 40
0.0
  9
$OLESTARTUP
290
     0
  9
$SORTENTS
280
   127
  9
$INDEXCTL
280
     0
  9
$HIDETEXT
280
     1
  9
$XCLIPFRAME
280
     2
  9
$HALOGAP
280
     0
  9
$OBSCOLOR
 70
   257
  9
$OBSLTYPE
280
     0
  9
$INTERSECTIONDISPLAY
280
     0
  9
$INTERSECTIONCOLOR
 70
   257
  9
$DIMASSOC
280
     2
  9
$PROJECTNAME
  1

  9
$CAMERADISPLAY
290
     0
  9
$LENSLENGTH
 40
50.0
  9
$CAMERAHEIGHT
 40
0.0
  9
$STEPSPERSEC
 40
2.0
  9
$STEPSIZE
 40
6.0
  9
$3DDWFPREC
 40
2.0
  9
$PSOLWIDTH
 40
0.25
  9
$PSOLHEIGHT
 40
4.0
  9
$LOFTANG1
 40
1.570796326794897
  9
$LOFTANG2
 40
1.570796326794897
  9
$LOFTMAG1
 40
0.0
  9
$LOFTMAG2
 40
0.0
  9
$LOFTPARAM
 70
     7
  9
$LOFTNORMALS
280
     1
  9
$LATITUDE
 40
37.795
  9
$LONGITUDE
 40
-122.394
  9
$NORTHDIRECTION
 40
0.0
  9
$TIMEZONE
 70
 -8000
  9
$LIGHTGLYPHDISPLAY
280
     1
  9
$TILEMODELIGHTSYNCH
280
     1
  9
$CMATERIAL
347
44
  9
$SOLIDHIST
280
     0
  9
$SHOWHIST
280
     1
  9
$DWFFRAME
280
     2
  9
$DGNFRAME
280
     2
  9
$REALWORLDSCALE
290
     1
  9
$INTERFERECOLOR
 62
   256
  9
$CSHADOW
280
     0
  9
$SHADOWPLANELOCATION
 40
0.0
  0
ENDSEC
  0
SECTION
  2
CLASSES
  0
CLASS
  1
ACDBDICTIONARYWDFLT
  2
AcDbDictionaryWithDefault
  3
ObjectDBX Classes
 90
        0
 91
        3
280
     0
281
     0
  0
CLASS
  1
VISUALSTYLE
  2
AcDbVisualStyle
  3
ObjectDBX Classes
 90
     4095
 91
        3
280
     0
281
     0
  0
CLASS
  1
MATERIAL
  2
AcDbMaterial
  3
ObjectDBX Classes
 90
     1153
 91
        3
280
     0
281
     0
  0
CLASS
  1
SCALE
  2
AcDbScale
  3
ObjectDBX Classes
 90
     1153
 91
        3
280
     0
281
     0
  0
CLASS
  1
TABLESTYLE
  2
AcDbTableStyle
  3
ObjectDBX Classes
 90
     4095
 91
        3
280
     0
281
     0
  0
CLASS
  1
MLEADERSTYLE
  2
AcDbMLeaderStyle
  3
ACDB_MLEADERSTYLE_CLASS
 90
     4095
 91
        3
280
     0
281
     0
  0
CLASS
  1
SUN
  2
AcDbSun
  3
SCENEOE
 90
     1153
 91
        3
280
     0
281
     0
  0
CLASS
  1
DICTIONARYVAR
  2
AcDbDictionaryVar
  3
ObjectDBX Classes
 90
        0
 91
        3
280
     0
281
     0
  0
CLASS
  1
CELLSTYLEMAP
  2
AcDbCellStyleMap
  3
ObjectDBX Classes
 90
     1152
 91
        3
280
     0
281
     0
  0
ENDSEC
  0
SECTION
  2
TABLES
  0
TABLE
  2
VPORT
  5
8
330
0
100
AcDbSymbolTable
 70
     1
  0
VPORT
  5
29
330
8
100
AcDbSymbolTableRecord
100
AcDbViewportTableRecord
  2
*Active
 70
     0
 10
0.0
 20
0.0
 11
1.0
 21
1.0
 12
10.42990654205607
 22
4.5
 13
0.0
 23
0.0
 14
0.5
 24
0.5
 15
0.5
 25
0.5
 16
0.0
 26
0.0
 36
1.0
 17
0.0
 27
0.0
 37
0.0
 40
9.0
 41
1.972972972850329
 42
50.0
 43
0.0
 44
0.0
 50
0.0
 51
0.0
 71
     0
 72
   100
 73
     1
 74
     3
 75
     0
 76
     0
 77
     0
 78
     0
281
     0
 65
     1
110
0.0
120
0.0
130
0.0
111
1.0
121
0.0
131
0.0
112
0.0
122
1.0
132
0.0
 79
     0
146
0.0
348
2F
 60
     3
 61
     5
292
     1
282
     1
141
0.0
142
0.0
 63
   250
361
5D
  0
ENDTAB
  0
TABLE
  2
LTYPE
  5
5
330
0
100
AcDbSymbolTable
 70
     1
  0
LTYPE
  5
14
330
5
100
AcDbSymbolTableRecord
100
AcDbLinetypeTableRecord
  2
ByBlock
 70
     0
  3

 72
    65
 73
     0
 40
0.0
  0
LTYPE
  5
15
330
5
100
AcDbSymbolTableRecord
100
AcDbLinetypeTableRecord
  2
ByLayer
 70
     0
  3

 72
    65
 73
     0
 40
0.0
  0
LTYPE
  5
16
330
5
100
AcDbSymbolTableRecord
100
AcDbLinetypeTableRecord
  2
Continuous
 70
     0
  3
Solid line
 72
    65
 73
     0
 40
0.0
  0
ENDTAB
  0
TABLE
  2
LAYER
  5
2
330
0
100
AcDbSymbolTable
 70
     2
  0
LAYER
  5
10
330
2
100
AcDbSymbolTableRecord
100
AcDbLayerTableRecord
  2
0
 70
     0
 62
     7
  6
Continuous
370
    -3
390
F
347
46
348
0
  0
LAYER
  5
5F
330
2
100
AcDbSymbolTableRecord
100
AcDbLayerTableRecord
  2
Layer 1
 70
     0
 62
     7
  6
Continuous
370
    -3
390
F
347
46
348
0
  0
ENDTAB
  0
TABLE
  2
STYLE
  5
3
330
0
100
AcDbSymbolTable
 70
     1
  0
STYLE
  5
11
330
3
100
AcDbSymbolTableRecord
100
AcDbTextStyleTableRecord
  2
Standard
 70
     0
 40
0.0
 41
1.0
 50
0.0
 71
     0
 42
0.2
  3
txt
  4

  0
ENDTAB
  0
TABLE
  2
VIEW
  5
6
330
0
100
AcDbSymbolTable
 70
     0
  0
ENDTAB
  0
TABLE
  2
UCS
  5
7
330
0
100
AcDbSymbolTable
 70
     0
  0
ENDTAB
  0
TABLE
  2
APPID
  5
9
330
0
100
AcDbSymbolTable
 70
     2
  0
APPID
  5
12
330
9
100
AcDbSymbolTableRecord
100
AcDbRegAppTableRecord
  2
ACAD
 70
     0
  0
APPID
  5
5E
330
9
100
AcDbSymbolTableRecord
100
AcDbRegAppTableRecord
  2
ODA
 70
     0
  0
ENDTAB
  0
TABLE
  2
DIMSTYLE
  5
A
330
0
100
AcDbSymbolTable
 70
     1
100
AcDbDimStyleTable
  0
DIMSTYLE
105
27
330
A
100
AcDbSymbolTableRecord
100
AcDbDimStyleTableRecord
  2
Standard
 70
     0
178
     0
340
11
  0
ENDTAB
  0
TABLE
  2
BLOCK_RECORD
  5
1
330
0
100
AcDbSymbolTable
 70
     1
  0
BLOCK_RECORD
  5
1F
330
1
100
AcDbSymbolTableRecord
100
AcDbBlockTableRecord
  2
*Model_Space
340
22
 70
     0
280
     1
281
     0
  0
BLOCK_RECORD
  5
1B
330
1
100
AcDbSymbolTableRecord
100
AcDbBlockTableRecord
  2
*Paper_Space
340
1E
 70
     0
280
     1
281
     0
  0
BLOCK_RECORD
  5
23
330
1
100
AcDbSymbolTableRecord
100
AcDbBlockTableRecord
  2
*Paper_Space0
340
26
 70
     0
280
     1
281
     0
  0
ENDTAB
  0
ENDSEC
  0
SECTION
  2
BLOCKS
  0
BLOCK
  5
20
330
1F
100
AcDbEntity
  8
0
100
AcDbBlockBegin
  2
*Model_Space
 70
     0
 10
0.0
 20
0.0
 30
0.0
  3
*Model_Space
  1

  0
ENDBLK
  5
21
330
1F
100
AcDbEntity
  8
0
100
AcDbBlockEnd
  0
BLOCK
  5
1C
330
1B
100
AcDbEntity
 67
     1
  8
0
100
AcDbBlockBegin
  2
*Paper_Space
 70
     0
 10
0.0
 20
0.0
 30
0.0
  3
*Paper_Space
  1

  0
ENDBLK
  5
1D
330
1B
100
AcDbEntity
 67
     1
  8
0
100
AcDbBlockEnd
  0
BLOCK
  5
24
330
23
100
AcDbEntity
  8
0
100
AcDbBlockBegin
  2
*Paper_Space0
 70
     0
 10
0.0
 20
0.0
 30
0.0
  3
*Paper_Space0
  1

  0
ENDBLK
  5
25
330
23
100
AcDbEntity
  8
0
100
AcDbBlockEnd
  0
ENDSEC
  0
SECTION
  2
ENTITIES
  0
LWPOLYLINE
  5
60
330
1F
100
AcDbEntity
  8
Layer 1
 62
   250
370
     9
100
AcDbPolyline
 90
        5
 70
     1
 43
0.0
 10
-12.69000393700787
 20
1.210700787401575
 10
-5.281720472440945
 20
1.210700787401575
 10
-5.281720472440945
 20
7.77755905511811
 10
-12.69000393700787
 20
7.77755905511811
 10
-12.69000393700787
 20
1.210700787401575
  0
LWPOLYLINE
  5
61
330
1F
100
AcDbEntity
  8
Layer 1
 62
     7
370
    50
100
AcDbPolyline
 90
        2
 70
     0
 43
0.0
 10
-7.686338582677165
 20
5.731673228346457
 10
-7.685637795275591
 20
5.570901574803149
  0
LWPOLYLINE
  5
62
330
1F
100
AcDbEntity
  8
Layer 1
 62
     7
370
    50
100
AcDbPolyline
 90
       38
 70
     0
 43
0.0
 10
-8.018015748031496
 20
5.707803149606299
 10
-7.971031496062992
 20
5.718334645669291
 10
-7.968425196850394
 20
5.718586614173228
 10
-7.961740157480315
 20
5.718775590551181
 10
-7.957405511811023
 20
5.718574803149607
 10
-7.952688976377953
 20
5.71803937007874
 10
-7.947811023622047
 20
5.71705905511811
 10
-7.942984251968504
 20
5.715527559055118
 10
-7.737527559055118
 20
5.622854330708662
 10
-7.734338582677165
 20
5.621232283464566
 10
-7.727271653543307
 20
5.616185039370079
 10
-7.723452755905512
 20
5.612299212598425
 10
-7.720070866141732
 20
5.607456692913386
 10
-7.717594488188976
 20
5.601625984251968
 10
-7.716488188976378
 20
5.594775590551181
 10
-7.715118110236221
 20
5.587877952755906
 10
-7.711712598425197
 20
5.581984251968504
 10
-7.706531496062992
 20
5.577177165354331
 10
-7.699838582677165
 20
5.573535433070866
 10
-7.691893700787402
 20
5.571145669291338
 10
-7.682964566929134
 20
5.570090551181102
 10
-7.673311023622047
 20
5.570448818897638
 10
-7.6631968503937
 20
5.572307086614173
 10
-7.231251968503937
 20
5.689551181102362
 10
-7.226397637795276
 20
5.690547244094488
 10
-7.215562992125984
 20
5.693850393700788
 10
-7.209649606299212
 20
5.696507874015748
 10
-7.204334645669292
 20
5.699913385826772
 10
-7.200314960629921
 20
5.704125984251968
 10
-7.198295275590551
 20
5.709204724409449
 10
-7.197330708661418
 20
5.720196850393701
 10
-7.196094488188977
 20
5.739996062992126
 10
-7.194708661417323
 20
5.76544094488189
 10
-7.193299212598426
 20
5.793362204724409
 10
-7.191988188976378
 20
5.820594488188976
 10
-7.190897637795276
 20
5.843964566929134
 10
-7.190153543307087
 20
5.860311023622047
 10
-7.189877952755905
 20
5.866464566929134
  0
LWPOLYLINE
  5
63
330
1F
100
AcDbEntity
  8
Layer 1
 62
     7
370
    50
100
AcDbPolyline
 90
      137
 70
     1
 43
0.0
 10
-8.384035433070865
 20
5.873291338582677
 10
-9.154948818897639
 20
5.697830708661417
 10
-9.300547244094489
 20
5.761295275590551
 10
-9.289346456692913
 20
6.601275590551182
 10
-8.2123031496063
 20
6.802870078740158
 10
-8.093370078740158
 20
6.743952755905512
 10
-8.09248031496063
 20
6.743527559055118
 10
-8.09011811023622
 20
6.742074803149606
 10
-8.086767716535434
 20
6.739350393700787
 10
-8.082897637795275
 20
6.735094488188976
 10
-8.07898031496063
 20
6.729051181102363
 10
-8.075496062992126
 20
6.720972440944882
 10
-8.072913385826771
 20
6.71059842519685
 10
-8.071704724409448
 20
6.697677165354331
 10
-8.071944881889763
 20
6.668
 10
-8.07317716535433
 20
6.613452755905512
 10
-8.075082677165355
 20
6.542917322834645
 10
-8.077350393700787
 20
6.465279527559055
 10
-8.079661417322834
 20
6.389429133858267
 10
-8.081700787401575
 20
6.324248031496063
 10
-8.083157480314961
 20
6.278622047244094
 10
-8.083712598425198
 20
6.26144094488189
 10
-7.215712598425196
 20
5.892129921259842
 10
-6.165259842519685
 20
6.148007874015748
 10
-6.161287401574803
 20
6.149
 10
-6.149944881889764
 20
6.151338582677165
 10
-6.13207874015748
 20
6.15407874015748
 10
-6.108547244094488
 20
6.156263779527559
 10
-6.080200787401575
 20
6.156948818897638
 10
-6.047897637795276
 20
6.15517716535433
 10
-6.012488188976378
 20
6.150003937007874
 10
-5.97482283464567
 20
6.140472440944882
 10
-5.76946062992126
 20
6.075397637795276
 10
-5.765586614173229
 20
6.073291338582677
 10
-5.755255905511811
 20
6.066850393700787
 10
-5.740397637795276
 20
6.05590157480315
 10
-5.722944881889764
 20
6.040267716535433
 10
-5.704830708661417
 20
6.019767716535433
 10
-5.687988188976378
 20
5.994228346456693
 10
-5.674342519685039
 20
5.963472440944882
 10
-5.665834645669292
 20
5.927322834645669
 10
-5.661618110236221
 20
5.884649606299212
 10
-5.659287401574804
 20
5.836692913385827
 10
-5.658437007874015
 20
5.786834645669291
 10
-5.658657480314961
 20
5.738456692913386
 10
-5.659535433070866
 20
5.694944881889763
 10
-5.660673228346456
 20
5.659677165354331
 10
-5.661653543307087
 20
5.636035433070866
 10
-5.662070866141732
 20
5.62740157480315
 10
-5.721452755905512
 20
4.498137795275591
 10
-5.791850393700788
 20
3.629236220472441
 10
-5.792523622047244
 20
3.619807086614173
 10
-5.794425196850394
 20
3.594566929133858
 10
-5.79736220472441
 20
3.558074803149606
 10
-5.801161417322835
 20
3.514893700787402
 10
-5.805629921259842
 20
3.469586614173228
 10
-5.810586614173229
 20
3.426720472440945
 10
-5.815846456692913
 20
3.390850393700787
 10
-5.821224409448819
 20
3.366547244094488
 10
-5.82809842519685
 20
3.345944881889764
 10
-5.837874015748032
 20
3.319330708661417
 10
-5.850409448818898
 20
3.288484251968504
 10
-5.865566929133858
 20
3.255181102362205
 10
-5.883196850393701
 20
3.221208661417323
 10
-5.903161417322835
 20
3.188342519685039
 10
-5.925318897637795
 20
3.158362204724409
 10
-5.949531496062992
 20
3.133051181102362
 10
-5.980688976377952
 20
3.110035433070866
 10
-6.021031496062992
 20
3.086496062992126
 10
-6.066456692913386
 20
3.06353937007874
 10
-6.11284251968504
 20
3.042275590551181
 10
-6.156082677165355
 20
3.023811023622047
 10
-6.19205905511811
 20
3.009251968503937
 10
-6.216661417322834
 20
2.999704724409449
 10
-6.225775590551181
 20
2.996275590551181
 10
-7.488055118110236
 20
2.515606299212598
 10
-9.300094488188977
 20
1.827653543307087
 10
-9.307673228346456
 20
1.824472440944882
 10
-9.328590551181103
 20
1.816511811023622
 10
-9.360106299212598
 20
1.806141732283465
 10
-9.399488188976378
 20
1.795728346456693
 10
-9.443996062992126
 20
1.787641732283465
 10
-9.490897637795275
 20
1.784255905511811
 10
-9.537456692913386
 20
1.787937007874016
 10
-9.580933070866141
 20
1.801055118110236
 10
-9.587976377952756
 20
1.806338582677165
 10
-9.606925196850394
 20
1.820688976377953
 10
-9.634515748031497
 20
1.841877952755905
 10
-9.66748031496063
 20
1.867661417322835
 10
-9.702543307086614
 20
1.895803149606299
 10
-9.736444881889764
 20
1.924062992125984
 10
-9.76591338582677
 20
1.950208661417323
 10
-9.787681102362205
 20
1.972
 10
-9.803625984251969
 20
1.990933070866142
 10
-9.817838582677165
 20
2.010263779527559
 10
-9.83038188976378
 20
2.030393700787402
 10
-9.841303149606299
 20
2.051716535433071
 10
-9.850669291338583
 20
2.074633858267716
 10
-9.858523622047244
 20
2.09953937007874
 10
-9.864933070866142
 20
2.126838582677165
 10
-9.869944881889763
 20
2.156925196850394
 10
-9.873633858267716
 20
2.23492125984252
 10
-9.876173228346456
 20
2.388094488188977
 10
-9.877759842519685
 20
2.590070866141732
 10
-9.8786062992126
 20
2.814472440944882
 10
-9.878905511811023
 20
3.03492125984252
 10
-9.878870078740157
 20
3.225043307086614
 10
-9.878700787401575
 20
3.358456692913386
 10
-9.87859842519685
 20
3.408791338582677
 10
-9.860818897637795
 20
4.716716535433071
 10
-9.860968503937007
 20
4.727295275590551
 10
-9.860874015748031
 20
4.756248031496063
 10
-9.85972440944882
 20
4.79940157480315
 10
-9.856720472440944
 20
4.852582677165354
 10
-9.851043307086615
 20
4.911614173228346
 10
-9.841885826771653
 20
4.972322834645669
 10
-9.828444881889764
 20
5.030531496062992
 10
-9.809909448818898
 20
5.082070866141732
 10
-9.787759842519685
 20
5.126283464566929
 10
-9.76359842519685
 20
5.165586614173228
 10
-9.736787401574803
 20
5.200425196850394
 10
-9.706700787401575
 20
5.231228346456693
 10
-9.672700787401574
 20
5.258440944881889
 10
-9.634157480314961
 20
5.282496062992126
 10
-9.590437007874016
 20
5.303830708661417
 10
-9.540905511811024
 20
5.322885826771653
 10
-9.461464566929134
 20
5.346944881889764
 10
-9.339370078740158
 20
5.380413385826771
 10
-9.191031496062992
 20
5.41940157480315
 10
-9.032866141732283
 20
5.460015748031496
 10
-8.881283464566929
 20
5.498377952755906
 10
-8.752688976377954
 20
5.530590551181103
 10
-8.6635
 20
5.552771653543307
 10
-8.630122047244095
 20
5.561027559055118
 10
-8.021897637795275
 20
5.704551181102362
 10
-8.379657480314961
 20
5.876893700787401
 10
-8.384035433070865
 20
5.873291338582677
  0
LWPOLYLINE
  5
64
330
1F
100
AcDbEntity
  8
Layer 1
 62
     7
370
    50
100
AcDbPolyline
 90
        3
 70
     0
 43
0.0
 10
-9.15413779527559
 20
5.709775590551181
 10
-9.15798031496063
 20
6.52838188976378
 10
-8.096590551181102
 20
6.743598425196851
  0
LWPOLYLINE
  5
65
330
1F
100
AcDbEntity
  8
Layer 1
 62
     7
370
    50
100
AcDbPolyline
 90
        2
 70
     0
 43
0.0
 10
-9.280814960629922
 20
6.591795275590552
 10
-9.15413779527559
 20
6.52838188976378
  0
LWPOLYLINE
  5
66
330
1F
100
AcDbEntity
  8
Layer 1
 62
     7
370
    50
100
AcDbPolyline
 90
        5
 70
     0
 43
0.0
 10
-8.394086614173228
 20
5.882720472440945
 10
-8.841287401574803
 20
6.090255905511811
 10
-8.845125984251968
 20
6.259358267716536
 10
-8.365295275590551
 20
6.374653543307087
 10
-8.035173228346457
 20
6.240141732283464
  0
LWPOLYLINE
  5
67
330
1F
100
AcDbEntity
  8
Layer 1
 62
     7
370
    50
100
AcDbPolyline
 90
        4
 70
     0
 43
0.0
 10
-8.827850393700787
 20
6.249748031496063
 10
-7.678177165354331
 20
5.734759842519685
 10
-7.191952755905512
 20
5.873393700787402
 10
-7.222066929133859
 20
5.895169291338583
  0
LWPOLYLINE
  5
68
330
1F
100
AcDbEntity
  8
Layer 1
 62
     7
370
    50
100
AcDbPolyline
 90
       10
 70
     0
 43
0.0
 10
-7.191452755905511
 20
5.757192913385826
 10
-5.978244094488189
 20
6.049704724409449
 10
-5.971472440944882
 20
6.051185039370079
 10
-5.952909448818898
 20
6.054850393700788
 10
-5.925188976377953
 20
6.059551181102362
 10
-5.890948818897638
 20
6.064125984251969
 10
-5.852814960629921
 20
6.067425196850394
 10
-5.81342125984252
 20
6.068291338582677
 10
-5.77540157480315
 20
6.065566929133858
 10
-5.741389763779527
 20
6.058102362204725
  0
LWPOLYLINE
  5
69
330
1F
100
AcDbEntity
  8
Layer 1
 62
     7
370
    50
100
AcDbPolyline
 90
       43
 70
     0
 43
0.0
 10
-9.598515748031495
 20
1.827322834645669
 10
-9.600795275590551
 20
1.829649606299213
 10
-9.606850393700787
 20
1.837133858267717
 10
-9.615515748031497
 20
1.850535433070866
 10
-9.625625984251968
 20
1.870606299212598
 10
-9.636011811023621
 20
1.898106299212598
 10
-9.6455
 20
1.933791338582677
 10
-9.652933070866142
 20
1.978413385826772
 10
-9.657133858267716
 20
2.032736220472441
 10
-9.658625984251968
 20
2.111141732283464
 10
-9.658917322834645
 20
2.219259842519685
 10
-9.658314960629921
 20
2.344708661417323
 10
-9.657133858267716
 20
2.475110236220472
 10
-9.655673228346457
 20
2.598082677165354
 10
-9.654248031496063
 20
2.701248031496063
 10
-9.653165354330708
 20
2.772224409448819
 10
-9.652736220472441
 20
2.798633858267717
 10
-9.641665354330708
 20
4.179275590551181
 10
-9.635728346456693
 20
4.640409448818898
 10
-9.635161417322834
 20
4.64946062992126
 10
-9.633429133858268
 20
4.674035433070866
 10
-9.630488188976377
 20
4.710251968503937
 10
-9.626291338582677
 20
4.754240157480315
 10
-9.6208031496063
 20
4.802122047244095
 10
-9.613968503937008
 20
4.85001968503937
 10
-9.605755905511812
 20
4.894066929133858
 10
-9.596110236220472
 20
4.930377952755905
 10
-9.583437007874016
 20
4.963452755905512
 10
-9.565838582677165
 20
4.99940157480315
 10
-9.542834645669291
 20
5.036771653543307
 10
-9.513956692913386
 20
5.074114173228346
 10
-9.47871653543307
 20
5.109968503937008
 10
-9.43663779527559
 20
5.142889763779528
 10
-9.387240157480315
 20
5.171425196850394
 10
-9.330051181102363
 20
5.194114173228346
 10
-9.21459842519685
 20
5.226814960629921
 10
-9.011838582677166
 20
5.281023622047244
 10
-8.75342125984252
 20
5.348767716535433
 10
-8.471011811023622
 20
5.42207874015748
 10
-8.196251968503937
 20
5.492976377952756
 10
-7.960807086614174
 20
5.553488188976378
 10
-7.796326771653543
 20
5.595645669291339
 10
-7.734464566929134
 20
5.611468503937008
  0
LWPOLYLINE
  5
6A
330
1F
100
AcDbEntity
  8
Layer 1
 62
     7
370
    50
100
AcDbPolyline
 90
       81
 70
     1
 43
0.0
 10
-9.522267716535433
 20
4.906578740157481
 10
-9.521354330708661
 20
4.912531496062992
 10
-9.517594488188976
 20
4.928570866141732
 10
-9.509464566929134
 20
4.95196062992126
 10
-9.495444881889764
 20
4.979964566929134
 10
-9.474003937007874
 20
5.009850393700788
 10
-9.44361811023622
 20
5.038885826771653
 10
-9.402771653543308
 20
5.064334645669291
 10
-9.349929133858268
 20
5.083464566929134
 10
-8.173885826771654
 20
5.381889763779528
 10
-5.973712598425196
 20
5.948448818897638
 10
-5.829814960629921
 20
5.982885826771653
 10
-5.825779527559055
 20
5.983165354330708
 10
-5.815031496062992
 20
5.982870078740158
 10
-5.799629921259842
 20
5.980307086614173
 10
-5.781614173228347
 20
5.973787401574803
 10
-5.76303937007874
 20
5.961618110236221
 10
-5.745956692913386
 20
5.942102362204724
 10
-5.732409448818897
 20
5.913551181102362
 10
-5.724452755905512
 20
5.874267716535433
 10
-5.725633858267717
 20
5.839952755905512
 10
-5.72890157480315
 20
5.747031496062992
 10
-5.733858267716536
 20
5.61053937007874
 10
-5.740098425196851
 20
5.445511811023622
 10
-5.747212598425197
 20
5.266976377952756
 10
-5.754799212598425
 20
5.089972440944882
 10
-5.762452755905512
 20
4.929535433070866
 10
-5.769771653543307
 20
4.800692913385827
 10
-5.854326771653543
 20
3.736543307086614
 10
-5.855602362204724
 20
3.720468503937008
 10
-5.859035433070866
 20
3.677716535433071
 10
-5.86405905511811
 20
3.616515748031496
 10
-5.870086614173228
 20
3.54507874015748
 10
-5.876543307086614
 20
3.471625984251968
 10
-5.882846456692914
 20
3.404377952755905
 10
-5.888429133858268
 20
3.351551181102362
 10
-5.892700787401575
 20
3.321370078740157
 10
-5.898051181102362
 20
3.303271653543307
 10
-5.907062992125984
 20
3.282051181102362
 10
-5.91946062992126
 20
3.258964566929134
 10
-5.93496062992126
 20
3.235271653543307
 10
-5.953287401574803
 20
3.212216535433071
 10
-5.974161417322835
 20
3.191062992125984
 10
-5.997307086614173
 20
3.17305905511811
 10
-6.02244094488189
 20
3.15946062992126
 10
-6.030665354330709
 20
3.15646062992126
 10
-6.052964566929134
 20
3.148299212598425
 10
-6.085783464566929
 20
3.136228346456693
 10
-6.12555905511811
 20
3.121496062992126
 10
-6.168736220472441
 20
3.105362204724409
 10
-6.211751968503937
 20
3.089074803149606
 10
-6.251055118110236
 20
3.073889763779527
 10
-6.283082677165354
 20
3.06105905511811
 10
-6.366452755905512
 20
3.028740157480315
 10
-6.541114173228347
 20
2.962177165354331
 10
-6.775503937007874
 20
2.873255905511811
 10
-7.038059055118111
 20
2.773854330708661
 10
-7.297212598425197
 20
2.675854330708662
 10
-7.52140157480315
 20
2.591145669291338
 10
-7.679062992125984
 20
2.531606299212598
 10
-7.738629921259842
 20
2.509118110236221
 10
-9.350259842519685
 20
1.890468503937008
 10
-9.354177165354331
 20
1.888393700787402
 10
-9.36525590551181
 20
1.883303149606299
 10
-9.382503937007874
 20
1.876897637795276
 10
-9.404925196850394
 20
1.870877952755905
 10
-9.431515748031496
 20
1.86694094488189
 10
-9.461283464566929
 20
1.866795275590551
 10
-9.49322440944882
 20
1.872133858267716
 10
-9.526346456692913
 20
1.884661417322835
 10
-9.528090551181103
 20
1.885724409448819
 10
-9.532665354330708
 20
1.889527559055118
 10
-9.539102362204725
 20
1.897007874015748
 10
-9.546425196850393
 20
1.909090551181102
 10
-9.553653543307087
 20
1.926704724409449
 10
-9.559818897637795
 20
1.950783464566929
 10
-9.56394094488189
 20
1.982255905511811
 10
-9.565047244094488
 20
2.022047244094488
 10
-9.542641732283464
 20
4.206814960629921
 10
-9.5325
 20
4.849291338582677
 10
-9.522267716535433
 20
4.906578740157481
  0
LWPOLYLINE
  5
6B
330
1F
100
AcDbEntity
  8
Layer 1
 62
     7
370
    50
100
AcDbPolyline
 90
       22
 70
     0
 43
0.0
 10
-5.974944881889764
 20
5.942401574803149
 10
-5.989429133858268
 20
5.507964566929134
 10
-6.116228346456693
 20
3.557728346456693
 10
-6.116433070866142
 20
3.553326771653543
 10
-6.117133858267716
 20
3.541291338582677
 10
-6.118448818897638
 20
3.523366141732283
 10
-6.120496062992126
 20
3.501291338582677
 10
-6.123405511811024
 20
3.476818897637795
 10
-6.127287401574804
 20
3.451685039370079
 10
-6.132271653543307
 20
3.427645669291338
 10
-6.138476377952756
 20
3.406437007874016
 10
-6.146736220472441
 20
3.386893700787402
 10
-6.157779527559055
 20
3.367062992125984
 10
-6.171562992125985
 20
3.347507874015748
 10
-6.188043307086614
 20
3.328799212598425
 10
-6.207181102362204
 20
3.311507874015748
 10
-6.228929133858268
 20
3.296200787401575
 10
-6.253248031496063
 20
3.28344094488189
 10
-6.280094488188976
 20
3.273803149606299
 10
-6.908692913385827
 20
3.042374015748031
 10
-8.628543307086614
 20
2.403736220472441
 10
-9.563047244094488
 20
2.060240157480315
  0
LWPOLYLINE
  5
6C
330
1F
100
AcDbEntity
  8
Layer 1
 62
     7
370
    18
100
AcDbPolyline
 90
        4
 70
     1
 43
0.0
 10
-10.4614094488189
 20
6.609866141732283
 10
-10.4761968503937
 20
6.636732283464567
 10
-10.49096850393701
 20
6.60986220472441
 10
-10.4614094488189
 20
6.609866141732283
  0
LWPOLYLINE
  5
6D
330
1F
100
AcDbEntity
  8
Layer 1
 62
     7
370
    18
100
AcDbPolyline
 90
        4
 70
     1
 43
0.0
 10
-10.46037007874016
 20
1.72190157480315
 10
-10.47514566929134
 20
1.695031496062992
 10
-10.48992913385827
 20
1.721897637795275
 10
-10.46037007874016
 20
1.72190157480315
  0
LWPOLYLINE
  5
6E
330
1F
100
AcDbEntity
  8
Layer 1
 62
     7
370
    18
100
AcDbPolyline
 90
        2
 70
     0
 43
0.0
 10
-10.47777559055118
 20
6.645688976377953
 10
-10.47672047244095
 20
1.68607874015748
  0
LWPOLYLINE
  5
6F
330
1F
100
AcDbEntity
  8
Layer 1
 62
     7
370
     9
100
AcDbPolyline
 90
        7
 70
     1
 43
0.0
 10
-12.40657874015748
 20
3.680318897637795
 10
-12.37225984251969
 20
3.680318897637795
 10
-12.37225984251969
 20
4.017893700787401
 10
-12.45459448818898
 20
4.009043307086614
 10
-12.45459448818898
 20
3.979122047244095
 10
-12.40657874015748
 20
3.979122047244095
 10
-12.40657874015748
 20
3.680318897637795
  0
LWPOLYLINE
  5
70
330
1F
100
AcDbEntity
  8
Layer 1
 62
     7
370
     9
100
AcDbPolyline
 90
      132
 70
     1
 43
0.0
 10
-12.2506811023622
 20
3.890314960629921
 10
-12.22811811023622
 20
3.979625984251968
 10
-12.10752755905512
 20
3.979625984251968
 10
-12.10752755905512
 20
4.01398031496063
 10
-12.25411023622047
 20
4.01398031496063
 10
-12.29232677165354
 20
3.864326771653543
 10
-12.25509842519685
 20
3.847633858267717
 10
-12.24969291338583
 20
3.851314960629921
 10
-12.24401968503937
 20
3.854503937007874
 10
-12.23808267716535
 20
3.857200787401575
 10
-12.23187401574803
 20
3.859409448818897
 10
-12.2253937007874
 20
3.861129921259843
 10
-12.21864960629921
 20
3.862358267716536
 10
-12.21163385826772
 20
3.863094488188976
 10
-12.20435039370079
 20
3.863338582677165
 10
-12.19702362204724
 20
3.86298031496063
 10
-12.18994094488189
 20
3.861897637795276
 10
-12.1831062992126
 20
3.86009842519685
 10
-12.17651968503937
 20
3.857574803149606
 10
-12.17017716535433
 20
3.854330708661417
 10
-12.16407874015748
 20
3.850370078740157
 10
-12.15822834645669
 20
3.845681102362205
 10
-12.15261811023622
 20
3.840275590551181
 10
-12.14733858267716
 20
3.834248031496063
 10
-12.14275984251969
 20
3.827996062992126
 10
-12.13888976377953
 20
3.821523622047244
 10
-12.13572047244094
 20
3.814826771653543
 10
-12.13325590551181
 20
3.807905511811024
 10
-12.13149606299213
 20
3.800763779527559
 10
-12.13044094488189
 20
3.79340157480315
 10
-12.1300905511811
 20
3.785818897637795
 10
-12.13044881889764
 20
3.777968503937008
 10
-12.13152755905512
 20
3.770433070866142
 10
-12.13332677165354
 20
3.763212598425197
 10
-12.13584251968504
 20
3.756311023622047
 10
-12.13907874015748
 20
3.749720472440945
 10
-12.14303543307087
 20
3.743448818897638
 10
-12.14770866141732
 20
3.737492125984252
 10
-12.1531062992126
 20
3.731850393700787
 10
-12.15870866141732
 20
3.726964566929134
 10
-12.16470078740157
 20
3.722590551181102
 10
-12.1710905511811
 20
3.718740157480315
 10
-12.17787401574803
 20
3.715409448818898
 10
-12.18146850393701
 20
3.713972440944882
 10
-12.18525984251968
 20
3.712724409448819
 10
-12.18925196850394
 20
3.711673228346457
 10
-12.19344094488189
 20
3.710814960629921
 10
-12.19783070866142
 20
3.710145669291339
 10
-12.20241732283464
 20
3.709669291338582
 10
-12.20720866141732
 20
3.70938188976378
 10
-12.2121968503937
 20
3.709287401574803
 10
-12.21727559055118
 20
3.709503937007874
 10
-12.22234645669291
 20
3.710145669291339
 10
-12.22741338582677
 20
3.711216535433071
 10
-12.23247244094488
 20
3.712720472440945
 10
-12.23752362204724
 20
3.714645669291339
 10
-12.24256692913386
 20
3.717003937007874
 10
-12.2476062992126
 20
3.719787401574803
 10
-12.25263779527559
 20
3.723
 10
-12.25747637795276
 20
3.726570866141732
 10
-12.26194488188976
 20
3.730397637795276
 10
-12.26605118110236
 20
3.734484251968504
 10
-12.2697874015748
 20
3.738834645669291
 10
-12.27315748031496
 20
3.74344094488189
 10
-12.27615748031496
 20
3.748307086614173
 10
-12.27879133858268
 20
3.753437007874016
 10
-12.28105511811024
 20
3.758826771653543
 10
-12.31440551181102
 20
3.74801968503937
 10
-12.31112992125984
 20
3.739944881889764
 10
-12.30731102362205
 20
3.732275590551181
 10
-12.30294881889764
 20
3.725015748031496
 10
-12.29803937007874
 20
3.718161417322835
 10
-12.2925905511811
 20
3.711712598425197
 10
-12.28659842519685
 20
3.705669291338582
 10
-12.28006692913386
 20
3.700035433070866
 10
-12.27299212598425
 20
3.694803149606299
 10
-12.26545669291339
 20
3.690027559055118
 10
-12.25775196850394
 20
3.685889763779528
 10
-12.24988188976378
 20
3.682385826771653
 10
-12.24184251968504
 20
3.679523622047244
 10
-12.23363779527559
 20
3.677295275590551
 10
-12.22526377952756
 20
3.675704724409449
 10
-12.21672440944882
 20
3.674751968503937
 10
-12.2080157480315
 20
3.674433070866142
 10
-12.19641338582677
 20
3.674956692913386
 10
-12.18525590551181
 20
3.676531496062992
 10
-12.17454330708661
 20
3.679157480314961
 10
-12.16427165354331
 20
3.682834645669292
 10
-12.15444094488189
 20
3.68755905511811
 10
-12.14505905511811
 20
3.693334645669291
 10
-12.1361220472441
 20
3.700157480314961
 10
-12.12763385826772
 20
3.708031496062992
 10
-12.11992913385827
 20
3.716586614173228
 10
-12.11325590551181
 20
3.725562992125984
 10
-12.1076062992126
 20
3.734956692913386
 10
-12.10298818897638
 20
3.744775590551181
 10
-12.09939763779528
 20
3.755011811023622
 10
-12.09683464566929
 20
3.765669291338583
 10
-12.09529527559055
 20
3.776751968503937
 10
-12.09478346456693
 20
3.788259842519685
 10
-12.0952874015748
 20
3.799708661417323
 10
-12.09680708661417
 20
3.810669291338583
 10
-12.09933464566929
 20
3.821149606299213
 10
-12.10287401574803
 20
3.831141732283465
 10
-12.10742519685039
 20
3.840649606299213
 10
-12.11298818897638
 20
3.849677165354331
 10
-12.11956299212599
 20
3.858220472440945
 10
-12.12714960629921
 20
3.866283464566929
 10
-12.13102362204724
 20
3.869862204724409
 10
-12.13504724409449
 20
3.873251968503937
 10
-12.13922834645669
 20
3.876452755905512
 10
-12.14355905511811
 20
3.87946062992126
 10
-12.14804724409449
 20
3.882275590551181
 10
-12.15268503937008
 20
3.88490157480315
 10
-12.15747637795276
 20
3.887334645669291
 10
-12.16242125984252
 20
3.88957874015748
 10
-12.16747244094488
 20
3.89159842519685
 10
-12.17256692913386
 20
3.89334251968504
 10
-12.17770078740157
 20
3.894818897637795
 10
-12.18288188976378
 20
3.896023622047244
 10
-12.1881062992126
 20
3.896956692913386
 10
-12.19337007874016
 20
3.897625984251968
 10
-12.19867716535433
 20
3.898023622047244
 10
-12.20402755905512
 20
3.898157480314961
 10
-12.20946850393701
 20
3.898035433070866
 10
-12.21501968503937
 20
3.897665354330709
 10
-12.22068503937008
 20
3.897055118110236
 10
-12.22646062992126
 20
3.896196850393701
 10
-12.23234645669291
 20
3.895090551181102
 10
-12.23834645669291
 20
3.893744094488189
 10
-12.24445669291339
 20
3.892153543307086
 10
-12.2506811023622
 20
3.890314960629921
  0
LWPOLYLINE
  5
71
330
1F
100
AcDbEntity
  8
Layer 1
 62
     7
370
     9
100
AcDbPolyline
 90
       84
 70
     1
 43
0.0
 10
-11.90479921259842
 20
3.975212598425197
 10
-11.89914566929134
 20
3.971358267716536
 10
-11.89387401574803
 20
3.966984251968504
 10
-11.8889842519685
 20
3.962094488188976
 10
-11.88447244094488
 20
3.956681102362205
 10
-11.88034251968504
 20
3.950748031496063
 10
-11.87659448818898
 20
3.944295275590551
 10
-11.87322834645669
 20
3.937318897637795
 10
-11.87024409448819
 20
3.929818897637795
 10
-11.86691338582677
 20
3.919870078740157
 10
-11.86402755905512
 20
3.909779527559055
 10
-11.86158661417323
 20
3.89953937007874
 10
-11.8595905511811
 20
3.889153543307087
 10
-11.85803937007874
 20
3.878625984251968
 10
-11.85693307086614
 20
3.867948818897638
 10
-11.85626771653543
 20
3.857125984251968
 10
-11.85604724409449
 20
3.846161417322834
 10
-11.85751968503937
 20
3.821877952755905
 10
-11.8592125984252
 20
3.808685039370079
 10
-11.86142913385827
 20
3.796224409448819
 10
-11.86416929133858
 20
3.784488188976378
 10
-11.86742519685039
 20
3.773484251968504
 10
-11.87120866141732
 20
3.763208661417323
 10
-11.87551181102362
 20
3.753657480314961
 10
-11.88033464566929
 20
3.744838582677165
 10
-11.8856811023622
 20
3.736748031496063
 10
-11.89056299212598
 20
3.730657480314961
 10
-11.89570866141732
 20
3.725377952755906
 10
-11.90111023622047
 20
3.720909448818898
 10
-11.90677559055118
 20
3.717248031496063
 10
-11.9126968503937
 20
3.71440157480315
 10
-11.91887795275591
 20
3.712370078740157
 10
-11.92531496062992
 20
3.711145669291338
 10
-11.93201181102362
 20
3.710740157480315
 10
-11.93949212598425
 20
3.711141732283465
 10
-11.94661417322835
 20
3.712350393700787
 10
-11.95337795275591
 20
3.714362204724409
 10
-11.95978346456693
 20
3.717177165354331
 10
-11.96582283464567
 20
3.720799212598425
 10
-11.97150787401575
 20
3.725228346456693
 10
-11.97682677165354
 20
3.73046062992126
 10
-11.9817874015748
 20
3.736496062992126
 10
-11.98588582677165
 20
3.742452755905512
 10
-11.98962204724409
 20
3.748767716535433
 10
-11.99299606299213
 20
3.755448818897638
 10
-11.99600393700787
 20
3.762503937007874
 10
-11.99865354330709
 20
3.769787401574803
 10
-12.00096456692913
 20
3.777161417322835
 10
-12.00293700787402
 20
3.784633858267716
 10
-12.00456692913386
 20
3.792208661417323
 10
-12.00873228346457
 20
3.821625984251968
 10
-12.00995275590551
 20
3.854417322834646
 10
-12.00961811023622
 20
3.864232283464567
 10
-12.00861417322835
 20
3.87515748031496
 10
-12.00692913385827
 20
3.887200787401575
 10
-12.00456692913386
 20
3.900366141732283
 10
-12.00295275590551
 20
3.907846456692913
 10
-12.00102362204724
 20
3.915291338582677
 10
-11.9987874015748
 20
3.922700787401575
 10
-11.99625590551181
 20
3.930070866141732
 10
-11.99335039370079
 20
3.937240157480315
 10
-11.99005118110236
 20
3.944051181102362
 10
-11.98635826771654
 20
3.950492125984252
 10
-11.98227165354331
 20
3.956562992125984
 10
-11.97776377952756
 20
3.962153543307087
 10
-11.97282677165354
 20
3.967169291338583
 10
-11.96746850393701
 20
3.97159842519685
 10
-11.96168503937008
 20
3.975444881889764
 10
-11.95861023622047
 20
3.977110236220473
 10
-11.95539763779528
 20
3.978555118110236
 10
-11.95205118110236
 20
3.979775590551181
 10
-11.94856692913386
 20
3.980775590551181
 10
-11.94494488188976
 20
3.981551181102362
 10
-11.94118503937008
 20
3.982106299212599
 10
-11.9372874015748
 20
3.98244094488189
 10
-11.93325196850394
 20
3.982551181102362
 10
-11.92920866141732
 20
3.982437007874016
 10
-11.92530708661417
 20
3.982094488188976
 10
-11.92154330708661
 20
3.98151968503937
 10
-11.91792125984252
 20
3.980720472440945
 10
-11.91443700787402
 20
3.979685039370079
 10
-11.91108661417323
 20
3.978425196850394
 10
-11.90787401574803
 20
3.976933070866142
 10
-11.90479921259842
 20
3.975212598425197
  0
LWPOLYLINE
  5
72
330
1F
100
AcDbEntity
  8
Layer 1
 62
     7
370
     9
100
AcDbPolyline
 90
       65
 70
     1
 43
0.0
 10
-11.93152755905512
 20
3.675905511811024
 10
-11.91722047244095
 20
3.676814960629921
 10
-11.90382283464567
 20
3.67953937007874
 10
-11.89133464566929
 20
3.684082677165355
 10
-11.87975590551181
 20
3.69044094488189
 10
-11.8690905511811
 20
3.69861811023622
 10
-11.85933858267717
 20
3.708614173228347
 10
-11.85049606299213
 20
3.720425196850394
 10
-11.84256692913386
 20
3.734055118110236
 10
-11.83698818897638
 20
3.74594094488189
 10
-11.83215748031496
 20
3.758492125984252
 10
-11.82806692913386
 20
3.771700787401575
 10
-11.82472440944882
 20
3.785566929133858
 10
-11.82212598425197
 20
3.800094488188976
 10
-11.82026771653543
 20
3.815283464566929
 10
-11.81915354330709
 20
3.831129921259842
 10
-11.81878346456693
 20
3.847633858267717
 10
-11.81915354330709
 20
3.864137795275591
 10
-11.82026771653543
 20
3.879984251968504
 10
-11.82212598425197
 20
3.895173228346457
 10
-11.82472440944882
 20
3.909700787401575
 10
-11.82806692913386
 20
3.923566929133858
 10
-11.83215748031496
 20
3.936775590551181
 10
-11.83698818897638
 20
3.949326771653543
 10
-11.84256692913386
 20
3.961212598425197
 10
-11.85049606299213
 20
3.974842519685039
 10
-11.85933858267717
 20
3.986653543307086
 10
-11.8690905511811
 20
3.996649606299213
 10
-11.87975590551181
 20
4.004826771653543
 10
-11.89133464566929
 20
4.011185039370079
 10
-11.90382283464567
 20
4.015728346456693
 10
-11.91722047244095
 20
4.018452755905511
 10
-11.93152755905512
 20
4.019362204724409
 10
-11.94584645669291
 20
4.018452755905511
 10
-11.95924803149606
 20
4.015728346456693
 10
-11.97174015748032
 20
4.011185039370079
 10
-11.98331496062992
 20
4.004826771653543
 10
-11.99398031496063
 20
3.996649606299213
 10
-12.00373622047244
 20
3.986653543307086
 10
-12.01258661417323
 20
3.974842519685039
 10
-12.02052362204724
 20
3.961212598425197
 10
-12.0260905511811
 20
3.949326771653543
 10
-12.03091338582677
 20
3.936775590551181
 10
-12.03499606299213
 20
3.923566929133858
 10
-12.03833464566929
 20
3.909700787401575
 10
-12.04093307086614
 20
3.895173228346457
 10
-12.0427874015748
 20
3.879984251968504
 10
-12.04390157480315
 20
3.864137795275591
 10
-12.04427165354331
 20
3.847633858267717
 10
-12.04390157480315
 20
3.831129921259842
 10
-12.0427874015748
 20
3.815283464566929
 10
-12.04093307086614
 20
3.800094488188976
 10
-12.03833464566929
 20
3.785566929133858
 10
-12.03499606299213
 20
3.771700787401575
 10
-12.03091338582677
 20
3.758492125984252
 10
-12.0260905511811
 20
3.74594094488189
 10
-12.02052362204724
 20
3.734055118110236
 10
-12.01258661417323
 20
3.720425196850394
 10
-12.00373622047244
 20
3.708614173228347
 10
-11.99398031496063
 20
3.69861811023622
 10
-11.98331496062992
 20
3.69044094488189
 10
-11.97174015748032
 20
3.684082677165355
 10
-11.95924803149606
 20
3.67953937007874
 10
-11.94584645669291
 20
3.676814960629921
 10
-11.93152755905512
 20
3.675905511811024
  0
LWPOLYLINE
  5
73
330
1F
100
AcDbEntity
  8
Layer 1
 62
     7
370
     9
100
AcDbPolyline
 90
      155
 70
     1
 43
0.0
 10
-11.48394094488189
 20
3.681322834645669
 10
-11.44961811023622
 20
3.681322834645669
 10
-11.44961811023622
 20
3.816240157480315
 10
-11.44989763779528
 20
3.825192913385827
 10
-11.45074015748031
 20
3.833724409448819
 10
-11.45213779527559
 20
3.841838582677165
 10
-11.45409842519685
 20
3.849535433070866
 10
-11.45661417322835
 20
3.856807086614173
 10
-11.45968897637795
 20
3.863653543307087
 10
-11.46332283464567
 20
3.870082677165354
 10
-11.4675157480315
 20
3.876082677165354
 10
-11.46985826771654
 20
3.878956692913386
 10
-11.47234251968504
 20
3.881685039370079
 10
-11.47497637795276
 20
3.884267716535433
 10
-11.47775590551181
 20
3.886704724409449
 10
-11.48067716535433
 20
3.888992125984252
 10
-11.48374409448819
 20
3.891133858267716
 10
-11.48695669291339
 20
3.893129921259843
 10
-11.49031102362205
 20
3.89498031496063
 10
-11.49388188976378
 20
3.896653543307087
 10
-11.49772834645669
 20
3.89809842519685
 10
-11.50185039370079
 20
3.899326771653543
 10
-11.50625196850394
 20
3.900326771653543
 10
-11.51092519685039
 20
3.901106299212598
 10
-11.51587795275591
 20
3.901661417322835
 10
-11.52110236220472
 20
3.901996062992126
 10
-11.5266062992126
 20
3.902106299212599
 10
-11.53215354330709
 20
3.901913385826772
 10
-11.53752362204724
 20
3.901338582677165
 10
-11.54272047244094
 20
3.900381889763779
 10
-11.54773622047244
 20
3.89903937007874
 10
-11.55257874015748
 20
3.897311023622047
 10
-11.55724409448819
 20
3.895200787401575
 10
-11.56173228346457
 20
3.892708661417323
 10
-11.56604330708661
 20
3.889830708661417
 10
-11.56979527559055
 20
3.88696062992126
 10
-11.57337401574803
 20
3.883877952755905
 10
-11.57678346456693
 20
3.880590551181102
 10
-11.58002362204724
 20
3.877090551181102
 10
-11.58309448818898
 20
3.873385826771654
 10
-11.586
 20
3.869476377952756
 10
-11.58873228346457
 20
3.86536220472441
 10
-11.59129921259843
 20
3.86103937007874
 10
-11.60036220472441
 20
3.876082677165354
 10
-11.60270866141732
 20
3.878956692913386
 10
-11.60520078740158
 20
3.881685039370079
 10
-11.60783464566929
 20
3.884267716535433
 10
-11.61061023622047
 20
3.886704724409449
 10
-11.61353149606299
 20
3.888992125984252
 10
-11.61659842519685
 20
3.891133858267716
 10
-11.61980708661417
 20
3.893129921259843
 10
-11.62316141732284
 20
3.89498031496063
 10
-11.62673228346457
 20
3.896653543307087
 10
-11.63057874015748
 20
3.89809842519685
 10
-11.63470078740158
 20
3.899326771653543
 10
-11.63910236220472
 20
3.900326771653543
 10
-11.64377559055118
 20
3.901106299212598
 10
-11.64872834645669
 20
3.901661417322835
 10
-11.65395275590551
 20
3.901996062992126
 10
-11.65945669291339
 20
3.902106299212599
 10
-11.66500393700787
 20
3.901913385826772
 10
-11.67037401574803
 20
3.901338582677165
 10
-11.67557086614173
 20
3.900381889763779
 10
-11.68058661417323
 20
3.89903937007874
 10
-11.68542913385827
 20
3.897311023622047
 10
-11.69009448818898
 20
3.895200787401575
 10
-11.69458267716535
 20
3.892708661417323
 10
-11.6988937007874
 20
3.889830708661417
 10
-11.70246456692913
 20
3.887102362204724
 10
-11.70588188976378
 20
3.884185039370079
 10
-11.70914960629921
 20
3.881086614173229
 10
-11.71225984251969
 20
3.877803149606299
 10
-11.71521653543307
 20
3.874330708661417
 10
-11.71801968503937
 20
3.870669291338583
 10
-11.72066535433071
 20
3.866822834645669
 10
-11.72316141732284
 20
3.862783464566929
 10
-11.72316141732284
 20
3.897188976377953
 10
-11.75748031496063
 20
3.897188976377953
 10
-11.75748031496063
 20
3.681322834645669
 10
-11.72316141732284
 20
3.681322834645669
 10
-11.72316141732284
 20
3.791779527559055
 10
-11.72237007874016
 20
3.798216535433071
 10
-11.72133464566929
 20
3.804401574803149
 10
-11.72005118110236
 20
3.810338582677165
 10
-11.71852362204724
 20
3.816031496062992
 10
-11.71674409448819
 20
3.821476377952756
 10
-11.71472440944882
 20
3.826677165354331
 10
-11.71246062992126
 20
3.831641732283464
 10
-11.70994881889764
 20
3.836362204724409
 10
-11.70790157480315
 20
3.839712598425197
 10
-11.70568503937008
 20
3.842913385826772
 10
-11.70329921259843
 20
3.84596062992126
 10
-11.70074803149606
 20
3.848858267716535
 10
-11.69802755905512
 20
3.851602362204725
 10
-11.69513385826772
 20
3.854192913385827
 10
-11.69207480314961
 20
3.856625984251969
 10
-11.68884251968504
 20
3.858905511811024
 10
-11.68551181102362
 20
3.86098031496063
 10
-11.68211417322835
 20
3.862779527559055
 10
-11.67865354330709
 20
3.864299212598425
 10
-11.67512992125984
 20
3.865543307086614
 10
-11.67154724409449
 20
3.866511811023622
 10
-11.66790157480315
 20
3.867200787401575
 10
-11.66419291338583
 20
3.867614173228346
 10
-11.66042519685039
 20
3.867751968503937
 10
-11.65332283464567
 20
3.86746062992126
 10
-11.64719291338583
 20
3.866590551181103
 10
-11.6445
 20
3.865933070866142
 10
-11.64204724409449
 20
3.865133858267717
 10
-11.63984251968504
 20
3.864185039370079
 10
-11.63788188976378
 20
3.863086614173228
 10
-11.63294094488189
 20
3.859433070866142
 10
-11.62865748031496
 20
3.855153543307086
 10
-11.62503149606299
 20
3.850240157480315
 10
-11.62206299212598
 20
3.844700787401575
 10
-11.61975590551181
 20
3.838527559055118
 10
-11.6181062992126
 20
3.831728346456693
 10
-11.61711811023622
 20
3.824299212598425
 10
-11.6167874015748
 20
3.816240157480315
 10
-11.6167874015748
 20
3.681322834645669
 10
-11.58246850393701
 20
3.681322834645669
 10
-11.58246850393701
 20
3.816240157480315
 10
-11.58272047244095
 20
3.8245
 10
-11.57710236220472
 20
3.836362204724409
 10
-11.57505118110236
 20
3.839712598425197
 10
-11.57283464566929
 20
3.842913385826772
 10
-11.57045275590551
 20
3.84596062992126
 10
-11.56790157480315
 20
3.848858267716535
 10
-11.56517716535433
 20
3.851602362204725
 10
-11.5622874015748
 20
3.854192913385827
 10
-11.55922440944882
 20
3.856625984251969
 10
-11.55599212598425
 20
3.858905511811024
 10
-11.55266141732283
 20
3.86098031496063
 10
-11.54926377952756
 20
3.862779527559055
 10
-11.54580708661417
 20
3.864299212598425
 10
-11.54228346456693
 20
3.865543307086614
 10
-11.5386968503937
 20
3.866511811023622
 10
-11.53505118110236
 20
3.867200787401575
 10
-11.53134251968504
 20
3.867614173228346
 10
-11.52757480314961
 20
3.867751968503937
 10
-11.52047244094488
 20
3.86746062992126
 10
-11.51434251968504
 20
3.866590551181103
 10
-11.51164960629921
 20
3.865933070866142
 10
-11.5091968503937
 20
3.865133858267717
 10
-11.50699212598425
 20
3.864185039370079
 10
-11.50503149606299
 20
3.863086614173228
 10
-11.5000905511811
 20
3.859433070866142
 10
-11.49580708661417
 20
3.855153543307086
 10
-11.4921811023622
 20
3.850240157480315
 10
-11.48921653543307
 20
3.844700787401575
 10
-11.4869094488189
 20
3.838527559055118
 10
-11.48525984251969
 20
3.831728346456693
 10
-11.48427165354331
 20
3.824299212598425
 10
-11.48394094488189
 20
3.816240157480315
 10
-11.48394094488189
 20
3.681322834645669
  0
LWPOLYLINE
  5
74
330
1F
100
AcDbEntity
  8
Layer 1
 62
     7
370
     9
100
AcDbPolyline
 90
      155
 70
     1
 43
0.0
 10
-11.1098937007874
 20
3.681322834645669
 10
-11.07557086614173
 20
3.681322834645669
 10
-11.07557086614173
 20
3.816240157480315
 10
-11.07585039370079
 20
3.825192913385827
 10
-11.07668897637795
 20
3.833724409448819
 10
-11.07808661417323
 20
3.841838582677165
 10
-11.08004330708661
 20
3.849535433070866
 10
-11.08255905511811
 20
3.856807086614173
 10
-11.08563779527559
 20
3.863653543307087
 10
-11.08927165354331
 20
3.870082677165354
 10
-11.09346850393701
 20
3.876082677165354
 10
-11.0958031496063
 20
3.878956692913386
 10
-11.0982874015748
 20
3.881685039370079
 10
-11.10091732283465
 20
3.884267716535433
 10
-11.1036968503937
 20
3.886704724409449
 10
-11.10661811023622
 20
3.888992125984252
 10
-11.10968897637795
 20
3.891133858267716
 10
-11.11290551181102
 20
3.893129921259843
 10
-11.11626377952756
 20
3.89498031496063
 10
-11.11983464566929
 20
3.896653543307087
 10
-11.12368110236221
 20
3.89809842519685
 10
-11.1278031496063
 20
3.899326771653543
 10
-11.1321968503937
 20
3.900326771653543
 10
-11.13687007874016
 20
3.901106299212598
 10
-11.14182283464567
 20
3.901661417322835
 10
-11.14705118110236
 20
3.901996062992126
 10
-11.15255905511811
 20
3.902106299212599
 10
-11.1581062992126
 20
3.901913385826772
 10
-11.16347637795276
 20
3.901338582677165
 10
-11.16866929133858
 20
3.900381889763779
 10
-11.17368503937008
 20
3.89903937007874
 10
-11.17852755905512
 20
3.897311023622047
 10
-11.18319291338583
 20
3.895200787401575
 10
-11.18768110236221
 20
3.892708661417323
 10
-11.19199606299213
 20
3.889830708661417
 10
-11.19574803149606
 20
3.88696062992126
 10
-11.19932677165354
 20
3.883877952755905
 10
-11.20273622047244
 20
3.880590551181102
 10
-11.20597637795276
 20
3.877090551181102
 10
-11.20904724409449
 20
3.873385826771654
 10
-11.21195275590551
 20
3.869476377952756
 10
-11.21468503937008
 20
3.86536220472441
 10
-11.21725196850394
 20
3.86103937007874
 10
-11.2263188976378
 20
3.876082677165354
 10
-11.22866535433071
 20
3.878956692913386
 10
-11.23115354330709
 20
3.881685039370079
 10
-11.23378346456693
 20
3.884267716535433
 10
-11.23655905511811
 20
3.886704724409449
 10
-11.23948031496063
 20
3.888992125984252
 10
-11.24254330708661
 20
3.891133858267716
 10
-11.24575590551181
 20
3.893129921259843
 10
-11.24911417322835
 20
3.89498031496063
 10
-11.25268503937008
 20
3.896653543307087
 10
-11.25652755905512
 20
3.89809842519685
 10
-11.26064960629921
 20
3.899326771653543
 10
-11.26504724409449
 20
3.900326771653543
 10
-11.26972047244094
 20
3.901106299212598
 10
-11.27467322834646
 20
3.901661417322835
 10
-11.27990157480315
 20
3.901996062992126
 10
-11.2854094488189
 20
3.902106299212599
 10
-11.29095669291339
 20
3.901913385826772
 10
-11.29632283464567
 20
3.901338582677165
 10
-11.30151968503937
 20
3.900381889763779
 10
-11.30653543307087
 20
3.89903937007874
 10
-11.3113779527559
 20
3.897311023622047
 10
-11.31604330708661
 20
3.895200787401575
 10
-11.32053149606299
 20
3.892708661417323
 10
-11.32484645669291
 20
3.889830708661417
 10
-11.32841732283465
 20
3.887102362204724
 10
-11.33183464566929
 20
3.884185039370079
 10
-11.33510236220472
 20
3.881086614173229
 10
-11.3382125984252
 20
3.877803149606299
 10
-11.34116929133858
 20
3.874330708661417
 10
-11.34397244094488
 20
3.870669291338583
 10
-11.34661811023622
 20
3.866822834645669
 10
-11.34911417322835
 20
3.862783464566929
 10
-11.34911417322835
 20
3.897188976377953
 10
-11.38343700787402
 20
3.897188976377953
 10
-11.38343700787402
 20
3.681322834645669
 10
-11.34911417322835
 20
3.681322834645669
 10
-11.34911417322835
 20
3.791779527559055
 10
-11.34832283464567
 20
3.798216535433071
 10
-11.3472874015748
 20
3.804401574803149
 10
-11.34600393700787
 20
3.810338582677165
 10
-11.34447244094488
 20
3.816031496062992
 10
-11.3426968503937
 20
3.821476377952756
 10
-11.34066929133858
 20
3.826677165354331
 10
-11.33840157480315
 20
3.831641732283464
 10
-11.33588582677165
 20
3.836362204724409
 10
-11.33384251968504
 20
3.839712598425197
 10
-11.33162992125984
 20
3.842913385826772
 10
-11.32924409448819
 20
3.84596062992126
 10
-11.32669291338583
 20
3.848858267716535
 10
-11.32397244094488
 20
3.851602362204725
 10
-11.32108267716535
 20
3.854192913385827
 10
-11.31802362204724
 20
3.856625984251969
 10
-11.31479527559055
 20
3.858905511811024
 10
-11.31145669291339
 20
3.86098031496063
 10
-11.30805905511811
 20
3.862779527559055
 10
-11.30459448818898
 20
3.864299212598425
 10
-11.30107086614173
 20
3.865543307086614
 10
-11.2974842519685
 20
3.866511811023622
 10
-11.29383464566929
 20
3.867200787401575
 10
-11.29012992125984
 20
3.867614173228346
 10
-11.28636220472441
 20
3.867751968503937
 10
-11.27925984251969
 20
3.86746062992126
 10
-11.27313779527559
 20
3.866590551181103
 10
-11.27044488188976
 20
3.865933070866142
 10
-11.268
 20
3.865133858267717
 10
-11.26579527559055
 20
3.864185039370079
 10
-11.26383464566929
 20
3.863086614173228
 10
-11.25888582677165
 20
3.859433070866142
 10
-11.25460236220473
 20
3.855153543307086
 10
-11.25097637795276
 20
3.850240157480315
 10
-11.24801181102362
 20
3.844700787401575
 10
-11.24570472440945
 20
3.838527559055118
 10
-11.24405905511811
 20
3.831728346456693
 10
-11.24307480314961
 20
3.824299212598425
 10
-11.24274409448819
 20
3.816240157480315
 10
-11.24274409448819
 20
3.681322834645669
 10
-11.20842125984252
 20
3.681322834645669
 10
-11.20842125984252
 20
3.816240157480315
 10
-11.20867322834646
 20
3.8245
 10
-11.20303543307087
 20
3.836362204724409
 10
-11.20099212598425
 20
3.839712598425197
 10
-11.19877952755905
 20
3.842913385826772
 10
-11.19639763779528
 20
3.84596062992126
 10
-11.19384251968504
 20
3.848858267716535
 10
-11.19112204724409
 20
3.851602362204725
 10
-11.18823228346457
 20
3.854192913385827
 10
-11.18517322834646
 20
3.856625984251969
 10
-11.18194488188976
 20
3.858905511811024
 10
-11.1786062992126
 20
3.86098031496063
 10
-11.17520866141732
 20
3.862779527559055
 10
-11.17174803149606
 20
3.864299212598425
 10
-11.16822440944882
 20
3.865543307086614
 10
-11.16464173228346
 20
3.866511811023622
 10
-11.16099212598425
 20
3.867200787401575
 10
-11.15728346456693
 20
3.867614173228346
 10
-11.15351181102362
 20
3.867751968503937
 10
-11.1464094488189
 20
3.86746062992126
 10
-11.14029133858268
 20
3.866590551181103
 10
-11.13759842519685
 20
3.865933070866142
 10
-11.13514960629921
 20
3.865133858267717
 10
-11.13294488188976
 20
3.864185039370079
 10
-11.1309842519685
 20
3.863086614173228
 10
-11.12603937007874
 20
3.859433070866142
 10
-11.12175196850394
 20
3.855153543307086
 10
-11.11812598425197
 20
3.850240157480315
 10
-11.11516141732283
 20
3.844700787401575
 10
-11.11285826771654
 20
3.838527559055118
 10
-11.11120866141732
 20
3.831728346456693
 10
-11.11022440944882
 20
3.824299212598425
 10
-11.1098937007874
 20
3.816240157480315
 10
-11.1098937007874
 20
3.681322834645669
  0
LWPOLYLINE
  5
75
330
1F
100
AcDbEntity
  8
Layer 1
 62
     7
370
    18
100
AcDbPolyline
 90
        4
 70
     1
 43
0.0
 10
-9.378649606299213
 20
1.41140157480315
 10
-9.398066929133858
 20
1.387665354330709
 10
-9.36762598425197
 20
1.383972440944882
 10
-9.378649606299213
 20
1.41140157480315
  0
LWPOLYLINE
  5
76
330
1F
100
AcDbEntity
  8
Layer 1
 62
     7
370
    18
100
AcDbPolyline
 90
        4
 70
     1
 43
0.0
 10
-5.75357874015748
 20
2.868535433070866
 10
-5.723137795275591
 20
2.864842519685039
 10
-5.742555118110237
 20
2.841106299212599
 10
-5.75357874015748
 20
2.868535433070866
  0
LWPOLYLINE
  5
77
330
1F
100
AcDbEntity
  8
Layer 1
 62
     7
370
    18
100
AcDbPolyline
 90
        2
 70
     0
 43
0.0
 10
-9.405791338582677
 20
1.382866141732283
 10
-5.714244094488189
 20
2.866720472440945
  0
LWPOLYLINE
  5
78
330
1F
100
AcDbEntity
  8
Layer 1
 62
     7
370
     9
100
AcDbPolyline
 90
       87
 70
     1
 43
0.0
 10
-7.463846456692913
 20
1.616929133858268
 10
-7.22903937007874
 20
1.616929133858268
 10
-7.22903937007874
 20
1.651263779527559
 10
-7.381003937007874
 20
1.651263779527559
 10
-7.264830708661417
 20
1.766582677165354
 10
-7.257244094488189
 20
1.774885826771654
 10
-7.250673228346456
 20
1.783602362204724
 10
-7.245110236220472
 20
1.792728346456693
 10
-7.24055905511811
 20
1.802271653543307
 10
-7.23701968503937
 20
1.812228346456693
 10
-7.234492125984252
 20
1.82259842519685
 10
-7.232972440944882
 20
1.833381889763779
 10
-7.232468503937008
 20
1.844582677165354
 10
-7.232984251968504
 20
1.85603937007874
 10
-7.23453937007874
 20
1.867031496062992
 10
-7.237125984251969
 20
1.877566929133858
 10
-7.240744094488189
 20
1.887637795275591
 10
-7.245401574803149
 20
1.897251968503937
 10
-7.251090551181102
 20
1.906409448818898
 10
-7.257811023622048
 20
1.915102362204725
 10
-7.265566929133858
 20
1.923342519685039
 10
-7.274181102362204
 20
1.930988188976378
 10
-7.28317716535433
 20
1.93761811023622
 10
-7.292555118110236
 20
1.943224409448819
 10
-7.302318897637795
 20
1.947814960629921
 10
-7.312468503937008
 20
1.95138188976378
 10
-7.323
 20
1.953933070866142
 10
-7.333913385826771
 20
1.95546062992126
 10
-7.345212598425197
 20
1.955972440944882
 10
-7.356948818897638
 20
1.955433070866142
 10
-7.368244094488189
 20
1.953822834645669
 10
-7.379106299212599
 20
1.951137795275591
 10
-7.389527559055118
 20
1.947377952755905
 10
-7.399511811023622
 20
1.942547244094488
 10
-7.409055118110237
 20
1.936641732283465
 10
-7.418161417322835
 20
1.929665354330709
 10
-7.426830708661417
 20
1.92161811023622
 10
-7.434555118110236
 20
1.91296062992126
 10
-7.441185039370079
 20
1.903850393700787
 10
-7.446720472440945
 20
1.894287401574803
 10
-7.451157480314961
 20
1.884271653543307
 10
-7.4545
 20
1.873807086614173
 10
-7.456748031496063
 20
1.862885826771653
 10
-7.45790157480315
 20
1.851511811023622
 10
-7.457956692913386
 20
1.839685039370079
 10
-7.423153543307087
 20
1.839685039370079
 10
-7.423448818897638
 20
1.847350393700787
 10
-7.422913385826772
 20
1.854842519685039
 10
-7.421555118110236
 20
1.862157480314961
 10
-7.419366141732284
 20
1.869299212598425
 10
-7.416346456692914
 20
1.876263779527559
 10
-7.4125
 20
1.883055118110236
 10
-7.407818897637795
 20
1.889673228346457
 10
-7.402311023622048
 20
1.896114173228346
 10
-7.396429133858268
 20
1.901858267716535
 10
-7.390244094488189
 20
1.906834645669291
 10
-7.383751968503937
 20
1.911051181102362
 10
-7.376956692913386
 20
1.914496062992126
 10
-7.369850393700787
 20
1.917181102362205
 10
-7.362437007874016
 20
1.919094488188976
 10
-7.354716535433071
 20
1.920248031496063
 10
-7.346685039370079
 20
1.920629921259843
 10
-7.338811023622047
 20
1.920287401574803
 10
-7.331232283464567
 20
1.919251968503937
 10
-7.323948818897637
 20
1.917531496062992
 10
-7.316964566929133
 20
1.91511811023622
 10
-7.310283464566929
 20
1.912015748031496
 10
-7.303897637795275
 20
1.908220472440945
 10
-7.297811023622047
 20
1.903736220472441
 10
-7.292027559055118
 20
1.898555118110236
 10
-7.286685039370079
 20
1.892830708661417
 10
-7.282055118110236
 20
1.886834645669291
 10
-7.27813779527559
 20
1.880566929133858
 10
-7.274937007874016
 20
1.87401968503937
 10
-7.272444881889764
 20
1.867200787401575
 10
-7.270669291338582
 20
1.860102362204724
 10
-7.269602362204725
 20
1.852724409448819
 10
-7.269248031496063
 20
1.845070866141732
 10
-7.269590551181103
 20
1.837255905511811
 10
-7.270622047244094
 20
1.829744094488189
 10
-7.272342519685039
 20
1.82253937007874
 10
-7.274748031496063
 20
1.815641732283465
 10
-7.277846456692913
 20
1.809047244094488
 10
-7.28163779527559
 20
1.802759842519685
 10
-7.28611811023622
 20
1.796775590551181
 10
-7.291291338582677
 20
1.79109842519685
 10
-7.463846456692913
 20
1.616929133858268
  0
LWPOLYLINE
  5
79
330
1F
100
AcDbEntity
  8
Layer 1
 62
     7
370
     9
100
AcDbPolyline
 90
       84
 70
     1
 43
0.0
 10
-7.029251968503937
 20
1.911818897637795
 10
-7.02359842519685
 20
1.907964566929134
 10
-7.018330708661417
 20
1.903594488188976
 10
-7.013437007874016
 20
1.898700787401575
 10
-7.008929133858268
 20
1.893287401574803
 10
-7.004803149606299
 20
1.887354330708661
 10
-7.001059055118111
 20
1.880893700787402
 10
-6.997696850393701
 20
1.873913385826772
 10
-6.994716535433071
 20
1.866409448818898
 10
-6.991377952755905
 20
1.856468503937008
 10
-6.988488188976378
 20
1.846377952755905
 10
-6.986043307086614
 20
1.836141732283465
 10
-6.984047244094488
 20
1.825759842519685
 10
-6.982496062992126
 20
1.815228346456693
 10
-6.981385826771653
 20
1.804547244094488
 10
-6.980720472440945
 20
1.793724409448819
 10
-6.9805
 20
1.782751968503937
 10
-6.981972440944882
 20
1.758468503937008
 10
-6.983665354330709
 20
1.745275590551181
 10
-6.985881889763779
 20
1.732814960629921
 10
-6.988622047244094
 20
1.72107874015748
 10
-6.991881889763779
 20
1.710074803149606
 10
-6.995661417322835
 20
1.699799212598425
 10
-6.999964566929134
 20
1.690248031496063
 10
-7.004791338582677
 20
1.681429133858268
 10
-7.010137795275591
 20
1.673338582677165
 10
-7.01501968503937
 20
1.667248031496063
 10
-7.020165354330708
 20
1.661968503937008
 10
-7.025566929133858
 20
1.6575
 10
-7.031228346456693
 20
1.653838582677165
 10
-7.037149606299213
 20
1.650992125984252
 10
-7.043330708661418
 20
1.64896062992126
 10
-7.049767716535433
 20
1.647736220472441
 10
-7.056464566929134
 20
1.647330708661417
 10
-7.063944881889764
 20
1.647732283464567
 10
-7.071066929133858
 20
1.64894094488189
 10
-7.077830708661417
 20
1.650952755905512
 10
-7.084236220472441
 20
1.653767716535433
 10
-7.090275590551181
 20
1.657389763779528
 10
-7.09596062992126
 20
1.661814960629921
 10
-7.101279527559055
 20
1.667047244094488
 10
-7.106240157480315
 20
1.673086614173228
 10
-7.110338582677166
 20
1.679043307086614
 10
-7.114074803149606
 20
1.685366141732283
 10
-7.117448818897638
 20
1.692055118110236
 10
-7.120456692913386
 20
1.699114173228346
 10
-7.123106299212599
 20
1.706389763779528
 10
-7.125421259842519
 20
1.713763779527559
 10
-7.12740157480315
 20
1.721232283464567
 10
-7.12903937007874
 20
1.728799212598425
 10
-7.133185039370079
 20
1.758216535433071
 10
-7.134405511811024
 20
1.791007874015748
 10
-7.134070866141732
 20
1.800822834645669
 10
-7.133070866141733
 20
1.811751968503937
 10
-7.131393700787402
 20
1.823799212598425
 10
-7.12903937007874
 20
1.836972440944882
 10
-7.127413385826772
 20
1.844444881889764
 10
-7.12548031496063
 20
1.851885826771654
 10
-7.123244094488189
 20
1.859291338582677
 10
-7.120708661417323
 20
1.866661417322835
 10
-7.117803149606299
 20
1.873842519685039
 10
-7.114503937007874
 20
1.880649606299213
 10
-7.110811023622047
 20
1.887094488188976
 10
-7.106728346456693
 20
1.893169291338583
 10
-7.102216535433071
 20
1.898763779527559
 10
-7.097279527559055
 20
1.903775590551181
 10
-7.09192125984252
 20
1.908200787401575
 10
-7.08613779527559
 20
1.912035433070866
 10
-7.083062992125984
 20
1.913708661417323
 10
-7.079850393700787
 20
1.915153543307087
 10
-7.076503937007874
 20
1.916381889763779
 10
-7.073019685039371
 20
1.91738188976378
 10
-7.069397637795276
 20
1.918161417322835
 10
-7.065637795275591
 20
1.918716535433071
 10
-7.061740157480315
 20
1.919051181102362
 10
-7.057704724409449
 20
1.919161417322835
 10
-7.053661417322835
 20
1.919047244094488
 10
-7.049759842519685
 20
1.918704724409449
 10
-7.045996062992126
 20
1.918129921259843
 10
-7.042374015748032
 20
1.917326771653543
 10
-7.038889763779528
 20
1.916295275590551
 10
-7.03553937007874
 20
1.915035433070866
 10
-7.032326771653543
 20
1.913543307086614
 10
-7.029251968503937
 20
1.911818897637795
  0
LWPOLYLINE
  5
7A
330
1F
100
AcDbEntity
  8
Layer 1
 62
     7
370
     9
100
AcDbPolyline
 90
       65
 70
     1
 43
0.0
 10
-7.05598031496063
 20
1.612511811023622
 10
-7.041673228346457
 20
1.61342125984252
 10
-7.028275590551181
 20
1.616145669291339
 10
-7.015787401574803
 20
1.620688976377953
 10
-7.004212598425197
 20
1.627047244094488
 10
-6.993543307086614
 20
1.635224409448819
 10
-6.983791338582678
 20
1.645216535433071
 10
-6.974948818897638
 20
1.657023622047244
 10
-6.96701968503937
 20
1.670645669291339
 10
-6.96144094488189
 20
1.682535433070866
 10
-6.956610236220472
 20
1.695082677165354
 10
-6.952523622047244
 20
1.708295275590551
 10
-6.949177165354331
 20
1.722169291338583
 10
-6.94657874015748
 20
1.736700787401575
 10
-6.944720472440945
 20
1.751889763779528
 10
-6.943606299212599
 20
1.767736220472441
 10
-6.943236220472441
 20
1.784240157480315
 10
-6.943606299212599
 20
1.800744094488189
 10
-6.944720472440945
 20
1.816590551181102
 10
-6.94657874015748
 20
1.831779527559055
 10
-6.949177165354331
 20
1.846307086614173
 10
-6.952523622047244
 20
1.860173228346457
 10
-6.956610236220472
 20
1.87338188976378
 10
-6.96144094488189
 20
1.885933070866142
 10
-6.96701968503937
 20
1.897818897637795
 10
-6.974948818897638
 20
1.911448818897638
 10
-6.983791338582678
 20
1.923259842519685
 10
-6.993543307086614
 20
1.933255905511811
 10
-7.004212598425197
 20
1.941433070866142
 10
-7.015787401574803
 20
1.947795275590551
 10
-7.028275590551181
 20
1.952338582677165
 10
-7.041673228346457
 20
1.955062992125984
 10
-7.05598031496063
 20
1.955972440944882
 10
-7.070299212598425
 20
1.955062992125984
 10
-7.083700787401574
 20
1.952338582677165
 10
-7.096192913385827
 20
1.947795275590551
 10
-7.107771653543307
 20
1.941433070866142
 10
-7.118437007874015
 20
1.933255905511811
 10
-7.128192913385827
 20
1.923259842519685
 10
-7.13703937007874
 20
1.911448818897638
 10
-7.14498031496063
 20
1.897818897637795
 10
-7.150547244094488
 20
1.885933070866142
 10
-7.155370078740157
 20
1.87338188976378
 10
-7.159452755905511
 20
1.860173228346457
 10
-7.162791338582677
 20
1.846307086614173
 10
-7.165389763779528
 20
1.831779527559055
 10
-7.167244094488189
 20
1.816590551181102
 10
-7.168358267716536
 20
1.800744094488189
 10
-7.168728346456693
 20
1.784240157480315
 10
-7.168358267716536
 20
1.767736220472441
 10
-7.167244094488189
 20
1.751889763779528
 10
-7.165389763779528
 20
1.736700787401575
 10
-7.162791338582677
 20
1.722169291338583
 10
-7.159452755905511
 20
1.708295275590551
 10
-7.155370078740157
 20
1.695082677165354
 10
-7.150547244094488
 20
1.682535433070866
 10
-7.14498031496063
 20
1.670645669291339
 10
-7.13703937007874
 20
1.657023622047244
 10
-7.128192913385827
 20
1.645216535433071
 10
-7.118437007874015
 20
1.635224409448819
 10
-7.107771653543307
 20
1.627047244094488
 10
-7.096192913385827
 20
1.620688976377953
 10
-7.083700787401574
 20
1.616145669291339
 10
-7.070299212598425
 20
1.61342125984252
 10
-7.05598031496063
 20
1.612511811023622
  0
LWPOLYLINE
  5
7B
330
1F
100
AcDbEntity
  8
Layer 1
 62
     7
370
     9
100
AcDbPolyline
 90
       84
 70
     1
 43
0.0
 10
-6.754724409448819
 20
1.911818897637795
 10
-6.749070866141732
 20
1.907964566929134
 10
-6.743799212598425
 20
1.903594488188976
 10
-6.738905511811024
 20
1.898700787401575
 10
-6.734397637795276
 20
1.893287401574803
 10
-6.730267716535433
 20
1.887354330708661
 10
-6.72651968503937
 20
1.880893700787402
 10
-6.723153543307086
 20
1.873913385826772
 10
-6.720169291338583
 20
1.866409448818898
 10
-6.716838582677165
 20
1.856468503937008
 10
-6.713952755905511
 20
1.846377952755905
 10
-6.711511811023622
 20
1.836141732283465
 10
-6.709515748031496
 20
1.825759842519685
 10
-6.707964566929133
 20
1.815228346456693
 10
-6.706858267716536
 20
1.804547244094488
 10
-6.706192913385827
 20
1.793724409448819
 10
-6.705972440944882
 20
1.782751968503937
 10
-6.70744094488189
 20
1.758468503937008
 10
-6.70913779527559
 20
1.745275590551181
 10
-6.711354330708661
 20
1.732814960629921
 10
-6.714090551181102
 20
1.72107874015748
 10
-6.717350393700787
 20
1.710074803149606
 10
-6.721133858267716
 20
1.699799212598425
 10
-6.725437007874016
 20
1.690248031496063
 10
-6.730259842519685
 20
1.681429133858268
 10
-6.735606299212598
 20
1.673338582677165
 10
-6.740488188976378
 20
1.667248031496063
 10
-6.745633858267716
 20
1.661968503937008
 10
-6.751035433070866
 20
1.6575
 10
-6.756700787401575
 20
1.653838582677165
 10
-6.762622047244094
 20
1.650992125984252
 10
-6.768803149606299
 20
1.64896062992126
 10
-6.775240157480315
 20
1.647736220472441
 10
-6.781937007874015
 20
1.647330708661417
 10
-6.789417322834645
 20
1.647732283464567
 10
-6.79653937007874
 20
1.64894094488189
 10
-6.803303149606299
 20
1.650952755905512
 10
-6.809704724409449
 20
1.653767716535433
 10
-6.815748031496063
 20
1.657389763779528
 10
-6.821429133858268
 20
1.661814960629921
 10
-6.826751968503937
 20
1.667047244094488
 10
-6.831712598425197
 20
1.673086614173228
 10
-6.835811023622047
 20
1.679043307086614
 10
-6.839547244094488
 20
1.685366141732283
 10
-6.84292125984252
 20
1.692055118110236
 10
-6.845929133858268
 20
1.699114173228346
 10
-6.84857874015748
 20
1.706389763779528
 10
-6.850889763779527
 20
1.713763779527559
 10
-6.85286220472441
 20
1.721232283464567
 10
-6.854492125984252
 20
1.728799212598425
 10
-6.858653543307087
 20
1.758216535433071
 10
-6.859874015748032
 20
1.791007874015748
 10
-6.85953937007874
 20
1.800822834645669
 10
-6.858535433070866
 20
1.811751968503937
 10
-6.856854330708662
 20
1.823799212598425
 10
-6.854492125984252
 20
1.836972440944882
 10
-6.852877952755906
 20
1.844444881889764
 10
-6.850948818897638
 20
1.851885826771654
 10
-6.848712598425196
 20
1.859291338582677
 10
-6.846181102362205
 20
1.866661417322835
 10
-6.843275590551182
 20
1.873842519685039
 10
-6.839976377952756
 20
1.880649606299213
 10
-6.836283464566929
 20
1.887094488188976
 10
-6.832196850393701
 20
1.893169291338583
 10
-6.827685039370079
 20
1.898763779527559
 10
-6.822748031496063
 20
1.903775590551181
 10
-6.817389763779528
 20
1.908200787401575
 10
-6.811606299212598
 20
1.912035433070866
 10
-6.808527559055118
 20
1.913708661417323
 10
-6.805314960629921
 20
1.915153543307087
 10
-6.801968503937008
 20
1.916381889763779
 10
-6.79848031496063
 20
1.91738188976378
 10
-6.794858267716536
 20
1.918161417322835
 10
-6.79109842519685
 20
1.918716535433071
 10
-6.787204724409449
 20
1.919051181102362
 10
-6.783173228346457
 20
1.919161417322835
 10
-6.779129921259843
 20
1.919047244094488
 10
-6.775232283464567
 20
1.918704724409449
 10
-6.771468503937008
 20
1.918129921259843
 10
-6.767846456692913
 20
1.917326771653543
 10
-6.764362204724409
 20
1.916295275590551
 10
-6.761011811023622
 20
1.915035433070866
 10
-6.757799212598425
 20
1.913543307086614
 10
-6.754724409448819
 20
1.911818897637795
  0
LWPOLYLINE
  5
7C
330
1F
100
AcDbEntity
  8
Layer 1
 62
     7
370
     9
100
AcDbPolyline
 90
       65
 70
     1
 43
0.0
 10
-6.781452755905512
 20
1.612511811023622
 10
-6.767145669291339
 20
1.61342125984252
 10
-6.753748031496063
 20
1.616145669291339
 10
-6.741259842519685
 20
1.620688976377953
 10
-6.729681102362204
 20
1.627047244094488
 10
-6.719011811023622
 20
1.635224409448819
 10
-6.709259842519685
 20
1.645216535433071
 10
-6.700417322834646
 20
1.657023622047244
 10
-6.692488188976378
 20
1.670645669291339
 10
-6.686909448818898
 20
1.682535433070866
 10
-6.68207874015748
 20
1.695082677165354
 10
-6.677992125984252
 20
1.708295275590551
 10
-6.674645669291339
 20
1.722169291338583
 10
-6.672047244094488
 20
1.736700787401575
 10
-6.670188976377953
 20
1.751889763779528
 10
-6.669074803149607
 20
1.767736220472441
 10
-6.668704724409449
 20
1.784240157480315
 10
-6.669074803149607
 20
1.800744094488189
 10
-6.670188976377953
 20
1.816590551181102
 10
-6.672047244094488
 20
1.831779527559055
 10
-6.674645669291339
 20
1.846307086614173
 10
-6.677992125984252
 20
1.860173228346457
 10
-6.68207874015748
 20
1.87338188976378
 10
-6.686909448818898
 20
1.885933070866142
 10
-6.692488188976378
 20
1.897818897637795
 10
-6.700417322834646
 20
1.911448818897638
 10
-6.709259842519685
 20
1.923259842519685
 10
-6.719011811023622
 20
1.933255905511811
 10
-6.729681102362204
 20
1.941433070866142
 10
-6.741259842519685
 20
1.947795275590551
 10
-6.753748031496063
 20
1.952338582677165
 10
-6.767145669291339
 20
1.955062992125984
 10
-6.781452755905512
 20
1.955972440944882
 10
-6.795763779527559
 20
1.955062992125984
 10
-6.809165354330709
 20
1.952338582677165
 10
-6.821653543307087
 20
1.947795275590551
 10
-6.833232283464567
 20
1.941433070866142
 10
-6.843897637795275
 20
1.933255905511811
 10
-6.853653543307087
 20
1.923259842519685
 10
-6.862496062992126
 20
1.911448818897638
 10
-6.870429133858268
 20
1.897818897637795
 10
-6.876
 20
1.885933070866142
 10
-6.880830708661417
 20
1.87338188976378
 10
-6.884913385826771
 20
1.860173228346457
 10
-6.888255905511811
 20
1.846307086614173
 10
-6.890854330708661
 20
1.831779527559055
 10
-6.892712598425197
 20
1.816590551181102
 10
-6.893826771653544
 20
1.800744094488189
 10
-6.894196850393701
 20
1.784240157480315
 10
-6.893826771653544
 20
1.767736220472441
 10
-6.892712598425197
 20
1.751889763779528
 10
-6.890854330708661
 20
1.736700787401575
 10
-6.888255905511811
 20
1.722169291338583
 10
-6.884913385826771
 20
1.708295275590551
 10
-6.880830708661417
 20
1.695082677165354
 10
-6.876
 20
1.682535433070866
 10
-6.870429133858268
 20
1.670645669291339
 10
-6.862496062992126
 20
1.657023622047244
 10
-6.853653543307087
 20
1.645216535433071
 10
-6.843897637795275
 20
1.635224409448819
 10
-6.833232283464567
 20
1.627047244094488
 10
-6.821653543307087
 20
1.620688976377953
 10
-6.809165354330709
 20
1.616145669291339
 10
-6.795763779527559
 20
1.61342125984252
 10
-6.781452755905512
 20
1.612511811023622
  0
LWPOLYLINE
  5
7D
330
1F
100
AcDbEntity
  8
Layer 1
 62
     7
370
     9
100
AcDbPolyline
 90
      155
 70
     1
 43
0.0
 10
-6.33386220472441
 20
1.617913385826772
 10
-6.299543307086614
 20
1.617913385826772
 10
-6.299543307086614
 20
1.752830708661417
 10
-6.29982283464567
 20
1.761787401574803
 10
-6.300661417322835
 20
1.770326771653543
 10
-6.302062992125984
 20
1.77844094488189
 10
-6.30401968503937
 20
1.786133858267717
 10
-6.30653937007874
 20
1.793405511811024
 10
-6.309614173228346
 20
1.800255905511811
 10
-6.313248031496063
 20
1.806685039370079
 10
-6.317437007874016
 20
1.812688976377953
 10
-6.319779527559055
 20
1.81555905511811
 10
-6.322267716535433
 20
1.818283464566929
 10
-6.32490157480315
 20
1.820862204724409
 10
-6.327681102362205
 20
1.823299212598425
 10
-6.330602362204725
 20
1.825590551181102
 10
-6.333669291338583
 20
1.827732283464567
 10
-6.336881889763779
 20
1.829736220472441
 10
-6.340236220472441
 20
1.831590551181102
 10
-6.343807086614174
 20
1.833259842519685
 10
-6.347649606299212
 20
1.834708661417323
 10
-6.351771653543307
 20
1.835929133858268
 10
-6.356169291338583
 20
1.836929133858268
 10
-6.36084251968504
 20
1.837700787401575
 10
-6.365795275590552
 20
1.838255905511811
 10
-6.371023622047244
 20
1.838586614173228
 10
-6.376531496062992
 20
1.838696850393701
 10
-6.38207874015748
 20
1.838503937007874
 10
-6.387448818897638
 20
1.837929133858268
 10
-6.392645669291339
 20
1.836972440944882
 10
-6.397661417322834
 20
1.835629921259843
 10
-6.402503937007874
 20
1.833905511811024
 10
-6.407169291338582
 20
1.831799212598425
 10
-6.41165748031496
 20
1.829311023622047
 10
-6.415968503937008
 20
1.826437007874016
 10
-6.419720472440945
 20
1.823566929133858
 10
-6.423299212598425
 20
1.820488188976378
 10
-6.426708661417323
 20
1.817196850393701
 10
-6.429948818897638
 20
1.813700787401575
 10
-6.43301968503937
 20
1.809996062992126
 10
-6.43592125984252
 20
1.806086614173228
 10
-6.43865748031496
 20
1.801968503937008
 10
-6.441224409448819
 20
1.797649606299213
 10
-6.450287401574803
 20
1.812688976377953
 10
-6.452633858267717
 20
1.81555905511811
 10
-6.455125984251969
 20
1.818283464566929
 10
-6.457759842519685
 20
1.820862204724409
 10
-6.460535433070866
 20
1.823299212598425
 10
-6.463456692913386
 20
1.825590551181102
 10
-6.466523622047244
 20
1.827732283464567
 10
-6.469732283464567
 20
1.829736220472441
 10
-6.473086614173228
 20
1.831590551181102
 10
-6.476657480314961
 20
1.833259842519685
 10
-6.4805
 20
1.834708661417323
 10
-6.484622047244095
 20
1.835929133858268
 10
-6.48901968503937
 20
1.836929133858268
 10
-6.493692913385827
 20
1.837700787401575
 10
-6.498641732283464
 20
1.838255905511811
 10
-6.503874015748032
 20
1.838586614173228
 10
-6.509381889763779
 20
1.838696850393701
 10
-6.514929133858268
 20
1.838503937007874
 10
-6.520299212598426
 20
1.837929133858268
 10
-6.525496062992126
 20
1.836972440944882
 10
-6.530511811023622
 20
1.835629921259843
 10
-6.535354330708661
 20
1.833905511811024
 10
-6.54001968503937
 20
1.831799212598425
 10
-6.544507874015748
 20
1.829311023622047
 10
-6.548814960629922
 20
1.826437007874016
 10
-6.552385826771654
 20
1.823700787401575
 10
-6.555807086614173
 20
1.820783464566929
 10
-6.559070866141732
 20
1.817681102362205
 10
-6.562185039370079
 20
1.814393700787402
 10
-6.565141732283465
 20
1.81092125984252
 10
-6.567944881889764
 20
1.807259842519685
 10
-6.570590551181103
 20
1.803413385826772
 10
-6.573086614173229
 20
1.799374015748032
 10
-6.573086614173229
 20
1.833799212598425
 10
-6.607405511811024
 20
1.833799212598425
 10
-6.607405511811024
 20
1.617913385826772
 10
-6.573086614173229
 20
1.617913385826772
 10
-6.573086614173229
 20
1.728370078740157
 10
-6.572295275590551
 20
1.734807086614173
 10
-6.571259842519685
 20
1.740996062992126
 10
-6.569972440944882
 20
1.746933070866142
 10
-6.568444881889763
 20
1.752625984251968
 10
-6.566665354330708
 20
1.758074803149606
 10
-6.564641732283465
 20
1.763275590551181
 10
-6.562370078740157
 20
1.768236220472441
 10
-6.559854330708661
 20
1.772952755905512
 10
-6.557811023622047
 20
1.776311023622047
 10
-6.555602362204724
 20
1.779515748031496
 10
-6.553220472440945
 20
1.782566929133858
 10
-6.550669291338583
 20
1.785464566929134
 10
-6.547948818897638
 20
1.788208661417323
 10
-6.54505905511811
 20
1.790799212598425
 10
-6.541996062992126
 20
1.793232283464567
 10
-6.538763779527559
 20
1.795511811023622
 10
-6.535433070866142
 20
1.797582677165354
 10
-6.532035433070866
 20
1.799377952755906
 10
-6.528578740157481
 20
1.80090157480315
 10
-6.525055118110236
 20
1.802145669291339
 10
-6.521468503937008
 20
1.803114173228346
 10
-6.51782283464567
 20
1.803807086614173
 10
-6.514118110236221
 20
1.804224409448819
 10
-6.510350393700787
 20
1.804362204724409
 10
-6.503244094488189
 20
1.804070866141732
 10
-6.497118110236221
 20
1.803188976377953
 10
-6.49442125984252
 20
1.802531496062992
 10
-6.491968503937008
 20
1.801724409448819
 10
-6.489763779527559
 20
1.800775590551181
 10
-6.487803149606299
 20
1.799677165354331
 10
-6.48286220472441
 20
1.796027559055118
 10
-6.47857874015748
 20
1.791748031496063
 10
-6.474952755905512
 20
1.786838582677165
 10
-6.471988188976378
 20
1.781295275590551
 10
-6.469681102362205
 20
1.775122047244095
 10
-6.468031496062992
 20
1.768322834645669
 10
-6.467043307086614
 20
1.760889763779528
 10
-6.466712598425197
 20
1.752830708661417
 10
-6.466712598425197
 20
1.617913385826772
 10
-6.432393700787402
 20
1.617913385826772
 10
-6.432393700787402
 20
1.752830708661417
 10
-6.432641732283464
 20
1.761090551181102
 10
-6.427007874015748
 20
1.772952755905512
 10
-6.424964566929134
 20
1.776311023622047
 10
-6.422751968503937
 20
1.779515748031496
 10
-6.420370078740158
 20
1.782566929133858
 10
-6.417818897637796
 20
1.785464566929134
 10
-6.415098425196851
 20
1.788208661417323
 10
-6.412208661417323
 20
1.790799212598425
 10
-6.409145669291338
 20
1.793232283464567
 10
-6.405913385826771
 20
1.795511811023622
 10
-6.402582677165355
 20
1.797582677165354
 10
-6.399188976377952
 20
1.799377952755906
 10
-6.395728346456693
 20
1.80090157480315
 10
-6.392204724409448
 20
1.802145669291339
 10
-6.388622047244095
 20
1.803114173228346
 10
-6.384976377952756
 20
1.803807086614173
 10
-6.381267716535433
 20
1.804224409448819
 10
-6.3775
 20
1.804362204724409
 10
-6.370397637795276
 20
1.804070866141732
 10
-6.364267716535433
 20
1.803188976377953
 10
-6.361574803149606
 20
1.802531496062992
 10
-6.359122047244094
 20
1.801724409448819
 10
-6.356917322834645
 20
1.800775590551181
 10
-6.354956692913386
 20
1.799677165354331
 10
-6.350015748031496
 20
1.796027559055118
 10
-6.345732283464567
 20
1.791748031496063
 10
-6.342106299212598
 20
1.786838582677165
 10
-6.33913779527559
 20
1.781295275590551
 10
-6.336830708661418
 20
1.775122047244095
 10
-6.335181102362204
 20
1.768322834645669
 10
-6.334192913385826
 20
1.760889763779528
 10
-6.33386220472441
 20
1.752830708661417
 10
-6.33386220472441
 20
1.617913385826772
  0
LWPOLYLINE
  5
7E
330
1F
100
AcDbEntity
  8
Layer 1
 62
     7
370
     9
100
AcDbPolyline
 90
      155
 70
     1
 43
0.0
 10
-5.959818897637795
 20
1.617913385826772
 10
-5.925496062992126
 20
1.617913385826772
 10
-5.925496062992126
 20
1.752830708661417
 10
-5.925775590551181
 20
1.761787401574803
 10
-5.926614173228346
 20
1.770326771653543
 10
-5.928011811023622
 20
1.77844094488189
 10
-5.929968503937008
 20
1.786133858267717
 10
-5.932484251968504
 20
1.793405511811024
 10
-5.935562992125984
 20
1.800255905511811
 10
-5.939196850393701
 20
1.806685039370079
 10
-5.943393700787402
 20
1.812688976377953
 10
-5.945728346456693
 20
1.81555905511811
 10
-5.948212598425197
 20
1.818283464566929
 10
-5.95084251968504
 20
1.820862204724409
 10
-5.953618110236221
 20
1.823299212598425
 10
-5.95653937007874
 20
1.825590551181102
 10
-5.959606299212599
 20
1.827732283464567
 10
-5.962818897637796
 20
1.829736220472441
 10
-5.966173228346457
 20
1.831590551181102
 10
-5.969748031496063
 20
1.833259842519685
 10
-5.97359842519685
 20
1.834708661417323
 10
-5.977720472440945
 20
1.835929133858268
 10
-5.982122047244094
 20
1.836929133858268
 10
-5.986795275590551
 20
1.837700787401575
 10
-5.991748031496063
 20
1.838255905511811
 10
-5.996976377952756
 20
1.838586614173228
 10
-6.002484251968504
 20
1.838696850393701
 10
-6.008031496062992
 20
1.838503937007874
 10
-6.013397637795276
 20
1.837929133858268
 10
-6.018594488188977
 20
1.836972440944882
 10
-6.023610236220472
 20
1.835629921259843
 10
-6.028452755905512
 20
1.833905511811024
 10
-6.03311811023622
 20
1.831799212598425
 10
-6.037606299212598
 20
1.829311023622047
 10
-6.041921259842519
 20
1.826437007874016
 10
-6.045673228346456
 20
1.823566929133858
 10
-6.049251968503937
 20
1.820488188976378
 10
-6.052661417322835
 20
1.817196850393701
 10
-6.05590157480315
 20
1.813700787401575
 10
-6.058972440944882
 20
1.809996062992126
 10
-6.061877952755905
 20
1.806086614173228
 10
-6.064610236220473
 20
1.801968503937008
 10
-6.06717716535433
 20
1.797649606299213
 10
-6.076244094488189
 20
1.812688976377953
 10
-6.078590551181103
 20
1.81555905511811
 10
-6.08107874015748
 20
1.818283464566929
 10
-6.083708661417323
 20
1.820862204724409
 10
-6.08648031496063
 20
1.823299212598425
 10
-6.089397637795275
 20
1.825590551181102
 10
-6.09246062992126
 20
1.827732283464567
 10
-6.095669291338583
 20
1.829736220472441
 10
-6.09901968503937
 20
1.831590551181102
 10
-6.102594488188976
 20
1.833259842519685
 10
-6.106444881889764
 20
1.834708661417323
 10
-6.110570866141733
 20
1.835929133858268
 10
-6.114968503937008
 20
1.836929133858268
 10
-6.119645669291339
 20
1.837700787401575
 10
-6.124598425196851
 20
1.838255905511811
 10
-6.129826771653543
 20
1.838586614173228
 10
-6.135334645669292
 20
1.838696850393701
 10
-6.140881889763779
 20
1.838503937007874
 10
-6.146248031496063
 20
1.837929133858268
 10
-6.15144094488189
 20
1.836972440944882
 10
-6.15646062992126
 20
1.835629921259843
 10
-6.161299212598426
 20
1.833905511811024
 10
-6.165964566929134
 20
1.831799212598425
 10
-6.170456692913386
 20
1.829311023622047
 10
-6.174771653543307
 20
1.826437007874016
 10
-6.178338582677165
 20
1.823700787401575
 10
-6.181751968503937
 20
1.820783464566929
 10
-6.185015748031496
 20
1.817681102362205
 10
-6.188129921259843
 20
1.814393700787402
 10
-6.191090551181103
 20
1.81092125984252
 10
-6.193893700787402
 20
1.807259842519685
 10
-6.196543307086614
 20
1.803413385826772
 10
-6.19903937007874
 20
1.799374015748032
 10
-6.19903937007874
 20
1.833799212598425
 10
-6.233342519685039
 20
1.833799212598425
 10
-6.233342519685039
 20
1.617913385826772
 10
-6.19903937007874
 20
1.617913385826772
 10
-6.19903937007874
 20
1.728370078740157
 10
-6.198248031496063
 20
1.734807086614173
 10
-6.197212598425197
 20
1.740996062992126
 10
-6.195929133858268
 20
1.746933070866142
 10
-6.194397637795276
 20
1.752625984251968
 10
-6.192622047244095
 20
1.758074803149606
 10
-6.190594488188976
 20
1.763275590551181
 10
-6.188326771653544
 20
1.768236220472441
 10
-6.185811023622048
 20
1.772952755905512
 10
-6.183767716535433
 20
1.776311023622047
 10
-6.181555118110237
 20
1.779515748031496
 10
-6.179169291338583
 20
1.782566929133858
 10
-6.176618110236221
 20
1.785464566929134
 10
-6.173897637795275
 20
1.788208661417323
 10
-6.171007874015748
 20
1.790799212598425
 10
-6.167948818897638
 20
1.793232283464567
 10
-6.164720472440945
 20
1.795511811023622
 10
-6.16138188976378
 20
1.797582677165354
 10
-6.157984251968504
 20
1.799377952755906
 10
-6.15451968503937
 20
1.80090157480315
 10
-6.150996062992126
 20
1.802145669291339
 10
-6.147409448818897
 20
1.803114173228346
 10
-6.143759842519685
 20
1.803807086614173
 10
-6.140055118110237
 20
1.804224409448819
 10
-6.136287401574803
 20
1.804362204724409
 10
-6.129185039370078
 20
1.804070866141732
 10
-6.123062992125984
 20
1.803188976377953
 10
-6.120370078740158
 20
1.802531496062992
 10
-6.11792125984252
 20
1.801724409448819
 10
-6.115720472440945
 20
1.800775590551181
 10
-6.113759842519685
 20
1.799677165354331
 10
-6.108811023622048
 20
1.796027559055118
 10
-6.104527559055118
 20
1.791748031496063
 10
-6.100901574803149
 20
1.786838582677165
 10
-6.097933070866142
 20
1.781295275590551
 10
-6.095629921259842
 20
1.775122047244095
 10
-6.09398031496063
 20
1.768322834645669
 10
-6.092996062992126
 20
1.760889763779528
 10
-6.092665354330709
 20
1.752830708661417
 10
-6.092665354330709
 20
1.617913385826772
 10
-6.058346456692913
 20
1.617913385826772
 10
-6.058346456692913
 20
1.752830708661417
 10
-6.05859842519685
 20
1.761090551181102
 10
-6.05296062992126
 20
1.772952755905512
 10
-6.050917322834645
 20
1.776311023622047
 10
-6.048704724409449
 20
1.779515748031496
 10
-6.046318897637796
 20
1.782566929133858
 10
-6.043767716535433
 20
1.785464566929134
 10
-6.041047244094488
 20
1.788208661417323
 10
-6.03815748031496
 20
1.790799212598425
 10
-6.035098425196851
 20
1.793232283464567
 10
-6.031870078740157
 20
1.795511811023622
 10
-6.028531496062993
 20
1.797582677165354
 10
-6.025133858267717
 20
1.799377952755906
 10
-6.021669291338583
 20
1.80090157480315
 10
-6.018145669291338
 20
1.802145669291339
 10
-6.01455905511811
 20
1.803114173228346
 10
-6.010909448818897
 20
1.803807086614173
 10
-6.007204724409449
 20
1.804224409448819
 10
-6.003437007874016
 20
1.804362204724409
 10
-5.996334645669291
 20
1.804070866141732
 10
-5.990212598425197
 20
1.803188976377953
 10
-5.98751968503937
 20
1.802531496062992
 10
-5.985074803149606
 20
1.801724409448819
 10
-5.982870078740158
 20
1.800775590551181
 10
-5.980909448818898
 20
1.799677165354331
 10
-5.97596062992126
 20
1.796027559055118
 10
-5.971677165354331
 20
1.791748031496063
 10
-5.968051181102362
 20
1.786838582677165
 10
-5.965086614173228
 20
1.781295275590551
 10
-5.962779527559055
 20
1.775122047244095
 10
-5.961133858267717
 20
1.768322834645669
 10
-5.960149606299213
 20
1.760889763779528
 10
-5.959818897637795
 20
1.752830708661417
 10
-5.959818897637795
 20
1.617913385826772
  0
LWPOLYLINE
  5
7F
330
1F
100
AcDbEntity
  8
Layer 1
 62
     7
370
    18
100
AcDbPolyline
 90
        4
 70
     1
 43
0.0
 10
-7.851492125984252
 20
6.91903937007874
 10
-7.882125984251968
 20
6.920413385826771
 10
-7.866885826771654
 20
6.893803149606299
 10
-7.851492125984252
 20
6.91903937007874
  0
LWPOLYLINE
  5
80
330
1F
100
AcDbEntity
  8
Layer 1
 62
     7
370
    18
100
AcDbPolyline
 90
        4
 70
     1
 43
0.0
 10
-6.716724409448819
 20
6.226822834645669
 10
-6.701484251968504
 20
6.20021653543307
 10
-6.732118110236221
 20
6.201590551181102
 10
-6.716724409448819
 20
6.226822834645669
  0
LWPOLYLINE
  5
81
330
1F
100
AcDbEntity
  8
Layer 1
 62
     7
370
    18
100
AcDbPolyline
 90
        2
 70
     0
 43
0.0
 10
-7.890594488188976
 20
6.923732283464567
 10
-6.694661417322835
 20
6.194208661417322
  0
LWPOLYLINE
  5
82
330
1F
100
AcDbEntity
  8
Layer 1
 62
     7
370
     9
100
AcDbPolyline
 90
        7
 70
     1
 43
0.0
 10
-6.972236220472441
 20
6.923744094488189
 10
-6.814594488188976
 20
7.280988188976378
 10
-7.039728346456693
 20
7.280988188976378
 10
-7.039728346456693
 20
7.244051181102362
 10
-6.872055118110236
 20
7.244051181102362
 10
-7.013358267716535
 20
6.923744094488189
 10
-6.972236220472441
 20
6.923744094488189
  0
LWPOLYLINE
  5
83
330
1F
100
AcDbEntity
  8
Layer 1
 62
     7
370
     9
100
AcDbPolyline
 90
       87
 70
     1
 43
0.0
 10
-6.778212598425196
 20
6.923744094488189
 10
-6.525688976377952
 20
6.923744094488189
 10
-6.525688976377952
 20
6.960685039370079
 10
-6.689122047244094
 20
6.960685039370079
 10
-6.564173228346457
 20
7.084669291338582
 10
-6.55601968503937
 20
7.093602362204725
 10
-6.548948818897638
 20
7.102976377952756
 10
-6.542968503937008
 20
7.112799212598425
 10
-6.538070866141732
 20
7.123062992125984
 10
-6.534263779527559
 20
7.133775590551181
 10
-6.531543307086614
 20
7.144929133858268
 10
-6.529909448818898
 20
7.156531496062992
 10
-6.529366141732283
 20
7.16857874015748
 10
-6.52992125984252
 20
7.180897637795276
 10
-6.531590551181102
 20
7.192724409448819
 10
-6.534370078740158
 20
7.204055118110237
 10
-6.538263779527559
 20
7.214893700787401
 10
-6.543271653543307
 20
7.225236220472441
 10
-6.549389763779527
 20
7.235078740157481
 10
-6.55661811023622
 20
7.244429133858268
 10
-6.56496062992126
 20
7.253279527559055
 10
-6.574228346456693
 20
7.261507874015748
 10
-6.583905511811023
 20
7.268633858267717
 10
-6.594
 20
7.274665354330708
 10
-6.604503937007874
 20
7.27959842519685
 10
-6.615421259842519
 20
7.283433070866142
 10
-6.626751968503937
 20
7.286173228346457
 10
-6.6385
 20
7.287818897637795
 10
-6.650657480314961
 20
7.288366141732284
 10
-6.663271653543307
 20
7.287791338582677
 10
-6.675417322834646
 20
7.28605905511811
 10
-6.687094488188976
 20
7.28317716535433
 10
-6.698299212598426
 20
7.279137795275591
 10
-6.709031496062992
 20
7.273944881889764
 10
-6.719299212598425
 20
7.267594488188976
 10
-6.729090551181103
 20
7.260090551181102
 10
-6.738413385826772
 20
7.251429133858267
 10
-6.746724409448819
 20
7.242114173228346
 10
-6.753854330708662
 20
7.232314960629921
 10
-6.7598031496063
 20
7.222027559055118
 10
-6.76457874015748
 20
7.211255905511811
 10
-6.768173228346456
 20
7.2
 10
-6.770590551181102
 20
7.188251968503937
 10
-6.771830708661417
 20
7.176023622047244
 10
-6.771893700787402
 20
7.163303149606299
 10
-6.734464566929134
 20
7.163303149606299
 10
-6.734779527559055
 20
7.171555118110236
 10
-6.734208661417322
 20
7.179618110236221
 10
-6.732740157480315
 20
7.187488188976378
 10
-6.730385826771654
 20
7.195173228346457
 10
-6.72713779527559
 20
7.202661417322835
 10
-6.723
 20
7.20996062992126
 10
-6.717968503937008
 20
7.217070866141732
 10
-6.712047244094488
 20
7.223984251968504
 10
-6.705724409448819
 20
7.230173228346457
 10
-6.699070866141732
 20
7.23553937007874
 10
-6.692086614173228
 20
7.240078740157481
 10
-6.684771653543307
 20
7.243791338582677
 10
-6.677129921259843
 20
7.246677165354331
 10
-6.669153543307087
 20
7.248740157480315
 10
-6.660850393700787
 20
7.249976377952756
 10
-6.65221653543307
 20
7.250389763779528
 10
-6.643748031496063
 20
7.25001968503937
 10
-6.63559842519685
 20
7.24890157480315
 10
-6.627767716535433
 20
7.247043307086614
 10
-6.620259842519685
 20
7.244444881889764
 10
-6.613070866141732
 20
7.241102362204725
 10
-6.606204724409449
 20
7.237015748031496
 10
-6.599657480314961
 20
7.232192913385827
 10
-6.593433070866141
 20
7.226625984251968
 10
-6.587688976377953
 20
7.22048031496063
 10
-6.582712598425197
 20
7.214031496062992
 10
-6.578496062992126
 20
7.207287401574803
 10
-6.575047244094488
 20
7.200248031496063
 10
-6.572366141732283
 20
7.192909448818898
 10
-6.570448818897638
 20
7.185275590551181
 10
-6.569295275590552
 20
7.177342519685039
 10
-6.568913385826772
 20
7.16911811023622
 10
-6.569283464566929
 20
7.160708661417323
 10
-6.570393700787402
 20
7.152625984251968
 10
-6.572248031496063
 20
7.144874015748032
 10
-6.574842519685039
 20
7.137448818897638
 10
-6.578181102362205
 20
7.130358267716535
 10
-6.582263779527559
 20
7.12359842519685
 10
-6.587090551181102
 20
7.117169291338583
 10
-6.592661417322835
 20
7.111070866141732
 10
-6.778212598425196
 20
6.923744094488189
  0
LWPOLYLINE
  5
84
330
1F
100
AcDbEntity
  8
Layer 1
 62
     7
370
     9
100
AcDbPolyline
 90
      155
 70
     1
 43
0.0
 10
-6.153437007874015
 20
6.9248031496063
 10
-6.116531496062992
 20
6.9248031496063
 10
-6.116531496062992
 20
7.069917322834645
 10
-6.116830708661418
 20
7.079551181102362
 10
-6.117736220472441
 20
7.088732283464567
 10
-6.119240157480315
 20
7.09746062992126
 10
-6.121346456692914
 20
7.105732283464567
 10
-6.124051181102362
 20
7.113551181102363
 10
-6.127358267716535
 20
7.120917322834646
 10
-6.131263779527559
 20
7.127826771653544
 10
-6.135771653543307
 20
7.134279527559055
 10
-6.138299212598425
 20
7.137366141732284
 10
-6.14098031496063
 20
7.140295275590551
 10
-6.143814960629921
 20
7.143070866141732
 10
-6.146803149606299
 20
7.145692913385827
 10
-6.149944881889764
 20
7.148157480314961
 10
-6.153240157480315
 20
7.150464566929134
 10
-6.156688976377953
 20
7.152618110236221
 10
-6.160291338582677
 20
7.154614173228347
 10
-6.164133858267716
 20
7.156405511811023
 10
-6.168275590551181
 20
7.15796062992126
 10
-6.172704724409448
 20
7.159275590551181
 10
-6.177433070866142
 20
7.160350393700788
 10
-6.182456692913386
 20
7.161185039370078
 10
-6.187775590551182
 20
7.161783464566929
 10
-6.193389763779527
 20
7.162141732283464
 10
-6.199299212598425
 20
7.162259842519685
 10
-6.205271653543307
 20
7.162055118110236
 10
-6.211051181102362
 20
7.161437007874015
 10
-6.216645669291339
 20
7.160405511811024
 10
-6.222047244094489
 20
7.15896062992126
 10
-6.227263779527559
 20
7.157106299212598
 10
-6.232287401574803
 20
7.154838582677165
 10
-6.237122047244094
 20
7.152161417322835
 10
-6.241767716535433
 20
7.149070866141733
 10
-6.245791338582677
 20
7.145984251968504
 10
-6.24963779527559
 20
7.142669291338582
 10
-6.2533031496063
 20
7.139129921259842
 10
-6.256787401574803
 20
7.135366141732283
 10
-6.260090551181102
 20
7.131381889763779
 10
-6.263212598425197
 20
7.127177165354331
 10
-6.266153543307087
 20
7.122751968503937
 10
-6.268909448818897
 20
7.118110236220472
 10
-6.278673228346457
 20
7.134279527559055
 10
-6.281188976377953
 20
7.137366141732284
 10
-6.283862204724409
 20
7.140295275590551
 10
-6.286688976377953
 20
7.143070866141732
 10
-6.28967716535433
 20
7.145692913385827
 10
-6.292818897637796
 20
7.148157480314961
 10
-6.29611811023622
 20
7.150464566929134
 10
-6.299574803149606
 20
7.152618110236221
 10
-6.303192913385827
 20
7.154614173228347
 10
-6.307023622047244
 20
7.156405511811023
 10
-6.311157480314961
 20
7.15796062992126
 10
-6.315590551181103
 20
7.159275590551181
 10
-6.320322834645669
 20
7.160350393700788
 10
-6.325350393700788
 20
7.161185039370078
 10
-6.330673228346456
 20
7.161783464566929
 10
-6.336291338582678
 20
7.162141732283464
 10
-6.342200787401575
 20
7.162259842519685
 10
-6.348169291338583
 20
7.162055118110236
 10
-6.353952755905512
 20
7.161437007874015
 10
-6.35953937007874
 20
7.160405511811024
 10
-6.36494094488189
 20
7.15896062992126
 10
-6.370153543307087
 20
7.157106299212598
 10
-6.375177165354331
 20
7.154838582677165
 10
-6.380007874015748
 20
7.152161417322835
 10
-6.384653543307087
 20
7.149070866141733
 10
-6.388488188976378
 20
7.146129921259843
 10
-6.392161417322835
 20
7.142996062992126
 10
-6.395669291338582
 20
7.139657480314961
 10
-6.399011811023622
 20
7.136122047244094
 10
-6.402192913385827
 20
7.132385826771653
 10
-6.405204724409449
 20
7.128444881889764
 10
-6.408055118110236
 20
7.124303149606299
 10
-6.410736220472441
 20
7.119956692913386
 10
-6.410736220472441
 20
7.156968503937008
 10
-6.447641732283465
 20
7.156968503937008
 10
-6.447641732283465
 20
6.9248031496063
 10
-6.410736220472441
 20
6.9248031496063
 10
-6.410736220472441
 20
7.043622047244095
 10
-6.409881889763779
 20
7.050547244094489
 10
-6.408763779527559
 20
7.057196850393701
 10
-6.407377952755906
 20
7.06357874015748
 10
-6.405732283464567
 20
7.069696850393701
 10
-6.403818897637795
 20
7.075543307086614
 10
-6.401641732283465
 20
7.081133858267717
 10
-6.399200787401575
 20
7.08646062992126
 10
-6.3965
 20
7.091527559055118
 10
-6.3943031496063
 20
7.095141732283465
 10
-6.39192125984252
 20
7.098590551181102
 10
-6.389362204724409
 20
7.101874015748032
 10
-6.386618110236221
 20
7.104996062992126
 10
-6.383692913385826
 20
7.107948818897638
 10
-6.380586614173228
 20
7.110736220472441
 10
-6.377299212598425
 20
7.113358267716535
 10
-6.373830708661417
 20
7.115811023622047
 10
-6.370236220472441
 20
7.118039370078741
 10
-6.366578740157481
 20
7.119968503937008
 10
-6.362854330708662
 20
7.121606299212599
 10
-6.359066929133858
 20
7.12294094488189
 10
-6.355212598425197
 20
7.123984251968504
 10
-6.351287401574803
 20
7.124728346456693
 10
-6.347299212598426
 20
7.125173228346457
 10
-6.343240157480315
 20
7.12532283464567
 10
-6.335606299212598
 20
7.125007874015748
 10
-6.329015748031496
 20
7.124066929133858
 10
-6.32611811023622
 20
7.123358267716536
 10
-6.323484251968504
 20
7.1225
 10
-6.321114173228347
 20
7.121484251968504
 10
-6.319007874015748
 20
7.120314960629921
 10
-6.313688976377953
 20
7.116377952755905
 10
-6.309082677165354
 20
7.111763779527559
 10
-6.305185039370079
 20
7.106476377952756
 10
-6.302
 20
7.100515748031496
 10
-6.299523622047244
 20
7.093877952755905
 10
-6.297751968503937
 20
7.086566929133858
 10
-6.296692913385827
 20
7.07857874015748
 10
-6.296338582677166
 20
7.069917322834645
 10
-6.296338582677166
 20
6.9248031496063
 10
-6.259413385826772
 20
6.9248031496063
 10
-6.259413385826772
 20
7.069917322834645
 10
-6.259685039370079
 20
7.0788031496063
 10
-6.25361811023622
 20
7.091527559055118
 10
-6.25142125984252
 20
7.095141732283465
 10
-6.249043307086614
 20
7.098590551181102
 10
-6.246484251968504
 20
7.101874015748032
 10
-6.243744094488189
 20
7.104996062992126
 10
-6.24082283464567
 20
7.107948818897638
 10
-6.237720472440945
 20
7.110736220472441
 10
-6.234433070866142
 20
7.113358267716535
 10
-6.230964566929134
 20
7.115811023622047
 10
-6.227370078740157
 20
7.118039370078741
 10
-6.223708661417323
 20
7.119968503937008
 10
-6.21998031496063
 20
7.121606299212599
 10
-6.216188976377953
 20
7.12294094488189
 10
-6.212330708661417
 20
7.123984251968504
 10
-6.208409448818897
 20
7.124728346456693
 10
-6.204425196850393
 20
7.125173228346457
 10
-6.200377952755906
 20
7.12532283464567
 10
-6.192732283464567
 20
7.125007874015748
 10
-6.186137795275591
 20
7.124066929133858
 10
-6.183236220472441
 20
7.123358267716536
 10
-6.180602362204724
 20
7.1225
 10
-6.178232283464567
 20
7.121484251968504
 10
-6.176125984251969
 20
7.120314960629921
 10
-6.170811023622047
 20
7.116377952755905
 10
-6.166204724409448
 20
7.111763779527559
 10
-6.162303149606299
 20
7.106476377952756
 10
-6.159114173228346
 20
7.100515748031496
 10
-6.156629921259842
 20
7.093877952755905
 10
-6.154858267716535
 20
7.086566929133858
 10
-6.153791338582677
 20
7.07857874015748
 10
-6.153437007874015
 20
7.069917322834645
 10
-6.153437007874015
 20
6.9248031496063
  0
LWPOLYLINE
  5
85
330
1F
100
AcDbEntity
  8
Layer 1
 62
     7
370
     9
100
AcDbPolyline
 90
      155
 70
     1
 43
0.0
 10
-5.751153543307087
 20
6.9248031496063
 10
-5.714248031496063
 20
6.9248031496063
 10
-5.714248031496063
 20
7.069917322834645
 10
-5.714547244094488
 20
7.079551181102362
 10
-5.715452755905511
 20
7.088732283464567
 10
-5.716956692913386
 20
7.09746062992126
 10
-5.719062992125984
 20
7.105732283464567
 10
-5.721771653543307
 20
7.113551181102363
 10
-5.72507874015748
 20
7.120917322834646
 10
-5.728984251968504
 20
7.127826771653544
 10
-5.733492125984252
 20
7.134279527559055
 10
-5.73601968503937
 20
7.137366141732284
 10
-5.7386968503937
 20
7.140295275590551
 10
-5.741531496062992
 20
7.143070866141732
 10
-5.74451968503937
 20
7.145692913385827
 10
-5.747661417322835
 20
7.148157480314961
 10
-5.750956692913386
 20
7.150464566929134
 10
-5.754405511811024
 20
7.152618110236221
 10
-5.758011811023622
 20
7.154614173228347
 10
-5.761854330708662
 20
7.156405511811023
 10
-5.765992125984252
 20
7.15796062992126
 10
-5.770425196850394
 20
7.159275590551181
 10
-5.775153543307087
 20
7.160350393700788
 10
-5.78017716535433
 20
7.161185039370078
 10
-5.7855
 20
7.161783464566929
 10
-5.79111811023622
 20
7.162141732283464
 10
-5.797035433070866
 20
7.162259842519685
 10
-5.803
 20
7.162055118110236
 10
-5.808775590551181
 20
7.161437007874015
 10
-5.814366141732283
 20
7.160405511811024
 10
-5.819767716535433
 20
7.15896062992126
 10
-5.824984251968504
 20
7.157106299212598
 10
-5.830007874015748
 20
7.154838582677165
 10
-5.834842519685039
 20
7.152161417322835
 10
-5.839488188976378
 20
7.149070866141733
 10
-5.843511811023622
 20
7.145984251968504
 10
-5.847358267716535
 20
7.142669291338582
 10
-5.85101968503937
 20
7.139129921259842
 10
-5.854507874015748
 20
7.135366141732283
 10
-5.857811023622047
 20
7.131381889763779
 10
-5.860933070866142
 20
7.127177165354331
 10
-5.863874015748031
 20
7.122751968503937
 10
-5.866629921259842
 20
7.118110236220472
 10
-5.876393700787402
 20
7.134279527559055
 10
-5.878909448818898
 20
7.137366141732284
 10
-5.881582677165355
 20
7.140295275590551
 10
-5.884413385826772
 20
7.143070866141732
 10
-5.88740157480315
 20
7.145692913385827
 10
-5.890543307086614
 20
7.148157480314961
 10
-5.893846456692914
 20
7.150464566929134
 10
-5.897303149606299
 20
7.152618110236221
 10
-5.900913385826771
 20
7.154614173228347
 10
-5.904744094488189
 20
7.156405511811023
 10
-5.908877952755906
 20
7.15796062992126
 10
-5.913311023622048
 20
7.159275590551181
 10
-5.918043307086614
 20
7.160350393700788
 10
-5.923070866141733
 20
7.161185039370078
 10
-5.928397637795276
 20
7.161783464566929
 10
-5.93401968503937
 20
7.162141732283464
 10
-5.939937007874016
 20
7.162259842519685
 10
-5.945901574803149
 20
7.162055118110236
 10
-5.95167716535433
 20
7.161437007874015
 10
-5.957263779527559
 20
7.160405511811024
 10
-5.962661417322835
 20
7.15896062992126
 10
-5.967870078740157
 20
7.157106299212598
 10
-5.972893700787401
 20
7.154838582677165
 10
-5.977724409448819
 20
7.152161417322835
 10
-5.982370078740158
 20
7.149070866141733
 10
-5.986204724409449
 20
7.146129921259843
 10
-5.989877952755905
 20
7.142996062992126
 10
-5.993385826771654
 20
7.139657480314961
 10
-5.996732283464567
 20
7.136122047244094
 10
-5.999909448818897
 20
7.132385826771653
 10
-6.002925196850394
 20
7.128444881889764
 10
-6.005771653543307
 20
7.124303149606299
 10
-6.008452755905512
 20
7.119956692913386
 10
-6.008452755905512
 20
7.156968503937008
 10
-6.045358267716535
 20
7.156968503937008
 10
-6.045358267716535
 20
6.9248031496063
 10
-6.008452755905512
 20
6.9248031496063
 10
-6.008452755905512
 20
7.043622047244095
 10
-6.007598425196851
 20
7.050547244094489
 10
-6.006484251968504
 20
7.057196850393701
 10
-6.005102362204725
 20
7.06357874015748
 10
-6.003456692913386
 20
7.069696850393701
 10
-6.001543307086614
 20
7.075543307086614
 10
-5.999366141732284
 20
7.081133858267717
 10
-5.996925196850394
 20
7.08646062992126
 10
-5.994216535433071
 20
7.091527559055118
 10
-5.992023622047244
 20
7.095141732283465
 10
-5.989649606299213
 20
7.098590551181102
 10
-5.987086614173228
 20
7.101874015748032
 10
-5.98434251968504
 20
7.104996062992126
 10
-5.981417322834646
 20
7.107948818897638
 10
-5.978307086614174
 20
7.110736220472441
 10
-5.97501968503937
 20
7.113358267716535
 10
-5.971547244094488
 20
7.115811023622047
 10
-5.96796062992126
 20
7.118039370078741
 10
-5.964307086614173
 20
7.119968503937008
 10
-5.960586614173228
 20
7.121606299212599
 10
-5.956799212598425
 20
7.12294094488189
 10
-5.952944881889763
 20
7.123984251968504
 10
-5.949023622047244
 20
7.124728346456693
 10
-5.945035433070866
 20
7.125173228346457
 10
-5.940976377952756
 20
7.12532283464567
 10
-5.933330708661417
 20
7.125007874015748
 10
-5.926740157480315
 20
7.124066929133858
 10
-5.923838582677165
 20
7.123358267716536
 10
-5.921204724409449
 20
7.1225
 10
-5.918834645669292
 20
7.121484251968504
 10
-5.916728346456693
 20
7.120314960629921
 10
-5.911409448818898
 20
7.116377952755905
 10
-5.906799212598425
 20
7.111763779527559
 10
-5.902905511811023
 20
7.106476377952756
 10
-5.899716535433071
 20
7.100515748031496
 10
-5.897240157480315
 20
7.093877952755905
 10
-5.895468503937008
 20
7.086566929133858
 10
-5.894409448818898
 20
7.07857874015748
 10
-5.894055118110236
 20
7.069917322834645
 10
-5.894055118110236
 20
6.9248031496063
 10
-5.857133858267717
 20
6.9248031496063
 10
-5.857133858267717
 20
7.069917322834645
 10
-5.857421259842519
 20
7.0788031496063
 10
-5.851354330708661
 20
7.091527559055118
 10
-5.849149606299212
 20
7.095141732283465
 10
-5.846767716535433
 20
7.098590551181102
 10
-5.844204724409448
 20
7.101874015748032
 10
-5.841464566929134
 20
7.104996062992126
 10
-5.838543307086614
 20
7.107948818897638
 10
-5.835437007874016
 20
7.110736220472441
 10
-5.832149606299213
 20
7.113358267716535
 10
-5.828681102362204
 20
7.115811023622047
 10
-5.825086614173228
 20
7.118039370078741
 10
-5.821429133858268
 20
7.119968503937008
 10
-5.817700787401574
 20
7.121606299212599
 10
-5.813913385826772
 20
7.12294094488189
 10
-5.810055118110236
 20
7.123984251968504
 10
-5.806133858267716
 20
7.124728346456693
 10
-5.802145669291338
 20
7.125173228346457
 10
-5.798094488188976
 20
7.12532283464567
 10
-5.790448818897638
 20
7.125007874015748
 10
-5.783858267716536
 20
7.124066929133858
 10
-5.780960629921259
 20
7.123358267716536
 10
-5.778326771653544
 20
7.1225
 10
-5.77596062992126
 20
7.121484251968504
 10
-5.773862204724409
 20
7.120314960629921
 10
-5.768543307086614
 20
7.116377952755905
 10
-5.763929133858268
 20
7.111763779527559
 10
-5.760027559055118
 20
7.106476377952756
 10
-5.756834645669291
 20
7.100515748031496
 10
-5.754346456692914
 20
7.093877952755905
 10
-5.752574803149606
 20
7.086566929133858
 10
-5.751507874015748
 20
7.07857874015748
 10
-5.751153543307087
 20
7.069917322834645
 10
-5.751153543307087
 20
6.9248031496063
  0
ENDSEC
  0
SECTION
  2
OBJECTS
  0
DICTIONARY
  5
C
330
0
100
AcDbDictionary
281
     1
  3
ACAD_DETAILVIEWSTYLE
350
8D
  3
ACAD_GROUP
350
D
  3
ACAD_LAYOUT
350
1A
  3
ACAD_MATERIAL
350
43
  3
ACAD_MLEADERSTYLE
350
5B
  3
ACAD_MLINESTYLE
350
17
  3
ACAD_PLOTSETTINGS
350
19
  3
ACAD_PLOTSTYLENAME
350
E
  3
ACAD_SCALELIST
350
47
  3
ACAD_SECTIONVIEWSTYLE
350
8E
  3
ACAD_TABLESTYLE
350
59
  3
ACAD_VISUALSTYLE
350
2A
  3
ACDB_RECOMPOSE_DATA
350
8A
  3
AcDbVariableDictionary
350
86
  0
SUN
  5
5D
330
29
100
AcDbSun
 90
        1
290
     0
 63
     7
421
 16777215
 40
1.0
291
     1
 91
  2455826
 92
 54000000
292
     0
 70
     2
 71
   256
280
     1
  0
DICTIONARY
  5
8D
102
{ACAD_REACTORS
330
C
102
}
330
C
100
AcDbDictionary
281
     1
  0
DICTIONARY
  5
D
102
{ACAD_REACTORS
330
C
102
}
330
C
100
AcDbDictionary
281
     1
  0
DICTIONARY
  5
1A
102
{ACAD_REACTORS
330
C
102
}
330
C
100
AcDbDictionary
281
     1
  3
Layout1
350
1E
  3
Layout2
350
26
  3
Model
350
22
  0
DICTIONARY
  5
43
102
{ACAD_REACTORS
330
C
102
}
330
C
100
AcDbDictionary
281
     1
  3
ByBlock
350
45
  3
ByLayer
350
44
  3
Global
350
46
  0
DICTIONARY
  5
5B
102
{ACAD_REACTORS
330
C
102
}
330
C
100
AcDbDictionary
281
     1
  3
Standard
350
5C
  0
DICTIONARY
  5
17
102
{ACAD_REACTORS
330
C
102
}
330
C
100
AcDbDictionary
281
     1
  3
Standard
350
18
  0
DICTIONARY
  5
19
102
{ACAD_REACTORS
330
C
102
}
330
C
100
AcDbDictionary
281
     1
  0
ACDBDICTIONARYWDFLT
  5
E
102
{ACAD_REACTORS
330
C
102
}
330
C
100
AcDbDictionary
281
     1
  3
Normal
350
F
100
AcDbDictionaryWithDefault
340
F
  0
DICTIONARY
  5
47
102
{ACAD_REACTORS
330
C
102
}
330
C
100
AcDbDictionary
281
     1
  3
A0
350
48
  3
A1
350
49
  3
A2
350
4A
  3
A3
350
4B
  3
A4
350
4C
  3
A5
350
4D
  3
A6
350
4E
  3
A7
350
4F
  3
A8
350
50
  3
A9
350
51
  3
B1
350
52
  3
B2
350
53
  3
B3
350
54
  3
B4
350
55
  3
B5
350
56
  3
B6
350
57
  3
B7
350
58
  0
DICTIONARY
  5
8E
102
{ACAD_REACTORS
330
C
102
}
330
C
100
AcDbDictionary
281
     1
  0
DICTIONARY
  5
59
102
{ACAD_REACTORS
330
C
102
}
330
C
100
AcDbDictionary
281
     1
  3
Standard
350
5A
  0
DICTIONARY
  5
2A
102
{ACAD_REACTORS
330
C
102
}
330
C
100
AcDbDictionary
281
     1
  3
2dWireframe
350
2F
  3
Basic
350
32
  3
Brighten
350
36
  3
ColorChange
350
3A
  3
Conceptual
350
34
  3
Dim
350
35
  3
EdgeColorOff
350
3D
  3
Facepattern
350
39
  3
Flat
350
2B
  3
FlatWithEdges
350
2C
  3
Gouraud
350
2D
  3
GouraudWithEdges
350
2E
  3
Hidden
350
31
  3
JitterOff
350
3B
  3
Linepattern
350
38
  3
OverhangOff
350
3C
  3
Realistic
350
33
  3
Shaded
350
42
  3
Shaded with edges
350
41
  3
Shades of Gray
350
3E
  3
Sketchy
350
3F
  3
Thicken
350
37
  3
Wireframe
350
30
  3
X-Ray
350
40
  0
XRECORD
  5
8A
102
{ACAD_REACTORS
330
C
102
}
330
C
100
AcDbXrecord
280
     1
 90
        1
330
5A
  0
DICTIONARY
  5
86
102
{ACAD_REACTORS
330
C
102
}
330
C
100
AcDbDictionary
281
     1
  3
CANNOSCALE
350
87
  3
CMLEADERSTYLE
350
8C
  3
CTABLESTYLE
350
8B
  0
LAYOUT
  5
1E
102
{ACAD_REACTORS
330
1A
102
}
330
1A
100
AcDbPlotSettings
  1

  2
none_device
  4

  6

 40
0.0
 41
0.0
 42
0.0
 43
0.0
 44
0.0
 45
0.0
 46
0.0
 47
0.0
 48
0.0
 49
0.0
140
0.0
141
0.0
142
1.0
143
1.0
 70
   688
 72
     0
 73
     0
 74
     5
  7

 75
    16
 76
     0
 77
     2
 78
   300
147
1.0
148
0.0
149
0.0
100
AcDbLayout
  1
Layout1
 70
     1
 71
     1
 10
0.0
 20
0.0
 11
12.0
 21
9.0
 12
0.0
 22
0.0
 32
0.0
 14
1.000000000000000E+20
 24
1.000000000000000E+20
 34
1.000000000000000E+20
 15
-1.000000000000000E+20
 25
-1.000000000000000E+20
 35
-1.000000000000000E+20
146
0.0
 13
0.0
 23
0.0
 33
0.0
 16
1.0
 26
0.0
 36
0.0
 17
0.0
 27
1.0
 37
0.0
 76
     0
330
1B
  0
LAYOUT
  5
26
102
{ACAD_REACTORS
330
1A
102
}
330
1A
100
AcDbPlotSettings
  1

  2
none_device
  4

  6

 40
0.0
 41
0.0
 42
0.0
 43
0.0
 44
0.0
 45
0.0
 46
0.0
 47
0.0
 48
0.0
 49
0.0
140
0.0
141
0.0
142
1.0
143
1.0
 70
   688
 72
     0
 73
     0
 74
     5
  7

 75
    16
 76
     0
 77
     2
 78
   300
147
1.0
148
0.0
149
0.0
100
AcDbLayout
  1
Layout2
 70
     1
 71
     2
 10
0.0
 20
0.0
 11
0.0
 21
0.0
 12
0.0
 22
0.0
 32
0.0
 14
0.0
 24
0.0
 34
0.0
 15
0.0
 25
0.0
 35
0.0
146
0.0
 13
0.0
 23
0.0
 33
0.0
 16
1.0
 26
0.0
 36
0.0
 17
0.0
 27
1.0
 37
0.0
 76
     0
330
23
  0
LAYOUT
  5
22
102
{ACAD_REACTORS
330
1A
102
}
330
1A
100
AcDbPlotSettings
  1

  2
none_device
  4
Letter_(8.50_x_11.00_Inches)
  6

 40
6.35
 41
6.35
 42
6.35000508
 43
6.35000508
 44
215.9
 45
279.4
 46
0.0
 47
0.0
 48
0.0
 49
0.0
140
0.0
141
0.0
142
1.0
143
1.0
 70
  1712
 72
     0
 73
     0
 74
     0
  7

 75
     0
 76
     0
 77
     2
 78
   300
147
1.0
148
0.0
149
0.0
100
AcDbLayout
  1
Model
 70
     1
 71
     0
 10
0.0
 20
0.0
 11
12.0
 21
9.0
 12
0.0
 22
0.0
 32
0.0
 14
-12.69150393700787
 24
1.209196850393701
 34
0.0
 15
-5.280220472440945
 25
7.77905905511811
 35
0.0
146
0.0
 13
0.0
 23
0.0
 33
0.0
 16
1.0
 26
0.0
 36
0.0
 17
0.0
 27
1.0
 37
0.0
 76
     0
330
1F
331
29
  0
MATERIAL
  5
45
102
{ACAD_REACTORS
330
43
102
}
330
43
100
AcDbMaterial
  1
ByBlock
 72
     1
 94
      127
  0
MATERIAL
  5
44
102
{ACAD_REACTORS
330
43
102
}
330
43
100
AcDbMaterial
  1
ByLayer
 72
     1
 94
      127
  0
MATERIAL
  5
46
102
{ACAD_REACTORS
330
43
102
}
330
43
100
AcDbMaterial
  1
Global
 72
     1
 94
      127
  0
MLEADERSTYLE
  5
5C
102
{ACAD_REACTORS
330
5B
102
}
330
5B
100
AcDbMLeaderStyle
179
     2
170
     2
171
     1
172
     0
 90
        2
 40
0.0
 41
0.0
173
     1
 91
-1056964608
340
14
 92
       -2
290
     1
 42
0.09
291
     1
 43
0.36
  3
Standard
341
0
 44
0.18
300

342
11
174
     1
178
     6
175
     1
176
     0
 93
-1056964608
 45
0.18
292
     0
297
     0
 46
0.18
343
0
 94
-1056964608
 47
1.0
 49
1.0
140
1.0
293
     1
141
0.0
294
     1
177
     0
142
1.0
295
     0
296
     0
143
0.125
271
     0
272
     9
273
     9
298
     0
  0
MLINESTYLE
  5
18
102
{ACAD_REACTORS
330
17
102
}
330
17
100
AcDbMlineStyle
  2
Standard
 70
     0
  3

 62
   256
 51
90.0
 52
90.0
 71
     2
 49
0.5
 62
   256
  6
BYLAYER
 49
-0.5
 62
   256
  6
BYLAYER
  0
ACDBPLACEHOLDER
  5
F
102
{ACAD_REACTORS
330
E
102
}
330
E
  0
SCALE
  5
48
102
{ACAD_REACTORS
330
47
102
}
330
47
100
AcDbScale
 70
     0
300
1:1
140
1.0
141
1.0
290
     1
  0
SCALE
  5
49
102
{ACAD_REACTORS
330
47
102
}
330
47
100
AcDbScale
 70
     0
300
1/128" = 1'-0"
140
0.0078125
141
12.0
290
     0
  0
SCALE
  5
4A
102
{ACAD_REACTORS
330
47
102
}
330
47
100
AcDbScale
 70
     0
300
1/64" = 1'-0"
140
0.015625
141
12.0
290
     0
  0
SCALE
  5
4B
102
{ACAD_REACTORS
330
47
102
}
330
47
100
AcDbScale
 70
     0
300
1/32" = 1'-0"
140
0.03125
141
12.0
290
     0
  0
SCALE
  5
4C
102
{ACAD_REACTORS
330
47
102
}
330
47
100
AcDbScale
 70
     0
300
1/16" = 1'-0"
140
0.0625
141
12.0
290
     0
  0
SCALE
  5
4D
102
{ACAD_REACTORS
330
47
102
}
330
47
100
AcDbScale
 70
     0
300
3/32" = 1'-0"
140
0.09375
141
12.0
290
     0
  0
SCALE
  5
4E
102
{ACAD_REACTORS
330
47
102
}
330
47
100
AcDbScale
 70
     0
300
1/8" = 1'-0"
140
0.125
141
12.0
290
     0
  0
SCALE
  5
4F
102
{ACAD_REACTORS
330
47
102
}
330
47
100
AcDbScale
 70
     0
300
3/16" = 1'-0"
140
0.1875
141
12.0
290
     0
  0
SCALE
  5
50
102
{ACAD_REACTORS
330
47
102
}
330
47
100
AcDbScale
 70
     0
300
1/4" = 1'-0"
140
0.25
141
12.0
290
     0
  0
SCALE
  5
51
102
{ACAD_REACTORS
330
47
102
}
330
47
100
AcDbScale
 70
     0
300
3/8" = 1'-0"
140
0.375
141
12.0
290
     0
  0
SCALE
  5
52
102
{ACAD_REACTORS
330
47
102
}
330
47
100
AcDbScale
 70
     0
300
1/2" = 1'-0"
140
0.5
141
12.0
290
     0
  0
SCALE
  5
53
102
{ACAD_REACTORS
330
47
102
}
330
47
100
AcDbScale
 70
     0
300
3/4" = 1'-0"
140
0.75
141
12.0
290
     0
  0
SCALE
  5
54
102
{ACAD_REACTORS
330
47
102
}
330
47
100
AcDbScale
 70
     0
300
1" = 1'-0"
140
1.0
141
12.0
290
     0
  0
SCALE
  5
55
102
{ACAD_REACTORS
330
47
102
}
330
47
100
AcDbScale
 70
     0
300
1-1/2" = 1'-0"
140
1.5
141
12.0
290
     0
  0
SCALE
  5
56
102
{ACAD_REACTORS
330
47
102
}
330
47
100
AcDbScale
 70
     0
300
3" = 1'-0"
140
3.0
141
12.0
290
     0
  0
SCALE
  5
57
102
{ACAD_REACTORS
330
47
102
}
330
47
100
AcDbScale
 70
     0
300
6" = 1'-0"
140
6.0
141
12.0
290
     0
  0
SCALE
  5
58
102
{ACAD_REACTORS
330
47
102
}
330
47
100
AcDbScale
 70
     0
300
1'-0" = 1'-0"
140
12.0
141
12.0
290
     0
  0
TABLESTYLE
  5
5A
102
{ACAD_REACTORS
330
59
102
}
102
{ACAD_XDICTIONARY
360
88
102
}
330
59
100
AcDbTableStyle
  3
Standard
 70
     0
 71
     0
 40
0.06
 41
0.06
280
     0
281
     0
  7
Standard
140
0.18
170
     2
 62
     0
 63
   257
283
     0
 90
        4
 91
        0
  1

274
    -2
284
     1
 64
     0
275
    -2
285
     1
 65
     0
276
    -2
286
     1
 66
     0
277
    -2
287
     1
 67
     0
278
    -2
288
     1
 68
     0
279
    -2
289
     1
 69
     0
  7
Standard
140
0.25
170
     5
 62
     0
 63
   257
283
     0
 90
        4
 91
        0
  1

274
    -2
284
     1
 64
     0
275
    -2
285
     1
 65
     0
276
    -2
286
     1
 66
     0
277
    -2
287
     1
 67
     0
278
    -2
288
     1
 68
     0
279
    -2
289
     1
 69
     0
  7
Standard
140
0.18
170
     5
 62
     0
 63
   257
283
     0
 90
        4
 91
        0
  1

274
    -2
284
     1
 64
     0
275
    -2
285
     1
 65
     0
276
    -2
286
     1
 66
     0
277
    -2
287
     1
 67
     0
278
    -2
288
     1
 68
     0
279
    -2
289
     1
 69
     0
  0
VISUALSTYLE
  5
2F
102
{ACAD_REACTORS
330
2A
102
}
330
2A
100
AcDbVisualStyle
  2
2dWireframe
 70
     4
177
     3
291
     0
 70
    58
 90
        0
176
     1
 90
        2
176
     1
 90
        0
176
     1
 90
        0
176
     1
 40
0.6
176
     1
 40
30.0
176
     1
 62
     7
420
 16777215
176
     1
 90
        1
176
     1
 90
        4
176
     1
 62
     7
176
     1
 62
   257
176
     1
 90
        1
176
     1
 90
        1
176
     1
 40
1.0
176
     1
 90
        0
176
     1
 62
   257
176
     1
 40
1.0
176
     1
 90
        1
176
     1
 90
        6
176
     1
 90
        2
176
     1
 62
     7
176
     1
 90
        5
176
     1
 90
        0
176
     1
 90
        0
176
     1
290
     0
176
     1
 90
        1
176
     1
 40
0.0
176
     1
 90
        0
176
     1
290
     1
176
     1
290
     1
176
     1
290
     0
176
     1
290
     0
176
     1
290
     0
176
     1
290
     0
176
     1
290
     0
176
     1
290
     0
176
     1
290
     0
176
     1
 90
       50
176
     1
 40
0.0
176
     1
 40
1.0
176
     1
 90
        0
176
     1
 62
    18
420
        0
176
     1
 90
       50
176
     1
 90
        3
176
     1
 62
     5
420
      255
176
     1
290
     0
176
     1
 90
       50
176
     1
 90
       50
176
     1
 90
       50
176
     1
290
     0
176
     1
 90
       50
176
     1
 62
   256
176
     0
 40
1.0
176
     0
 90
        2
176
     1
  1
strokes_ogs.tif
176
     1
290
     0
176
     1
 40
1.0
176
     1
 40
1.0
176
     1
  0
VISUALSTYLE
  5
32
102
{ACAD_REACTORS
330
2A
102
}
330
2A
100
AcDbVisualStyle
  2
Basic
 70
     7
177
     3
291
     1
 70
    58
 90
        1
176
     1
 90
        0
176
     1
 90
        1
176
     1
 90
        0
176
     1
 40
0.6
176
     1
 40
30.0
176
     1
 62
     7
420
 16777215
176
     1
 90
        0
176
     1
 90
        4
176
     1
 62
     7
176
     1
 62
   257
176
     1
 90
        1
176
     1
 90
        1
176
     1
 40
1.0
176
     1
 90
        8
176
     1
 62
     7
176
     1
 40
1.0
176
     1
 90
        1
176
     1
 90
        6
176
     1
 90
        2
176
     1
 62
     7
176
     1
 90
        5
176
     1
 90
        0
176
     1
 90
        0
176
     1
290
     0
176
     1
 90
        1
176
     1
 40
0.0
176
     1
 90
        0
176
     1
290
     0
176
     1
290
     1
176
     1
290
     1
176
     1
290
     0
176
     1
290
     0
176
     1
290
     0
176
     1
290
     0
176
     1
290
     0
176
     1
290
     0
176
     1
 90
       50
176
     1
 40
0.0
176
     1
 40
1.0
176
     1
 90
        0
176
     1
 62
    18
420
        0
176
     1
 90
       50
176
     1
 90
        3
176
     1
 62
     5
420
      255
176
     1
290
     0
176
     1
 90
       50
176
     1
 90
       50
176
     1
 90
       50
176
     1
290
     0
176
     1
 90
       50
176
     1
 62
   256
176
     0
 40
1.0
176
     0
 90
        2
176
     1
  1
strokes_ogs.tif
176
     1
290
     0
176
     1
 40
1.0
176
     1
 40
1.0
176
     1
  0
VISUALSTYLE
  5
36
102
{ACAD_REACTORS
330
2A
102
}
330
2A
100
AcDbVisualStyle
  2
Brighten
 70
    12
177
     3
291
     1
 70
    58
 90
        2
176
     1
 90
        2
176
     1
 90
        0
176
     1
 90
        0
176
     1
 40
0.6
176
     1
 40
30.0
176
     1
 62
     7
420
 16777215
176
     1
 90
        1
176
     1
 90
        4
176
     1
 62
     7
176
     1
 62
   257
176
     1
 90
        1
176
     1
 90
        1
176
     1
 40
1.0
176
     1
 90
        8
176
     1
 62
     7
176
     1
 40
1.0
176
     1
 90
        1
176
     1
 90
        6
176
     1
 90
        2
176
     1
 62
     7
176
     1
 90
        5
176
     1
 90
        0
176
     1
 90
        0
176
     1
290
     0
176
     1
 90
        1
176
     1
 40
50.0
176
     1
 90
        0
176
     1
290
     0
176
     1
290
     1
176
     1
290
     1
176
     1
290
     0
176
     1
290
     0
176
     1
290
     0
176
     1
290
     0
176
     1
290
     0
176
     1
290
     0
176
     1
 90
       50
176
     1
 40
0.0
176
     1
 40
1.0
176
     1
 90
        0
176
     1
 62
    18
420
        0
176
     1
 90
       50
176
     1
 90
        3
176
     1
 62
     5
420
      255
176
     1
290
     0
176
     1
 90
       50
176
     1
 90
       50
176
     1
 90
       50
176
     1
290
     0
176
     1
 90
       50
176
     1
 62
   256
176
     0
 40
1.0
176
     0
 90
        2
176
     1
  1
strokes_ogs.tif
176
     1
290
     0
176
     1
 40
1.0
176
     1
 40
1.0
176
     1
  0
VISUALSTYLE
  5
3A
102
{ACAD_REACTORS
330
2A
102
}
330
2A
100
AcDbVisualStyle
  2
ColorChange
 70
    16
177
     3
291
     1
 70
    58
 90
        2
176
     1
 90
        2
176
     1
 90
        3
176
     1
 90
        0
176
     1
 40
0.6
176
     1
 40
30.0
176
     1
 62
     8
420
  8421504
176
     1
 90
        1
176
     1
 90
        4
176
     1
 62
     7
176
     1
 62
   257
176
     1
 90
        1
176
     1
 90
        1
176
     1
 40
1.0
176
     1
 90
        8
176
     1
 62
     8
420
  8421504
176
     1
 40
1.0
176
     1
 90
        1
176
     1
 90
        6
176
     1
 90
        2
176
     1
 62
     7
176
     1
 90
        5
176
     1
 90
        0
176
     1
 90
        0
176
     1
290
     0
176
     1
 90
        1
176
     1
 40
0.0
176
     1
 90
        0
176
     1
290
     0
176
     1
290
     1
176
     1
290
     1
176
     1
290
     0
176
     1
290
     0
176
     1
290
     0
176
     1
290
     0
176
     1
290
     0
176
     1
290
     0
176
     1
 90
       50
176
     1
 40
0.0
176
     1
 40
1.0
176
     1
 90
        0
176
     1
 62
    18
420
        0
176
     1
 90
       50
176
     1
 90
        3
176
     1
 62
     5
420
      255
176
     1
290
     0
176
     1
 90
       50
176
     1
 90
       50
176
     1
 90
       50
176
     1
290
     0
176
     1
 90
       50
176
     1
 62
   256
176
     0
 40
1.0
176
     0
 90
        2
176
     1
  1
strokes_ogs.tif
176
     1
290
     0
176
     1
 40
1.0
176
     1
 40
1.0
176
     1
  0
VISUALSTYLE
  5
34
102
{ACAD_REACTORS
330
2A
102
}
330
2A
100
AcDbVisualStyle
  2
Conceptual
 70
     9
177
     3
291
     0
 70
    58
 90
        3
176
     1
 90
        2
176
     1
 90
        0
176
     1
 90
        0
176
     1
 40
0.6
176
     1
 40
30.0
176
     1
 62
     7
420
 16777215
176
     1
 90
        2
176
     1
 90
        2
176
     1
 62
     7
176
     1
 62
   257
176
     1
 90
        1
176
     1
 90
        1
176
     1
 40
179.0
176
     1
 90
        8
176
     1
 62
     7
176
     1
 40
1.0
176
     1
 90
        1
176
     1
 90
        6
176
     1
 90
        2
176
     1
 62
     7
176
     1
 90
        3
176
     1
 90
        0
176
     1
 90
        0
176
     1
290
     0
176
     1
 90
        1
176
     1
 40
0.0
176
     1
 90
        0
176
     1
290
     0
176
     1
290
     1
176
     1
290
     1
176
     1
290
     0
176
     1
290
     0
176
     1
290
     0
176
     1
290
     0
176
     1
290
     0
176
     1
290
     0
176
     1
 90
       50
176
     1
 40
0.0
176
     1
 40
1.0
176
     1
 90
        0
176
     1
 62
    18
420
        0
176
     1
 90
       50
176
     1
 90
        3
176
     1
 62
     5
420
      255
176
     1
290
     0
176
     1
 90
       50
176
     1
 90
       50
176
     1
 90
       50
176
     1
290
     0
176
     1
 90
       50
176
     1
 62
   256
176
     0
 40
1.0
176
     0
 90
        2
176
     1
  1
strokes_ogs.tif
176
     1
290
     0
176
     1
 40
1.0
176
     1
 40
1.0
176
     1
  0
VISUALSTYLE
  5
35
102
{ACAD_REACTORS
330
2A
102
}
330
2A
100
AcDbVisualStyle
  2
Dim
 70
    11
177
     3
291
     1
 70
    58
 90
        2
176
     1
 90
        2
176
     1
 90
        0
176
     1
 90
        0
176
     1
 40
0.6
176
     1
 40
30.0
176
     1
 62
     7
420
 16777215
176
     1
 90
        1
176
     1
 90
        4
176
     1
 62
     7
176
     1
 62
   257
176
     1
 90
        1
176
     1
 90
        1
176
     1
 40
1.0
176
     1
 90
        8
176
     1
 62
     7
176
     1
 40
1.0
176
     1
 90
        1
176
     1
 90
        6
176
     1
 90
        2
176
     1
 62
     7
176
     1
 90
        5
176
     1
 90
        0
176
     1
 90
        0
176
     1
290
     0
176
     1
 90
        1
176
     1
 40
-50.0
176
     1
 90
        0
176
     1
290
     0
176
     1
290
     1
176
     1
290
     1
176
     1
290
     0
176
     1
290
     0
176
     1
290
     0
176
     1
290
     0
176
     1
290
     0
176
     1
290
     0
176
     1
 90
       50
176
     1
 40
0.0
176
     1
 40
1.0
176
     1
 90
        0
176
     1
 62
    18
420
        0
176
     1
 90
       50
176
     1
 90
        3
176
     1
 62
     5
420
      255
176
     1
290
     0
176
     1
 90
       50
176
     1
 90
       50
176
     1
 90
       50
176
     1
290
     0
176
     1
 90
       50
176
     1
 62
   256
176
     0
 40
1.0
176
     0
 90
        2
176
     1
  1
strokes_ogs.tif
176
     1
290
     0
176
     1
 40
1.0
176
     1
 40
1.0
176
     1
  0
VISUALSTYLE
  5
3D
102
{ACAD_REACTORS
330
2A
102
}
330
2A
100
AcDbVisualStyle
  2
EdgeColorOff
 70
    22
177
     3
291
     1
 70
    58
 90
        2
176
     0
 90
        2
176
     0
 90
        0
176
     0
 90
        0
176
     0
 40
0.6
176
     0
 40
30.0
176
     0
 62
     7
420
 16777215
176
     0
 90
        1
176
     0
 90
        4
176
     0
 62
     7
176
     0
 62
   257
176
     0
 90
        1
176
     0
 90
        1
176
     0
 40
1.0
176
     0
 90
        8
176
     2
 62
     7
176
     0
 40
1.0
176
     0
 90
        1
176
     0
 90
        6
176
     0
 90
        2
176
     0
 62
     7
176
     0
 90
        5
176
     0
 90
        0
176
     0
 90
        0
176
     0
290
     0
176
     0
 90
        1
176
     0
 40
0.0
176
     0
 90
        0
176
     0
290
     0
176
     0
290
     1
176
     0
290
     1
176
     0
290
     0
176
     0
290
     0
176
     0
290
     0
176
     0
290
     0
176
     0
290
     0
176
     0
290
     0
176
     0
 90
       50
176
     0
 40
0.0
176
     0
 40
1.0
176
     0
 90
        0
176
     0
 62
    18
420
        0
176
     0
 90
       50
176
     0
 90
        3
176
     0
 62
     5
420
      255
176
     0
290
     0
176
     0
 90
       50
176
     0
 90
       50
176
     0
 90
       50
176
     0
290
     0
176
     0
 90
       50
176
     0
 62
   256
176
     0
 40
1.0
176
     0
 90
        2
176
     0
  1
strokes_ogs.tif
176
     0
290
     0
176
     0
 40
1.0
176
     0
 40
1.0
176
     0
  0
VISUALSTYLE
  5
39
102
{ACAD_REACTORS
330
2A
102
}
330
2A
100
AcDbVisualStyle
  2
Facepattern
 70
    15
177
     3
291
     1
 70
    58
 90
        2
176
     1
 90
        2
176
     1
 90
        0
176
     1
 90
        0
176
     1
 40
0.6
176
     1
 40
30.0
176
     1
 62
     7
420
 16777215
176
     1
 90
        1
176
     1
 90
        4
176
     1
 62
     7
176
     1
 62
   257
176
     1
 90
        1
176
     1
 90
        1
176
     1
 40
1.0
176
     1
 90
        8
176
     1
 62
     7
176
     1
 40
1.0
176
     1
 90
        1
176
     1
 90
        6
176
     1
 90
        2
176
     1
 62
     7
176
     1
 90
        5
176
     1
 90
        0
176
     1
 90
        0
176
     1
290
     0
176
     1
 90
        1
176
     1
 40
0.0
176
     1
 90
        0
176
     1
290
     0
176
     1
290
     1
176
     1
290
     1
176
     1
290
     0
176
     1
290
     0
176
     1
290
     0
176
     1
290
     0
176
     1
290
     0
176
     1
290
     0
176
     1
 90
       50
176
     1
 40
0.0
176
     1
 40
1.0
176
     1
 90
        0
176
     1
 62
    18
420
        0
176
     1
 90
       50
176
     1
 90
        3
176
     1
 62
     5
420
      255
176
     1
290
     0
176
     1
 90
       50
176
     1
 90
       50
176
     1
 90
       50
176
     1
290
     0
176
     1
 90
       50
176
     1
 62
   256
176
     0
 40
1.0
176
     0
 90
        2
176
     1
  1
strokes_ogs.tif
176
     1
290
     0
176
     1
 40
1.0
176
     1
 40
1.0
176
     1
  0
VISUALSTYLE
  5
2B
102
{ACAD_REACTORS
330
2A
102
}
330
2A
100
AcDbVisualStyle
  2
Flat
 70
     0
177
     3
291
     1
 70
    58
 90
        2
176
     1
 90
        1
176
     1
 90
        1
176
     1
 90
        2
176
     1
 40
0.6
176
     1
 40
30.0
176
     1
 62
     7
420
 16777215
176
     1
 90
        0
176
     1
 90
        0
176
     1
 62
     7
176
     1
 62
   257
176
     1
 90
        1
176
     1
 90
        1
176
     1
 40
1.0
176
     1
 90
        8
176
     1
 62
     7
176
     1
 40
1.0
176
     1
 90
        1
176
     1
 90
        6
176
     1
 90
        2
176
     1
 62
     7
176
     1
 90
        5
176
     1
 90
        0
176
     1
 90
        0
176
     1
290
     0
176
     1
 90
       13
176
     1
 40
0.0
176
     1
 90
        0
176
     1
290
     0
176
     1
290
     1
176
     1
290
     1
176
     1
290
     0
176
     1
290
     0
176
     1
290
     0
176
     1
290
     0
176
     1
290
     0
176
     1
290
     0
176
     1
 90
       50
176
     1
 40
0.0
176
     1
 40
1.0
176
     1
 90
        0
176
     1
 62
    18
420
        0
176
     1
 90
       50
176
     1
 90
        3
176
     1
 62
     5
420
      255
176
     1
290
     0
176
     1
 90
       50
176
     1
 90
       50
176
     1
 90
       50
176
     1
290
     0
176
     1
 90
       50
176
     1
 62
   256
176
     0
 40
1.0
176
     0
 90
        2
176
     1
  1
strokes_ogs.tif
176
     1
290
     0
176
     1
 40
1.0
176
     1
 40
1.0
176
     1
  0
VISUALSTYLE
  5
2C
102
{ACAD_REACTORS
330
2A
102
}
330
2A
100
AcDbVisualStyle
  2
FlatWithEdges
 70
     1
177
     3
291
     1
 70
    58
 90
        2
176
     1
 90
        1
176
     1
 90
        1
176
     1
 90
        2
176
     1
 40
0.6
176
     1
 40
30.0
176
     1
 62
     7
420
 16777215
176
     1
 90
        1
176
     1
 90
        0
176
     1
 62
     7
176
     1
 62
   257
176
     1
 90
        1
176
     1
 90
        1
176
     1
 40
1.0
176
     1
 90
        0
176
     1
 62
   257
176
     1
 40
1.0
176
     1
 90
        1
176
     1
 90
        6
176
     1
 90
        2
176
     1
 62
     7
176
     1
 90
        5
176
     1
 90
        0
176
     1
 90
        0
176
     1
290
     0
176
     1
 90
       13
176
     1
 40
0.0
176
     1
 90
        0
176
     1
290
     0
176
     1
290
     1
176
     1
290
     1
176
     1
290
     0
176
     1
290
     0
176
     1
290
     0
176
     1
290
     0
176
     1
290
     0
176
     1
290
     0
176
     1
 90
       50
176
     1
 40
0.0
176
     1
 40
1.0
176
     1
 90
        0
176
     1
 62
    18
420
        0
176
     1
 90
       50
176
     1
 90
        3
176
     1
 62
     5
420
      255
176
     1
290
     0
176
     1
 90
       50
176
     1
 90
       50
176
     1
 90
       50
176
     1
290
     0
176
     1
 90
       50
176
     1
 62
   256
176
     0
 40
1.0
176
     0
 90
        2
176
     1
  1
strokes_ogs.tif
176
     1
290
     0
176
     1
 40
1.0
176
     1
 40
1.0
176
     1
  0
VISUALSTYLE
  5
2D
102
{ACAD_REACTORS
330
2A
102
}
330
2A
100
AcDbVisualStyle
  2
Gouraud
 70
     2
177
     3
291
     1
 70
    58
 90
        2
176
     1
 90
        2
176
     1
 90
        1
176
     1
 90
        2
176
     1
 40
0.6
176
     1
 40
30.0
176
     1
 62
     7
420
 16777215
176
     1
 90
        0
176
     1
 90
        0
176
     1
 62
     7
176
     1
 62
   257
176
     1
 90
        1
176
     1
 90
        1
176
     1
 40
1.0
176
     1
 90
        0
176
     1
 62
     7
176
     1
 40
1.0
176
     1
 90
        1
176
     1
 90
        6
176
     1
 90
        2
176
     1
 62
     7
176
     1
 90
        5
176
     1
 90
        0
176
     1
 90
        0
176
     1
290
     0
176
     1
 90
       13
176
     1
 40
0.0
176
     1
 90
        0
176
     1
290
     0
176
     1
290
     1
176
     1
290
     1
176
     1
290
     0
176
     1
290
     0
176
     1
290
     0
176
     1
290
     0
176
     1
290
     0
176
     1
290
     0
176
     1
 90
       50
176
     1
 40
0.0
176
     1
 40
1.0
176
     1
 90
        0
176
     1
 62
    18
420
        0
176
     1
 90
       50
176
     1
 90
        3
176
     1
 62
     5
420
      255
176
     1
290
     0
176
     1
 90
       50
176
     1
 90
       50
176
     1
 90
       50
176
     1
290
     0
176
     1
 90
       50
176
     1
 62
   256
176
     0
 40
1.0
176
     0
 90
        2
176
     1
  1
strokes_ogs.tif
176
     1
290
     0
176
     1
 40
1.0
176
     1
 40
1.0
176
     1
  0
VISUALSTYLE
  5
2E
102
{ACAD_REACTORS
330
2A
102
}
330
2A
100
AcDbVisualStyle
  2
GouraudWithEdges
 70
     3
177
     3
291
     1
 70
    58
 90
        2
176
     1
 90
        2
176
     1
 90
        1
176
     1
 90
        2
176
     1
 40
0.6
176
     1
 40
30.0
176
     1
 62
     7
420
 16777215
176
     1
 90
        1
176
     1
 90
        0
176
     1
 62
     7
176
     1
 62
   257
176
     1
 90
        1
176
     1
 90
        1
176
     1
 40
1.0
176
     1
 90
        0
176
     1
 62
   257
176
     1
 40
1.0
176
     1
 90
        1
176
     1
 90
        6
176
     1
 90
        2
176
     1
 62
     7
176
     1
 90
        5
176
     1
 90
        0
176
     1
 90
        0
176
     1
290
     0
176
     1
 90
       13
176
     1
 40
0.0
176
     1
 90
        0
176
     1
290
     0
176
     1
290
     1
176
     1
290
     1
176
     1
290
     0
176
     1
290
     0
176
     1
290
     0
176
     1
290
     0
176
     1
290
     0
176
     1
290
     0
176
     1
 90
       50
176
     1
 40
0.0
176
     1
 40
1.0
176
     1
 90
        0
176
     1
 62
    18
420
        0
176
     1
 90
       50
176
     1
 90
        3
176
     1
 62
     5
420
      255
176
     1
290
     0
176
     1
 90
       50
176
     1
 90
       50
176
     1
 90
       50
176
     1
290
     0
176
     1
 90
       50
176
     1
 62
   256
176
     0
 40
1.0
176
     0
 90
        2
176
     1
  1
strokes_ogs.tif
176
     1
290
     0
176
     1
 40
1.0
176
     1
 40
1.0
176
     1
  0
VISUALSTYLE
  5
31
102
{ACAD_REACTORS
330
2A
102
}
330
2A
100
AcDbVisualStyle
  2
Hidden
 70
     6
177
     3
291
     0
 70
    58
 90
        1
176
     1
 90
        2
176
     1
 90
        2
176
     1
 90
        0
176
     1
 40
0.6
176
     1
 40
30.0
176
     1
 62
     7
420
 16777215
176
     1
 90
        2
176
     1
 90
        2
176
     1
 62
     7
176
     1
 62
   257
176
     1
 90
        2
176
     1
 90
        1
176
     1
 40
40.0
176
     1
 90
        0
176
     1
 62
   257
176
     1
 40
1.0
176
     1
 90
        1
176
     1
 90
        6
176
     1
 90
        2
176
     1
 62
     7
176
     1
 90
        3
176
     1
 90
        0
176
     1
 90
        0
176
     1
290
     0
176
     1
 90
        1
176
     1
 40
0.0
176
     1
 90
        0
176
     1
290
     0
176
     1
290
     1
176
     1
290
     1
176
     1
290
     0
176
     1
290
     0
176
     1
290
     0
176
     1
290
     0
176
     1
290
     0
176
     1
290
     0
176
     1
 90
       50
176
     1
 40
0.0
176
     1
 40
1.0
176
     1
 90
        0
176
     1
 62
    18
420
        0
176
     1
 90
       50
176
     1
 90
        3
176
     1
 62
     5
420
      255
176
     1
290
     0
176
     1
 90
       50
176
     1
 90
       50
176
     1
 90
       50
176
     1
290
     0
176
     1
 90
       50
176
     1
 62
   256
176
     0
 40
1.0
176
     0
 90
        2
176
     1
  1
strokes_ogs.tif
176
     1
290
     0
176
     1
 40
1.0
176
     1
 40
1.0
176
     1
  0
VISUALSTYLE
  5
3B
102
{ACAD_REACTORS
330
2A
102
}
330
2A
100
AcDbVisualStyle
  2
JitterOff
 70
    20
177
     3
291
     1
 70
    58
 90
        2
176
     0
 90
        2
176
     0
 90
        0
176
     0
 90
        0
176
     0
 40
0.6
176
     0
 40
30.0
176
     0
 62
     7
420
 16777215
176
     0
 90
        1
176
     0
 90
        4
176
     0
 62
     7
176
     0
 62
   257
176
     0
 90
        1
176
     0
 90
        1
176
     0
 40
1.0
176
     0
 90
       10
176
     2
 62
     7
176
     0
 40
1.0
176
     0
 90
        1
176
     0
 90
        6
176
     0
 90
        2
176
     0
 62
     7
176
     0
 90
        5
176
     0
 90
        0
176
     0
 90
        0
176
     0
290
     0
176
     0
 90
        1
176
     0
 40
0.0
176
     0
 90
        0
176
     0
290
     0
176
     0
290
     1
176
     0
290
     1
176
     0
290
     0
176
     0
290
     0
176
     0
290
     0
176
     0
290
     0
176
     0
290
     0
176
     0
290
     0
176
     0
 90
       50
176
     0
 40
0.0
176
     0
 40
1.0
176
     0
 90
        0
176
     0
 62
    18
420
        0
176
     0
 90
       50
176
     0
 90
        3
176
     0
 62
     5
420
      255
176
     0
290
     0
176
     0
 90
       50
176
     0
 90
       50
176
     0
 90
       50
176
     0
290
     0
176
     0
 90
       50
176
     0
 62
   256
176
     0
 40
1.0
176
     0
 90
        2
176
     0
  1
strokes_ogs.tif
176
     0
290
     0
176
     0
 40
1.0
176
     0
 40
1.0
176
     0
  0
VISUALSTYLE
  5
38
102
{ACAD_REACTORS
330
2A
102
}
330
2A
100
AcDbVisualStyle
  2
Linepattern
 70
    14
177
     3
291
     1
 70
    58
 90
        2
176
     1
 90
        2
176
     1
 90
        0
176
     1
 90
        0
176
     1
 40
0.6
176
     1
 40
30.0
176
     1
 62
     7
420
 16777215
176
     1
 90
        1
176
     1
 90
        4
176
     1
 62
     7
176
     1
 62
   257
176
     1
 90
        7
176
     1
 90
        7
176
     1
 40
1.0
176
     1
 90
        8
176
     1
 62
     7
176
     1
 40
1.0
176
     1
 90
        1
176
     1
 90
        6
176
     1
 90
        2
176
     1
 62
     7
176
     1
 90
        5
176
     1
 90
        0
176
     1
 90
        0
176
     1
290
     0
176
     1
 90
        1
176
     1
 40
0.0
176
     1
 90
        0
176
     1
290
     0
176
     1
290
     1
176
     1
290
     1
176
     1
290
     0
176
     1
290
     0
176
     1
290
     0
176
     1
290
     0
176
     1
290
     0
176
     1
290
     0
176
     1
 90
       50
176
     1
 40
0.0
176
     1
 40
1.0
176
     1
 90
        0
176
     1
 62
    18
420
        0
176
     1
 90
       50
176
     1
 90
        3
176
     1
 62
     5
420
      255
176
     1
290
     0
176
     1
 90
       50
176
     1
 90
       50
176
     1
 90
       50
176
     1
290
     0
176
     1
 90
       50
176
     1
 62
   256
176
     0
 40
1.0
176
     0
 90
        2
176
     1
  1
strokes_ogs.tif
176
     1
290
     0
176
     1
 40
1.0
176
     1
 40
1.0
176
     1
  0
VISUALSTYLE
  5
3C
102
{ACAD_REACTORS
330
2A
102
}
330
2A
100
AcDbVisualStyle
  2
OverhangOff
 70
    21
177
     3
291
     1
 70
    58
 90
        2
176
     0
 90
        2
176
     0
 90
        0
176
     0
 90
        0
176
     0
 40
0.6
176
     0
 40
30.0
176
     0
 62
     7
420
 16777215
176
     0
 90
        1
176
     0
 90
        4
176
     0
 62
     7
176
     0
 62
   257
176
     0
 90
        1
176
     0
 90
        1
176
     0
 40
1.0
176
     0
 90
        9
176
     2
 62
     7
176
     0
 40
1.0
176
     0
 90
        1
176
     0
 90
        6
176
     0
 90
        2
176
     0
 62
     7
176
     0
 90
        5
176
     0
 90
        0
176
     0
 90
        0
176
     0
290
     0
176
     0
 90
        1
176
     0
 40
0.0
176
     0
 90
        0
176
     0
290
     0
176
     0
290
     1
176
     0
290
     1
176
     0
290
     0
176
     0
290
     0
176
     0
290
     0
176
     0
290
     0
176
     0
290
     0
176
     0
290
     0
176
     0
 90
       50
176
     0
 40
0.0
176
     0
 40
1.0
176
     0
 90
        0
176
     0
 62
    18
420
        0
176
     0
 90
       50
176
     0
 90
        3
176
     0
 62
     5
420
      255
176
     0
290
     0
176
     0
 90
       50
176
     0
 90
       50
176
     0
 90
       50
176
     0
290
     0
176
     0
 90
       50
176
     0
 62
   256
176
     0
 40
1.0
176
     0
 90
        2
176
     0
  1
strokes_ogs.tif
176
     0
290
     0
176
     0
 40
1.0
176
     0
 40
1.0
176
     0
  0
VISUALSTYLE
  5
33
102
{ACAD_REACTORS
330
2A
102
}
330
2A
100
AcDbVisualStyle
  2
Realistic
 70
     8
177
     3
291
     0
 70
    58
 90
        2
176
     1
 90
        3
176
     1
 90
        0
176
     1
 90
        2
176
     1
 40
0.6
176
     1
 40
30.0
176
     1
 62
     7
420
 16777215
176
     1
 90
        0
176
     1
 90
        0
176
     1
 62
     7
176
     1
 62
   257
176
     1
 90
        1
176
     1
 90
        1
176
     1
 40
1.0
176
     1
 90
        8
176
     1
 62
   257
176
     1
 40
1.0
176
     1
 90
        1
176
     1
 90
        6
176
     1
 90
        2
176
     1
 62
     7
176
     1
 90
        3
176
     1
 90
        0
176
     1
 90
        0
176
     1
290
     0
176
     1
 90
       13
176
     1
 40
0.0
176
     1
 90
        0
176
     1
290
     0
176
     1
290
     1
176
     1
290
     1
176
     1
290
     0
176
     1
290
     0
176
     1
290
     0
176
     1
290
     0
176
     1
290
     0
176
     1
290
     0
176
     1
 90
       50
176
     1
 40
0.0
176
     1
 40
1.0
176
     1
 90
        0
176
     1
 62
    18
420
        0
176
     1
 90
       50
176
     1
 90
        3
176
     1
 62
     5
420
      255
176
     1
290
     0
176
     1
 90
       50
176
     1
 90
       50
176
     1
 90
       50
176
     1
290
     0
176
     1
 90
       50
176
     1
 62
   256
176
     0
 40
1.0
176
     0
 90
        2
176
     1
  1
strokes_ogs.tif
176
     1
290
     0
176
     1
 40
1.0
176
     1
 40
1.0
176
     1
  0
VISUALSTYLE
  5
42
102
{ACAD_REACTORS
330
2A
102
}
330
2A
100
AcDbVisualStyle
  2
Shaded
 70
    27
177
     3
291
     0
 70
    58
 90
        2
176
     1
 90
        2
176
     1
 90
        1
176
     1
 90
        2
176
     1
 40
0.6
176
     1
 40
30.0
176
     1
 62
     7
420
 16777215
176
     1
 90
        0
176
     1
 90
        4
176
     1
 62
     7
176
     1
 62
   257
176
     1
 90
        1
176
     1
 90
        1
176
     1
 40
1.0
176
     1
 90
        8
176
     1
 62
   257
176
     1
 40
1.0
176
     1
 90
        1
176
     1
 90
        6
176
     1
 90
        2
176
     1
 62
     8
420
  7895160
176
     1
 90
        3
176
     1
 90
        0
176
     1
 90
        0
176
     1
290
     0
176
     1
 90
        5
176
     1
 40
0.0
176
     1
 90
        0
176
     1
290
     0
176
     1
290
     1
176
     1
290
     1
176
     1
290
     0
176
     1
290
     0
176
     1
290
     0
176
     1
290
     0
176
     1
290
     0
176
     1
290
     0
176
     1
 90
       50
176
     1
 40
0.0
176
     1
 40
1.0
176
     1
 90
        0
176
     1
 62
    18
420
        0
176
     1
 90
       50
176
     1
 90
        3
176
     1
 62
     5
420
      255
176
     1
290
     0
176
     1
 90
       50
176
     1
 90
       50
176
     1
 90
       50
176
     1
290
     0
176
     1
 90
       50
176
     1
 62
   256
176
     0
 40
1.0
176
     0
 90
        2
176
     1
  1
strokes_ogs.tif
176
     1
290
     0
176
     1
 40
1.0
176
     1
 40
1.0
176
     1
  0
VISUALSTYLE
  5
41
102
{ACAD_REACTORS
330
2A
102
}
330
2A
100
AcDbVisualStyle
  2
Shaded with edges
 70
    26
177
     3
291
     0
 70
    58
 90
        2
176
     1
 90
        2
176
     1
 90
        1
176
     1
 90
        2
176
     1
 40
0.6
176
     1
 40
30.0
176
     1
 62
     7
420
 16777215
176
     1
 90
        1
176
     1
 90
       10
176
     1
 62
     7
176
     1
 62
   257
176
     1
 90
        2
176
     1
 90
        1
176
     1
 40
1.0
176
     1
 90
        8
176
     1
 62
   257
176
     1
 40
1.0
176
     1
 90
        1
176
     1
 90
        6
176
     1
 90
        2
176
     1
 62
     7
176
     1
 90
        3
176
     1
 90
        0
176
     1
 90
        0
176
     1
290
     0
176
     1
 90
        5
176
     1
 40
0.0
176
     1
 90
        0
176
     1
290
     0
176
     1
290
     1
176
     1
290
     1
176
     1
290
     0
176
     1
290
     0
176
     1
290
     0
176
     1
290
     0
176
     1
290
     0
176
     1
290
     0
176
     1
 90
       50
176
     1
 40
0.0
176
     1
 40
1.0
176
     1
 90
        0
176
     1
 62
    18
420
        0
176
     1
 90
       50
176
     1
 90
        3
176
     1
 62
     5
420
      255
176
     1
290
     0
176
     1
 90
       50
176
     1
 90
       50
176
     1
 90
       50
176
     1
290
     0
176
     1
 90
       50
176
     1
 62
   256
176
     0
 40
1.0
176
     0
 90
        2
176
     1
  1
strokes_ogs.tif
176
     1
290
     0
176
     1
 40
1.0
176
     1
 40
1.0
176
     1
  0
VISUALSTYLE
  5
3E
102
{ACAD_REACTORS
330
2A
102
}
330
2A
100
AcDbVisualStyle
  2
Shades of Gray
 70
    23
177
     3
291
     0
 70
    58
 90
        2
176
     1
 90
        2
176
     1
 90
        3
176
     1
 90
        0
176
     1
 40
0.6
176
     1
 40
30.0
176
     1
 62
     7
420
 16777215
176
     1
 90
        2
176
     1
 90
        2
176
     1
 62
     7
176
     1
 62
     7
176
     1
 90
        1
176
     1
 90
        1
176
     1
 40
40.0
176
     1
 90
        8
176
     1
 62
     7
176
     1
 40
1.0
176
     1
 90
        1
176
     1
 90
        6
176
     1
 90
        2
176
     1
 62
     7
176
     1
 90
        3
176
     1
 90
        0
176
     1
 90
        0
176
     1
290
     0
176
     1
 90
        1
176
     1
 40
0.0
176
     1
 90
        0
176
     1
290
     0
176
     1
290
     1
176
     1
290
     1
176
     1
290
     0
176
     1
290
     0
176
     1
290
     0
176
     1
290
     0
176
     1
290
     0
176
     1
290
     0
176
     1
 90
       50
176
     1
 40
0.0
176
     1
 40
1.0
176
     1
 90
        0
176
     1
 62
    18
420
        0
176
     1
 90
       50
176
     1
 90
        3
176
     1
 62
     5
420
      255
176
     1
290
     0
176
     1
 90
       50
176
     1
 90
       50
176
     1
 90
       50
176
     1
290
     0
176
     1
 90
       50
176
     1
 62
   256
176
     0
 40
1.0
176
     0
 90
        2
176
     1
  1
strokes_ogs.tif
176
     1
290
     0
176
     1
 40
1.0
176
     1
 40
1.0
176
     1
  0
VISUALSTYLE
  5
3F
102
{ACAD_REACTORS
330
2A
102
}
330
2A
100
AcDbVisualStyle
  2
Sketchy
 70
    24
177
     3
291
     0
 70
    58
 90
        1
176
     1
 90
        2
176
     1
 90
        2
176
     1
 90
        0
176
     1
 40
0.6
176
     1
 40
30.0
176
     1
 62
     7
420
 16777215
176
     1
 90
        2
176
     1
 90
        2
176
     1
 62
     7
176
     1
 62
     7
176
     1
 90
        1
176
     1
 90
        1
176
     1
 40
40.0
176
     1
 90
       11
176
     1
 62
     7
176
     1
 40
1.0
176
     1
 90
        1
176
     1
 90
        6
176
     1
 90
        2
176
     1
 62
     7
176
     1
 90
        6
176
     1
 90
        0
176
     1
 90
        0
176
     1
290
     0
176
     1
 90
        1
176
     1
 40
0.0
176
     1
 90
        0
176
     1
290
     0
176
     1
290
     1
176
     1
290
     1
176
     1
290
     0
176
     1
290
     0
176
     1
290
     0
176
     1
290
     0
176
     1
290
     0
176
     1
290
     0
176
     1
 90
       50
176
     1
 40
0.0
176
     1
 40
1.0
176
     1
 90
        0
176
     1
 62
    18
420
        0
176
     1
 90
       50
176
     1
 90
        3
176
     1
 62
     5
420
      255
176
     1
290
     0
176
     1
 90
       50
176
     1
 90
       50
176
     1
 90
       50
176
     1
290
     0
176
     1
 90
       50
176
     1
 62
   256
176
     0
 40
1.0
176
     0
 90
        2
176
     1
  1
strokes_ogs.tif
176
     1
290
     0
176
     1
 40
1.0
176
     1
 40
1.0
176
     1
  0
VISUALSTYLE
  5
37
102
{ACAD_REACTORS
330
2A
102
}
330
2A
100
AcDbVisualStyle
  2
Thicken
 70
    13
177
     3
291
     1
 70
    58
 90
        2
176
     1
 90
        2
176
     1
 90
        0
176
     1
 90
        0
176
     1
 40
0.6
176
     1
 40
30.0
176
     1
 62
     7
420
 16777215
176
     1
 90
        1
176
     1
 90
        4
176
     1
 62
     7
176
     1
 62
   257
176
     1
 90
        1
176
     1
 90
        1
176
     1
 40
1.0
176
     1
 90
       12
176
     1
 62
     7
176
     1
 40
1.0
176
     1
 90
        1
176
     1
 90
        6
176
     1
 90
        2
176
     1
 62
     7
176
     1
 90
        5
176
     1
 90
        0
176
     1
 90
        0
176
     1
290
     0
176
     1
 90
        1
176
     1
 40
0.0
176
     1
 90
        0
176
     1
290
     0
176
     1
290
     1
176
     1
290
     1
176
     1
290
     0
176
     1
290
     0
176
     1
290
     0
176
     1
290
     0
176
     1
290
     0
176
     1
290
     0
176
     1
 90
       50
176
     1
 40
0.0
176
     1
 40
1.0
176
     1
 90
        0
176
     1
 62
    18
420
        0
176
     1
 90
       50
176
     1
 90
        3
176
     1
 62
     5
420
      255
176
     1
290
     0
176
     1
 90
       50
176
     1
 90
       50
176
     1
 90
       50
176
     1
290
     0
176
     1
 90
       50
176
     1
 62
   256
176
     0
 40
1.0
176
     0
 90
        2
176
     1
  1
strokes_ogs.tif
176
     1
290
     0
176
     1
 40
1.0
176
     1
 40
1.0
176
     1
  0
VISUALSTYLE
  5
30
102
{ACAD_REACTORS
330
2A
102
}
330
2A
100
AcDbVisualStyle
  2
Wireframe
 70
     5
177
     3
291
     0
 70
    58
 90
        0
176
     1
 90
        2
176
     1
 90
        0
176
     1
 90
        0
176
     1
 40
0.6
176
     1
 40
30.0
176
     1
 62
     7
420
 16777215
176
     1
 90
        1
176
     1
 90
        4
176
     1
 62
     7
176
     1
 62
   257
176
     1
 90
        1
176
     1
 90
        1
176
     1
 40
1.0
176
     1
 90
        0
176
     1
 62
   257
176
     1
 40
1.0
176
     1
 90
        1
176
     1
 90
        6
176
     1
 90
        2
176
     1
 62
     7
176
     1
 90
        3
176
     1
 90
        0
176
     1
 90
        0
176
     1
290
     0
176
     1
 90
        1
176
     1
 40
0.0
176
     1
 90
        0
176
     1
290
     0
176
     1
290
     1
176
     1
290
     1
176
     1
290
     0
176
     1
290
     0
176
     1
290
     0
176
     1
290
     0
176
     1
290
     0
176
     1
290
     0
176
     1
 90
       50
176
     1
 40
0.0
176
     1
 40
1.0
176
     1
 90
        0
176
     1
 62
    18
420
        0
176
     1
 90
       50
176
     1
 90
        3
176
     1
 62
     5
420
      255
176
     1
290
     0
176
     1
 90
       50
176
     1
 90
       50
176
     1
 90
       50
176
     1
290
     0
176
     1
 90
       50
176
     1
 62
   256
176
     0
 40
1.0
176
     0
 90
        2
176
     1
  1
strokes_ogs.tif
176
     1
290
     0
176
     1
 40
1.0
176
     1
 40
1.0
176
     1
  0
VISUALSTYLE
  5
40
102
{ACAD_REACTORS
330
2A
102
}
330
2A
100
AcDbVisualStyle
  2
X-Ray
 70
    25
177
     3
291
     0
 70
    58
 90
        2
176
     1
 90
        2
176
     1
 90
        1
176
     1
 90
        1
176
     1
 40
0.5
176
     1
 40
30.0
176
     1
 62
     7
420
 16777215
176
     1
 90
        1
176
     1
 90
        0
176
     1
 62
     7
176
     1
 62
   257
176
     1
 90
        1
176
     1
 90
        1
176
     1
 40
1.0
176
     1
 90
        8
176
     1
 62
     7
176
     1
 40
1.0
176
     1
 90
        1
176
     1
 90
        6
176
     1
 90
        2
176
     1
 62
     7
176
     1
 90
        3
176
     1
 90
        0
176
     1
 90
        0
176
     1
290
     0
176
     1
 90
       13
176
     1
 40
0.0
176
     1
 90
        0
176
     1
290
     0
176
     1
290
     1
176
     1
290
     1
176
     1
290
     0
176
     1
290
     0
176
     1
290
     0
176
     1
290
     0
176
     1
290
     0
176
     1
290
     0
176
     1
 90
       50
176
     1
 40
0.0
176
     1
 40
1.0
176
     1
 90
        0
176
     1
 62
    18
420
        0
176
     1
 90
       50
176
     1
 90
        3
176
     1
 62
     5
420
      255
176
     1
290
     0
176
     1
 90
       50
176
     1
 90
       50
176
     1
 90
       50
176
     1
290
     0
176
     1
 90
       50
176
     1
 62
   256
176
     0
 40
1.0
176
     0
 90
        2
176
     1
  1
strokes_ogs.tif
176
     1
290
     0
176
     1
 40
1.0
176
     1
 40
1.0
176
     1
  0
DICTIONARYVAR
  5
87
102
{ACAD_REACTORS
330
86
102
}
330
86
100
DictionaryVariables
280
     0
  1
1:1
  0
DICTIONARYVAR
  5
8C
102
{ACAD_REACTORS
330
86
102
}
330
86
100
DictionaryVariables
280
     0
  1
Standard
  0
DICTIONARYVAR
  5
8B
102
{ACAD_REACTORS
330
86
102
}
330
86
100
DictionaryVariables
280
     0
  1
Standard
  0
DICTIONARY
  5
88
330
5A
100
AcDbDictionary
280
     1
281
     1
  3
ACAD_ROUNDTRIP_2008_TABLESTYLE_CELLSTYLEMAP
360
89
  0
CELLSTYLEMAP
  5
89
102
{ACAD_REACTORS
330
88
102
}
330
88
100
AcDbCellStyleMap
 90
        3
300
CELLSTYLE
  1
TABLEFORMAT_BEGIN
 90
        5
170
     1
 91
        0
 92
    32768
 62
   257
 93
        1
300
CONTENTFORMAT
  1
CONTENTFORMAT_BEGIN
 90
        0
 91
        0
 92
        4
 93
        0
300

 40
0.0
140
1.0
 94
        5
 62
     0
340
11
144
0.25
309
CONTENTFORMAT_END
171
     1
301
MARGIN
  1
CELLMARGIN_BEGIN
 40
0.06
 40
0.06
 40
0.06
 40
0.06
 40
0.06
 40
0.06
309
CELLMARGIN_END
 94
        6
 95
        1
302
GRIDFORMAT
  1
GRIDFORMAT_BEGIN
 90
        0
 91
        1
 62
     0
 92
       -2
340
14
 93
        0
 40
0.045
309
GRIDFORMAT_END
 95
        2
302
GRIDFORMAT
  1
GRIDFORMAT_BEGIN
 90
        0
 91
        1
 62
     0
 92
       -2
340
14
 93
        0
 40
0.045
309
GRIDFORMAT_END
 95
        4
302
GRIDFORMAT
  1
GRIDFORMAT_BEGIN
 90
        0
 91
        1
 62
     0
 92
       -2
340
14
 93
        0
 40
0.045
309
GRIDFORMAT_END
 95
        8
302
GRIDFORMAT
  1
GRIDFORMAT_BEGIN
 90
        0
 91
        1
 62
     0
 92
       -2
340
14
 93
        0
 40
0.045
309
GRIDFORMAT_END
 95
       16
302
GRIDFORMAT
  1
GRIDFORMAT_BEGIN
 90
        0
 91
        1
 62
     0
 92
       -2
340
14
 93
        0
 40
0.045
309
GRIDFORMAT_END
 95
       32
302
GRIDFORMAT
  1
GRIDFORMAT_BEGIN
 90
        0
 91
        1
 62
     0
 92
       -2
340
14
 93
        0
 40
0.045
309
GRIDFORMAT_END
309
TABLEFORMAT_END
  1
CELLSTYLE_BEGIN
 90
        1
 91
        1
300
_TITLE
309
CELLSTYLE_END
300
CELLSTYLE
  1
TABLEFORMAT_BEGIN
 90
        5
170
     1
 91
        0
 92
        0
 62
   257
 93
        1
300
CONTENTFORMAT
  1
CONTENTFORMAT_BEGIN
 90
        0
 91
        0
 92
        4
 93
        0
300

 40
0.0
140
1.0
 94
        5
 62
     0
340
11
144
0.18
309
CONTENTFORMAT_END
171
     1
301
MARGIN
  1
CELLMARGIN_BEGIN
 40
0.06
 40
0.06
 40
0.06
 40
0.06
 40
0.06
 40
0.06
309
CELLMARGIN_END
 94
        6
 95
        1
302
GRIDFORMAT
  1
GRIDFORMAT_BEGIN
 90
        0
 91
        1
 62
     0
 92
       -2
340
14
 93
        0
 40
0.045
309
GRIDFORMAT_END
 95
        2
302
GRIDFORMAT
  1
GRIDFORMAT_BEGIN
 90
        0
 91
        1
 62
     0
 92
       -2
340
14
 93
        0
 40
0.045
309
GRIDFORMAT_END
 95
        4
302
GRIDFORMAT
  1
GRIDFORMAT_BEGIN
 90
        0
 91
        1
 62
     0
 92
       -2
340
14
 93
        0
 40
0.045
309
GRIDFORMAT_END
 95
        8
302
GRIDFORMAT
  1
GRIDFORMAT_BEGIN
 90
        0
 91
        1
 62
     0
 92
       -2
340
14
 93
        0
 40
0.045
309
GRIDFORMAT_END
 95
       16
302
GRIDFORMAT
  1
GRIDFORMAT_BEGIN
 90
        0
 91
        1
 62
     0
 92
       -2
340
14
 93
        0
 40
0.045
309
GRIDFORMAT_END
 95
       32
302
GRIDFORMAT
  1
GRIDFORMAT_BEGIN
 90
        0
 91
        1
 62
     0
 92
       -2
340
14
 93
        0
 40
0.045
309
GRIDFORMAT_END
309
TABLEFORMAT_END
  1
CELLSTYLE_BEGIN
 90
        2
 91
        1
300
_HEADER
309
CELLSTYLE_END
300
CELLSTYLE
  1
TABLEFORMAT_BEGIN
 90
        5
170
     1
 91
        0
 92
        0
 62
   257
 93
        1
300
CONTENTFORMAT
  1
CONTENTFORMAT_BEGIN
 90
        0
 91
        0
 92
        4
 93
        0
300

 40
0.0
140
1.0
 94
        2
 62
     0
340
11
144
0.18
309
CONTENTFORMAT_END
171
     1
301
MARGIN
  1
CELLMARGIN_BEGIN
 40
0.06
 40
0.06
 40
0.06
 40
0.06
 40
0.06
 40
0.06
309
CELLMARGIN_END
 94
        6
 95
        1
302
GRIDFORMAT
  1
GRIDFORMAT_BEGIN
 90
        0
 91
        1
 62
     0
 92
       -2
340
14
 93
        0
 40
0.045
309
GRIDFORMAT_END
 95
        2
302
GRIDFORMAT
  1
GRIDFORMAT_BEGIN
 90
        0
 91
        1
 62
     0
 92
       -2
340
14
 93
        0
 40
0.045
309
GRIDFORMAT_END
 95
        4
302
GRIDFORMAT
  1
GRIDFORMAT_BEGIN
 90
        0
 91
        1
 62
     0
 92
       -2
340
14
 93
        0
 40
0.045
309
GRIDFORMAT_END
 95
        8
302
GRIDFORMAT
  1
GRIDFORMAT_BEGIN
 90
        0
 91
        1
 62
     0
 92
       -2
340
14
 93
        0
 40
0.045
309
GRIDFORMAT_END
 95
       16
302
GRIDFORMAT
  1
GRIDFORMAT_BEGIN
 90
        0
 91
        1
 62
     0
 92
       -2
340
14
 93
        0
 40
0.045
309
GRIDFORMAT_END
 95
       32
302
GRIDFORMAT
  1
GRIDFORMAT_BEGIN
 90
        0
 91
        1
 62
     0
 92
       -2
340
14
 93
        0
 40
0.045
309
GRIDFORMAT_END
309
TABLEFORMAT_END
  1
CELLSTYLE_BEGIN
 90
        3
 91
        2
300
_DATA
309
CELLSTYLE_END
  0
ENDSEC
  0
EOF
