  0
SECTION
  2
HEADER
  9
$ACADVER
  1
AC1027
  9
$ACADMAINTVER
 70
   105
  9
$DWGCODEPAGE
  3
ANSI_1252
  9
$LASTSAVEDBY
  1
Office Desk
  9
$REQUIREDVERSIONS
160
                 0
  9
$INSBASE
 10
0.0
 20
0.0
 30
0.0
  9
$EXTMIN
 10
-2.906192913385827
 20
7.624338582677165
 30
0.0
  9
$EXTMAX
 10
1.529452755905512
 20
11.27034645669291
 30
0.0
  9
$LIMMIN
 10
0.0
 20
0.0
  9
$LIMMAX
 10
12.0
 20
9.0
  9
$ORTHOMODE
 70
     0
  9
$REGENMODE
 70
     1
  9
$FILLMODE
 70
     1
  9
$QTEXTMODE
 70
     0
  9
$MIRRTEXT
 70
     1
  9
$LTSCALE
 40
1.0
  9
$ATTMODE
 70
     1
  9
$TEXTSIZE
 40
0.2
  9
$TRACEWID
 40
0.05
  9
$TEXTSTYLE
  7
Standard
  9
$CLAYER
  8
0
  9
$CELTYPE
  6
ByLayer
  9
$CECOLOR
 62
   256
  9
$CELTSCALE
 40
1.0
  9
$DISPSILH
 70
     0
  9
$DIMSCALE
 40
1.0
  9
$DIMASZ
 40
0.18
  9
$DIMEXO
 40
0.0625
  9
$DIMDLI
 40
0.38
  9
$DIMRND
 40
0.0
  9
$DIMDLE
 40
0.0
  9
$DIMEXE
 40
0.18
  9
$DIMTP
 40
0.0
  9
$DIMTM
 40
0.0
  9
$DIMTXT
 40
0.18
  9
$DIMCEN
 40
0.09
  9
$DIMTSZ
 40
0.0
  9
$DIMTOL
 70
     0
  9
$DIMLIM
 70
     0
  9
$DIMTIH
 70
     1
  9
$DIMTOH
 70
     1
  9
$DIMSE1
 70
     0
  9
$DIMSE2
 70
     0
  9
$DIMTAD
 70
     0
  9
$DIMZIN
 70
     0
  9
$DIMBLK
  1

  9
$DIMASO
 70
     1
  9
$DIMSHO
 70
     1
  9
$DIMPOST
  1

  9
$DIMAPOST
  1

  9
$DIMALT
 70
     0
  9
$DIMALTD
 70
     2
  9
$DIMALTF
 40
25.4
  9
$DIMLFAC
 40
1.0
  9
$DIMTOFL
 70
     0
  9
$DIMTVP
 40
0.0
  9
$DIMTIX
 70
     0
  9
$DIMSOXD
 70
     0
  9
$DIMSAH
 70
     0
  9
$DIMBLK1
  1

  9
$DIMBLK2
  1

  9
$DIMSTYLE
  2
Standard
  9
$DIMCLRD
 70
     0
  9
$DIMCLRE
 70
     0
  9
$DIMCLRT
 70
     0
  9
$DIMTFAC
 40
1.0
  9
$DIMGAP
 40
0.09
  9
$DIMJUST
 70
     0
  9
$DIMSD1
 70
     0
  9
$DIMSD2
 70
     0
  9
$DIMTOLJ
 70
     1
  9
$DIMTZIN
 70
     0
  9
$DIMALTZ
 70
     0
  9
$DIMALTTZ
 70
     0
  9
$DIMUPT
 70
     0
  9
$DIMDEC
 70
     4
  9
$DIMTDEC
 70
     4
  9
$DIMALTU
 70
     2
  9
$DIMALTTD
 70
     2
  9
$DIMTXSTY
  7
Standard
  9
$DIMAUNIT
 70
     0
  9
$DIMADEC
 70
     0
  9
$DIMALTRND
 40
0.0
  9
$DIMAZIN
 70
     0
  9
$DIMDSEP
 70
    46
  9
$DIMATFIT
 70
     3
  9
$DIMFRAC
 70
     0
  9
$DIMLDRBLK
  1

  9
$DIMLUNIT
 70
     2
  9
$DIMLWD
 70
    -2
  9
$DIMLWE
 70
    -2
  9
$DIMTMOVE
 70
     0
  9
$DIMFXL
 40
1.0
  9
$DIMFXLON
 70
     0
  9
$DIMJOGANG
 40
0.7853981633974483
  9
$DIMTFILL
 70
     0
  9
$DIMTFILLCLR
 70
     0
  9
$DIMARCSYM
 70
     0
  9
$DIMLTYPE
  6

  9
$DIMLTEX1
  6

  9
$DIMLTEX2
  6

  9
$DIMTXTDIRECTION
 70
     0
  9
$LUNITS
 70
     2
  9
$LUPREC
 70
     4
  9
$SKETCHINC
 40
0.1
  9
$FILLETRAD
 40
0.0
  9
$AUNITS
 70
     0
  9
$AUPREC
 70
     0
  9
$MENU
  1
.
  9
$ELEVATION
 40
0.0
  9
$PELEVATION
 40
0.0
  9
$THICKNESS
 40
0.0
  9
$LIMCHECK
 70
     0
  9
$CHAMFERA
 40
0.0
  9
$CHAMFERB
 40
0.0
  9
$CHAMFERC
 40
0.0
  9
$CHAMFERD
 40
0.0
  9
$SKPOLY
 70
     0
  9
$TDCREATE
 40
2461020.6960075
  9
$TDUCREATE
 40
2461020.466840834
  9
$TDUPDATE
 40
2461020.6960075
  9
$TDUUPDATE
 40
2461020.466840834
  9
$TDINDWG
 40
0.0000000116
  9
$TDUSRTIMER
 40
0.0000000116
  9
$USRTIMER
 70
     1
  9
$ANGBASE
 50
0.0
  9
$ANGDIR
 70
     0
  9
$PDMODE
 70
     0
  9
$PDSIZE
 40
0.0
  9
$PLINEWID
 40
0.0
  9
$SPLFRAME
 70
     0
  9
$SPLINETYPE
 70
     6
  9
$SPLINESEGS
 70
     8
  9
$HANDSEED
  5
82
  9
$SURFTAB1
 70
     6
  9
$SURFTAB2
 70
     6
  9
$SURFTYPE
 70
     6
  9
$SURFU
 70
     6
  9
$SURFV
 70
     6
  9
$UCSBASE
  2

  9
$UCSNAME
  2

  9
$UCSORG
 10
0.0
 20
0.0
 30
0.0
  9
$UCSXDIR
 10
1.0
 20
0.0
 30
0.0
  9
$UCSYDIR
 10
0.0
 20
1.0
 30
0.0
  9
$UCSORTHOREF
  2

  9
$UCSORTHOVIEW
 70
     0
  9
$UCSORGTOP
 10
0.0
 20
0.0
 30
0.0
  9
$UCSORGBOTTOM
 10
0.0
 20
0.0
 30
0.0
  9
$UCSORGLEFT
 10
0.0
 20
0.0
 30
0.0
  9
$UCSORGRIGHT
 10
0.0
 20
0.0
 30
0.0
  9
$UCSORGFRONT
 10
0.0
 20
0.0
 30
0.0
  9
$UCSORGBACK
 10
0.0
 20
0.0
 30
0.0
  9
$PUCSBASE
  2

  9
$PUCSNAME
  2

  9
$PUCSORG
 10
0.0
 20
0.0
 30
0.0
  9
$PUCSXDIR
 10
1.0
 20
0.0
 30
0.0
  9
$PUCSYDIR
 10
0.0
 20
1.0
 30
0.0
  9
$PUCSORTHOREF
  2

  9
$PUCSORTHOVIEW
 70
     0
  9
$PUCSORGTOP
 10
0.0
 20
0.0
 30
0.0
  9
$PUCSORGBOTTOM
 10
0.0
 20
0.0
 30
0.0
  9
$PUCSORGLEFT
 10
0.0
 20
0.0
 30
0.0
  9
$PUCSORGRIGHT
 10
0.0
 20
0.0
 30
0.0
  9
$PUCSORGFRONT
 10
0.0
 20
0.0
 30
0.0
  9
$PUCSORGBACK
 10
0.0
 20
0.0
 30
0.0
  9
$USERI1
 70
     0
  9
$USERI2
 70
     0
  9
$USERI3
 70
     0
  9
$USERI4
 70
     0
  9
$USERI5
 70
     0
  9
$USERR1
 40
0.0
  9
$USERR2
 40
0.0
  9
$USERR3
 40
0.0
  9
$USERR4
 40
0.0
  9
$USERR5
 40
0.0
  9
$WORLDVIEW
 70
     1
  9
$SHADEDGE
 70
     3
  9
$SHADEDIF
 70
    70
  9
$TILEMODE
 70
     1
  9
$MAXACTVP
 70
    64
  9
$PINSBASE
 10
0.0
 20
0.0
 30
0.0
  9
$PLIMCHECK
 70
     0
  9
$PEXTMIN
 10
1.000000000000000E+20
 20
1.000000000000000E+20
 30
1.000000000000000E+20
  9
$PEXTMAX
 10
-1.000000000000000E+20
 20
-1.000000000000000E+20
 30
-1.000000000000000E+20
  9
$PLIMMIN
 10
0.0
 20
0.0
  9
$PLIMMAX
 10
12.0
 20
9.0
  9
$UNITMODE
 70
     0
  9
$VISRETAIN
 70
     1
  9
$PLINEGEN
 70
     0
  9
$PSLTSCALE
 70
     1
  9
$TREEDEPTH
 70
  3020
  9
$CMLSTYLE
  2
Standard
  9
$CMLJUST
 70
     0
  9
$CMLSCALE
 40
1.0
  9
$PROXYGRAPHICS
 70
     1
  9
$MEASUREMENT
 70
     0
  9
$CELWEIGHT
370
    -1
  9
$ENDCAPS
280
     0
  9
$JOINSTYLE
280
     0
  9
$LWDISPLAY
290
     0
  9
$INSUNITS
 70
     1
  9
$HYPERLINKBASE
  1

  9
$STYLESHEET
  1

  9
$XEDIT
290
     1
  9
$CEPSNTYPE
380
     0
  9
$PSTYLEMODE
290
     1
  9
$FINGERPRINTGUID
  2
{a48994e2-d49b-4b44-a93d-c408667c4fab}
  9
$VERSIONGUID
  2
{FAEB1C32-E019-11D5-929B-00C0DF256EC4}
  9
$EXTNAMES
290
     1
  9
$PSVPSCALE
 40
0.0
  9
$OLESTARTUP
290
     0
  9
$SORTENTS
280
   127
  9
$INDEXCTL
280
     0
  9
$HIDETEXT
280
     1
  9
$XCLIPFRAME
280
     2
  9
$HALOGAP
280
     0
  9
$OBSCOLOR
 70
   257
  9
$OBSLTYPE
280
     0
  9
$INTERSECTIONDISPLAY
280
     0
  9
$INTERSECTIONCOLOR
 70
   257
  9
$DIMASSOC
280
     2
  9
$PROJECTNAME
  1

  9
$CAMERADISPLAY
290
     0
  9
$LENSLENGTH
 40
50.0
  9
$CAMERAHEIGHT
 40
0.0
  9
$STEPSPERSEC
 40
2.0
  9
$STEPSIZE
 40
6.0
  9
$3DDWFPREC
 40
2.0
  9
$PSOLWIDTH
 40
0.25
  9
$PSOLHEIGHT
 40
4.0
  9
$LOFTANG1
 40
1.570796326794897
  9
$LOFTANG2
 40
1.570796326794897
  9
$LOFTMAG1
 40
0.0
  9
$LOFTMAG2
 40
0.0
  9
$LOFTPARAM
 70
     7
  9
$LOFTNORMALS
280
     1
  9
$LATITUDE
 40
37.795
  9
$LONGITUDE
 40
-122.394
  9
$NORTHDIRECTION
 40
0.0
  9
$TIMEZONE
 70
 -8000
  9
$LIGHTGLYPHDISPLAY
280
     1
  9
$TILEMODELIGHTSYNCH
280
     1
  9
$CMATERIAL
347
44
  9
$SOLIDHIST
280
     0
  9
$SHOWHIST
280
     1
  9
$DWFFRAME
280
     2
  9
$DGNFRAME
280
     2
  9
$REALWORLDSCALE
290
     1
  9
$INTERFERECOLOR
 62
   256
  9
$CSHADOW
280
     0
  9
$SHADOWPLANELOCATION
 40
0.0
  0
ENDSEC
  0
SECTION
  2
CLASSES
  0
CLASS
  1
ACDBDICTIONARYWDFLT
  2
AcDbDictionaryWithDefault
  3
ObjectDBX Classes
 90
        0
 91
        3
280
     0
281
     0
  0
CLASS
  1
VISUALSTYLE
  2
AcDbVisualStyle
  3
ObjectDBX Classes
 90
     4095
 91
        3
280
     0
281
     0
  0
CLASS
  1
MATERIAL
  2
AcDbMaterial
  3
ObjectDBX Classes
 90
     1153
 91
        3
280
     0
281
     0
  0
CLASS
  1
SCALE
  2
AcDbScale
  3
ObjectDBX Classes
 90
     1153
 91
        3
280
     0
281
     0
  0
CLASS
  1
TABLESTYLE
  2
AcDbTableStyle
  3
ObjectDBX Classes
 90
     4095
 91
        3
280
     0
281
     0
  0
CLASS
  1
MLEADERSTYLE
  2
AcDbMLeaderStyle
  3
ACDB_MLEADERSTYLE_CLASS
 90
     4095
 91
        3
280
     0
281
     0
  0
CLASS
  1
SUN
  2
AcDbSun
  3
SCENEOE
 90
     1153
 91
        3
280
     0
281
     0
  0
CLASS
  1
DICTIONARYVAR
  2
AcDbDictionaryVar
  3
ObjectDBX Classes
 90
        0
 91
        3
280
     0
281
     0
  0
CLASS
  1
CELLSTYLEMAP
  2
AcDbCellStyleMap
  3
ObjectDBX Classes
 90
     1152
 91
        3
280
     0
281
     0
  0
ENDSEC
  0
SECTION
  2
TABLES
  0
TABLE
  2
VPORT
  5
8
330
0
100
AcDbSymbolTable
 70
     1
  0
VPORT
  5
29
330
8
100
AcDbSymbolTableRecord
100
AcDbViewportTableRecord
  2
*Active
 70
     0
 10
0.0
 20
0.0
 11
1.0
 21
1.0
 12
10.42990654205607
 22
4.5
 13
0.0
 23
0.0
 14
0.5
 24
0.5
 15
0.5
 25
0.5
 16
0.0
 26
0.0
 36
1.0
 17
0.0
 27
0.0
 37
0.0
 40
9.0
 41
1.972972972850329
 42
50.0
 43
0.0
 44
0.0
 50
0.0
 51
0.0
 71
     0
 72
   100
 73
     1
 74
     3
 75
     0
 76
     0
 77
     0
 78
     0
281
     0
 65
     1
110
0.0
120
0.0
130
0.0
111
1.0
121
0.0
131
0.0
112
0.0
122
1.0
132
0.0
 79
     0
146
0.0
348
2F
 60
     3
 61
     5
292
     1
282
     1
141
0.0
142
0.0
 63
   250
361
5D
  0
ENDTAB
  0
TABLE
  2
LTYPE
  5
5
330
0
100
AcDbSymbolTable
 70
     1
  0
LTYPE
  5
14
330
5
100
AcDbSymbolTableRecord
100
AcDbLinetypeTableRecord
  2
ByBlock
 70
     0
  3

 72
    65
 73
     0
 40
0.0
  0
LTYPE
  5
15
330
5
100
AcDbSymbolTableRecord
100
AcDbLinetypeTableRecord
  2
ByLayer
 70
     0
  3

 72
    65
 73
     0
 40
0.0
  0
LTYPE
  5
16
330
5
100
AcDbSymbolTableRecord
100
AcDbLinetypeTableRecord
  2
Continuous
 70
     0
  3
Solid line
 72
    65
 73
     0
 40
0.0
  0
ENDTAB
  0
TABLE
  2
LAYER
  5
2
330
0
100
AcDbSymbolTable
 70
     2
  0
LAYER
  5
10
330
2
100
AcDbSymbolTableRecord
100
AcDbLayerTableRecord
  2
0
 70
     0
 62
     7
  6
Continuous
370
    -3
390
F
347
46
348
0
  0
LAYER
  5
5F
330
2
100
AcDbSymbolTableRecord
100
AcDbLayerTableRecord
  2
Layer 1
 70
     0
 62
     7
  6
Continuous
370
    -3
390
F
347
46
348
0
  0
ENDTAB
  0
TABLE
  2
STYLE
  5
3
330
0
100
AcDbSymbolTable
 70
     1
  0
STYLE
  5
11
330
3
100
AcDbSymbolTableRecord
100
AcDbTextStyleTableRecord
  2
Standard
 70
     0
 40
0.0
 41
1.0
 50
0.0
 71
     0
 42
0.2
  3
txt
  4

  0
ENDTAB
  0
TABLE
  2
VIEW
  5
6
330
0
100
AcDbSymbolTable
 70
     0
  0
ENDTAB
  0
TABLE
  2
UCS
  5
7
330
0
100
AcDbSymbolTable
 70
     0
  0
ENDTAB
  0
TABLE
  2
APPID
  5
9
330
0
100
AcDbSymbolTable
 70
     2
  0
APPID
  5
12
330
9
100
AcDbSymbolTableRecord
100
AcDbRegAppTableRecord
  2
ACAD
 70
     0
  0
APPID
  5
5E
330
9
100
AcDbSymbolTableRecord
100
AcDbRegAppTableRecord
  2
ODA
 70
     0
  0
ENDTAB
  0
TABLE
  2
DIMSTYLE
  5
A
330
0
100
AcDbSymbolTable
 70
     1
100
AcDbDimStyleTable
  0
DIMSTYLE
105
27
330
A
100
AcDbSymbolTableRecord
100
AcDbDimStyleTableRecord
  2
Standard
 70
     0
178
     0
340
11
  0
ENDTAB
  0
TABLE
  2
BLOCK_RECORD
  5
1
330
0
100
AcDbSymbolTable
 70
     1
  0
BLOCK_RECORD
  5
1F
330
1
100
AcDbSymbolTableRecord
100
AcDbBlockTableRecord
  2
*Model_Space
340
22
 70
     0
280
     1
281
     0
  0
BLOCK_RECORD
  5
1B
330
1
100
AcDbSymbolTableRecord
100
AcDbBlockTableRecord
  2
*Paper_Space
340
1E
 70
     0
280
     1
281
     0
  0
BLOCK_RECORD
  5
23
330
1
100
AcDbSymbolTableRecord
100
AcDbBlockTableRecord
  2
*Paper_Space0
340
26
 70
     0
280
     1
281
     0
  0
ENDTAB
  0
ENDSEC
  0
SECTION
  2
BLOCKS
  0
BLOCK
  5
20
330
1F
100
AcDbEntity
  8
0
100
AcDbBlockBegin
  2
*Model_Space
 70
     0
 10
0.0
 20
0.0
 30
0.0
  3
*Model_Space
  1

  0
ENDBLK
  5
21
330
1F
100
AcDbEntity
  8
0
100
AcDbBlockEnd
  0
BLOCK
  5
1C
330
1B
100
AcDbEntity
 67
     1
  8
0
100
AcDbBlockBegin
  2
*Paper_Space
 70
     0
 10
0.0
 20
0.0
 30
0.0
  3
*Paper_Space
  1

  0
ENDBLK
  5
1D
330
1B
100
AcDbEntity
 67
     1
  8
0
100
AcDbBlockEnd
  0
BLOCK
  5
24
330
23
100
AcDbEntity
  8
0
100
AcDbBlockBegin
  2
*Paper_Space0
 70
     0
 10
0.0
 20
0.0
 30
0.0
  3
*Paper_Space0
  1

  0
ENDBLK
  5
25
330
23
100
AcDbEntity
  8
0
100
AcDbBlockEnd
  0
ENDSEC
  0
SECTION
  2
ENTITIES
  0
LWPOLYLINE
  5
60
330
1F
100
AcDbEntity
  8
Layer 1
 62
   250
370
     9
100
AcDbPolyline
 90
        5
 70
     1
 43
0.0
 10
-2.904692913385827
 20
7.625838582677165
 10
1.527952755905512
 20
7.625838582677165
 10
1.527952755905512
 20
11.26884645669291
 10
-2.904692913385827
 20
11.26884645669291
 10
-2.904692913385827
 20
7.625838582677165
  0
LWPOLYLINE
  5
61
330
1F
100
AcDbEntity
  8
Layer 1
 62
     7
370
    18
100
AcDbPolyline
 90
       28
 70
     1
 43
0.0
 10
-1.665051181102362
 20
8.509629921259842
 10
-1.89157874015748
 20
8.651657480314961
 10
-1.856074803149606
 20
9.514330708661417
 10
-0.3194173228346457
 20
10.00534645669291
 10
-0.1171299212598425
 20
9.855830708661417
 10
-0.1604803149606299
 20
9.006944881889764
 10
-0.2110472440944882
 20
8.985224409448819
 10
-0.209011811023622
 20
8.982870078740158
 10
-0.2033346456692913
 20
8.97678346456693
 10
-0.1946653543307087
 20
8.96844094488189
 10
-0.1836535433070866
 20
8.9593031496063
 10
-0.1709488188976378
 20
8.950846456692913
 10
-0.1572007874015748
 20
8.944535433070866
 10
-0.1430590551181102
 20
8.94184251968504
 10
-0.1291692913385827
 20
8.94423622047244
 10
-0.1119685039370079
 20
8.950877952755906
 10
-0.0890984251968504
 20
8.959385826771653
 10
-0.063007874015748
 20
8.968909448818899
 10
-0.0361574803149606
 20
8.978602362204725
 10
-0.010996062992126
 20
8.987614173228346
 10
0.010011811023622
 20
8.995102362204724
 10
0.0244212598425197
 20
9.00021653543307
 10
0.0297677165354331
 20
9.002110236220473
 10
0.102007874015748
 20
8.956303149606299
 10
0.0931023622047244
 20
8.608220472440944
 10
-0.4419527559055118
 20
8.428661417322834
 10
-0.9197755905511811
 20
8.759964566929133
 10
-1.665051181102362
 20
8.509629921259842
  0
LWPOLYLINE
  5
62
330
1F
100
AcDbEntity
  8
Layer 1
 62
     7
370
    18
100
AcDbPolyline
 90
        3
 70
     0
 43
0.0
 10
-1.663145669291339
 20
8.511830708661417
 10
-1.631377952755906
 20
9.353830708661418
 10
-0.118236220472441
 20
9.853972440944881
  0
LWPOLYLINE
  5
63
330
1F
100
AcDbEntity
  8
Layer 1
 62
     7
370
    18
100
AcDbPolyline
 90
        2
 70
     0
 43
0.0
 10
-1.632496062992126
 20
9.352527559055119
 10
-1.852751968503937
 20
9.513149606299212
  0
LWPOLYLINE
  5
64
330
1F
100
AcDbEntity
  8
Layer 1
 62
     7
370
    18
100
AcDbPolyline
 90
       13
 70
     0
 43
0.0
 10
-0.2100393700787402
 20
8.983358267716536
 10
-0.2469409448818898
 20
9.011956692913385
 10
-0.2789133858267717
 20
9.051673228346457
 10
-0.3059527559055118
 20
9.097909448818898
 10
-0.3280669291338583
 20
9.14605905511811
 10
-0.3452598425196851
 20
9.19151968503937
 10
-0.3575393700787401
 20
9.229692913385827
 10
-0.3649015748031496
 20
9.255968503937007
 10
-0.3673543307086614
 20
9.265751968503936
 10
-0.6298267716535433
 20
9.447342519685039
 10
-1.142834645669291
 20
9.272909448818897
 10
-1.166704724409449
 20
8.940767716535433
 10
-0.9173897637795275
 20
8.759043307086614
  0
LWPOLYLINE
  5
65
330
1F
100
AcDbEntity
  8
Layer 1
 62
     7
370
    18
100
AcDbPolyline
 90
       19
 70
     0
 43
0.0
 10
-1.12542125984252
 20
9.266354330708662
 10
-0.8891889763779528
 20
9.08123622047244
 10
-0.8870314960629921
 20
9.072122047244095
 10
-0.8802401574803149
 20
9.047417322834646
 10
-0.8683307086614174
 20
9.011074803149606
 10
-0.8508228346456693
 20
8.967051181102363
 10
-0.8272362204724409
 20
8.9193031496063
 10
-0.7970905511811024
 20
8.871779527559054
 10
-0.7598976377952756
 20
8.828437007874015
 10
-0.7151850393700787
 20
8.793232283464567
 10
-0.7094685039370079
 20
8.788338582677165
 10
-0.6935157480314961
 20
8.776688976377953
 10
-0.6691259842519685
 20
8.762834645669292
 10
-0.6380984251968503
 20
8.751326771653543
 10
-0.6022322834645669
 20
8.746712598425196
 10
-0.5633307086614173
 20
8.753547244094488
 10
-0.5231889763779528
 20
8.776374015748031
 10
-0.4836062992125984
 20
8.81974409448819
 10
-0.0871338582677165
 20
8.959192913385827
  0
LWPOLYLINE
  5
66
330
1F
100
AcDbEntity
  8
Layer 1
 62
     7
370
    18
100
AcDbPolyline
 90
        2
 70
     0
 43
0.0
 10
-0.3665787401574803
 20
9.261141732283464
 10
-0.8868031496062992
 20
9.088405511811024
  0
LWPOLYLINE
  5
67
330
1F
100
AcDbEntity
  8
Layer 1
 62
     7
370
    18
100
AcDbPolyline
 90
        3
 70
     0
 43
0.0
 10
-0.4823267716535433
 20
8.817937007874015
 10
-0.4189448818897638
 20
8.777181102362205
 10
-0.4406732283464567
 20
8.430700787401575
  0
LWPOLYLINE
  5
68
330
1F
100
AcDbEntity
  8
Layer 1
 62
     7
370
    18
100
AcDbPolyline
 90
        2
 70
     0
 43
0.0
 10
0.1011968503937008
 20
8.955094488188976
 10
-0.4171850393700787
 20
8.77783464566929
  0
LWPOLYLINE
  5
69
330
1F
100
AcDbEntity
  8
Layer 1
 62
     7
370
    18
100
AcDbPolyline
 90
        4
 70
     1
 43
0.0
 10
0.3371417322834646
 20
9.99301968503937
 10
0.3223425196850394
 20
10.01987795275591
 10
0.3075826771653543
 20
9.993
 10
0.3371417322834646
 20
9.99301968503937
  0
LWPOLYLINE
  5
6A
330
1F
100
AcDbEntity
  8
Layer 1
 62
     7
370
    18
100
AcDbPolyline
 90
        4
 70
     1
 43
0.0
 10
0.338011811023622
 20
8.634551181102362
 10
0.323248031496063
 20
8.60767716535433
 10
0.3084527559055118
 20
8.634531496062992
 10
0.338011811023622
 20
8.634551181102362
  0
LWPOLYLINE
  5
6B
330
1F
100
AcDbEntity
  8
Layer 1
 62
     7
370
    18
100
AcDbPolyline
 90
        2
 70
     0
 43
0.0
 10
0.3207637795275591
 20
10.02883464566929
 10
0.3216811023622047
 20
8.598720472440945
  0
LWPOLYLINE
  5
6C
330
1F
100
AcDbEntity
  8
Layer 1
 62
     7
370
    18
100
AcDbPolyline
 90
        4
 70
     1
 43
0.0
 10
-2.080523622047244
 20
9.6998937007874
 10
-2.101062992125984
 20
9.677125984251969
 10
-2.070834645669291
 20
9.671972440944883
 10
-2.080523622047244
 20
9.6998937007874
  0
LWPOLYLINE
  5
6D
330
1F
100
AcDbEntity
  8
Layer 1
 62
     7
370
    18
100
AcDbPolyline
 90
        4
 70
     1
 43
0.0
 10
-0.4676259842519685
 20
10.25963385826772
 10
-0.4373976377952756
 20
10.25448031496063
 10
-0.4579330708661417
 20
10.23170866141732
 10
-0.4676259842519685
 20
10.25963385826772
  0
LWPOLYLINE
  5
6E
330
1F
100
AcDbEntity
  8
Layer 1
 62
     7
370
    18
100
AcDbPolyline
 90
        2
 70
     0
 43
0.0
 10
-2.109007874015748
 20
9.672700787401574
 10
-0.4284212598425197
 20
10.25592913385827
  0
LWPOLYLINE
  5
6F
330
1F
100
AcDbEntity
  8
Layer 1
 62
     7
370
     9
100
AcDbPolyline
 90
      116
 70
     1
 43
0.0
 10
-1.549043307086614
 20
10.3275905511811
 10
-1.536350393700787
 20
10.37783464566929
 10
-1.468507874015748
 20
10.37783464566929
 10
-1.468507874015748
 20
10.39715748031496
 10
-1.550968503937008
 20
10.39715748031496
 10
-1.57248031496063
 20
10.31296850393701
 10
-1.551523622047244
 20
10.30358267716535
 10
-1.54848031496063
 20
10.30565354330709
 10
-1.545291338582677
 20
10.30744881889764
 10
-1.541948818897638
 20
10.30896456692913
 10
-1.538456692913386
 20
10.31020866141732
 10
-1.534811023622047
 20
10.31117322834646
 10
-1.53101968503937
 20
10.31186614173228
 10
-1.527070866141732
 20
10.31227952755905
 10
-1.522972440944882
 20
10.31241732283465
 10
-1.518854330708661
 20
10.3122125984252
 10
-1.514874015748032
 20
10.3116062992126
 10
-1.511031496062992
 20
10.3105905511811
 10
-1.507322834645669
 20
10.30917322834646
 10
-1.503755905511811
 20
10.30734645669291
 10
-1.500322834645669
 20
10.30511811023622
 10
-1.497027559055118
 20
10.30248031496063
 10
-1.493870078740158
 20
10.29944094488189
 10
-1.490897637795276
 20
10.29604724409449
 10
-1.488322834645669
 20
10.29252755905512
 10
-1.486145669291339
 20
10.28888582677165
 10
-1.484362204724409
 20
10.28511811023622
 10
-1.482976377952756
 20
10.28122440944882
 10
-1.481984251968504
 20
10.27720472440945
 10
-1.481389763779527
 20
10.27306299212598
 10
-1.481192913385827
 20
10.26879527559055
 10
-1.481393700787402
 20
10.26437795275591
 10
-1.482003937007874
 20
10.26014173228346
 10
-1.483015748031496
 20
10.25607874015748
 10
-1.484429133858268
 20
10.2521968503937
 10
-1.486251968503937
 20
10.24848818897638
 10
-1.48848031496063
 20
10.24495669291339
 10
-1.491110236220472
 20
10.2416062992126
 10
-1.494149606299213
 20
10.23842913385827
 10
-1.497299212598425
 20
10.23567716535433
 10
-1.500669291338583
 20
10.23322047244094
 10
-1.504263779527559
 20
10.23105905511811
 10
-1.508082677165354
 20
10.22918897637795
 10
-1.512240157480315
 20
10.22767322834646
 10
-1.516842519685039
 20
10.22659448818898
 10
-1.521897637795276
 20
10.22594488188976
 10
-1.527397637795276
 20
10.22572834645669
 10
-1.530251968503937
 20
10.22585039370079
 10
-1.533106299212598
 20
10.2262125984252
 10
-1.535956692913386
 20
10.22681496062992
 10
-1.538803149606299
 20
10.22766141732284
 10
-1.541641732283465
 20
10.22875196850394
 10
-1.54448031496063
 20
10.23008267716535
 10
-1.547311023622047
 20
10.23165354330709
 10
-1.550133858267716
 20
10.23346850393701
 10
-1.552858267716535
 20
10.23547244094488
 10
-1.555377952755906
 20
10.23762204724409
 10
-1.557688976377953
 20
10.23992125984252
 10
-1.559791338582677
 20
10.24236614173228
 10
-1.561688976377953
 20
10.24496062992126
 10
-1.563377952755906
 20
10.24770078740158
 10
-1.564858267716535
 20
10.25058661417323
 10
-1.566133858267716
 20
10.25362204724409
 10
-1.584889763779528
 20
10.24753543307087
 10
-1.583051181102362
 20
10.24299212598425
 10
-1.580905511811024
 20
10.23867716535433
 10
-1.578448818897638
 20
10.2345905511811
 10
-1.575688976377953
 20
10.23073622047244
 10
-1.572622047244094
 20
10.2271062992126
 10
-1.569248031496063
 20
10.22370472440945
 10
-1.565570866141732
 20
10.22053149606299
 10
-1.561582677165354
 20
10.21758661417323
 10
-1.557350393700787
 20
10.21490157480315
 10
-1.553023622047244
 20
10.21257086614173
 10
-1.54859842519685
 20
10.21060236220472
 10
-1.54407874015748
 20
10.20899212598425
 10
-1.539464566929134
 20
10.20774015748031
 10
-1.534751968503937
 20
10.20684645669291
 10
-1.529948818897638
 20
10.20630708661417
 10
-1.525047244094488
 20
10.20612992125984
 10
-1.518515748031496
 20
10.20642519685039
 10
-1.512236220472441
 20
10.20731496062992
 10
-1.506208661417323
 20
10.20879133858268
 10
-1.500429133858268
 20
10.21086220472441
 10
-1.494897637795276
 20
10.21352362204724
 10
-1.489622047244094
 20
10.21677559055118
 10
-1.484590551181102
 20
10.22061417322835
 10
-1.479811023622047
 20
10.22504724409449
 10
-1.47548031496063
 20
10.22985826771654
 10
-1.471728346456693
 20
10.23490551181102
 10
-1.468551181102362
 20
10.24019291338583
 10
-1.465952755905512
 20
10.24571653543307
 10
-1.463929133858268
 20
10.25147637795276
 10
-1.462484251968504
 20
10.25747244094488
 10
-1.46161811023622
 20
10.26370866141732
 10
-1.461330708661417
 20
10.27018503937008
 10
-1.461614173228347
 20
10.27662204724409
 10
-1.462468503937008
 20
10.2827874015748
 10
-1.463889763779528
 20
10.28867716535433
 10
-1.46588188976378
 20
10.29429921259842
 10
-1.46844094488189
 20
10.29964960629921
 10
-1.471566929133858
 20
10.30472834645669
 10
-1.475263779527559
 20
10.30953937007874
 10
-1.479531496062992
 20
10.31407874015748
 10
-1.48398031496063
 20
10.318
 10
-1.488771653543307
 20
10.32149212598425
 10
-1.493909448818898
 20
10.32455118110236
 10
-1.499393700787402
 20
10.32718110236221
 10
-1.505094488188976
 20
10.32929527559055
 10
-1.51090157480315
 20
10.33080708661417
 10
-1.516803149606299
 20
10.3317125984252
 10
-1.522791338582677
 20
10.3320157480315
 10
-1.528976377952756
 20
10.33173622047244
 10
-1.535413385826772
 20
10.33090551181102
 10
-1.54209842519685
 20
10.32952362204724
 10
-1.549043307086614
 20
10.3275905511811
  0
LWPOLYLINE
  5
70
330
1F
100
AcDbEntity
  8
Layer 1
 62
     7
370
     9
100
AcDbPolyline
 90
        4
 70
     1
 43
0.0
 10
-1.336669291338583
 20
10.37616929133858
 10
-1.336669291338583
 20
10.26768503937008
 10
-1.408374015748032
 20
10.26768503937008
 10
-1.336669291338583
 20
10.37616929133858
  0
LWPOLYLINE
  5
71
330
1F
100
AcDbEntity
  8
Layer 1
 62
     7
370
     9
100
AcDbPolyline
 90
       11
 70
     1
 43
0.0
 10
-1.316531496062992
 20
10.24782677165354
 10
-1.292814960629921
 20
10.24782677165354
 10
-1.292814960629921
 20
10.26768503937008
 10
-1.316531496062992
 20
10.26768503937008
 10
-1.316814960629921
 20
10.39715748031496
 10
-1.343838582677165
 20
10.39715748031496
 10
-1.442582677165354
 20
10.24782677165354
 10
-1.336669291338583
 20
10.24782677165354
 10
-1.336669291338583
 20
10.20944488188976
 10
-1.316531496062992
 20
10.20944488188976
 10
-1.316531496062992
 20
10.24782677165354
  0
LWPOLYLINE
  5
72
330
1F
100
AcDbEntity
  8
Layer 1
 62
     7
370
     9
100
AcDbPolyline
 90
      107
 70
     1
 43
0.0
 10
-1.105255905511811
 20
10.21
 10
-1.085948818897638
 20
10.21
 10
-1.085948818897638
 20
10.28591338582677
 10
-1.086106299212598
 20
10.29095275590551
 10
-1.08657874015748
 20
10.29575590551181
 10
-1.087366141732284
 20
10.30032283464567
 10
-1.088468503937008
 20
10.30464960629921
 10
-1.089885826771654
 20
10.30874409448819
 10
-1.091618110236221
 20
10.31259842519685
 10
-1.093665354330709
 20
10.3162125984252
 10
-1.096023622047244
 20
10.31959448818898
 10
-1.098736220472441
 20
10.32273622047244
 10
-1.101779527559055
 20
10.32555905511811
 10
-1.105145669291339
 20
10.32805118110236
 10
-1.108846456692913
 20
10.33021653543307
 10
-1.11301968503937
 20
10.33196850393701
 10
-1.117811023622047
 20
10.33322440944882
 10
-1.123224409448819
 20
10.33398031496063
 10
-1.129263779527559
 20
10.33423228346457
 10
-1.132385826771654
 20
10.33412204724409
 10
-1.135405511811024
 20
10.33379921259843
 10
-1.138330708661417
 20
10.33325984251968
 10
-1.141157480314961
 20
10.3325
 10
-1.143881889763779
 20
10.33152755905512
 10
-1.146507874015748
 20
10.33033858267716
 10
-1.149035433070866
 20
10.32893307086614
 10
-1.151464566929134
 20
10.32731496062992
 10
-1.155582677165354
 20
10.32397244094488
 10
-1.159322834645669
 20
10.32015354330709
 10
-1.162681102362205
 20
10.31586614173228
 10
-1.165665354330709
 20
10.31112598425197
 10
-1.170763779527559
 20
10.31959448818898
 10
-1.17348031496063
 20
10.32273622047244
 10
-1.176527559055118
 20
10.32555905511811
 10
-1.179897637795276
 20
10.32805118110236
 10
-1.183586614173228
 20
10.33021653543307
 10
-1.187759842519685
 20
10.33196850393701
 10
-1.192555118110236
 20
10.33322440944882
 10
-1.197972440944882
 20
10.33398031496063
 10
-1.204003937007874
 20
10.33423228346457
 10
-1.207122047244094
 20
10.33412204724409
 10
-1.210145669291339
 20
10.33379921259843
 10
-1.213066929133858
 20
10.33325984251968
 10
-1.215893700787402
 20
10.3325
 10
-1.218618110236221
 20
10.33152755905512
 10
-1.221244094488189
 20
10.33033858267716
 10
-1.223771653543307
 20
10.32893307086614
 10
-1.226200787401575
 20
10.32731496062992
 10
-1.230133858267717
 20
10.32414566929134
 10
-1.233720472440945
 20
10.32055118110236
 10
-1.236956692913386
 20
10.31653937007874
 10
-1.239850393700787
 20
10.31209842519685
 10
-1.239850393700787
 20
10.33146062992126
 10
-1.259157480314961
 20
10.33146062992126
 10
-1.259157480314961
 20
10.21
 10
-1.239850393700787
 20
10.21
 10
-1.239850393700787
 20
10.27214960629921
 10
-1.238822834645669
 20
10.27925590551181
 10
-1.237240157480315
 20
10.28579921259843
 10
-1.235102362204724
 20
10.2917874015748
 10
-1.232409448818898
 20
10.29722440944882
 10
-1.230015748031496
 20
10.30092125984252
 10
-1.227240157480315
 20
10.30427165354331
 10
-1.224082677165354
 20
10.30727559055118
 10
-1.220551181102362
 20
10.30993700787402
 10
-1.216755905511811
 20
10.3121062992126
 10
-1.212822834645669
 20
10.31365748031496
 10
-1.208755905511811
 20
10.31458661417323
 10
-1.204555118110236
 20
10.31489763779528
 10
-1.200555118110236
 20
10.31473228346457
 10
-1.197106299212598
 20
10.31424015748031
 10
-1.194208661417323
 20
10.31342125984252
 10
-1.191862204724409
 20
10.31227165354331
 10
-1.189082677165354
 20
10.3102125984252
 10
-1.186673228346457
 20
10.3078031496063
 10
-1.184637795275591
 20
10.30503937007874
 10
-1.182968503937008
 20
10.30192125984252
 10
-1.181673228346457
 20
10.29845275590551
 10
-1.180744094488189
 20
10.29462598425197
 10
-1.180188976377953
 20
10.29044881889764
 10
-1.180003937007874
 20
10.28591338582677
 10
-1.180003937007874
 20
10.21
 10
-1.160704724409449
 20
10.21
 10
-1.160704724409449
 20
10.28591338582677
 10
-1.160830708661417
 20
10.29055511811024
 10
-1.157669291338583
 20
10.29722440944882
 10
-1.155271653543307
 20
10.30092125984252
 10
-1.152496062992126
 20
10.30427165354331
 10
-1.149342519685039
 20
10.30727559055118
 10
-1.145811023622047
 20
10.30993700787402
 10
-1.142015748031496
 20
10.3121062992126
 10
-1.138082677165354
 20
10.31365748031496
 10
-1.134011811023622
 20
10.31458661417323
 10
-1.129799212598425
 20
10.31489763779528
 10
-1.125807086614173
 20
10.31473228346457
 10
-1.12236220472441
 20
10.31424015748031
 10
-1.119464566929134
 20
10.31342125984252
 10
-1.117114173228346
 20
10.31227165354331
 10
-1.114338582677165
 20
10.3102125984252
 10
-1.111933070866142
 20
10.3078031496063
 10
-1.109893700787402
 20
10.30503937007874
 10
-1.108224409448819
 20
10.30192125984252
 10
-1.106925196850394
 20
10.29845275590551
 10
-1.106
 20
10.29462598425197
 10
-1.10544094488189
 20
10.29044881889764
 10
-1.105255905511811
 20
10.28591338582677
 10
-1.105255905511811
 20
10.21
  0
LWPOLYLINE
  5
73
330
1F
100
AcDbEntity
  8
Layer 1
 62
     7
370
     9
100
AcDbPolyline
 90
      107
 70
     1
 43
0.0
 10
-0.8948070866141732
 20
10.21
 10
-0.8755
 20
10.21
 10
-0.8755
 20
10.28591338582677
 10
-0.8756574803149606
 20
10.29095275590551
 10
-0.8761299212598426
 20
10.29575590551181
 10
-0.8769173228346456
 20
10.30032283464567
 10
-0.8780196850393701
 20
10.30464960629921
 10
-0.8794370078740158
 20
10.30874409448819
 10
-0.8811653543307086
 20
10.31259842519685
 10
-0.8832086614173228
 20
10.3162125984252
 10
-0.8855669291338583
 20
10.31959448818898
 10
-0.8882834645669291
 20
10.32273622047244
 10
-0.8913228346456693
 20
10.32555905511811
 10
-0.8946929133858268
 20
10.32805118110236
 10
-0.8983897637795275
 20
10.33021653543307
 10
-0.9025669291338583
 20
10.33196850393701
 10
-0.9073622047244094
 20
10.33322440944882
 10
-0.9127716535433071
 20
10.33398031496063
 10
-0.9188070866141732
 20
10.33423228346457
 10
-0.9219291338582677
 20
10.33412204724409
 10
-0.9249527559055118
 20
10.33379921259843
 10
-0.9278779527559056
 20
10.33325984251968
 10
-0.9307007874015748
 20
10.3325
 10
-0.9334291338582678
 20
10.33152755905512
 10
-0.9360551181102362
 20
10.33033858267716
 10
-0.9385826771653544
 20
10.32893307086614
 10
-0.941015748031496
 20
10.32731496062992
 10
-0.9451299212598425
 20
10.32397244094488
 10
-0.9488700787401575
 20
10.32015354330709
 10
-0.952228346456693
 20
10.31586614173228
 10
-0.9552086614173229
 20
10.31112598425197
 10
-0.9603149606299213
 20
10.31959448818898
 10
-0.9630275590551182
 20
10.32273622047244
 10
-0.9660708661417323
 20
10.32555905511811
 10
-0.9694409448818898
 20
10.32805118110236
 10
-0.9731377952755905
 20
10.33021653543307
 10
-0.9773110236220472
 20
10.33196850393701
 10
-0.9821062992125984
 20
10.33322440944882
 10
-0.98751968503937
 20
10.33398031496063
 10
-0.9935551181102362
 20
10.33423228346457
 10
-0.9966732283464567
 20
10.33412204724409
 10
-0.9996968503937008
 20
10.33379921259843
 10
-1.00261811023622
 20
10.33325984251968
 10
-1.005444881889764
 20
10.3325
 10
-1.008169291338583
 20
10.33152755905512
 10
-1.010795275590551
 20
10.33033858267716
 10
-1.013322834645669
 20
10.32893307086614
 10
-1.015751968503937
 20
10.32731496062992
 10
-1.019685039370079
 20
10.32414566929134
 10
-1.023271653543307
 20
10.32055118110236
 10
-1.026507874015748
 20
10.31653937007874
 10
-1.02940157480315
 20
10.31209842519685
 10
-1.02940157480315
 20
10.33146062992126
 10
-1.048712598425197
 20
10.33146062992126
 10
-1.048712598425197
 20
10.21
 10
-1.02940157480315
 20
10.21
 10
-1.02940157480315
 20
10.27214960629921
 10
-1.028374015748031
 20
10.27925590551181
 10
-1.026791338582677
 20
10.28579921259843
 10
-1.024653543307087
 20
10.2917874015748
 10
-1.02196062992126
 20
10.29722440944882
 10
-1.019562992125984
 20
10.30092125984252
 10
-1.016787401574803
 20
10.30427165354331
 10
-1.013633858267716
 20
10.30727559055118
 10
-1.010102362204724
 20
10.30993700787402
 10
-1.006307086614173
 20
10.3121062992126
 10
-1.002374015748031
 20
10.31365748031496
 10
-0.9983070866141732
 20
10.31458661417323
 10
-0.9941102362204725
 20
10.31489763779528
 10
-0.9901062992125984
 20
10.31473228346457
 10
-0.9866574803149606
 20
10.31424015748031
 10
-0.983755905511811
 20
10.31342125984252
 10
-0.9814055118110236
 20
10.31227165354331
 10
-0.9786299212598425
 20
10.3102125984252
 10
-0.9762204724409449
 20
10.3078031496063
 10
-0.9741811023622047
 20
10.30503937007874
 10
-0.9725157480314961
 20
10.30192125984252
 10
-0.9712165354330708
 20
10.29845275590551
 10
-0.9702913385826771
 20
10.29462598425197
 10
-0.969732283464567
 20
10.29044881889764
 10
-0.9695472440944882
 20
10.28591338582677
 10
-0.9695472440944882
 20
10.21
 10
-0.950248031496063
 20
10.21
 10
-0.950248031496063
 20
10.28591338582677
 10
-0.9503818897637796
 20
10.29055511811024
 10
-0.9472204724409449
 20
10.29722440944882
 10
-0.9448228346456693
 20
10.30092125984252
 10
-0.9420433070866142
 20
10.30427165354331
 10
-0.9388897637795276
 20
10.30727559055118
 10
-0.9353622047244095
 20
10.30993700787402
 10
-0.9315629921259843
 20
10.3121062992126
 10
-0.9276299212598426
 20
10.31365748031496
 10
-0.9235590551181102
 20
10.31458661417323
 10
-0.9193503937007874
 20
10.31489763779528
 10
-0.9153543307086615
 20
10.31473228346457
 10
-0.9119094488188977
 20
10.31424015748031
 10
-0.909011811023622
 20
10.31342125984252
 10
-0.9066653543307086
 20
10.31227165354331
 10
-0.9038897637795276
 20
10.3102125984252
 10
-0.9014842519685039
 20
10.3078031496063
 10
-0.8994448818897638
 20
10.30503937007874
 10
-0.8977755905511811
 20
10.30192125984252
 10
-0.8964763779527559
 20
10.29845275590551
 10
-0.8955511811023622
 20
10.29462598425197
 10
-0.8949921259842519
 20
10.29044881889764
 10
-0.8948070866141732
 20
10.28591338582677
 10
-0.8948070866141732
 20
10.21
  0
LWPOLYLINE
  5
74
330
1F
100
AcDbEntity
  8
Layer 1
 62
     7
370
     9
100
AcDbPolyline
 90
      116
 70
     1
 43
0.0
 10
0.4275629921259843
 20
9.328425196850393
 10
0.440255905511811
 20
9.378669291338582
 10
0.5080984251968504
 20
9.378669291338582
 10
0.5080984251968504
 20
9.397992125984253
 10
0.4256377952755905
 20
9.397992125984253
 10
0.4041299212598425
 20
9.313803149606299
 10
0.4250826771653543
 20
9.30442125984252
 10
0.4281259842519685
 20
9.306492125984253
 10
0.4313188976377953
 20
9.308283464566928
 10
0.4346614173228346
 20
9.3098031496063
 10
0.4381535433070866
 20
9.311043307086614
 10
0.4417992125984252
 20
9.312007874015748
 10
0.4455944881889764
 20
9.312700787401575
 10
0.4495393700787402
 20
9.313114173228346
 10
0.4536338582677165
 20
9.313251968503938
 10
0.457751968503937
 20
9.313047244094488
 10
0.4617322834645669
 20
9.31244094488189
 10
0.4655787401574803
 20
9.311425196850394
 10
0.4692834645669292
 20
9.310007874015747
 10
0.4728543307086614
 20
9.308181102362205
 10
0.4762874015748031
 20
9.305952755905512
 10
0.4795787401574803
 20
9.30331496062992
 10
0.482736220472441
 20
9.30027559055118
 10
0.4857086614173228
 20
9.29688188976378
 10
0.4882834645669291
 20
9.29336220472441
 10
0.4904645669291339
 20
9.289720472440944
 10
0.492248031496063
 20
9.285952755905512
 10
0.4936377952755905
 20
9.28205905511811
 10
0.4946259842519685
 20
9.27803937007874
 10
0.4952244094488189
 20
9.273897637795276
 10
0.4954212598425197
 20
9.269629921259842
 10
0.4952204724409449
 20
9.265212598425197
 10
0.4946102362204725
 20
9.260976377952757
 10
0.4935984251968504
 20
9.256913385826772
 10
0.4921811023622047
 20
9.253031496062992
 10
0.4903582677165355
 20
9.24932283464567
 10
0.4881299212598425
 20
9.245791338582677
 10
0.485496062992126
 20
9.24244094488189
 10
0.4824566929133858
 20
9.239263779527558
 10
0.4793070866141732
 20
9.236511811023622
 10
0.4759370078740158
 20
9.234055118110236
 10
0.4723464566929134
 20
9.231893700787401
 10
0.4685275590551181
 20
9.230023622047245
 10
0.4643700787401575
 20
9.228507874015747
 10
0.4597677165354331
 20
9.227429133858267
 10
0.4547165354330709
 20
9.226779527559055
 10
0.4492165354330709
 20
9.226562992125984
 10
0.4463582677165354
 20
9.226685039370079
 10
0.443507874015748
 20
9.227047244094488
 10
0.4406574803149606
 20
9.227649606299213
 10
0.4378110236220473
 20
9.228496062992125
 10
0.4349724409448819
 20
9.229586614173229
 10
0.4321338582677166
 20
9.230917322834646
 10
0.4292992125984252
 20
9.232488188976378
 10
0.4264724409448819
 20
9.2343031496063
 10
0.423748031496063
 20
9.236307086614174
 10
0.4212283464566929
 20
9.238456692913386
 10
0.4189212598425197
 20
9.240755905511811
 10
0.4168188976377953
 20
9.243200787401575
 10
0.4149212598425197
 20
9.24579527559055
 10
0.4132322834645669
 20
9.248535433070867
 10
0.411751968503937
 20
9.25142125984252
 10
0.4104803149606299
 20
9.254456692913386
 10
0.3917165354330709
 20
9.248370078740157
 10
0.3935551181102362
 20
9.243826771653543
 10
0.3957007874015748
 20
9.239511811023622
 10
0.3981574803149606
 20
9.235425196850393
 10
0.4009173228346457
 20
9.231570866141732
 10
0.403984251968504
 20
9.22794094488189
 10
0.4073582677165354
 20
9.224539370078741
 10
0.4110354330708662
 20
9.221366141732284
 10
0.4150236220472441
 20
9.21842125984252
 10
0.4192598425196851
 20
9.215736220472442
 10
0.4235905511811023
 20
9.213405511811024
 10
0.4280157480314961
 20
9.211437007874016
 10
0.4325354330708661
 20
9.209826771653542
 10
0.4371496062992126
 20
9.208574803149606
 10
0.4418622047244095
 20
9.207681102362205
 10
0.4466692913385827
 20
9.207141732283464
 10
0.4515708661417323
 20
9.206964566929134
 10
0.4580984251968504
 20
9.207259842519685
 10
0.4643740157480315
 20
9.208149606299212
 10
0.4704015748031496
 20
9.209625984251968
 10
0.4761811023622047
 20
9.2116968503937
 10
0.4817086614173228
 20
9.214358267716536
 10
0.486988188976378
 20
9.217610236220473
 10
0.4920157480314961
 20
9.221448818897638
 10
0.4967952755905512
 20
9.22588188976378
 10
0.5011259842519685
 20
9.230692913385827
 10
0.5048818897637796
 20
9.235740157480315
 10
0.5080629921259843
 20
9.241027559055118
 10
0.5106614173228347
 20
9.246551181102362
 10
0.5126850393700787
 20
9.252311023622047
 10
0.5141299212598425
 20
9.258307086614174
 10
0.515
 20
9.264543307086614
 10
0.5152874015748031
 20
9.27101968503937
 10
0.5150039370078741
 20
9.277456692913386
 10
0.5141496062992126
 20
9.283622047244094
 10
0.5127244094488189
 20
9.289511811023623
 10
0.5107322834645669
 20
9.295133858267716
 10
0.5081692913385827
 20
9.300484251968504
 10
0.5050393700787401
 20
9.305562992125985
 10
0.5013425196850394
 20
9.310374015748032
 10
0.4970787401574803
 20
9.314913385826772
 10
0.4926259842519685
 20
9.318834645669291
 10
0.4878346456692914
 20
9.322326771653543
 10
0.4826968503937008
 20
9.325385826771653
 10
0.4772125984251969
 20
9.328015748031497
 10
0.4715118110236221
 20
9.330129921259843
 10
0.4657047244094488
 20
9.331641732283465
 10
0.4598031496062992
 20
9.332547244094489
 10
0.4538149606299213
 20
9.332850393700788
 10
0.4476299212598425
 20
9.332570866141733
 10
0.4411968503937008
 20
9.331740157480315
 10
0.434507874015748
 20
9.330358267716536
 10
0.4275629921259843
 20
9.328425196850393
  0
LWPOLYLINE
  5
75
330
1F
100
AcDbEntity
  8
Layer 1
 62
     7
370
     9
100
AcDbPolyline
 90
       67
 70
     1
 43
0.0
 10
0.6221456692913386
 20
9.376188976377954
 10
0.6253346456692913
 20
9.374023622047243
 10
0.6283031496062992
 20
9.371562992125984
 10
0.6310590551181102
 20
9.368811023622047
 10
0.6335984251968504
 20
9.365763779527558
 10
0.6359212598425197
 20
9.362425196850394
 10
0.6380314960629921
 20
9.358795275590552
 10
0.6399251968503937
 20
9.354870078740158
 10
0.6416023622047244
 20
9.350649606299212
 10
0.6434763779527559
 20
9.345051181102361
 10
0.6451023622047244
 20
9.339374015748032
 10
0.6464724409448819
 20
9.333614173228346
 10
0.6475944881889764
 20
9.327771653543307
 10
0.6484685039370078
 20
9.321850393700787
 10
0.6490905511811024
 20
9.315846456692913
 10
0.6494606299212599
 20
9.309759842519686
 10
0.6495866141732284
 20
9.303594488188976
 10
0.6487716535433071
 20
9.289917322834645
 10
0.6478149606299213
 20
9.2825
 10
0.6465629921259842
 20
9.275492125984252
 10
0.6450196850393701
 20
9.268889763779528
 10
0.6431811023622047
 20
9.262700787401576
 10
0.6410551181102362
 20
9.256917322834646
 10
0.6386338582677166
 20
9.251547244094489
 10
0.6359173228346456
 20
9.246586614173228
 10
0.6329133858267717
 20
9.242035433070866
 10
0.6301653543307086
 20
9.238602362204725
 10
0.627271653543307
 20
9.235625984251968
 10
0.6242322834645669
 20
9.233110236220472
 10
0.6210472440944882
 20
9.231055118110236
 10
0.6177165354330708
 20
9.229452755905513
 10
0.614236220472441
 20
9.228311023622048
 10
0.6106141732283464
 20
9.227625984251969
 10
0.6068425196850393
 20
9.227397637795276
 10
0.6026377952755906
 20
9.227625984251969
 10
0.5986338582677165
 20
9.2283031496063
 10
0.5948307086614173
 20
9.229437007874015
 10
0.5912283464566929
 20
9.231023622047244
 10
0.5878307086614173
 20
9.23305905511811
 10
0.5846338582677165
 20
9.235551181102363
 10
0.5816377952755906
 20
9.238496062992127
 10
0.5788464566929133
 20
9.241889763779527
 10
0.5708503937007874
 20
9.256527559055119
 10
0.5660275590551181
 20
9.273220472440945
 10
0.5636811023622047
 20
9.289783464566929
 10
0.562992125984252
 20
9.308236220472441
 10
0.5631811023622048
 20
9.313755905511812
 10
0.563751968503937
 20
9.319901574803149
 10
0.5647007874015748
 20
9.326677165354331
 10
0.5660275590551181
 20
9.334094488188976
 10
0.5707165354330709
 20
9.350783464566929
 10
0.5723425196850394
 20
9.354826771653544
 10
0.5741929133858268
 20
9.35865748031496
 10
0.5762716535433071
 20
9.362279527559055
 10
0.5785748031496063
 20
9.365692913385827
 10
0.5811062992125984
 20
9.368846456692914
 10
0.5838818897637795
 20
9.371665354330709
 10
0.5868976377952756
 20
9.374157480314961
 10
0.5901535433070866
 20
9.37632283464567
 10
0.5936929133858267
 20
9.378074803149607
 10
0.5975354330708661
 20
9.379326771653544
 10
0.6016889763779527
 20
9.38007874015748
 10
0.6061535433070866
 20
9.380330708661416
 10
0.6106181102362205
 20
9.380070866141732
 10
0.6147755905511811
 20
9.37929527559055
 10
0.6186181102362205
 20
9.378
 10
0.6221456692913386
 20
9.376188976377954
  0
LWPOLYLINE
  5
76
330
1F
100
AcDbEntity
  8
Layer 1
 62
     7
370
     9
100
AcDbPolyline
 90
       65
 70
     1
 43
0.0
 10
0.6071181102362204
 20
9.207799212598426
 10
0.6151732283464567
 20
9.208311023622047
 10
0.6227125984251969
 20
9.20984251968504
 10
0.629740157480315
 20
9.212401574803149
 10
0.636255905511811
 20
9.21598031496063
 10
0.642259842519685
 20
9.22057874015748
 10
0.647748031496063
 20
9.226204724409449
 10
0.6527244094488189
 20
9.232850393700787
 10
0.6571850393700788
 20
9.24051968503937
 10
0.6603228346456693
 20
9.247204724409448
 10
0.6630393700787401
 20
9.254263779527559
 10
0.6653385826771654
 20
9.261692913385827
 10
0.6672165354330709
 20
9.269496062992125
 10
0.6686811023622047
 20
9.277669291338583
 10
0.669724409448819
 20
9.286216535433072
 10
0.6703503937007874
 20
9.295133858267716
 10
0.6705590551181102
 20
9.30442125984252
 10
0.6703503937007874
 20
9.31370472440945
 10
0.669724409448819
 20
9.32261811023622
 10
0.6686811023622047
 20
9.33116535433071
 10
0.6672165354330709
 20
9.339338582677165
 10
0.6653385826771654
 20
9.347141732283465
 10
0.6630393700787401
 20
9.354570866141731
 10
0.6603228346456693
 20
9.361633858267716
 10
0.6571850393700788
 20
9.368318897637796
 10
0.6527244094488189
 20
9.375984251968504
 10
0.647748031496063
 20
9.382629921259843
 10
0.642259842519685
 20
9.388251968503937
 10
0.636255905511811
 20
9.392850393700787
 10
0.629740157480315
 20
9.396429133858268
 10
0.6227125984251969
 20
9.398984251968503
 10
0.6151732283464567
 20
9.400515748031497
 10
0.6071181102362204
 20
9.401027559055118
 10
0.5990669291338583
 20
9.400515748031497
 10
0.5915275590551181
 20
9.398984251968503
 10
0.5845
 20
9.396429133858268
 10
0.5779842519685039
 20
9.392850393700787
 10
0.5719842519685039
 20
9.388251968503937
 10
0.566496062992126
 20
9.382629921259843
 10
0.5615196850393701
 20
9.375984251968504
 10
0.5570590551181103
 20
9.368318897637796
 10
0.5539212598425197
 20
9.361633858267716
 10
0.5512047244094488
 20
9.354570866141731
 10
0.5489055118110236
 20
9.347141732283465
 10
0.5470236220472441
 20
9.339338582677165
 10
0.5455590551181102
 20
9.33116535433071
 10
0.544515748031496
 20
9.32261811023622
 10
0.5438897637795276
 20
9.31370472440945
 10
0.5436811023622047
 20
9.30442125984252
 10
0.5438897637795276
 20
9.295133858267716
 10
0.544515748031496
 20
9.286216535433072
 10
0.5455590551181102
 20
9.277669291338583
 10
0.5470236220472441
 20
9.269496062992125
 10
0.5489055118110236
 20
9.261692913385827
 10
0.5512047244094488
 20
9.254263779527559
 10
0.5539212598425197
 20
9.247204724409448
 10
0.5570590551181103
 20
9.24051968503937
 10
0.5615196850393701
 20
9.232850393700787
 10
0.566496062992126
 20
9.226204724409449
 10
0.5719842519685039
 20
9.22057874015748
 10
0.5779842519685039
 20
9.21598031496063
 10
0.5845
 20
9.212401574803149
 10
0.5915275590551181
 20
9.20984251968504
 10
0.5990669291338583
 20
9.208311023622047
 10
0.6071181102362204
 20
9.207799212598426
  0
LWPOLYLINE
  5
77
330
1F
100
AcDbEntity
  8
Layer 1
 62
     7
370
     9
100
AcDbPolyline
 90
      107
 70
     1
 43
0.0
 10
0.8589370078740157
 20
9.21083464566929
 10
0.878248031496063
 20
9.21083464566929
 10
0.878248031496063
 20
9.286748031496064
 10
0.8780905511811024
 20
9.291787401574803
 10
0.8776181102362205
 20
9.296590551181103
 10
0.8768307086614173
 20
9.301157480314961
 10
0.875728346456693
 20
9.305484251968505
 10
0.8743110236220473
 20
9.30957874015748
 10
0.8725826771653543
 20
9.313433070866141
 10
0.8705354330708661
 20
9.317047244094487
 10
0.8681771653543308
 20
9.320429133858267
 10
0.8654606299212598
 20
9.323570866141733
 10
0.8624212598425197
 20
9.326393700787401
 10
0.8590551181102363
 20
9.328885826771653
 10
0.8553582677165354
 20
9.331051181102362
 10
0.8511850393700787
 20
9.332803149606299
 10
0.8463937007874016
 20
9.334055118110236
 10
0.84098031496063
 20
9.3348031496063
 10
0.8349409448818897
 20
9.335055118110237
 10
0.8318188976377953
 20
9.334948818897638
 10
0.8287952755905512
 20
9.334625984251968
 10
0.8258700787401575
 20
9.334086614173229
 10
0.8230472440944882
 20
9.333330708661418
 10
0.8203188976377953
 20
9.33236220472441
 10
0.8176929133858267
 20
9.331173228346456
 10
0.8151614173228346
 20
9.329771653543308
 10
0.8127322834645669
 20
9.328149606299213
 10
0.8086141732283465
 20
9.324807086614173
 10
0.8048779527559055
 20
9.320988188976377
 10
0.8015196850393701
 20
9.316700787401574
 10
0.7985393700787402
 20
9.31196062992126
 10
0.7934330708661418
 20
9.320429133858267
 10
0.7907165354330709
 20
9.323570866141733
 10
0.7876732283464567
 20
9.326393700787401
 10
0.7843031496062992
 20
9.328885826771653
 10
0.7806102362204724
 20
9.331051181102362
 10
0.7764370078740157
 20
9.332803149606299
 10
0.7716417322834646
 20
9.334055118110236
 10
0.7662283464566929
 20
9.3348031496063
 10
0.7601929133858267
 20
9.335055118110237
 10
0.7570708661417322
 20
9.334948818897638
 10
0.7540511811023622
 20
9.334625984251968
 10
0.7511299212598426
 20
9.334086614173229
 10
0.7483070866141732
 20
9.333330708661418
 10
0.7455787401574803
 20
9.33236220472441
 10
0.7429527559055118
 20
9.331173228346456
 10
0.7404251968503937
 20
9.329771653543308
 10
0.737992125984252
 20
9.328149606299213
 10
0.7340629921259842
 20
9.324972440944881
 10
0.7304803149606299
 20
9.32138188976378
 10
0.727240157480315
 20
9.317370078740158
 10
0.7243464566929134
 20
9.312933070866142
 10
0.7243464566929134
 20
9.332295275590551
 10
0.7050354330708661
 20
9.332295275590551
 10
0.7050354330708661
 20
9.21083464566929
 10
0.7243464566929134
 20
9.21083464566929
 10
0.7243464566929134
 20
9.272984251968504
 10
0.7253779527559056
 20
9.280094488188976
 10
0.7269606299212599
 20
9.28663779527559
 10
0.7290944881889764
 20
9.292622047244095
 10
0.7317874015748032
 20
9.29805905511811
 10
0.7341850393700787
 20
9.301755905511811
 10
0.7369606299212599
 20
9.305106299212598
 10
0.7401141732283465
 20
9.308110236220472
 10
0.7436456692913386
 20
9.310771653543307
 10
0.7474409448818897
 20
9.31294094488189
 10
0.7513740157480315
 20
9.314492125984252
 10
0.7554409448818897
 20
9.31542125984252
 10
0.7596456692913386
 20
9.315732283464566
 10
0.7636456692913386
 20
9.315566929133858
 10
0.7670944881889764
 20
9.315074803149606
 10
0.7699921259842519
 20
9.31425590551181
 10
0.7723425196850394
 20
9.313106299212599
 10
0.7751181102362205
 20
9.311047244094489
 10
0.7775236220472441
 20
9.30863779527559
 10
0.7795629921259842
 20
9.305874015748032
 10
0.781232283464567
 20
9.302759842519684
 10
0.7825314960629921
 20
9.299287401574803
 10
0.7834566929133858
 20
9.295464566929134
 10
0.7840157480314961
 20
9.291283464566929
 10
0.7842007874015748
 20
9.286748031496064
 10
0.7842007874015748
 20
9.21083464566929
 10
0.8035
 20
9.21083464566929
 10
0.8035
 20
9.286748031496064
 10
0.8033740157480315
 20
9.291389763779527
 10
0.8065236220472441
 20
9.29805905511811
 10
0.8089212598425197
 20
9.301755905511811
 10
0.8117007874015748
 20
9.305106299212598
 10
0.8148582677165355
 20
9.308110236220472
 10
0.8183937007874016
 20
9.310771653543307
 10
0.8221889763779527
 20
9.31294094488189
 10
0.8261220472440944
 20
9.314492125984252
 10
0.8301889763779527
 20
9.31542125984252
 10
0.8343937007874016
 20
9.315732283464566
 10
0.8383897637795276
 20
9.315566929133858
 10
0.8418346456692913
 20
9.315074803149606
 10
0.844732283464567
 20
9.31425590551181
 10
0.8470787401574803
 20
9.313106299212599
 10
0.8498582677165354
 20
9.311047244094489
 10
0.8522677165354331
 20
9.30863779527559
 10
0.8543031496062992
 20
9.305874015748032
 10
0.8559724409448819
 20
9.302759842519684
 10
0.8572677165354331
 20
9.299287401574803
 10
0.8581968503937007
 20
9.295464566929134
 10
0.858751968503937
 20
9.291283464566929
 10
0.8589370078740157
 20
9.286748031496064
 10
0.8589370078740157
 20
9.21083464566929
  0
LWPOLYLINE
  5
78
330
1F
100
AcDbEntity
  8
Layer 1
 62
     7
370
     9
100
AcDbPolyline
 90
      107
 70
     1
 43
0.0
 10
1.069385826771654
 20
9.21083464566929
 10
1.088704724409449
 20
9.21083464566929
 10
1.088704724409449
 20
9.286748031496064
 10
1.088547244094488
 20
9.291787401574803
 10
1.088074803149606
 20
9.296590551181103
 10
1.087283464566929
 20
9.301157480314961
 10
1.086181102362205
 20
9.305484251968505
 10
1.084763779527559
 20
9.30957874015748
 10
1.083031496062992
 20
9.313433070866141
 10
1.080984251968504
 20
9.317047244094487
 10
1.078625984251969
 20
9.320429133858267
 10
1.075909448818898
 20
9.323570866141733
 10
1.072870078740157
 20
9.326393700787401
 10
1.069503937007874
 20
9.328885826771653
 10
1.065807086614173
 20
9.331051181102362
 10
1.061633858267717
 20
9.332803149606299
 10
1.056842519685039
 20
9.334055118110236
 10
1.051429133858268
 20
9.3348031496063
 10
1.045389763779528
 20
9.335055118110237
 10
1.042267716535433
 20
9.334948818897638
 10
1.039248031496063
 20
9.334625984251968
 10
1.036322834645669
 20
9.334086614173229
 10
1.0335
 20
9.333330708661418
 10
1.030771653543307
 20
9.33236220472441
 10
1.028145669291339
 20
9.331173228346456
 10
1.025618110236221
 20
9.329771653543308
 10
1.023188976377953
 20
9.328149606299213
 10
1.019070866141732
 20
9.324807086614173
 10
1.015330708661417
 20
9.320988188976377
 10
1.011972440944882
 20
9.316700787401574
 10
1.008988188976378
 20
9.31196062992126
 10
1.003889763779528
 20
9.320429133858267
 10
1.001169291338583
 20
9.323570866141733
 10
0.9981259842519685
 20
9.326393700787401
 10
0.994755905511811
 20
9.328885826771653
 10
0.9910669291338583
 20
9.331051181102362
 10
0.9868897637795275
 20
9.332803149606299
 10
0.9820944881889764
 20
9.334055118110236
 10
0.9766811023622047
 20
9.3348031496063
 10
0.9706496062992126
 20
9.335055118110237
 10
0.9675275590551181
 20
9.334948818897638
 10
0.9645039370078741
 20
9.334625984251968
 10
0.9615787401574803
 20
9.334086614173229
 10
0.958755905511811
 20
9.333330708661418
 10
0.9560275590551182
 20
9.33236220472441
 10
0.9534015748031496
 20
9.331173228346456
 10
0.9508700787401575
 20
9.329771653543308
 10
0.9484409448818898
 20
9.328149606299213
 10
0.944511811023622
 20
9.324972440944881
 10
0.9409251968503937
 20
9.32138188976378
 10
0.9376889763779528
 20
9.317370078740158
 10
0.9348031496062992
 20
9.312933070866142
 10
0.9348031496062992
 20
9.332295275590551
 10
0.9154842519685039
 20
9.332295275590551
 10
0.9154842519685039
 20
9.21083464566929
 10
0.9348031496062992
 20
9.21083464566929
 10
0.9348031496062992
 20
9.272984251968504
 10
0.9358307086614174
 20
9.280094488188976
 10
0.9374133858267717
 20
9.28663779527559
 10
0.9395472440944882
 20
9.292622047244095
 10
0.9422362204724409
 20
9.29805905511811
 10
0.9446338582677165
 20
9.301755905511811
 10
0.9474133858267717
 20
9.305106299212598
 10
0.9505669291338583
 20
9.308110236220472
 10
0.9540944881889764
 20
9.310771653543307
 10
0.9578937007874015
 20
9.31294094488189
 10
0.9618267716535434
 20
9.314492125984252
 10
0.9658897637795275
 20
9.31542125984252
 10
0.9700944881889764
 20
9.315732283464566
 10
0.9740984251968504
 20
9.315566929133858
 10
0.9775472440944882
 20
9.315074803149606
 10
0.9804448818897638
 20
9.31425590551181
 10
0.9827913385826772
 20
9.313106299212599
 10
0.9855708661417323
 20
9.311047244094489
 10
0.987976377952756
 20
9.30863779527559
 10
0.9900157480314961
 20
9.305874015748032
 10
0.9916811023622047
 20
9.302759842519684
 10
0.992976377952756
 20
9.299287401574803
 10
0.9939055118110236
 20
9.295464566929134
 10
0.9944606299212598
 20
9.291283464566929
 10
0.9946456692913386
 20
9.286748031496064
 10
0.9946456692913386
 20
9.21083464566929
 10
1.013948818897638
 20
9.21083464566929
 10
1.013948818897638
 20
9.286748031496064
 10
1.013818897637795
 20
9.291389763779527
 10
1.016984251968504
 20
9.29805905511811
 10
1.019377952755905
 20
9.301755905511811
 10
1.022153543307087
 20
9.305106299212598
 10
1.025307086614173
 20
9.308110236220472
 10
1.028842519685039
 20
9.310771653543307
 10
1.032637795275591
 20
9.31294094488189
 10
1.036570866141732
 20
9.314492125984252
 10
1.040641732283464
 20
9.31542125984252
 10
1.044850393700787
 20
9.315732283464566
 10
1.048842519685039
 20
9.315566929133858
 10
1.052287401574803
 20
9.315074803149606
 10
1.055181102362205
 20
9.31425590551181
 10
1.057527559055118
 20
9.313106299212599
 10
1.060307086614173
 20
9.311047244094489
 10
1.062716535433071
 20
9.30863779527559
 10
1.064751968503937
 20
9.305874015748032
 10
1.06642125984252
 20
9.302759842519684
 10
1.067716535433071
 20
9.299287401574803
 10
1.068645669291339
 20
9.295464566929134
 10
1.069200787401575
 20
9.291283464566929
 10
1.069385826771654
 20
9.286748031496064
 10
1.069385826771654
 20
9.21083464566929
  0
ENDSEC
  0
SECTION
  2
OBJECTS
  0
DICTIONARY
  5
C
330
0
100
AcDbDictionary
281
     1
  3
ACAD_DETAILVIEWSTYLE
350
80
  3
ACAD_GROUP
350
D
  3
ACAD_LAYOUT
350
1A
  3
ACAD_MATERIAL
350
43
  3
ACAD_MLEADERSTYLE
350
5B
  3
ACAD_MLINESTYLE
350
17
  3
ACAD_PLOTSETTINGS
350
19
  3
ACAD_PLOTSTYLENAME
350
E
  3
ACAD_SCALELIST
350
47
  3
ACAD_SECTIONVIEWSTYLE
350
81
  3
ACAD_TABLESTYLE
350
59
  3
ACAD_VISUALSTYLE
350
2A
  3
ACDB_RECOMPOSE_DATA
350
7D
  3
AcDbVariableDictionary
350
79
  0
SUN
  5
5D
330
29
100
AcDbSun
 90
        1
290
     0
 63
     7
421
 16777215
 40
1.0
291
     1
 91
  2455826
 92
 54000000
292
     0
 70
     2
 71
   256
280
     1
  0
DICTIONARY
  5
80
102
{ACAD_REACTORS
330
C
102
}
330
C
100
AcDbDictionary
281
     1
  0
DICTIONARY
  5
D
102
{ACAD_REACTORS
330
C
102
}
330
C
100
AcDbDictionary
281
     1
  0
DICTIONARY
  5
1A
102
{ACAD_REACTORS
330
C
102
}
330
C
100
AcDbDictionary
281
     1
  3
Layout1
350
1E
  3
Layout2
350
26
  3
Model
350
22
  0
DICTIONARY
  5
43
102
{ACAD_REACTORS
330
C
102
}
330
C
100
AcDbDictionary
281
     1
  3
ByBlock
350
45
  3
ByLayer
350
44
  3
Global
350
46
  0
DICTIONARY
  5
5B
102
{ACAD_REACTORS
330
C
102
}
330
C
100
AcDbDictionary
281
     1
  3
Standard
350
5C
  0
DICTIONARY
  5
17
102
{ACAD_REACTORS
330
C
102
}
330
C
100
AcDbDictionary
281
     1
  3
Standard
350
18
  0
DICTIONARY
  5
19
102
{ACAD_REACTORS
330
C
102
}
330
C
100
AcDbDictionary
281
     1
  0
ACDBDICTIONARYWDFLT
  5
E
102
{ACAD_REACTORS
330
C
102
}
330
C
100
AcDbDictionary
281
     1
  3
Normal
350
F
100
AcDbDictionaryWithDefault
340
F
  0
DICTIONARY
  5
47
102
{ACAD_REACTORS
330
C
102
}
330
C
100
AcDbDictionary
281
     1
  3
A0
350
48
  3
A1
350
49
  3
A2
350
4A
  3
A3
350
4B
  3
A4
350
4C
  3
A5
350
4D
  3
A6
350
4E
  3
A7
350
4F
  3
A8
350
50
  3
A9
350
51
  3
B1
350
52
  3
B2
350
53
  3
B3
350
54
  3
B4
350
55
  3
B5
350
56
  3
B6
350
57
  3
B7
350
58
  0
DICTIONARY
  5
81
102
{ACAD_REACTORS
330
C
102
}
330
C
100
AcDbDictionary
281
     1
  0
DICTIONARY
  5
59
102
{ACAD_REACTORS
330
C
102
}
330
C
100
AcDbDictionary
281
     1
  3
Standard
350
5A
  0
DICTIONARY
  5
2A
102
{ACAD_REACTORS
330
C
102
}
330
C
100
AcDbDictionary
281
     1
  3
2dWireframe
350
2F
  3
Basic
350
32
  3
Brighten
350
36
  3
ColorChange
350
3A
  3
Conceptual
350
34
  3
Dim
350
35
  3
EdgeColorOff
350
3D
  3
Facepattern
350
39
  3
Flat
350
2B
  3
FlatWithEdges
350
2C
  3
Gouraud
350
2D
  3
GouraudWithEdges
350
2E
  3
Hidden
350
31
  3
JitterOff
350
3B
  3
Linepattern
350
38
  3
OverhangOff
350
3C
  3
Realistic
350
33
  3
Shaded
350
42
  3
Shaded with edges
350
41
  3
Shades of Gray
350
3E
  3
Sketchy
350
3F
  3
Thicken
350
37
  3
Wireframe
350
30
  3
X-Ray
350
40
  0
XRECORD
  5
7D
102
{ACAD_REACTORS
330
C
102
}
330
C
100
AcDbXrecord
280
     1
 90
        1
330
5A
  0
DICTIONARY
  5
79
102
{ACAD_REACTORS
330
C
102
}
330
C
100
AcDbDictionary
281
     1
  3
CANNOSCALE
350
7A
  3
CMLEADERSTYLE
350
7F
  3
CTABLESTYLE
350
7E
  0
LAYOUT
  5
1E
102
{ACAD_REACTORS
330
1A
102
}
330
1A
100
AcDbPlotSettings
  1

  2
none_device
  4

  6

 40
0.0
 41
0.0
 42
0.0
 43
0.0
 44
0.0
 45
0.0
 46
0.0
 47
0.0
 48
0.0
 49
0.0
140
0.0
141
0.0
142
1.0
143
1.0
 70
   688
 72
     0
 73
     0
 74
     5
  7

 75
    16
 76
     0
 77
     2
 78
   300
147
1.0
148
0.0
149
0.0
100
AcDbLayout
  1
Layout1
 70
     1
 71
     1
 10
0.0
 20
0.0
 11
12.0
 21
9.0
 12
0.0
 22
0.0
 32
0.0
 14
1.000000000000000E+20
 24
1.000000000000000E+20
 34
1.000000000000000E+20
 15
-1.000000000000000E+20
 25
-1.000000000000000E+20
 35
-1.000000000000000E+20
146
0.0
 13
0.0
 23
0.0
 33
0.0
 16
1.0
 26
0.0
 36
0.0
 17
0.0
 27
1.0
 37
0.0
 76
     0
330
1B
  0
LAYOUT
  5
26
102
{ACAD_REACTORS
330
1A
102
}
330
1A
100
AcDbPlotSettings
  1

  2
none_device
  4

  6

 40
0.0
 41
0.0
 42
0.0
 43
0.0
 44
0.0
 45
0.0
 46
0.0
 47
0.0
 48
0.0
 49
0.0
140
0.0
141
0.0
142
1.0
143
1.0
 70
   688
 72
     0
 73
     0
 74
     5
  7

 75
    16
 76
     0
 77
     2
 78
   300
147
1.0
148
0.0
149
0.0
100
AcDbLayout
  1
Layout2
 70
     1
 71
     2
 10
0.0
 20
0.0
 11
0.0
 21
0.0
 12
0.0
 22
0.0
 32
0.0
 14
0.0
 24
0.0
 34
0.0
 15
0.0
 25
0.0
 35
0.0
146
0.0
 13
0.0
 23
0.0
 33
0.0
 16
1.0
 26
0.0
 36
0.0
 17
0.0
 27
1.0
 37
0.0
 76
     0
330
23
  0
LAYOUT
  5
22
102
{ACAD_REACTORS
330
1A
102
}
330
1A
100
AcDbPlotSettings
  1

  2
none_device
  4
Letter_(8.50_x_11.00_Inches)
  6

 40
6.35
 41
6.35
 42
6.35000508
 43
6.35000508
 44
215.9
 45
279.4
 46
0.0
 47
0.0
 48
0.0
 49
0.0
140
0.0
141
0.0
142
1.0
143
1.0
 70
  1712
 72
     0
 73
     0
 74
     0
  7

 75
     0
 76
     0
 77
     2
 78
   300
147
1.0
148
0.0
149
0.0
100
AcDbLayout
  1
Model
 70
     1
 71
     0
 10
0.0
 20
0.0
 11
12.0
 21
9.0
 12
0.0
 22
0.0
 32
0.0
 14
-2.906192913385827
 24
7.624338582677165
 34
0.0
 15
1.529452755905512
 25
11.27034645669291
 35
0.0
146
0.0
 13
0.0
 23
0.0
 33
0.0
 16
1.0
 26
0.0
 36
0.0
 17
0.0
 27
1.0
 37
0.0
 76
     0
330
1F
331
29
  0
MATERIAL
  5
45
102
{ACAD_REACTORS
330
43
102
}
330
43
100
AcDbMaterial
  1
ByBlock
 72
     1
 94
      127
  0
MATERIAL
  5
44
102
{ACAD_REACTORS
330
43
102
}
330
43
100
AcDbMaterial
  1
ByLayer
 72
     1
 94
      127
  0
MATERIAL
  5
46
102
{ACAD_REACTORS
330
43
102
}
330
43
100
AcDbMaterial
  1
Global
 72
     1
 94
      127
  0
MLEADERSTYLE
  5
5C
102
{ACAD_REACTORS
330
5B
102
}
330
5B
100
AcDbMLeaderStyle
179
     2
170
     2
171
     1
172
     0
 90
        2
 40
0.0
 41
0.0
173
     1
 91
-1056964608
340
14
 92
       -2
290
     1
 42
0.09
291
     1
 43
0.36
  3
Standard
341
0
 44
0.18
300

342
11
174
     1
178
     6
175
     1
176
     0
 93
-1056964608
 45
0.18
292
     0
297
     0
 46
0.18
343
0
 94
-1056964608
 47
1.0
 49
1.0
140
1.0
293
     1
141
0.0
294
     1
177
     0
142
1.0
295
     0
296
     0
143
0.125
271
     0
272
     9
273
     9
298
     0
  0
MLINESTYLE
  5
18
102
{ACAD_REACTORS
330
17
102
}
330
17
100
AcDbMlineStyle
  2
Standard
 70
     0
  3

 62
   256
 51
90.0
 52
90.0
 71
     2
 49
0.5
 62
   256
  6
BYLAYER
 49
-0.5
 62
   256
  6
BYLAYER
  0
ACDBPLACEHOLDER
  5
F
102
{ACAD_REACTORS
330
E
102
}
330
E
  0
SCALE
  5
48
102
{ACAD_REACTORS
330
47
102
}
330
47
100
AcDbScale
 70
     0
300
1:1
140
1.0
141
1.0
290
     1
  0
SCALE
  5
49
102
{ACAD_REACTORS
330
47
102
}
330
47
100
AcDbScale
 70
     0
300
1/128" = 1'-0"
140
0.0078125
141
12.0
290
     0
  0
SCALE
  5
4A
102
{ACAD_REACTORS
330
47
102
}
330
47
100
AcDbScale
 70
     0
300
1/64" = 1'-0"
140
0.015625
141
12.0
290
     0
  0
SCALE
  5
4B
102
{ACAD_REACTORS
330
47
102
}
330
47
100
AcDbScale
 70
     0
300
1/32" = 1'-0"
140
0.03125
141
12.0
290
     0
  0
SCALE
  5
4C
102
{ACAD_REACTORS
330
47
102
}
330
47
100
AcDbScale
 70
     0
300
1/16" = 1'-0"
140
0.0625
141
12.0
290
     0
  0
SCALE
  5
4D
102
{ACAD_REACTORS
330
47
102
}
330
47
100
AcDbScale
 70
     0
300
3/32" = 1'-0"
140
0.09375
141
12.0
290
     0
  0
SCALE
  5
4E
102
{ACAD_REACTORS
330
47
102
}
330
47
100
AcDbScale
 70
     0
300
1/8" = 1'-0"
140
0.125
141
12.0
290
     0
  0
SCALE
  5
4F
102
{ACAD_REACTORS
330
47
102
}
330
47
100
AcDbScale
 70
     0
300
3/16" = 1'-0"
140
0.1875
141
12.0
290
     0
  0
SCALE
  5
50
102
{ACAD_REACTORS
330
47
102
}
330
47
100
AcDbScale
 70
     0
300
1/4" = 1'-0"
140
0.25
141
12.0
290
     0
  0
SCALE
  5
51
102
{ACAD_REACTORS
330
47
102
}
330
47
100
AcDbScale
 70
     0
300
3/8" = 1'-0"
140
0.375
141
12.0
290
     0
  0
SCALE
  5
52
102
{ACAD_REACTORS
330
47
102
}
330
47
100
AcDbScale
 70
     0
300
1/2" = 1'-0"
140
0.5
141
12.0
290
     0
  0
SCALE
  5
53
102
{ACAD_REACTORS
330
47
102
}
330
47
100
AcDbScale
 70
     0
300
3/4" = 1'-0"
140
0.75
141
12.0
290
     0
  0
SCALE
  5
54
102
{ACAD_REACTORS
330
47
102
}
330
47
100
AcDbScale
 70
     0
300
1" = 1'-0"
140
1.0
141
12.0
290
     0
  0
SCALE
  5
55
102
{ACAD_REACTORS
330
47
102
}
330
47
100
AcDbScale
 70
     0
300
1-1/2" = 1'-0"
140
1.5
141
12.0
290
     0
  0
SCALE
  5
56
102
{ACAD_REACTORS
330
47
102
}
330
47
100
AcDbScale
 70
     0
300
3" = 1'-0"
140
3.0
141
12.0
290
     0
  0
SCALE
  5
57
102
{ACAD_REACTORS
330
47
102
}
330
47
100
AcDbScale
 70
     0
300
6" = 1'-0"
140
6.0
141
12.0
290
     0
  0
SCALE
  5
58
102
{ACAD_REACTORS
330
47
102
}
330
47
100
AcDbScale
 70
     0
300
1'-0" = 1'-0"
140
12.0
141
12.0
290
     0
  0
TABLESTYLE
  5
5A
102
{ACAD_REACTORS
330
59
102
}
102
{ACAD_XDICTIONARY
360
7B
102
}
330
59
100
AcDbTableStyle
  3
Standard
 70
     0
 71
     0
 40
0.06
 41
0.06
280
     0
281
     0
  7
Standard
140
0.18
170
     2
 62
     0
 63
   257
283
     0
 90
        4
 91
        0
  1

274
    -2
284
     1
 64
     0
275
    -2
285
     1
 65
     0
276
    -2
286
     1
 66
     0
277
    -2
287
     1
 67
     0
278
    -2
288
     1
 68
     0
279
    -2
289
     1
 69
     0
  7
Standard
140
0.25
170
     5
 62
     0
 63
   257
283
     0
 90
        4
 91
        0
  1

274
    -2
284
     1
 64
     0
275
    -2
285
     1
 65
     0
276
    -2
286
     1
 66
     0
277
    -2
287
     1
 67
     0
278
    -2
288
     1
 68
     0
279
    -2
289
     1
 69
     0
  7
Standard
140
0.18
170
     5
 62
     0
 63
   257
283
     0
 90
        4
 91
        0
  1

274
    -2
284
     1
 64
     0
275
    -2
285
     1
 65
     0
276
    -2
286
     1
 66
     0
277
    -2
287
     1
 67
     0
278
    -2
288
     1
 68
     0
279
    -2
289
     1
 69
     0
  0
VISUALSTYLE
  5
2F
102
{ACAD_REACTORS
330
2A
102
}
330
2A
100
AcDbVisualStyle
  2
2dWireframe
 70
     4
177
     3
291
     0
 70
    58
 90
        0
176
     1
 90
        2
176
     1
 90
        0
176
     1
 90
        0
176
     1
 40
0.6
176
     1
 40
30.0
176
     1
 62
     7
420
 16777215
176
     1
 90
        1
176
     1
 90
        4
176
     1
 62
     7
176
     1
 62
   257
176
     1
 90
        1
176
     1
 90
        1
176
     1
 40
1.0
176
     1
 90
        0
176
     1
 62
   257
176
     1
 40
1.0
176
     1
 90
        1
176
     1
 90
        6
176
     1
 90
        2
176
     1
 62
     7
176
     1
 90
        5
176
     1
 90
        0
176
     1
 90
        0
176
     1
290
     0
176
     1
 90
        1
176
     1
 40
0.0
176
     1
 90
        0
176
     1
290
     1
176
     1
290
     1
176
     1
290
     0
176
     1
290
     0
176
     1
290
     0
176
     1
290
     0
176
     1
290
     0
176
     1
290
     0
176
     1
290
     0
176
     1
 90
       50
176
     1
 40
0.0
176
     1
 40
1.0
176
     1
 90
        0
176
     1
 62
    18
420
        0
176
     1
 90
       50
176
     1
 90
        3
176
     1
 62
     5
420
      255
176
     1
290
     0
176
     1
 90
       50
176
     1
 90
       50
176
     1
 90
       50
176
     1
290
     0
176
     1
 90
       50
176
     1
 62
   256
176
     0
 40
1.0
176
     0
 90
        2
176
     1
  1
strokes_ogs.tif
176
     1
290
     0
176
     1
 40
1.0
176
     1
 40
1.0
176
     1
  0
VISUALSTYLE
  5
32
102
{ACAD_REACTORS
330
2A
102
}
330
2A
100
AcDbVisualStyle
  2
Basic
 70
     7
177
     3
291
     1
 70
    58
 90
        1
176
     1
 90
        0
176
     1
 90
        1
176
     1
 90
        0
176
     1
 40
0.6
176
     1
 40
30.0
176
     1
 62
     7
420
 16777215
176
     1
 90
        0
176
     1
 90
        4
176
     1
 62
     7
176
     1
 62
   257
176
     1
 90
        1
176
     1
 90
        1
176
     1
 40
1.0
176
     1
 90
        8
176
     1
 62
     7
176
     1
 40
1.0
176
     1
 90
        1
176
     1
 90
        6
176
     1
 90
        2
176
     1
 62
     7
176
     1
 90
        5
176
     1
 90
        0
176
     1
 90
        0
176
     1
290
     0
176
     1
 90
        1
176
     1
 40
0.0
176
     1
 90
        0
176
     1
290
     0
176
     1
290
     1
176
     1
290
     1
176
     1
290
     0
176
     1
290
     0
176
     1
290
     0
176
     1
290
     0
176
     1
290
     0
176
     1
290
     0
176
     1
 90
       50
176
     1
 40
0.0
176
     1
 40
1.0
176
     1
 90
        0
176
     1
 62
    18
420
        0
176
     1
 90
       50
176
     1
 90
        3
176
     1
 62
     5
420
      255
176
     1
290
     0
176
     1
 90
       50
176
     1
 90
       50
176
     1
 90
       50
176
     1
290
     0
176
     1
 90
       50
176
     1
 62
   256
176
     0
 40
1.0
176
     0
 90
        2
176
     1
  1
strokes_ogs.tif
176
     1
290
     0
176
     1
 40
1.0
176
     1
 40
1.0
176
     1
  0
VISUALSTYLE
  5
36
102
{ACAD_REACTORS
330
2A
102
}
330
2A
100
AcDbVisualStyle
  2
Brighten
 70
    12
177
     3
291
     1
 70
    58
 90
        2
176
     1
 90
        2
176
     1
 90
        0
176
     1
 90
        0
176
     1
 40
0.6
176
     1
 40
30.0
176
     1
 62
     7
420
 16777215
176
     1
 90
        1
176
     1
 90
        4
176
     1
 62
     7
176
     1
 62
   257
176
     1
 90
        1
176
     1
 90
        1
176
     1
 40
1.0
176
     1
 90
        8
176
     1
 62
     7
176
     1
 40
1.0
176
     1
 90
        1
176
     1
 90
        6
176
     1
 90
        2
176
     1
 62
     7
176
     1
 90
        5
176
     1
 90
        0
176
     1
 90
        0
176
     1
290
     0
176
     1
 90
        1
176
     1
 40
50.0
176
     1
 90
        0
176
     1
290
     0
176
     1
290
     1
176
     1
290
     1
176
     1
290
     0
176
     1
290
     0
176
     1
290
     0
176
     1
290
     0
176
     1
290
     0
176
     1
290
     0
176
     1
 90
       50
176
     1
 40
0.0
176
     1
 40
1.0
176
     1
 90
        0
176
     1
 62
    18
420
        0
176
     1
 90
       50
176
     1
 90
        3
176
     1
 62
     5
420
      255
176
     1
290
     0
176
     1
 90
       50
176
     1
 90
       50
176
     1
 90
       50
176
     1
290
     0
176
     1
 90
       50
176
     1
 62
   256
176
     0
 40
1.0
176
     0
 90
        2
176
     1
  1
strokes_ogs.tif
176
     1
290
     0
176
     1
 40
1.0
176
     1
 40
1.0
176
     1
  0
VISUALSTYLE
  5
3A
102
{ACAD_REACTORS
330
2A
102
}
330
2A
100
AcDbVisualStyle
  2
ColorChange
 70
    16
177
     3
291
     1
 70
    58
 90
        2
176
     1
 90
        2
176
     1
 90
        3
176
     1
 90
        0
176
     1
 40
0.6
176
     1
 40
30.0
176
     1
 62
     8
420
  8421504
176
     1
 90
        1
176
     1
 90
        4
176
     1
 62
     7
176
     1
 62
   257
176
     1
 90
        1
176
     1
 90
        1
176
     1
 40
1.0
176
     1
 90
        8
176
     1
 62
     8
420
  8421504
176
     1
 40
1.0
176
     1
 90
        1
176
     1
 90
        6
176
     1
 90
        2
176
     1
 62
     7
176
     1
 90
        5
176
     1
 90
        0
176
     1
 90
        0
176
     1
290
     0
176
     1
 90
        1
176
     1
 40
0.0
176
     1
 90
        0
176
     1
290
     0
176
     1
290
     1
176
     1
290
     1
176
     1
290
     0
176
     1
290
     0
176
     1
290
     0
176
     1
290
     0
176
     1
290
     0
176
     1
290
     0
176
     1
 90
       50
176
     1
 40
0.0
176
     1
 40
1.0
176
     1
 90
        0
176
     1
 62
    18
420
        0
176
     1
 90
       50
176
     1
 90
        3
176
     1
 62
     5
420
      255
176
     1
290
     0
176
     1
 90
       50
176
     1
 90
       50
176
     1
 90
       50
176
     1
290
     0
176
     1
 90
       50
176
     1
 62
   256
176
     0
 40
1.0
176
     0
 90
        2
176
     1
  1
strokes_ogs.tif
176
     1
290
     0
176
     1
 40
1.0
176
     1
 40
1.0
176
     1
  0
VISUALSTYLE
  5
34
102
{ACAD_REACTORS
330
2A
102
}
330
2A
100
AcDbVisualStyle
  2
Conceptual
 70
     9
177
     3
291
     0
 70
    58
 90
        3
176
     1
 90
        2
176
     1
 90
        0
176
     1
 90
        0
176
     1
 40
0.6
176
     1
 40
30.0
176
     1
 62
     7
420
 16777215
176
     1
 90
        2
176
     1
 90
        2
176
     1
 62
     7
176
     1
 62
   257
176
     1
 90
        1
176
     1
 90
        1
176
     1
 40
179.0
176
     1
 90
        8
176
     1
 62
     7
176
     1
 40
1.0
176
     1
 90
        1
176
     1
 90
        6
176
     1
 90
        2
176
     1
 62
     7
176
     1
 90
        3
176
     1
 90
        0
176
     1
 90
        0
176
     1
290
     0
176
     1
 90
        1
176
     1
 40
0.0
176
     1
 90
        0
176
     1
290
     0
176
     1
290
     1
176
     1
290
     1
176
     1
290
     0
176
     1
290
     0
176
     1
290
     0
176
     1
290
     0
176
     1
290
     0
176
     1
290
     0
176
     1
 90
       50
176
     1
 40
0.0
176
     1
 40
1.0
176
     1
 90
        0
176
     1
 62
    18
420
        0
176
     1
 90
       50
176
     1
 90
        3
176
     1
 62
     5
420
      255
176
     1
290
     0
176
     1
 90
       50
176
     1
 90
       50
176
     1
 90
       50
176
     1
290
     0
176
     1
 90
       50
176
     1
 62
   256
176
     0
 40
1.0
176
     0
 90
        2
176
     1
  1
strokes_ogs.tif
176
     1
290
     0
176
     1
 40
1.0
176
     1
 40
1.0
176
     1
  0
VISUALSTYLE
  5
35
102
{ACAD_REACTORS
330
2A
102
}
330
2A
100
AcDbVisualStyle
  2
Dim
 70
    11
177
     3
291
     1
 70
    58
 90
        2
176
     1
 90
        2
176
     1
 90
        0
176
     1
 90
        0
176
     1
 40
0.6
176
     1
 40
30.0
176
     1
 62
     7
420
 16777215
176
     1
 90
        1
176
     1
 90
        4
176
     1
 62
     7
176
     1
 62
   257
176
     1
 90
        1
176
     1
 90
        1
176
     1
 40
1.0
176
     1
 90
        8
176
     1
 62
     7
176
     1
 40
1.0
176
     1
 90
        1
176
     1
 90
        6
176
     1
 90
        2
176
     1
 62
     7
176
     1
 90
        5
176
     1
 90
        0
176
     1
 90
        0
176
     1
290
     0
176
     1
 90
        1
176
     1
 40
-50.0
176
     1
 90
        0
176
     1
290
     0
176
     1
290
     1
176
     1
290
     1
176
     1
290
     0
176
     1
290
     0
176
     1
290
     0
176
     1
290
     0
176
     1
290
     0
176
     1
290
     0
176
     1
 90
       50
176
     1
 40
0.0
176
     1
 40
1.0
176
     1
 90
        0
176
     1
 62
    18
420
        0
176
     1
 90
       50
176
     1
 90
        3
176
     1
 62
     5
420
      255
176
     1
290
     0
176
     1
 90
       50
176
     1
 90
       50
176
     1
 90
       50
176
     1
290
     0
176
     1
 90
       50
176
     1
 62
   256
176
     0
 40
1.0
176
     0
 90
        2
176
     1
  1
strokes_ogs.tif
176
     1
290
     0
176
     1
 40
1.0
176
     1
 40
1.0
176
     1
  0
VISUALSTYLE
  5
3D
102
{ACAD_REACTORS
330
2A
102
}
330
2A
100
AcDbVisualStyle
  2
EdgeColorOff
 70
    22
177
     3
291
     1
 70
    58
 90
        2
176
     0
 90
        2
176
     0
 90
        0
176
     0
 90
        0
176
     0
 40
0.6
176
     0
 40
30.0
176
     0
 62
     7
420
 16777215
176
     0
 90
        1
176
     0
 90
        4
176
     0
 62
     7
176
     0
 62
   257
176
     0
 90
        1
176
     0
 90
        1
176
     0
 40
1.0
176
     0
 90
        8
176
     2
 62
     7
176
     0
 40
1.0
176
     0
 90
        1
176
     0
 90
        6
176
     0
 90
        2
176
     0
 62
     7
176
     0
 90
        5
176
     0
 90
        0
176
     0
 90
        0
176
     0
290
     0
176
     0
 90
        1
176
     0
 40
0.0
176
     0
 90
        0
176
     0
290
     0
176
     0
290
     1
176
     0
290
     1
176
     0
290
     0
176
     0
290
     0
176
     0
290
     0
176
     0
290
     0
176
     0
290
     0
176
     0
290
     0
176
     0
 90
       50
176
     0
 40
0.0
176
     0
 40
1.0
176
     0
 90
        0
176
     0
 62
    18
420
        0
176
     0
 90
       50
176
     0
 90
        3
176
     0
 62
     5
420
      255
176
     0
290
     0
176
     0
 90
       50
176
     0
 90
       50
176
     0
 90
       50
176
     0
290
     0
176
     0
 90
       50
176
     0
 62
   256
176
     0
 40
1.0
176
     0
 90
        2
176
     0
  1
strokes_ogs.tif
176
     0
290
     0
176
     0
 40
1.0
176
     0
 40
1.0
176
     0
  0
VISUALSTYLE
  5
39
102
{ACAD_REACTORS
330
2A
102
}
330
2A
100
AcDbVisualStyle
  2
Facepattern
 70
    15
177
     3
291
     1
 70
    58
 90
        2
176
     1
 90
        2
176
     1
 90
        0
176
     1
 90
        0
176
     1
 40
0.6
176
     1
 40
30.0
176
     1
 62
     7
420
 16777215
176
     1
 90
        1
176
     1
 90
        4
176
     1
 62
     7
176
     1
 62
   257
176
     1
 90
        1
176
     1
 90
        1
176
     1
 40
1.0
176
     1
 90
        8
176
     1
 62
     7
176
     1
 40
1.0
176
     1
 90
        1
176
     1
 90
        6
176
     1
 90
        2
176
     1
 62
     7
176
     1
 90
        5
176
     1
 90
        0
176
     1
 90
        0
176
     1
290
     0
176
     1
 90
        1
176
     1
 40
0.0
176
     1
 90
        0
176
     1
290
     0
176
     1
290
     1
176
     1
290
     1
176
     1
290
     0
176
     1
290
     0
176
     1
290
     0
176
     1
290
     0
176
     1
290
     0
176
     1
290
     0
176
     1
 90
       50
176
     1
 40
0.0
176
     1
 40
1.0
176
     1
 90
        0
176
     1
 62
    18
420
        0
176
     1
 90
       50
176
     1
 90
        3
176
     1
 62
     5
420
      255
176
     1
290
     0
176
     1
 90
       50
176
     1
 90
       50
176
     1
 90
       50
176
     1
290
     0
176
     1
 90
       50
176
     1
 62
   256
176
     0
 40
1.0
176
     0
 90
        2
176
     1
  1
strokes_ogs.tif
176
     1
290
     0
176
     1
 40
1.0
176
     1
 40
1.0
176
     1
  0
VISUALSTYLE
  5
2B
102
{ACAD_REACTORS
330
2A
102
}
330
2A
100
AcDbVisualStyle
  2
Flat
 70
     0
177
     3
291
     1
 70
    58
 90
        2
176
     1
 90
        1
176
     1
 90
        1
176
     1
 90
        2
176
     1
 40
0.6
176
     1
 40
30.0
176
     1
 62
     7
420
 16777215
176
     1
 90
        0
176
     1
 90
        0
176
     1
 62
     7
176
     1
 62
   257
176
     1
 90
        1
176
     1
 90
        1
176
     1
 40
1.0
176
     1
 90
        8
176
     1
 62
     7
176
     1
 40
1.0
176
     1
 90
        1
176
     1
 90
        6
176
     1
 90
        2
176
     1
 62
     7
176
     1
 90
        5
176
     1
 90
        0
176
     1
 90
        0
176
     1
290
     0
176
     1
 90
       13
176
     1
 40
0.0
176
     1
 90
        0
176
     1
290
     0
176
     1
290
     1
176
     1
290
     1
176
     1
290
     0
176
     1
290
     0
176
     1
290
     0
176
     1
290
     0
176
     1
290
     0
176
     1
290
     0
176
     1
 90
       50
176
     1
 40
0.0
176
     1
 40
1.0
176
     1
 90
        0
176
     1
 62
    18
420
        0
176
     1
 90
       50
176
     1
 90
        3
176
     1
 62
     5
420
      255
176
     1
290
     0
176
     1
 90
       50
176
     1
 90
       50
176
     1
 90
       50
176
     1
290
     0
176
     1
 90
       50
176
     1
 62
   256
176
     0
 40
1.0
176
     0
 90
        2
176
     1
  1
strokes_ogs.tif
176
     1
290
     0
176
     1
 40
1.0
176
     1
 40
1.0
176
     1
  0
VISUALSTYLE
  5
2C
102
{ACAD_REACTORS
330
2A
102
}
330
2A
100
AcDbVisualStyle
  2
FlatWithEdges
 70
     1
177
     3
291
     1
 70
    58
 90
        2
176
     1
 90
        1
176
     1
 90
        1
176
     1
 90
        2
176
     1
 40
0.6
176
     1
 40
30.0
176
     1
 62
     7
420
 16777215
176
     1
 90
        1
176
     1
 90
        0
176
     1
 62
     7
176
     1
 62
   257
176
     1
 90
        1
176
     1
 90
        1
176
     1
 40
1.0
176
     1
 90
        0
176
     1
 62
   257
176
     1
 40
1.0
176
     1
 90
        1
176
     1
 90
        6
176
     1
 90
        2
176
     1
 62
     7
176
     1
 90
        5
176
     1
 90
        0
176
     1
 90
        0
176
     1
290
     0
176
     1
 90
       13
176
     1
 40
0.0
176
     1
 90
        0
176
     1
290
     0
176
     1
290
     1
176
     1
290
     1
176
     1
290
     0
176
     1
290
     0
176
     1
290
     0
176
     1
290
     0
176
     1
290
     0
176
     1
290
     0
176
     1
 90
       50
176
     1
 40
0.0
176
     1
 40
1.0
176
     1
 90
        0
176
     1
 62
    18
420
        0
176
     1
 90
       50
176
     1
 90
        3
176
     1
 62
     5
420
      255
176
     1
290
     0
176
     1
 90
       50
176
     1
 90
       50
176
     1
 90
       50
176
     1
290
     0
176
     1
 90
       50
176
     1
 62
   256
176
     0
 40
1.0
176
     0
 90
        2
176
     1
  1
strokes_ogs.tif
176
     1
290
     0
176
     1
 40
1.0
176
     1
 40
1.0
176
     1
  0
VISUALSTYLE
  5
2D
102
{ACAD_REACTORS
330
2A
102
}
330
2A
100
AcDbVisualStyle
  2
Gouraud
 70
     2
177
     3
291
     1
 70
    58
 90
        2
176
     1
 90
        2
176
     1
 90
        1
176
     1
 90
        2
176
     1
 40
0.6
176
     1
 40
30.0
176
     1
 62
     7
420
 16777215
176
     1
 90
        0
176
     1
 90
        0
176
     1
 62
     7
176
     1
 62
   257
176
     1
 90
        1
176
     1
 90
        1
176
     1
 40
1.0
176
     1
 90
        0
176
     1
 62
     7
176
     1
 40
1.0
176
     1
 90
        1
176
     1
 90
        6
176
     1
 90
        2
176
     1
 62
     7
176
     1
 90
        5
176
     1
 90
        0
176
     1
 90
        0
176
     1
290
     0
176
     1
 90
       13
176
     1
 40
0.0
176
     1
 90
        0
176
     1
290
     0
176
     1
290
     1
176
     1
290
     1
176
     1
290
     0
176
     1
290
     0
176
     1
290
     0
176
     1
290
     0
176
     1
290
     0
176
     1
290
     0
176
     1
 90
       50
176
     1
 40
0.0
176
     1
 40
1.0
176
     1
 90
        0
176
     1
 62
    18
420
        0
176
     1
 90
       50
176
     1
 90
        3
176
     1
 62
     5
420
      255
176
     1
290
     0
176
     1
 90
       50
176
     1
 90
       50
176
     1
 90
       50
176
     1
290
     0
176
     1
 90
       50
176
     1
 62
   256
176
     0
 40
1.0
176
     0
 90
        2
176
     1
  1
strokes_ogs.tif
176
     1
290
     0
176
     1
 40
1.0
176
     1
 40
1.0
176
     1
  0
VISUALSTYLE
  5
2E
102
{ACAD_REACTORS
330
2A
102
}
330
2A
100
AcDbVisualStyle
  2
GouraudWithEdges
 70
     3
177
     3
291
     1
 70
    58
 90
        2
176
     1
 90
        2
176
     1
 90
        1
176
     1
 90
        2
176
     1
 40
0.6
176
     1
 40
30.0
176
     1
 62
     7
420
 16777215
176
     1
 90
        1
176
     1
 90
        0
176
     1
 62
     7
176
     1
 62
   257
176
     1
 90
        1
176
     1
 90
        1
176
     1
 40
1.0
176
     1
 90
        0
176
     1
 62
   257
176
     1
 40
1.0
176
     1
 90
        1
176
     1
 90
        6
176
     1
 90
        2
176
     1
 62
     7
176
     1
 90
        5
176
     1
 90
        0
176
     1
 90
        0
176
     1
290
     0
176
     1
 90
       13
176
     1
 40
0.0
176
     1
 90
        0
176
     1
290
     0
176
     1
290
     1
176
     1
290
     1
176
     1
290
     0
176
     1
290
     0
176
     1
290
     0
176
     1
290
     0
176
     1
290
     0
176
     1
290
     0
176
     1
 90
       50
176
     1
 40
0.0
176
     1
 40
1.0
176
     1
 90
        0
176
     1
 62
    18
420
        0
176
     1
 90
       50
176
     1
 90
        3
176
     1
 62
     5
420
      255
176
     1
290
     0
176
     1
 90
       50
176
     1
 90
       50
176
     1
 90
       50
176
     1
290
     0
176
     1
 90
       50
176
     1
 62
   256
176
     0
 40
1.0
176
     0
 90
        2
176
     1
  1
strokes_ogs.tif
176
     1
290
     0
176
     1
 40
1.0
176
     1
 40
1.0
176
     1
  0
VISUALSTYLE
  5
31
102
{ACAD_REACTORS
330
2A
102
}
330
2A
100
AcDbVisualStyle
  2
Hidden
 70
     6
177
     3
291
     0
 70
    58
 90
        1
176
     1
 90
        2
176
     1
 90
        2
176
     1
 90
        0
176
     1
 40
0.6
176
     1
 40
30.0
176
     1
 62
     7
420
 16777215
176
     1
 90
        2
176
     1
 90
        2
176
     1
 62
     7
176
     1
 62
   257
176
     1
 90
        2
176
     1
 90
        1
176
     1
 40
40.0
176
     1
 90
        0
176
     1
 62
   257
176
     1
 40
1.0
176
     1
 90
        1
176
     1
 90
        6
176
     1
 90
        2
176
     1
 62
     7
176
     1
 90
        3
176
     1
 90
        0
176
     1
 90
        0
176
     1
290
     0
176
     1
 90
        1
176
     1
 40
0.0
176
     1
 90
        0
176
     1
290
     0
176
     1
290
     1
176
     1
290
     1
176
     1
290
     0
176
     1
290
     0
176
     1
290
     0
176
     1
290
     0
176
     1
290
     0
176
     1
290
     0
176
     1
 90
       50
176
     1
 40
0.0
176
     1
 40
1.0
176
     1
 90
        0
176
     1
 62
    18
420
        0
176
     1
 90
       50
176
     1
 90
        3
176
     1
 62
     5
420
      255
176
     1
290
     0
176
     1
 90
       50
176
     1
 90
       50
176
     1
 90
       50
176
     1
290
     0
176
     1
 90
       50
176
     1
 62
   256
176
     0
 40
1.0
176
     0
 90
        2
176
     1
  1
strokes_ogs.tif
176
     1
290
     0
176
     1
 40
1.0
176
     1
 40
1.0
176
     1
  0
VISUALSTYLE
  5
3B
102
{ACAD_REACTORS
330
2A
102
}
330
2A
100
AcDbVisualStyle
  2
JitterOff
 70
    20
177
     3
291
     1
 70
    58
 90
        2
176
     0
 90
        2
176
     0
 90
        0
176
     0
 90
        0
176
     0
 40
0.6
176
     0
 40
30.0
176
     0
 62
     7
420
 16777215
176
     0
 90
        1
176
     0
 90
        4
176
     0
 62
     7
176
     0
 62
   257
176
     0
 90
        1
176
     0
 90
        1
176
     0
 40
1.0
176
     0
 90
       10
176
     2
 62
     7
176
     0
 40
1.0
176
     0
 90
        1
176
     0
 90
        6
176
     0
 90
        2
176
     0
 62
     7
176
     0
 90
        5
176
     0
 90
        0
176
     0
 90
        0
176
     0
290
     0
176
     0
 90
        1
176
     0
 40
0.0
176
     0
 90
        0
176
     0
290
     0
176
     0
290
     1
176
     0
290
     1
176
     0
290
     0
176
     0
290
     0
176
     0
290
     0
176
     0
290
     0
176
     0
290
     0
176
     0
290
     0
176
     0
 90
       50
176
     0
 40
0.0
176
     0
 40
1.0
176
     0
 90
        0
176
     0
 62
    18
420
        0
176
     0
 90
       50
176
     0
 90
        3
176
     0
 62
     5
420
      255
176
     0
290
     0
176
     0
 90
       50
176
     0
 90
       50
176
     0
 90
       50
176
     0
290
     0
176
     0
 90
       50
176
     0
 62
   256
176
     0
 40
1.0
176
     0
 90
        2
176
     0
  1
strokes_ogs.tif
176
     0
290
     0
176
     0
 40
1.0
176
     0
 40
1.0
176
     0
  0
VISUALSTYLE
  5
38
102
{ACAD_REACTORS
330
2A
102
}
330
2A
100
AcDbVisualStyle
  2
Linepattern
 70
    14
177
     3
291
     1
 70
    58
 90
        2
176
     1
 90
        2
176
     1
 90
        0
176
     1
 90
        0
176
     1
 40
0.6
176
     1
 40
30.0
176
     1
 62
     7
420
 16777215
176
     1
 90
        1
176
     1
 90
        4
176
     1
 62
     7
176
     1
 62
   257
176
     1
 90
        7
176
     1
 90
        7
176
     1
 40
1.0
176
     1
 90
        8
176
     1
 62
     7
176
     1
 40
1.0
176
     1
 90
        1
176
     1
 90
        6
176
     1
 90
        2
176
     1
 62
     7
176
     1
 90
        5
176
     1
 90
        0
176
     1
 90
        0
176
     1
290
     0
176
     1
 90
        1
176
     1
 40
0.0
176
     1
 90
        0
176
     1
290
     0
176
     1
290
     1
176
     1
290
     1
176
     1
290
     0
176
     1
290
     0
176
     1
290
     0
176
     1
290
     0
176
     1
290
     0
176
     1
290
     0
176
     1
 90
       50
176
     1
 40
0.0
176
     1
 40
1.0
176
     1
 90
        0
176
     1
 62
    18
420
        0
176
     1
 90
       50
176
     1
 90
        3
176
     1
 62
     5
420
      255
176
     1
290
     0
176
     1
 90
       50
176
     1
 90
       50
176
     1
 90
       50
176
     1
290
     0
176
     1
 90
       50
176
     1
 62
   256
176
     0
 40
1.0
176
     0
 90
        2
176
     1
  1
strokes_ogs.tif
176
     1
290
     0
176
     1
 40
1.0
176
     1
 40
1.0
176
     1
  0
VISUALSTYLE
  5
3C
102
{ACAD_REACTORS
330
2A
102
}
330
2A
100
AcDbVisualStyle
  2
OverhangOff
 70
    21
177
     3
291
     1
 70
    58
 90
        2
176
     0
 90
        2
176
     0
 90
        0
176
     0
 90
        0
176
     0
 40
0.6
176
     0
 40
30.0
176
     0
 62
     7
420
 16777215
176
     0
 90
        1
176
     0
 90
        4
176
     0
 62
     7
176
     0
 62
   257
176
     0
 90
        1
176
     0
 90
        1
176
     0
 40
1.0
176
     0
 90
        9
176
     2
 62
     7
176
     0
 40
1.0
176
     0
 90
        1
176
     0
 90
        6
176
     0
 90
        2
176
     0
 62
     7
176
     0
 90
        5
176
     0
 90
        0
176
     0
 90
        0
176
     0
290
     0
176
     0
 90
        1
176
     0
 40
0.0
176
     0
 90
        0
176
     0
290
     0
176
     0
290
     1
176
     0
290
     1
176
     0
290
     0
176
     0
290
     0
176
     0
290
     0
176
     0
290
     0
176
     0
290
     0
176
     0
290
     0
176
     0
 90
       50
176
     0
 40
0.0
176
     0
 40
1.0
176
     0
 90
        0
176
     0
 62
    18
420
        0
176
     0
 90
       50
176
     0
 90
        3
176
     0
 62
     5
420
      255
176
     0
290
     0
176
     0
 90
       50
176
     0
 90
       50
176
     0
 90
       50
176
     0
290
     0
176
     0
 90
       50
176
     0
 62
   256
176
     0
 40
1.0
176
     0
 90
        2
176
     0
  1
strokes_ogs.tif
176
     0
290
     0
176
     0
 40
1.0
176
     0
 40
1.0
176
     0
  0
VISUALSTYLE
  5
33
102
{ACAD_REACTORS
330
2A
102
}
330
2A
100
AcDbVisualStyle
  2
Realistic
 70
     8
177
     3
291
     0
 70
    58
 90
        2
176
     1
 90
        3
176
     1
 90
        0
176
     1
 90
        2
176
     1
 40
0.6
176
     1
 40
30.0
176
     1
 62
     7
420
 16777215
176
     1
 90
        0
176
     1
 90
        0
176
     1
 62
     7
176
     1
 62
   257
176
     1
 90
        1
176
     1
 90
        1
176
     1
 40
1.0
176
     1
 90
        8
176
     1
 62
   257
176
     1
 40
1.0
176
     1
 90
        1
176
     1
 90
        6
176
     1
 90
        2
176
     1
 62
     7
176
     1
 90
        3
176
     1
 90
        0
176
     1
 90
        0
176
     1
290
     0
176
     1
 90
       13
176
     1
 40
0.0
176
     1
 90
        0
176
     1
290
     0
176
     1
290
     1
176
     1
290
     1
176
     1
290
     0
176
     1
290
     0
176
     1
290
     0
176
     1
290
     0
176
     1
290
     0
176
     1
290
     0
176
     1
 90
       50
176
     1
 40
0.0
176
     1
 40
1.0
176
     1
 90
        0
176
     1
 62
    18
420
        0
176
     1
 90
       50
176
     1
 90
        3
176
     1
 62
     5
420
      255
176
     1
290
     0
176
     1
 90
       50
176
     1
 90
       50
176
     1
 90
       50
176
     1
290
     0
176
     1
 90
       50
176
     1
 62
   256
176
     0
 40
1.0
176
     0
 90
        2
176
     1
  1
strokes_ogs.tif
176
     1
290
     0
176
     1
 40
1.0
176
     1
 40
1.0
176
     1
  0
VISUALSTYLE
  5
42
102
{ACAD_REACTORS
330
2A
102
}
330
2A
100
AcDbVisualStyle
  2
Shaded
 70
    27
177
     3
291
     0
 70
    58
 90
        2
176
     1
 90
        2
176
     1
 90
        1
176
     1
 90
        2
176
     1
 40
0.6
176
     1
 40
30.0
176
     1
 62
     7
420
 16777215
176
     1
 90
        0
176
     1
 90
        4
176
     1
 62
     7
176
     1
 62
   257
176
     1
 90
        1
176
     1
 90
        1
176
     1
 40
1.0
176
     1
 90
        8
176
     1
 62
   257
176
     1
 40
1.0
176
     1
 90
        1
176
     1
 90
        6
176
     1
 90
        2
176
     1
 62
     8
420
  7895160
176
     1
 90
        3
176
     1
 90
        0
176
     1
 90
        0
176
     1
290
     0
176
     1
 90
        5
176
     1
 40
0.0
176
     1
 90
        0
176
     1
290
     0
176
     1
290
     1
176
     1
290
     1
176
     1
290
     0
176
     1
290
     0
176
     1
290
     0
176
     1
290
     0
176
     1
290
     0
176
     1
290
     0
176
     1
 90
       50
176
     1
 40
0.0
176
     1
 40
1.0
176
     1
 90
        0
176
     1
 62
    18
420
        0
176
     1
 90
       50
176
     1
 90
        3
176
     1
 62
     5
420
      255
176
     1
290
     0
176
     1
 90
       50
176
     1
 90
       50
176
     1
 90
       50
176
     1
290
     0
176
     1
 90
       50
176
     1
 62
   256
176
     0
 40
1.0
176
     0
 90
        2
176
     1
  1
strokes_ogs.tif
176
     1
290
     0
176
     1
 40
1.0
176
     1
 40
1.0
176
     1
  0
VISUALSTYLE
  5
41
102
{ACAD_REACTORS
330
2A
102
}
330
2A
100
AcDbVisualStyle
  2
Shaded with edges
 70
    26
177
     3
291
     0
 70
    58
 90
        2
176
     1
 90
        2
176
     1
 90
        1
176
     1
 90
        2
176
     1
 40
0.6
176
     1
 40
30.0
176
     1
 62
     7
420
 16777215
176
     1
 90
        1
176
     1
 90
       10
176
     1
 62
     7
176
     1
 62
   257
176
     1
 90
        2
176
     1
 90
        1
176
     1
 40
1.0
176
     1
 90
        8
176
     1
 62
   257
176
     1
 40
1.0
176
     1
 90
        1
176
     1
 90
        6
176
     1
 90
        2
176
     1
 62
     7
176
     1
 90
        3
176
     1
 90
        0
176
     1
 90
        0
176
     1
290
     0
176
     1
 90
        5
176
     1
 40
0.0
176
     1
 90
        0
176
     1
290
     0
176
     1
290
     1
176
     1
290
     1
176
     1
290
     0
176
     1
290
     0
176
     1
290
     0
176
     1
290
     0
176
     1
290
     0
176
     1
290
     0
176
     1
 90
       50
176
     1
 40
0.0
176
     1
 40
1.0
176
     1
 90
        0
176
     1
 62
    18
420
        0
176
     1
 90
       50
176
     1
 90
        3
176
     1
 62
     5
420
      255
176
     1
290
     0
176
     1
 90
       50
176
     1
 90
       50
176
     1
 90
       50
176
     1
290
     0
176
     1
 90
       50
176
     1
 62
   256
176
     0
 40
1.0
176
     0
 90
        2
176
     1
  1
strokes_ogs.tif
176
     1
290
     0
176
     1
 40
1.0
176
     1
 40
1.0
176
     1
  0
VISUALSTYLE
  5
3E
102
{ACAD_REACTORS
330
2A
102
}
330
2A
100
AcDbVisualStyle
  2
Shades of Gray
 70
    23
177
     3
291
     0
 70
    58
 90
        2
176
     1
 90
        2
176
     1
 90
        3
176
     1
 90
        0
176
     1
 40
0.6
176
     1
 40
30.0
176
     1
 62
     7
420
 16777215
176
     1
 90
        2
176
     1
 90
        2
176
     1
 62
     7
176
     1
 62
     7
176
     1
 90
        1
176
     1
 90
        1
176
     1
 40
40.0
176
     1
 90
        8
176
     1
 62
     7
176
     1
 40
1.0
176
     1
 90
        1
176
     1
 90
        6
176
     1
 90
        2
176
     1
 62
     7
176
     1
 90
        3
176
     1
 90
        0
176
     1
 90
        0
176
     1
290
     0
176
     1
 90
        1
176
     1
 40
0.0
176
     1
 90
        0
176
     1
290
     0
176
     1
290
     1
176
     1
290
     1
176
     1
290
     0
176
     1
290
     0
176
     1
290
     0
176
     1
290
     0
176
     1
290
     0
176
     1
290
     0
176
     1
 90
       50
176
     1
 40
0.0
176
     1
 40
1.0
176
     1
 90
        0
176
     1
 62
    18
420
        0
176
     1
 90
       50
176
     1
 90
        3
176
     1
 62
     5
420
      255
176
     1
290
     0
176
     1
 90
       50
176
     1
 90
       50
176
     1
 90
       50
176
     1
290
     0
176
     1
 90
       50
176
     1
 62
   256
176
     0
 40
1.0
176
     0
 90
        2
176
     1
  1
strokes_ogs.tif
176
     1
290
     0
176
     1
 40
1.0
176
     1
 40
1.0
176
     1
  0
VISUALSTYLE
  5
3F
102
{ACAD_REACTORS
330
2A
102
}
330
2A
100
AcDbVisualStyle
  2
Sketchy
 70
    24
177
     3
291
     0
 70
    58
 90
        1
176
     1
 90
        2
176
     1
 90
        2
176
     1
 90
        0
176
     1
 40
0.6
176
     1
 40
30.0
176
     1
 62
     7
420
 16777215
176
     1
 90
        2
176
     1
 90
        2
176
     1
 62
     7
176
     1
 62
     7
176
     1
 90
        1
176
     1
 90
        1
176
     1
 40
40.0
176
     1
 90
       11
176
     1
 62
     7
176
     1
 40
1.0
176
     1
 90
        1
176
     1
 90
        6
176
     1
 90
        2
176
     1
 62
     7
176
     1
 90
        6
176
     1
 90
        0
176
     1
 90
        0
176
     1
290
     0
176
     1
 90
        1
176
     1
 40
0.0
176
     1
 90
        0
176
     1
290
     0
176
     1
290
     1
176
     1
290
     1
176
     1
290
     0
176
     1
290
     0
176
     1
290
     0
176
     1
290
     0
176
     1
290
     0
176
     1
290
     0
176
     1
 90
       50
176
     1
 40
0.0
176
     1
 40
1.0
176
     1
 90
        0
176
     1
 62
    18
420
        0
176
     1
 90
       50
176
     1
 90
        3
176
     1
 62
     5
420
      255
176
     1
290
     0
176
     1
 90
       50
176
     1
 90
       50
176
     1
 90
       50
176
     1
290
     0
176
     1
 90
       50
176
     1
 62
   256
176
     0
 40
1.0
176
     0
 90
        2
176
     1
  1
strokes_ogs.tif
176
     1
290
     0
176
     1
 40
1.0
176
     1
 40
1.0
176
     1
  0
VISUALSTYLE
  5
37
102
{ACAD_REACTORS
330
2A
102
}
330
2A
100
AcDbVisualStyle
  2
Thicken
 70
    13
177
     3
291
     1
 70
    58
 90
        2
176
     1
 90
        2
176
     1
 90
        0
176
     1
 90
        0
176
     1
 40
0.6
176
     1
 40
30.0
176
     1
 62
     7
420
 16777215
176
     1
 90
        1
176
     1
 90
        4
176
     1
 62
     7
176
     1
 62
   257
176
     1
 90
        1
176
     1
 90
        1
176
     1
 40
1.0
176
     1
 90
       12
176
     1
 62
     7
176
     1
 40
1.0
176
     1
 90
        1
176
     1
 90
        6
176
     1
 90
        2
176
     1
 62
     7
176
     1
 90
        5
176
     1
 90
        0
176
     1
 90
        0
176
     1
290
     0
176
     1
 90
        1
176
     1
 40
0.0
176
     1
 90
        0
176
     1
290
     0
176
     1
290
     1
176
     1
290
     1
176
     1
290
     0
176
     1
290
     0
176
     1
290
     0
176
     1
290
     0
176
     1
290
     0
176
     1
290
     0
176
     1
 90
       50
176
     1
 40
0.0
176
     1
 40
1.0
176
     1
 90
        0
176
     1
 62
    18
420
        0
176
     1
 90
       50
176
     1
 90
        3
176
     1
 62
     5
420
      255
176
     1
290
     0
176
     1
 90
       50
176
     1
 90
       50
176
     1
 90
       50
176
     1
290
     0
176
     1
 90
       50
176
     1
 62
   256
176
     0
 40
1.0
176
     0
 90
        2
176
     1
  1
strokes_ogs.tif
176
     1
290
     0
176
     1
 40
1.0
176
     1
 40
1.0
176
     1
  0
VISUALSTYLE
  5
30
102
{ACAD_REACTORS
330
2A
102
}
330
2A
100
AcDbVisualStyle
  2
Wireframe
 70
     5
177
     3
291
     0
 70
    58
 90
        0
176
     1
 90
        2
176
     1
 90
        0
176
     1
 90
        0
176
     1
 40
0.6
176
     1
 40
30.0
176
     1
 62
     7
420
 16777215
176
     1
 90
        1
176
     1
 90
        4
176
     1
 62
     7
176
     1
 62
   257
176
     1
 90
        1
176
     1
 90
        1
176
     1
 40
1.0
176
     1
 90
        0
176
     1
 62
   257
176
     1
 40
1.0
176
     1
 90
        1
176
     1
 90
        6
176
     1
 90
        2
176
     1
 62
     7
176
     1
 90
        3
176
     1
 90
        0
176
     1
 90
        0
176
     1
290
     0
176
     1
 90
        1
176
     1
 40
0.0
176
     1
 90
        0
176
     1
290
     0
176
     1
290
     1
176
     1
290
     1
176
     1
290
     0
176
     1
290
     0
176
     1
290
     0
176
     1
290
     0
176
     1
290
     0
176
     1
290
     0
176
     1
 90
       50
176
     1
 40
0.0
176
     1
 40
1.0
176
     1
 90
        0
176
     1
 62
    18
420
        0
176
     1
 90
       50
176
     1
 90
        3
176
     1
 62
     5
420
      255
176
     1
290
     0
176
     1
 90
       50
176
     1
 90
       50
176
     1
 90
       50
176
     1
290
     0
176
     1
 90
       50
176
     1
 62
   256
176
     0
 40
1.0
176
     0
 90
        2
176
     1
  1
strokes_ogs.tif
176
     1
290
     0
176
     1
 40
1.0
176
     1
 40
1.0
176
     1
  0
VISUALSTYLE
  5
40
102
{ACAD_REACTORS
330
2A
102
}
330
2A
100
AcDbVisualStyle
  2
X-Ray
 70
    25
177
     3
291
     0
 70
    58
 90
        2
176
     1
 90
        2
176
     1
 90
        1
176
     1
 90
        1
176
     1
 40
0.5
176
     1
 40
30.0
176
     1
 62
     7
420
 16777215
176
     1
 90
        1
176
     1
 90
        0
176
     1
 62
     7
176
     1
 62
   257
176
     1
 90
        1
176
     1
 90
        1
176
     1
 40
1.0
176
     1
 90
        8
176
     1
 62
     7
176
     1
 40
1.0
176
     1
 90
        1
176
     1
 90
        6
176
     1
 90
        2
176
     1
 62
     7
176
     1
 90
        3
176
     1
 90
        0
176
     1
 90
        0
176
     1
290
     0
176
     1
 90
       13
176
     1
 40
0.0
176
     1
 90
        0
176
     1
290
     0
176
     1
290
     1
176
     1
290
     1
176
     1
290
     0
176
     1
290
     0
176
     1
290
     0
176
     1
290
     0
176
     1
290
     0
176
     1
290
     0
176
     1
 90
       50
176
     1
 40
0.0
176
     1
 40
1.0
176
     1
 90
        0
176
     1
 62
    18
420
        0
176
     1
 90
       50
176
     1
 90
        3
176
     1
 62
     5
420
      255
176
     1
290
     0
176
     1
 90
       50
176
     1
 90
       50
176
     1
 90
       50
176
     1
290
     0
176
     1
 90
       50
176
     1
 62
   256
176
     0
 40
1.0
176
     0
 90
        2
176
     1
  1
strokes_ogs.tif
176
     1
290
     0
176
     1
 40
1.0
176
     1
 40
1.0
176
     1
  0
DICTIONARYVAR
  5
7A
102
{ACAD_REACTORS
330
79
102
}
330
79
100
DictionaryVariables
280
     0
  1
1:1
  0
DICTIONARYVAR
  5
7F
102
{ACAD_REACTORS
330
79
102
}
330
79
100
DictionaryVariables
280
     0
  1
Standard
  0
DICTIONARYVAR
  5
7E
102
{ACAD_REACTORS
330
79
102
}
330
79
100
DictionaryVariables
280
     0
  1
Standard
  0
DICTIONARY
  5
7B
330
5A
100
AcDbDictionary
280
     1
281
     1
  3
ACAD_ROUNDTRIP_2008_TABLESTYLE_CELLSTYLEMAP
360
7C
  0
CELLSTYLEMAP
  5
7C
102
{ACAD_REACTORS
330
7B
102
}
330
7B
100
AcDbCellStyleMap
 90
        3
300
CELLSTYLE
  1
TABLEFORMAT_BEGIN
 90
        5
170
     1
 91
        0
 92
    32768
 62
   257
 93
        1
300
CONTENTFORMAT
  1
CONTENTFORMAT_BEGIN
 90
        0
 91
        0
 92
        4
 93
        0
300

 40
0.0
140
1.0
 94
        5
 62
     0
340
11
144
0.25
309
CONTENTFORMAT_END
171
     1
301
MARGIN
  1
CELLMARGIN_BEGIN
 40
0.06
 40
0.06
 40
0.06
 40
0.06
 40
0.06
 40
0.06
309
CELLMARGIN_END
 94
        6
 95
        1
302
GRIDFORMAT
  1
GRIDFORMAT_BEGIN
 90
        0
 91
        1
 62
     0
 92
       -2
340
14
 93
        0
 40
0.045
309
GRIDFORMAT_END
 95
        2
302
GRIDFORMAT
  1
GRIDFORMAT_BEGIN
 90
        0
 91
        1
 62
     0
 92
       -2
340
14
 93
        0
 40
0.045
309
GRIDFORMAT_END
 95
        4
302
GRIDFORMAT
  1
GRIDFORMAT_BEGIN
 90
        0
 91
        1
 62
     0
 92
       -2
340
14
 93
        0
 40
0.045
309
GRIDFORMAT_END
 95
        8
302
GRIDFORMAT
  1
GRIDFORMAT_BEGIN
 90
        0
 91
        1
 62
     0
 92
       -2
340
14
 93
        0
 40
0.045
309
GRIDFORMAT_END
 95
       16
302
GRIDFORMAT
  1
GRIDFORMAT_BEGIN
 90
        0
 91
        1
 62
     0
 92
       -2
340
14
 93
        0
 40
0.045
309
GRIDFORMAT_END
 95
       32
302
GRIDFORMAT
  1
GRIDFORMAT_BEGIN
 90
        0
 91
        1
 62
     0
 92
       -2
340
14
 93
        0
 40
0.045
309
GRIDFORMAT_END
309
TABLEFORMAT_END
  1
CELLSTYLE_BEGIN
 90
        1
 91
        1
300
_TITLE
309
CELLSTYLE_END
300
CELLSTYLE
  1
TABLEFORMAT_BEGIN
 90
        5
170
     1
 91
        0
 92
        0
 62
   257
 93
        1
300
CONTENTFORMAT
  1
CONTENTFORMAT_BEGIN
 90
        0
 91
        0
 92
        4
 93
        0
300

 40
0.0
140
1.0
 94
        5
 62
     0
340
11
144
0.18
309
CONTENTFORMAT_END
171
     1
301
MARGIN
  1
CELLMARGIN_BEGIN
 40
0.06
 40
0.06
 40
0.06
 40
0.06
 40
0.06
 40
0.06
309
CELLMARGIN_END
 94
        6
 95
        1
302
GRIDFORMAT
  1
GRIDFORMAT_BEGIN
 90
        0
 91
        1
 62
     0
 92
       -2
340
14
 93
        0
 40
0.045
309
GRIDFORMAT_END
 95
        2
302
GRIDFORMAT
  1
GRIDFORMAT_BEGIN
 90
        0
 91
        1
 62
     0
 92
       -2
340
14
 93
        0
 40
0.045
309
GRIDFORMAT_END
 95
        4
302
GRIDFORMAT
  1
GRIDFORMAT_BEGIN
 90
        0
 91
        1
 62
     0
 92
       -2
340
14
 93
        0
 40
0.045
309
GRIDFORMAT_END
 95
        8
302
GRIDFORMAT
  1
GRIDFORMAT_BEGIN
 90
        0
 91
        1
 62
     0
 92
       -2
340
14
 93
        0
 40
0.045
309
GRIDFORMAT_END
 95
       16
302
GRIDFORMAT
  1
GRIDFORMAT_BEGIN
 90
        0
 91
        1
 62
     0
 92
       -2
340
14
 93
        0
 40
0.045
309
GRIDFORMAT_END
 95
       32
302
GRIDFORMAT
  1
GRIDFORMAT_BEGIN
 90
        0
 91
        1
 62
     0
 92
       -2
340
14
 93
        0
 40
0.045
309
GRIDFORMAT_END
309
TABLEFORMAT_END
  1
CELLSTYLE_BEGIN
 90
        2
 91
        1
300
_HEADER
309
CELLSTYLE_END
300
CELLSTYLE
  1
TABLEFORMAT_BEGIN
 90
        5
170
     1
 91
        0
 92
        0
 62
   257
 93
        1
300
CONTENTFORMAT
  1
CONTENTFORMAT_BEGIN
 90
        0
 91
        0
 92
        4
 93
        0
300

 40
0.0
140
1.0
 94
        2
 62
     0
340
11
144
0.18
309
CONTENTFORMAT_END
171
     1
301
MARGIN
  1
CELLMARGIN_BEGIN
 40
0.06
 40
0.06
 40
0.06
 40
0.06
 40
0.06
 40
0.06
309
CELLMARGIN_END
 94
        6
 95
        1
302
GRIDFORMAT
  1
GRIDFORMAT_BEGIN
 90
        0
 91
        1
 62
     0
 92
       -2
340
14
 93
        0
 40
0.045
309
GRIDFORMAT_END
 95
        2
302
GRIDFORMAT
  1
GRIDFORMAT_BEGIN
 90
        0
 91
        1
 62
     0
 92
       -2
340
14
 93
        0
 40
0.045
309
GRIDFORMAT_END
 95
        4
302
GRIDFORMAT
  1
GRIDFORMAT_BEGIN
 90
        0
 91
        1
 62
     0
 92
       -2
340
14
 93
        0
 40
0.045
309
GRIDFORMAT_END
 95
        8
302
GRIDFORMAT
  1
GRIDFORMAT_BEGIN
 90
        0
 91
        1
 62
     0
 92
       -2
340
14
 93
        0
 40
0.045
309
GRIDFORMAT_END
 95
       16
302
GRIDFORMAT
  1
GRIDFORMAT_BEGIN
 90
        0
 91
        1
 62
     0
 92
       -2
340
14
 93
        0
 40
0.045
309
GRIDFORMAT_END
 95
       32
302
GRIDFORMAT
  1
GRIDFORMAT_BEGIN
 90
        0
 91
        1
 62
     0
 92
       -2
340
14
 93
        0
 40
0.045
309
GRIDFORMAT_END
309
TABLEFORMAT_END
  1
CELLSTYLE_BEGIN
 90
        3
 91
        2
300
_DATA
309
CELLSTYLE_END
  0
ENDSEC
  0
EOF
