  0
SECTION
  2
HEADER
  9
$ACADVER
  1
AC1027
  9
$ACADMAINTVER
 70
   105
  9
$DWGCODEPAGE
  3
ANSI_1252
  9
$LASTSAVEDBY
  1
Office Desk
  9
$REQUIREDVERSIONS
160
                 0
  9
$INSBASE
 10
0.0
 20
0.0
 30
0.0
  9
$EXTMIN
 10
3.881523622047244
 20
7.351767716535433
 30
0.0
  9
$EXTMAX
 10
7.348862204724409
 20
9.402527559055118
 30
0.0
  9
$LIMMIN
 10
0.0
 20
0.0
  9
$LIMMAX
 10
12.0
 20
9.0
  9
$ORTHOMODE
 70
     0
  9
$REGENMODE
 70
     1
  9
$FILLMODE
 70
     1
  9
$QTEXTMODE
 70
     0
  9
$MIRRTEXT
 70
     1
  9
$LTSCALE
 40
1.0
  9
$ATTMODE
 70
     1
  9
$TEXTSIZE
 40
0.2
  9
$TRACEWID
 40
0.05
  9
$TEXTSTYLE
  7
Standard
  9
$CLAYER
  8
0
  9
$CELTYPE
  6
ByLayer
  9
$CECOLOR
 62
   256
  9
$CELTSCALE
 40
1.0
  9
$DISPSILH
 70
     0
  9
$DIMSCALE
 40
1.0
  9
$DIMASZ
 40
0.18
  9
$DIMEXO
 40
0.0625
  9
$DIMDLI
 40
0.38
  9
$DIMRND
 40
0.0
  9
$DIMDLE
 40
0.0
  9
$DIMEXE
 40
0.18
  9
$DIMTP
 40
0.0
  9
$DIMTM
 40
0.0
  9
$DIMTXT
 40
0.18
  9
$DIMCEN
 40
0.09
  9
$DIMTSZ
 40
0.0
  9
$DIMTOL
 70
     0
  9
$DIMLIM
 70
     0
  9
$DIMTIH
 70
     1
  9
$DIMTOH
 70
     1
  9
$DIMSE1
 70
     0
  9
$DIMSE2
 70
     0
  9
$DIMTAD
 70
     0
  9
$DIMZIN
 70
     0
  9
$DIMBLK
  1

  9
$DIMASO
 70
     1
  9
$DIMSHO
 70
     1
  9
$DIMPOST
  1

  9
$DIMAPOST
  1

  9
$DIMALT
 70
     0
  9
$DIMALTD
 70
     2
  9
$DIMALTF
 40
25.4
  9
$DIMLFAC
 40
1.0
  9
$DIMTOFL
 70
     0
  9
$DIMTVP
 40
0.0
  9
$DIMTIX
 70
     0
  9
$DIMSOXD
 70
     0
  9
$DIMSAH
 70
     0
  9
$DIMBLK1
  1

  9
$DIMBLK2
  1

  9
$DIMSTYLE
  2
Standard
  9
$DIMCLRD
 70
     0
  9
$DIMCLRE
 70
     0
  9
$DIMCLRT
 70
     0
  9
$DIMTFAC
 40
1.0
  9
$DIMGAP
 40
0.09
  9
$DIMJUST
 70
     0
  9
$DIMSD1
 70
     0
  9
$DIMSD2
 70
     0
  9
$DIMTOLJ
 70
     1
  9
$DIMTZIN
 70
     0
  9
$DIMALTZ
 70
     0
  9
$DIMALTTZ
 70
     0
  9
$DIMUPT
 70
     0
  9
$DIMDEC
 70
     4
  9
$DIMTDEC
 70
     4
  9
$DIMALTU
 70
     2
  9
$DIMALTTD
 70
     2
  9
$DIMTXSTY
  7
Standard
  9
$DIMAUNIT
 70
     0
  9
$DIMADEC
 70
     0
  9
$DIMALTRND
 40
0.0
  9
$DIMAZIN
 70
     0
  9
$DIMDSEP
 70
    46
  9
$DIMATFIT
 70
     3
  9
$DIMFRAC
 70
     0
  9
$DIMLDRBLK
  1

  9
$DIMLUNIT
 70
     2
  9
$DIMLWD
 70
    -2
  9
$DIMLWE
 70
    -2
  9
$DIMTMOVE
 70
     0
  9
$DIMFXL
 40
1.0
  9
$DIMFXLON
 70
     0
  9
$DIMJOGANG
 40
0.7853981633974483
  9
$DIMTFILL
 70
     0
  9
$DIMTFILLCLR
 70
     0
  9
$DIMARCSYM
 70
     0
  9
$DIMLTYPE
  6

  9
$DIMLTEX1
  6

  9
$DIMLTEX2
  6

  9
$DIMTXTDIRECTION
 70
     0
  9
$LUNITS
 70
     2
  9
$LUPREC
 70
     4
  9
$SKETCHINC
 40
0.1
  9
$FILLETRAD
 40
0.0
  9
$AUNITS
 70
     0
  9
$AUPREC
 70
     0
  9
$MENU
  1
.
  9
$ELEVATION
 40
0.0
  9
$PELEVATION
 40
0.0
  9
$THICKNESS
 40
0.0
  9
$LIMCHECK
 70
     0
  9
$CHAMFERA
 40
0.0
  9
$CHAMFERB
 40
0.0
  9
$CHAMFERC
 40
0.0
  9
$CHAMFERD
 40
0.0
  9
$SKPOLY
 70
     0
  9
$TDCREATE
 40
2461020.697663218
  9
$TDUCREATE
 40
2461020.468496551
  9
$TDUPDATE
 40
2461020.697663334
  9
$TDUUPDATE
 40
2461020.468496667
  9
$TDINDWG
 40
0.0000000116
  9
$TDUSRTIMER
 40
0.0000000116
  9
$USRTIMER
 70
     1
  9
$ANGBASE
 50
0.0
  9
$ANGDIR
 70
     0
  9
$PDMODE
 70
     0
  9
$PDSIZE
 40
0.0
  9
$PLINEWID
 40
0.0
  9
$SPLFRAME
 70
     0
  9
$SPLINETYPE
 70
     6
  9
$SPLINESEGS
 70
     8
  9
$HANDSEED
  5
8E
  9
$SURFTAB1
 70
     6
  9
$SURFTAB2
 70
     6
  9
$SURFTYPE
 70
     6
  9
$SURFU
 70
     6
  9
$SURFV
 70
     6
  9
$UCSBASE
  2

  9
$UCSNAME
  2

  9
$UCSORG
 10
0.0
 20
0.0
 30
0.0
  9
$UCSXDIR
 10
1.0
 20
0.0
 30
0.0
  9
$UCSYDIR
 10
0.0
 20
1.0
 30
0.0
  9
$UCSORTHOREF
  2

  9
$UCSORTHOVIEW
 70
     0
  9
$UCSORGTOP
 10
0.0
 20
0.0
 30
0.0
  9
$UCSORGBOTTOM
 10
0.0
 20
0.0
 30
0.0
  9
$UCSORGLEFT
 10
0.0
 20
0.0
 30
0.0
  9
$UCSORGRIGHT
 10
0.0
 20
0.0
 30
0.0
  9
$UCSORGFRONT
 10
0.0
 20
0.0
 30
0.0
  9
$UCSORGBACK
 10
0.0
 20
0.0
 30
0.0
  9
$PUCSBASE
  2

  9
$PUCSNAME
  2

  9
$PUCSORG
 10
0.0
 20
0.0
 30
0.0
  9
$PUCSXDIR
 10
1.0
 20
0.0
 30
0.0
  9
$PUCSYDIR
 10
0.0
 20
1.0
 30
0.0
  9
$PUCSORTHOREF
  2

  9
$PUCSORTHOVIEW
 70
     0
  9
$PUCSORGTOP
 10
0.0
 20
0.0
 30
0.0
  9
$PUCSORGBOTTOM
 10
0.0
 20
0.0
 30
0.0
  9
$PUCSORGLEFT
 10
0.0
 20
0.0
 30
0.0
  9
$PUCSORGRIGHT
 10
0.0
 20
0.0
 30
0.0
  9
$PUCSORGFRONT
 10
0.0
 20
0.0
 30
0.0
  9
$PUCSORGBACK
 10
0.0
 20
0.0
 30
0.0
  9
$USERI1
 70
     0
  9
$USERI2
 70
     0
  9
$USERI3
 70
     0
  9
$USERI4
 70
     0
  9
$USERI5
 70
     0
  9
$USERR1
 40
0.0
  9
$USERR2
 40
0.0
  9
$USERR3
 40
0.0
  9
$USERR4
 40
0.0
  9
$USERR5
 40
0.0
  9
$WORLDVIEW
 70
     1
  9
$SHADEDGE
 70
     3
  9
$SHADEDIF
 70
    70
  9
$TILEMODE
 70
     1
  9
$MAXACTVP
 70
    64
  9
$PINSBASE
 10
0.0
 20
0.0
 30
0.0
  9
$PLIMCHECK
 70
     0
  9
$PEXTMIN
 10
1.000000000000000E+20
 20
1.000000000000000E+20
 30
1.000000000000000E+20
  9
$PEXTMAX
 10
-1.000000000000000E+20
 20
-1.000000000000000E+20
 30
-1.000000000000000E+20
  9
$PLIMMIN
 10
0.0
 20
0.0
  9
$PLIMMAX
 10
12.0
 20
9.0
  9
$UNITMODE
 70
     0
  9
$VISRETAIN
 70
     1
  9
$PLINEGEN
 70
     0
  9
$PSLTSCALE
 70
     1
  9
$TREEDEPTH
 70
  3020
  9
$CMLSTYLE
  2
Standard
  9
$CMLJUST
 70
     0
  9
$CMLSCALE
 40
1.0
  9
$PROXYGRAPHICS
 70
     1
  9
$MEASUREMENT
 70
     0
  9
$CELWEIGHT
370
    -1
  9
$ENDCAPS
280
     0
  9
$JOINSTYLE
280
     0
  9
$LWDISPLAY
290
     0
  9
$INSUNITS
 70
     1
  9
$HYPERLINKBASE
  1

  9
$STYLESHEET
  1

  9
$XEDIT
290
     1
  9
$CEPSNTYPE
380
     0
  9
$PSTYLEMODE
290
     1
  9
$FINGERPRINTGUID
  2
{44a36b0b-ba03-4166-9f5f-155ab69a7c69}
  9
$VERSIONGUID
  2
{FAEB1C32-E019-11D5-929B-00C0DF256EC4}
  9
$EXTNAMES
290
     1
  9
$PSVPSCALE
 40
0.0
  9
$OLESTARTUP
290
     0
  9
$SORTENTS
280
   127
  9
$INDEXCTL
280
     0
  9
$HIDETEXT
280
     1
  9
$XCLIPFRAME
280
     2
  9
$HALOGAP
280
     0
  9
$OBSCOLOR
 70
   257
  9
$OBSLTYPE
280
     0
  9
$INTERSECTIONDISPLAY
280
     0
  9
$INTERSECTIONCOLOR
 70
   257
  9
$DIMASSOC
280
     2
  9
$PROJECTNAME
  1

  9
$CAMERADISPLAY
290
     0
  9
$LENSLENGTH
 40
50.0
  9
$CAMERAHEIGHT
 40
0.0
  9
$STEPSPERSEC
 40
2.0
  9
$STEPSIZE
 40
6.0
  9
$3DDWFPREC
 40
2.0
  9
$PSOLWIDTH
 40
0.25
  9
$PSOLHEIGHT
 40
4.0
  9
$LOFTANG1
 40
1.570796326794897
  9
$LOFTANG2
 40
1.570796326794897
  9
$LOFTMAG1
 40
0.0
  9
$LOFTMAG2
 40
0.0
  9
$LOFTPARAM
 70
     7
  9
$LOFTNORMALS
280
     1
  9
$LATITUDE
 40
37.795
  9
$LONGITUDE
 40
-122.394
  9
$NORTHDIRECTION
 40
0.0
  9
$TIMEZONE
 70
 -8000
  9
$LIGHTGLYPHDISPLAY
280
     1
  9
$TILEMODELIGHTSYNCH
280
     1
  9
$CMATERIAL
347
44
  9
$SOLIDHIST
280
     0
  9
$SHOWHIST
280
     1
  9
$DWFFRAME
280
     2
  9
$DGNFRAME
280
     2
  9
$REALWORLDSCALE
290
     1
  9
$INTERFERECOLOR
 62
   256
  9
$CSHADOW
280
     0
  9
$SHADOWPLANELOCATION
 40
0.0
  0
ENDSEC
  0
SECTION
  2
CLASSES
  0
CLASS
  1
ACDBDICTIONARYWDFLT
  2
AcDbDictionaryWithDefault
  3
ObjectDBX Classes
 90
        0
 91
        3
280
     0
281
     0
  0
CLASS
  1
VISUALSTYLE
  2
AcDbVisualStyle
  3
ObjectDBX Classes
 90
     4095
 91
        3
280
     0
281
     0
  0
CLASS
  1
MATERIAL
  2
AcDbMaterial
  3
ObjectDBX Classes
 90
     1153
 91
        3
280
     0
281
     0
  0
CLASS
  1
SCALE
  2
AcDbScale
  3
ObjectDBX Classes
 90
     1153
 91
        3
280
     0
281
     0
  0
CLASS
  1
TABLESTYLE
  2
AcDbTableStyle
  3
ObjectDBX Classes
 90
     4095
 91
        3
280
     0
281
     0
  0
CLASS
  1
MLEADERSTYLE
  2
AcDbMLeaderStyle
  3
ACDB_MLEADERSTYLE_CLASS
 90
     4095
 91
        3
280
     0
281
     0
  0
CLASS
  1
SUN
  2
AcDbSun
  3
SCENEOE
 90
     1153
 91
        3
280
     0
281
     0
  0
CLASS
  1
DICTIONARYVAR
  2
AcDbDictionaryVar
  3
ObjectDBX Classes
 90
        0
 91
        3
280
     0
281
     0
  0
CLASS
  1
CELLSTYLEMAP
  2
AcDbCellStyleMap
  3
ObjectDBX Classes
 90
     1152
 91
        3
280
     0
281
     0
  0
ENDSEC
  0
SECTION
  2
TABLES
  0
TABLE
  2
VPORT
  5
8
330
0
100
AcDbSymbolTable
 70
     1
  0
VPORT
  5
29
330
8
100
AcDbSymbolTableRecord
100
AcDbViewportTableRecord
  2
*Active
 70
     0
 10
0.0
 20
0.0
 11
1.0
 21
1.0
 12
10.42990654205607
 22
4.5
 13
0.0
 23
0.0
 14
0.5
 24
0.5
 15
0.5
 25
0.5
 16
0.0
 26
0.0
 36
1.0
 17
0.0
 27
0.0
 37
0.0
 40
9.0
 41
1.972972972850329
 42
50.0
 43
0.0
 44
0.0
 50
0.0
 51
0.0
 71
     0
 72
   100
 73
     1
 74
     3
 75
     0
 76
     0
 77
     0
 78
     0
281
     0
 65
     1
110
0.0
120
0.0
130
0.0
111
1.0
121
0.0
131
0.0
112
0.0
122
1.0
132
0.0
 79
     0
146
0.0
348
2F
 60
     3
 61
     5
292
     1
282
     1
141
0.0
142
0.0
 63
   250
361
5D
  0
ENDTAB
  0
TABLE
  2
LTYPE
  5
5
330
0
100
AcDbSymbolTable
 70
     1
  0
LTYPE
  5
14
330
5
100
AcDbSymbolTableRecord
100
AcDbLinetypeTableRecord
  2
ByBlock
 70
     0
  3

 72
    65
 73
     0
 40
0.0
  0
LTYPE
  5
15
330
5
100
AcDbSymbolTableRecord
100
AcDbLinetypeTableRecord
  2
ByLayer
 70
     0
  3

 72
    65
 73
     0
 40
0.0
  0
LTYPE
  5
16
330
5
100
AcDbSymbolTableRecord
100
AcDbLinetypeTableRecord
  2
Continuous
 70
     0
  3
Solid line
 72
    65
 73
     0
 40
0.0
  0
ENDTAB
  0
TABLE
  2
LAYER
  5
2
330
0
100
AcDbSymbolTable
 70
     2
  0
LAYER
  5
10
330
2
100
AcDbSymbolTableRecord
100
AcDbLayerTableRecord
  2
0
 70
     0
 62
     7
  6
Continuous
370
    -3
390
F
347
46
348
0
  0
LAYER
  5
5F
330
2
100
AcDbSymbolTableRecord
100
AcDbLayerTableRecord
  2
Layer 1
 70
     0
 62
     7
  6
Continuous
370
    -3
390
F
347
46
348
0
  0
ENDTAB
  0
TABLE
  2
STYLE
  5
3
330
0
100
AcDbSymbolTable
 70
     1
  0
STYLE
  5
11
330
3
100
AcDbSymbolTableRecord
100
AcDbTextStyleTableRecord
  2
Standard
 70
     0
 40
0.0
 41
1.0
 50
0.0
 71
     0
 42
0.2
  3
txt
  4

  0
ENDTAB
  0
TABLE
  2
VIEW
  5
6
330
0
100
AcDbSymbolTable
 70
     0
  0
ENDTAB
  0
TABLE
  2
UCS
  5
7
330
0
100
AcDbSymbolTable
 70
     0
  0
ENDTAB
  0
TABLE
  2
APPID
  5
9
330
0
100
AcDbSymbolTable
 70
     2
  0
APPID
  5
12
330
9
100
AcDbSymbolTableRecord
100
AcDbRegAppTableRecord
  2
ACAD
 70
     0
  0
APPID
  5
5E
330
9
100
AcDbSymbolTableRecord
100
AcDbRegAppTableRecord
  2
ODA
 70
     0
  0
ENDTAB
  0
TABLE
  2
DIMSTYLE
  5
A
330
0
100
AcDbSymbolTable
 70
     1
100
AcDbDimStyleTable
  0
DIMSTYLE
105
27
330
A
100
AcDbSymbolTableRecord
100
AcDbDimStyleTableRecord
  2
Standard
 70
     0
178
     0
340
11
  0
ENDTAB
  0
TABLE
  2
BLOCK_RECORD
  5
1
330
0
100
AcDbSymbolTable
 70
     1
  0
BLOCK_RECORD
  5
1F
330
1
100
AcDbSymbolTableRecord
100
AcDbBlockTableRecord
  2
*Model_Space
340
22
 70
     0
280
     1
281
     0
  0
BLOCK_RECORD
  5
1B
330
1
100
AcDbSymbolTableRecord
100
AcDbBlockTableRecord
  2
*Paper_Space
340
1E
 70
     0
280
     1
281
     0
  0
BLOCK_RECORD
  5
23
330
1
100
AcDbSymbolTableRecord
100
AcDbBlockTableRecord
  2
*Paper_Space0
340
26
 70
     0
280
     1
281
     0
  0
ENDTAB
  0
ENDSEC
  0
SECTION
  2
BLOCKS
  0
BLOCK
  5
20
330
1F
100
AcDbEntity
  8
0
100
AcDbBlockBegin
  2
*Model_Space
 70
     0
 10
0.0
 20
0.0
 30
0.0
  3
*Model_Space
  1

  0
ENDBLK
  5
21
330
1F
100
AcDbEntity
  8
0
100
AcDbBlockEnd
  0
BLOCK
  5
1C
330
1B
100
AcDbEntity
 67
     1
  8
0
100
AcDbBlockBegin
  2
*Paper_Space
 70
     0
 10
0.0
 20
0.0
 30
0.0
  3
*Paper_Space
  1

  0
ENDBLK
  5
1D
330
1B
100
AcDbEntity
 67
     1
  8
0
100
AcDbBlockEnd
  0
BLOCK
  5
24
330
23
100
AcDbEntity
  8
0
100
AcDbBlockBegin
  2
*Paper_Space0
 70
     0
 10
0.0
 20
0.0
 30
0.0
  3
*Paper_Space0
  1

  0
ENDBLK
  5
25
330
23
100
AcDbEntity
  8
0
100
AcDbBlockEnd
  0
ENDSEC
  0
SECTION
  2
ENTITIES
  0
LWPOLYLINE
  5
60
330
1F
100
AcDbEntity
  8
Layer 1
 62
   250
370
     9
100
AcDbPolyline
 90
        5
 70
     1
 43
0.0
 10
3.883023622047244
 20
7.353271653543307
 10
7.347362204724409
 20
7.353271653543307
 10
7.347362204724409
 20
9.401027559055118
 10
3.883023622047244
 20
9.401027559055118
 10
3.883023622047244
 20
7.353271653543307
  0
LWPOLYLINE
  5
61
330
1F
100
AcDbEntity
  8
Layer 1
 62
     7
370
    18
100
AcDbPolyline
 90
       72
 70
     1
 43
0.0
 10
4.964472440944882
 20
8.119043307086613
 10
4.706374015748032
 20
8.037535433070866
 10
4.608263779527559
 20
8.097905511811023
 10
4.612791338582677
 20
8.431476377952755
 10
4.608523622047244
 20
8.434425196850393
 10
4.597885826771654
 20
8.442889763779528
 10
4.584133858267717
 20
8.456311023622048
 10
4.570527559055118
 20
8.474114173228346
 10
4.560314960629921
 20
8.495740157480315
 10
4.556755905511811
 20
8.520622047244094
 10
4.56309842519685
 20
8.548192913385828
 10
4.582606299212598
 20
8.577885826771654
 10
4.583877952755905
 20
8.579566929133858
 10
4.588240157480315
 20
8.58425590551181
 10
4.596531496062992
 20
8.591417322834646
 10
4.609582677165355
 20
8.600527559055118
 10
4.628224409448819
 20
8.611055118110237
 10
4.653283464566929
 20
8.622464566929134
 10
4.685598425196851
 20
8.63422440944882
 10
4.725996062992126
 20
8.645811023622047
 10
5.467263779527559
 20
8.859240157480315
 10
5.478267716535433
 20
8.862456692913385
 10
5.508838582677165
 20
8.870311023622047
 10
5.555311023622047
 20
8.880110236220473
 10
5.61401968503937
 20
8.889161417322835
 10
5.681299212598425
 20
8.89477559055118
 10
5.753484251968504
 20
8.89425590551181
 10
5.826909448818897
 20
8.884909448818897
 10
5.897909448818898
 20
8.864047244094488
 10
6.561066929133858
 20
8.527200787401576
 10
6.566413385826771
 20
8.52453937007874
 10
6.580397637795276
 20
8.516988188976377
 10
6.599937007874016
 20
8.505204724409449
 10
6.621956692913386
 20
8.489838582677166
 10
6.643366141732283
 20
8.471547244094488
 10
6.661090551181102
 20
8.45098031496063
 10
6.672047244094488
 20
8.42879527559055
 10
6.673157480314961
 20
8.405645669291339
 10
6.670677165354331
 20
8.399188976377953
 10
6.660807086614173
 20
8.381122047244094
 10
6.639897637795276
 20
8.353385826771653
 10
6.604291338582677
 20
8.317929133858268
 10
6.55034251968504
 20
8.276692913385826
 10
6.474397637795276
 20
8.231625984251968
 10
6.372811023622047
 20
8.184673228346456
 10
6.241929133858267
 20
8.137779527559054
 10
6.23601968503937
 20
7.899314960629921
 10
6.235779527559055
 20
7.898566929133858
 10
6.234842519685039
 20
7.896503937007874
 10
6.232866141732283
 20
7.893389763779528
 10
6.229523622047244
 20
7.8895
 10
6.224476377952756
 20
7.885094488188976
 10
6.217389763779527
 20
7.880448818897638
 10
6.207937007874015
 20
7.875822834645669
 10
6.195775590551182
 20
7.871496062992126
 10
5.575208661417323
 20
7.67101968503937
 10
5.572299212598425
 20
7.670220472440945
 10
5.564385826771653
 20
7.668208661417323
 10
5.552688976377953
 20
7.665566929133858
 10
5.538429133858267
 20
7.66288188976378
 10
5.522818897637795
 20
7.660736220472441
 10
5.507082677165354
 20
7.659712598425197
 10
5.492437007874016
 20
7.660397637795276
 10
5.480102362204724
 20
7.663370078740157
 10
4.987543307086614
 20
7.975602362204724
 10
4.983937007874016
 20
7.978212598425197
 10
4.976
 20
7.985444881889764
 10
4.971759842519685
 20
7.99051968503937
 10
4.96805905511811
 20
7.996417322834645
 10
4.965444881889764
 20
8.003031496062992
 10
4.964452755905512
 20
8.01024409448819
 10
4.964472440944882
 20
8.119043307086613
  0
LWPOLYLINE
  5
62
330
1F
100
AcDbEntity
  8
Layer 1
 62
     7
370
    18
100
AcDbPolyline
 90
        2
 70
     0
 43
0.0
 10
4.706468503937008
 20
8.038185039370079
 10
4.709196850393701
 20
8.366555118110236
  0
LWPOLYLINE
  5
63
330
1F
100
AcDbEntity
  8
Layer 1
 62
     7
370
    18
100
AcDbPolyline
 90
       26
 70
     0
 43
0.0
 10
4.611259842519685
 20
8.431952755905511
 10
4.621464566929133
 20
8.424732283464566
 10
4.649393700787401
 20
8.4051968503937
 10
4.691035433070867
 20
8.37653937007874
 10
4.742370078740158
 20
8.34196062992126
 10
4.799381889763779
 20
8.304649606299213
 10
4.858055118110236
 20
8.2678031496063
 10
4.914370078740157
 20
8.234614173228346
 10
4.964307086614173
 20
8.208279527559055
 10
5.014326771653543
 20
8.181385826771654
 10
5.072515748031496
 20
8.146212598425198
 10
5.137334645669291
 20
8.10548031496063
 10
5.207240157480315
 20
8.061897637795276
 10
5.280681102362204
 20
8.018192913385827
 10
5.356122047244095
 20
7.977074803149606
 10
5.432015748031496
 20
7.941263779527559
 10
5.506818897637795
 20
7.91348031496063
 10
5.508708661417323
 20
7.913114173228347
 10
5.514551181102362
 20
7.912448818897638
 10
5.524614173228346
 20
7.912141732283464
 10
5.539169291338583
 20
7.912846456692914
 10
5.558484251968504
 20
7.915220472440945
 10
5.582822834645669
 20
7.919917322834646
 10
5.612452755905512
 20
7.927590551181102
 10
5.647645669291339
 20
7.938897637795276
 10
6.264228346456693
 20
8.144716535433071
  0
LWPOLYLINE
  5
64
330
1F
100
AcDbEntity
  8
Layer 1
 62
     7
370
    18
100
AcDbPolyline
 90
       46
 70
     1
 43
0.0
 10
5.255732283464567
 20
8.134236220472442
 10
4.680204724409449
 20
8.481913385826772
 10
4.676145669291339
 20
8.48528346456693
 10
4.666874015748031
 20
8.494570866141732
 10
4.656759842519685
 20
8.508562992125984
 10
4.650165354330709
 20
8.526031496062991
 10
4.651452755905511
 20
8.545759842519685
 10
4.664992125984252
 20
8.56651968503937
 10
4.695149606299212
 20
8.587090551181102
 10
4.746287401574803
 20
8.60625590551181
 10
5.589385826771654
 20
8.836877952755906
 10
5.595267716535433
 20
8.838964566929134
 10
5.612413385826772
 20
8.8438031496063
 10
5.640074803149607
 20
8.84925590551181
 10
5.6775
 20
8.85317716535433
 10
5.723933070866142
 20
8.853433070866142
 10
5.778629921259842
 20
8.84788188976378
 10
5.840834645669291
 20
8.834389763779528
 10
5.909799212598426
 20
8.810811023622048
 10
6.522594488188976
 20
8.489944881889764
 10
6.538748031496063
 20
8.482787401574804
 10
6.569854330708662
 20
8.466330708661417
 10
6.592437007874016
 20
8.450370078740157
 10
6.606488188976378
 20
8.434901574803149
 10
6.61201968503937
 20
8.41992125984252
 10
6.609031496062992
 20
8.405425196850393
 10
6.597527559055118
 20
8.391405511811024
 10
6.577511811023622
 20
8.377858267716535
 10
6.548988188976378
 20
8.364775590551181
 10
6.441066929133858
 20
8.32331496062992
 10
6.333535433070866
 20
8.28379527559055
 10
6.226405511811024
 20
8.246311023622047
 10
6.119696850393701
 20
8.21096062992126
 10
6.013437007874016
 20
8.17784251968504
 10
5.907641732283465
 20
8.147055118110236
 10
5.802330708661417
 20
8.118688976377953
 10
5.697523622047244
 20
8.092850393700788
 10
5.604468503937007
 20
8.070122047244094
 10
5.552996062992126
 20
8.05911811023622
 10
5.506692913385827
 20
8.053681102362205
 10
5.46409842519685
 20
8.053751968503937
 10
5.423751968503937
 20
8.059255905511812
 10
5.384200787401575
 20
8.070125984251968
 10
5.343984251968504
 20
8.086291338582678
 10
5.301649606299213
 20
8.107685039370079
 10
5.255732283464567
 20
8.134236220472442
  0
LWPOLYLINE
  5
65
330
1F
100
AcDbEntity
  8
Layer 1
 62
     7
370
    18
100
AcDbPolyline
 90
       47
 70
     0
 43
0.0
 10
5.038279527559055
 20
8.266933070866141
 10
5.087405511811023
 20
8.290055118110237
 10
5.087984251968504
 20
8.291086614173228
 10
5.089767716535433
 20
8.293767716535433
 10
5.092822834645669
 20
8.29748031496063
 10
5.097228346456693
 20
8.30159842519685
 10
5.103051181102362
 20
8.305503937007874
 10
5.110358267716536
 20
8.308574803149606
 10
5.119228346456693
 20
8.310188976377953
 10
5.129728346456693
 20
8.309728346456692
 10
5.218925196850393
 20
8.335464566929135
 10
5.219696850393701
 20
8.336169291338583
 10
5.221996062992126
 20
8.337972440944881
 10
5.225779527559055
 20
8.340413385826771
 10
5.231015748031496
 20
8.343031496062991
 10
5.237669291338583
 20
8.345366141732283
 10
5.245704724409449
 20
8.346956692913386
 10
5.255086614173228
 20
8.34734251968504
 10
5.265779527559055
 20
8.34605905511811
 10
5.354964566929134
 20
8.373311023622048
 10
5.356255905511811
 20
8.374271653543307
 10
5.35990157480315
 20
8.376740157480315
 10
5.365562992125985
 20
8.38009842519685
 10
5.372913385826772
 20
8.383720472440945
 10
5.381606299212598
 20
8.386988188976378
 10
5.391307086614173
 20
8.389279527559054
 10
5.401685039370078
 20
8.389976377952756
 10
5.41240157480315
 20
8.388452755905512
 10
5.501586614173228
 20
8.4156968503937
 10
5.502055118110237
 20
8.416842519685039
 10
5.50361811023622
 20
8.419740157480314
 10
5.506531496062992
 20
8.42359842519685
 10
5.511035433070866
 20
8.427614173228346
 10
5.517385826771654
 20
8.430992125984252
 10
5.52582283464567
 20
8.432933070866142
 10
5.536602362204724
 20
8.432641732283464
 10
5.549964566929134
 20
8.429314960629922
 10
5.636133858267717
 20
8.45353937007874
 10
5.637645669291339
 20
8.454858267716535
 10
5.641988188976378
 20
8.458129921259843
 10
5.648885826771654
 20
8.462322834645668
 10
5.658047244094488
 20
8.466405511811024
 10
5.669196850393701
 20
8.469358267716535
 10
5.682043307086614
 20
8.470141732283464
 10
5.696311023622047
 20
8.46773622047244
 10
5.711712598425197
 20
8.461106299212599
 10
6.145547244094488
 20
8.220417322834646
  0
LWPOLYLINE
  5
66
330
1F
100
AcDbEntity
  8
Layer 1
 62
     7
370
    18
100
AcDbPolyline
 90
        9
 70
     0
 43
0.0
 10
5.106944881889763
 20
8.306370078740157
 10
5.120429133858268
 20
8.297055118110237
 10
5.157259842519685
 20
8.272259842519684
 10
5.212
 20
8.236708661417323
 10
5.279216535433071
 20
8.195122047244094
 10
5.353464566929134
 20
8.152220472440945
 10
5.429314960629921
 20
8.112732283464567
 10
5.501330708661417
 20
8.08137401574803
 10
5.564070866141733
 20
8.062874015748031
  0
LWPOLYLINE
  5
67
330
1F
100
AcDbEntity
  8
Layer 1
 62
     7
370
    18
100
AcDbPolyline
 90
        9
 70
     0
 43
0.0
 10
5.236377952755905
 20
8.344255905511812
 10
5.24948031496063
 20
8.334555118110236
 10
5.2853031496063
 20
8.308740157480315
 10
5.338614173228346
 20
8.271748031496063
 10
5.404192913385827
 20
8.228507874015747
 10
5.476807086614174
 20
8.183956692913386
 10
5.551232283464567
 20
8.143023622047243
 10
5.622236220472441
 20
8.110645669291339
 10
5.684594488188976
 20
8.091751968503937
  0
LWPOLYLINE
  5
68
330
1F
100
AcDbEntity
  8
Layer 1
 62
     7
370
    18
100
AcDbPolyline
 90
        9
 70
     0
 43
0.0
 10
5.380311023622047
 20
8.382944881889763
 10
5.393358267716535
 20
8.373035433070866
 10
5.42903937007874
 20
8.34667716535433
 10
5.482153543307087
 20
8.308909448818898
 10
5.547503937007874
 20
8.264783464566928
 10
5.619889763779527
 20
8.219346456692913
 10
5.694114173228346
 20
8.177641732283465
 10
5.76498031496063
 20
8.144716535433071
 10
5.827283464566929
 20
8.125622047244095
  0
LWPOLYLINE
  5
69
330
1F
100
AcDbEntity
  8
Layer 1
 62
     7
370
    18
100
AcDbPolyline
 90
        9
 70
     0
 43
0.0
 10
5.519791338582677
 20
8.430570866141732
 10
5.532838582677165
 20
8.420334645669291
 10
5.56851968503937
 20
8.393106299212599
 10
5.621633858267717
 20
8.354114173228346
 10
5.686984251968504
 20
8.308582677165354
 10
5.759370078740157
 20
8.261740157480315
 10
5.833594488188976
 20
8.218807086614174
 10
5.904456692913386
 20
8.185015748031496
 10
5.966759842519685
 20
8.165586614173229
  0
LWPOLYLINE
  5
6A
330
1F
100
AcDbEntity
  8
Layer 1
 62
     7
370
    18
100
AcDbPolyline
 90
        4
 70
     1
 43
0.0
 10
4.436755905511811
 20
8.76467716535433
 10
4.415177165354331
 20
8.742893700787402
 10
4.445129921259842
 20
8.736330708661418
 10
4.436755905511811
 20
8.76467716535433
  0
LWPOLYLINE
  5
6B
330
1F
100
AcDbEntity
  8
Layer 1
 62
     7
370
    18
100
AcDbPolyline
 90
        4
 70
     1
 43
0.0
 10
5.743744094488189
 20
9.150704724409449
 10
5.773696850393701
 20
9.144141732283465
 10
5.75211811023622
 20
9.122358267716535
 10
5.743744094488189
 20
9.150704724409449
  0
LWPOLYLINE
  5
6C
330
1F
100
AcDbEntity
  8
Layer 1
 62
     7
370
    18
100
AcDbPolyline
 90
        2
 70
     0
 43
0.0
 10
4.407035433070866
 20
8.738846456692913
 10
5.782736220472441
 20
9.145169291338583
  0
LWPOLYLINE
  5
6D
330
1F
100
AcDbEntity
  8
Layer 1
 62
     7
370
     9
100
AcDbPolyline
 90
        7
 70
     1
 43
0.0
 10
4.667358267716535
 20
9.023149606299212
 10
4.680370078740157
 20
9.023149606299212
 10
4.680370078740157
 20
9.151074803149607
 10
4.649161417322834
 20
9.147724409448818
 10
4.649161417322834
 20
9.136385826771653
 10
4.667358267716535
 20
9.136385826771653
 10
4.667358267716535
 20
9.023149606299212
  0
LWPOLYLINE
  5
6E
330
1F
100
AcDbEntity
  8
Layer 1
 62
     7
370
     9
100
AcDbPolyline
 90
       54
 70
     1
 43
0.0
 10
4.755318897637795
 20
9.13490157480315
 10
4.757464566929134
 20
9.13344094488189
 10
4.759468503937008
 20
9.13178346456693
 10
4.761322834645669
 20
9.129929133858267
 10
4.763035433070866
 20
9.127877952755906
 10
4.764602362204724
 20
9.125629921259842
 10
4.766023622047245
 20
9.123185039370078
 10
4.767295275590551
 20
9.120543307086614
 10
4.768425196850393
 20
9.11770472440945
 10
4.770779527559055
 20
9.110106299212598
 10
4.772464566929134
 20
9.102291338582678
 10
4.773472440944882
 20
9.094255905511812
 10
4.773807086614173
 20
9.086003937007874
 10
4.773251968503937
 20
9.076799212598425
 10
4.772610236220473
 20
9.071799212598425
 10
4.771767716535433
 20
9.06707874015748
 10
4.770728346456693
 20
9.062629921259843
 10
4.769492125984252
 20
9.05846062992126
 10
4.76805905511811
 20
9.054562992125984
 10
4.766429133858268
 20
9.050944881889764
 10
4.764598425196851
 20
9.047602362204724
 10
4.762574803149606
 20
9.044535433070866
 10
4.760724409448819
 20
9.042224409448819
 10
4.758779527559055
 20
9.040224409448818
 10
4.756732283464567
 20
9.038531496062992
 10
4.754586614173228
 20
9.03714566929134
 10
4.75234251968504
 20
9.036066929133858
 10
4.749996062992126
 20
9.035295275590551
 10
4.747555118110236
 20
9.03483464566929
 10
4.745011811023622
 20
9.034681102362205
 10
4.742177165354331
 20
9.03483464566929
 10
4.739476377952756
 20
9.035291338582677
 10
4.736917322834645
 20
9.036051181102362
 10
4.734492125984252
 20
9.037122047244095
 10
4.732204724409449
 20
9.038492125984252
 10
4.730051181102362
 20
9.040169291338582
 10
4.72803937007874
 20
9.042149606299212
 10
4.726161417322834
 20
9.044437007874016
 10
4.720771653543308
 20
9.0543031496063
 10
4.71751968503937
 20
9.065543307086614
 10
4.71594094488189
 20
9.076700787401574
 10
4.715484251968504
 20
9.089125984251968
 10
4.71751968503937
 20
9.106547244094488
 10
4.720673228346457
 20
9.117787401574803
 10
4.725972440944882
 20
9.12783464566929
 10
4.733775590551181
 20
9.134996062992126
 10
4.736161417322835
 20
9.136173228346456
 10
4.738751968503937
 20
9.13701968503937
 10
4.741547244094488
 20
9.137523622047244
 10
4.744551181102362
 20
9.137692913385827
 10
4.74755905511811
 20
9.13751968503937
 10
4.750354330708661
 20
9.136996062992125
 10
4.752944881889764
 20
9.136122047244095
 10
4.755318897637795
 20
9.13490157480315
  0
LWPOLYLINE
  5
6F
330
1F
100
AcDbEntity
  8
Layer 1
 62
     7
370
     9
100
AcDbPolyline
 90
       65
 70
     1
 43
0.0
 10
4.745204724409449
 20
9.021484251968504
 10
4.750625984251968
 20
9.021826771653544
 10
4.755700787401575
 20
9.02286220472441
 10
4.760433070866141
 20
9.024582677165354
 10
4.76482283464567
 20
9.026992125984252
 10
4.768862204724409
 20
9.030090551181102
 10
4.77255905511811
 20
9.033874015748031
 10
4.775909448818898
 20
9.038350393700787
 10
4.778913385826772
 20
9.043511811023622
 10
4.781027559055118
 20
9.04801968503937
 10
4.78286220472441
 20
9.052775590551182
 10
4.784409448818898
 20
9.057779527559054
 10
4.785681102362204
 20
9.063035433070866
 10
4.786665354330709
 20
9.06853937007874
 10
4.787370078740158
 20
9.074291338582677
 10
4.787791338582677
 20
9.08029527559055
 10
4.787933070866142
 20
9.086551181102362
 10
4.787791338582677
 20
9.092807086614172
 10
4.787370078740158
 20
9.098811023622048
 10
4.786665354330709
 20
9.104566929133858
 10
4.785681102362204
 20
9.110074803149606
 10
4.784409448818898
 20
9.115330708661418
 10
4.78286220472441
 20
9.120334645669292
 10
4.781027559055118
 20
9.125090551181103
 10
4.778913385826772
 20
9.12959842519685
 10
4.775909448818898
 20
9.134763779527558
 10
4.77255905511811
 20
9.139240157480314
 10
4.768862204724409
 20
9.143027559055119
 10
4.76482283464567
 20
9.146129921259842
 10
4.760433070866141
 20
9.14853937007874
 10
4.755700787401575
 20
9.150259842519684
 10
4.750625984251968
 20
9.15129527559055
 10
4.745204724409449
 20
9.15163779527559
 10
4.739779527559056
 20
9.15129527559055
 10
4.734700787401575
 20
9.150259842519684
 10
4.729964566929134
 20
9.14853937007874
 10
4.725578740157481
 20
9.146129921259842
 10
4.721535433070867
 20
9.143027559055119
 10
4.717838582677166
 20
9.139240157480314
 10
4.714488188976378
 20
9.134763779527558
 10
4.71148031496063
 20
9.12959842519685
 10
4.709370078740157
 20
9.125090551181103
 10
4.707543307086614
 20
9.120334645669292
 10
4.705996062992126
 20
9.115330708661418
 10
4.704728346456693
 20
9.110074803149606
 10
4.703744094488189
 20
9.104566929133858
 10
4.703039370078741
 20
9.098811023622048
 10
4.70261811023622
 20
9.092807086614172
 10
4.702476377952756
 20
9.086551181102362
 10
4.70261811023622
 20
9.08029527559055
 10
4.703039370078741
 20
9.074291338582677
 10
4.703744094488189
 20
9.06853937007874
 10
4.704728346456693
 20
9.063035433070866
 10
4.705996062992126
 20
9.057779527559054
 10
4.707543307086614
 20
9.052775590551182
 10
4.709370078740157
 20
9.04801968503937
 10
4.71148031496063
 20
9.043511811023622
 10
4.714488188976378
 20
9.038350393700787
 10
4.717838582677166
 20
9.033874015748031
 10
4.721535433070867
 20
9.030090551181102
 10
4.725578740157481
 20
9.026992125984252
 10
4.729964566929134
 20
9.024582677165354
 10
4.734700787401575
 20
9.02286220472441
 10
4.739779527559056
 20
9.021826771653544
 10
4.745204724409449
 20
9.021484251968504
  0
LWPOLYLINE
  5
70
330
1F
100
AcDbEntity
  8
Layer 1
 62
     7
370
     9
100
AcDbPolyline
 90
       62
 70
     1
 43
0.0
 10
4.84505905511811
 20
9.092129921259842
 10
4.848023622047244
 20
9.091992125984252
 10
4.850874015748031
 20
9.091586614173229
 10
4.85361811023622
 20
9.09090157480315
 10
4.856251968503937
 20
9.089948818897637
 10
4.858771653543307
 20
9.088720472440945
 10
4.861185039370079
 20
9.087220472440945
 10
4.863488188976378
 20
9.085444881889764
 10
4.865677165354331
 20
9.083397637795276
 10
4.867661417322835
 20
9.081181102362205
 10
4.869377952755905
 20
9.078862204724409
 10
4.870830708661417
 20
9.07644094488189
 10
4.87201968503937
 20
9.073913385826772
 10
4.872944881889763
 20
9.071279527559055
 10
4.873606299212598
 20
9.068543307086614
 10
4.874
 20
9.065704724409448
 10
4.874133858267717
 20
9.06275590551181
 10
4.874
 20
9.059877952755906
 10
4.87359842519685
 20
9.05709842519685
 10
4.872933070866142
 20
9.054417322834645
 10
4.872
 20
9.051834645669292
 10
4.870799212598425
 20
9.049350393700788
 10
4.869330708661417
 20
9.046964566929134
 10
4.867594488188977
 20
9.044677165354331
 10
4.865594488188976
 20
9.042492125984252
 10
4.86344094488189
 20
9.040531496062993
 10
4.861165354330709
 20
9.038830708661417
 10
4.858771653543307
 20
9.037389763779528
 10
4.856251968503937
 20
9.036212598425196
 10
4.853610236220472
 20
9.035295275590551
 10
4.850850393700787
 20
9.034641732283465
 10
4.847964566929134
 20
9.034248031496062
 10
4.84496062992126
 20
9.034118110236221
 10
4.842015748031496
 20
9.034251968503938
 10
4.839169291338583
 20
9.03465748031496
 10
4.83642125984252
 20
9.035334645669291
 10
4.833775590551181
 20
9.036279527559055
 10
4.831224409448819
 20
9.037496062992126
 10
4.828771653543307
 20
9.03898031496063
 10
4.826413385826772
 20
9.040740157480315
 10
4.824157480314961
 20
9.042767716535433
 10
4.822110236220473
 20
9.04496062992126
 10
4.820338582677166
 20
9.047259842519685
 10
4.818838582677166
 20
9.049665354330708
 10
4.817614173228346
 20
9.052181102362205
 10
4.81665748031496
 20
9.054803149606299
 10
4.815976377952756
 20
9.057535433070866
 10
4.815570866141733
 20
9.060370078740158
 10
4.815433070866142
 20
9.06331496062992
 10
4.815570866141733
 20
9.066244094488189
 10
4.815976377952756
 20
9.069062992125984
 10
4.81665748031496
 20
9.07176377952756
 10
4.817614173228346
 20
9.074354330708662
 10
4.818838582677166
 20
9.076830708661417
 10
4.820338582677166
 20
9.079192913385826
 10
4.822110236220473
 20
9.081440944881889
 10
4.824157480314961
 20
9.08357874015748
 10
4.833633858267716
 20
9.089803149606299
 10
4.836366141732284
 20
9.09082283464567
 10
4.839181102362205
 20
9.091551181102362
 10
4.84207874015748
 20
9.091984251968505
 10
4.84505905511811
 20
9.092129921259842
  0
LWPOLYLINE
  5
71
330
1F
100
AcDbEntity
  8
Layer 1
 62
     7
370
     9
100
AcDbPolyline
 90
       61
 70
     1
 43
0.0
 10
4.887326771653544
 20
9.063681102362205
 10
4.887122047244095
 20
9.068161417322834
 10
4.886511811023622
 20
9.072437007874015
 10
4.885496062992126
 20
9.076507874015748
 10
4.884074803149606
 20
9.080374015748031
 10
4.882244094488189
 20
9.08403937007874
 10
4.880011811023622
 20
9.087496062992127
 10
4.877370078740157
 20
9.090755905511811
 10
4.874322834645669
 20
9.093807086614174
 10
4.871208661417323
 20
9.09638188976378
 10
4.867874015748032
 20
9.098637795275591
 10
4.86432283464567
 20
9.10057874015748
 10
4.860551181102363
 20
9.102200787401575
 10
4.856562992125984
 20
9.103503937007874
 10
4.852358267716536
 20
9.104496062992126
 10
4.847933070866142
 20
9.105169291338584
 10
4.843291338582677
 20
9.105527559055117
 10
4.839574803149606
 20
9.103102362204725
 10
4.87821653543307
 20
9.149586614173229
 10
4.861133858267716
 20
9.149586614173229
 10
4.811716535433071
 20
9.08990157480315
 10
4.809496062992126
 20
9.086996062992126
 10
4.807570866141733
 20
9.083972440944882
 10
4.80594094488189
 20
9.080830708661418
 10
4.804606299212598
 20
9.077566929133859
 10
4.803566929133858
 20
9.074181102362205
 10
4.802826771653543
 20
9.070677165354331
 10
4.80238188976378
 20
9.067055118110236
 10
4.802232283464567
 20
9.06331496062992
 10
4.802425196850393
 20
9.059003937007875
 10
4.803011811023622
 20
9.054858267716535
 10
4.803984251968504
 20
9.050877952755906
 10
4.805346456692914
 20
9.047066929133859
 10
4.80709842519685
 20
9.043417322834646
 10
4.809240157480315
 20
9.039937007874016
 10
4.811771653543307
 20
9.036622047244094
 10
4.814688976377953
 20
9.033472440944882
 10
4.81790157480315
 20
9.030570866141732
 10
4.821271653543307
 20
9.02805905511811
 10
4.824799212598426
 20
9.025933070866142
 10
4.82848031496063
 20
9.0241968503937
 10
4.832318897637795
 20
9.022842519685039
 10
4.836318897637796
 20
9.021877952755906
 10
4.840468503937008
 20
9.021299212598425
 10
4.844779527559055
 20
9.0211062992126
 10
4.849153543307087
 20
9.021299212598425
 10
4.853350393700787
 20
9.02187401574803
 10
4.857374015748031
 20
9.022830708661417
 10
4.861224409448819
 20
9.024173228346458
 10
4.864897637795275
 20
9.025897637795275
 10
4.868397637795276
 20
9.028007874015747
 10
4.871724409448819
 20
9.0305
 10
4.874877952755906
 20
9.033377952755906
 10
4.877610236220472
 20
9.036377952755906
 10
4.880035433070866
 20
9.039610236220472
 10
4.882161417322835
 20
9.043070866141733
 10
4.883984251968504
 20
9.04676377952756
 10
4.885448818897638
 20
9.050681102362205
 10
4.886492125984252
 20
9.054807086614174
 10
4.88711811023622
 20
9.059141732283464
 10
4.887326771653544
 20
9.063681102362205
  0
LWPOLYLINE
  5
72
330
1F
100
AcDbEntity
  8
Layer 1
 62
     7
370
     9
100
AcDbPolyline
 90
       99
 70
     1
 43
0.0
 10
5.009940944881889
 20
9.023523622047245
 10
5.022944881889764
 20
9.023523622047245
 10
5.022944881889764
 20
9.074649606299213
 10
5.022838582677165
 20
9.078043307086615
 10
5.02251968503937
 20
9.081279527559055
 10
5.021992125984252
 20
9.084358267716535
 10
5.021251968503937
 20
9.087275590551181
 10
5.020295275590551
 20
9.090031496062991
 10
5.019129921259842
 20
9.092629921259842
 10
5.017755905511811
 20
9.095066929133859
 10
5.016165354330709
 20
9.09734251968504
 10
5.014334645669291
 20
9.09946062992126
 10
5.012283464566929
 20
9.101358267716535
 10
5.010015748031496
 20
9.103035433070866
 10
5.007527559055118
 20
9.104496062992126
 10
5.00471653543307
 20
9.105677165354331
 10
5.001488188976378
 20
9.10651968503937
 10
4.997842519685039
 20
9.107023622047244
 10
4.993779527559055
 20
9.107192913385827
 10
4.98963779527559
 20
9.10690157480315
 10
4.985763779527559
 20
9.106027559055118
 10
4.98215748031496
 20
9.104574803149607
 10
4.978818897637796
 20
9.102543307086615
 10
4.976047244094488
 20
9.100287401574803
 10
4.973527559055118
 20
9.09771653543307
 10
4.971263779527559
 20
9.094826771653544
 10
4.969251968503937
 20
9.091633858267716
 10
4.965822834645669
 20
9.09734251968504
 10
4.963992125984252
 20
9.09946062992126
 10
4.961940944881889
 20
9.101358267716535
 10
4.959669291338582
 20
9.103035433070866
 10
4.957177165354331
 20
9.104496062992126
 10
4.954370078740157
 20
9.105677165354331
 10
4.951141732283465
 20
9.10651968503937
 10
4.947496062992126
 20
9.107023622047244
 10
4.943429133858268
 20
9.107192913385827
 10
4.939291338582677
 20
9.10690157480315
 10
4.935417322834645
 20
9.106027559055118
 10
4.931811023622047
 20
9.104574803149607
 10
4.928476377952756
 20
9.102543307086615
 10
4.925826771653544
 20
9.100405511811024
 10
4.923413385826771
 20
9.097988188976379
 10
4.921228346456693
 20
9.09528346456693
 10
4.919279527559056
 20
9.092295275590551
 10
4.919279527559056
 20
9.105330708661418
 10
4.906271653543307
 20
9.105330708661418
 10
4.906271653543307
 20
9.023523622047245
 10
4.919279527559056
 20
9.023523622047245
 10
4.919279527559056
 20
9.065393700787402
 10
4.91998031496063
 20
9.07017716535433
 10
4.921047244094488
 20
9.074582677165354
 10
4.922488188976378
 20
9.078610236220472
 10
4.924295275590551
 20
9.082279527559056
 10
4.925909448818897
 20
9.084767716535433
 10
4.927783464566929
 20
9.087023622047244
 10
4.929909448818898
 20
9.089047244094488
 10
4.932287401574803
 20
9.090838582677165
 10
4.93484251968504
 20
9.092299212598425
 10
4.937488188976378
 20
9.093338582677166
 10
4.940228346456693
 20
9.093964566929134
 10
4.943055118110236
 20
9.094173228346456
 10
4.945751968503937
 20
9.094062992125984
 10
4.948070866141732
 20
9.093732283464567
 10
4.95001968503937
 20
9.093181102362205
 10
4.951598425196851
 20
9.092409448818898
 10
4.953472440944882
 20
9.091023622047244
 10
4.955098425196851
 20
9.08940157480315
 10
4.956472440944882
 20
9.08753937007874
 10
4.95759842519685
 20
9.085437007874015
 10
4.958472440944882
 20
9.08309842519685
 10
4.95909842519685
 20
9.08051968503937
 10
4.959472440944882
 20
9.077704724409449
 10
4.959598425196851
 20
9.074649606299213
 10
4.959598425196851
 20
9.023523622047245
 10
4.972594488188976
 20
9.023523622047245
 10
4.972594488188976
 20
9.074649606299213
 10
4.972511811023622
 20
9.077791338582678
 10
4.974645669291339
 20
9.082279527559056
 10
4.976255905511811
 20
9.084767716535433
 10
4.978125984251968
 20
9.087023622047244
 10
4.980251968503937
 20
9.089047244094488
 10
4.982629921259843
 20
9.090838582677165
 10
4.985185039370079
 20
9.092299212598425
 10
4.987834645669292
 20
9.093338582677166
 10
4.990574803149606
 20
9.093964566929134
 10
4.993405511811024
 20
9.094173228346456
 10
4.99609842519685
 20
9.094062992125984
 10
4.99842125984252
 20
9.093732283464567
 10
5.000374015748031
 20
9.093181102362205
 10
5.001956692913386
 20
9.092409448818898
 10
5.003826771653543
 20
9.091023622047244
 10
5.005448818897638
 20
9.08940157480315
 10
5.006818897637795
 20
9.08753937007874
 10
5.007944881889764
 20
9.085437007874015
 10
5.008818897637795
 20
9.08309842519685
 10
5.00944094488189
 20
9.08051968503937
 10
5.009814960629921
 20
9.077704724409449
 10
5.009940944881889
 20
9.074649606299213
 10
5.009940944881889
 20
9.023523622047245
  0
LWPOLYLINE
  5
73
330
1F
100
AcDbEntity
  8
Layer 1
 62
     7
370
     9
100
AcDbPolyline
 90
       99
 70
     1
 43
0.0
 10
5.151685039370078
 20
9.023523622047245
 10
5.164692913385827
 20
9.023523622047245
 10
5.164692913385827
 20
9.074649606299213
 10
5.164586614173229
 20
9.078043307086615
 10
5.164267716535433
 20
9.081279527559055
 10
5.163740157480315
 20
9.084358267716535
 10
5.162996062992126
 20
9.087275590551181
 10
5.162043307086615
 20
9.090031496062991
 10
5.160874015748031
 20
9.092629921259842
 10
5.159496062992126
 20
9.095066929133859
 10
5.15790157480315
 20
9.09734251968504
 10
5.156074803149607
 20
9.09946062992126
 10
5.154027559055118
 20
9.101358267716535
 10
5.151759842519685
 20
9.103035433070866
 10
5.149275590551181
 20
9.104496062992126
 10
5.146460629921259
 20
9.105677165354331
 10
5.143232283464567
 20
9.10651968503937
 10
5.139586614173228
 20
9.107023622047244
 10
5.135523622047244
 20
9.107192913385827
 10
5.131381889763779
 20
9.10690157480315
 10
5.127507874015748
 20
9.106027559055118
 10
5.12390157480315
 20
9.104574803149607
 10
5.12055905511811
 20
9.102543307086615
 10
5.117791338582677
 20
9.100287401574803
 10
5.115271653543307
 20
9.09771653543307
 10
5.113003937007874
 20
9.094826771653544
 10
5.110992125984252
 20
9.091633858267716
 10
5.107566929133858
 20
9.09734251968504
 10
5.105736220472441
 20
9.09946062992126
 10
5.103685039370078
 20
9.101358267716535
 10
5.101417322834646
 20
9.103035433070866
 10
5.098925196850394
 20
9.104496062992126
 10
5.096118110236221
 20
9.105677165354331
 10
5.092889763779527
 20
9.10651968503937
 10
5.089240157480315
 20
9.107023622047244
 10
5.085169291338583
 20
9.107192913385827
 10
5.081031496062992
 20
9.10690157480315
 10
5.077161417322834
 20
9.106027559055118
 10
5.073555118110236
 20
9.104574803149607
 10
5.070216535433071
 20
9.102543307086615
 10
5.067570866141732
 20
9.100405511811024
 10
5.065153543307087
 20
9.097988188976379
 10
5.062972440944882
 20
9.09528346456693
 10
5.061023622047244
 20
9.092295275590551
 10
5.061023622047244
 20
9.105330708661418
 10
5.04801968503937
 20
9.105330708661418
 10
5.04801968503937
 20
9.023523622047245
 10
5.061023622047244
 20
9.023523622047245
 10
5.061023622047244
 20
9.065393700787402
 10
5.061720472440945
 20
9.07017716535433
 10
5.062787401574803
 20
9.074582677165354
 10
5.064228346456693
 20
9.078610236220472
 10
5.066035433070867
 20
9.082279527559056
 10
5.067653543307086
 20
9.084767716535433
 10
5.069527559055119
 20
9.087023622047244
 10
5.071653543307087
 20
9.089047244094488
 10
5.074031496062992
 20
9.090838582677165
 10
5.076586614173229
 20
9.092299212598425
 10
5.079232283464567
 20
9.093338582677166
 10
5.081968503937007
 20
9.093964566929134
 10
5.084799212598425
 20
9.094173228346456
 10
5.087496062992126
 20
9.094062992125984
 10
5.089818897637795
 20
9.093732283464567
 10
5.091767716535433
 20
9.093181102362205
 10
5.093346456692913
 20
9.092409448818898
 10
5.095220472440944
 20
9.091023622047244
 10
5.096846456692913
 20
9.08940157480315
 10
5.098220472440945
 20
9.08753937007874
 10
5.099342519685039
 20
9.085437007874015
 10
5.100216535433071
 20
9.08309842519685
 10
5.100842519685039
 20
9.08051968503937
 10
5.101216535433071
 20
9.077704724409449
 10
5.10134251968504
 20
9.074649606299213
 10
5.10134251968504
 20
9.023523622047245
 10
5.11434251968504
 20
9.023523622047245
 10
5.11434251968504
 20
9.074649606299213
 10
5.114251968503937
 20
9.077791338582678
 10
5.116389763779527
 20
9.082279527559056
 10
5.118
 20
9.084767716535433
 10
5.119870078740157
 20
9.087023622047244
 10
5.121996062992126
 20
9.089047244094488
 10
5.124374015748032
 20
9.090838582677165
 10
5.126929133858268
 20
9.092299212598425
 10
5.129574803149606
 20
9.093338582677166
 10
5.132314960629921
 20
9.093964566929134
 10
5.135149606299213
 20
9.094173228346456
 10
5.137842519685039
 20
9.094062992125984
 10
5.140169291338583
 20
9.093732283464567
 10
5.142122047244094
 20
9.093181102362205
 10
5.143704724409448
 20
9.092409448818898
 10
5.145574803149606
 20
9.091023622047244
 10
5.147192913385827
 20
9.08940157480315
 10
5.148566929133858
 20
9.08753937007874
 10
5.149688976377953
 20
9.085437007874015
 10
5.150562992125984
 20
9.08309842519685
 10
5.151185039370079
 20
9.08051968503937
 10
5.15155905511811
 20
9.077704724409449
 10
5.151685039370078
 20
9.074649606299213
 10
5.151685039370078
 20
9.023523622047245
  0
LWPOLYLINE
  5
74
330
1F
100
AcDbEntity
  8
Layer 1
 62
     7
370
    18
100
AcDbPolyline
 90
        4
 70
     1
 43
0.0
 10
4.236582677165354
 20
8.221051181102363
 10
4.206444881889764
 20
8.22670472440945
 10
4.217803149606299
 20
8.198220472440944
 10
4.236582677165354
 20
8.221051181102363
  0
LWPOLYLINE
  5
75
330
1F
100
AcDbEntity
  8
Layer 1
 62
     7
370
    18
100
AcDbPolyline
 90
        4
 70
     1
 43
0.0
 10
4.976759842519685
 20
7.612216535433071
 10
4.988122047244095
 20
7.583736220472441
 10
4.957984251968504
 20
7.589389763779527
 10
4.976759842519685
 20
7.612216535433071
  0
LWPOLYLINE
  5
76
330
1F
100
AcDbEntity
  8
Layer 1
 62
     7
370
    18
100
AcDbPolyline
 90
        2
 70
     0
 43
0.0
 10
4.198527559055118
 20
8.23117716535433
 10
4.99403937007874
 20
7.576830708661418
  0
LWPOLYLINE
  5
77
330
1F
100
AcDbEntity
  8
Layer 1
 62
     7
370
     9
100
AcDbPolyline
 90
        7
 70
     1
 43
0.0
 10
4.084240157480315
 20
7.672779527559055
 10
4.097248031496063
 20
7.672779527559055
 10
4.097248031496063
 20
7.800696850393701
 10
4.066047244094488
 20
7.797354330708662
 10
4.066047244094488
 20
7.786007874015748
 10
4.084240157480315
 20
7.786007874015748
 10
4.084240157480315
 20
7.672779527559055
  0
LWPOLYLINE
  5
78
330
1F
100
AcDbEntity
  8
Layer 1
 62
     7
370
     9
100
AcDbPolyline
 90
        7
 70
     1
 43
0.0
 10
4.137559055118111
 20
7.672779527559055
 10
4.150562992125984
 20
7.672779527559055
 10
4.150562992125984
 20
7.800696850393701
 10
4.119354330708662
 20
7.797354330708662
 10
4.119354330708662
 20
7.786007874015748
 10
4.137559055118111
 20
7.786007874015748
 10
4.137559055118111
 20
7.672779527559055
  0
LWPOLYLINE
  5
79
330
1F
100
AcDbEntity
  8
Layer 1
 62
     7
370
     9
100
AcDbPolyline
 90
       87
 70
     1
 43
0.0
 10
4.175082677165355
 20
7.672779527559055
 10
4.264074803149606
 20
7.672779527559055
 10
4.264074803149606
 20
7.685791338582677
 10
4.20648031496063
 20
7.685791338582677
 10
4.250511811023622
 20
7.729484251968504
 10
4.253385826771654
 20
7.732629921259843
 10
4.255874015748032
 20
7.735937007874016
 10
4.25798031496063
 20
7.739397637795276
 10
4.259704724409449
 20
7.743011811023622
 10
4.261043307086614
 20
7.746787401574803
 10
4.262003937007874
 20
7.750720472440945
 10
4.262574803149606
 20
7.754807086614173
 10
4.262767716535433
 20
7.759055118110236
 10
4.262570866141732
 20
7.763393700787401
 10
4.261984251968504
 20
7.76755905511811
 10
4.261007874015748
 20
7.771551181102362
 10
4.259633858267716
 20
7.775370078740157
 10
4.257874015748031
 20
7.779011811023622
 10
4.255716535433071
 20
7.78248031496063
 10
4.253169291338582
 20
7.785775590551181
 10
4.250228346456693
 20
7.788893700787401
 10
4.246964566929134
 20
7.791791338582677
 10
4.243551181102363
 20
7.794307086614173
 10
4.239996062992126
 20
7.796433070866142
 10
4.236299212598425
 20
7.798173228346457
 10
4.232452755905512
 20
7.799527559055118
 10
4.22846062992126
 20
7.800492125984252
 10
4.224322834645669
 20
7.801074803149606
 10
4.22003937007874
 20
7.801267716535433
 10
4.215594488188977
 20
7.801062992125984
 10
4.211314960629921
 20
7.800452755905511
 10
4.207200787401574
 20
7.799433070866142
 10
4.203251968503937
 20
7.798007874015748
 10
4.199468503937008
 20
7.79617716535433
 10
4.195850393700788
 20
7.79394094488189
 10
4.192397637795276
 20
7.791295275590551
 10
4.189110236220473
 20
7.788248031496063
 10
4.186185039370079
 20
7.784964566929134
 10
4.183673228346457
 20
7.781511811023622
 10
4.181574803149607
 20
7.777885826771653
 10
4.179893700787401
 20
7.774090551181103
 10
4.178625984251968
 20
7.770122047244095
 10
4.177771653543307
 20
7.765984251968504
 10
4.177334645669291
 20
7.761673228346456
 10
4.177311023622047
 20
7.757192913385826
 10
4.1905
 20
7.757192913385826
 10
4.190389763779527
 20
7.76009842519685
 10
4.190594488188976
 20
7.762937007874016
 10
4.191110236220473
 20
7.765712598425197
 10
4.19194094488189
 20
7.768417322834646
 10
4.193086614173228
 20
7.77105905511811
 10
4.194543307086614
 20
7.773629921259842
 10
4.196314960629921
 20
7.776137795275591
 10
4.198397637795275
 20
7.778574803149606
 10
4.200625984251968
 20
7.780751968503937
 10
4.202972440944882
 20
7.782641732283465
 10
4.205437007874016
 20
7.784240157480315
 10
4.208011811023622
 20
7.785547244094488
 10
4.210708661417323
 20
7.786562992125984
 10
4.21351968503937
 20
7.787287401574803
 10
4.216448818897637
 20
7.787724409448819
 10
4.219492125984252
 20
7.787870078740157
 10
4.222476377952756
 20
7.787740157480315
 10
4.225346456692914
 20
7.787346456692913
 10
4.228106299212598
 20
7.7866968503937
 10
4.230751968503937
 20
7.785779527559055
 10
4.233283464566929
 20
7.784606299212599
 10
4.235704724409449
 20
7.783169291338583
 10
4.238011811023622
 20
7.781468503937008
 10
4.240204724409449
 20
7.779507874015748
 10
4.242228346456693
 20
7.777338582677165
 10
4.243984251968504
 20
7.775066929133859
 10
4.245468503937007
 20
7.772688976377953
 10
4.246681102362205
 20
7.770208661417323
 10
4.247625984251968
 20
7.767622047244094
 10
4.248299212598425
 20
7.764929133858268
 10
4.248704724409449
 20
7.76213779527559
 10
4.248838582677165
 20
7.759240157480315
 10
4.248708661417322
 20
7.756275590551181
 10
4.248314960629921
 20
7.753429133858268
 10
4.247661417322835
 20
7.750696850393701
 10
4.246748031496063
 20
7.748082677165354
 10
4.245574803149606
 20
7.745582677165355
 10
4.244137795275591
 20
7.743204724409448
 10
4.242437007874016
 20
7.740937007874016
 10
4.24048031496063
 20
7.738787401574803
 10
4.175082677165355
 20
7.672779527559055
  0
LWPOLYLINE
  5
7A
330
1F
100
AcDbEntity
  8
Layer 1
 62
     7
370
     9
100
AcDbPolyline
 90
       99
 70
     1
 43
0.0
 10
4.395232283464567
 20
7.673149606299212
 10
4.408240157480315
 20
7.673149606299212
 10
4.408240157480315
 20
7.724279527559055
 10
4.408133858267717
 20
7.727673228346457
 10
4.407814960629922
 20
7.730909448818898
 10
4.407287401574803
 20
7.733984251968504
 10
4.406543307086614
 20
7.73690157480315
 10
4.405590551181103
 20
7.73965748031496
 10
4.404425196850394
 20
7.742251968503937
 10
4.403047244094489
 20
7.744688976377953
 10
4.401456692913386
 20
7.746964566929134
 10
4.399625984251968
 20
7.749086614173228
 10
4.39757874015748
 20
7.750988188976378
 10
4.395311023622047
 20
7.752665354330708
 10
4.39282283464567
 20
7.754122047244095
 10
4.390011811023622
 20
7.755307086614173
 10
4.386783464566929
 20
7.756145669291339
 10
4.383133858267716
 20
7.756649606299213
 10
4.379074803149607
 20
7.756814960629921
 10
4.374933070866142
 20
7.756523622047244
 10
4.37105905511811
 20
7.755653543307087
 10
4.367452755905512
 20
7.754204724409449
 10
4.364114173228346
 20
7.752177165354331
 10
4.361342519685039
 20
7.74992125984252
 10
4.358822834645669
 20
7.747346456692913
 10
4.35655905511811
 20
7.744456692913386
 10
4.354547244094488
 20
7.741259842519685
 10
4.351114173228346
 20
7.746964566929134
 10
4.349283464566929
 20
7.749086614173228
 10
4.347232283464567
 20
7.750988188976378
 10
4.344964566929134
 20
7.752665354330708
 10
4.342472440944882
 20
7.754122047244095
 10
4.339665354330709
 20
7.755307086614173
 10
4.336437007874015
 20
7.756145669291339
 10
4.332787401574803
 20
7.756649606299213
 10
4.328724409448819
 20
7.756814960629921
 10
4.324586614173229
 20
7.756523622047244
 10
4.320712598425197
 20
7.755653543307087
 10
4.317106299212599
 20
7.754204724409449
 10
4.313771653543307
 20
7.752177165354331
 10
4.311122047244094
 20
7.750035433070866
 10
4.308704724409449
 20
7.747614173228347
 10
4.306523622047244
 20
7.744909448818897
 10
4.304574803149606
 20
7.741917322834646
 10
4.304574803149606
 20
7.75496062992126
 10
4.291566929133858
 20
7.75496062992126
 10
4.291566929133858
 20
7.673149606299212
 10
4.304574803149606
 20
7.673149606299212
 10
4.304574803149606
 20
7.715023622047244
 10
4.305271653543307
 20
7.7198031496063
 10
4.30634251968504
 20
7.724208661417323
 10
4.30778346456693
 20
7.728240157480315
 10
4.309590551181103
 20
7.731909448818898
 10
4.311204724409449
 20
7.734393700787401
 10
4.313074803149607
 20
7.736645669291339
 10
4.315200787401575
 20
7.738669291338582
 10
4.31757874015748
 20
7.74046062992126
 10
4.32013779527559
 20
7.74192125984252
 10
4.322783464566929
 20
7.742964566929134
 10
4.32551968503937
 20
7.743594488188976
 10
4.328346456692914
 20
7.7438031496063
 10
4.331043307086614
 20
7.743692913385827
 10
4.333366141732284
 20
7.743362204724409
 10
4.335314960629921
 20
7.742811023622047
 10
4.336893700787401
 20
7.74203937007874
 10
4.338767716535433
 20
7.740653543307086
 10
4.340393700787401
 20
7.739027559055118
 10
4.341767716535433
 20
7.737165354330709
 10
4.342889763779527
 20
7.735062992125984
 10
4.343763779527559
 20
7.732724409448819
 10
4.344389763779527
 20
7.730145669291338
 10
4.344763779527559
 20
7.727330708661417
 10
4.344889763779528
 20
7.724279527559055
 10
4.344889763779528
 20
7.673149606299212
 10
4.357889763779528
 20
7.673149606299212
 10
4.357889763779528
 20
7.724279527559055
 10
4.357807086614173
 20
7.727413385826772
 10
4.35994094488189
 20
7.731909448818898
 10
4.361551181102362
 20
7.734393700787401
 10
4.363417322834645
 20
7.736645669291339
 10
4.365543307086615
 20
7.738669291338582
 10
4.36792125984252
 20
7.74046062992126
 10
4.37048031496063
 20
7.74192125984252
 10
4.373125984251969
 20
7.742964566929134
 10
4.375866141732283
 20
7.743594488188976
 10
4.378696850393701
 20
7.7438031496063
 10
4.381389763779527
 20
7.743692913385827
 10
4.383716535433071
 20
7.743362204724409
 10
4.385669291338583
 20
7.742811023622047
 10
4.387251968503937
 20
7.74203937007874
 10
4.389122047244094
 20
7.740653543307086
 10
4.390740157480315
 20
7.739027559055118
 10
4.392114173228347
 20
7.737165354330709
 10
4.393236220472441
 20
7.735062992125984
 10
4.394110236220472
 20
7.732724409448819
 10
4.394732283464567
 20
7.730145669291338
 10
4.395106299212598
 20
7.727330708661417
 10
4.395232283464567
 20
7.724279527559055
 10
4.395232283464567
 20
7.673149606299212
  0
LWPOLYLINE
  5
7B
330
1F
100
AcDbEntity
  8
Layer 1
 62
     7
370
     9
100
AcDbPolyline
 90
       99
 70
     1
 43
0.0
 10
4.53698031496063
 20
7.673149606299212
 10
4.549984251968504
 20
7.673149606299212
 10
4.549984251968504
 20
7.724279527559055
 10
4.549877952755906
 20
7.727673228346457
 10
4.54955905511811
 20
7.730909448818898
 10
4.549031496062992
 20
7.733984251968504
 10
4.548287401574803
 20
7.73690157480315
 10
4.547334645669292
 20
7.73965748031496
 10
4.546169291338582
 20
7.742251968503937
 10
4.544787401574803
 20
7.744688976377953
 10
4.5431968503937
 20
7.746964566929134
 10
4.541370078740157
 20
7.749086614173228
 10
4.539322834645669
 20
7.750988188976378
 10
4.537055118110236
 20
7.752665354330708
 10
4.534570866141732
 20
7.754122047244095
 10
4.531755905511811
 20
7.755307086614173
 10
4.528527559055118
 20
7.756145669291339
 10
4.52488188976378
 20
7.756649606299213
 10
4.520818897637795
 20
7.756814960629921
 10
4.516677165354331
 20
7.756523622047244
 10
4.512803149606299
 20
7.755653543307087
 10
4.509196850393701
 20
7.754204724409449
 10
4.505854330708662
 20
7.752177165354331
 10
4.503082677165354
 20
7.74992125984252
 10
4.500566929133858
 20
7.747346456692913
 10
4.498299212598425
 20
7.744456692913386
 10
4.496287401574803
 20
7.741259842519685
 10
4.49286220472441
 20
7.746964566929134
 10
4.491031496062992
 20
7.749086614173228
 10
4.48898031496063
 20
7.750988188976378
 10
4.486712598425197
 20
7.752665354330708
 10
4.484220472440945
 20
7.754122047244095
 10
4.481413385826771
 20
7.755307086614173
 10
4.478181102362205
 20
7.756145669291339
 10
4.474531496062992
 20
7.756649606299213
 10
4.47046062992126
 20
7.756814960629921
 10
4.466326771653543
 20
7.756523622047244
 10
4.462456692913386
 20
7.755653543307087
 10
4.458850393700788
 20
7.754204724409449
 10
4.455511811023622
 20
7.752177165354331
 10
4.452866141732284
 20
7.750035433070866
 10
4.450448818897637
 20
7.747614173228347
 10
4.448267716535433
 20
7.744909448818897
 10
4.446318897637795
 20
7.741917322834646
 10
4.446318897637795
 20
7.75496062992126
 10
4.433314960629922
 20
7.75496062992126
 10
4.433314960629922
 20
7.673149606299212
 10
4.446318897637795
 20
7.673149606299212
 10
4.446318897637795
 20
7.715023622047244
 10
4.447015748031496
 20
7.7198031496063
 10
4.448082677165354
 20
7.724208661417323
 10
4.449523622047244
 20
7.728240157480315
 10
4.451326771653544
 20
7.731909448818898
 10
4.452948818897638
 20
7.734393700787401
 10
4.454818897637796
 20
7.736645669291339
 10
4.456944881889764
 20
7.738669291338582
 10
4.459326771653544
 20
7.74046062992126
 10
4.461881889763779
 20
7.74192125984252
 10
4.464527559055118
 20
7.742964566929134
 10
4.467263779527559
 20
7.743594488188976
 10
4.470094488188977
 20
7.7438031496063
 10
4.472791338582677
 20
7.743692913385827
 10
4.475110236220472
 20
7.743362204724409
 10
4.477059055118111
 20
7.742811023622047
 10
4.47863779527559
 20
7.74203937007874
 10
4.480511811023622
 20
7.740653543307086
 10
4.482137795275591
 20
7.739027559055118
 10
4.483511811023622
 20
7.737165354330709
 10
4.48463779527559
 20
7.735062992125984
 10
4.485511811023622
 20
7.732724409448819
 10
4.486137795275591
 20
7.730145669291338
 10
4.486511811023622
 20
7.727330708661417
 10
4.48663779527559
 20
7.724279527559055
 10
4.48663779527559
 20
7.673149606299212
 10
4.499633858267717
 20
7.673149606299212
 10
4.499633858267717
 20
7.724279527559055
 10
4.499547244094488
 20
7.727413385826772
 10
4.501685039370079
 20
7.731909448818898
 10
4.503295275590551
 20
7.734393700787401
 10
4.505165354330709
 20
7.736645669291339
 10
4.507291338582677
 20
7.738669291338582
 10
4.509669291338582
 20
7.74046062992126
 10
4.512220472440945
 20
7.74192125984252
 10
4.514866141732283
 20
7.742964566929134
 10
4.517606299212598
 20
7.743594488188976
 10
4.520444881889763
 20
7.7438031496063
 10
4.52313779527559
 20
7.743692913385827
 10
4.52546062992126
 20
7.743362204724409
 10
4.527413385826772
 20
7.742811023622047
 10
4.528996062992126
 20
7.74203937007874
 10
4.530866141732283
 20
7.740653543307086
 10
4.532488188976378
 20
7.739027559055118
 10
4.533858267716536
 20
7.737165354330709
 10
4.534984251968504
 20
7.735062992125984
 10
4.535858267716535
 20
7.732724409448819
 10
4.53648031496063
 20
7.730145669291338
 10
4.536854330708661
 20
7.727330708661417
 10
4.53698031496063
 20
7.724279527559055
 10
4.53698031496063
 20
7.673149606299212
  0
LWPOLYLINE
  5
7C
330
1F
100
AcDbEntity
  8
Layer 1
 62
     7
370
    18
100
AcDbPolyline
 90
        4
 70
     1
 43
0.0
 10
6.748866141732283
 20
8.404744094488189
 10
6.733846456692913
 20
8.431472440944882
 10
6.719311023622048
 20
8.404472440944883
 10
6.748866141732283
 20
8.404744094488189
  0
LWPOLYLINE
  5
7D
330
1F
100
AcDbEntity
  8
Layer 1
 62
     7
370
    18
100
AcDbPolyline
 90
        4
 70
     1
 43
0.0
 10
6.754771653543307
 20
7.75415748031496
 10
6.740236220472441
 20
7.72715748031496
 10
6.725216535433071
 20
7.753889763779528
 10
6.754771653543307
 20
7.75415748031496
  0
LWPOLYLINE
  5
7E
330
1F
100
AcDbEntity
  8
Layer 1
 62
     7
370
    18
100
AcDbPolyline
 90
        2
 70
     0
 43
0.0
 10
6.732188976377953
 20
8.440417322834646
 10
6.738744094488189
 20
7.718188976377952
  0
LWPOLYLINE
  5
7F
330
1F
100
AcDbEntity
  8
Layer 1
 62
     7
370
     9
100
AcDbPolyline
 90
        4
 70
     1
 43
0.0
 10
6.838775590551181
 20
8.245751968503937
 10
6.838775590551181
 20
8.172677165354331
 10
6.790468503937008
 20
8.172677165354331
 10
6.838775590551181
 20
8.245751968503937
  0
LWPOLYLINE
  5
80
330
1F
100
AcDbEntity
  8
Layer 1
 62
     7
370
     9
100
AcDbPolyline
 90
       11
 70
     1
 43
0.0
 10
6.852330708661417
 20
8.159291338582678
 10
6.868311023622047
 20
8.159291338582678
 10
6.868311023622047
 20
8.172677165354331
 10
6.852330708661417
 20
8.172677165354331
 10
6.852149606299212
 20
8.259874015748032
 10
6.83394094488189
 20
8.259874015748032
 10
6.767429133858267
 20
8.159291338582678
 10
6.838775590551181
 20
8.159291338582678
 10
6.838775590551181
 20
8.133437007874015
 10
6.852330708661417
 20
8.133437007874015
 10
6.852330708661417
 20
8.159291338582678
  0
LWPOLYLINE
  5
81
330
1F
100
AcDbEntity
  8
Layer 1
 62
     7
370
     9
100
AcDbPolyline
 90
       54
 70
     1
 43
0.0
 10
6.939185039370079
 20
8.245188976377953
 10
6.941330708661417
 20
8.243728346456694
 10
6.943330708661417
 20
8.242070866141733
 10
6.945185039370079
 20
8.24021653543307
 10
6.946897637795276
 20
8.23816535433071
 10
6.948464566929134
 20
8.235917322834645
 10
6.94988188976378
 20
8.233472440944881
 10
6.951157480314961
 20
8.230830708661417
 10
6.952287401574803
 20
8.227992125984253
 10
6.954641732283465
 20
8.220397637795276
 10
6.956322834645669
 20
8.212582677165354
 10
6.957330708661417
 20
8.204547244094488
 10
6.957665354330708
 20
8.196291338582677
 10
6.957114173228346
 20
8.187086614173229
 10
6.956468503937008
 20
8.182086614173228
 10
6.955625984251968
 20
8.177366141732284
 10
6.954586614173229
 20
8.172917322834646
 10
6.953350393700787
 20
8.168748031496063
 10
6.951913385826772
 20
8.164850393700787
 10
6.950283464566929
 20
8.161232283464567
 10
6.948452755905512
 20
8.157889763779528
 10
6.946429133858268
 20
8.15482283464567
 10
6.94457874015748
 20
8.152511811023622
 10
6.942633858267716
 20
8.150511811023621
 10
6.940586614173228
 20
8.148818897637796
 10
6.938444881889763
 20
8.14743307086614
 10
6.936200787401575
 20
8.146358267716536
 10
6.933858267716535
 20
8.145586614173228
 10
6.931413385826771
 20
8.145125984251969
 10
6.928874015748032
 20
8.144972440944882
 10
6.92603937007874
 20
8.145125984251969
 10
6.923338582677165
 20
8.145582677165354
 10
6.920779527559055
 20
8.146342519685039
 10
6.918354330708661
 20
8.147409448818898
 10
6.916066929133859
 20
8.148779527559055
 10
6.913913385826771
 20
8.150456692913385
 10
6.911901574803149
 20
8.152437007874015
 10
6.910023622047244
 20
8.15472440944882
 10
6.904625984251968
 20
8.164590551181103
 10
6.90138188976378
 20
8.175830708661417
 10
6.899795275590551
 20
8.186988188976377
 10
6.899338582677165
 20
8.199417322834647
 10
6.90138188976378
 20
8.216834645669291
 10
6.904535433070866
 20
8.228074803149607
 10
6.909830708661417
 20
8.238122047244094
 10
6.91763779527559
 20
8.24528346456693
 10
6.92001968503937
 20
8.246460629921259
 10
6.922606299212599
 20
8.247307086614173
 10
6.925405511811023
 20
8.247811023622047
 10
6.928413385826771
 20
8.24798031496063
 10
6.931417322834646
 20
8.247807086614173
 10
6.93421653543307
 20
8.247283464566928
 10
6.936807086614174
 20
8.246409448818898
 10
6.939185039370079
 20
8.245188976377953
  0
LWPOLYLINE
  5
82
330
1F
100
AcDbEntity
  8
Layer 1
 62
     7
370
     9
100
AcDbPolyline
 90
       65
 70
     1
 43
0.0
 10
6.929059055118111
 20
8.131771653543307
 10
6.93448031496063
 20
8.132114173228347
 10
6.93955905511811
 20
8.133149606299213
 10
6.944295275590552
 20
8.134870078740157
 10
6.948681102362205
 20
8.137279527559055
 10
6.952724409448819
 20
8.140377952755905
 10
6.95642125984252
 20
8.144161417322834
 10
6.959771653543307
 20
8.14863779527559
 10
6.962779527559055
 20
8.153799212598425
 10
6.964889763779528
 20
8.158307086614172
 10
6.966720472440945
 20
8.163062992125985
 10
6.968267716535433
 20
8.168066929133857
 10
6.969535433070866
 20
8.173322834645669
 10
6.97051968503937
 20
8.178826771653544
 10
6.971224409448819
 20
8.184582677165354
 10
6.971645669291338
 20
8.190590551181103
 10
6.971787401574804
 20
8.196846456692914
 10
6.971645669291338
 20
8.203102362204724
 10
6.971224409448819
 20
8.209106299212598
 10
6.97051968503937
 20
8.21486220472441
 10
6.969535433070866
 20
8.220366141732283
 10
6.968267716535433
 20
8.225622047244094
 10
6.966720472440945
 20
8.230625984251969
 10
6.964889763779528
 20
8.23538188976378
 10
6.962779527559055
 20
8.239885826771653
 10
6.959771653543307
 20
8.245051181102362
 10
6.95642125984252
 20
8.249531496062993
 10
6.952724409448819
 20
8.253318897637795
 10
6.948681102362205
 20
8.256417322834645
 10
6.944295275590552
 20
8.258826771653544
 10
6.93955905511811
 20
8.260547244094488
 10
6.93448031496063
 20
8.261582677165354
 10
6.929059055118111
 20
8.261925196850394
 10
6.923633858267716
 20
8.261582677165354
 10
6.918555118110236
 20
8.260547244094488
 10
6.91382283464567
 20
8.258826771653544
 10
6.909437007874016
 20
8.256417322834645
 10
6.905393700787402
 20
8.253318897637795
 10
6.901696850393701
 20
8.249531496062993
 10
6.898342519685039
 20
8.245051181102362
 10
6.895334645669291
 20
8.239885826771653
 10
6.893224409448819
 20
8.23538188976378
 10
6.891397637795276
 20
8.230625984251969
 10
6.889850393700788
 20
8.225622047244094
 10
6.888586614173228
 20
8.220366141732283
 10
6.887598425196851
 20
8.21486220472441
 10
6.886897637795276
 20
8.209106299212598
 10
6.886476377952756
 20
8.203102362204724
 10
6.886334645669291
 20
8.196846456692914
 10
6.886476377952756
 20
8.190590551181103
 10
6.886897637795276
 20
8.184582677165354
 10
6.887598425196851
 20
8.178826771653544
 10
6.888586614173228
 20
8.173322834645669
 10
6.889850393700788
 20
8.168066929133857
 10
6.891397637795276
 20
8.163062992125985
 10
6.893224409448819
 20
8.158307086614172
 10
6.895334645669291
 20
8.153799212598425
 10
6.898342519685039
 20
8.14863779527559
 10
6.901696850393701
 20
8.144161417322834
 10
6.905393700787402
 20
8.140377952755905
 10
6.909437007874016
 20
8.137279527559055
 10
6.91382283464567
 20
8.134870078740157
 10
6.918555118110236
 20
8.133149606299213
 10
6.923633858267716
 20
8.132114173228347
 10
6.929059055118111
 20
8.131771653543307
  0
LWPOLYLINE
  5
83
330
1F
100
AcDbEntity
  8
Layer 1
 62
     7
370
     9
100
AcDbPolyline
 90
       99
 70
     1
 43
0.0
 10
7.098681102362205
 20
8.133814960629921
 10
7.111688976377953
 20
8.133814960629921
 10
7.111688976377953
 20
8.184937007874016
 10
7.111582677165354
 20
8.188334645669292
 10
7.111263779527559
 20
8.191570866141733
 10
7.110736220472441
 20
8.194649606299212
 10
7.109992125984252
 20
8.197566929133858
 10
7.10903937007874
 20
8.20032283464567
 10
7.107870078740158
 20
8.202917322834645
 10
7.106492125984252
 20
8.205354330708662
 10
7.104897637795276
 20
8.207629921259842
 10
7.103070866141732
 20
8.209748031496064
 10
7.101023622047244
 20
8.211645669291338
 10
7.098755905511811
 20
8.213326771653543
 10
7.096271653543307
 20
8.214787401574803
 10
7.093456692913386
 20
8.215968503937008
 10
7.090224409448819
 20
8.216807086614173
 10
7.08657874015748
 20
8.217311023622047
 10
7.08251968503937
 20
8.21748031496063
 10
7.078377952755906
 20
8.217188976377953
 10
7.074503937007874
 20
8.216318897637795
 10
7.070897637795276
 20
8.214870078740157
 10
7.067555118110236
 20
8.21284251968504
 10
7.064787401574804
 20
8.210582677165354
 10
7.062267716535433
 20
8.208007874015747
 10
7.06
 20
8.205122047244094
 10
7.057988188976378
 20
8.201925196850393
 10
7.054555118110236
 20
8.207629921259842
 10
7.052728346456693
 20
8.209748031496064
 10
7.050681102362205
 20
8.211645669291338
 10
7.048409448818898
 20
8.213326771653543
 10
7.045913385826772
 20
8.214787401574803
 10
7.043106299212599
 20
8.215968503937008
 10
7.039881889763779
 20
8.216807086614173
 10
7.036232283464567
 20
8.217311023622047
 10
7.032165354330709
 20
8.21748031496063
 10
7.028027559055118
 20
8.217188976377953
 10
7.024157480314961
 20
8.216318897637795
 10
7.020551181102363
 20
8.214870078740157
 10
7.017212598425197
 20
8.21284251968504
 10
7.014566929133858
 20
8.210700787401574
 10
7.012149606299213
 20
8.208275590551182
 10
7.009968503937007
 20
8.205570866141732
 10
7.00801968503937
 20
8.202582677165354
 10
7.00801968503937
 20
8.215618110236221
 10
6.995015748031496
 20
8.215618110236221
 10
6.995015748031496
 20
8.133814960629921
 10
7.00801968503937
 20
8.133814960629921
 10
7.00801968503937
 20
8.175681102362205
 10
7.008716535433071
 20
8.180468503937007
 10
7.009783464566929
 20
8.184874015748031
 10
7.011224409448819
 20
8.188905511811024
 10
7.013031496062992
 20
8.192574803149606
 10
7.014649606299213
 20
8.19505905511811
 10
7.016523622047244
 20
8.197311023622047
 10
7.018649606299213
 20
8.19933464566929
 10
7.021027559055118
 20
8.201125984251968
 10
7.023582677165354
 20
8.202586614173228
 10
7.026228346456693
 20
8.203625984251968
 10
7.028964566929134
 20
8.204251968503938
 10
7.031795275590551
 20
8.20446062992126
 10
7.034492125984252
 20
8.204350393700787
 10
7.036814960629921
 20
8.20401968503937
 10
7.038763779527559
 20
8.203468503937009
 10
7.04034251968504
 20
8.202696850393702
 10
7.042216535433071
 20
8.201311023622047
 10
7.04384251968504
 20
8.199688976377953
 10
7.045216535433071
 20
8.197826771653544
 10
7.046338582677166
 20
8.195724409448818
 10
7.047212598425197
 20
8.193385826771653
 10
7.047838582677166
 20
8.190807086614173
 10
7.048212598425197
 20
8.187992125984252
 10
7.048338582677165
 20
8.184937007874016
 10
7.048338582677165
 20
8.133814960629921
 10
7.061338582677165
 20
8.133814960629921
 10
7.061338582677165
 20
8.184937007874016
 10
7.061248031496063
 20
8.188078740157481
 10
7.06338188976378
 20
8.192574803149606
 10
7.064996062992126
 20
8.19505905511811
 10
7.066862204724409
 20
8.197311023622047
 10
7.068988188976378
 20
8.19933464566929
 10
7.071370078740157
 20
8.201125984251968
 10
7.073925196850394
 20
8.202586614173228
 10
7.076570866141732
 20
8.203625984251968
 10
7.079311023622047
 20
8.204251968503938
 10
7.082145669291338
 20
8.20446062992126
 10
7.084838582677166
 20
8.204350393700787
 10
7.087165354330708
 20
8.20401968503937
 10
7.089114173228347
 20
8.203468503937009
 10
7.090692913385827
 20
8.202696850393702
 10
7.092562992125984
 20
8.201311023622047
 10
7.094185039370079
 20
8.199688976377953
 10
7.09555905511811
 20
8.197826771653544
 10
7.096685039370079
 20
8.195724409448818
 10
7.097555118110236
 20
8.193385826771653
 10
7.098181102362204
 20
8.190807086614173
 10
7.098555118110236
 20
8.187992125984252
 10
7.098681102362205
 20
8.184937007874016
 10
7.098681102362205
 20
8.133814960629921
  0
LWPOLYLINE
  5
84
330
1F
100
AcDbEntity
  8
Layer 1
 62
     7
370
     9
100
AcDbPolyline
 90
       99
 70
     1
 43
0.0
 10
7.240429133858267
 20
8.133814960629921
 10
7.253433070866142
 20
8.133814960629921
 10
7.253433070866142
 20
8.184937007874016
 10
7.253326771653543
 20
8.188334645669292
 10
7.253007874015748
 20
8.191570866141733
 10
7.252476377952756
 20
8.194649606299212
 10
7.251736220472441
 20
8.197566929133858
 10
7.250779527559055
 20
8.20032283464567
 10
7.249614173228347
 20
8.202917322834645
 10
7.248236220472441
 20
8.205354330708662
 10
7.246645669291339
 20
8.207629921259842
 10
7.244814960629921
 20
8.209748031496064
 10
7.242767716535433
 20
8.211645669291338
 10
7.2405
 20
8.213326771653543
 10
7.238015748031496
 20
8.214787401574803
 10
7.235200787401575
 20
8.215968503937008
 10
7.231968503937008
 20
8.216807086614173
 10
7.228322834645669
 20
8.217311023622047
 10
7.224259842519685
 20
8.21748031496063
 10
7.22011811023622
 20
8.217188976377953
 10
7.216248031496063
 20
8.216318897637795
 10
7.212645669291339
 20
8.214870078740157
 10
7.209303149606299
 20
8.21284251968504
 10
7.206527559055118
 20
8.210582677165354
 10
7.204011811023622
 20
8.208007874015747
 10
7.201748031496063
 20
8.205122047244094
 10
7.199736220472441
 20
8.201925196850393
 10
7.196303149606299
 20
8.207629921259842
 10
7.194476377952756
 20
8.209748031496064
 10
7.192425196850394
 20
8.211645669291338
 10
7.19015748031496
 20
8.213326771653543
 10
7.187661417322834
 20
8.214787401574803
 10
7.184854330708661
 20
8.215968503937008
 10
7.181625984251968
 20
8.216807086614173
 10
7.177976377952756
 20
8.217311023622047
 10
7.173909448818898
 20
8.21748031496063
 10
7.169771653543307
 20
8.217188976377953
 10
7.16590157480315
 20
8.216318897637795
 10
7.162299212598425
 20
8.214870078740157
 10
7.15896062992126
 20
8.21284251968504
 10
7.156311023622047
 20
8.210700787401574
 10
7.153897637795276
 20
8.208275590551182
 10
7.151716535433071
 20
8.205570866141732
 10
7.149767716535433
 20
8.202582677165354
 10
7.149767716535433
 20
8.215618110236221
 10
7.136755905511811
 20
8.215618110236221
 10
7.136755905511811
 20
8.133814960629921
 10
7.149767716535433
 20
8.133814960629921
 10
7.149767716535433
 20
8.175681102362205
 10
7.15046062992126
 20
8.180468503937007
 10
7.151527559055118
 20
8.184874015748031
 10
7.152968503937008
 20
8.188905511811024
 10
7.154775590551181
 20
8.192574803149606
 10
7.156389763779528
 20
8.19505905511811
 10
7.158263779527559
 20
8.197311023622047
 10
7.160389763779528
 20
8.19933464566929
 10
7.162775590551181
 20
8.201125984251968
 10
7.165326771653543
 20
8.202586614173228
 10
7.167972440944882
 20
8.203625984251968
 10
7.170712598425196
 20
8.204251968503938
 10
7.173543307086614
 20
8.20446062992126
 10
7.176232283464567
 20
8.204350393700787
 10
7.178555118110236
 20
8.20401968503937
 10
7.180503937007874
 20
8.203468503937009
 10
7.182086614173229
 20
8.202696850393702
 10
7.18396062992126
 20
8.201311023622047
 10
7.185586614173229
 20
8.199688976377953
 10
7.18696062992126
 20
8.197826771653544
 10
7.188086614173228
 20
8.195724409448818
 10
7.18896062992126
 20
8.193385826771653
 10
7.189586614173228
 20
8.190807086614173
 10
7.18996062992126
 20
8.187992125984252
 10
7.190086614173229
 20
8.184937007874016
 10
7.190086614173229
 20
8.133814960629921
 10
7.203074803149606
 20
8.133814960629921
 10
7.203074803149606
 20
8.184937007874016
 10
7.202992125984252
 20
8.188078740157481
 10
7.205125984251969
 20
8.192574803149606
 10
7.206736220472441
 20
8.19505905511811
 10
7.208606299212598
 20
8.197311023622047
 10
7.210732283464567
 20
8.19933464566929
 10
7.213118110236221
 20
8.201125984251968
 10
7.215669291338583
 20
8.202586614173228
 10
7.218314960629921
 20
8.203625984251968
 10
7.221055118110236
 20
8.204251968503938
 10
7.223893700787402
 20
8.20446062992126
 10
7.226582677165355
 20
8.204350393700787
 10
7.228905511811024
 20
8.20401968503937
 10
7.230858267716536
 20
8.203468503937009
 10
7.232437007874016
 20
8.202696850393702
 10
7.234311023622047
 20
8.201311023622047
 10
7.235933070866142
 20
8.199688976377953
 10
7.237307086614173
 20
8.197826771653544
 10
7.238429133858268
 20
8.195724409448818
 10
7.239303149606299
 20
8.193385826771653
 10
7.239929133858268
 20
8.190807086614173
 10
7.240303149606299
 20
8.187992125984252
 10
7.240429133858267
 20
8.184937007874016
 10
7.240429133858267
 20
8.133814960629921
  0
ENDSEC
  0
SECTION
  2
OBJECTS
  0
DICTIONARY
  5
C
330
0
100
AcDbDictionary
281
     1
  3
ACAD_DETAILVIEWSTYLE
350
8C
  3
ACAD_GROUP
350
D
  3
ACAD_LAYOUT
350
1A
  3
ACAD_MATERIAL
350
43
  3
ACAD_MLEADERSTYLE
350
5B
  3
ACAD_MLINESTYLE
350
17
  3
ACAD_PLOTSETTINGS
350
19
  3
ACAD_PLOTSTYLENAME
350
E
  3
ACAD_SCALELIST
350
47
  3
ACAD_SECTIONVIEWSTYLE
350
8D
  3
ACAD_TABLESTYLE
350
59
  3
ACAD_VISUALSTYLE
350
2A
  3
ACDB_RECOMPOSE_DATA
350
89
  3
AcDbVariableDictionary
350
85
  0
SUN
  5
5D
330
29
100
AcDbSun
 90
        1
290
     0
 63
     7
421
 16777215
 40
1.0
291
     1
 91
  2455826
 92
 54000000
292
     0
 70
     2
 71
   256
280
     1
  0
DICTIONARY
  5
8C
102
{ACAD_REACTORS
330
C
102
}
330
C
100
AcDbDictionary
281
     1
  0
DICTIONARY
  5
D
102
{ACAD_REACTORS
330
C
102
}
330
C
100
AcDbDictionary
281
     1
  0
DICTIONARY
  5
1A
102
{ACAD_REACTORS
330
C
102
}
330
C
100
AcDbDictionary
281
     1
  3
Layout1
350
1E
  3
Layout2
350
26
  3
Model
350
22
  0
DICTIONARY
  5
43
102
{ACAD_REACTORS
330
C
102
}
330
C
100
AcDbDictionary
281
     1
  3
ByBlock
350
45
  3
ByLayer
350
44
  3
Global
350
46
  0
DICTIONARY
  5
5B
102
{ACAD_REACTORS
330
C
102
}
330
C
100
AcDbDictionary
281
     1
  3
Standard
350
5C
  0
DICTIONARY
  5
17
102
{ACAD_REACTORS
330
C
102
}
330
C
100
AcDbDictionary
281
     1
  3
Standard
350
18
  0
DICTIONARY
  5
19
102
{ACAD_REACTORS
330
C
102
}
330
C
100
AcDbDictionary
281
     1
  0
ACDBDICTIONARYWDFLT
  5
E
102
{ACAD_REACTORS
330
C
102
}
330
C
100
AcDbDictionary
281
     1
  3
Normal
350
F
100
AcDbDictionaryWithDefault
340
F
  0
DICTIONARY
  5
47
102
{ACAD_REACTORS
330
C
102
}
330
C
100
AcDbDictionary
281
     1
  3
A0
350
48
  3
A1
350
49
  3
A2
350
4A
  3
A3
350
4B
  3
A4
350
4C
  3
A5
350
4D
  3
A6
350
4E
  3
A7
350
4F
  3
A8
350
50
  3
A9
350
51
  3
B1
350
52
  3
B2
350
53
  3
B3
350
54
  3
B4
350
55
  3
B5
350
56
  3
B6
350
57
  3
B7
350
58
  0
DICTIONARY
  5
8D
102
{ACAD_REACTORS
330
C
102
}
330
C
100
AcDbDictionary
281
     1
  0
DICTIONARY
  5
59
102
{ACAD_REACTORS
330
C
102
}
330
C
100
AcDbDictionary
281
     1
  3
Standard
350
5A
  0
DICTIONARY
  5
2A
102
{ACAD_REACTORS
330
C
102
}
330
C
100
AcDbDictionary
281
     1
  3
2dWireframe
350
2F
  3
Basic
350
32
  3
Brighten
350
36
  3
ColorChange
350
3A
  3
Conceptual
350
34
  3
Dim
350
35
  3
EdgeColorOff
350
3D
  3
Facepattern
350
39
  3
Flat
350
2B
  3
FlatWithEdges
350
2C
  3
Gouraud
350
2D
  3
GouraudWithEdges
350
2E
  3
Hidden
350
31
  3
JitterOff
350
3B
  3
Linepattern
350
38
  3
OverhangOff
350
3C
  3
Realistic
350
33
  3
Shaded
350
42
  3
Shaded with edges
350
41
  3
Shades of Gray
350
3E
  3
Sketchy
350
3F
  3
Thicken
350
37
  3
Wireframe
350
30
  3
X-Ray
350
40
  0
XRECORD
  5
89
102
{ACAD_REACTORS
330
C
102
}
330
C
100
AcDbXrecord
280
     1
 90
        1
330
5A
  0
DICTIONARY
  5
85
102
{ACAD_REACTORS
330
C
102
}
330
C
100
AcDbDictionary
281
     1
  3
CANNOSCALE
350
86
  3
CMLEADERSTYLE
350
8B
  3
CTABLESTYLE
350
8A
  0
LAYOUT
  5
1E
102
{ACAD_REACTORS
330
1A
102
}
330
1A
100
AcDbPlotSettings
  1

  2
none_device
  4

  6

 40
0.0
 41
0.0
 42
0.0
 43
0.0
 44
0.0
 45
0.0
 46
0.0
 47
0.0
 48
0.0
 49
0.0
140
0.0
141
0.0
142
1.0
143
1.0
 70
   688
 72
     0
 73
     0
 74
     5
  7

 75
    16
 76
     0
 77
     2
 78
   300
147
1.0
148
0.0
149
0.0
100
AcDbLayout
  1
Layout1
 70
     1
 71
     1
 10
0.0
 20
0.0
 11
12.0
 21
9.0
 12
0.0
 22
0.0
 32
0.0
 14
1.000000000000000E+20
 24
1.000000000000000E+20
 34
1.000000000000000E+20
 15
-1.000000000000000E+20
 25
-1.000000000000000E+20
 35
-1.000000000000000E+20
146
0.0
 13
0.0
 23
0.0
 33
0.0
 16
1.0
 26
0.0
 36
0.0
 17
0.0
 27
1.0
 37
0.0
 76
     0
330
1B
  0
LAYOUT
  5
26
102
{ACAD_REACTORS
330
1A
102
}
330
1A
100
AcDbPlotSettings
  1

  2
none_device
  4

  6

 40
0.0
 41
0.0
 42
0.0
 43
0.0
 44
0.0
 45
0.0
 46
0.0
 47
0.0
 48
0.0
 49
0.0
140
0.0
141
0.0
142
1.0
143
1.0
 70
   688
 72
     0
 73
     0
 74
     5
  7

 75
    16
 76
     0
 77
     2
 78
   300
147
1.0
148
0.0
149
0.0
100
AcDbLayout
  1
Layout2
 70
     1
 71
     2
 10
0.0
 20
0.0
 11
0.0
 21
0.0
 12
0.0
 22
0.0
 32
0.0
 14
0.0
 24
0.0
 34
0.0
 15
0.0
 25
0.0
 35
0.0
146
0.0
 13
0.0
 23
0.0
 33
0.0
 16
1.0
 26
0.0
 36
0.0
 17
0.0
 27
1.0
 37
0.0
 76
     0
330
23
  0
LAYOUT
  5
22
102
{ACAD_REACTORS
330
1A
102
}
330
1A
100
AcDbPlotSettings
  1

  2
none_device
  4
Letter_(8.50_x_11.00_Inches)
  6

 40
6.35
 41
6.35
 42
6.35000508
 43
6.35000508
 44
215.9
 45
279.4
 46
0.0
 47
0.0
 48
0.0
 49
0.0
140
0.0
141
0.0
142
1.0
143
1.0
 70
  1712
 72
     0
 73
     0
 74
     0
  7

 75
     0
 76
     0
 77
     2
 78
   300
147
1.0
148
0.0
149
0.0
100
AcDbLayout
  1
Model
 70
     1
 71
     0
 10
0.0
 20
0.0
 11
12.0
 21
9.0
 12
0.0
 22
0.0
 32
0.0
 14
3.881523622047244
 24
7.351767716535433
 34
0.0
 15
7.348862204724409
 25
9.402527559055118
 35
0.0
146
0.0
 13
0.0
 23
0.0
 33
0.0
 16
1.0
 26
0.0
 36
0.0
 17
0.0
 27
1.0
 37
0.0
 76
     0
330
1F
331
29
  0
MATERIAL
  5
45
102
{ACAD_REACTORS
330
43
102
}
330
43
100
AcDbMaterial
  1
ByBlock
 72
     1
 94
      127
  0
MATERIAL
  5
44
102
{ACAD_REACTORS
330
43
102
}
330
43
100
AcDbMaterial
  1
ByLayer
 72
     1
 94
      127
  0
MATERIAL
  5
46
102
{ACAD_REACTORS
330
43
102
}
330
43
100
AcDbMaterial
  1
Global
 72
     1
 94
      127
  0
MLEADERSTYLE
  5
5C
102
{ACAD_REACTORS
330
5B
102
}
330
5B
100
AcDbMLeaderStyle
179
     2
170
     2
171
     1
172
     0
 90
        2
 40
0.0
 41
0.0
173
     1
 91
-1056964608
340
14
 92
       -2
290
     1
 42
0.09
291
     1
 43
0.36
  3
Standard
341
0
 44
0.18
300

342
11
174
     1
178
     6
175
     1
176
     0
 93
-1056964608
 45
0.18
292
     0
297
     0
 46
0.18
343
0
 94
-1056964608
 47
1.0
 49
1.0
140
1.0
293
     1
141
0.0
294
     1
177
     0
142
1.0
295
     0
296
     0
143
0.125
271
     0
272
     9
273
     9
298
     0
  0
MLINESTYLE
  5
18
102
{ACAD_REACTORS
330
17
102
}
330
17
100
AcDbMlineStyle
  2
Standard
 70
     0
  3

 62
   256
 51
90.0
 52
90.0
 71
     2
 49
0.5
 62
   256
  6
BYLAYER
 49
-0.5
 62
   256
  6
BYLAYER
  0
ACDBPLACEHOLDER
  5
F
102
{ACAD_REACTORS
330
E
102
}
330
E
  0
SCALE
  5
48
102
{ACAD_REACTORS
330
47
102
}
330
47
100
AcDbScale
 70
     0
300
1:1
140
1.0
141
1.0
290
     1
  0
SCALE
  5
49
102
{ACAD_REACTORS
330
47
102
}
330
47
100
AcDbScale
 70
     0
300
1/128" = 1'-0"
140
0.0078125
141
12.0
290
     0
  0
SCALE
  5
4A
102
{ACAD_REACTORS
330
47
102
}
330
47
100
AcDbScale
 70
     0
300
1/64" = 1'-0"
140
0.015625
141
12.0
290
     0
  0
SCALE
  5
4B
102
{ACAD_REACTORS
330
47
102
}
330
47
100
AcDbScale
 70
     0
300
1/32" = 1'-0"
140
0.03125
141
12.0
290
     0
  0
SCALE
  5
4C
102
{ACAD_REACTORS
330
47
102
}
330
47
100
AcDbScale
 70
     0
300
1/16" = 1'-0"
140
0.0625
141
12.0
290
     0
  0
SCALE
  5
4D
102
{ACAD_REACTORS
330
47
102
}
330
47
100
AcDbScale
 70
     0
300
3/32" = 1'-0"
140
0.09375
141
12.0
290
     0
  0
SCALE
  5
4E
102
{ACAD_REACTORS
330
47
102
}
330
47
100
AcDbScale
 70
     0
300
1/8" = 1'-0"
140
0.125
141
12.0
290
     0
  0
SCALE
  5
4F
102
{ACAD_REACTORS
330
47
102
}
330
47
100
AcDbScale
 70
     0
300
3/16" = 1'-0"
140
0.1875
141
12.0
290
     0
  0
SCALE
  5
50
102
{ACAD_REACTORS
330
47
102
}
330
47
100
AcDbScale
 70
     0
300
1/4" = 1'-0"
140
0.25
141
12.0
290
     0
  0
SCALE
  5
51
102
{ACAD_REACTORS
330
47
102
}
330
47
100
AcDbScale
 70
     0
300
3/8" = 1'-0"
140
0.375
141
12.0
290
     0
  0
SCALE
  5
52
102
{ACAD_REACTORS
330
47
102
}
330
47
100
AcDbScale
 70
     0
300
1/2" = 1'-0"
140
0.5
141
12.0
290
     0
  0
SCALE
  5
53
102
{ACAD_REACTORS
330
47
102
}
330
47
100
AcDbScale
 70
     0
300
3/4" = 1'-0"
140
0.75
141
12.0
290
     0
  0
SCALE
  5
54
102
{ACAD_REACTORS
330
47
102
}
330
47
100
AcDbScale
 70
     0
300
1" = 1'-0"
140
1.0
141
12.0
290
     0
  0
SCALE
  5
55
102
{ACAD_REACTORS
330
47
102
}
330
47
100
AcDbScale
 70
     0
300
1-1/2" = 1'-0"
140
1.5
141
12.0
290
     0
  0
SCALE
  5
56
102
{ACAD_REACTORS
330
47
102
}
330
47
100
AcDbScale
 70
     0
300
3" = 1'-0"
140
3.0
141
12.0
290
     0
  0
SCALE
  5
57
102
{ACAD_REACTORS
330
47
102
}
330
47
100
AcDbScale
 70
     0
300
6" = 1'-0"
140
6.0
141
12.0
290
     0
  0
SCALE
  5
58
102
{ACAD_REACTORS
330
47
102
}
330
47
100
AcDbScale
 70
     0
300
1'-0" = 1'-0"
140
12.0
141
12.0
290
     0
  0
TABLESTYLE
  5
5A
102
{ACAD_REACTORS
330
59
102
}
102
{ACAD_XDICTIONARY
360
87
102
}
330
59
100
AcDbTableStyle
  3
Standard
 70
     0
 71
     0
 40
0.06
 41
0.06
280
     0
281
     0
  7
Standard
140
0.18
170
     2
 62
     0
 63
   257
283
     0
 90
        4
 91
        0
  1

274
    -2
284
     1
 64
     0
275
    -2
285
     1
 65
     0
276
    -2
286
     1
 66
     0
277
    -2
287
     1
 67
     0
278
    -2
288
     1
 68
     0
279
    -2
289
     1
 69
     0
  7
Standard
140
0.25
170
     5
 62
     0
 63
   257
283
     0
 90
        4
 91
        0
  1

274
    -2
284
     1
 64
     0
275
    -2
285
     1
 65
     0
276
    -2
286
     1
 66
     0
277
    -2
287
     1
 67
     0
278
    -2
288
     1
 68
     0
279
    -2
289
     1
 69
     0
  7
Standard
140
0.18
170
     5
 62
     0
 63
   257
283
     0
 90
        4
 91
        0
  1

274
    -2
284
     1
 64
     0
275
    -2
285
     1
 65
     0
276
    -2
286
     1
 66
     0
277
    -2
287
     1
 67
     0
278
    -2
288
     1
 68
     0
279
    -2
289
     1
 69
     0
  0
VISUALSTYLE
  5
2F
102
{ACAD_REACTORS
330
2A
102
}
330
2A
100
AcDbVisualStyle
  2
2dWireframe
 70
     4
177
     3
291
     0
 70
    58
 90
        0
176
     1
 90
        2
176
     1
 90
        0
176
     1
 90
        0
176
     1
 40
0.6
176
     1
 40
30.0
176
     1
 62
     7
420
 16777215
176
     1
 90
        1
176
     1
 90
        4
176
     1
 62
     7
176
     1
 62
   257
176
     1
 90
        1
176
     1
 90
        1
176
     1
 40
1.0
176
     1
 90
        0
176
     1
 62
   257
176
     1
 40
1.0
176
     1
 90
        1
176
     1
 90
        6
176
     1
 90
        2
176
     1
 62
     7
176
     1
 90
        5
176
     1
 90
        0
176
     1
 90
        0
176
     1
290
     0
176
     1
 90
        1
176
     1
 40
0.0
176
     1
 90
        0
176
     1
290
     1
176
     1
290
     1
176
     1
290
     0
176
     1
290
     0
176
     1
290
     0
176
     1
290
     0
176
     1
290
     0
176
     1
290
     0
176
     1
290
     0
176
     1
 90
       50
176
     1
 40
0.0
176
     1
 40
1.0
176
     1
 90
        0
176
     1
 62
    18
420
        0
176
     1
 90
       50
176
     1
 90
        3
176
     1
 62
     5
420
      255
176
     1
290
     0
176
     1
 90
       50
176
     1
 90
       50
176
     1
 90
       50
176
     1
290
     0
176
     1
 90
       50
176
     1
 62
   256
176
     0
 40
1.0
176
     0
 90
        2
176
     1
  1
strokes_ogs.tif
176
     1
290
     0
176
     1
 40
1.0
176
     1
 40
1.0
176
     1
  0
VISUALSTYLE
  5
32
102
{ACAD_REACTORS
330
2A
102
}
330
2A
100
AcDbVisualStyle
  2
Basic
 70
     7
177
     3
291
     1
 70
    58
 90
        1
176
     1
 90
        0
176
     1
 90
        1
176
     1
 90
        0
176
     1
 40
0.6
176
     1
 40
30.0
176
     1
 62
     7
420
 16777215
176
     1
 90
        0
176
     1
 90
        4
176
     1
 62
     7
176
     1
 62
   257
176
     1
 90
        1
176
     1
 90
        1
176
     1
 40
1.0
176
     1
 90
        8
176
     1
 62
     7
176
     1
 40
1.0
176
     1
 90
        1
176
     1
 90
        6
176
     1
 90
        2
176
     1
 62
     7
176
     1
 90
        5
176
     1
 90
        0
176
     1
 90
        0
176
     1
290
     0
176
     1
 90
        1
176
     1
 40
0.0
176
     1
 90
        0
176
     1
290
     0
176
     1
290
     1
176
     1
290
     1
176
     1
290
     0
176
     1
290
     0
176
     1
290
     0
176
     1
290
     0
176
     1
290
     0
176
     1
290
     0
176
     1
 90
       50
176
     1
 40
0.0
176
     1
 40
1.0
176
     1
 90
        0
176
     1
 62
    18
420
        0
176
     1
 90
       50
176
     1
 90
        3
176
     1
 62
     5
420
      255
176
     1
290
     0
176
     1
 90
       50
176
     1
 90
       50
176
     1
 90
       50
176
     1
290
     0
176
     1
 90
       50
176
     1
 62
   256
176
     0
 40
1.0
176
     0
 90
        2
176
     1
  1
strokes_ogs.tif
176
     1
290
     0
176
     1
 40
1.0
176
     1
 40
1.0
176
     1
  0
VISUALSTYLE
  5
36
102
{ACAD_REACTORS
330
2A
102
}
330
2A
100
AcDbVisualStyle
  2
Brighten
 70
    12
177
     3
291
     1
 70
    58
 90
        2
176
     1
 90
        2
176
     1
 90
        0
176
     1
 90
        0
176
     1
 40
0.6
176
     1
 40
30.0
176
     1
 62
     7
420
 16777215
176
     1
 90
        1
176
     1
 90
        4
176
     1
 62
     7
176
     1
 62
   257
176
     1
 90
        1
176
     1
 90
        1
176
     1
 40
1.0
176
     1
 90
        8
176
     1
 62
     7
176
     1
 40
1.0
176
     1
 90
        1
176
     1
 90
        6
176
     1
 90
        2
176
     1
 62
     7
176
     1
 90
        5
176
     1
 90
        0
176
     1
 90
        0
176
     1
290
     0
176
     1
 90
        1
176
     1
 40
50.0
176
     1
 90
        0
176
     1
290
     0
176
     1
290
     1
176
     1
290
     1
176
     1
290
     0
176
     1
290
     0
176
     1
290
     0
176
     1
290
     0
176
     1
290
     0
176
     1
290
     0
176
     1
 90
       50
176
     1
 40
0.0
176
     1
 40
1.0
176
     1
 90
        0
176
     1
 62
    18
420
        0
176
     1
 90
       50
176
     1
 90
        3
176
     1
 62
     5
420
      255
176
     1
290
     0
176
     1
 90
       50
176
     1
 90
       50
176
     1
 90
       50
176
     1
290
     0
176
     1
 90
       50
176
     1
 62
   256
176
     0
 40
1.0
176
     0
 90
        2
176
     1
  1
strokes_ogs.tif
176
     1
290
     0
176
     1
 40
1.0
176
     1
 40
1.0
176
     1
  0
VISUALSTYLE
  5
3A
102
{ACAD_REACTORS
330
2A
102
}
330
2A
100
AcDbVisualStyle
  2
ColorChange
 70
    16
177
     3
291
     1
 70
    58
 90
        2
176
     1
 90
        2
176
     1
 90
        3
176
     1
 90
        0
176
     1
 40
0.6
176
     1
 40
30.0
176
     1
 62
     8
420
  8421504
176
     1
 90
        1
176
     1
 90
        4
176
     1
 62
     7
176
     1
 62
   257
176
     1
 90
        1
176
     1
 90
        1
176
     1
 40
1.0
176
     1
 90
        8
176
     1
 62
     8
420
  8421504
176
     1
 40
1.0
176
     1
 90
        1
176
     1
 90
        6
176
     1
 90
        2
176
     1
 62
     7
176
     1
 90
        5
176
     1
 90
        0
176
     1
 90
        0
176
     1
290
     0
176
     1
 90
        1
176
     1
 40
0.0
176
     1
 90
        0
176
     1
290
     0
176
     1
290
     1
176
     1
290
     1
176
     1
290
     0
176
     1
290
     0
176
     1
290
     0
176
     1
290
     0
176
     1
290
     0
176
     1
290
     0
176
     1
 90
       50
176
     1
 40
0.0
176
     1
 40
1.0
176
     1
 90
        0
176
     1
 62
    18
420
        0
176
     1
 90
       50
176
     1
 90
        3
176
     1
 62
     5
420
      255
176
     1
290
     0
176
     1
 90
       50
176
     1
 90
       50
176
     1
 90
       50
176
     1
290
     0
176
     1
 90
       50
176
     1
 62
   256
176
     0
 40
1.0
176
     0
 90
        2
176
     1
  1
strokes_ogs.tif
176
     1
290
     0
176
     1
 40
1.0
176
     1
 40
1.0
176
     1
  0
VISUALSTYLE
  5
34
102
{ACAD_REACTORS
330
2A
102
}
330
2A
100
AcDbVisualStyle
  2
Conceptual
 70
     9
177
     3
291
     0
 70
    58
 90
        3
176
     1
 90
        2
176
     1
 90
        0
176
     1
 90
        0
176
     1
 40
0.6
176
     1
 40
30.0
176
     1
 62
     7
420
 16777215
176
     1
 90
        2
176
     1
 90
        2
176
     1
 62
     7
176
     1
 62
   257
176
     1
 90
        1
176
     1
 90
        1
176
     1
 40
179.0
176
     1
 90
        8
176
     1
 62
     7
176
     1
 40
1.0
176
     1
 90
        1
176
     1
 90
        6
176
     1
 90
        2
176
     1
 62
     7
176
     1
 90
        3
176
     1
 90
        0
176
     1
 90
        0
176
     1
290
     0
176
     1
 90
        1
176
     1
 40
0.0
176
     1
 90
        0
176
     1
290
     0
176
     1
290
     1
176
     1
290
     1
176
     1
290
     0
176
     1
290
     0
176
     1
290
     0
176
     1
290
     0
176
     1
290
     0
176
     1
290
     0
176
     1
 90
       50
176
     1
 40
0.0
176
     1
 40
1.0
176
     1
 90
        0
176
     1
 62
    18
420
        0
176
     1
 90
       50
176
     1
 90
        3
176
     1
 62
     5
420
      255
176
     1
290
     0
176
     1
 90
       50
176
     1
 90
       50
176
     1
 90
       50
176
     1
290
     0
176
     1
 90
       50
176
     1
 62
   256
176
     0
 40
1.0
176
     0
 90
        2
176
     1
  1
strokes_ogs.tif
176
     1
290
     0
176
     1
 40
1.0
176
     1
 40
1.0
176
     1
  0
VISUALSTYLE
  5
35
102
{ACAD_REACTORS
330
2A
102
}
330
2A
100
AcDbVisualStyle
  2
Dim
 70
    11
177
     3
291
     1
 70
    58
 90
        2
176
     1
 90
        2
176
     1
 90
        0
176
     1
 90
        0
176
     1
 40
0.6
176
     1
 40
30.0
176
     1
 62
     7
420
 16777215
176
     1
 90
        1
176
     1
 90
        4
176
     1
 62
     7
176
     1
 62
   257
176
     1
 90
        1
176
     1
 90
        1
176
     1
 40
1.0
176
     1
 90
        8
176
     1
 62
     7
176
     1
 40
1.0
176
     1
 90
        1
176
     1
 90
        6
176
     1
 90
        2
176
     1
 62
     7
176
     1
 90
        5
176
     1
 90
        0
176
     1
 90
        0
176
     1
290
     0
176
     1
 90
        1
176
     1
 40
-50.0
176
     1
 90
        0
176
     1
290
     0
176
     1
290
     1
176
     1
290
     1
176
     1
290
     0
176
     1
290
     0
176
     1
290
     0
176
     1
290
     0
176
     1
290
     0
176
     1
290
     0
176
     1
 90
       50
176
     1
 40
0.0
176
     1
 40
1.0
176
     1
 90
        0
176
     1
 62
    18
420
        0
176
     1
 90
       50
176
     1
 90
        3
176
     1
 62
     5
420
      255
176
     1
290
     0
176
     1
 90
       50
176
     1
 90
       50
176
     1
 90
       50
176
     1
290
     0
176
     1
 90
       50
176
     1
 62
   256
176
     0
 40
1.0
176
     0
 90
        2
176
     1
  1
strokes_ogs.tif
176
     1
290
     0
176
     1
 40
1.0
176
     1
 40
1.0
176
     1
  0
VISUALSTYLE
  5
3D
102
{ACAD_REACTORS
330
2A
102
}
330
2A
100
AcDbVisualStyle
  2
EdgeColorOff
 70
    22
177
     3
291
     1
 70
    58
 90
        2
176
     0
 90
        2
176
     0
 90
        0
176
     0
 90
        0
176
     0
 40
0.6
176
     0
 40
30.0
176
     0
 62
     7
420
 16777215
176
     0
 90
        1
176
     0
 90
        4
176
     0
 62
     7
176
     0
 62
   257
176
     0
 90
        1
176
     0
 90
        1
176
     0
 40
1.0
176
     0
 90
        8
176
     2
 62
     7
176
     0
 40
1.0
176
     0
 90
        1
176
     0
 90
        6
176
     0
 90
        2
176
     0
 62
     7
176
     0
 90
        5
176
     0
 90
        0
176
     0
 90
        0
176
     0
290
     0
176
     0
 90
        1
176
     0
 40
0.0
176
     0
 90
        0
176
     0
290
     0
176
     0
290
     1
176
     0
290
     1
176
     0
290
     0
176
     0
290
     0
176
     0
290
     0
176
     0
290
     0
176
     0
290
     0
176
     0
290
     0
176
     0
 90
       50
176
     0
 40
0.0
176
     0
 40
1.0
176
     0
 90
        0
176
     0
 62
    18
420
        0
176
     0
 90
       50
176
     0
 90
        3
176
     0
 62
     5
420
      255
176
     0
290
     0
176
     0
 90
       50
176
     0
 90
       50
176
     0
 90
       50
176
     0
290
     0
176
     0
 90
       50
176
     0
 62
   256
176
     0
 40
1.0
176
     0
 90
        2
176
     0
  1
strokes_ogs.tif
176
     0
290
     0
176
     0
 40
1.0
176
     0
 40
1.0
176
     0
  0
VISUALSTYLE
  5
39
102
{ACAD_REACTORS
330
2A
102
}
330
2A
100
AcDbVisualStyle
  2
Facepattern
 70
    15
177
     3
291
     1
 70
    58
 90
        2
176
     1
 90
        2
176
     1
 90
        0
176
     1
 90
        0
176
     1
 40
0.6
176
     1
 40
30.0
176
     1
 62
     7
420
 16777215
176
     1
 90
        1
176
     1
 90
        4
176
     1
 62
     7
176
     1
 62
   257
176
     1
 90
        1
176
     1
 90
        1
176
     1
 40
1.0
176
     1
 90
        8
176
     1
 62
     7
176
     1
 40
1.0
176
     1
 90
        1
176
     1
 90
        6
176
     1
 90
        2
176
     1
 62
     7
176
     1
 90
        5
176
     1
 90
        0
176
     1
 90
        0
176
     1
290
     0
176
     1
 90
        1
176
     1
 40
0.0
176
     1
 90
        0
176
     1
290
     0
176
     1
290
     1
176
     1
290
     1
176
     1
290
     0
176
     1
290
     0
176
     1
290
     0
176
     1
290
     0
176
     1
290
     0
176
     1
290
     0
176
     1
 90
       50
176
     1
 40
0.0
176
     1
 40
1.0
176
     1
 90
        0
176
     1
 62
    18
420
        0
176
     1
 90
       50
176
     1
 90
        3
176
     1
 62
     5
420
      255
176
     1
290
     0
176
     1
 90
       50
176
     1
 90
       50
176
     1
 90
       50
176
     1
290
     0
176
     1
 90
       50
176
     1
 62
   256
176
     0
 40
1.0
176
     0
 90
        2
176
     1
  1
strokes_ogs.tif
176
     1
290
     0
176
     1
 40
1.0
176
     1
 40
1.0
176
     1
  0
VISUALSTYLE
  5
2B
102
{ACAD_REACTORS
330
2A
102
}
330
2A
100
AcDbVisualStyle
  2
Flat
 70
     0
177
     3
291
     1
 70
    58
 90
        2
176
     1
 90
        1
176
     1
 90
        1
176
     1
 90
        2
176
     1
 40
0.6
176
     1
 40
30.0
176
     1
 62
     7
420
 16777215
176
     1
 90
        0
176
     1
 90
        0
176
     1
 62
     7
176
     1
 62
   257
176
     1
 90
        1
176
     1
 90
        1
176
     1
 40
1.0
176
     1
 90
        8
176
     1
 62
     7
176
     1
 40
1.0
176
     1
 90
        1
176
     1
 90
        6
176
     1
 90
        2
176
     1
 62
     7
176
     1
 90
        5
176
     1
 90
        0
176
     1
 90
        0
176
     1
290
     0
176
     1
 90
       13
176
     1
 40
0.0
176
     1
 90
        0
176
     1
290
     0
176
     1
290
     1
176
     1
290
     1
176
     1
290
     0
176
     1
290
     0
176
     1
290
     0
176
     1
290
     0
176
     1
290
     0
176
     1
290
     0
176
     1
 90
       50
176
     1
 40
0.0
176
     1
 40
1.0
176
     1
 90
        0
176
     1
 62
    18
420
        0
176
     1
 90
       50
176
     1
 90
        3
176
     1
 62
     5
420
      255
176
     1
290
     0
176
     1
 90
       50
176
     1
 90
       50
176
     1
 90
       50
176
     1
290
     0
176
     1
 90
       50
176
     1
 62
   256
176
     0
 40
1.0
176
     0
 90
        2
176
     1
  1
strokes_ogs.tif
176
     1
290
     0
176
     1
 40
1.0
176
     1
 40
1.0
176
     1
  0
VISUALSTYLE
  5
2C
102
{ACAD_REACTORS
330
2A
102
}
330
2A
100
AcDbVisualStyle
  2
FlatWithEdges
 70
     1
177
     3
291
     1
 70
    58
 90
        2
176
     1
 90
        1
176
     1
 90
        1
176
     1
 90
        2
176
     1
 40
0.6
176
     1
 40
30.0
176
     1
 62
     7
420
 16777215
176
     1
 90
        1
176
     1
 90
        0
176
     1
 62
     7
176
     1
 62
   257
176
     1
 90
        1
176
     1
 90
        1
176
     1
 40
1.0
176
     1
 90
        0
176
     1
 62
   257
176
     1
 40
1.0
176
     1
 90
        1
176
     1
 90
        6
176
     1
 90
        2
176
     1
 62
     7
176
     1
 90
        5
176
     1
 90
        0
176
     1
 90
        0
176
     1
290
     0
176
     1
 90
       13
176
     1
 40
0.0
176
     1
 90
        0
176
     1
290
     0
176
     1
290
     1
176
     1
290
     1
176
     1
290
     0
176
     1
290
     0
176
     1
290
     0
176
     1
290
     0
176
     1
290
     0
176
     1
290
     0
176
     1
 90
       50
176
     1
 40
0.0
176
     1
 40
1.0
176
     1
 90
        0
176
     1
 62
    18
420
        0
176
     1
 90
       50
176
     1
 90
        3
176
     1
 62
     5
420
      255
176
     1
290
     0
176
     1
 90
       50
176
     1
 90
       50
176
     1
 90
       50
176
     1
290
     0
176
     1
 90
       50
176
     1
 62
   256
176
     0
 40
1.0
176
     0
 90
        2
176
     1
  1
strokes_ogs.tif
176
     1
290
     0
176
     1
 40
1.0
176
     1
 40
1.0
176
     1
  0
VISUALSTYLE
  5
2D
102
{ACAD_REACTORS
330
2A
102
}
330
2A
100
AcDbVisualStyle
  2
Gouraud
 70
     2
177
     3
291
     1
 70
    58
 90
        2
176
     1
 90
        2
176
     1
 90
        1
176
     1
 90
        2
176
     1
 40
0.6
176
     1
 40
30.0
176
     1
 62
     7
420
 16777215
176
     1
 90
        0
176
     1
 90
        0
176
     1
 62
     7
176
     1
 62
   257
176
     1
 90
        1
176
     1
 90
        1
176
     1
 40
1.0
176
     1
 90
        0
176
     1
 62
     7
176
     1
 40
1.0
176
     1
 90
        1
176
     1
 90
        6
176
     1
 90
        2
176
     1
 62
     7
176
     1
 90
        5
176
     1
 90
        0
176
     1
 90
        0
176
     1
290
     0
176
     1
 90
       13
176
     1
 40
0.0
176
     1
 90
        0
176
     1
290
     0
176
     1
290
     1
176
     1
290
     1
176
     1
290
     0
176
     1
290
     0
176
     1
290
     0
176
     1
290
     0
176
     1
290
     0
176
     1
290
     0
176
     1
 90
       50
176
     1
 40
0.0
176
     1
 40
1.0
176
     1
 90
        0
176
     1
 62
    18
420
        0
176
     1
 90
       50
176
     1
 90
        3
176
     1
 62
     5
420
      255
176
     1
290
     0
176
     1
 90
       50
176
     1
 90
       50
176
     1
 90
       50
176
     1
290
     0
176
     1
 90
       50
176
     1
 62
   256
176
     0
 40
1.0
176
     0
 90
        2
176
     1
  1
strokes_ogs.tif
176
     1
290
     0
176
     1
 40
1.0
176
     1
 40
1.0
176
     1
  0
VISUALSTYLE
  5
2E
102
{ACAD_REACTORS
330
2A
102
}
330
2A
100
AcDbVisualStyle
  2
GouraudWithEdges
 70
     3
177
     3
291
     1
 70
    58
 90
        2
176
     1
 90
        2
176
     1
 90
        1
176
     1
 90
        2
176
     1
 40
0.6
176
     1
 40
30.0
176
     1
 62
     7
420
 16777215
176
     1
 90
        1
176
     1
 90
        0
176
     1
 62
     7
176
     1
 62
   257
176
     1
 90
        1
176
     1
 90
        1
176
     1
 40
1.0
176
     1
 90
        0
176
     1
 62
   257
176
     1
 40
1.0
176
     1
 90
        1
176
     1
 90
        6
176
     1
 90
        2
176
     1
 62
     7
176
     1
 90
        5
176
     1
 90
        0
176
     1
 90
        0
176
     1
290
     0
176
     1
 90
       13
176
     1
 40
0.0
176
     1
 90
        0
176
     1
290
     0
176
     1
290
     1
176
     1
290
     1
176
     1
290
     0
176
     1
290
     0
176
     1
290
     0
176
     1
290
     0
176
     1
290
     0
176
     1
290
     0
176
     1
 90
       50
176
     1
 40
0.0
176
     1
 40
1.0
176
     1
 90
        0
176
     1
 62
    18
420
        0
176
     1
 90
       50
176
     1
 90
        3
176
     1
 62
     5
420
      255
176
     1
290
     0
176
     1
 90
       50
176
     1
 90
       50
176
     1
 90
       50
176
     1
290
     0
176
     1
 90
       50
176
     1
 62
   256
176
     0
 40
1.0
176
     0
 90
        2
176
     1
  1
strokes_ogs.tif
176
     1
290
     0
176
     1
 40
1.0
176
     1
 40
1.0
176
     1
  0
VISUALSTYLE
  5
31
102
{ACAD_REACTORS
330
2A
102
}
330
2A
100
AcDbVisualStyle
  2
Hidden
 70
     6
177
     3
291
     0
 70
    58
 90
        1
176
     1
 90
        2
176
     1
 90
        2
176
     1
 90
        0
176
     1
 40
0.6
176
     1
 40
30.0
176
     1
 62
     7
420
 16777215
176
     1
 90
        2
176
     1
 90
        2
176
     1
 62
     7
176
     1
 62
   257
176
     1
 90
        2
176
     1
 90
        1
176
     1
 40
40.0
176
     1
 90
        0
176
     1
 62
   257
176
     1
 40
1.0
176
     1
 90
        1
176
     1
 90
        6
176
     1
 90
        2
176
     1
 62
     7
176
     1
 90
        3
176
     1
 90
        0
176
     1
 90
        0
176
     1
290
     0
176
     1
 90
        1
176
     1
 40
0.0
176
     1
 90
        0
176
     1
290
     0
176
     1
290
     1
176
     1
290
     1
176
     1
290
     0
176
     1
290
     0
176
     1
290
     0
176
     1
290
     0
176
     1
290
     0
176
     1
290
     0
176
     1
 90
       50
176
     1
 40
0.0
176
     1
 40
1.0
176
     1
 90
        0
176
     1
 62
    18
420
        0
176
     1
 90
       50
176
     1
 90
        3
176
     1
 62
     5
420
      255
176
     1
290
     0
176
     1
 90
       50
176
     1
 90
       50
176
     1
 90
       50
176
     1
290
     0
176
     1
 90
       50
176
     1
 62
   256
176
     0
 40
1.0
176
     0
 90
        2
176
     1
  1
strokes_ogs.tif
176
     1
290
     0
176
     1
 40
1.0
176
     1
 40
1.0
176
     1
  0
VISUALSTYLE
  5
3B
102
{ACAD_REACTORS
330
2A
102
}
330
2A
100
AcDbVisualStyle
  2
JitterOff
 70
    20
177
     3
291
     1
 70
    58
 90
        2
176
     0
 90
        2
176
     0
 90
        0
176
     0
 90
        0
176
     0
 40
0.6
176
     0
 40
30.0
176
     0
 62
     7
420
 16777215
176
     0
 90
        1
176
     0
 90
        4
176
     0
 62
     7
176
     0
 62
   257
176
     0
 90
        1
176
     0
 90
        1
176
     0
 40
1.0
176
     0
 90
       10
176
     2
 62
     7
176
     0
 40
1.0
176
     0
 90
        1
176
     0
 90
        6
176
     0
 90
        2
176
     0
 62
     7
176
     0
 90
        5
176
     0
 90
        0
176
     0
 90
        0
176
     0
290
     0
176
     0
 90
        1
176
     0
 40
0.0
176
     0
 90
        0
176
     0
290
     0
176
     0
290
     1
176
     0
290
     1
176
     0
290
     0
176
     0
290
     0
176
     0
290
     0
176
     0
290
     0
176
     0
290
     0
176
     0
290
     0
176
     0
 90
       50
176
     0
 40
0.0
176
     0
 40
1.0
176
     0
 90
        0
176
     0
 62
    18
420
        0
176
     0
 90
       50
176
     0
 90
        3
176
     0
 62
     5
420
      255
176
     0
290
     0
176
     0
 90
       50
176
     0
 90
       50
176
     0
 90
       50
176
     0
290
     0
176
     0
 90
       50
176
     0
 62
   256
176
     0
 40
1.0
176
     0
 90
        2
176
     0
  1
strokes_ogs.tif
176
     0
290
     0
176
     0
 40
1.0
176
     0
 40
1.0
176
     0
  0
VISUALSTYLE
  5
38
102
{ACAD_REACTORS
330
2A
102
}
330
2A
100
AcDbVisualStyle
  2
Linepattern
 70
    14
177
     3
291
     1
 70
    58
 90
        2
176
     1
 90
        2
176
     1
 90
        0
176
     1
 90
        0
176
     1
 40
0.6
176
     1
 40
30.0
176
     1
 62
     7
420
 16777215
176
     1
 90
        1
176
     1
 90
        4
176
     1
 62
     7
176
     1
 62
   257
176
     1
 90
        7
176
     1
 90
        7
176
     1
 40
1.0
176
     1
 90
        8
176
     1
 62
     7
176
     1
 40
1.0
176
     1
 90
        1
176
     1
 90
        6
176
     1
 90
        2
176
     1
 62
     7
176
     1
 90
        5
176
     1
 90
        0
176
     1
 90
        0
176
     1
290
     0
176
     1
 90
        1
176
     1
 40
0.0
176
     1
 90
        0
176
     1
290
     0
176
     1
290
     1
176
     1
290
     1
176
     1
290
     0
176
     1
290
     0
176
     1
290
     0
176
     1
290
     0
176
     1
290
     0
176
     1
290
     0
176
     1
 90
       50
176
     1
 40
0.0
176
     1
 40
1.0
176
     1
 90
        0
176
     1
 62
    18
420
        0
176
     1
 90
       50
176
     1
 90
        3
176
     1
 62
     5
420
      255
176
     1
290
     0
176
     1
 90
       50
176
     1
 90
       50
176
     1
 90
       50
176
     1
290
     0
176
     1
 90
       50
176
     1
 62
   256
176
     0
 40
1.0
176
     0
 90
        2
176
     1
  1
strokes_ogs.tif
176
     1
290
     0
176
     1
 40
1.0
176
     1
 40
1.0
176
     1
  0
VISUALSTYLE
  5
3C
102
{ACAD_REACTORS
330
2A
102
}
330
2A
100
AcDbVisualStyle
  2
OverhangOff
 70
    21
177
     3
291
     1
 70
    58
 90
        2
176
     0
 90
        2
176
     0
 90
        0
176
     0
 90
        0
176
     0
 40
0.6
176
     0
 40
30.0
176
     0
 62
     7
420
 16777215
176
     0
 90
        1
176
     0
 90
        4
176
     0
 62
     7
176
     0
 62
   257
176
     0
 90
        1
176
     0
 90
        1
176
     0
 40
1.0
176
     0
 90
        9
176
     2
 62
     7
176
     0
 40
1.0
176
     0
 90
        1
176
     0
 90
        6
176
     0
 90
        2
176
     0
 62
     7
176
     0
 90
        5
176
     0
 90
        0
176
     0
 90
        0
176
     0
290
     0
176
     0
 90
        1
176
     0
 40
0.0
176
     0
 90
        0
176
     0
290
     0
176
     0
290
     1
176
     0
290
     1
176
     0
290
     0
176
     0
290
     0
176
     0
290
     0
176
     0
290
     0
176
     0
290
     0
176
     0
290
     0
176
     0
 90
       50
176
     0
 40
0.0
176
     0
 40
1.0
176
     0
 90
        0
176
     0
 62
    18
420
        0
176
     0
 90
       50
176
     0
 90
        3
176
     0
 62
     5
420
      255
176
     0
290
     0
176
     0
 90
       50
176
     0
 90
       50
176
     0
 90
       50
176
     0
290
     0
176
     0
 90
       50
176
     0
 62
   256
176
     0
 40
1.0
176
     0
 90
        2
176
     0
  1
strokes_ogs.tif
176
     0
290
     0
176
     0
 40
1.0
176
     0
 40
1.0
176
     0
  0
VISUALSTYLE
  5
33
102
{ACAD_REACTORS
330
2A
102
}
330
2A
100
AcDbVisualStyle
  2
Realistic
 70
     8
177
     3
291
     0
 70
    58
 90
        2
176
     1
 90
        3
176
     1
 90
        0
176
     1
 90
        2
176
     1
 40
0.6
176
     1
 40
30.0
176
     1
 62
     7
420
 16777215
176
     1
 90
        0
176
     1
 90
        0
176
     1
 62
     7
176
     1
 62
   257
176
     1
 90
        1
176
     1
 90
        1
176
     1
 40
1.0
176
     1
 90
        8
176
     1
 62
   257
176
     1
 40
1.0
176
     1
 90
        1
176
     1
 90
        6
176
     1
 90
        2
176
     1
 62
     7
176
     1
 90
        3
176
     1
 90
        0
176
     1
 90
        0
176
     1
290
     0
176
     1
 90
       13
176
     1
 40
0.0
176
     1
 90
        0
176
     1
290
     0
176
     1
290
     1
176
     1
290
     1
176
     1
290
     0
176
     1
290
     0
176
     1
290
     0
176
     1
290
     0
176
     1
290
     0
176
     1
290
     0
176
     1
 90
       50
176
     1
 40
0.0
176
     1
 40
1.0
176
     1
 90
        0
176
     1
 62
    18
420
        0
176
     1
 90
       50
176
     1
 90
        3
176
     1
 62
     5
420
      255
176
     1
290
     0
176
     1
 90
       50
176
     1
 90
       50
176
     1
 90
       50
176
     1
290
     0
176
     1
 90
       50
176
     1
 62
   256
176
     0
 40
1.0
176
     0
 90
        2
176
     1
  1
strokes_ogs.tif
176
     1
290
     0
176
     1
 40
1.0
176
     1
 40
1.0
176
     1
  0
VISUALSTYLE
  5
42
102
{ACAD_REACTORS
330
2A
102
}
330
2A
100
AcDbVisualStyle
  2
Shaded
 70
    27
177
     3
291
     0
 70
    58
 90
        2
176
     1
 90
        2
176
     1
 90
        1
176
     1
 90
        2
176
     1
 40
0.6
176
     1
 40
30.0
176
     1
 62
     7
420
 16777215
176
     1
 90
        0
176
     1
 90
        4
176
     1
 62
     7
176
     1
 62
   257
176
     1
 90
        1
176
     1
 90
        1
176
     1
 40
1.0
176
     1
 90
        8
176
     1
 62
   257
176
     1
 40
1.0
176
     1
 90
        1
176
     1
 90
        6
176
     1
 90
        2
176
     1
 62
     8
420
  7895160
176
     1
 90
        3
176
     1
 90
        0
176
     1
 90
        0
176
     1
290
     0
176
     1
 90
        5
176
     1
 40
0.0
176
     1
 90
        0
176
     1
290
     0
176
     1
290
     1
176
     1
290
     1
176
     1
290
     0
176
     1
290
     0
176
     1
290
     0
176
     1
290
     0
176
     1
290
     0
176
     1
290
     0
176
     1
 90
       50
176
     1
 40
0.0
176
     1
 40
1.0
176
     1
 90
        0
176
     1
 62
    18
420
        0
176
     1
 90
       50
176
     1
 90
        3
176
     1
 62
     5
420
      255
176
     1
290
     0
176
     1
 90
       50
176
     1
 90
       50
176
     1
 90
       50
176
     1
290
     0
176
     1
 90
       50
176
     1
 62
   256
176
     0
 40
1.0
176
     0
 90
        2
176
     1
  1
strokes_ogs.tif
176
     1
290
     0
176
     1
 40
1.0
176
     1
 40
1.0
176
     1
  0
VISUALSTYLE
  5
41
102
{ACAD_REACTORS
330
2A
102
}
330
2A
100
AcDbVisualStyle
  2
Shaded with edges
 70
    26
177
     3
291
     0
 70
    58
 90
        2
176
     1
 90
        2
176
     1
 90
        1
176
     1
 90
        2
176
     1
 40
0.6
176
     1
 40
30.0
176
     1
 62
     7
420
 16777215
176
     1
 90
        1
176
     1
 90
       10
176
     1
 62
     7
176
     1
 62
   257
176
     1
 90
        2
176
     1
 90
        1
176
     1
 40
1.0
176
     1
 90
        8
176
     1
 62
   257
176
     1
 40
1.0
176
     1
 90
        1
176
     1
 90
        6
176
     1
 90
        2
176
     1
 62
     7
176
     1
 90
        3
176
     1
 90
        0
176
     1
 90
        0
176
     1
290
     0
176
     1
 90
        5
176
     1
 40
0.0
176
     1
 90
        0
176
     1
290
     0
176
     1
290
     1
176
     1
290
     1
176
     1
290
     0
176
     1
290
     0
176
     1
290
     0
176
     1
290
     0
176
     1
290
     0
176
     1
290
     0
176
     1
 90
       50
176
     1
 40
0.0
176
     1
 40
1.0
176
     1
 90
        0
176
     1
 62
    18
420
        0
176
     1
 90
       50
176
     1
 90
        3
176
     1
 62
     5
420
      255
176
     1
290
     0
176
     1
 90
       50
176
     1
 90
       50
176
     1
 90
       50
176
     1
290
     0
176
     1
 90
       50
176
     1
 62
   256
176
     0
 40
1.0
176
     0
 90
        2
176
     1
  1
strokes_ogs.tif
176
     1
290
     0
176
     1
 40
1.0
176
     1
 40
1.0
176
     1
  0
VISUALSTYLE
  5
3E
102
{ACAD_REACTORS
330
2A
102
}
330
2A
100
AcDbVisualStyle
  2
Shades of Gray
 70
    23
177
     3
291
     0
 70
    58
 90
        2
176
     1
 90
        2
176
     1
 90
        3
176
     1
 90
        0
176
     1
 40
0.6
176
     1
 40
30.0
176
     1
 62
     7
420
 16777215
176
     1
 90
        2
176
     1
 90
        2
176
     1
 62
     7
176
     1
 62
     7
176
     1
 90
        1
176
     1
 90
        1
176
     1
 40
40.0
176
     1
 90
        8
176
     1
 62
     7
176
     1
 40
1.0
176
     1
 90
        1
176
     1
 90
        6
176
     1
 90
        2
176
     1
 62
     7
176
     1
 90
        3
176
     1
 90
        0
176
     1
 90
        0
176
     1
290
     0
176
     1
 90
        1
176
     1
 40
0.0
176
     1
 90
        0
176
     1
290
     0
176
     1
290
     1
176
     1
290
     1
176
     1
290
     0
176
     1
290
     0
176
     1
290
     0
176
     1
290
     0
176
     1
290
     0
176
     1
290
     0
176
     1
 90
       50
176
     1
 40
0.0
176
     1
 40
1.0
176
     1
 90
        0
176
     1
 62
    18
420
        0
176
     1
 90
       50
176
     1
 90
        3
176
     1
 62
     5
420
      255
176
     1
290
     0
176
     1
 90
       50
176
     1
 90
       50
176
     1
 90
       50
176
     1
290
     0
176
     1
 90
       50
176
     1
 62
   256
176
     0
 40
1.0
176
     0
 90
        2
176
     1
  1
strokes_ogs.tif
176
     1
290
     0
176
     1
 40
1.0
176
     1
 40
1.0
176
     1
  0
VISUALSTYLE
  5
3F
102
{ACAD_REACTORS
330
2A
102
}
330
2A
100
AcDbVisualStyle
  2
Sketchy
 70
    24
177
     3
291
     0
 70
    58
 90
        1
176
     1
 90
        2
176
     1
 90
        2
176
     1
 90
        0
176
     1
 40
0.6
176
     1
 40
30.0
176
     1
 62
     7
420
 16777215
176
     1
 90
        2
176
     1
 90
        2
176
     1
 62
     7
176
     1
 62
     7
176
     1
 90
        1
176
     1
 90
        1
176
     1
 40
40.0
176
     1
 90
       11
176
     1
 62
     7
176
     1
 40
1.0
176
     1
 90
        1
176
     1
 90
        6
176
     1
 90
        2
176
     1
 62
     7
176
     1
 90
        6
176
     1
 90
        0
176
     1
 90
        0
176
     1
290
     0
176
     1
 90
        1
176
     1
 40
0.0
176
     1
 90
        0
176
     1
290
     0
176
     1
290
     1
176
     1
290
     1
176
     1
290
     0
176
     1
290
     0
176
     1
290
     0
176
     1
290
     0
176
     1
290
     0
176
     1
290
     0
176
     1
 90
       50
176
     1
 40
0.0
176
     1
 40
1.0
176
     1
 90
        0
176
     1
 62
    18
420
        0
176
     1
 90
       50
176
     1
 90
        3
176
     1
 62
     5
420
      255
176
     1
290
     0
176
     1
 90
       50
176
     1
 90
       50
176
     1
 90
       50
176
     1
290
     0
176
     1
 90
       50
176
     1
 62
   256
176
     0
 40
1.0
176
     0
 90
        2
176
     1
  1
strokes_ogs.tif
176
     1
290
     0
176
     1
 40
1.0
176
     1
 40
1.0
176
     1
  0
VISUALSTYLE
  5
37
102
{ACAD_REACTORS
330
2A
102
}
330
2A
100
AcDbVisualStyle
  2
Thicken
 70
    13
177
     3
291
     1
 70
    58
 90
        2
176
     1
 90
        2
176
     1
 90
        0
176
     1
 90
        0
176
     1
 40
0.6
176
     1
 40
30.0
176
     1
 62
     7
420
 16777215
176
     1
 90
        1
176
     1
 90
        4
176
     1
 62
     7
176
     1
 62
   257
176
     1
 90
        1
176
     1
 90
        1
176
     1
 40
1.0
176
     1
 90
       12
176
     1
 62
     7
176
     1
 40
1.0
176
     1
 90
        1
176
     1
 90
        6
176
     1
 90
        2
176
     1
 62
     7
176
     1
 90
        5
176
     1
 90
        0
176
     1
 90
        0
176
     1
290
     0
176
     1
 90
        1
176
     1
 40
0.0
176
     1
 90
        0
176
     1
290
     0
176
     1
290
     1
176
     1
290
     1
176
     1
290
     0
176
     1
290
     0
176
     1
290
     0
176
     1
290
     0
176
     1
290
     0
176
     1
290
     0
176
     1
 90
       50
176
     1
 40
0.0
176
     1
 40
1.0
176
     1
 90
        0
176
     1
 62
    18
420
        0
176
     1
 90
       50
176
     1
 90
        3
176
     1
 62
     5
420
      255
176
     1
290
     0
176
     1
 90
       50
176
     1
 90
       50
176
     1
 90
       50
176
     1
290
     0
176
     1
 90
       50
176
     1
 62
   256
176
     0
 40
1.0
176
     0
 90
        2
176
     1
  1
strokes_ogs.tif
176
     1
290
     0
176
     1
 40
1.0
176
     1
 40
1.0
176
     1
  0
VISUALSTYLE
  5
30
102
{ACAD_REACTORS
330
2A
102
}
330
2A
100
AcDbVisualStyle
  2
Wireframe
 70
     5
177
     3
291
     0
 70
    58
 90
        0
176
     1
 90
        2
176
     1
 90
        0
176
     1
 90
        0
176
     1
 40
0.6
176
     1
 40
30.0
176
     1
 62
     7
420
 16777215
176
     1
 90
        1
176
     1
 90
        4
176
     1
 62
     7
176
     1
 62
   257
176
     1
 90
        1
176
     1
 90
        1
176
     1
 40
1.0
176
     1
 90
        0
176
     1
 62
   257
176
     1
 40
1.0
176
     1
 90
        1
176
     1
 90
        6
176
     1
 90
        2
176
     1
 62
     7
176
     1
 90
        3
176
     1
 90
        0
176
     1
 90
        0
176
     1
290
     0
176
     1
 90
        1
176
     1
 40
0.0
176
     1
 90
        0
176
     1
290
     0
176
     1
290
     1
176
     1
290
     1
176
     1
290
     0
176
     1
290
     0
176
     1
290
     0
176
     1
290
     0
176
     1
290
     0
176
     1
290
     0
176
     1
 90
       50
176
     1
 40
0.0
176
     1
 40
1.0
176
     1
 90
        0
176
     1
 62
    18
420
        0
176
     1
 90
       50
176
     1
 90
        3
176
     1
 62
     5
420
      255
176
     1
290
     0
176
     1
 90
       50
176
     1
 90
       50
176
     1
 90
       50
176
     1
290
     0
176
     1
 90
       50
176
     1
 62
   256
176
     0
 40
1.0
176
     0
 90
        2
176
     1
  1
strokes_ogs.tif
176
     1
290
     0
176
     1
 40
1.0
176
     1
 40
1.0
176
     1
  0
VISUALSTYLE
  5
40
102
{ACAD_REACTORS
330
2A
102
}
330
2A
100
AcDbVisualStyle
  2
X-Ray
 70
    25
177
     3
291
     0
 70
    58
 90
        2
176
     1
 90
        2
176
     1
 90
        1
176
     1
 90
        1
176
     1
 40
0.5
176
     1
 40
30.0
176
     1
 62
     7
420
 16777215
176
     1
 90
        1
176
     1
 90
        0
176
     1
 62
     7
176
     1
 62
   257
176
     1
 90
        1
176
     1
 90
        1
176
     1
 40
1.0
176
     1
 90
        8
176
     1
 62
     7
176
     1
 40
1.0
176
     1
 90
        1
176
     1
 90
        6
176
     1
 90
        2
176
     1
 62
     7
176
     1
 90
        3
176
     1
 90
        0
176
     1
 90
        0
176
     1
290
     0
176
     1
 90
       13
176
     1
 40
0.0
176
     1
 90
        0
176
     1
290
     0
176
     1
290
     1
176
     1
290
     1
176
     1
290
     0
176
     1
290
     0
176
     1
290
     0
176
     1
290
     0
176
     1
290
     0
176
     1
290
     0
176
     1
 90
       50
176
     1
 40
0.0
176
     1
 40
1.0
176
     1
 90
        0
176
     1
 62
    18
420
        0
176
     1
 90
       50
176
     1
 90
        3
176
     1
 62
     5
420
      255
176
     1
290
     0
176
     1
 90
       50
176
     1
 90
       50
176
     1
 90
       50
176
     1
290
     0
176
     1
 90
       50
176
     1
 62
   256
176
     0
 40
1.0
176
     0
 90
        2
176
     1
  1
strokes_ogs.tif
176
     1
290
     0
176
     1
 40
1.0
176
     1
 40
1.0
176
     1
  0
DICTIONARYVAR
  5
86
102
{ACAD_REACTORS
330
85
102
}
330
85
100
DictionaryVariables
280
     0
  1
1:1
  0
DICTIONARYVAR
  5
8B
102
{ACAD_REACTORS
330
85
102
}
330
85
100
DictionaryVariables
280
     0
  1
Standard
  0
DICTIONARYVAR
  5
8A
102
{ACAD_REACTORS
330
85
102
}
330
85
100
DictionaryVariables
280
     0
  1
Standard
  0
DICTIONARY
  5
87
330
5A
100
AcDbDictionary
280
     1
281
     1
  3
ACAD_ROUNDTRIP_2008_TABLESTYLE_CELLSTYLEMAP
360
88
  0
CELLSTYLEMAP
  5
88
102
{ACAD_REACTORS
330
87
102
}
330
87
100
AcDbCellStyleMap
 90
        3
300
CELLSTYLE
  1
TABLEFORMAT_BEGIN
 90
        5
170
     1
 91
        0
 92
    32768
 62
   257
 93
        1
300
CONTENTFORMAT
  1
CONTENTFORMAT_BEGIN
 90
        0
 91
        0
 92
        4
 93
        0
300

 40
0.0
140
1.0
 94
        5
 62
     0
340
11
144
0.25
309
CONTENTFORMAT_END
171
     1
301
MARGIN
  1
CELLMARGIN_BEGIN
 40
0.06
 40
0.06
 40
0.06
 40
0.06
 40
0.06
 40
0.06
309
CELLMARGIN_END
 94
        6
 95
        1
302
GRIDFORMAT
  1
GRIDFORMAT_BEGIN
 90
        0
 91
        1
 62
     0
 92
       -2
340
14
 93
        0
 40
0.045
309
GRIDFORMAT_END
 95
        2
302
GRIDFORMAT
  1
GRIDFORMAT_BEGIN
 90
        0
 91
        1
 62
     0
 92
       -2
340
14
 93
        0
 40
0.045
309
GRIDFORMAT_END
 95
        4
302
GRIDFORMAT
  1
GRIDFORMAT_BEGIN
 90
        0
 91
        1
 62
     0
 92
       -2
340
14
 93
        0
 40
0.045
309
GRIDFORMAT_END
 95
        8
302
GRIDFORMAT
  1
GRIDFORMAT_BEGIN
 90
        0
 91
        1
 62
     0
 92
       -2
340
14
 93
        0
 40
0.045
309
GRIDFORMAT_END
 95
       16
302
GRIDFORMAT
  1
GRIDFORMAT_BEGIN
 90
        0
 91
        1
 62
     0
 92
       -2
340
14
 93
        0
 40
0.045
309
GRIDFORMAT_END
 95
       32
302
GRIDFORMAT
  1
GRIDFORMAT_BEGIN
 90
        0
 91
        1
 62
     0
 92
       -2
340
14
 93
        0
 40
0.045
309
GRIDFORMAT_END
309
TABLEFORMAT_END
  1
CELLSTYLE_BEGIN
 90
        1
 91
        1
300
_TITLE
309
CELLSTYLE_END
300
CELLSTYLE
  1
TABLEFORMAT_BEGIN
 90
        5
170
     1
 91
        0
 92
        0
 62
   257
 93
        1
300
CONTENTFORMAT
  1
CONTENTFORMAT_BEGIN
 90
        0
 91
        0
 92
        4
 93
        0
300

 40
0.0
140
1.0
 94
        5
 62
     0
340
11
144
0.18
309
CONTENTFORMAT_END
171
     1
301
MARGIN
  1
CELLMARGIN_BEGIN
 40
0.06
 40
0.06
 40
0.06
 40
0.06
 40
0.06
 40
0.06
309
CELLMARGIN_END
 94
        6
 95
        1
302
GRIDFORMAT
  1
GRIDFORMAT_BEGIN
 90
        0
 91
        1
 62
     0
 92
       -2
340
14
 93
        0
 40
0.045
309
GRIDFORMAT_END
 95
        2
302
GRIDFORMAT
  1
GRIDFORMAT_BEGIN
 90
        0
 91
        1
 62
     0
 92
       -2
340
14
 93
        0
 40
0.045
309
GRIDFORMAT_END
 95
        4
302
GRIDFORMAT
  1
GRIDFORMAT_BEGIN
 90
        0
 91
        1
 62
     0
 92
       -2
340
14
 93
        0
 40
0.045
309
GRIDFORMAT_END
 95
        8
302
GRIDFORMAT
  1
GRIDFORMAT_BEGIN
 90
        0
 91
        1
 62
     0
 92
       -2
340
14
 93
        0
 40
0.045
309
GRIDFORMAT_END
 95
       16
302
GRIDFORMAT
  1
GRIDFORMAT_BEGIN
 90
        0
 91
        1
 62
     0
 92
       -2
340
14
 93
        0
 40
0.045
309
GRIDFORMAT_END
 95
       32
302
GRIDFORMAT
  1
GRIDFORMAT_BEGIN
 90
        0
 91
        1
 62
     0
 92
       -2
340
14
 93
        0
 40
0.045
309
GRIDFORMAT_END
309
TABLEFORMAT_END
  1
CELLSTYLE_BEGIN
 90
        2
 91
        1
300
_HEADER
309
CELLSTYLE_END
300
CELLSTYLE
  1
TABLEFORMAT_BEGIN
 90
        5
170
     1
 91
        0
 92
        0
 62
   257
 93
        1
300
CONTENTFORMAT
  1
CONTENTFORMAT_BEGIN
 90
        0
 91
        0
 92
        4
 93
        0
300

 40
0.0
140
1.0
 94
        2
 62
     0
340
11
144
0.18
309
CONTENTFORMAT_END
171
     1
301
MARGIN
  1
CELLMARGIN_BEGIN
 40
0.06
 40
0.06
 40
0.06
 40
0.06
 40
0.06
 40
0.06
309
CELLMARGIN_END
 94
        6
 95
        1
302
GRIDFORMAT
  1
GRIDFORMAT_BEGIN
 90
        0
 91
        1
 62
     0
 92
       -2
340
14
 93
        0
 40
0.045
309
GRIDFORMAT_END
 95
        2
302
GRIDFORMAT
  1
GRIDFORMAT_BEGIN
 90
        0
 91
        1
 62
     0
 92
       -2
340
14
 93
        0
 40
0.045
309
GRIDFORMAT_END
 95
        4
302
GRIDFORMAT
  1
GRIDFORMAT_BEGIN
 90
        0
 91
        1
 62
     0
 92
       -2
340
14
 93
        0
 40
0.045
309
GRIDFORMAT_END
 95
        8
302
GRIDFORMAT
  1
GRIDFORMAT_BEGIN
 90
        0
 91
        1
 62
     0
 92
       -2
340
14
 93
        0
 40
0.045
309
GRIDFORMAT_END
 95
       16
302
GRIDFORMAT
  1
GRIDFORMAT_BEGIN
 90
        0
 91
        1
 62
     0
 92
       -2
340
14
 93
        0
 40
0.045
309
GRIDFORMAT_END
 95
       32
302
GRIDFORMAT
  1
GRIDFORMAT_BEGIN
 90
        0
 91
        1
 62
     0
 92
       -2
340
14
 93
        0
 40
0.045
309
GRIDFORMAT_END
309
TABLEFORMAT_END
  1
CELLSTYLE_BEGIN
 90
        3
 91
        2
300
_DATA
309
CELLSTYLE_END
  0
ENDSEC
  0
EOF
