  0
SECTION
  2
HEADER
  9
$ACADVER
  1
AC1027
  9
$ACADMAINTVER
 70
   105
  9
$DWGCODEPAGE
  3
ANSI_1252
  9
$LASTSAVEDBY
  1
Office Desk
  9
$REQUIREDVERSIONS
160
                 0
  9
$INSBASE
 10
0.0
 20
0.0
 30
0.0
  9
$EXTMIN
 10
-11.46531496062992
 20
-5.91951968503937
 30
0.0
  9
$EXTMAX
 10
-5.262397637795275
 20
-0.5926023622047244
 30
0.0
  9
$LIMMIN
 10
0.0
 20
0.0
  9
$LIMMAX
 10
12.0
 20
9.0
  9
$ORTHOMODE
 70
     0
  9
$REGENMODE
 70
     1
  9
$FILLMODE
 70
     1
  9
$QTEXTMODE
 70
     0
  9
$MIRRTEXT
 70
     1
  9
$LTSCALE
 40
1.0
  9
$ATTMODE
 70
     1
  9
$TEXTSIZE
 40
0.2
  9
$TRACEWID
 40
0.05
  9
$TEXTSTYLE
  7
Standard
  9
$CLAYER
  8
0
  9
$CELTYPE
  6
ByLayer
  9
$CECOLOR
 62
   256
  9
$CELTSCALE
 40
1.0
  9
$DISPSILH
 70
     0
  9
$DIMSCALE
 40
1.0
  9
$DIMASZ
 40
0.18
  9
$DIMEXO
 40
0.0625
  9
$DIMDLI
 40
0.38
  9
$DIMRND
 40
0.0
  9
$DIMDLE
 40
0.0
  9
$DIMEXE
 40
0.18
  9
$DIMTP
 40
0.0
  9
$DIMTM
 40
0.0
  9
$DIMTXT
 40
0.18
  9
$DIMCEN
 40
0.09
  9
$DIMTSZ
 40
0.0
  9
$DIMTOL
 70
     0
  9
$DIMLIM
 70
     0
  9
$DIMTIH
 70
     1
  9
$DIMTOH
 70
     1
  9
$DIMSE1
 70
     0
  9
$DIMSE2
 70
     0
  9
$DIMTAD
 70
     0
  9
$DIMZIN
 70
     0
  9
$DIMBLK
  1

  9
$DIMASO
 70
     1
  9
$DIMSHO
 70
     1
  9
$DIMPOST
  1

  9
$DIMAPOST
  1

  9
$DIMALT
 70
     0
  9
$DIMALTD
 70
     2
  9
$DIMALTF
 40
25.4
  9
$DIMLFAC
 40
1.0
  9
$DIMTOFL
 70
     0
  9
$DIMTVP
 40
0.0
  9
$DIMTIX
 70
     0
  9
$DIMSOXD
 70
     0
  9
$DIMSAH
 70
     0
  9
$DIMBLK1
  1

  9
$DIMBLK2
  1

  9
$DIMSTYLE
  2
Standard
  9
$DIMCLRD
 70
     0
  9
$DIMCLRE
 70
     0
  9
$DIMCLRT
 70
     0
  9
$DIMTFAC
 40
1.0
  9
$DIMGAP
 40
0.09
  9
$DIMJUST
 70
     0
  9
$DIMSD1
 70
     0
  9
$DIMSD2
 70
     0
  9
$DIMTOLJ
 70
     1
  9
$DIMTZIN
 70
     0
  9
$DIMALTZ
 70
     0
  9
$DIMALTTZ
 70
     0
  9
$DIMUPT
 70
     0
  9
$DIMDEC
 70
     4
  9
$DIMTDEC
 70
     4
  9
$DIMALTU
 70
     2
  9
$DIMALTTD
 70
     2
  9
$DIMTXSTY
  7
Standard
  9
$DIMAUNIT
 70
     0
  9
$DIMADEC
 70
     0
  9
$DIMALTRND
 40
0.0
  9
$DIMAZIN
 70
     0
  9
$DIMDSEP
 70
    46
  9
$DIMATFIT
 70
     3
  9
$DIMFRAC
 70
     0
  9
$DIMLDRBLK
  1

  9
$DIMLUNIT
 70
     2
  9
$DIMLWD
 70
    -2
  9
$DIMLWE
 70
    -2
  9
$DIMTMOVE
 70
     0
  9
$DIMFXL
 40
1.0
  9
$DIMFXLON
 70
     0
  9
$DIMJOGANG
 40
0.7853981633974483
  9
$DIMTFILL
 70
     0
  9
$DIMTFILLCLR
 70
     0
  9
$DIMARCSYM
 70
     0
  9
$DIMLTYPE
  6

  9
$DIMLTEX1
  6

  9
$DIMLTEX2
  6

  9
$DIMTXTDIRECTION
 70
     0
  9
$LUNITS
 70
     2
  9
$LUPREC
 70
     4
  9
$SKETCHINC
 40
0.1
  9
$FILLETRAD
 40
0.0
  9
$AUNITS
 70
     0
  9
$AUPREC
 70
     0
  9
$MENU
  1
.
  9
$ELEVATION
 40
0.0
  9
$PELEVATION
 40
0.0
  9
$THICKNESS
 40
0.0
  9
$LIMCHECK
 70
     0
  9
$CHAMFERA
 40
0.0
  9
$CHAMFERB
 40
0.0
  9
$CHAMFERC
 40
0.0
  9
$CHAMFERD
 40
0.0
  9
$SKPOLY
 70
     0
  9
$TDCREATE
 40
2461020.698787825
  9
$TDUCREATE
 40
2461020.469621158
  9
$TDUPDATE
 40
2461020.698787871
  9
$TDUUPDATE
 40
2461020.469621204
  9
$TDINDWG
 40
0.0000000116
  9
$TDUSRTIMER
 40
0.0000000116
  9
$USRTIMER
 70
     1
  9
$ANGBASE
 50
0.0
  9
$ANGDIR
 70
     0
  9
$PDMODE
 70
     0
  9
$PDSIZE
 40
0.0
  9
$PLINEWID
 40
0.0
  9
$SPLFRAME
 70
     0
  9
$SPLINETYPE
 70
     6
  9
$SPLINESEGS
 70
     8
  9
$HANDSEED
  5
91
  9
$SURFTAB1
 70
     6
  9
$SURFTAB2
 70
     6
  9
$SURFTYPE
 70
     6
  9
$SURFU
 70
     6
  9
$SURFV
 70
     6
  9
$UCSBASE
  2

  9
$UCSNAME
  2

  9
$UCSORG
 10
0.0
 20
0.0
 30
0.0
  9
$UCSXDIR
 10
1.0
 20
0.0
 30
0.0
  9
$UCSYDIR
 10
0.0
 20
1.0
 30
0.0
  9
$UCSORTHOREF
  2

  9
$UCSORTHOVIEW
 70
     0
  9
$UCSORGTOP
 10
0.0
 20
0.0
 30
0.0
  9
$UCSORGBOTTOM
 10
0.0
 20
0.0
 30
0.0
  9
$UCSORGLEFT
 10
0.0
 20
0.0
 30
0.0
  9
$UCSORGRIGHT
 10
0.0
 20
0.0
 30
0.0
  9
$UCSORGFRONT
 10
0.0
 20
0.0
 30
0.0
  9
$UCSORGBACK
 10
0.0
 20
0.0
 30
0.0
  9
$PUCSBASE
  2

  9
$PUCSNAME
  2

  9
$PUCSORG
 10
0.0
 20
0.0
 30
0.0
  9
$PUCSXDIR
 10
1.0
 20
0.0
 30
0.0
  9
$PUCSYDIR
 10
0.0
 20
1.0
 30
0.0
  9
$PUCSORTHOREF
  2

  9
$PUCSORTHOVIEW
 70
     0
  9
$PUCSORGTOP
 10
0.0
 20
0.0
 30
0.0
  9
$PUCSORGBOTTOM
 10
0.0
 20
0.0
 30
0.0
  9
$PUCSORGLEFT
 10
0.0
 20
0.0
 30
0.0
  9
$PUCSORGRIGHT
 10
0.0
 20
0.0
 30
0.0
  9
$PUCSORGFRONT
 10
0.0
 20
0.0
 30
0.0
  9
$PUCSORGBACK
 10
0.0
 20
0.0
 30
0.0
  9
$USERI1
 70
     0
  9
$USERI2
 70
     0
  9
$USERI3
 70
     0
  9
$USERI4
 70
     0
  9
$USERI5
 70
     0
  9
$USERR1
 40
0.0
  9
$USERR2
 40
0.0
  9
$USERR3
 40
0.0
  9
$USERR4
 40
0.0
  9
$USERR5
 40
0.0
  9
$WORLDVIEW
 70
     1
  9
$SHADEDGE
 70
     3
  9
$SHADEDIF
 70
    70
  9
$TILEMODE
 70
     1
  9
$MAXACTVP
 70
    64
  9
$PINSBASE
 10
0.0
 20
0.0
 30
0.0
  9
$PLIMCHECK
 70
     0
  9
$PEXTMIN
 10
1.000000000000000E+20
 20
1.000000000000000E+20
 30
1.000000000000000E+20
  9
$PEXTMAX
 10
-1.000000000000000E+20
 20
-1.000000000000000E+20
 30
-1.000000000000000E+20
  9
$PLIMMIN
 10
0.0
 20
0.0
  9
$PLIMMAX
 10
12.0
 20
9.0
  9
$UNITMODE
 70
     0
  9
$VISRETAIN
 70
     1
  9
$PLINEGEN
 70
     0
  9
$PSLTSCALE
 70
     1
  9
$TREEDEPTH
 70
  3020
  9
$CMLSTYLE
  2
Standard
  9
$CMLJUST
 70
     0
  9
$CMLSCALE
 40
1.0
  9
$PROXYGRAPHICS
 70
     1
  9
$MEASUREMENT
 70
     0
  9
$CELWEIGHT
370
    -1
  9
$ENDCAPS
280
     0
  9
$JOINSTYLE
280
     0
  9
$LWDISPLAY
290
     0
  9
$INSUNITS
 70
     1
  9
$HYPERLINKBASE
  1

  9
$STYLESHEET
  1

  9
$XEDIT
290
     1
  9
$CEPSNTYPE
380
     0
  9
$PSTYLEMODE
290
     1
  9
$FINGERPRINTGUID
  2
{6d9d0d86-7e96-4895-9caa-ee7fb5382b1a}
  9
$VERSIONGUID
  2
{FAEB1C32-E019-11D5-929B-00C0DF256EC4}
  9
$EXTNAMES
290
     1
  9
$PSVPSCALE
 40
0.0
  9
$OLESTARTUP
290
     0
  9
$SORTENTS
280
   127
  9
$INDEXCTL
280
     0
  9
$HIDETEXT
280
     1
  9
$XCLIPFRAME
280
     2
  9
$HALOGAP
280
     0
  9
$OBSCOLOR
 70
   257
  9
$OBSLTYPE
280
     0
  9
$INTERSECTIONDISPLAY
280
     0
  9
$INTERSECTIONCOLOR
 70
   257
  9
$DIMASSOC
280
     2
  9
$PROJECTNAME
  1

  9
$CAMERADISPLAY
290
     0
  9
$LENSLENGTH
 40
50.0
  9
$CAMERAHEIGHT
 40
0.0
  9
$STEPSPERSEC
 40
2.0
  9
$STEPSIZE
 40
6.0
  9
$3DDWFPREC
 40
2.0
  9
$PSOLWIDTH
 40
0.25
  9
$PSOLHEIGHT
 40
4.0
  9
$LOFTANG1
 40
1.570796326794897
  9
$LOFTANG2
 40
1.570796326794897
  9
$LOFTMAG1
 40
0.0
  9
$LOFTMAG2
 40
0.0
  9
$LOFTPARAM
 70
     7
  9
$LOFTNORMALS
280
     1
  9
$LATITUDE
 40
37.795
  9
$LONGITUDE
 40
-122.394
  9
$NORTHDIRECTION
 40
0.0
  9
$TIMEZONE
 70
 -8000
  9
$LIGHTGLYPHDISPLAY
280
     1
  9
$TILEMODELIGHTSYNCH
280
     1
  9
$CMATERIAL
347
44
  9
$SOLIDHIST
280
     0
  9
$SHOWHIST
280
     1
  9
$DWFFRAME
280
     2
  9
$DGNFRAME
280
     2
  9
$REALWORLDSCALE
290
     1
  9
$INTERFERECOLOR
 62
   256
  9
$CSHADOW
280
     0
  9
$SHADOWPLANELOCATION
 40
0.0
  0
ENDSEC
  0
SECTION
  2
CLASSES
  0
CLASS
  1
ACDBDICTIONARYWDFLT
  2
AcDbDictionaryWithDefault
  3
ObjectDBX Classes
 90
        0
 91
        3
280
     0
281
     0
  0
CLASS
  1
VISUALSTYLE
  2
AcDbVisualStyle
  3
ObjectDBX Classes
 90
     4095
 91
        3
280
     0
281
     0
  0
CLASS
  1
MATERIAL
  2
AcDbMaterial
  3
ObjectDBX Classes
 90
     1153
 91
        3
280
     0
281
     0
  0
CLASS
  1
SCALE
  2
AcDbScale
  3
ObjectDBX Classes
 90
     1153
 91
        3
280
     0
281
     0
  0
CLASS
  1
TABLESTYLE
  2
AcDbTableStyle
  3
ObjectDBX Classes
 90
     4095
 91
        3
280
     0
281
     0
  0
CLASS
  1
MLEADERSTYLE
  2
AcDbMLeaderStyle
  3
ACDB_MLEADERSTYLE_CLASS
 90
     4095
 91
        3
280
     0
281
     0
  0
CLASS
  1
SUN
  2
AcDbSun
  3
SCENEOE
 90
     1153
 91
        3
280
     0
281
     0
  0
CLASS
  1
DICTIONARYVAR
  2
AcDbDictionaryVar
  3
ObjectDBX Classes
 90
        0
 91
        3
280
     0
281
     0
  0
CLASS
  1
CELLSTYLEMAP
  2
AcDbCellStyleMap
  3
ObjectDBX Classes
 90
     1152
 91
        3
280
     0
281
     0
  0
ENDSEC
  0
SECTION
  2
TABLES
  0
TABLE
  2
VPORT
  5
8
330
0
100
AcDbSymbolTable
 70
     1
  0
VPORT
  5
29
330
8
100
AcDbSymbolTableRecord
100
AcDbViewportTableRecord
  2
*Active
 70
     0
 10
0.0
 20
0.0
 11
1.0
 21
1.0
 12
10.42990654205607
 22
4.5
 13
0.0
 23
0.0
 14
0.5
 24
0.5
 15
0.5
 25
0.5
 16
0.0
 26
0.0
 36
1.0
 17
0.0
 27
0.0
 37
0.0
 40
9.0
 41
1.972972972850329
 42
50.0
 43
0.0
 44
0.0
 50
0.0
 51
0.0
 71
     0
 72
   100
 73
     1
 74
     3
 75
     0
 76
     0
 77
     0
 78
     0
281
     0
 65
     1
110
0.0
120
0.0
130
0.0
111
1.0
121
0.0
131
0.0
112
0.0
122
1.0
132
0.0
 79
     0
146
0.0
348
2F
 60
     3
 61
     5
292
     1
282
     1
141
0.0
142
0.0
 63
   250
361
5D
  0
ENDTAB
  0
TABLE
  2
LTYPE
  5
5
330
0
100
AcDbSymbolTable
 70
     1
  0
LTYPE
  5
14
330
5
100
AcDbSymbolTableRecord
100
AcDbLinetypeTableRecord
  2
ByBlock
 70
     0
  3

 72
    65
 73
     0
 40
0.0
  0
LTYPE
  5
15
330
5
100
AcDbSymbolTableRecord
100
AcDbLinetypeTableRecord
  2
ByLayer
 70
     0
  3

 72
    65
 73
     0
 40
0.0
  0
LTYPE
  5
16
330
5
100
AcDbSymbolTableRecord
100
AcDbLinetypeTableRecord
  2
Continuous
 70
     0
  3
Solid line
 72
    65
 73
     0
 40
0.0
  0
ENDTAB
  0
TABLE
  2
LAYER
  5
2
330
0
100
AcDbSymbolTable
 70
     2
  0
LAYER
  5
10
330
2
100
AcDbSymbolTableRecord
100
AcDbLayerTableRecord
  2
0
 70
     0
 62
     7
  6
Continuous
370
    -3
390
F
347
46
348
0
  0
LAYER
  5
5F
330
2
100
AcDbSymbolTableRecord
100
AcDbLayerTableRecord
  2
Layer 1
 70
     0
 62
     7
  6
Continuous
370
    -3
390
F
347
46
348
0
  0
ENDTAB
  0
TABLE
  2
STYLE
  5
3
330
0
100
AcDbSymbolTable
 70
     1
  0
STYLE
  5
11
330
3
100
AcDbSymbolTableRecord
100
AcDbTextStyleTableRecord
  2
Standard
 70
     0
 40
0.0
 41
1.0
 50
0.0
 71
     0
 42
0.2
  3
txt
  4

  0
ENDTAB
  0
TABLE
  2
VIEW
  5
6
330
0
100
AcDbSymbolTable
 70
     0
  0
ENDTAB
  0
TABLE
  2
UCS
  5
7
330
0
100
AcDbSymbolTable
 70
     0
  0
ENDTAB
  0
TABLE
  2
APPID
  5
9
330
0
100
AcDbSymbolTable
 70
     2
  0
APPID
  5
12
330
9
100
AcDbSymbolTableRecord
100
AcDbRegAppTableRecord
  2
ACAD
 70
     0
  0
APPID
  5
5E
330
9
100
AcDbSymbolTableRecord
100
AcDbRegAppTableRecord
  2
ODA
 70
     0
  0
ENDTAB
  0
TABLE
  2
DIMSTYLE
  5
A
330
0
100
AcDbSymbolTable
 70
     1
100
AcDbDimStyleTable
  0
DIMSTYLE
105
27
330
A
100
AcDbSymbolTableRecord
100
AcDbDimStyleTableRecord
  2
Standard
 70
     0
178
     0
340
11
  0
ENDTAB
  0
TABLE
  2
BLOCK_RECORD
  5
1
330
0
100
AcDbSymbolTable
 70
     1
  0
BLOCK_RECORD
  5
1F
330
1
100
AcDbSymbolTableRecord
100
AcDbBlockTableRecord
  2
*Model_Space
340
22
 70
     0
280
     1
281
     0
  0
BLOCK_RECORD
  5
1B
330
1
100
AcDbSymbolTableRecord
100
AcDbBlockTableRecord
  2
*Paper_Space
340
1E
 70
     0
280
     1
281
     0
  0
BLOCK_RECORD
  5
23
330
1
100
AcDbSymbolTableRecord
100
AcDbBlockTableRecord
  2
*Paper_Space0
340
26
 70
     0
280
     1
281
     0
  0
ENDTAB
  0
ENDSEC
  0
SECTION
  2
BLOCKS
  0
BLOCK
  5
20
330
1F
100
AcDbEntity
  8
0
100
AcDbBlockBegin
  2
*Model_Space
 70
     0
 10
0.0
 20
0.0
 30
0.0
  3
*Model_Space
  1

  0
ENDBLK
  5
21
330
1F
100
AcDbEntity
  8
0
100
AcDbBlockEnd
  0
BLOCK
  5
1C
330
1B
100
AcDbEntity
 67
     1
  8
0
100
AcDbBlockBegin
  2
*Paper_Space
 70
     0
 10
0.0
 20
0.0
 30
0.0
  3
*Paper_Space
  1

  0
ENDBLK
  5
1D
330
1B
100
AcDbEntity
 67
     1
  8
0
100
AcDbBlockEnd
  0
BLOCK
  5
24
330
23
100
AcDbEntity
  8
0
100
AcDbBlockBegin
  2
*Paper_Space0
 70
     0
 10
0.0
 20
0.0
 30
0.0
  3
*Paper_Space0
  1

  0
ENDBLK
  5
25
330
23
100
AcDbEntity
  8
0
100
AcDbBlockEnd
  0
ENDSEC
  0
SECTION
  2
ENTITIES
  0
LWPOLYLINE
  5
60
330
1F
100
AcDbEntity
  8
Layer 1
 62
   250
370
     9
100
AcDbPolyline
 90
        5
 70
     1
 43
0.0
 10
-11.46381496062992
 20
-5.918015748031496
 10
-5.26390157480315
 20
-5.918015748031496
 10
-5.26390157480315
 20
-0.5941023622047245
 10
-11.46381496062992
 20
-0.5941023622047245
 10
-11.46381496062992
 20
-5.918015748031496
  0
LWPOLYLINE
  5
61
330
1F
100
AcDbEntity
  8
Layer 1
 62
     7
370
    15
100
AcDbPolyline
 90
      159
 70
     0
 43
0.0
 10
-9.88738188976378
 20
-1.537070866141732
 10
-9.88657874015748
 20
-1.532625984251968
 10
-9.883228346456693
 20
-1.520334645669291
 10
-9.875917322834646
 20
-1.501759842519685
 10
-9.863232283464567
 20
-1.478472440944882
 10
-9.84376377952756
 20
-1.452035433070866
 10
-9.81609842519685
 20
-1.424015748031496
 10
-9.778818897637795
 20
-1.395976377952756
 10
-9.730515748031497
 20
-1.369488188976378
 10
-9.693866141732283
 20
-1.352858267716536
 10
-9.596511811023621
 20
-1.308767716535433
 10
-9.457358267716536
 20
-1.245929133858268
 10
-9.2953031496063
 20
-1.173047244094488
 10
-9.12924409448819
 20
-1.098830708661417
 10
-8.978082677165354
 20
-1.031984251968504
 10
-8.860720472440946
 20
-0.9812125984251968
 10
-8.796055118110237
 20
-0.955228346456693
 10
-8.791669291338582
 20
-0.9527834645669291
 10
-8.778755905511812
 20
-0.9470787401574803
 10
-8.75768503937008
 20
-0.9405511811023622
 10
-8.728818897637796
 20
-0.9356338582677165
 10
-8.692527559055119
 20
-0.934771653543307
 10
-8.649177165354331
 20
-0.9404015748031496
 10
-8.599129921259843
 20
-0.9549566929133858
 10
-8.542759842519684
 20
-0.9808818897637795
 10
-8.508263779527558
 20
-0.995744094488189
 10
-8.41532283464567
 20
-1.035472440944882
 10
-8.279759842519685
 20
-1.092767716535433
 10
-8.117393700787401
 20
-1.160338582677165
 10
-7.944043307086615
 20
-1.230897637795276
 10
-7.775527559055118
 20
-1.297141732283465
 10
-7.627669291338583
 20
-1.351787401574803
 10
-7.516287401574803
 20
-1.387535433070866
 10
-7.510716535433071
 20
-1.388185039370079
 10
-7.496165354330708
 20
-1.39094094488189
 10
-7.475885826771654
 20
-1.397027559055118
 10
-7.45313779527559
 20
-1.407657480314961
 10
-7.431161417322834
 20
-1.42405905511811
 10
-7.413220472440945
 20
-1.447444881889764
 10
-7.402555118110236
 20
-1.47903937007874
 10
-7.402425196850394
 20
-1.52005905511811
 10
-7.409814960629921
 20
-1.597964566929134
 10
-7.429255905511811
 20
-1.803807086614173
 10
-7.456681102362205
 20
-2.095775590551181
 10
-7.488003937007874
 20
-2.432051181102362
 10
-7.519153543307087
 20
-2.770818897637795
 10
-7.546043307086614
 20
-3.070267716535433
 10
-7.564602362204725
 20
-3.288582677165354
 10
-7.570748031496063
 20
-3.383948818897638
 10
-7.572370078740158
 20
-3.390732283464567
 10
-7.577251968503937
 20
-3.406937007874016
 10
-7.580925196850393
 20
-3.416629921259843
 10
-7.585421259842519
 20
-3.426350393700787
 10
-7.590748031496063
 20
-3.435318897637795
 10
-7.596909448818898
 20
-3.442759842519685
 10
-7.594377952755906
 20
-3.444885826771654
 10
-7.587673228346457
 20
-3.451070866141732
 10
-7.578145669291339
 20
-3.461015748031496
 10
-7.567141732283464
 20
-3.474421259842519
 10
-7.556
 20
-3.490988188976378
 10
-7.546074803149606
 20
-3.51042125984252
 10
-7.538708661417322
 20
-3.53242125984252
 10
-7.535244094488189
 20
-3.556688976377953
 10
-7.535157480314961
 20
-3.571224409448819
 10
-7.535066929133858
 20
-3.609897637795275
 10
-7.535248031496063
 20
-3.665322834645669
 10
-7.535964566929134
 20
-3.730098425196851
 10
-7.537476377952756
 20
-3.796830708661417
 10
-7.54005905511811
 20
-3.858133858267716
 10
-7.543972440944882
 20
-3.906602362204724
 10
-7.549488188976378
 20
-3.934854330708661
 10
-7.591814960629922
 20
-3.956811023622047
 10
-7.704003937007874
 20
-4.015035433070866
 10
-7.863862204724409
 20
-4.09803937007874
 10
-8.04920472440945
 20
-4.194350393700788
 10
-8.237834645669292
 20
-4.292484251968504
 10
-8.407566929133859
 20
-4.380968503937008
 10
-8.536212598425196
 20
-4.448318897637796
 10
-8.601574803149607
 20
-4.483055118110236
 10
-8.604846456692913
 20
-4.484181102362204
 10
-8.614248031496063
 20
-4.486724409448819
 10
-8.629137795275591
 20
-4.489425196850394
 10
-8.648885826771654
 20
-4.491023622047244
 10
-8.672858267716535
 20
-4.490263779527559
 10
-8.700425196850393
 20
-4.485881889763779
 10
-8.730952755905513
 20
-4.476622047244095
 10
-8.763807086614174
 20
-4.461224409448818
 10
-8.800200787401575
 20
-4.44459842519685
 10
-8.89765748031496
 20
-4.400173228346457
 10
-9.03857874015748
 20
-4.336110236220472
 10
-9.205362204724409
 20
-4.260586614173229
 10
-9.38042125984252
 20
-4.181767716535433
 10
-9.546149606299213
 20
-4.10782283464567
 10
-9.68496062992126
 20
-4.046921259842519
 10
-9.779248031496063
 20
-4.007232283464567
 10
-9.782692913385826
 20
-4.006110236220472
 10
-9.791909448818897
 20
-4.00255905511811
 10
-9.805236220472441
 20
-3.996283464566929
 10
-9.821007874015748
 20
-3.987
 10
-9.83755905511811
 20
-3.974421259842519
 10
-9.853220472440945
 20
-3.958259842519685
 10
-9.866326771653544
 20
-3.938228346456693
 10
-9.875212598425197
 20
-3.91403937007874
 10
-9.875358267716535
 20
-3.90340157480315
 10
-9.875748031496062
 20
-3.874204724409449
 10
-9.876318897637795
 20
-3.830527559055118
 10
-9.877
 20
-3.776448818897638
 10
-9.877720472440945
 20
-3.716047244094488
 10
-9.87842125984252
 20
-3.65340157480315
 10
-9.879031496062993
 20
-3.592586614173229
 10
-9.87948031496063
 20
-3.537688976377953
 10
-9.879366141732284
 20
-3.535385826771654
 10
-9.878574803149606
 20
-3.529062992125984
 10
-9.87642125984252
 20
-3.51959842519685
 10
-9.872236220472441
 20
-3.507877952755905
 10
-9.865338582677165
 20
-3.494771653543307
 10
-9.855051181102363
 20
-3.481165354330709
 10
-9.840696850393702
 20
-3.467937007874016
 10
-9.82159842519685
 20
-3.455968503937008
 10
-9.81940157480315
 20
-3.458314960629921
 10
-9.811248031496064
 20
-3.46544094488189
 10
-9.794791338582677
 20
-3.477476377952756
 10
-9.767696850393701
 20
-3.494547244094488
 10
-9.727614173228346
 20
-3.516783464566929
 10
-9.672204724409449
 20
-3.544318897637795
 10
-9.599122047244094
 20
-3.577279527559055
 10
-9.506023622047245
 20
-3.615795275590551
 10
-9.482437007874015
 20
-3.626429133858268
 10
-9.419425196850394
 20
-3.654897637795276
 10
-9.328622047244094
 20
-3.696062992125984
 10
-9.22165748031496
 20
-3.744775590551181
 10
-9.110153543307087
 20
-3.795889763779527
 10
-9.00574409448819
 20
-3.844267716535433
 10
-8.920055118110236
 20
-3.884759842519685
 10
-8.864716535433072
 20
-3.912220472440945
 10
-8.855767716535434
 20
-3.915744094488189
 10
-8.832622047244094
 20
-3.92755905511811
 10
-8.797996062992127
 20
-3.943826771653543
 10
-8.754602362204725
 20
-3.960708661417323
 10
-8.705141732283465
 20
-3.974366141732284
 10
-8.652334645669292
 20
-3.980968503937008
 10
-8.598889763779528
 20
-3.976669291338583
 10
-8.547515748031497
 20
-3.957633858267716
 10
-8.515933070866142
 20
-3.940614173228346
 10
-8.431543307086613
 20
-3.895452755905512
 10
-8.309885826771653
 20
-3.830984251968504
 10
-8.1665
 20
-3.756047244094488
 10
-8.016929133858268
 20
-3.679484251968504
 10
-7.876712598425197
 20
-3.610125984251968
 10
-7.761385826771654
 20
-3.556814960629921
 10
-7.686492125984252
 20
-3.528389763779527
 10
-7.682759842519685
 20
-3.526818897637795
 10
-7.672893700787402
 20
-3.522236220472441
 10
-7.658893700787401
 20
-3.514842519685039
 10
-7.642763779527559
 20
-3.504838582677166
 10
-7.626496062992126
 20
-3.492429133858268
 10
-7.612102362204724
 20
-3.477811023622047
 10
-7.601570866141732
 20
-3.461188976377953
 10
-7.596909448818898
 20
-3.442759842519685
  0
LWPOLYLINE
  5
62
330
1F
100
AcDbEntity
  8
Layer 1
 62
     7
370
    15
100
AcDbPolyline
 90
       49
 70
     0
 43
0.0
 10
-9.86155905511811
 20
-3.489188976377953
 10
-9.862728346456693
 20
-3.49192125984252
 10
-9.864192913385827
 20
-3.499649606299212
 10
-9.862870078740157
 20
-3.511653543307087
 10
-9.855688976377953
 20
-3.527220472440945
 10
-9.839566929133857
 20
-3.54563779527559
 10
-9.811429133858267
 20
-3.566192913385827
 10
-9.768200787401575
 20
-3.588165354330709
 10
-9.706807086614173
 20
-3.610850393700787
 10
-9.58776377952756
 20
-3.660846456692914
 10
-9.469125984251969
 20
-3.71294094488189
 10
-9.35094094488189
 20
-3.766594488188976
 10
-9.23326377952756
 20
-3.821259842519685
 10
-9.116145669291338
 20
-3.876381889763779
 10
-8.999633858267716
 20
-3.931417322834646
 10
-8.88378346456693
 20
-3.985818897637795
 10
-8.768645669291338
 20
-4.03903937007874
 10
-8.726153543307086
 20
-4.056854330708662
 10
-8.690984251968503
 20
-4.067728346456693
 10
-8.660830708661416
 20
-4.072098425196851
 10
-8.633370078740157
 20
-4.070405511811024
 10
-8.606291338582677
 20
-4.063094488188977
 10
-8.577271653543306
 20
-4.050606299212599
 10
-8.543996062992125
 20
-4.033381889763779
 10
-8.504153543307087
 20
-4.01186220472441
 10
-8.449992125984252
 20
-3.982948818897638
 10
-8.382807086614173
 20
-3.94738188976378
 10
-8.306767716535433
 20
-3.90753937007874
 10
-8.226035433070866
 20
-3.865811023622047
 10
-8.144767716535434
 20
-3.82457874015748
 10
-8.067133858267717
 20
-3.786228346456693
 10
-7.997291338582677
 20
-3.753145669291339
 10
-7.939405511811024
 20
-3.727712598425197
 10
-7.928114173228346
 20
-3.722129921259842
 10
-7.89782283464567
 20
-3.707267716535433
 10
-7.85390157480315
 20
-3.685972440944882
 10
-7.801720472440945
 20
-3.661082677165354
 10
-7.746649606299212
 20
-3.635433070866142
 10
-7.694055118110236
 20
-3.611866141732283
 10
-7.649311023622047
 20
-3.593224409448819
 10
-7.617787401574803
 20
-3.58234251968504
 10
-7.614755905511811
 20
-3.581169291338583
 10
-7.606787401574803
 20
-3.57761811023622
 10
-7.595555118110236
 20
-3.571633858267717
 10
-7.582740157480315
 20
-3.563165354330708
 10
-7.570027559055118
 20
-3.552161417322835
 10
-7.559090551181102
 20
-3.538566929133858
 10
-7.551614173228346
 20
-3.522338582677165
 10
-7.549275590551181
 20
-3.503413385826772
  0
LWPOLYLINE
  5
63
330
1F
100
AcDbEntity
  8
Layer 1
 62
     7
370
    15
100
AcDbPolyline
 90
        2
 70
     0
 43
0.0
 10
-8.64421653543307
 20
-4.085696850393701
 10
-8.64421653543307
 20
-4.492562992125984
  0
LWPOLYLINE
  5
64
330
1F
100
AcDbEntity
  8
Layer 1
 62
     7
370
    15
100
AcDbPolyline
 90
        9
 70
     0
 43
0.0
 10
-9.88738188976378
 20
-1.537070866141732
 10
-9.886291338582677
 20
-1.616944881889764
 10
-9.88305905511811
 20
-1.828051181102362
 10
-9.877732283464567
 20
-2.127633858267716
 10
-9.870370078740157
 20
-2.472929133858268
 10
-9.861023622047243
 20
-2.821173228346457
 10
-9.849744094488189
 20
-3.129602362204724
 10
-9.836582677165355
 20
-3.355452755905512
 10
-9.82159842519685
 20
-3.455968503937008
  0
LWPOLYLINE
  5
65
330
1F
100
AcDbEntity
  8
Layer 1
 62
     7
370
    15
100
AcDbPolyline
 90
        5
 70
     0
 43
0.0
 10
-9.866125984251969
 20
-2.642787401574803
 10
-10.67761417322835
 20
-3.01911811023622
 10
-10.67761417322835
 20
-3.777311023622047
 10
-10.44709842519685
 20
-3.86661811023622
 10
-9.88928346456693
 20
-3.60438188976378
  0
LWPOLYLINE
  5
66
330
1F
100
AcDbEntity
  8
Layer 1
 62
     7
370
    15
100
AcDbPolyline
 90
        3
 70
     0
 43
0.0
 10
-9.86046062992126
 20
-2.839425196850394
 10
-10.45420078740158
 20
-3.106350393700787
 10
-10.44709842519685
 20
-3.86661811023622
  0
LWPOLYLINE
  5
67
330
1F
100
AcDbEntity
  8
Layer 1
 62
     7
370
    15
100
AcDbPolyline
 90
        2
 70
     0
 43
0.0
 10
-10.45420078740158
 20
-3.106350393700787
 10
-10.67761417322835
 20
-3.01911811023622
  0
LWPOLYLINE
  5
68
330
1F
100
AcDbEntity
  8
Layer 1
 62
     7
370
    15
100
AcDbPolyline
 90
        4
 70
     0
 43
0.0
 10
-9.852515748031497
 20
-3.064468503937008
 10
-10.07142519685039
 20
-3.157830708661417
 10
-10.07142519685039
 20
-3.454279527559055
 10
-9.875547244094488
 20
-3.516748031496063
  0
LWPOLYLINE
  5
69
330
1F
100
AcDbEntity
  8
Layer 1
 62
     7
370
    15
100
AcDbPolyline
 90
        2
 70
     0
 43
0.0
 10
-10.07142519685039
 20
-3.157830708661417
 10
-9.843531496062992
 20
-3.252948818897638
  0
LWPOLYLINE
  5
6A
330
1F
100
AcDbEntity
  8
Layer 1
 62
     7
370
    15
100
AcDbPolyline
 90
       65
 70
     1
 43
0.0
 10
-9.663503937007874
 20
-1.548905511811024
 10
-9.669688976377953
 20
-1.546417322834646
 10
-9.684877952755906
 20
-1.539342519685039
 10
-9.704027559055119
 20
-1.528259842519685
 10
-9.722086614173229
 20
-1.513748031496063
 10
-9.734007874015749
 20
-1.49638188976378
 10
-9.734744094488189
 20
-1.476744094488189
 10
-9.719251968503936
 20
-1.455417322834646
 10
-9.68248031496063
 20
-1.432972440944882
 10
-9.648114173228347
 20
-1.417566929133858
 10
-9.556606299212598
 20
-1.376448818897638
 10
-9.425346456692914
 20
-1.317271653543307
 10
-9.271716535433072
 20
-1.247681102362205
 10
-9.113106299212598
 20
-1.175326771653543
 10
-8.966905511811024
 20
-1.107866141732283
 10
-8.850492125984252
 20
-1.052937007874016
 10
-8.78126377952756
 20
-1.018200787401575
 10
-8.776846456692914
 20
-1.016133858267717
 10
-8.763708661417322
 20
-1.011637795275591
 10
-8.742035433070866
 20
-1.007275590551181
 10
-8.712
 20
-1.005610236220472
 10
-8.67378346456693
 20
-1.009196850393701
 10
-8.627562992125984
 20
-1.020602362204724
 10
-8.573515748031497
 20
-1.04238188976378
 10
-8.511822834645669
 20
-1.07709842519685
 10
-8.477279527559055
 20
-1.0915
 10
-8.385236220472441
 20
-1.129594488188976
 10
-8.253082677165354
 20
-1.183720472440945
 10
-8.098208661417322
 20
-1.246220472440945
 10
-7.937996062992126
 20
-1.309433070866142
 10
-7.789834645669291
 20
-1.365696850393701
 10
-7.671110236220472
 20
-1.407350393700787
 10
-7.599212598425197
 20
-1.426736220472441
 10
-7.594039370078741
 20
-1.427874015748031
 10
-7.580948818897638
 20
-1.431220472440945
 10
-7.563586614173229
 20
-1.436657480314961
 10
-7.545602362204725
 20
-1.444074803149606
 10
-7.530641732283464
 20
-1.453366141732283
 10
-7.522354330708661
 20
-1.464413385826772
 10
-7.524385826771653
 20
-1.477106299212599
 10
-7.540381889763779
 20
-1.491338582677165
 10
-7.572807086614173
 20
-1.505661417322835
 10
-7.659700787401575
 20
-1.544169291338583
 10
-7.785472440944882
 20
-1.600157480314961
 10
-7.93453937007874
 20
-1.666929133858268
 10
-8.09132283464567
 20
-1.737787401574803
 10
-8.240232283464566
 20
-1.806031496062992
 10
-8.365685039370078
 20
-1.86496062992126
 10
-8.452102362204725
 20
-1.907881889763779
 10
-8.48463779527559
 20
-1.915259842519685
 10
-8.518452755905512
 20
-1.919338582677165
 10
-8.553062992125984
 20
-1.920429133858268
 10
-8.587992125984252
 20
-1.918854330708661
 10
-8.622755905511811
 20
-1.914929133858268
 10
-8.656877952755906
 20
-1.908972440944882
 10
-8.689874015748032
 20
-1.901307086614173
 10
-8.721267716535433
 20
-1.892244094488189
 10
-8.802114173228347
 20
-1.858177165354331
 10
-8.922570866141733
 20
-1.813610236220472
 10
-9.068114173228347
 20
-1.762527559055118
 10
-9.224212598425197
 20
-1.708917322834646
 10
-9.376330708661417
 20
-1.656763779527559
 10
-9.509937007874015
 20
-1.610055118110236
 10
-9.610507874015749
 20
-1.572771653543307
 10
-9.663503937007874
 20
-1.548905511811024
  0
LWPOLYLINE
  5
6B
330
1F
100
AcDbEntity
  8
Layer 1
 62
     7
370
    15
100
AcDbPolyline
 90
       33
 70
     0
 43
0.0
 10
-9.88738188976378
 20
-1.537070866141732
 10
-9.839850393700788
 20
-1.555889763779527
 10
-9.71348031496063
 20
-1.605657480314961
 10
-9.532586614173228
 20
-1.67636220472441
 10
-9.321503937007874
 20
-1.757976377952756
 10
-9.104547244094489
 20
-1.84048031496063
 10
-8.906047244094488
 20
-1.913858267716535
 10
-8.750330708661417
 20
-1.96807874015748
 10
-8.66171653543307
 20
-1.993129921259843
 10
-8.655291338582677
 20
-1.9955
 10
-8.636633858267716
 20
-2.000708661417323
 10
-8.60668503937008
 20
-2.005913385826771
 10
-8.566374015748032
 20
-2.008263779527559
 10
-8.516633858267717
 20
-2.004913385826772
 10
-8.45840157480315
 20
-1.993015748031496
 10
-8.392610236220472
 20
-1.969720472440945
 10
-8.320192913385826
 20
-1.932185039370079
 10
-8.298929133858268
 20
-1.921728346456693
 10
-8.240893700787401
 20
-1.893464566929134
 10
-8.154700787401575
 20
-1.852035433070866
 10
-8.04898031496063
 20
-1.802086614173228
 10
-7.932350393700787
 20
-1.748271653543307
 10
-7.813437007874016
 20
-1.695232283464567
 10
-7.70086220472441
 20
-1.647622047244095
 10
-7.603248031496063
 20
-1.610082677165354
 10
-7.575870078740158
 20
-1.60057874015748
 10
-7.546956692913386
 20
-1.590374015748031
 10
-7.517523622047244
 20
-1.57896062992126
 10
-7.488590551181102
 20
-1.565842519685039
 10
-7.461173228346457
 20
-1.550511811023622
 10
-7.436283464566929
 20
-1.532464566929134
 10
-7.414948818897638
 20
-1.511204724409449
 10
-7.398181102362205
 20
-1.486224409448819
  0
LWPOLYLINE
  5
6C
330
1F
100
AcDbEntity
  8
Layer 1
 62
     7
370
    15
100
AcDbPolyline
 90
        2
 70
     0
 43
0.0
 10
-8.539527559055118
 20
-2.007267716535433
 10
-8.643330708661418
 20
-3.98563779527559
  0
LWPOLYLINE
  5
6D
330
1F
100
AcDbEntity
  8
Layer 1
 62
     7
370
    18
100
AcDbPolyline
 90
        4
 70
     1
 43
0.0
 10
-6.985011811023622
 20
-1.110244094488189
 10
-6.999188976377953
 20
-1.083055118110236
 10
-7.014562992125985
 20
-1.109582677165354
 10
-6.985011811023622
 20
-1.110244094488189
  0
LWPOLYLINE
  5
6E
330
1F
100
AcDbEntity
  8
Layer 1
 62
     7
370
    18
100
AcDbPolyline
 90
        4
 70
     1
 43
0.0
 10
-7.043043307086614
 20
-3.709228346456693
 10
-7.058417322834646
 20
-3.735755905511811
 10
-7.072594488188976
 20
-3.708566929133858
 10
-7.043043307086614
 20
-3.709228346456693
  0
LWPOLYLINE
  5
6F
330
1F
100
AcDbEntity
  8
Layer 1
 62
     7
370
    18
100
AcDbPolyline
 90
        2
 70
     0
 43
0.0
 10
-7.000566929133858
 20
-1.074066929133858
 10
-7.060196850393701
 20
-3.744677165354331
  0
LWPOLYLINE
  5
70
330
1F
100
AcDbEntity
  8
Layer 1
 62
     7
370
     9
100
AcDbPolyline
 90
        7
 70
     1
 43
0.0
 10
-6.747535433070866
 20
-2.724377952755905
 10
-6.718397637795276
 20
-2.724377952755905
 10
-6.718397637795276
 20
-2.437771653543307
 10
-6.788318897637796
 20
-2.445275590551181
 10
-6.788318897637796
 20
-2.470677165354331
 10
-6.747535433070866
 20
-2.470677165354331
 10
-6.747535433070866
 20
-2.724377952755905
  0
LWPOLYLINE
  5
71
330
1F
100
AcDbEntity
  8
Layer 1
 62
     7
370
     9
100
AcDbPolyline
 90
       81
 70
     1
 43
0.0
 10
-6.550476377952756
 20
-2.474007874015748
 10
-6.545665354330708
 20
-2.477275590551181
 10
-6.541181102362205
 20
-2.480988188976378
 10
-6.53701968503937
 20
-2.485141732283465
 10
-6.533185039370078
 20
-2.489740157480315
 10
-6.529677165354331
 20
-2.494779527559055
 10
-6.526496062992126
 20
-2.500259842519685
 10
-6.523641732283465
 20
-2.506185039370079
 10
-6.521118110236221
 20
-2.512547244094488
 10
-6.518291338582677
 20
-2.520992125984252
 10
-6.515838582677166
 20
-2.529562992125984
 10
-6.513767716535433
 20
-2.538259842519685
 10
-6.512070866141732
 20
-2.547074803149606
 10
-6.510751968503937
 20
-2.556015748031496
 10
-6.509807086614173
 20
-2.56507874015748
 10
-6.509244094488189
 20
-2.574267716535433
 10
-6.509055118110236
 20
-2.583574803149606
 10
-6.510283464566929
 20
-2.604181102362205
 10
-6.511728346456693
 20
-2.615385826771654
 10
-6.51361811023622
 20
-2.625968503937008
 10
-6.515948818897638
 20
-2.635933070866142
 10
-6.518720472440945
 20
-2.645275590551181
 10
-6.521937007874016
 20
-2.654
 10
-6.525590551181103
 20
-2.662106299212598
 10
-6.529688976377953
 20
-2.669594488188976
 10
-6.534224409448819
 20
-2.676464566929134
 10
-6.538366141732284
 20
-2.681637795275591
 10
-6.542728346456693
 20
-2.686122047244095
 10
-6.547311023622047
 20
-2.689917322834646
 10
-6.55211811023622
 20
-2.69301968503937
 10
-6.557149606299213
 20
-2.695433070866142
 10
-6.562401574803149
 20
-2.69715748031496
 10
-6.567874015748031
 20
-2.698188976377953
 10
-6.573574803149606
 20
-2.698535433070866
 10
-6.57992125984252
 20
-2.698192913385827
 10
-6.58596062992126
 20
-2.697169291338583
 10
-6.591696850393701
 20
-2.695464566929134
 10
-6.597125984251969
 20
-2.693074803149606
 10
-6.602251968503937
 20
-2.69
 10
-6.607070866141732
 20
-2.686244094488189
 10
-6.611582677165354
 20
-2.681807086614173
 10
-6.615787401574803
 20
-2.676685039370079
 10
-6.619287401574804
 20
-2.671633858267716
 10
-6.622464566929134
 20
-2.666271653543307
 10
-6.625330708661417
 20
-2.660594488188976
 10
-6.627881889763779
 20
-2.65459842519685
 10
-6.630125984251968
 20
-2.648413385826772
 10
-6.632082677165354
 20
-2.642149606299212
 10
-6.633759842519685
 20
-2.635807086614173
 10
-6.635149606299213
 20
-2.629397637795276
 10
-6.638700787401575
 20
-2.604397637795276
 10
-6.639728346456693
 20
-2.57655905511811
 10
-6.63944094488189
 20
-2.568236220472441
 10
-6.638582677165354
 20
-2.558956692913386
 10
-6.637149606299213
 20
-2.548728346456693
 10
-6.635149606299213
 20
-2.537547244094488
 10
-6.628086614173228
 20
-2.512346456692913
 10
-6.625622047244095
 20
-2.506255905511811
 10
-6.622822834645669
 20
-2.500476377952756
 10
-6.619692913385827
 20
-2.495007874015748
 10
-6.616224409448819
 20
-2.489854330708662
 10
-6.612397637795276
 20
-2.485094488188976
 10
-6.608208661417323
 20
-2.480834645669291
 10
-6.60365748031496
 20
-2.477070866141732
 10
-6.598744094488189
 20
-2.473807086614173
 10
-6.596129921259842
 20
-2.472393700787402
 10
-6.59340157480315
 20
-2.471165354330709
 10
-6.59055905511811
 20
-2.470125984251969
 10
-6.58759842519685
 20
-2.469271653543307
 10
-6.58451968503937
 20
-2.468606299212599
 10
-6.581326771653544
 20
-2.468133858267716
 10
-6.578011811023622
 20
-2.467846456692913
 10
-6.574582677165354
 20
-2.467751968503937
 10
-6.571165354330708
 20
-2.467850393700787
 10
-6.567858267716535
 20
-2.468145669291339
 10
-6.564669291338583
 20
-2.46863779527559
 10
-6.56159842519685
 20
-2.469322834645669
 10
-6.55863779527559
 20
-2.470204724409449
 10
-6.555799212598425
 20
-2.471279527559055
 10
-6.55307874015748
 20
-2.472547244094488
 10
-6.550476377952756
 20
-2.474007874015748
  0
LWPOLYLINE
  5
72
330
1F
100
AcDbEntity
  8
Layer 1
 62
     7
370
     9
100
AcDbPolyline
 90
       65
 70
     1
 43
0.0
 10
-6.57313779527559
 20
-2.728110236220473
 10
-6.560988188976378
 20
-2.727338582677165
 10
-6.549614173228346
 20
-2.725023622047244
 10
-6.539007874015748
 20
-2.721169291338583
 10
-6.529181102362204
 20
-2.715771653543307
 10
-6.520125984251968
 20
-2.708830708661417
 10
-6.511846456692913
 20
-2.700346456692913
 10
-6.504342519685039
 20
-2.690322834645669
 10
-6.497614173228347
 20
-2.678755905511811
 10
-6.492877952755905
 20
-2.668665354330709
 10
-6.488771653543307
 20
-2.658011811023622
 10
-6.485299212598425
 20
-2.646799212598425
 10
-6.482456692913386
 20
-2.635027559055118
 10
-6.480248031496063
 20
-2.622692913385827
 10
-6.478673228346457
 20
-2.609799212598425
 10
-6.477724409448819
 20
-2.596342519685039
 10
-6.477409448818897
 20
-2.582326771653543
 10
-6.477724409448819
 20
-2.568311023622047
 10
-6.478673228346457
 20
-2.554858267716535
 10
-6.480248031496063
 20
-2.541964566929134
 10
-6.482456692913386
 20
-2.529629921259843
 10
-6.485299212598425
 20
-2.517858267716536
 10
-6.488771653543307
 20
-2.506645669291339
 10
-6.492877952755905
 20
-2.495992125984252
 10
-6.497614173228347
 20
-2.48590157480315
 10
-6.504342519685039
 20
-2.474322834645669
 10
-6.511846456692913
 20
-2.464287401574803
 10
-6.520125984251968
 20
-2.455799212598425
 10
-6.529181102362204
 20
-2.448854330708661
 10
-6.539007874015748
 20
-2.443452755905512
 10
-6.549614173228346
 20
-2.43959842519685
 10
-6.560988188976378
 20
-2.437283464566929
 10
-6.57313779527559
 20
-2.436511811023622
 10
-6.585291338582677
 20
-2.437283464566929
 10
-6.596669291338583
 20
-2.43959842519685
 10
-6.607275590551181
 20
-2.443452755905512
 10
-6.617106299212598
 20
-2.448854330708661
 10
-6.626161417322835
 20
-2.455799212598425
 10
-6.634444881889764
 20
-2.464287401574803
 10
-6.641952755905511
 20
-2.474322834645669
 10
-6.648692913385827
 20
-2.48590157480315
 10
-6.65342125984252
 20
-2.495992125984252
 10
-6.657515748031496
 20
-2.506645669291339
 10
-6.660984251968504
 20
-2.517858267716536
 10
-6.66382283464567
 20
-2.529629921259843
 10
-6.666027559055118
 20
-2.541964566929134
 10
-6.667606299212599
 20
-2.554858267716535
 10
-6.668551181102362
 20
-2.568311023622047
 10
-6.668866141732283
 20
-2.582326771653543
 10
-6.668551181102362
 20
-2.596342519685039
 10
-6.667606299212599
 20
-2.609799212598425
 10
-6.666027559055118
 20
-2.622692913385827
 10
-6.66382283464567
 20
-2.635027559055118
 10
-6.660984251968504
 20
-2.646799212598425
 10
-6.657515748031496
 20
-2.658011811023622
 10
-6.65342125984252
 20
-2.668665354330709
 10
-6.648692913385827
 20
-2.678755905511811
 10
-6.641952755905511
 20
-2.690322834645669
 10
-6.634444881889764
 20
-2.700346456692913
 10
-6.626161417322835
 20
-2.708830708661417
 10
-6.617106299212598
 20
-2.715771653543307
 10
-6.607275590551181
 20
-2.721169291338583
 10
-6.596669291338583
 20
-2.725023622047244
 10
-6.585291338582677
 20
-2.727338582677165
 10
-6.57313779527559
 20
-2.728110236220473
  0
LWPOLYLINE
  5
73
330
1F
100
AcDbEntity
  8
Layer 1
 62
     7
370
     9
100
AcDbPolyline
 90
       87
 70
     1
 43
0.0
 10
-6.430385826771653
 20
-2.724377952755905
 10
-6.231003937007874
 20
-2.724377952755905
 10
-6.231003937007874
 20
-2.695204724409449
 10
-6.360027559055118
 20
-2.695204724409449
 10
-6.261370078740158
 20
-2.597334645669291
 10
-6.25494094488189
 20
-2.590283464566929
 10
-6.249366141732284
 20
-2.58288188976378
 10
-6.244649606299213
 20
-2.575125984251969
 10
-6.240791338582677
 20
-2.567023622047244
 10
-6.237791338582677
 20
-2.558566929133858
 10
-6.235645669291339
 20
-2.549759842519685
 10
-6.234358267716535
 20
-2.54059842519685
 10
-6.233929133858267
 20
-2.531086614173228
 10
-6.234366141732283
 20
-2.521366141732284
 10
-6.235681102362205
 20
-2.512031496062992
 10
-6.237874015748032
 20
-2.503090551181102
 10
-6.240944881889764
 20
-2.49453937007874
 10
-6.244893700787402
 20
-2.486377952755905
 10
-6.249724409448818
 20
-2.478606299212598
 10
-6.255433070866141
 20
-2.471224409448819
 10
-6.262027559055118
 20
-2.464236220472441
 10
-6.269342519685039
 20
-2.457736220472441
 10
-6.27698031496063
 20
-2.452106299212598
 10
-6.284944881889764
 20
-2.447338582677165
 10
-6.293236220472441
 20
-2.44344094488189
 10
-6.301850393700787
 20
-2.440409448818897
 10
-6.310791338582677
 20
-2.438244094488189
 10
-6.320062992125984
 20
-2.436944881889764
 10
-6.32965748031496
 20
-2.436511811023622
 10
-6.339614173228346
 20
-2.436968503937008
 10
-6.3491968503937
 20
-2.438338582677166
 10
-6.358413385826772
 20
-2.44061811023622
 10
-6.367259842519685
 20
-2.443811023622047
 10
-6.375740157480315
 20
-2.447913385826772
 10
-6.383846456692913
 20
-2.452925196850394
 10
-6.391586614173228
 20
-2.458850393700788
 10
-6.398956692913385
 20
-2.465681102362205
 10
-6.405507874015748
 20
-2.473035433070866
 10
-6.411133858267717
 20
-2.480771653543307
 10
-6.415830708661417
 20
-2.488893700787401
 10
-6.419598425196851
 20
-2.497397637795276
 10
-6.422437007874016
 20
-2.506287401574803
 10
-6.424350393700787
 20
-2.515562992125984
 10
-6.425334645669292
 20
-2.525220472440945
 10
-6.425389763779528
 20
-2.535259842519685
 10
-6.395826771653543
 20
-2.535259842519685
 10
-6.396074803149606
 20
-2.528744094488189
 10
-6.395618110236221
 20
-2.522377952755905
 10
-6.39446062992126
 20
-2.516165354330709
 10
-6.392598425196851
 20
-2.510102362204724
 10
-6.390035433070866
 20
-2.504188976377953
 10
-6.386767716535434
 20
-2.498425196850394
 10
-6.382799212598425
 20
-2.492811023622047
 10
-6.378129921259842
 20
-2.487350393700787
 10
-6.373141732283464
 20
-2.482472440944882
 10
-6.367889763779528
 20
-2.478240157480315
 10
-6.362377952755906
 20
-2.474661417322835
 10
-6.356602362204725
 20
-2.471732283464567
 10
-6.350566929133858
 20
-2.469452755905512
 10
-6.344267716535433
 20
-2.467826771653543
 10
-6.337708661417323
 20
-2.466850393700788
 10
-6.330885826771653
 20
-2.466523622047244
 10
-6.324200787401574
 20
-2.466814960629921
 10
-6.317767716535433
 20
-2.467692913385827
 10
-6.311586614173228
 20
-2.469153543307087
 10
-6.30565748031496
 20
-2.471200787401575
 10
-6.299984251968504
 20
-2.473834645669291
 10
-6.294559055118111
 20
-2.477055118110236
 10
-6.289389763779528
 20
-2.480866141732283
 10
-6.284468503937008
 20
-2.485263779527559
 10
-6.279937007874016
 20
-2.49011811023622
 10
-6.276011811023622
 20
-2.495208661417323
 10
-6.272688976377953
 20
-2.500531496062992
 10
-6.269972440944882
 20
-2.506090551181102
 10
-6.267858267716536
 20
-2.511881889763779
 10
-6.266346456692913
 20
-2.517909448818898
 10
-6.26544094488189
 20
-2.524169291338583
 10
-6.26513779527559
 20
-2.530665354330709
 10
-6.265429133858268
 20
-2.537307086614173
 10
-6.266307086614173
 20
-2.543688976377953
 10
-6.267767716535433
 20
-2.549807086614173
 10
-6.269811023622047
 20
-2.555665354330709
 10
-6.272444881889764
 20
-2.561263779527559
 10
-6.275661417322834
 20
-2.566598425196851
 10
-6.279468503937008
 20
-2.571673228346457
 10
-6.283862204724409
 20
-2.576492125984252
 10
-6.430385826771653
 20
-2.724377952755905
  0
LWPOLYLINE
  5
74
330
1F
100
AcDbEntity
  8
Layer 1
 62
     7
370
     9
100
AcDbPolyline
 90
      135
 70
     1
 43
0.0
 10
-5.937153543307087
 20
-2.723551181102362
 10
-5.907996062992126
 20
-2.723551181102362
 10
-5.907996062992126
 20
-2.608992125984252
 10
-5.908232283464567
 20
-2.601385826771653
 10
-5.908948818897638
 20
-2.594137795275591
 10
-5.910137795275591
 20
-2.587244094488189
 10
-5.911803149606299
 20
-2.580708661417323
 10
-5.913940944881889
 20
-2.574531496062992
 10
-5.916555118110236
 20
-2.568712598425197
 10
-5.919645669291339
 20
-2.563255905511811
 10
-5.923204724409449
 20
-2.558153543307087
 10
-5.927299212598426
 20
-2.553405511811023
 10
-5.931893700787402
 20
-2.549157480314961
 10
-5.936976377952756
 20
-2.54540157480315
 10
-5.942551181102362
 20
-2.542137795275591
 10
-5.945582677165354
 20
-2.540712598425197
 10
-5.948850393700788
 20
-2.539484251968504
 10
-5.952354330708661
 20
-2.53844094488189
 10
-5.956090551181102
 20
-2.537590551181102
 10
-5.960055118110236
 20
-2.536929133858268
 10
-5.964259842519685
 20
-2.53646062992126
 10
-5.968692913385826
 20
-2.536177165354331
 10
-5.973358267716535
 20
-2.536082677165354
 10
-5.978070866141732
 20
-2.536244094488189
 10
-5.982633858267716
 20
-2.536736220472441
 10
-5.987043307086614
 20
-2.537551181102362
 10
-5.991307086614174
 20
-2.538692913385827
 10
-5.995421259842519
 20
-2.54015748031496
 10
-5.999385826771653
 20
-2.541944881889764
 10
-6.003200787401575
 20
-2.54405905511811
 10
-6.006870078740158
 20
-2.546496062992126
 10
-6.010047244094488
 20
-2.548933070866142
 10
-6.013082677165355
 20
-2.551551181102362
 10
-6.015972440944882
 20
-2.554346456692913
 10
-6.018724409448819
 20
-2.557318897637795
 10
-6.021330708661417
 20
-2.560464566929134
 10
-6.023799212598425
 20
-2.563787401574803
 10
-6.026122047244095
 20
-2.567279527559055
 10
-6.028307086614173
 20
-2.57094094488189
 10
-6.035992125984252
 20
-2.558153543307087
 10
-6.040090551181103
 20
-2.553405511811023
 10
-6.044685039370079
 20
-2.549157480314961
 10
-6.049775590551181
 20
-2.54540157480315
 10
-6.055358267716535
 20
-2.542137795275591
 10
-6.058385826771653
 20
-2.540712598425197
 10
-6.061649606299213
 20
-2.539484251968504
 10
-6.065145669291339
 20
-2.53844094488189
 10
-6.068881889763779
 20
-2.537590551181102
 10
-6.072850393700787
 20
-2.536929133858268
 10
-6.077051181102362
 20
-2.53646062992126
 10
-6.081492125984252
 20
-2.536177165354331
 10
-6.086161417322835
 20
-2.536082677165354
 10
-6.090870078740157
 20
-2.536244094488189
 10
-6.095433070866142
 20
-2.536736220472441
 10
-6.099846456692913
 20
-2.537551181102362
 10
-6.104110236220473
 20
-2.538692913385827
 10
-6.108224409448819
 20
-2.54015748031496
 10
-6.112188976377952
 20
-2.541944881889764
 10
-6.116
 20
-2.54405905511811
 10
-6.119661417322835
 20
-2.546496062992126
 10
-6.122692913385826
 20
-2.548814960629921
 10
-6.125594488188977
 20
-2.551287401574803
 10
-6.128366141732283
 20
-2.55392125984252
 10
-6.131007874015748
 20
-2.556712598425197
 10
-6.133515748031496
 20
-2.559661417322835
 10
-6.135897637795275
 20
-2.562771653543307
 10
-6.138149606299213
 20
-2.566043307086614
 10
-6.140271653543307
 20
-2.569476377952756
 10
-6.140271653543307
 20
-2.540255905511811
 10
-6.169409448818898
 20
-2.540255905511811
 10
-6.169409448818898
 20
-2.723551181102362
 10
-6.140271653543307
 20
-2.723551181102362
 10
-6.140271653543307
 20
-2.629732283464567
 10
-6.139594488188976
 20
-2.624271653543307
 10
-6.138708661417323
 20
-2.61901968503937
 10
-6.137614173228346
 20
-2.613984251968504
 10
-6.136311023622048
 20
-2.60915748031496
 10
-6.1348031496063
 20
-2.60453937007874
 10
-6.133086614173228
 20
-2.600122047244095
 10
-6.131161417322835
 20
-2.595913385826772
 10
-6.129031496062992
 20
-2.59190157480315
 10
-6.125413385826771
 20
-2.586338582677165
 10
-6.121220472440945
 20
-2.581287401574803
 10
-6.116456692913386
 20
-2.576751968503937
 10
-6.111114173228346
 20
-2.572740157480315
 10
-6.108279527559055
 20
-2.570988188976378
 10
-6.105393700787402
 20
-2.569468503937008
 10
-6.102456692913385
 20
-2.568181102362205
 10
-6.099468503937008
 20
-2.567129921259843
 10
-6.096429133858268
 20
-2.566307086614173
 10
-6.093338582677165
 20
-2.565720472440945
 10
-6.090196850393701
 20
-2.565370078740158
 10
-6.087003937007874
 20
-2.565251968503937
 10
-6.080964566929134
 20
-2.5655
 10
-6.075759842519685
 20
-2.566240157480315
 10
-6.071385826771653
 20
-2.567476377952756
 10
-6.06784251968504
 20
-2.569208661417323
 10
-6.063641732283465
 20
-2.572314960629921
 10
-6.060003937007874
 20
-2.575952755905512
 10
-6.056925196850393
 20
-2.580125984251969
 10
-6.054405511811024
 20
-2.584834645669291
 10
-6.052444881889763
 20
-2.590074803149606
 10
-6.051043307086614
 20
-2.595850393700788
 10
-6.050204724409449
 20
-2.602153543307087
 10
-6.049925196850394
 20
-2.608992125984252
 10
-6.049925196850394
 20
-2.723551181102362
 10
-6.020818897637795
 20
-2.723551181102362
 10
-6.020818897637795
 20
-2.608992125984252
 10
-6.021003937007874
 20
-2.601976377952756
 10
-6.016224409448819
 20
-2.59190157480315
 10
-6.012614173228346
 20
-2.586338582677165
 10
-6.008429133858268
 20
-2.581287401574803
 10
-6.003665354330709
 20
-2.576751968503937
 10
-5.998322834645669
 20
-2.572740157480315
 10
-5.995488188976378
 20
-2.570988188976378
 10
-5.992606299212598
 20
-2.569468503937008
 10
-5.989665354330708
 20
-2.568181102362205
 10
-5.98667716535433
 20
-2.567129921259843
 10
-5.983629921259842
 20
-2.566307086614173
 10
-5.980535433070866
 20
-2.565720472440945
 10
-5.977385826771654
 20
-2.565370078740158
 10
-5.974181102362205
 20
-2.565251968503937
 10
-5.968153543307086
 20
-2.5655
 10
-5.962948818897638
 20
-2.566240157480315
 10
-5.958574803149606
 20
-2.567476377952756
 10
-5.955035433070866
 20
-2.569208661417323
 10
-5.950846456692913
 20
-2.572314960629921
 10
-5.947216535433071
 20
-2.575952755905512
 10
-5.944145669291339
 20
-2.580125984251969
 10
-5.941629921259842
 20
-2.584834645669291
 10
-5.939673228346456
 20
-2.590074803149606
 10
-5.938271653543307
 20
-2.595850393700788
 10
-5.937433070866142
 20
-2.602153543307087
 10
-5.937153543307087
 20
-2.608992125984252
 10
-5.937153543307087
 20
-2.723551181102362
  0
LWPOLYLINE
  5
75
330
1F
100
AcDbEntity
  8
Layer 1
 62
     7
370
     9
100
AcDbPolyline
 90
      135
 70
     1
 43
0.0
 10
-5.61957874015748
 20
-2.723551181102362
 10
-5.59044094488189
 20
-2.723551181102362
 10
-5.59044094488189
 20
-2.608992125984252
 10
-5.590677165354331
 20
-2.601385826771653
 10
-5.591389763779527
 20
-2.594137795275591
 10
-5.592578740157481
 20
-2.587244094488189
 10
-5.594240157480315
 20
-2.580708661417323
 10
-5.596374015748031
 20
-2.574531496062992
 10
-5.598988188976378
 20
-2.568712598425197
 10
-5.602070866141732
 20
-2.563255905511811
 10
-5.605633858267717
 20
-2.558153543307087
 10
-5.609736220472441
 20
-2.553405511811023
 10
-5.614326771653543
 20
-2.549157480314961
 10
-5.619409448818898
 20
-2.54540157480315
 10
-5.62498031496063
 20
-2.542137795275591
 10
-5.628011811023622
 20
-2.540712598425197
 10
-5.631279527559055
 20
-2.539484251968504
 10
-5.634779527559055
 20
-2.53844094488189
 10
-5.638515748031496
 20
-2.537590551181102
 10
-5.642484251968504
 20
-2.536929133858268
 10
-5.646685039370078
 20
-2.53646062992126
 10
-5.651122047244095
 20
-2.536177165354331
 10
-5.655787401574803
 20
-2.536082677165354
 10
-5.6605
 20
-2.536244094488189
 10
-5.665062992125984
 20
-2.536736220472441
 10
-5.669472440944882
 20
-2.537551181102362
 10
-5.673736220472441
 20
-2.538692913385827
 10
-5.677846456692913
 20
-2.54015748031496
 10
-5.681811023622047
 20
-2.541944881889764
 10
-5.685629921259842
 20
-2.54405905511811
 10
-5.689299212598425
 20
-2.546496062992126
 10
-5.692476377952756
 20
-2.548933070866142
 10
-5.695511811023622
 20
-2.551551181102362
 10
-5.69840157480315
 20
-2.554346456692913
 10
-5.701153543307087
 20
-2.557318897637795
 10
-5.703759842519685
 20
-2.560464566929134
 10
-5.706224409448819
 20
-2.563787401574803
 10
-5.708551181102362
 20
-2.567279527559055
 10
-5.710732283464567
 20
-2.57094094488189
 10
-5.718421259842519
 20
-2.558153543307087
 10
-5.722527559055118
 20
-2.553405511811023
 10
-5.72711811023622
 20
-2.549157480314961
 10
-5.732204724409449
 20
-2.54540157480315
 10
-5.737787401574803
 20
-2.542137795275591
 10
-5.740814960629922
 20
-2.540712598425197
 10
-5.74407874015748
 20
-2.539484251968504
 10
-5.747574803149607
 20
-2.53844094488189
 10
-5.751311023622047
 20
-2.537590551181102
 10
-5.755279527559055
 20
-2.536929133858268
 10
-5.75948031496063
 20
-2.53646062992126
 10
-5.76392125984252
 20
-2.536177165354331
 10
-5.768590551181102
 20
-2.536082677165354
 10
-5.773299212598425
 20
-2.536244094488189
 10
-5.77786220472441
 20
-2.536736220472441
 10
-5.782271653543307
 20
-2.537551181102362
 10
-5.78653937007874
 20
-2.538692913385827
 10
-5.790649606299213
 20
-2.54015748031496
 10
-5.794614173228346
 20
-2.541944881889764
 10
-5.798425196850394
 20
-2.54405905511811
 10
-5.802086614173228
 20
-2.546496062992126
 10
-5.805122047244095
 20
-2.548814960629921
 10
-5.808023622047244
 20
-2.551287401574803
 10
-5.810799212598425
 20
-2.55392125984252
 10
-5.81344094488189
 20
-2.556712598425197
 10
-5.815952755905512
 20
-2.559661417322835
 10
-5.818330708661417
 20
-2.562771653543307
 10
-5.82057874015748
 20
-2.566043307086614
 10
-5.822696850393701
 20
-2.569476377952756
 10
-5.822696850393701
 20
-2.540255905511811
 10
-5.851838582677165
 20
-2.540255905511811
 10
-5.851838582677165
 20
-2.723551181102362
 10
-5.822696850393701
 20
-2.723551181102362
 10
-5.822696850393701
 20
-2.629732283464567
 10
-5.82201968503937
 20
-2.624271653543307
 10
-5.821133858267716
 20
-2.61901968503937
 10
-5.820039370078741
 20
-2.613984251968504
 10
-5.818736220472441
 20
-2.60915748031496
 10
-5.817228346456693
 20
-2.60453937007874
 10
-5.815511811023622
 20
-2.600122047244095
 10
-5.813590551181102
 20
-2.595913385826772
 10
-5.811460629921259
 20
-2.59190157480315
 10
-5.807842519685039
 20
-2.586338582677165
 10
-5.803649606299213
 20
-2.581287401574803
 10
-5.798889763779528
 20
-2.576751968503937
 10
-5.79355905511811
 20
-2.572740157480315
 10
-5.790720472440944
 20
-2.570988188976378
 10
-5.787830708661417
 20
-2.569468503937008
 10
-5.784889763779527
 20
-2.568181102362205
 10
-5.781897637795276
 20
-2.567129921259843
 10
-5.778858267716536
 20
-2.566307086614173
 10
-5.775767716535433
 20
-2.565720472440945
 10
-5.772625984251968
 20
-2.565370078740158
 10
-5.769433070866142
 20
-2.565251968503937
 10
-5.763389763779528
 20
-2.5655
 10
-5.758185039370079
 20
-2.566240157480315
 10
-5.753814960629922
 20
-2.567476377952756
 10
-5.750271653543307
 20
-2.569208661417323
 10
-5.74607874015748
 20
-2.572314960629921
 10
-5.742440944881889
 20
-2.575952755905512
 10
-5.739366141732283
 20
-2.580125984251969
 10
-5.736846456692914
 20
-2.584834645669291
 10
-5.734889763779528
 20
-2.590074803149606
 10
-5.733488188976378
 20
-2.595850393700788
 10
-5.732649606299213
 20
-2.602153543307087
 10
-5.732370078740158
 20
-2.608992125984252
 10
-5.732370078740158
 20
-2.723551181102362
 10
-5.703248031496063
 20
-2.723551181102362
 10
-5.703248031496063
 20
-2.608992125984252
 10
-5.703433070866142
 20
-2.601976377952756
 10
-5.698653543307087
 20
-2.59190157480315
 10
-5.695043307086614
 20
-2.586338582677165
 10
-5.690858267716536
 20
-2.581287401574803
 10
-5.68609842519685
 20
-2.576751968503937
 10
-5.680767716535433
 20
-2.572740157480315
 10
-5.677929133858267
 20
-2.570988188976378
 10
-5.67503937007874
 20
-2.569468503937008
 10
-5.67209842519685
 20
-2.568181102362205
 10
-5.669106299212598
 20
-2.567129921259843
 10
-5.666062992125984
 20
-2.566307086614173
 10
-5.662964566929134
 20
-2.565720472440945
 10
-5.659814960629921
 20
-2.565370078740158
 10
-5.656610236220472
 20
-2.565251968503937
 10
-5.650586614173228
 20
-2.5655
 10
-5.645385826771654
 20
-2.566240157480315
 10
-5.641011811023622
 20
-2.567476377952756
 10
-5.637464566929133
 20
-2.569208661417323
 10
-5.633275590551182
 20
-2.572314960629921
 10
-5.629645669291339
 20
-2.575952755905512
 10
-5.626570866141733
 20
-2.580125984251969
 10
-5.624055118110237
 20
-2.584834645669291
 10
-5.62209842519685
 20
-2.590074803149606
 10
-5.620696850393701
 20
-2.595850393700788
 10
-5.619858267716536
 20
-2.602153543307087
 10
-5.61957874015748
 20
-2.608992125984252
 10
-5.61957874015748
 20
-2.723551181102362
  0
LWPOLYLINE
  5
76
330
1F
100
AcDbEntity
  8
Layer 1
 62
     7
370
    18
100
AcDbPolyline
 90
        4
 70
     1
 43
0.0
 10
-8.707779527559055
 20
-4.819472440944882
 10
-8.724712598425198
 20
-4.84503937007874
 10
-8.694055118110237
 20
-4.845649606299212
 10
-8.707779527559055
 20
-4.819472440944882
  0
LWPOLYLINE
  5
77
330
1F
100
AcDbEntity
  8
Layer 1
 62
     7
370
    18
100
AcDbPolyline
 90
        4
 70
     1
 43
0.0
 10
-6.99257874015748
 20
-3.920129921259842
 10
-6.961921259842519
 20
-3.920740157480315
 10
-6.978854330708661
 20
-3.946307086614173
 10
-6.99257874015748
 20
-3.920129921259842
  0
LWPOLYLINE
  5
78
330
1F
100
AcDbEntity
  8
Layer 1
 62
     7
370
    18
100
AcDbPolyline
 90
        2
 70
     0
 43
0.0
 10
-8.731913385826772
 20
-4.850594488188976
 10
-6.953259842519685
 20
-3.91798031496063
  0
LWPOLYLINE
  5
79
330
1F
100
AcDbEntity
  8
Layer 1
 62
     7
370
     9
100
AcDbPolyline
 90
       65
 70
     1
 43
0.0
 10
-7.647055118110236
 20
-4.721413385826772
 10
-7.640413385826772
 20
-4.721720472440945
 10
-7.63401968503937
 20
-4.722637795275591
 10
-7.627874015748032
 20
-4.724165354330709
 10
-7.621972440944882
 20
-4.726307086614173
 10
-7.616322834645669
 20
-4.72905905511811
 10
-7.610917322834646
 20
-4.732421259842519
 10
-7.605759842519685
 20
-4.736393700787402
 10
-7.600854330708661
 20
-4.740976377952756
 10
-7.596413385826772
 20
-4.745944881889764
 10
-7.592562992125984
 20
-4.751141732283465
 10
-7.589307086614173
 20
-4.756574803149606
 10
-7.586645669291339
 20
-4.762240157480315
 10
-7.584570866141732
 20
-4.768133858267716
 10
-7.583094488188976
 20
-4.774263779527559
 10
-7.582204724409449
 20
-4.780625984251968
 10
-7.581909448818898
 20
-4.787220472440945
 10
-7.582208661417323
 20
-4.793673228346456
 10
-7.583106299212599
 20
-4.799901574803149
 10
-7.584598425196851
 20
-4.805913385826772
 10
-7.586692913385827
 20
-4.811700787401575
 10
-7.589381889763779
 20
-4.817267716535433
 10
-7.592669291338582
 20
-4.822610236220473
 10
-7.596555118110237
 20
-4.827732283464567
 10
-7.60103937007874
 20
-4.832625984251968
 10
-7.605858267716536
 20
-4.83701968503937
 10
-7.610952755905512
 20
-4.840830708661417
 10
-7.616322834645669
 20
-4.844055118110236
 10
-7.621964566929134
 20
-4.846692913385827
 10
-7.627881889763779
 20
-4.848744094488189
 10
-7.634066929133859
 20
-4.850208661417323
 10
-7.640527559055118
 20
-4.851090551181103
 10
-7.647255905511811
 20
-4.85138188976378
 10
-7.653858267716536
 20
-4.85107874015748
 10
-7.660236220472441
 20
-4.850173228346456
 10
-7.666393700787402
 20
-4.848661417322835
 10
-7.672330708661417
 20
-4.846543307086614
 10
-7.678043307086615
 20
-4.843818897637795
 10
-7.683535433070866
 20
-4.840488188976378
 10
-7.688807086614173
 20
-4.836551181102362
 10
-7.693858267716536
 20
-4.832003937007874
 10
-7.69844094488189
 20
-4.827098425196851
 10
-7.702417322834646
 20
-4.821952755905512
 10
-7.705779527559055
 20
-4.81655905511811
 10
-7.708531496062992
 20
-4.810929133858267
 10
-7.710673228346456
 20
-4.805051181102362
 10
-7.712200787401575
 20
-4.798933070866141
 10
-7.713118110236221
 20
-4.792574803149606
 10
-7.713425196850394
 20
-4.785976377952756
 10
-7.713118110236221
 20
-4.779413385826771
 10
-7.712200787401575
 20
-4.773102362204725
 10
-7.710673228346456
 20
-4.767047244094488
 10
-7.708531496062992
 20
-4.761244094488189
 10
-7.705779527559055
 20
-4.755696850393701
 10
-7.702417322834646
 20
-4.750401574803149
 10
-7.69844094488189
 20
-4.745362204724409
 10
-7.693858267716536
 20
-4.740574803149606
 10
-7.689098425196851
 20
-4.736425196850393
 10
-7.683976377952756
 20
-4.732712598425197
 10
-7.678492125984252
 20
-4.729444881889764
 10
-7.672641732283465
 20
-4.726629921259843
 10
-7.66651968503937
 20
-4.724346456692913
 10
-7.66021653543307
 20
-4.72271653543307
 10
-7.653724409448819
 20
-4.721740157480315
 10
-7.647055118110236
 20
-4.721413385826772
  0
LWPOLYLINE
  5
7A
330
1F
100
AcDbEntity
  8
Layer 1
 62
     7
370
     9
100
AcDbPolyline
 90
       69
 70
     1
 43
0.0
 10
-7.552334645669291
 20
-4.785153543307087
 10
-7.552791338582677
 20
-4.775122047244095
 10
-7.554161417322835
 20
-4.765547244094488
 10
-7.556440944881889
 20
-4.756425196850394
 10
-7.559633858267716
 20
-4.747763779527559
 10
-7.563732283464567
 20
-4.739555118110236
 10
-7.568744094488189
 20
-4.731803149606299
 10
-7.574665354330708
 20
-4.724511811023622
 10
-7.581492125984252
 20
-4.71767716535433
 10
-7.588468503937007
 20
-4.711905511811024
 10
-7.595933070866142
 20
-4.706850393700788
 10
-7.603885826771654
 20
-4.7025
 10
-7.612330708661418
 20
-4.698862204724409
 10
-7.621263779527559
 20
-4.695937007874016
 10
-7.630685039370078
 20
-4.693720472440945
 10
-7.640594488188976
 20
-4.692212598425197
 10
-7.650992125984252
 20
-4.691417322834646
 10
-7.659318897637795
 20
-4.696834645669291
 10
-7.572759842519685
 20
-4.592688976377953
 10
-7.611035433070866
 20
-4.592688976377953
 10
-7.721751968503937
 20
-4.726409448818898
 10
-7.726728346456693
 20
-4.73292125984252
 10
-7.73103937007874
 20
-4.739696850393701
 10
-7.734688976377953
 20
-4.746744094488189
 10
-7.737673228346456
 20
-4.754055118110236
 10
-7.739996062992126
 20
-4.761633858267716
 10
-7.74165748031496
 20
-4.76948031496063
 10
-7.742653543307086
 20
-4.777594488188976
 10
-7.742984251968504
 20
-4.785976377952756
 10
-7.742547244094488
 20
-4.795633858267717
 10
-7.741244094488189
 20
-4.804917322834646
 10
-7.739062992125985
 20
-4.813834645669291
 10
-7.736015748031496
 20
-4.822377952755906
 10
-7.732094488188976
 20
-4.830551181102362
 10
-7.727299212598425
 20
-4.838354330708661
 10
-7.721629921259843
 20
-4.845787401574803
 10
-7.715090551181103
 20
-4.852846456692913
 10
-7.707893700787402
 20
-4.859338582677165
 10
-7.700342519685039
 20
-4.864964566929133
 10
-7.69244094488189
 20
-4.869724409448819
 10
-7.684188976377953
 20
-4.873618110236221
 10
-7.675586614173229
 20
-4.876645669291339
 10
-7.666629921259842
 20
-4.878807086614173
 10
-7.65732283464567
 20
-4.880102362204725
 10
-7.647661417322834
 20
-4.880535433070866
 10
-7.637866141732284
 20
-4.880106299212598
 10
-7.628464566929134
 20
-4.878818897637795
 10
-7.619448818897638
 20
-4.876673228346457
 10
-7.61082283464567
 20
-4.873669291338583
 10
-7.602590551181103
 20
-4.869807086614173
 10
-7.594748031496063
 20
-4.865086614173229
 10
-7.587299212598425
 20
-4.859507874015748
 10
-7.580244094488189
 20
-4.853066929133858
 10
-7.577098425196851
 20
-4.849767716535433
 10
-7.574125984251968
 20
-4.846338582677165
 10
-7.571318897637795
 20
-4.842779527559055
 10
-7.568685039370079
 20
-4.839094488188977
 10
-7.566220472440945
 20
-4.835279527559055
 10
-7.563925196850394
 20
-4.831334645669291
 10
-7.561795275590551
 20
-4.827259842519685
 10
-7.559838582677165
 20
-4.823055118110236
 10
-7.558082677165355
 20
-4.818728346456693
 10
-7.55655905511811
 20
-4.814287401574803
 10
-7.555267716535433
 20
-4.809724409448819
 10
-7.554212598425197
 20
-4.805043307086614
 10
-7.553389763779528
 20
-4.800244094488189
 10
-7.552803149606299
 20
-4.795330708661417
 10
-7.552452755905512
 20
-4.790299212598425
 10
-7.552334645669291
 20
-4.785153543307087
  0
LWPOLYLINE
  5
7B
330
1F
100
AcDbEntity
  8
Layer 1
 62
     7
370
     9
100
AcDbPolyline
 90
       65
 70
     1
 43
0.0
 10
-7.431653543307086
 20
-4.731811023622047
 10
-7.425476377952756
 20
-4.732078740157481
 10
-7.419543307086614
 20
-4.73288188976378
 10
-7.413846456692913
 20
-4.734216535433071
 10
-7.408389763779527
 20
-4.736086614173228
 10
-7.403173228346457
 20
-4.738492125984252
 10
-7.398196850393701
 20
-4.741433070866142
 10
-7.393464566929134
 20
-4.744909448818897
 10
-7.388972440944882
 20
-4.748917322834646
 10
-7.384925196850394
 20
-4.753255905511811
 10
-7.38142125984252
 20
-4.757838582677166
 10
-7.378452755905512
 20
-4.762673228346457
 10
-7.376023622047244
 20
-4.767755905511811
 10
-7.37413779527559
 20
-4.773082677165355
 10
-7.372787401574803
 20
-4.778657480314961
 10
-7.37198031496063
 20
-4.78448031496063
 10
-7.371708661417323
 20
-4.790551181102362
 10
-7.371976377952756
 20
-4.796574803149606
 10
-7.372775590551181
 20
-4.802393700787402
 10
-7.374110236220472
 20
-4.808007874015748
 10
-7.375976377952756
 20
-4.81342125984252
 10
-7.378374015748031
 20
-4.818633858267717
 10
-7.381307086614173
 20
-4.823641732283464
 10
-7.384771653543307
 20
-4.828452755905512
 10
-7.388771653543307
 20
-4.833062992125984
 10
-7.393157480314961
 20
-4.837255905511811
 10
-7.397814960629921
 20
-4.840893700787402
 10
-7.402755905511811
 20
-4.843968503937008
 10
-7.407972440944881
 20
-4.846484251968504
 10
-7.413472440944882
 20
-4.848444881889764
 10
-7.419248031496063
 20
-4.84984251968504
 10
-7.425311023622047
 20
-4.850681102362205
 10
-7.431653543307086
 20
-4.85096062992126
 10
-7.437992125984252
 20
-4.850681102362205
 10
-7.444051181102362
 20
-4.84984251968504
 10
-7.449826771653544
 20
-4.848444881889764
 10
-7.45532283464567
 20
-4.846484251968504
 10
-7.46053937007874
 20
-4.843968503937008
 10
-7.465476377952756
 20
-4.840893700787402
 10
-7.470137795275591
 20
-4.837255905511811
 10
-7.474523622047244
 20
-4.833062992125984
 10
-7.478523622047244
 20
-4.828452755905512
 10
-7.481988188976378
 20
-4.823641732283464
 10
-7.48492125984252
 20
-4.818633858267717
 10
-7.487318897637795
 20
-4.81342125984252
 10
-7.489185039370079
 20
-4.808007874015748
 10
-7.490515748031496
 20
-4.802393700787402
 10
-7.491314960629921
 20
-4.796574803149606
 10
-7.491582677165354
 20
-4.790551181102362
 10
-7.491311023622047
 20
-4.78448031496063
 10
-7.490503937007874
 20
-4.778657480314961
 10
-7.489153543307086
 20
-4.773082677165355
 10
-7.487263779527559
 20
-4.767755905511811
 10
-7.484834645669292
 20
-4.762673228346457
 10
-7.481866141732284
 20
-4.757838582677166
 10
-7.478354330708662
 20
-4.753255905511811
 10
-7.474303149606299
 20
-4.748917322834646
 10
-7.469814960629921
 20
-4.744909448818897
 10
-7.465086614173228
 20
-4.741433070866142
 10
-7.460114173228346
 20
-4.738492125984252
 10
-7.454905511811024
 20
-4.736086614173228
 10
-7.449448818897638
 20
-4.734216535433071
 10
-7.443755905511811
 20
-4.73288188976378
 10
-7.437826771653543
 20
-4.732078740157481
 10
-7.431653543307086
 20
-4.731811023622047
  0
LWPOLYLINE
  5
7C
330
1F
100
AcDbEntity
  8
Layer 1
 62
     7
370
     9
100
AcDbPolyline
 90
       65
 70
     1
 43
0.0
 10
-7.431653543307086
 20
-4.616846456692913
 10
-7.426677165354331
 20
-4.617055118110236
 10
-7.421885826771653
 20
-4.617681102362205
 10
-7.417283464566929
 20
-4.618720472440945
 10
-7.412870078740157
 20
-4.620177165354331
 10
-7.408641732283464
 20
-4.622051181102362
 10
-7.404606299212598
 20
-4.624342519685039
 10
-7.400755905511811
 20
-4.627047244094488
 10
-7.397098425196851
 20
-4.630169291338583
 10
-7.393685039370078
 20
-4.633681102362205
 10
-7.390724409448818
 20
-4.637397637795275
 10
-7.388220472440945
 20
-4.641314960629921
 10
-7.386173228346457
 20
-4.645433070866142
 10
-7.384578740157481
 20
-4.649755905511811
 10
-7.383440944881889
 20
-4.654279527559055
 10
-7.382755905511811
 20
-4.659003937007874
 10
-7.382527559055118
 20
-4.663929133858268
 10
-7.382755905511811
 20
-4.668744094488189
 10
-7.383440944881889
 20
-4.673405511811024
 10
-7.384578740157481
 20
-4.677909448818897
 10
-7.386173228346457
 20
-4.682255905511811
 10
-7.388220472440945
 20
-4.686444881889764
 10
-7.390724409448818
 20
-4.690476377952756
 10
-7.393685039370078
 20
-4.694354330708661
 10
-7.397098425196851
 20
-4.69807874015748
 10
-7.400736220472441
 20
-4.70140157480315
 10
-7.404566929133858
 20
-4.704283464566929
 10
-7.408590551181103
 20
-4.70671653543307
 10
-7.412811023622047
 20
-4.708708661417323
 10
-7.417228346456693
 20
-4.710255905511811
 10
-7.421838582677165
 20
-4.711362204724409
 10
-7.426649606299213
 20
-4.712023622047244
 10
-7.431653543307086
 20
-4.712244094488189
 10
-7.436653543307087
 20
-4.712023622047244
 10
-7.441456692913386
 20
-4.711362204724409
 10
-7.446066929133858
 20
-4.710255905511811
 10
-7.450484251968504
 20
-4.708708661417323
 10
-7.454700787401575
 20
-4.70671653543307
 10
-7.458728346456692
 20
-4.704283464566929
 10
-7.462555118110236
 20
-4.70140157480315
 10
-7.466192913385827
 20
-4.69807874015748
 10
-7.469606299212598
 20
-4.694354330708661
 10
-7.472566929133858
 20
-4.690476377952756
 10
-7.475070866141732
 20
-4.686444881889764
 10
-7.47711811023622
 20
-4.682255905511811
 10
-7.478712598425197
 20
-4.677909448818897
 10
-7.479854330708662
 20
-4.673405511811024
 10
-7.480535433070866
 20
-4.668744094488189
 10
-7.480763779527559
 20
-4.663929133858268
 10
-7.480535433070866
 20
-4.659003937007874
 10
-7.479854330708662
 20
-4.654279527559055
 10
-7.478712598425197
 20
-4.649755905511811
 10
-7.47711811023622
 20
-4.645433070866142
 10
-7.475070866141732
 20
-4.641314960629921
 10
-7.472566929133858
 20
-4.637397637795275
 10
-7.469606299212598
 20
-4.633681102362205
 10
-7.466192913385827
 20
-4.630169291338583
 10
-7.462535433070866
 20
-4.627047244094488
 10
-7.458685039370079
 20
-4.624342519685039
 10
-7.454649606299212
 20
-4.622051181102362
 10
-7.450425196850394
 20
-4.620177165354331
 10
-7.446015748031496
 20
-4.618720472440945
 10
-7.441413385826771
 20
-4.617681102362205
 10
-7.436625984251968
 20
-4.617055118110236
 10
-7.431653543307086
 20
-4.616846456692913
  0
LWPOLYLINE
  5
7D
330
1F
100
AcDbEntity
  8
Layer 1
 62
     7
370
     9
100
AcDbPolyline
 90
      121
 70
     1
 43
0.0
 10
-7.431653543307086
 20
-4.880133858267716
 10
-7.422110236220473
 20
-4.879771653543307
 10
-7.412956692913386
 20
-4.878685039370079
 10
-7.404181102362204
 20
-4.876877952755906
 10
-7.395795275590551
 20
-4.874346456692914
 10
-7.387791338582677
 20
-4.871094488188977
 10
-7.380173228346457
 20
-4.867122047244094
 10
-7.37294094488189
 20
-4.862433070866142
 10
-7.366090551181102
 20
-4.85701968503937
 10
-7.363003937007874
 20
-4.854185039370079
 10
-7.360082677165354
 20
-4.851208661417322
 10
-7.357330708661418
 20
-4.848090551181103
 10
-7.354748031496063
 20
-4.844826771653543
 10
-7.352330708661417
 20
-4.841421259842519
 10
-7.350086614173228
 20
-4.837870078740157
 10
-7.348011811023622
 20
-4.834177165354331
 10
-7.346102362204724
 20
-4.830338582677165
 10
-7.344401574803149
 20
-4.826366141732284
 10
-7.342925196850394
 20
-4.822248031496063
 10
-7.341673228346457
 20
-4.817984251968504
 10
-7.340653543307087
 20
-4.81357874015748
 10
-7.339858267716536
 20
-4.809031496062993
 10
-7.339287401574803
 20
-4.804342519685039
 10
-7.338948818897638
 20
-4.799511811023622
 10
-7.338834645669292
 20
-4.79453937007874
 10
-7.339027559055118
 20
-4.789488188976378
 10
-7.339602362204724
 20
-4.784452755905511
 10
-7.34055905511811
 20
-4.779429133858268
 10
-7.34190157480315
 20
-4.774425196850394
 10
-7.343625984251968
 20
-4.769433070866142
 10
-7.345736220472441
 20
-4.764452755905512
 10
-7.348228346456693
 20
-4.759488188976378
 10
-7.351102362204724
 20
-4.754535433070866
 10
-7.354338582677165
 20
-4.749704724409449
 10
-7.357909448818898
 20
-4.745098425196851
 10
-7.361807086614173
 20
-4.740720472440945
 10
-7.36603937007874
 20
-4.736570866141732
 10
-7.37059842519685
 20
-4.732645669291339
 10
-7.375492125984252
 20
-4.728948818897638
 10
-7.380712598425196
 20
-4.72548031496063
 10
-7.386263779527559
 20
-4.722236220472441
 10
-7.378366141732283
 20
-4.715185039370079
 10
-7.371523622047244
 20
-4.707984251968504
 10
-7.365728346456692
 20
-4.700629921259843
 10
-7.360992125984252
 20
-4.693129921259843
 10
-7.357303149606299
 20
-4.68548031496063
 10
-7.354669291338583
 20
-4.67767716535433
 10
-7.353090551181102
 20
-4.669728346456693
 10
-7.352562992125984
 20
-4.661625984251969
 10
-7.352925196850394
 20
-4.653641732283464
 10
-7.354007874015748
 20
-4.646023622047244
 10
-7.355814960629921
 20
-4.638775590551181
 10
-7.358342519685039
 20
-4.631897637795276
 10
-7.361590551181102
 20
-4.625389763779528
 10
-7.365562992125985
 20
-4.619251968503937
 10
-7.370251968503937
 20
-4.613488188976378
 10
-7.375665354330708
 20
-4.60809842519685
 10
-7.381385826771654
 20
-4.603413385826772
 10
-7.387476377952756
 20
-4.599350393700788
 10
-7.393929133858268
 20
-4.595913385826772
 10
-7.400744094488189
 20
-4.593102362204724
 10
-7.407925196850393
 20
-4.590909448818898
 10
-7.415472440944882
 20
-4.589346456692914
 10
-7.423381889763779
 20
-4.588409448818898
 10
-7.431653543307086
 20
-4.588094488188976
 10
-7.43992125984252
 20
-4.588409448818898
 10
-7.447826771653543
 20
-4.589346456692914
 10
-7.455370078740158
 20
-4.590909448818898
 10
-7.462551181102362
 20
-4.593102362204724
 10
-7.469366141732284
 20
-4.595913385826772
 10
-7.475818897637796
 20
-4.599350393700788
 10
-7.481909448818898
 20
-4.603413385826772
 10
-7.487629921259843
 20
-4.60809842519685
 10
-7.493043307086614
 20
-4.613488188976378
 10
-7.497732283464567
 20
-4.619240157480315
 10
-7.501704724409449
 20
-4.62536220472441
 10
-7.504952755905512
 20
-4.631850393700788
 10
-7.50748031496063
 20
-4.638700787401575
 10
-7.509283464566929
 20
-4.645917322834646
 10
-7.510366141732283
 20
-4.653496062992126
 10
-7.510728346456693
 20
-4.66144094488189
 10
-7.510200787401574
 20
-4.669582677165354
 10
-7.508622047244095
 20
-4.677570866141732
 10
-7.505988188976378
 20
-4.685405511811024
 10
-7.502299212598425
 20
-4.693082677165354
 10
-7.497562992125984
 20
-4.700602362204725
 10
-7.491767716535433
 20
-4.707968503937008
 10
-7.484925196850393
 20
-4.715181102362204
 10
-7.477027559055118
 20
-4.722236220472441
 10
-7.48257874015748
 20
-4.72548031496063
 10
-7.487799212598425
 20
-4.728948818897638
 10
-7.492692913385826
 20
-4.732645669291339
 10
-7.497255905511811
 20
-4.736570866141732
 10
-7.501484251968504
 20
-4.740720472440945
 10
-7.505385826771653
 20
-4.745098425196851
 10
-7.508956692913386
 20
-4.749704724409449
 10
-7.512192913385827
 20
-4.754535433070866
 10
-7.515066929133858
 20
-4.759496062992126
 10
-7.51755905511811
 20
-4.764492125984252
 10
-7.519665354330709
 20
-4.76951968503937
 10
-7.521389763779528
 20
-4.774582677165355
 10
-7.522732283464567
 20
-4.779673228346457
 10
-7.523688976377953
 20
-4.784799212598426
 10
-7.524263779527559
 20
-4.789956692913385
 10
-7.524456692913386
 20
-4.795145669291339
 10
-7.524031496062992
 20
-4.804452755905512
 10
-7.522751968503937
 20
-4.813307086614174
 10
-7.520622047244094
 20
-4.821712598425197
 10
-7.517641732283464
 20
-4.829673228346457
 10
-7.513811023622047
 20
-4.837181102362205
 10
-7.509125984251969
 20
-4.844240157480315
 10
-7.503586614173228
 20
-4.850854330708661
 10
-7.497200787401574
 20
-4.85701968503937
 10
-7.490350393700788
 20
-4.862433070866142
 10
-7.48311811023622
 20
-4.867122047244094
 10
-7.4755
 20
-4.871094488188977
 10
-7.467496062992126
 20
-4.874346456692914
 10
-7.459106299212598
 20
-4.876877952755906
 10
-7.450338582677166
 20
-4.878685039370079
 10
-7.441185039370079
 20
-4.879771653543307
 10
-7.431653543307086
 20
-4.880133858267716
  0
LWPOLYLINE
  5
7E
330
1F
100
AcDbEntity
  8
Layer 1
 62
     7
370
     9
100
AcDbPolyline
 90
      135
 70
     1
 43
0.0
 10
-7.058696850393701
 20
-4.875137795275591
 10
-7.02955905511811
 20
-4.875137795275591
 10
-7.02955905511811
 20
-4.760574803149606
 10
-7.029795275590551
 20
-4.752968503937008
 10
-7.030507874015748
 20
-4.745720472440945
 10
-7.031696850393701
 20
-4.738826771653543
 10
-7.033358267716536
 20
-4.732291338582677
 10
-7.035496062992126
 20
-4.726114173228346
 10
-7.038110236220472
 20
-4.720299212598425
 10
-7.041200787401575
 20
-4.714838582677165
 10
-7.044767716535433
 20
-4.709740157480315
 10
-7.04886220472441
 20
-4.704992125984252
 10
-7.053452755905512
 20
-4.700740157480315
 10
-7.058535433070866
 20
-4.696984251968504
 10
-7.064098425196851
 20
-4.693724409448819
 10
-7.067137795275591
 20
-4.692299212598425
 10
-7.070409448818897
 20
-4.691066929133858
 10
-7.073913385826772
 20
-4.690027559055118
 10
-7.077649606299213
 20
-4.689177165354331
 10
-7.081618110236221
 20
-4.688515748031496
 10
-7.085822834645669
 20
-4.688043307086614
 10
-7.090255905511811
 20
-4.687763779527559
 10
-7.094921259842519
 20
-4.687669291338582
 10
-7.099633858267716
 20
-4.687830708661417
 10
-7.104196850393701
 20
-4.688322834645669
 10
-7.108606299212599
 20
-4.689137795275591
 10
-7.112870078740158
 20
-4.690275590551181
 10
-7.11698031496063
 20
-4.691740157480315
 10
-7.120944881889764
 20
-4.693527559055118
 10
-7.124763779527559
 20
-4.695641732283464
 10
-7.128433070866142
 20
-4.69807874015748
 10
-7.131610236220473
 20
-4.700515748031496
 10
-7.134645669291339
 20
-4.703133858267717
 10
-7.137535433070866
 20
-4.705929133858268
 10
-7.140287401574803
 20
-4.70890157480315
 10
-7.142893700787401
 20
-4.712047244094488
 10
-7.145358267716535
 20
-4.715370078740158
 10
-7.147685039370079
 20
-4.71886220472441
 10
-7.149866141732283
 20
-4.722523622047244
 10
-7.157555118110237
 20
-4.709740157480315
 10
-7.161649606299212
 20
-4.704992125984252
 10
-7.166240157480315
 20
-4.700740157480315
 10
-7.171330708661418
 20
-4.696984251968504
 10
-7.17692125984252
 20
-4.693724409448819
 10
-7.179948818897638
 20
-4.692299212598425
 10
-7.183212598425197
 20
-4.691066929133858
 10
-7.186708661417323
 20
-4.690027559055118
 10
-7.190444881889764
 20
-4.689177165354331
 10
-7.194413385826771
 20
-4.688515748031496
 10
-7.198614173228346
 20
-4.688043307086614
 10
-7.203055118110236
 20
-4.687763779527559
 10
-7.207724409448819
 20
-4.687669291338582
 10
-7.212433070866142
 20
-4.687830708661417
 10
-7.216992125984252
 20
-4.688322834645669
 10
-7.221405511811024
 20
-4.689137795275591
 10
-7.225669291338582
 20
-4.690275590551181
 10
-7.229779527559055
 20
-4.691740157480315
 10
-7.233744094488189
 20
-4.693527559055118
 10
-7.23755905511811
 20
-4.695641732283464
 10
-7.241224409448819
 20
-4.69807874015748
 10
-7.244255905511811
 20
-4.700397637795276
 10
-7.247157480314961
 20
-4.702870078740157
 10
-7.249929133858267
 20
-4.705503937007874
 10
-7.252566929133859
 20
-4.708295275590551
 10
-7.255074803149606
 20
-4.711244094488189
 10
-7.257452755905512
 20
-4.714354330708662
 10
-7.259700787401575
 20
-4.717625984251969
 10
-7.261814960629922
 20
-4.72105905511811
 10
-7.261814960629922
 20
-4.691838582677165
 10
-7.290972440944882
 20
-4.691838582677165
 10
-7.290972440944882
 20
-4.875137795275591
 10
-7.261814960629922
 20
-4.875137795275591
 10
-7.261814960629922
 20
-4.781318897637795
 10
-7.261141732283464
 20
-4.775854330708661
 10
-7.260259842519685
 20
-4.770606299212599
 10
-7.259169291338583
 20
-4.765570866141732
 10
-7.257870078740157
 20
-4.760744094488189
 10
-7.256362204724409
 20
-4.756122047244094
 10
-7.254649606299212
 20
-4.751708661417323
 10
-7.252724409448819
 20
-4.747496062992126
 10
-7.250594488188977
 20
-4.743484251968504
 10
-7.246976377952756
 20
-4.73792125984252
 10
-7.242783464566929
 20
-4.732870078740158
 10
-7.23801968503937
 20
-4.728334645669292
 10
-7.232677165354331
 20
-4.724322834645669
 10
-7.22984251968504
 20
-4.722570866141733
 10
-7.226956692913386
 20
-4.721051181102363
 10
-7.22401968503937
 20
-4.719767716535433
 10
-7.221027559055118
 20
-4.718712598425197
 10
-7.217988188976378
 20
-4.717893700787402
 10
-7.214893700787401
 20
-4.717307086614174
 10
-7.211748031496063
 20
-4.716956692913386
 10
-7.208551181102362
 20
-4.716838582677165
 10
-7.20251968503937
 20
-4.717086614173228
 10
-7.197318897637795
 20
-4.717822834645669
 10
-7.192948818897638
 20
-4.719059055118111
 10
-7.189405511811024
 20
-4.720791338582677
 10
-7.185204724409449
 20
-4.723897637795275
 10
-7.181566929133858
 20
-4.72753937007874
 10
-7.178488188976378
 20
-4.731712598425196
 10
-7.175968503937008
 20
-4.73642125984252
 10
-7.174007874015748
 20
-4.741661417322835
 10
-7.172606299212599
 20
-4.747433070866141
 10
-7.171767716535433
 20
-4.753736220472441
 10
-7.171488188976378
 20
-4.760574803149606
 10
-7.171488188976378
 20
-4.875137795275591
 10
-7.142381889763779
 20
-4.875137795275591
 10
-7.142381889763779
 20
-4.760574803149606
 10
-7.142566929133858
 20
-4.75355905511811
 10
-7.137787401574803
 20
-4.743484251968504
 10
-7.13417716535433
 20
-4.73792125984252
 10
-7.129992125984252
 20
-4.732870078740158
 10
-7.125228346456693
 20
-4.728334645669292
 10
-7.119885826771654
 20
-4.724322834645669
 10
-7.117051181102362
 20
-4.722570866141733
 10
-7.114169291338583
 20
-4.721051181102363
 10
-7.111228346456693
 20
-4.719767716535433
 10
-7.108240157480315
 20
-4.718712598425197
 10
-7.105192913385827
 20
-4.717893700787402
 10
-7.10209842519685
 20
-4.717307086614174
 10
-7.098948818897638
 20
-4.716956692913386
 10
-7.095744094488189
 20
-4.716838582677165
 10
-7.08971653543307
 20
-4.717086614173228
 10
-7.084511811023622
 20
-4.717822834645669
 10
-7.080137795275591
 20
-4.719059055118111
 10
-7.076598425196851
 20
-4.720791338582677
 10
-7.072405511811024
 20
-4.723897637795275
 10
-7.068767716535433
 20
-4.72753937007874
 10
-7.065692913385827
 20
-4.731712598425196
 10
-7.063173228346456
 20
-4.73642125984252
 10
-7.061216535433071
 20
-4.741661417322835
 10
-7.059814960629922
 20
-4.747433070866141
 10
-7.058976377952756
 20
-4.753736220472441
 10
-7.058696850393701
 20
-4.760574803149606
 10
-7.058696850393701
 20
-4.875137795275591
  0
LWPOLYLINE
  5
7F
330
1F
100
AcDbEntity
  8
Layer 1
 62
     7
370
     9
100
AcDbPolyline
 90
      135
 70
     1
 43
0.0
 10
-6.741141732283465
 20
-4.875137795275591
 10
-6.712003937007874
 20
-4.875137795275591
 10
-6.712003937007874
 20
-4.760574803149606
 10
-6.712240157480315
 20
-4.752968503937008
 10
-6.712952755905512
 20
-4.745720472440945
 10
-6.714141732283465
 20
-4.738826771653543
 10
-6.715803149606299
 20
-4.732291338582677
 10
-6.717937007874016
 20
-4.726114173228346
 10
-6.720551181102362
 20
-4.720299212598425
 10
-6.723633858267717
 20
-4.714838582677165
 10
-6.727196850393701
 20
-4.709740157480315
 10
-6.731299212598425
 20
-4.704992125984252
 10
-6.735889763779528
 20
-4.700740157480315
 10
-6.740972440944882
 20
-4.696984251968504
 10
-6.746543307086614
 20
-4.693724409448819
 10
-6.749574803149606
 20
-4.692299212598425
 10
-6.752842519685039
 20
-4.691066929133858
 10
-6.756342519685039
 20
-4.690027559055118
 10
-6.76007874015748
 20
-4.689177165354331
 10
-6.764047244094488
 20
-4.688515748031496
 10
-6.768248031496063
 20
-4.688043307086614
 10
-6.772681102362204
 20
-4.687763779527559
 10
-6.777346456692913
 20
-4.687669291338582
 10
-6.78205905511811
 20
-4.687830708661417
 10
-6.786622047244094
 20
-4.688322834645669
 10
-6.791035433070866
 20
-4.689137795275591
 10
-6.795299212598425
 20
-4.690275590551181
 10
-6.799409448818897
 20
-4.691740157480315
 10
-6.803374015748031
 20
-4.693527559055118
 10
-6.807192913385827
 20
-4.695641732283464
 10
-6.810862204724409
 20
-4.69807874015748
 10
-6.81403937007874
 20
-4.700515748031496
 10
-6.817074803149606
 20
-4.703133858267717
 10
-6.819964566929134
 20
-4.705929133858268
 10
-6.822716535433071
 20
-4.70890157480315
 10
-6.825322834645669
 20
-4.712047244094488
 10
-6.827787401574803
 20
-4.715370078740158
 10
-6.830114173228346
 20
-4.71886220472441
 10
-6.832295275590551
 20
-4.722523622047244
 10
-6.839984251968504
 20
-4.709740157480315
 10
-6.844082677165354
 20
-4.704992125984252
 10
-6.848677165354331
 20
-4.700740157480315
 10
-6.853763779527559
 20
-4.696984251968504
 10
-6.859350393700788
 20
-4.693724409448819
 10
-6.862377952755906
 20
-4.692299212598425
 10
-6.865641732283464
 20
-4.691066929133858
 10
-6.869137795275591
 20
-4.690027559055118
 10
-6.872874015748032
 20
-4.689177165354331
 10
-6.87684251968504
 20
-4.688515748031496
 10
-6.881043307086614
 20
-4.688043307086614
 10
-6.885484251968504
 20
-4.687763779527559
 10
-6.890153543307086
 20
-4.687669291338582
 10
-6.89486220472441
 20
-4.687830708661417
 10
-6.899425196850394
 20
-4.688322834645669
 10
-6.903834645669291
 20
-4.689137795275591
 10
-6.908102362204724
 20
-4.690275590551181
 10
-6.912212598425197
 20
-4.691740157480315
 10
-6.91617716535433
 20
-4.693527559055118
 10
-6.919988188976378
 20
-4.695641732283464
 10
-6.923649606299213
 20
-4.69807874015748
 10
-6.926681102362204
 20
-4.700397637795276
 10
-6.929586614173228
 20
-4.702870078740157
 10
-6.932358267716536
 20
-4.705503937007874
 10
-6.934996062992126
 20
-4.708295275590551
 10
-6.937507874015748
 20
-4.711244094488189
 10
-6.939889763779528
 20
-4.714354330708662
 10
-6.942137795275591
 20
-4.717625984251969
 10
-6.944259842519685
 20
-4.72105905511811
 10
-6.944259842519685
 20
-4.691838582677165
 10
-6.97340157480315
 20
-4.691838582677165
 10
-6.97340157480315
 20
-4.875137795275591
 10
-6.944259842519685
 20
-4.875137795275591
 10
-6.944259842519685
 20
-4.781318897637795
 10
-6.943582677165354
 20
-4.775854330708661
 10
-6.942696850393701
 20
-4.770606299212599
 10
-6.941602362204724
 20
-4.765570866141732
 10
-6.940299212598426
 20
-4.760744094488189
 10
-6.938791338582678
 20
-4.756122047244094
 10
-6.937074803149606
 20
-4.751708661417323
 10
-6.935153543307087
 20
-4.747496062992126
 10
-6.933023622047244
 20
-4.743484251968504
 10
-6.929401574803149
 20
-4.73792125984252
 10
-6.925208661417323
 20
-4.732870078740158
 10
-6.920444881889764
 20
-4.728334645669292
 10
-6.915102362204724
 20
-4.724322834645669
 10
-6.912267716535433
 20
-4.722570866141733
 10
-6.909385826771653
 20
-4.721051181102363
 10
-6.906448818897638
 20
-4.719767716535433
 10
-6.90346062992126
 20
-4.718712598425197
 10
-6.90042125984252
 20
-4.717893700787402
 10
-6.897330708661418
 20
-4.717307086614174
 10
-6.894188976377952
 20
-4.716956692913386
 10
-6.890996062992126
 20
-4.716838582677165
 10
-6.884952755905512
 20
-4.717086614173228
 10
-6.879748031496063
 20
-4.717822834645669
 10
-6.875374015748031
 20
-4.719059055118111
 10
-6.871830708661418
 20
-4.720791338582677
 10
-6.86763779527559
 20
-4.723897637795275
 10
-6.864003937007874
 20
-4.72753937007874
 10
-6.860929133858268
 20
-4.731712598425196
 10
-6.858409448818898
 20
-4.73642125984252
 10
-6.856452755905512
 20
-4.741661417322835
 10
-6.855051181102362
 20
-4.747433070866141
 10
-6.854212598425197
 20
-4.753736220472441
 10
-6.853933070866142
 20
-4.760574803149606
 10
-6.853933070866142
 20
-4.875137795275591
 10
-6.824811023622047
 20
-4.875137795275591
 10
-6.824811023622047
 20
-4.760574803149606
 10
-6.824996062992126
 20
-4.75355905511811
 10
-6.820216535433071
 20
-4.743484251968504
 10
-6.816606299212599
 20
-4.73792125984252
 10
-6.81242125984252
 20
-4.732870078740158
 10
-6.807661417322834
 20
-4.728334645669292
 10
-6.802330708661417
 20
-4.724322834645669
 10
-6.799492125984252
 20
-4.722570866141733
 10
-6.796602362204724
 20
-4.721051181102363
 10
-6.793661417322834
 20
-4.719767716535433
 10
-6.790669291338583
 20
-4.718712598425197
 10
-6.787622047244095
 20
-4.717893700787402
 10
-6.784527559055118
 20
-4.717307086614174
 10
-6.781377952755905
 20
-4.716956692913386
 10
-6.778173228346457
 20
-4.716838582677165
 10
-6.772145669291339
 20
-4.717086614173228
 10
-6.76694094488189
 20
-4.717822834645669
 10
-6.762562992125984
 20
-4.719059055118111
 10
-6.759027559055118
 20
-4.720791338582677
 10
-6.754838582677166
 20
-4.723897637795275
 10
-6.751208661417323
 20
-4.72753937007874
 10
-6.748133858267717
 20
-4.731712598425196
 10
-6.74561811023622
 20
-4.73642125984252
 10
-6.743661417322834
 20
-4.741661417322835
 10
-6.742259842519685
 20
-4.747433070866141
 10
-6.74142125984252
 20
-4.753736220472441
 10
-6.741141732283465
 20
-4.760574803149606
 10
-6.741141732283465
 20
-4.875137795275591
  0
LWPOLYLINE
  5
80
330
1F
100
AcDbEntity
  8
Layer 1
 62
     7
370
    18
100
AcDbPolyline
 90
        4
 70
     1
 43
0.0
 10
-9.141338582677164
 20
-4.94803937007874
 10
-9.110681102362205
 20
-4.947429133858268
 10
-9.127614173228347
 20
-4.92186220472441
 10
-9.141338582677164
 20
-4.94803937007874
  0
LWPOLYLINE
  5
81
330
1F
100
AcDbEntity
  8
Layer 1
 62
     7
370
    18
100
AcDbPolyline
 90
        4
 70
     1
 43
0.0
 10
-10.85654330708661
 20
-4.048696850393701
 10
-10.87347637795276
 20
-4.023129921259843
 10
-10.84281889763779
 20
-4.02251968503937
 10
-10.85654330708661
 20
-4.048696850393701
  0
LWPOLYLINE
  5
82
330
1F
100
AcDbEntity
  8
Layer 1
 62
     7
370
    18
100
AcDbPolyline
 90
        2
 70
     0
 43
0.0
 10
-9.10201968503937
 20
-4.950192913385827
 10
-10.88067716535433
 20
-4.017578740157481
  0
LWPOLYLINE
  5
83
330
1F
100
AcDbEntity
  8
Layer 1
 62
     7
370
     9
100
AcDbPolyline
 90
        7
 70
     1
 43
0.0
 10
-10.96569291338583
 20
-4.895122047244095
 10
-10.93655511811024
 20
-4.895122047244095
 10
-10.93655511811024
 20
-4.60851968503937
 10
-11.00646062992126
 20
-4.61601968503937
 10
-11.00646062992126
 20
-4.641421259842519
 10
-10.96569291338583
 20
-4.641421259842519
 10
-10.96569291338583
 20
-4.895122047244095
  0
LWPOLYLINE
  5
84
330
1F
100
AcDbEntity
  8
Layer 1
 62
     7
370
     9
100
AcDbPolyline
 90
        7
 70
     1
 43
0.0
 10
-10.84624409448819
 20
-4.895122047244095
 10
-10.81710236220473
 20
-4.895122047244095
 10
-10.81710236220473
 20
-4.60851968503937
 10
-10.88702362204724
 20
-4.61601968503937
 10
-10.88702362204724
 20
-4.641421259842519
 10
-10.84624409448819
 20
-4.641421259842519
 10
-10.84624409448819
 20
-4.895122047244095
  0
LWPOLYLINE
  5
85
330
1F
100
AcDbEntity
  8
Layer 1
 62
     7
370
     9
100
AcDbPolyline
 90
       87
 70
     1
 43
0.0
 10
-10.76217322834646
 20
-4.895122047244095
 10
-10.56279133858268
 20
-4.895122047244095
 10
-10.56279133858268
 20
-4.865952755905512
 10
-10.69181496062992
 20
-4.865952755905512
 10
-10.59317322834646
 20
-4.76807874015748
 10
-10.58674015748032
 20
-4.761027559055118
 10
-10.58116141732283
 20
-4.753625984251968
 10
-10.57644094488189
 20
-4.745870078740158
 10
-10.57258267716535
 20
-4.737767716535433
 10
-10.56957874015748
 20
-4.729311023622047
 10
-10.56743307086614
 20
-4.720503937007874
 10
-10.56614566929134
 20
-4.711342519685039
 10
-10.56571653543307
 20
-4.701830708661418
 10
-10.56615354330709
 20
-4.692110236220472
 10
-10.56746850393701
 20
-4.682775590551181
 10
-10.56966141732283
 20
-4.673834645669292
 10
-10.57273228346457
 20
-4.665283464566929
 10
-10.5766811023622
 20
-4.657122047244094
 10
-10.58151181102362
 20
-4.649350393700788
 10
-10.58722047244095
 20
-4.641968503937008
 10
-10.59381496062992
 20
-4.63498031496063
 10
-10.60112992125984
 20
-4.628484251968504
 10
-10.60877165354331
 20
-4.622854330708662
 10
-10.61673622047244
 20
-4.618090551181102
 10
-10.62502755905512
 20
-4.614192913385827
 10
-10.63364173228346
 20
-4.611157480314961
 10
-10.64258267716535
 20
-4.608992125984252
 10
-10.65185433070866
 20
-4.607688976377953
 10
-10.66144881889764
 20
-4.607255905511811
 10
-10.6714094488189
 20
-4.607712598425197
 10
-10.68099606299213
 20
-4.609082677165354
 10
-10.6902125984252
 20
-4.61136220472441
 10
-10.69906299212598
 20
-4.614555118110236
 10
-10.70753937007874
 20
-4.618657480314961
 10
-10.71564566929134
 20
-4.623669291338583
 10
-10.72337795275591
 20
-4.629594488188976
 10
-10.73074409448819
 20
-4.636425196850394
 10
-10.7373031496063
 20
-4.643779527559055
 10
-10.74292913385827
 20
-4.651515748031496
 10
-10.74762598425197
 20
-4.65963779527559
 10
-10.7513937007874
 20
-4.668141732283464
 10
-10.75423228346457
 20
-4.677031496062992
 10
-10.75614173228347
 20
-4.686307086614173
 10
-10.75712204724409
 20
-4.695964566929134
 10
-10.75717716535433
 20
-4.706003937007874
 10
-10.72763385826772
 20
-4.706003937007874
 10
-10.72787401574803
 20
-4.699488188976378
 10
-10.72741732283465
 20
-4.693122047244095
 10
-10.72625984251968
 20
-4.686909448818898
 10
-10.72439763779528
 20
-4.680846456692914
 10
-10.72183464566929
 20
-4.674933070866142
 10
-10.71857086614173
 20
-4.669169291338583
 10
-10.71460236220472
 20
-4.663555118110236
 10
-10.70993307086614
 20
-4.658094488188977
 10
-10.70493700787402
 20
-4.653216535433071
 10
-10.69968503937008
 20
-4.648984251968504
 10
-10.69416929133858
 20
-4.645405511811024
 10
-10.6883937007874
 20
-4.642476377952756
 10
-10.68235433070866
 20
-4.640196850393701
 10
-10.67605511811024
 20
-4.638570866141732
 10
-10.66949606299213
 20
-4.637594488188976
 10
-10.66267322834646
 20
-4.637267716535433
 10
-10.65598818897638
 20
-4.637559055118111
 10
-10.64955511811024
 20
-4.638437007874016
 10
-10.64337401574803
 20
-4.63990157480315
 10
-10.63744881889764
 20
-4.641948818897638
 10
-10.63177559055118
 20
-4.644586614173228
 10
-10.62635826771653
 20
-4.647807086614173
 10
-10.62118897637795
 20
-4.651614173228347
 10
-10.61627559055118
 20
-4.656007874015748
 10
-10.61174015748031
 20
-4.66086220472441
 10
-10.60780708661417
 20
-4.665952755905511
 10
-10.60448031496063
 20
-4.671275590551181
 10
-10.60175984251969
 20
-4.676834645669292
 10
-10.59964566929134
 20
-4.682625984251969
 10
-10.59813385826772
 20
-4.688653543307087
 10
-10.59722834645669
 20
-4.694913385826772
 10
-10.59692519685039
 20
-4.701409448818898
 10
-10.59721653543307
 20
-4.708055118110236
 10
-10.59809448818898
 20
-4.714437007874015
 10
-10.59955511811024
 20
-4.720555118110236
 10
-10.60160236220472
 20
-4.726413385826771
 10
-10.60423228346457
 20
-4.732007874015748
 10
-10.60745275590551
 20
-4.737342519685039
 10
-10.61125984251968
 20
-4.742421259842519
 10
-10.61565354330709
 20
-4.747236220472441
 10
-10.76217322834646
 20
-4.895122047244095
  0
LWPOLYLINE
  5
86
330
1F
100
AcDbEntity
  8
Layer 1
 62
     7
370
     9
100
AcDbPolyline
 90
      135
 70
     1
 43
0.0
 10
-10.26894094488189
 20
-4.894295275590551
 10
-10.23979921259843
 20
-4.894295275590551
 10
-10.23979921259843
 20
-4.779736220472441
 10
-10.24003543307087
 20
-4.772129921259842
 10
-10.24074803149606
 20
-4.76488188976378
 10
-10.24193700787402
 20
-4.757988188976378
 10
-10.24359842519685
 20
-4.751456692913385
 10
-10.24573622047244
 20
-4.745279527559055
 10
-10.24834645669291
 20
-4.739464566929134
 10
-10.25143307086614
 20
-4.734011811023622
 10
-10.25499212598425
 20
-4.728917322834645
 10
-10.25909842519685
 20
-4.72415748031496
 10
-10.26368897637795
 20
-4.719905511811024
 10
-10.26877165354331
 20
-4.716145669291339
 10
-10.27434251968504
 20
-4.712885826771654
 10
-10.27737401574803
 20
-4.71146062992126
 10
-10.28064173228347
 20
-4.710232283464567
 10
-10.28414173228346
 20
-4.709192913385826
 10
-10.28787795275591
 20
-4.708346456692913
 10
-10.29184645669291
 20
-4.707688976377953
 10
-10.29604724409449
 20
-4.707220472440945
 10
-10.30048031496063
 20
-4.70694094488189
 10
-10.30514566929134
 20
-4.706846456692913
 10
-10.30985826771654
 20
-4.707007874015748
 10
-10.31442125984252
 20
-4.707496062992126
 10
-10.31883464566929
 20
-4.708307086614173
 10
-10.32309842519685
 20
-4.709444881889763
 10
-10.32720866141732
 20
-4.710905511811023
 10
-10.33117322834646
 20
-4.712692913385827
 10
-10.33499212598425
 20
-4.7148031496063
 10
-10.33866141732283
 20
-4.717240157480315
 10
-10.34183858267717
 20
-4.719677165354331
 10
-10.34487007874016
 20
-4.722295275590551
 10
-10.34776377952756
 20
-4.725090551181102
 10
-10.35051181102362
 20
-4.728066929133858
 10
-10.35311811023622
 20
-4.731212598425197
 10
-10.35558661417323
 20
-4.734535433070866
 10
-10.3579094488189
 20
-4.738031496062992
 10
-10.36009448818898
 20
-4.741700787401575
 10
-10.36778346456693
 20
-4.728917322834645
 10
-10.37188188976378
 20
-4.72415748031496
 10
-10.37647244094488
 20
-4.719905511811024
 10
-10.38156299212598
 20
-4.716145669291339
 10
-10.38714566929134
 20
-4.712885826771654
 10
-10.39017322834646
 20
-4.71146062992126
 10
-10.39343700787402
 20
-4.710232283464567
 10
-10.39693307086614
 20
-4.709192913385826
 10
-10.40066929133858
 20
-4.708346456692913
 10
-10.40463779527559
 20
-4.707688976377953
 10
-10.40884251968504
 20
-4.707220472440945
 10
-10.41327952755906
 20
-4.70694094488189
 10
-10.41795275590551
 20
-4.706846456692913
 10
-10.42266141732283
 20
-4.707007874015748
 10
-10.42722440944882
 20
-4.707496062992126
 10
-10.43163385826772
 20
-4.708307086614173
 10
-10.43590157480315
 20
-4.709444881889763
 10
-10.44001181102362
 20
-4.710905511811023
 10
-10.44397637795276
 20
-4.712692913385827
 10
-10.4477874015748
 20
-4.7148031496063
 10
-10.45144881889764
 20
-4.717240157480315
 10
-10.45448031496063
 20
-4.71955905511811
 10
-10.45738582677165
 20
-4.722035433070866
 10
-10.46015748031496
 20
-4.724669291338583
 10
-10.46279921259842
 20
-4.72746062992126
 10
-10.46531102362205
 20
-4.730413385826772
 10
-10.46769291338583
 20
-4.733523622047244
 10
-10.46994094488189
 20
-4.736791338582677
 10
-10.47205905511811
 20
-4.740220472440945
 10
-10.47205905511811
 20
-4.711
 10
-10.5011968503937
 20
-4.711
 10
-10.5011968503937
 20
-4.894295275590551
 10
-10.47205905511811
 20
-4.894295275590551
 10
-10.47205905511811
 20
-4.800476377952756
 10
-10.47138188976378
 20
-4.795015748031496
 10
-10.47049606299213
 20
-4.789767716535433
 10
-10.46940157480315
 20
-4.784732283464567
 10
-10.46809842519685
 20
-4.77990157480315
 10
-10.4665905511811
 20
-4.775283464566929
 10
-10.46487401574803
 20
-4.770870078740158
 10
-10.46294881889764
 20
-4.766657480314961
 10
-10.46081889763779
 20
-4.762645669291339
 10
-10.45720078740158
 20
-4.757082677165354
 10
-10.45301181102362
 20
-4.752031496062992
 10
-10.44824803149606
 20
-4.747496062992126
 10
-10.44291732283465
 20
-4.743484251968504
 10
-10.44007874015748
 20
-4.741732283464567
 10
-10.43718897637795
 20
-4.740212598425197
 10
-10.43424803149606
 20
-4.738929133858267
 10
-10.43125984251968
 20
-4.737874015748032
 10
-10.42821653543307
 20
-4.737055118110236
 10
-10.42512598425197
 20
-4.736468503937008
 10
-10.4219842519685
 20
-4.73611811023622
 10
-10.41879133858268
 20
-4.736
 10
-10.41275196850394
 20
-4.736248031496063
 10
-10.40754724409449
 20
-4.736984251968504
 10
-10.40317322834646
 20
-4.738220472440945
 10
-10.39962992125984
 20
-4.739952755905512
 10
-10.39543700787402
 20
-4.743059055118111
 10
-10.39179921259842
 20
-4.7466968503937
 10
-10.38872440944882
 20
-4.750870078740157
 10
-10.38620472440945
 20
-4.75557874015748
 10
-10.38424803149606
 20
-4.760818897637796
 10
-10.38284645669291
 20
-4.766594488188977
 10
-10.38200787401575
 20
-4.772897637795276
 10
-10.38172834645669
 20
-4.779736220472441
 10
-10.38172834645669
 20
-4.894295275590551
 10
-10.3526062992126
 20
-4.894295275590551
 10
-10.3526062992126
 20
-4.779736220472441
 10
-10.35279133858268
 20
-4.772720472440945
 10
-10.34801181102362
 20
-4.762645669291339
 10
-10.34440551181102
 20
-4.757082677165354
 10
-10.34022047244095
 20
-4.752031496062992
 10
-10.33546062992126
 20
-4.747496062992126
 10
-10.33012992125984
 20
-4.743484251968504
 10
-10.32729133858268
 20
-4.741732283464567
 10
-10.32440157480315
 20
-4.740212598425197
 10
-10.32146062992126
 20
-4.738929133858267
 10
-10.31846456692913
 20
-4.737874015748032
 10
-10.31542125984252
 20
-4.737055118110236
 10
-10.31232283464567
 20
-4.736468503937008
 10
-10.30917322834646
 20
-4.73611811023622
 10
-10.30596850393701
 20
-4.736
 10
-10.29994488188976
 20
-4.736248031496063
 10
-10.29474409448819
 20
-4.736984251968504
 10
-10.29037007874016
 20
-4.738220472440945
 10
-10.28682283464567
 20
-4.739952755905512
 10
-10.28263385826772
 20
-4.743059055118111
 10
-10.27900393700787
 20
-4.7466968503937
 10
-10.27593307086614
 20
-4.750870078740157
 10
-10.27341732283465
 20
-4.75557874015748
 10
-10.27146062992126
 20
-4.760818897637796
 10
-10.27005905511811
 20
-4.766594488188977
 10
-10.26922047244095
 20
-4.772897637795276
 10
-10.26894094488189
 20
-4.779736220472441
 10
-10.26894094488189
 20
-4.894295275590551
  0
LWPOLYLINE
  5
87
330
1F
100
AcDbEntity
  8
Layer 1
 62
     7
370
     9
100
AcDbPolyline
 90
      135
 70
     1
 43
0.0
 10
-9.951370078740158
 20
-4.894295275590551
 10
-9.922228346456693
 20
-4.894295275590551
 10
-9.922228346456693
 20
-4.779736220472441
 10
-9.922464566929134
 20
-4.772129921259842
 10
-9.92317716535433
 20
-4.76488188976378
 10
-9.924366141732284
 20
-4.757988188976378
 10
-9.926027559055118
 20
-4.751456692913385
 10
-9.928161417322835
 20
-4.745279527559055
 10
-9.930775590551182
 20
-4.739464566929134
 10
-9.933858267716536
 20
-4.734011811023622
 10
-9.93742125984252
 20
-4.728917322834645
 10
-9.941527559055118
 20
-4.72415748031496
 10
-9.94611811023622
 20
-4.719905511811024
 10
-9.951196850393702
 20
-4.716145669291339
 10
-9.956767716535433
 20
-4.712885826771654
 10
-9.959799212598424
 20
-4.71146062992126
 10
-9.963066929133857
 20
-4.710232283464567
 10
-9.966570866141732
 20
-4.709192913385826
 10
-9.970307086614174
 20
-4.708346456692913
 10
-9.974271653543306
 20
-4.707688976377953
 10
-9.978476377952756
 20
-4.707220472440945
 10
-9.982909448818898
 20
-4.70694094488189
 10
-9.987574803149606
 20
-4.706846456692913
 10
-9.992287401574803
 20
-4.707007874015748
 10
-9.996850393700788
 20
-4.707496062992126
 10
-10.00126771653543
 20
-4.708307086614173
 10
-10.00553149606299
 20
-4.709444881889763
 10
-10.00964960629921
 20
-4.710905511811023
 10
-10.01361811023622
 20
-4.712692913385827
 10
-10.01743700787402
 20
-4.7148031496063
 10
-10.0211062992126
 20
-4.717240157480315
 10
-10.02427952755906
 20
-4.719677165354331
 10
-10.02730708661417
 20
-4.722295275590551
 10
-10.0301968503937
 20
-4.725090551181102
 10
-10.03294488188976
 20
-4.728066929133858
 10
-10.03555118110236
 20
-4.731212598425197
 10
-10.03801968503937
 20
-4.734535433070866
 10
-10.04035039370079
 20
-4.738031496062992
 10
-10.04253937007874
 20
-4.741700787401575
 10
-10.05020866141732
 20
-4.728917322834645
 10
-10.05431496062992
 20
-4.72415748031496
 10
-10.0589094488189
 20
-4.719905511811024
 10
-10.06399606299213
 20
-4.716145669291339
 10
-10.06957480314961
 20
-4.712885826771654
 10
-10.07260236220472
 20
-4.71146062992126
 10
-10.07586614173228
 20
-4.710232283464567
 10
-10.07936220472441
 20
-4.709192913385826
 10
-10.08309842519685
 20
-4.708346456692913
 10
-10.08706692913386
 20
-4.707688976377953
 10
-10.09126771653543
 20
-4.707220472440945
 10
-10.09570866141732
 20
-4.70694094488189
 10
-10.10037795275591
 20
-4.706846456692913
 10
-10.10508661417323
 20
-4.707007874015748
 10
-10.10964960629921
 20
-4.707496062992126
 10
-10.11406299212598
 20
-4.708307086614173
 10
-10.11832677165354
 20
-4.709444881889763
 10
-10.12244094488189
 20
-4.710905511811023
 10
-10.12640551181102
 20
-4.712692913385827
 10
-10.13021653543307
 20
-4.7148031496063
 10
-10.13387795275591
 20
-4.717240157480315
 10
-10.1369094488189
 20
-4.71955905511811
 10
-10.13981496062992
 20
-4.722035433070866
 10
-10.14258661417323
 20
-4.724669291338583
 10
-10.14522834645669
 20
-4.72746062992126
 10
-10.14774015748032
 20
-4.730413385826772
 10
-10.15012204724409
 20
-4.733523622047244
 10
-10.15237007874016
 20
-4.736791338582677
 10
-10.1544842519685
 20
-4.740220472440945
 10
-10.1544842519685
 20
-4.711
 10
-10.18362598425197
 20
-4.711
 10
-10.18362598425197
 20
-4.894295275590551
 10
-10.1544842519685
 20
-4.894295275590551
 10
-10.1544842519685
 20
-4.800476377952756
 10
-10.15380708661417
 20
-4.795015748031496
 10
-10.15292125984252
 20
-4.789767716535433
 10
-10.15183070866142
 20
-4.784732283464567
 10
-10.15052755905512
 20
-4.77990157480315
 10
-10.14902362204724
 20
-4.775283464566929
 10
-10.14730708661417
 20
-4.770870078740158
 10
-10.14538976377953
 20
-4.766657480314961
 10
-10.14326377952756
 20
-4.762645669291339
 10
-10.13963779527559
 20
-4.757082677165354
 10
-10.13544094488189
 20
-4.752031496062992
 10
-10.13067716535433
 20
-4.747496062992126
 10
-10.12534645669291
 20
-4.743484251968504
 10
-10.12250787401575
 20
-4.741732283464567
 10
-10.11961811023622
 20
-4.740212598425197
 10
-10.11667716535433
 20
-4.738929133858267
 10
-10.11368503937008
 20
-4.737874015748032
 10
-10.11064566929134
 20
-4.737055118110236
 10
-10.10755511811024
 20
-4.736468503937008
 10
-10.10441338582677
 20
-4.73611811023622
 10
-10.10122047244094
 20
-4.736
 10
-10.0951811023622
 20
-4.736248031496063
 10
-10.08997637795276
 20
-4.736984251968504
 10
-10.08561023622047
 20
-4.738220472440945
 10
-10.08207480314961
 20
-4.739952755905512
 10
-10.07787401574803
 20
-4.743059055118111
 10
-10.07423622047244
 20
-4.7466968503937
 10
-10.07115748031496
 20
-4.750870078740157
 10
-10.06863779527559
 20
-4.75557874015748
 10
-10.06667716535433
 20
-4.760818897637796
 10
-10.06527559055118
 20
-4.766594488188977
 10
-10.06443700787402
 20
-4.772897637795276
 10
-10.06415748031496
 20
-4.779736220472441
 10
-10.06415748031496
 20
-4.894295275590551
 10
-10.03503543307087
 20
-4.894295275590551
 10
-10.03503543307087
 20
-4.779736220472441
 10
-10.03522047244095
 20
-4.772720472440945
 10
-10.03044094488189
 20
-4.762645669291339
 10
-10.02683070866142
 20
-4.757082677165354
 10
-10.02264566929134
 20
-4.752031496062992
 10
-10.01788976377953
 20
-4.747496062992126
 10
-10.01255905511811
 20
-4.743484251968504
 10
-10.00972047244094
 20
-4.741732283464567
 10
-10.00683070866142
 20
-4.740212598425197
 10
-10.0038937007874
 20
-4.738929133858267
 10
-10.00090157480315
 20
-4.737874015748032
 10
-9.997858267716536
 20
-4.737055118110236
 10
-9.99476377952756
 20
-4.736468503937008
 10
-9.991618110236221
 20
-4.73611811023622
 10
-9.988413385826771
 20
-4.736
 10
-9.98238188976378
 20
-4.736248031496063
 10
-9.977173228346457
 20
-4.736984251968504
 10
-9.972799212598424
 20
-4.738220472440945
 10
-9.969251968503936
 20
-4.739952755905512
 10
-9.965062992125985
 20
-4.743059055118111
 10
-9.961433070866141
 20
-4.7466968503937
 10
-9.95836220472441
 20
-4.750870078740157
 10
-9.955846456692914
 20
-4.75557874015748
 10
-9.953889763779527
 20
-4.760818897637796
 10
-9.952488188976378
 20
-4.766594488188977
 10
-9.951649606299213
 20
-4.772897637795276
 10
-9.951370078740158
 20
-4.779736220472441
 10
-9.951370078740158
 20
-4.894295275590551
  0
ENDSEC
  0
SECTION
  2
OBJECTS
  0
DICTIONARY
  5
C
330
0
100
AcDbDictionary
281
     1
  3
ACAD_DETAILVIEWSTYLE
350
8F
  3
ACAD_GROUP
350
D
  3
ACAD_LAYOUT
350
1A
  3
ACAD_MATERIAL
350
43
  3
ACAD_MLEADERSTYLE
350
5B
  3
ACAD_MLINESTYLE
350
17
  3
ACAD_PLOTSETTINGS
350
19
  3
ACAD_PLOTSTYLENAME
350
E
  3
ACAD_SCALELIST
350
47
  3
ACAD_SECTIONVIEWSTYLE
350
90
  3
ACAD_TABLESTYLE
350
59
  3
ACAD_VISUALSTYLE
350
2A
  3
ACDB_RECOMPOSE_DATA
350
8C
  3
AcDbVariableDictionary
350
88
  0
SUN
  5
5D
330
29
100
AcDbSun
 90
        1
290
     0
 63
     7
421
 16777215
 40
1.0
291
     1
 91
  2455826
 92
 54000000
292
     0
 70
     2
 71
   256
280
     1
  0
DICTIONARY
  5
8F
102
{ACAD_REACTORS
330
C
102
}
330
C
100
AcDbDictionary
281
     1
  0
DICTIONARY
  5
D
102
{ACAD_REACTORS
330
C
102
}
330
C
100
AcDbDictionary
281
     1
  0
DICTIONARY
  5
1A
102
{ACAD_REACTORS
330
C
102
}
330
C
100
AcDbDictionary
281
     1
  3
Layout1
350
1E
  3
Layout2
350
26
  3
Model
350
22
  0
DICTIONARY
  5
43
102
{ACAD_REACTORS
330
C
102
}
330
C
100
AcDbDictionary
281
     1
  3
ByBlock
350
45
  3
ByLayer
350
44
  3
Global
350
46
  0
DICTIONARY
  5
5B
102
{ACAD_REACTORS
330
C
102
}
330
C
100
AcDbDictionary
281
     1
  3
Standard
350
5C
  0
DICTIONARY
  5
17
102
{ACAD_REACTORS
330
C
102
}
330
C
100
AcDbDictionary
281
     1
  3
Standard
350
18
  0
DICTIONARY
  5
19
102
{ACAD_REACTORS
330
C
102
}
330
C
100
AcDbDictionary
281
     1
  0
ACDBDICTIONARYWDFLT
  5
E
102
{ACAD_REACTORS
330
C
102
}
330
C
100
AcDbDictionary
281
     1
  3
Normal
350
F
100
AcDbDictionaryWithDefault
340
F
  0
DICTIONARY
  5
47
102
{ACAD_REACTORS
330
C
102
}
330
C
100
AcDbDictionary
281
     1
  3
A0
350
48
  3
A1
350
49
  3
A2
350
4A
  3
A3
350
4B
  3
A4
350
4C
  3
A5
350
4D
  3
A6
350
4E
  3
A7
350
4F
  3
A8
350
50
  3
A9
350
51
  3
B1
350
52
  3
B2
350
53
  3
B3
350
54
  3
B4
350
55
  3
B5
350
56
  3
B6
350
57
  3
B7
350
58
  0
DICTIONARY
  5
90
102
{ACAD_REACTORS
330
C
102
}
330
C
100
AcDbDictionary
281
     1
  0
DICTIONARY
  5
59
102
{ACAD_REACTORS
330
C
102
}
330
C
100
AcDbDictionary
281
     1
  3
Standard
350
5A
  0
DICTIONARY
  5
2A
102
{ACAD_REACTORS
330
C
102
}
330
C
100
AcDbDictionary
281
     1
  3
2dWireframe
350
2F
  3
Basic
350
32
  3
Brighten
350
36
  3
ColorChange
350
3A
  3
Conceptual
350
34
  3
Dim
350
35
  3
EdgeColorOff
350
3D
  3
Facepattern
350
39
  3
Flat
350
2B
  3
FlatWithEdges
350
2C
  3
Gouraud
350
2D
  3
GouraudWithEdges
350
2E
  3
Hidden
350
31
  3
JitterOff
350
3B
  3
Linepattern
350
38
  3
OverhangOff
350
3C
  3
Realistic
350
33
  3
Shaded
350
42
  3
Shaded with edges
350
41
  3
Shades of Gray
350
3E
  3
Sketchy
350
3F
  3
Thicken
350
37
  3
Wireframe
350
30
  3
X-Ray
350
40
  0
XRECORD
  5
8C
102
{ACAD_REACTORS
330
C
102
}
330
C
100
AcDbXrecord
280
     1
 90
        1
330
5A
  0
DICTIONARY
  5
88
102
{ACAD_REACTORS
330
C
102
}
330
C
100
AcDbDictionary
281
     1
  3
CANNOSCALE
350
89
  3
CMLEADERSTYLE
350
8E
  3
CTABLESTYLE
350
8D
  0
LAYOUT
  5
1E
102
{ACAD_REACTORS
330
1A
102
}
330
1A
100
AcDbPlotSettings
  1

  2
none_device
  4

  6

 40
0.0
 41
0.0
 42
0.0
 43
0.0
 44
0.0
 45
0.0
 46
0.0
 47
0.0
 48
0.0
 49
0.0
140
0.0
141
0.0
142
1.0
143
1.0
 70
   688
 72
     0
 73
     0
 74
     5
  7

 75
    16
 76
     0
 77
     2
 78
   300
147
1.0
148
0.0
149
0.0
100
AcDbLayout
  1
Layout1
 70
     1
 71
     1
 10
0.0
 20
0.0
 11
12.0
 21
9.0
 12
0.0
 22
0.0
 32
0.0
 14
1.000000000000000E+20
 24
1.000000000000000E+20
 34
1.000000000000000E+20
 15
-1.000000000000000E+20
 25
-1.000000000000000E+20
 35
-1.000000000000000E+20
146
0.0
 13
0.0
 23
0.0
 33
0.0
 16
1.0
 26
0.0
 36
0.0
 17
0.0
 27
1.0
 37
0.0
 76
     0
330
1B
  0
LAYOUT
  5
26
102
{ACAD_REACTORS
330
1A
102
}
330
1A
100
AcDbPlotSettings
  1

  2
none_device
  4

  6

 40
0.0
 41
0.0
 42
0.0
 43
0.0
 44
0.0
 45
0.0
 46
0.0
 47
0.0
 48
0.0
 49
0.0
140
0.0
141
0.0
142
1.0
143
1.0
 70
   688
 72
     0
 73
     0
 74
     5
  7

 75
    16
 76
     0
 77
     2
 78
   300
147
1.0
148
0.0
149
0.0
100
AcDbLayout
  1
Layout2
 70
     1
 71
     2
 10
0.0
 20
0.0
 11
0.0
 21
0.0
 12
0.0
 22
0.0
 32
0.0
 14
0.0
 24
0.0
 34
0.0
 15
0.0
 25
0.0
 35
0.0
146
0.0
 13
0.0
 23
0.0
 33
0.0
 16
1.0
 26
0.0
 36
0.0
 17
0.0
 27
1.0
 37
0.0
 76
     0
330
23
  0
LAYOUT
  5
22
102
{ACAD_REACTORS
330
1A
102
}
330
1A
100
AcDbPlotSettings
  1

  2
none_device
  4
Letter_(8.50_x_11.00_Inches)
  6

 40
6.35
 41
6.35
 42
6.35000508
 43
6.35000508
 44
215.9
 45
279.4
 46
0.0
 47
0.0
 48
0.0
 49
0.0
140
0.0
141
0.0
142
1.0
143
1.0
 70
  1712
 72
     0
 73
     0
 74
     0
  7

 75
     0
 76
     0
 77
     2
 78
   300
147
1.0
148
0.0
149
0.0
100
AcDbLayout
  1
Model
 70
     1
 71
     0
 10
0.0
 20
0.0
 11
12.0
 21
9.0
 12
0.0
 22
0.0
 32
0.0
 14
-11.46531496062992
 24
-5.91951968503937
 34
0.0
 15
-5.262397637795275
 25
-0.5926023622047244
 35
0.0
146
0.0
 13
0.0
 23
0.0
 33
0.0
 16
1.0
 26
0.0
 36
0.0
 17
0.0
 27
1.0
 37
0.0
 76
     0
330
1F
331
29
  0
MATERIAL
  5
45
102
{ACAD_REACTORS
330
43
102
}
330
43
100
AcDbMaterial
  1
ByBlock
 72
     1
 94
      127
  0
MATERIAL
  5
44
102
{ACAD_REACTORS
330
43
102
}
330
43
100
AcDbMaterial
  1
ByLayer
 72
     1
 94
      127
  0
MATERIAL
  5
46
102
{ACAD_REACTORS
330
43
102
}
330
43
100
AcDbMaterial
  1
Global
 72
     1
 94
      127
  0
MLEADERSTYLE
  5
5C
102
{ACAD_REACTORS
330
5B
102
}
330
5B
100
AcDbMLeaderStyle
179
     2
170
     2
171
     1
172
     0
 90
        2
 40
0.0
 41
0.0
173
     1
 91
-1056964608
340
14
 92
       -2
290
     1
 42
0.09
291
     1
 43
0.36
  3
Standard
341
0
 44
0.18
300

342
11
174
     1
178
     6
175
     1
176
     0
 93
-1056964608
 45
0.18
292
     0
297
     0
 46
0.18
343
0
 94
-1056964608
 47
1.0
 49
1.0
140
1.0
293
     1
141
0.0
294
     1
177
     0
142
1.0
295
     0
296
     0
143
0.125
271
     0
272
     9
273
     9
298
     0
  0
MLINESTYLE
  5
18
102
{ACAD_REACTORS
330
17
102
}
330
17
100
AcDbMlineStyle
  2
Standard
 70
     0
  3

 62
   256
 51
90.0
 52
90.0
 71
     2
 49
0.5
 62
   256
  6
BYLAYER
 49
-0.5
 62
   256
  6
BYLAYER
  0
ACDBPLACEHOLDER
  5
F
102
{ACAD_REACTORS
330
E
102
}
330
E
  0
SCALE
  5
48
102
{ACAD_REACTORS
330
47
102
}
330
47
100
AcDbScale
 70
     0
300
1:1
140
1.0
141
1.0
290
     1
  0
SCALE
  5
49
102
{ACAD_REACTORS
330
47
102
}
330
47
100
AcDbScale
 70
     0
300
1/128" = 1'-0"
140
0.0078125
141
12.0
290
     0
  0
SCALE
  5
4A
102
{ACAD_REACTORS
330
47
102
}
330
47
100
AcDbScale
 70
     0
300
1/64" = 1'-0"
140
0.015625
141
12.0
290
     0
  0
SCALE
  5
4B
102
{ACAD_REACTORS
330
47
102
}
330
47
100
AcDbScale
 70
     0
300
1/32" = 1'-0"
140
0.03125
141
12.0
290
     0
  0
SCALE
  5
4C
102
{ACAD_REACTORS
330
47
102
}
330
47
100
AcDbScale
 70
     0
300
1/16" = 1'-0"
140
0.0625
141
12.0
290
     0
  0
SCALE
  5
4D
102
{ACAD_REACTORS
330
47
102
}
330
47
100
AcDbScale
 70
     0
300
3/32" = 1'-0"
140
0.09375
141
12.0
290
     0
  0
SCALE
  5
4E
102
{ACAD_REACTORS
330
47
102
}
330
47
100
AcDbScale
 70
     0
300
1/8" = 1'-0"
140
0.125
141
12.0
290
     0
  0
SCALE
  5
4F
102
{ACAD_REACTORS
330
47
102
}
330
47
100
AcDbScale
 70
     0
300
3/16" = 1'-0"
140
0.1875
141
12.0
290
     0
  0
SCALE
  5
50
102
{ACAD_REACTORS
330
47
102
}
330
47
100
AcDbScale
 70
     0
300
1/4" = 1'-0"
140
0.25
141
12.0
290
     0
  0
SCALE
  5
51
102
{ACAD_REACTORS
330
47
102
}
330
47
100
AcDbScale
 70
     0
300
3/8" = 1'-0"
140
0.375
141
12.0
290
     0
  0
SCALE
  5
52
102
{ACAD_REACTORS
330
47
102
}
330
47
100
AcDbScale
 70
     0
300
1/2" = 1'-0"
140
0.5
141
12.0
290
     0
  0
SCALE
  5
53
102
{ACAD_REACTORS
330
47
102
}
330
47
100
AcDbScale
 70
     0
300
3/4" = 1'-0"
140
0.75
141
12.0
290
     0
  0
SCALE
  5
54
102
{ACAD_REACTORS
330
47
102
}
330
47
100
AcDbScale
 70
     0
300
1" = 1'-0"
140
1.0
141
12.0
290
     0
  0
SCALE
  5
55
102
{ACAD_REACTORS
330
47
102
}
330
47
100
AcDbScale
 70
     0
300
1-1/2" = 1'-0"
140
1.5
141
12.0
290
     0
  0
SCALE
  5
56
102
{ACAD_REACTORS
330
47
102
}
330
47
100
AcDbScale
 70
     0
300
3" = 1'-0"
140
3.0
141
12.0
290
     0
  0
SCALE
  5
57
102
{ACAD_REACTORS
330
47
102
}
330
47
100
AcDbScale
 70
     0
300
6" = 1'-0"
140
6.0
141
12.0
290
     0
  0
SCALE
  5
58
102
{ACAD_REACTORS
330
47
102
}
330
47
100
AcDbScale
 70
     0
300
1'-0" = 1'-0"
140
12.0
141
12.0
290
     0
  0
TABLESTYLE
  5
5A
102
{ACAD_REACTORS
330
59
102
}
102
{ACAD_XDICTIONARY
360
8A
102
}
330
59
100
AcDbTableStyle
  3
Standard
 70
     0
 71
     0
 40
0.06
 41
0.06
280
     0
281
     0
  7
Standard
140
0.18
170
     2
 62
     0
 63
   257
283
     0
 90
        4
 91
        0
  1

274
    -2
284
     1
 64
     0
275
    -2
285
     1
 65
     0
276
    -2
286
     1
 66
     0
277
    -2
287
     1
 67
     0
278
    -2
288
     1
 68
     0
279
    -2
289
     1
 69
     0
  7
Standard
140
0.25
170
     5
 62
     0
 63
   257
283
     0
 90
        4
 91
        0
  1

274
    -2
284
     1
 64
     0
275
    -2
285
     1
 65
     0
276
    -2
286
     1
 66
     0
277
    -2
287
     1
 67
     0
278
    -2
288
     1
 68
     0
279
    -2
289
     1
 69
     0
  7
Standard
140
0.18
170
     5
 62
     0
 63
   257
283
     0
 90
        4
 91
        0
  1

274
    -2
284
     1
 64
     0
275
    -2
285
     1
 65
     0
276
    -2
286
     1
 66
     0
277
    -2
287
     1
 67
     0
278
    -2
288
     1
 68
     0
279
    -2
289
     1
 69
     0
  0
VISUALSTYLE
  5
2F
102
{ACAD_REACTORS
330
2A
102
}
330
2A
100
AcDbVisualStyle
  2
2dWireframe
 70
     4
177
     3
291
     0
 70
    58
 90
        0
176
     1
 90
        2
176
     1
 90
        0
176
     1
 90
        0
176
     1
 40
0.6
176
     1
 40
30.0
176
     1
 62
     7
420
 16777215
176
     1
 90
        1
176
     1
 90
        4
176
     1
 62
     7
176
     1
 62
   257
176
     1
 90
        1
176
     1
 90
        1
176
     1
 40
1.0
176
     1
 90
        0
176
     1
 62
   257
176
     1
 40
1.0
176
     1
 90
        1
176
     1
 90
        6
176
     1
 90
        2
176
     1
 62
     7
176
     1
 90
        5
176
     1
 90
        0
176
     1
 90
        0
176
     1
290
     0
176
     1
 90
        1
176
     1
 40
0.0
176
     1
 90
        0
176
     1
290
     1
176
     1
290
     1
176
     1
290
     0
176
     1
290
     0
176
     1
290
     0
176
     1
290
     0
176
     1
290
     0
176
     1
290
     0
176
     1
290
     0
176
     1
 90
       50
176
     1
 40
0.0
176
     1
 40
1.0
176
     1
 90
        0
176
     1
 62
    18
420
        0
176
     1
 90
       50
176
     1
 90
        3
176
     1
 62
     5
420
      255
176
     1
290
     0
176
     1
 90
       50
176
     1
 90
       50
176
     1
 90
       50
176
     1
290
     0
176
     1
 90
       50
176
     1
 62
   256
176
     0
 40
1.0
176
     0
 90
        2
176
     1
  1
strokes_ogs.tif
176
     1
290
     0
176
     1
 40
1.0
176
     1
 40
1.0
176
     1
  0
VISUALSTYLE
  5
32
102
{ACAD_REACTORS
330
2A
102
}
330
2A
100
AcDbVisualStyle
  2
Basic
 70
     7
177
     3
291
     1
 70
    58
 90
        1
176
     1
 90
        0
176
     1
 90
        1
176
     1
 90
        0
176
     1
 40
0.6
176
     1
 40
30.0
176
     1
 62
     7
420
 16777215
176
     1
 90
        0
176
     1
 90
        4
176
     1
 62
     7
176
     1
 62
   257
176
     1
 90
        1
176
     1
 90
        1
176
     1
 40
1.0
176
     1
 90
        8
176
     1
 62
     7
176
     1
 40
1.0
176
     1
 90
        1
176
     1
 90
        6
176
     1
 90
        2
176
     1
 62
     7
176
     1
 90
        5
176
     1
 90
        0
176
     1
 90
        0
176
     1
290
     0
176
     1
 90
        1
176
     1
 40
0.0
176
     1
 90
        0
176
     1
290
     0
176
     1
290
     1
176
     1
290
     1
176
     1
290
     0
176
     1
290
     0
176
     1
290
     0
176
     1
290
     0
176
     1
290
     0
176
     1
290
     0
176
     1
 90
       50
176
     1
 40
0.0
176
     1
 40
1.0
176
     1
 90
        0
176
     1
 62
    18
420
        0
176
     1
 90
       50
176
     1
 90
        3
176
     1
 62
     5
420
      255
176
     1
290
     0
176
     1
 90
       50
176
     1
 90
       50
176
     1
 90
       50
176
     1
290
     0
176
     1
 90
       50
176
     1
 62
   256
176
     0
 40
1.0
176
     0
 90
        2
176
     1
  1
strokes_ogs.tif
176
     1
290
     0
176
     1
 40
1.0
176
     1
 40
1.0
176
     1
  0
VISUALSTYLE
  5
36
102
{ACAD_REACTORS
330
2A
102
}
330
2A
100
AcDbVisualStyle
  2
Brighten
 70
    12
177
     3
291
     1
 70
    58
 90
        2
176
     1
 90
        2
176
     1
 90
        0
176
     1
 90
        0
176
     1
 40
0.6
176
     1
 40
30.0
176
     1
 62
     7
420
 16777215
176
     1
 90
        1
176
     1
 90
        4
176
     1
 62
     7
176
     1
 62
   257
176
     1
 90
        1
176
     1
 90
        1
176
     1
 40
1.0
176
     1
 90
        8
176
     1
 62
     7
176
     1
 40
1.0
176
     1
 90
        1
176
     1
 90
        6
176
     1
 90
        2
176
     1
 62
     7
176
     1
 90
        5
176
     1
 90
        0
176
     1
 90
        0
176
     1
290
     0
176
     1
 90
        1
176
     1
 40
50.0
176
     1
 90
        0
176
     1
290
     0
176
     1
290
     1
176
     1
290
     1
176
     1
290
     0
176
     1
290
     0
176
     1
290
     0
176
     1
290
     0
176
     1
290
     0
176
     1
290
     0
176
     1
 90
       50
176
     1
 40
0.0
176
     1
 40
1.0
176
     1
 90
        0
176
     1
 62
    18
420
        0
176
     1
 90
       50
176
     1
 90
        3
176
     1
 62
     5
420
      255
176
     1
290
     0
176
     1
 90
       50
176
     1
 90
       50
176
     1
 90
       50
176
     1
290
     0
176
     1
 90
       50
176
     1
 62
   256
176
     0
 40
1.0
176
     0
 90
        2
176
     1
  1
strokes_ogs.tif
176
     1
290
     0
176
     1
 40
1.0
176
     1
 40
1.0
176
     1
  0
VISUALSTYLE
  5
3A
102
{ACAD_REACTORS
330
2A
102
}
330
2A
100
AcDbVisualStyle
  2
ColorChange
 70
    16
177
     3
291
     1
 70
    58
 90
        2
176
     1
 90
        2
176
     1
 90
        3
176
     1
 90
        0
176
     1
 40
0.6
176
     1
 40
30.0
176
     1
 62
     8
420
  8421504
176
     1
 90
        1
176
     1
 90
        4
176
     1
 62
     7
176
     1
 62
   257
176
     1
 90
        1
176
     1
 90
        1
176
     1
 40
1.0
176
     1
 90
        8
176
     1
 62
     8
420
  8421504
176
     1
 40
1.0
176
     1
 90
        1
176
     1
 90
        6
176
     1
 90
        2
176
     1
 62
     7
176
     1
 90
        5
176
     1
 90
        0
176
     1
 90
        0
176
     1
290
     0
176
     1
 90
        1
176
     1
 40
0.0
176
     1
 90
        0
176
     1
290
     0
176
     1
290
     1
176
     1
290
     1
176
     1
290
     0
176
     1
290
     0
176
     1
290
     0
176
     1
290
     0
176
     1
290
     0
176
     1
290
     0
176
     1
 90
       50
176
     1
 40
0.0
176
     1
 40
1.0
176
     1
 90
        0
176
     1
 62
    18
420
        0
176
     1
 90
       50
176
     1
 90
        3
176
     1
 62
     5
420
      255
176
     1
290
     0
176
     1
 90
       50
176
     1
 90
       50
176
     1
 90
       50
176
     1
290
     0
176
     1
 90
       50
176
     1
 62
   256
176
     0
 40
1.0
176
     0
 90
        2
176
     1
  1
strokes_ogs.tif
176
     1
290
     0
176
     1
 40
1.0
176
     1
 40
1.0
176
     1
  0
VISUALSTYLE
  5
34
102
{ACAD_REACTORS
330
2A
102
}
330
2A
100
AcDbVisualStyle
  2
Conceptual
 70
     9
177
     3
291
     0
 70
    58
 90
        3
176
     1
 90
        2
176
     1
 90
        0
176
     1
 90
        0
176
     1
 40
0.6
176
     1
 40
30.0
176
     1
 62
     7
420
 16777215
176
     1
 90
        2
176
     1
 90
        2
176
     1
 62
     7
176
     1
 62
   257
176
     1
 90
        1
176
     1
 90
        1
176
     1
 40
179.0
176
     1
 90
        8
176
     1
 62
     7
176
     1
 40
1.0
176
     1
 90
        1
176
     1
 90
        6
176
     1
 90
        2
176
     1
 62
     7
176
     1
 90
        3
176
     1
 90
        0
176
     1
 90
        0
176
     1
290
     0
176
     1
 90
        1
176
     1
 40
0.0
176
     1
 90
        0
176
     1
290
     0
176
     1
290
     1
176
     1
290
     1
176
     1
290
     0
176
     1
290
     0
176
     1
290
     0
176
     1
290
     0
176
     1
290
     0
176
     1
290
     0
176
     1
 90
       50
176
     1
 40
0.0
176
     1
 40
1.0
176
     1
 90
        0
176
     1
 62
    18
420
        0
176
     1
 90
       50
176
     1
 90
        3
176
     1
 62
     5
420
      255
176
     1
290
     0
176
     1
 90
       50
176
     1
 90
       50
176
     1
 90
       50
176
     1
290
     0
176
     1
 90
       50
176
     1
 62
   256
176
     0
 40
1.0
176
     0
 90
        2
176
     1
  1
strokes_ogs.tif
176
     1
290
     0
176
     1
 40
1.0
176
     1
 40
1.0
176
     1
  0
VISUALSTYLE
  5
35
102
{ACAD_REACTORS
330
2A
102
}
330
2A
100
AcDbVisualStyle
  2
Dim
 70
    11
177
     3
291
     1
 70
    58
 90
        2
176
     1
 90
        2
176
     1
 90
        0
176
     1
 90
        0
176
     1
 40
0.6
176
     1
 40
30.0
176
     1
 62
     7
420
 16777215
176
     1
 90
        1
176
     1
 90
        4
176
     1
 62
     7
176
     1
 62
   257
176
     1
 90
        1
176
     1
 90
        1
176
     1
 40
1.0
176
     1
 90
        8
176
     1
 62
     7
176
     1
 40
1.0
176
     1
 90
        1
176
     1
 90
        6
176
     1
 90
        2
176
     1
 62
     7
176
     1
 90
        5
176
     1
 90
        0
176
     1
 90
        0
176
     1
290
     0
176
     1
 90
        1
176
     1
 40
-50.0
176
     1
 90
        0
176
     1
290
     0
176
     1
290
     1
176
     1
290
     1
176
     1
290
     0
176
     1
290
     0
176
     1
290
     0
176
     1
290
     0
176
     1
290
     0
176
     1
290
     0
176
     1
 90
       50
176
     1
 40
0.0
176
     1
 40
1.0
176
     1
 90
        0
176
     1
 62
    18
420
        0
176
     1
 90
       50
176
     1
 90
        3
176
     1
 62
     5
420
      255
176
     1
290
     0
176
     1
 90
       50
176
     1
 90
       50
176
     1
 90
       50
176
     1
290
     0
176
     1
 90
       50
176
     1
 62
   256
176
     0
 40
1.0
176
     0
 90
        2
176
     1
  1
strokes_ogs.tif
176
     1
290
     0
176
     1
 40
1.0
176
     1
 40
1.0
176
     1
  0
VISUALSTYLE
  5
3D
102
{ACAD_REACTORS
330
2A
102
}
330
2A
100
AcDbVisualStyle
  2
EdgeColorOff
 70
    22
177
     3
291
     1
 70
    58
 90
        2
176
     0
 90
        2
176
     0
 90
        0
176
     0
 90
        0
176
     0
 40
0.6
176
     0
 40
30.0
176
     0
 62
     7
420
 16777215
176
     0
 90
        1
176
     0
 90
        4
176
     0
 62
     7
176
     0
 62
   257
176
     0
 90
        1
176
     0
 90
        1
176
     0
 40
1.0
176
     0
 90
        8
176
     2
 62
     7
176
     0
 40
1.0
176
     0
 90
        1
176
     0
 90
        6
176
     0
 90
        2
176
     0
 62
     7
176
     0
 90
        5
176
     0
 90
        0
176
     0
 90
        0
176
     0
290
     0
176
     0
 90
        1
176
     0
 40
0.0
176
     0
 90
        0
176
     0
290
     0
176
     0
290
     1
176
     0
290
     1
176
     0
290
     0
176
     0
290
     0
176
     0
290
     0
176
     0
290
     0
176
     0
290
     0
176
     0
290
     0
176
     0
 90
       50
176
     0
 40
0.0
176
     0
 40
1.0
176
     0
 90
        0
176
     0
 62
    18
420
        0
176
     0
 90
       50
176
     0
 90
        3
176
     0
 62
     5
420
      255
176
     0
290
     0
176
     0
 90
       50
176
     0
 90
       50
176
     0
 90
       50
176
     0
290
     0
176
     0
 90
       50
176
     0
 62
   256
176
     0
 40
1.0
176
     0
 90
        2
176
     0
  1
strokes_ogs.tif
176
     0
290
     0
176
     0
 40
1.0
176
     0
 40
1.0
176
     0
  0
VISUALSTYLE
  5
39
102
{ACAD_REACTORS
330
2A
102
}
330
2A
100
AcDbVisualStyle
  2
Facepattern
 70
    15
177
     3
291
     1
 70
    58
 90
        2
176
     1
 90
        2
176
     1
 90
        0
176
     1
 90
        0
176
     1
 40
0.6
176
     1
 40
30.0
176
     1
 62
     7
420
 16777215
176
     1
 90
        1
176
     1
 90
        4
176
     1
 62
     7
176
     1
 62
   257
176
     1
 90
        1
176
     1
 90
        1
176
     1
 40
1.0
176
     1
 90
        8
176
     1
 62
     7
176
     1
 40
1.0
176
     1
 90
        1
176
     1
 90
        6
176
     1
 90
        2
176
     1
 62
     7
176
     1
 90
        5
176
     1
 90
        0
176
     1
 90
        0
176
     1
290
     0
176
     1
 90
        1
176
     1
 40
0.0
176
     1
 90
        0
176
     1
290
     0
176
     1
290
     1
176
     1
290
     1
176
     1
290
     0
176
     1
290
     0
176
     1
290
     0
176
     1
290
     0
176
     1
290
     0
176
     1
290
     0
176
     1
 90
       50
176
     1
 40
0.0
176
     1
 40
1.0
176
     1
 90
        0
176
     1
 62
    18
420
        0
176
     1
 90
       50
176
     1
 90
        3
176
     1
 62
     5
420
      255
176
     1
290
     0
176
     1
 90
       50
176
     1
 90
       50
176
     1
 90
       50
176
     1
290
     0
176
     1
 90
       50
176
     1
 62
   256
176
     0
 40
1.0
176
     0
 90
        2
176
     1
  1
strokes_ogs.tif
176
     1
290
     0
176
     1
 40
1.0
176
     1
 40
1.0
176
     1
  0
VISUALSTYLE
  5
2B
102
{ACAD_REACTORS
330
2A
102
}
330
2A
100
AcDbVisualStyle
  2
Flat
 70
     0
177
     3
291
     1
 70
    58
 90
        2
176
     1
 90
        1
176
     1
 90
        1
176
     1
 90
        2
176
     1
 40
0.6
176
     1
 40
30.0
176
     1
 62
     7
420
 16777215
176
     1
 90
        0
176
     1
 90
        0
176
     1
 62
     7
176
     1
 62
   257
176
     1
 90
        1
176
     1
 90
        1
176
     1
 40
1.0
176
     1
 90
        8
176
     1
 62
     7
176
     1
 40
1.0
176
     1
 90
        1
176
     1
 90
        6
176
     1
 90
        2
176
     1
 62
     7
176
     1
 90
        5
176
     1
 90
        0
176
     1
 90
        0
176
     1
290
     0
176
     1
 90
       13
176
     1
 40
0.0
176
     1
 90
        0
176
     1
290
     0
176
     1
290
     1
176
     1
290
     1
176
     1
290
     0
176
     1
290
     0
176
     1
290
     0
176
     1
290
     0
176
     1
290
     0
176
     1
290
     0
176
     1
 90
       50
176
     1
 40
0.0
176
     1
 40
1.0
176
     1
 90
        0
176
     1
 62
    18
420
        0
176
     1
 90
       50
176
     1
 90
        3
176
     1
 62
     5
420
      255
176
     1
290
     0
176
     1
 90
       50
176
     1
 90
       50
176
     1
 90
       50
176
     1
290
     0
176
     1
 90
       50
176
     1
 62
   256
176
     0
 40
1.0
176
     0
 90
        2
176
     1
  1
strokes_ogs.tif
176
     1
290
     0
176
     1
 40
1.0
176
     1
 40
1.0
176
     1
  0
VISUALSTYLE
  5
2C
102
{ACAD_REACTORS
330
2A
102
}
330
2A
100
AcDbVisualStyle
  2
FlatWithEdges
 70
     1
177
     3
291
     1
 70
    58
 90
        2
176
     1
 90
        1
176
     1
 90
        1
176
     1
 90
        2
176
     1
 40
0.6
176
     1
 40
30.0
176
     1
 62
     7
420
 16777215
176
     1
 90
        1
176
     1
 90
        0
176
     1
 62
     7
176
     1
 62
   257
176
     1
 90
        1
176
     1
 90
        1
176
     1
 40
1.0
176
     1
 90
        0
176
     1
 62
   257
176
     1
 40
1.0
176
     1
 90
        1
176
     1
 90
        6
176
     1
 90
        2
176
     1
 62
     7
176
     1
 90
        5
176
     1
 90
        0
176
     1
 90
        0
176
     1
290
     0
176
     1
 90
       13
176
     1
 40
0.0
176
     1
 90
        0
176
     1
290
     0
176
     1
290
     1
176
     1
290
     1
176
     1
290
     0
176
     1
290
     0
176
     1
290
     0
176
     1
290
     0
176
     1
290
     0
176
     1
290
     0
176
     1
 90
       50
176
     1
 40
0.0
176
     1
 40
1.0
176
     1
 90
        0
176
     1
 62
    18
420
        0
176
     1
 90
       50
176
     1
 90
        3
176
     1
 62
     5
420
      255
176
     1
290
     0
176
     1
 90
       50
176
     1
 90
       50
176
     1
 90
       50
176
     1
290
     0
176
     1
 90
       50
176
     1
 62
   256
176
     0
 40
1.0
176
     0
 90
        2
176
     1
  1
strokes_ogs.tif
176
     1
290
     0
176
     1
 40
1.0
176
     1
 40
1.0
176
     1
  0
VISUALSTYLE
  5
2D
102
{ACAD_REACTORS
330
2A
102
}
330
2A
100
AcDbVisualStyle
  2
Gouraud
 70
     2
177
     3
291
     1
 70
    58
 90
        2
176
     1
 90
        2
176
     1
 90
        1
176
     1
 90
        2
176
     1
 40
0.6
176
     1
 40
30.0
176
     1
 62
     7
420
 16777215
176
     1
 90
        0
176
     1
 90
        0
176
     1
 62
     7
176
     1
 62
   257
176
     1
 90
        1
176
     1
 90
        1
176
     1
 40
1.0
176
     1
 90
        0
176
     1
 62
     7
176
     1
 40
1.0
176
     1
 90
        1
176
     1
 90
        6
176
     1
 90
        2
176
     1
 62
     7
176
     1
 90
        5
176
     1
 90
        0
176
     1
 90
        0
176
     1
290
     0
176
     1
 90
       13
176
     1
 40
0.0
176
     1
 90
        0
176
     1
290
     0
176
     1
290
     1
176
     1
290
     1
176
     1
290
     0
176
     1
290
     0
176
     1
290
     0
176
     1
290
     0
176
     1
290
     0
176
     1
290
     0
176
     1
 90
       50
176
     1
 40
0.0
176
     1
 40
1.0
176
     1
 90
        0
176
     1
 62
    18
420
        0
176
     1
 90
       50
176
     1
 90
        3
176
     1
 62
     5
420
      255
176
     1
290
     0
176
     1
 90
       50
176
     1
 90
       50
176
     1
 90
       50
176
     1
290
     0
176
     1
 90
       50
176
     1
 62
   256
176
     0
 40
1.0
176
     0
 90
        2
176
     1
  1
strokes_ogs.tif
176
     1
290
     0
176
     1
 40
1.0
176
     1
 40
1.0
176
     1
  0
VISUALSTYLE
  5
2E
102
{ACAD_REACTORS
330
2A
102
}
330
2A
100
AcDbVisualStyle
  2
GouraudWithEdges
 70
     3
177
     3
291
     1
 70
    58
 90
        2
176
     1
 90
        2
176
     1
 90
        1
176
     1
 90
        2
176
     1
 40
0.6
176
     1
 40
30.0
176
     1
 62
     7
420
 16777215
176
     1
 90
        1
176
     1
 90
        0
176
     1
 62
     7
176
     1
 62
   257
176
     1
 90
        1
176
     1
 90
        1
176
     1
 40
1.0
176
     1
 90
        0
176
     1
 62
   257
176
     1
 40
1.0
176
     1
 90
        1
176
     1
 90
        6
176
     1
 90
        2
176
     1
 62
     7
176
     1
 90
        5
176
     1
 90
        0
176
     1
 90
        0
176
     1
290
     0
176
     1
 90
       13
176
     1
 40
0.0
176
     1
 90
        0
176
     1
290
     0
176
     1
290
     1
176
     1
290
     1
176
     1
290
     0
176
     1
290
     0
176
     1
290
     0
176
     1
290
     0
176
     1
290
     0
176
     1
290
     0
176
     1
 90
       50
176
     1
 40
0.0
176
     1
 40
1.0
176
     1
 90
        0
176
     1
 62
    18
420
        0
176
     1
 90
       50
176
     1
 90
        3
176
     1
 62
     5
420
      255
176
     1
290
     0
176
     1
 90
       50
176
     1
 90
       50
176
     1
 90
       50
176
     1
290
     0
176
     1
 90
       50
176
     1
 62
   256
176
     0
 40
1.0
176
     0
 90
        2
176
     1
  1
strokes_ogs.tif
176
     1
290
     0
176
     1
 40
1.0
176
     1
 40
1.0
176
     1
  0
VISUALSTYLE
  5
31
102
{ACAD_REACTORS
330
2A
102
}
330
2A
100
AcDbVisualStyle
  2
Hidden
 70
     6
177
     3
291
     0
 70
    58
 90
        1
176
     1
 90
        2
176
     1
 90
        2
176
     1
 90
        0
176
     1
 40
0.6
176
     1
 40
30.0
176
     1
 62
     7
420
 16777215
176
     1
 90
        2
176
     1
 90
        2
176
     1
 62
     7
176
     1
 62
   257
176
     1
 90
        2
176
     1
 90
        1
176
     1
 40
40.0
176
     1
 90
        0
176
     1
 62
   257
176
     1
 40
1.0
176
     1
 90
        1
176
     1
 90
        6
176
     1
 90
        2
176
     1
 62
     7
176
     1
 90
        3
176
     1
 90
        0
176
     1
 90
        0
176
     1
290
     0
176
     1
 90
        1
176
     1
 40
0.0
176
     1
 90
        0
176
     1
290
     0
176
     1
290
     1
176
     1
290
     1
176
     1
290
     0
176
     1
290
     0
176
     1
290
     0
176
     1
290
     0
176
     1
290
     0
176
     1
290
     0
176
     1
 90
       50
176
     1
 40
0.0
176
     1
 40
1.0
176
     1
 90
        0
176
     1
 62
    18
420
        0
176
     1
 90
       50
176
     1
 90
        3
176
     1
 62
     5
420
      255
176
     1
290
     0
176
     1
 90
       50
176
     1
 90
       50
176
     1
 90
       50
176
     1
290
     0
176
     1
 90
       50
176
     1
 62
   256
176
     0
 40
1.0
176
     0
 90
        2
176
     1
  1
strokes_ogs.tif
176
     1
290
     0
176
     1
 40
1.0
176
     1
 40
1.0
176
     1
  0
VISUALSTYLE
  5
3B
102
{ACAD_REACTORS
330
2A
102
}
330
2A
100
AcDbVisualStyle
  2
JitterOff
 70
    20
177
     3
291
     1
 70
    58
 90
        2
176
     0
 90
        2
176
     0
 90
        0
176
     0
 90
        0
176
     0
 40
0.6
176
     0
 40
30.0
176
     0
 62
     7
420
 16777215
176
     0
 90
        1
176
     0
 90
        4
176
     0
 62
     7
176
     0
 62
   257
176
     0
 90
        1
176
     0
 90
        1
176
     0
 40
1.0
176
     0
 90
       10
176
     2
 62
     7
176
     0
 40
1.0
176
     0
 90
        1
176
     0
 90
        6
176
     0
 90
        2
176
     0
 62
     7
176
     0
 90
        5
176
     0
 90
        0
176
     0
 90
        0
176
     0
290
     0
176
     0
 90
        1
176
     0
 40
0.0
176
     0
 90
        0
176
     0
290
     0
176
     0
290
     1
176
     0
290
     1
176
     0
290
     0
176
     0
290
     0
176
     0
290
     0
176
     0
290
     0
176
     0
290
     0
176
     0
290
     0
176
     0
 90
       50
176
     0
 40
0.0
176
     0
 40
1.0
176
     0
 90
        0
176
     0
 62
    18
420
        0
176
     0
 90
       50
176
     0
 90
        3
176
     0
 62
     5
420
      255
176
     0
290
     0
176
     0
 90
       50
176
     0
 90
       50
176
     0
 90
       50
176
     0
290
     0
176
     0
 90
       50
176
     0
 62
   256
176
     0
 40
1.0
176
     0
 90
        2
176
     0
  1
strokes_ogs.tif
176
     0
290
     0
176
     0
 40
1.0
176
     0
 40
1.0
176
     0
  0
VISUALSTYLE
  5
38
102
{ACAD_REACTORS
330
2A
102
}
330
2A
100
AcDbVisualStyle
  2
Linepattern
 70
    14
177
     3
291
     1
 70
    58
 90
        2
176
     1
 90
        2
176
     1
 90
        0
176
     1
 90
        0
176
     1
 40
0.6
176
     1
 40
30.0
176
     1
 62
     7
420
 16777215
176
     1
 90
        1
176
     1
 90
        4
176
     1
 62
     7
176
     1
 62
   257
176
     1
 90
        7
176
     1
 90
        7
176
     1
 40
1.0
176
     1
 90
        8
176
     1
 62
     7
176
     1
 40
1.0
176
     1
 90
        1
176
     1
 90
        6
176
     1
 90
        2
176
     1
 62
     7
176
     1
 90
        5
176
     1
 90
        0
176
     1
 90
        0
176
     1
290
     0
176
     1
 90
        1
176
     1
 40
0.0
176
     1
 90
        0
176
     1
290
     0
176
     1
290
     1
176
     1
290
     1
176
     1
290
     0
176
     1
290
     0
176
     1
290
     0
176
     1
290
     0
176
     1
290
     0
176
     1
290
     0
176
     1
 90
       50
176
     1
 40
0.0
176
     1
 40
1.0
176
     1
 90
        0
176
     1
 62
    18
420
        0
176
     1
 90
       50
176
     1
 90
        3
176
     1
 62
     5
420
      255
176
     1
290
     0
176
     1
 90
       50
176
     1
 90
       50
176
     1
 90
       50
176
     1
290
     0
176
     1
 90
       50
176
     1
 62
   256
176
     0
 40
1.0
176
     0
 90
        2
176
     1
  1
strokes_ogs.tif
176
     1
290
     0
176
     1
 40
1.0
176
     1
 40
1.0
176
     1
  0
VISUALSTYLE
  5
3C
102
{ACAD_REACTORS
330
2A
102
}
330
2A
100
AcDbVisualStyle
  2
OverhangOff
 70
    21
177
     3
291
     1
 70
    58
 90
        2
176
     0
 90
        2
176
     0
 90
        0
176
     0
 90
        0
176
     0
 40
0.6
176
     0
 40
30.0
176
     0
 62
     7
420
 16777215
176
     0
 90
        1
176
     0
 90
        4
176
     0
 62
     7
176
     0
 62
   257
176
     0
 90
        1
176
     0
 90
        1
176
     0
 40
1.0
176
     0
 90
        9
176
     2
 62
     7
176
     0
 40
1.0
176
     0
 90
        1
176
     0
 90
        6
176
     0
 90
        2
176
     0
 62
     7
176
     0
 90
        5
176
     0
 90
        0
176
     0
 90
        0
176
     0
290
     0
176
     0
 90
        1
176
     0
 40
0.0
176
     0
 90
        0
176
     0
290
     0
176
     0
290
     1
176
     0
290
     1
176
     0
290
     0
176
     0
290
     0
176
     0
290
     0
176
     0
290
     0
176
     0
290
     0
176
     0
290
     0
176
     0
 90
       50
176
     0
 40
0.0
176
     0
 40
1.0
176
     0
 90
        0
176
     0
 62
    18
420
        0
176
     0
 90
       50
176
     0
 90
        3
176
     0
 62
     5
420
      255
176
     0
290
     0
176
     0
 90
       50
176
     0
 90
       50
176
     0
 90
       50
176
     0
290
     0
176
     0
 90
       50
176
     0
 62
   256
176
     0
 40
1.0
176
     0
 90
        2
176
     0
  1
strokes_ogs.tif
176
     0
290
     0
176
     0
 40
1.0
176
     0
 40
1.0
176
     0
  0
VISUALSTYLE
  5
33
102
{ACAD_REACTORS
330
2A
102
}
330
2A
100
AcDbVisualStyle
  2
Realistic
 70
     8
177
     3
291
     0
 70
    58
 90
        2
176
     1
 90
        3
176
     1
 90
        0
176
     1
 90
        2
176
     1
 40
0.6
176
     1
 40
30.0
176
     1
 62
     7
420
 16777215
176
     1
 90
        0
176
     1
 90
        0
176
     1
 62
     7
176
     1
 62
   257
176
     1
 90
        1
176
     1
 90
        1
176
     1
 40
1.0
176
     1
 90
        8
176
     1
 62
   257
176
     1
 40
1.0
176
     1
 90
        1
176
     1
 90
        6
176
     1
 90
        2
176
     1
 62
     7
176
     1
 90
        3
176
     1
 90
        0
176
     1
 90
        0
176
     1
290
     0
176
     1
 90
       13
176
     1
 40
0.0
176
     1
 90
        0
176
     1
290
     0
176
     1
290
     1
176
     1
290
     1
176
     1
290
     0
176
     1
290
     0
176
     1
290
     0
176
     1
290
     0
176
     1
290
     0
176
     1
290
     0
176
     1
 90
       50
176
     1
 40
0.0
176
     1
 40
1.0
176
     1
 90
        0
176
     1
 62
    18
420
        0
176
     1
 90
       50
176
     1
 90
        3
176
     1
 62
     5
420
      255
176
     1
290
     0
176
     1
 90
       50
176
     1
 90
       50
176
     1
 90
       50
176
     1
290
     0
176
     1
 90
       50
176
     1
 62
   256
176
     0
 40
1.0
176
     0
 90
        2
176
     1
  1
strokes_ogs.tif
176
     1
290
     0
176
     1
 40
1.0
176
     1
 40
1.0
176
     1
  0
VISUALSTYLE
  5
42
102
{ACAD_REACTORS
330
2A
102
}
330
2A
100
AcDbVisualStyle
  2
Shaded
 70
    27
177
     3
291
     0
 70
    58
 90
        2
176
     1
 90
        2
176
     1
 90
        1
176
     1
 90
        2
176
     1
 40
0.6
176
     1
 40
30.0
176
     1
 62
     7
420
 16777215
176
     1
 90
        0
176
     1
 90
        4
176
     1
 62
     7
176
     1
 62
   257
176
     1
 90
        1
176
     1
 90
        1
176
     1
 40
1.0
176
     1
 90
        8
176
     1
 62
   257
176
     1
 40
1.0
176
     1
 90
        1
176
     1
 90
        6
176
     1
 90
        2
176
     1
 62
     8
420
  7895160
176
     1
 90
        3
176
     1
 90
        0
176
     1
 90
        0
176
     1
290
     0
176
     1
 90
        5
176
     1
 40
0.0
176
     1
 90
        0
176
     1
290
     0
176
     1
290
     1
176
     1
290
     1
176
     1
290
     0
176
     1
290
     0
176
     1
290
     0
176
     1
290
     0
176
     1
290
     0
176
     1
290
     0
176
     1
 90
       50
176
     1
 40
0.0
176
     1
 40
1.0
176
     1
 90
        0
176
     1
 62
    18
420
        0
176
     1
 90
       50
176
     1
 90
        3
176
     1
 62
     5
420
      255
176
     1
290
     0
176
     1
 90
       50
176
     1
 90
       50
176
     1
 90
       50
176
     1
290
     0
176
     1
 90
       50
176
     1
 62
   256
176
     0
 40
1.0
176
     0
 90
        2
176
     1
  1
strokes_ogs.tif
176
     1
290
     0
176
     1
 40
1.0
176
     1
 40
1.0
176
     1
  0
VISUALSTYLE
  5
41
102
{ACAD_REACTORS
330
2A
102
}
330
2A
100
AcDbVisualStyle
  2
Shaded with edges
 70
    26
177
     3
291
     0
 70
    58
 90
        2
176
     1
 90
        2
176
     1
 90
        1
176
     1
 90
        2
176
     1
 40
0.6
176
     1
 40
30.0
176
     1
 62
     7
420
 16777215
176
     1
 90
        1
176
     1
 90
       10
176
     1
 62
     7
176
     1
 62
   257
176
     1
 90
        2
176
     1
 90
        1
176
     1
 40
1.0
176
     1
 90
        8
176
     1
 62
   257
176
     1
 40
1.0
176
     1
 90
        1
176
     1
 90
        6
176
     1
 90
        2
176
     1
 62
     7
176
     1
 90
        3
176
     1
 90
        0
176
     1
 90
        0
176
     1
290
     0
176
     1
 90
        5
176
     1
 40
0.0
176
     1
 90
        0
176
     1
290
     0
176
     1
290
     1
176
     1
290
     1
176
     1
290
     0
176
     1
290
     0
176
     1
290
     0
176
     1
290
     0
176
     1
290
     0
176
     1
290
     0
176
     1
 90
       50
176
     1
 40
0.0
176
     1
 40
1.0
176
     1
 90
        0
176
     1
 62
    18
420
        0
176
     1
 90
       50
176
     1
 90
        3
176
     1
 62
     5
420
      255
176
     1
290
     0
176
     1
 90
       50
176
     1
 90
       50
176
     1
 90
       50
176
     1
290
     0
176
     1
 90
       50
176
     1
 62
   256
176
     0
 40
1.0
176
     0
 90
        2
176
     1
  1
strokes_ogs.tif
176
     1
290
     0
176
     1
 40
1.0
176
     1
 40
1.0
176
     1
  0
VISUALSTYLE
  5
3E
102
{ACAD_REACTORS
330
2A
102
}
330
2A
100
AcDbVisualStyle
  2
Shades of Gray
 70
    23
177
     3
291
     0
 70
    58
 90
        2
176
     1
 90
        2
176
     1
 90
        3
176
     1
 90
        0
176
     1
 40
0.6
176
     1
 40
30.0
176
     1
 62
     7
420
 16777215
176
     1
 90
        2
176
     1
 90
        2
176
     1
 62
     7
176
     1
 62
     7
176
     1
 90
        1
176
     1
 90
        1
176
     1
 40
40.0
176
     1
 90
        8
176
     1
 62
     7
176
     1
 40
1.0
176
     1
 90
        1
176
     1
 90
        6
176
     1
 90
        2
176
     1
 62
     7
176
     1
 90
        3
176
     1
 90
        0
176
     1
 90
        0
176
     1
290
     0
176
     1
 90
        1
176
     1
 40
0.0
176
     1
 90
        0
176
     1
290
     0
176
     1
290
     1
176
     1
290
     1
176
     1
290
     0
176
     1
290
     0
176
     1
290
     0
176
     1
290
     0
176
     1
290
     0
176
     1
290
     0
176
     1
 90
       50
176
     1
 40
0.0
176
     1
 40
1.0
176
     1
 90
        0
176
     1
 62
    18
420
        0
176
     1
 90
       50
176
     1
 90
        3
176
     1
 62
     5
420
      255
176
     1
290
     0
176
     1
 90
       50
176
     1
 90
       50
176
     1
 90
       50
176
     1
290
     0
176
     1
 90
       50
176
     1
 62
   256
176
     0
 40
1.0
176
     0
 90
        2
176
     1
  1
strokes_ogs.tif
176
     1
290
     0
176
     1
 40
1.0
176
     1
 40
1.0
176
     1
  0
VISUALSTYLE
  5
3F
102
{ACAD_REACTORS
330
2A
102
}
330
2A
100
AcDbVisualStyle
  2
Sketchy
 70
    24
177
     3
291
     0
 70
    58
 90
        1
176
     1
 90
        2
176
     1
 90
        2
176
     1
 90
        0
176
     1
 40
0.6
176
     1
 40
30.0
176
     1
 62
     7
420
 16777215
176
     1
 90
        2
176
     1
 90
        2
176
     1
 62
     7
176
     1
 62
     7
176
     1
 90
        1
176
     1
 90
        1
176
     1
 40
40.0
176
     1
 90
       11
176
     1
 62
     7
176
     1
 40
1.0
176
     1
 90
        1
176
     1
 90
        6
176
     1
 90
        2
176
     1
 62
     7
176
     1
 90
        6
176
     1
 90
        0
176
     1
 90
        0
176
     1
290
     0
176
     1
 90
        1
176
     1
 40
0.0
176
     1
 90
        0
176
     1
290
     0
176
     1
290
     1
176
     1
290
     1
176
     1
290
     0
176
     1
290
     0
176
     1
290
     0
176
     1
290
     0
176
     1
290
     0
176
     1
290
     0
176
     1
 90
       50
176
     1
 40
0.0
176
     1
 40
1.0
176
     1
 90
        0
176
     1
 62
    18
420
        0
176
     1
 90
       50
176
     1
 90
        3
176
     1
 62
     5
420
      255
176
     1
290
     0
176
     1
 90
       50
176
     1
 90
       50
176
     1
 90
       50
176
     1
290
     0
176
     1
 90
       50
176
     1
 62
   256
176
     0
 40
1.0
176
     0
 90
        2
176
     1
  1
strokes_ogs.tif
176
     1
290
     0
176
     1
 40
1.0
176
     1
 40
1.0
176
     1
  0
VISUALSTYLE
  5
37
102
{ACAD_REACTORS
330
2A
102
}
330
2A
100
AcDbVisualStyle
  2
Thicken
 70
    13
177
     3
291
     1
 70
    58
 90
        2
176
     1
 90
        2
176
     1
 90
        0
176
     1
 90
        0
176
     1
 40
0.6
176
     1
 40
30.0
176
     1
 62
     7
420
 16777215
176
     1
 90
        1
176
     1
 90
        4
176
     1
 62
     7
176
     1
 62
   257
176
     1
 90
        1
176
     1
 90
        1
176
     1
 40
1.0
176
     1
 90
       12
176
     1
 62
     7
176
     1
 40
1.0
176
     1
 90
        1
176
     1
 90
        6
176
     1
 90
        2
176
     1
 62
     7
176
     1
 90
        5
176
     1
 90
        0
176
     1
 90
        0
176
     1
290
     0
176
     1
 90
        1
176
     1
 40
0.0
176
     1
 90
        0
176
     1
290
     0
176
     1
290
     1
176
     1
290
     1
176
     1
290
     0
176
     1
290
     0
176
     1
290
     0
176
     1
290
     0
176
     1
290
     0
176
     1
290
     0
176
     1
 90
       50
176
     1
 40
0.0
176
     1
 40
1.0
176
     1
 90
        0
176
     1
 62
    18
420
        0
176
     1
 90
       50
176
     1
 90
        3
176
     1
 62
     5
420
      255
176
     1
290
     0
176
     1
 90
       50
176
     1
 90
       50
176
     1
 90
       50
176
     1
290
     0
176
     1
 90
       50
176
     1
 62
   256
176
     0
 40
1.0
176
     0
 90
        2
176
     1
  1
strokes_ogs.tif
176
     1
290
     0
176
     1
 40
1.0
176
     1
 40
1.0
176
     1
  0
VISUALSTYLE
  5
30
102
{ACAD_REACTORS
330
2A
102
}
330
2A
100
AcDbVisualStyle
  2
Wireframe
 70
     5
177
     3
291
     0
 70
    58
 90
        0
176
     1
 90
        2
176
     1
 90
        0
176
     1
 90
        0
176
     1
 40
0.6
176
     1
 40
30.0
176
     1
 62
     7
420
 16777215
176
     1
 90
        1
176
     1
 90
        4
176
     1
 62
     7
176
     1
 62
   257
176
     1
 90
        1
176
     1
 90
        1
176
     1
 40
1.0
176
     1
 90
        0
176
     1
 62
   257
176
     1
 40
1.0
176
     1
 90
        1
176
     1
 90
        6
176
     1
 90
        2
176
     1
 62
     7
176
     1
 90
        3
176
     1
 90
        0
176
     1
 90
        0
176
     1
290
     0
176
     1
 90
        1
176
     1
 40
0.0
176
     1
 90
        0
176
     1
290
     0
176
     1
290
     1
176
     1
290
     1
176
     1
290
     0
176
     1
290
     0
176
     1
290
     0
176
     1
290
     0
176
     1
290
     0
176
     1
290
     0
176
     1
 90
       50
176
     1
 40
0.0
176
     1
 40
1.0
176
     1
 90
        0
176
     1
 62
    18
420
        0
176
     1
 90
       50
176
     1
 90
        3
176
     1
 62
     5
420
      255
176
     1
290
     0
176
     1
 90
       50
176
     1
 90
       50
176
     1
 90
       50
176
     1
290
     0
176
     1
 90
       50
176
     1
 62
   256
176
     0
 40
1.0
176
     0
 90
        2
176
     1
  1
strokes_ogs.tif
176
     1
290
     0
176
     1
 40
1.0
176
     1
 40
1.0
176
     1
  0
VISUALSTYLE
  5
40
102
{ACAD_REACTORS
330
2A
102
}
330
2A
100
AcDbVisualStyle
  2
X-Ray
 70
    25
177
     3
291
     0
 70
    58
 90
        2
176
     1
 90
        2
176
     1
 90
        1
176
     1
 90
        1
176
     1
 40
0.5
176
     1
 40
30.0
176
     1
 62
     7
420
 16777215
176
     1
 90
        1
176
     1
 90
        0
176
     1
 62
     7
176
     1
 62
   257
176
     1
 90
        1
176
     1
 90
        1
176
     1
 40
1.0
176
     1
 90
        8
176
     1
 62
     7
176
     1
 40
1.0
176
     1
 90
        1
176
     1
 90
        6
176
     1
 90
        2
176
     1
 62
     7
176
     1
 90
        3
176
     1
 90
        0
176
     1
 90
        0
176
     1
290
     0
176
     1
 90
       13
176
     1
 40
0.0
176
     1
 90
        0
176
     1
290
     0
176
     1
290
     1
176
     1
290
     1
176
     1
290
     0
176
     1
290
     0
176
     1
290
     0
176
     1
290
     0
176
     1
290
     0
176
     1
290
     0
176
     1
 90
       50
176
     1
 40
0.0
176
     1
 40
1.0
176
     1
 90
        0
176
     1
 62
    18
420
        0
176
     1
 90
       50
176
     1
 90
        3
176
     1
 62
     5
420
      255
176
     1
290
     0
176
     1
 90
       50
176
     1
 90
       50
176
     1
 90
       50
176
     1
290
     0
176
     1
 90
       50
176
     1
 62
   256
176
     0
 40
1.0
176
     0
 90
        2
176
     1
  1
strokes_ogs.tif
176
     1
290
     0
176
     1
 40
1.0
176
     1
 40
1.0
176
     1
  0
DICTIONARYVAR
  5
89
102
{ACAD_REACTORS
330
88
102
}
330
88
100
DictionaryVariables
280
     0
  1
1:1
  0
DICTIONARYVAR
  5
8E
102
{ACAD_REACTORS
330
88
102
}
330
88
100
DictionaryVariables
280
     0
  1
Standard
  0
DICTIONARYVAR
  5
8D
102
{ACAD_REACTORS
330
88
102
}
330
88
100
DictionaryVariables
280
     0
  1
Standard
  0
DICTIONARY
  5
8A
330
5A
100
AcDbDictionary
280
     1
281
     1
  3
ACAD_ROUNDTRIP_2008_TABLESTYLE_CELLSTYLEMAP
360
8B
  0
CELLSTYLEMAP
  5
8B
102
{ACAD_REACTORS
330
8A
102
}
330
8A
100
AcDbCellStyleMap
 90
        3
300
CELLSTYLE
  1
TABLEFORMAT_BEGIN
 90
        5
170
     1
 91
        0
 92
    32768
 62
   257
 93
        1
300
CONTENTFORMAT
  1
CONTENTFORMAT_BEGIN
 90
        0
 91
        0
 92
        4
 93
        0
300

 40
0.0
140
1.0
 94
        5
 62
     0
340
11
144
0.25
309
CONTENTFORMAT_END
171
     1
301
MARGIN
  1
CELLMARGIN_BEGIN
 40
0.06
 40
0.06
 40
0.06
 40
0.06
 40
0.06
 40
0.06
309
CELLMARGIN_END
 94
        6
 95
        1
302
GRIDFORMAT
  1
GRIDFORMAT_BEGIN
 90
        0
 91
        1
 62
     0
 92
       -2
340
14
 93
        0
 40
0.045
309
GRIDFORMAT_END
 95
        2
302
GRIDFORMAT
  1
GRIDFORMAT_BEGIN
 90
        0
 91
        1
 62
     0
 92
       -2
340
14
 93
        0
 40
0.045
309
GRIDFORMAT_END
 95
        4
302
GRIDFORMAT
  1
GRIDFORMAT_BEGIN
 90
        0
 91
        1
 62
     0
 92
       -2
340
14
 93
        0
 40
0.045
309
GRIDFORMAT_END
 95
        8
302
GRIDFORMAT
  1
GRIDFORMAT_BEGIN
 90
        0
 91
        1
 62
     0
 92
       -2
340
14
 93
        0
 40
0.045
309
GRIDFORMAT_END
 95
       16
302
GRIDFORMAT
  1
GRIDFORMAT_BEGIN
 90
        0
 91
        1
 62
     0
 92
       -2
340
14
 93
        0
 40
0.045
309
GRIDFORMAT_END
 95
       32
302
GRIDFORMAT
  1
GRIDFORMAT_BEGIN
 90
        0
 91
        1
 62
     0
 92
       -2
340
14
 93
        0
 40
0.045
309
GRIDFORMAT_END
309
TABLEFORMAT_END
  1
CELLSTYLE_BEGIN
 90
        1
 91
        1
300
_TITLE
309
CELLSTYLE_END
300
CELLSTYLE
  1
TABLEFORMAT_BEGIN
 90
        5
170
     1
 91
        0
 92
        0
 62
   257
 93
        1
300
CONTENTFORMAT
  1
CONTENTFORMAT_BEGIN
 90
        0
 91
        0
 92
        4
 93
        0
300

 40
0.0
140
1.0
 94
        5
 62
     0
340
11
144
0.18
309
CONTENTFORMAT_END
171
     1
301
MARGIN
  1
CELLMARGIN_BEGIN
 40
0.06
 40
0.06
 40
0.06
 40
0.06
 40
0.06
 40
0.06
309
CELLMARGIN_END
 94
        6
 95
        1
302
GRIDFORMAT
  1
GRIDFORMAT_BEGIN
 90
        0
 91
        1
 62
     0
 92
       -2
340
14
 93
        0
 40
0.045
309
GRIDFORMAT_END
 95
        2
302
GRIDFORMAT
  1
GRIDFORMAT_BEGIN
 90
        0
 91
        1
 62
     0
 92
       -2
340
14
 93
        0
 40
0.045
309
GRIDFORMAT_END
 95
        4
302
GRIDFORMAT
  1
GRIDFORMAT_BEGIN
 90
        0
 91
        1
 62
     0
 92
       -2
340
14
 93
        0
 40
0.045
309
GRIDFORMAT_END
 95
        8
302
GRIDFORMAT
  1
GRIDFORMAT_BEGIN
 90
        0
 91
        1
 62
     0
 92
       -2
340
14
 93
        0
 40
0.045
309
GRIDFORMAT_END
 95
       16
302
GRIDFORMAT
  1
GRIDFORMAT_BEGIN
 90
        0
 91
        1
 62
     0
 92
       -2
340
14
 93
        0
 40
0.045
309
GRIDFORMAT_END
 95
       32
302
GRIDFORMAT
  1
GRIDFORMAT_BEGIN
 90
        0
 91
        1
 62
     0
 92
       -2
340
14
 93
        0
 40
0.045
309
GRIDFORMAT_END
309
TABLEFORMAT_END
  1
CELLSTYLE_BEGIN
 90
        2
 91
        1
300
_HEADER
309
CELLSTYLE_END
300
CELLSTYLE
  1
TABLEFORMAT_BEGIN
 90
        5
170
     1
 91
        0
 92
        0
 62
   257
 93
        1
300
CONTENTFORMAT
  1
CONTENTFORMAT_BEGIN
 90
        0
 91
        0
 92
        4
 93
        0
300

 40
0.0
140
1.0
 94
        2
 62
     0
340
11
144
0.18
309
CONTENTFORMAT_END
171
     1
301
MARGIN
  1
CELLMARGIN_BEGIN
 40
0.06
 40
0.06
 40
0.06
 40
0.06
 40
0.06
 40
0.06
309
CELLMARGIN_END
 94
        6
 95
        1
302
GRIDFORMAT
  1
GRIDFORMAT_BEGIN
 90
        0
 91
        1
 62
     0
 92
       -2
340
14
 93
        0
 40
0.045
309
GRIDFORMAT_END
 95
        2
302
GRIDFORMAT
  1
GRIDFORMAT_BEGIN
 90
        0
 91
        1
 62
     0
 92
       -2
340
14
 93
        0
 40
0.045
309
GRIDFORMAT_END
 95
        4
302
GRIDFORMAT
  1
GRIDFORMAT_BEGIN
 90
        0
 91
        1
 62
     0
 92
       -2
340
14
 93
        0
 40
0.045
309
GRIDFORMAT_END
 95
        8
302
GRIDFORMAT
  1
GRIDFORMAT_BEGIN
 90
        0
 91
        1
 62
     0
 92
       -2
340
14
 93
        0
 40
0.045
309
GRIDFORMAT_END
 95
       16
302
GRIDFORMAT
  1
GRIDFORMAT_BEGIN
 90
        0
 91
        1
 62
     0
 92
       -2
340
14
 93
        0
 40
0.045
309
GRIDFORMAT_END
 95
       32
302
GRIDFORMAT
  1
GRIDFORMAT_BEGIN
 90
        0
 91
        1
 62
     0
 92
       -2
340
14
 93
        0
 40
0.045
309
GRIDFORMAT_END
309
TABLEFORMAT_END
  1
CELLSTYLE_BEGIN
 90
        3
 91
        2
300
_DATA
309
CELLSTYLE_END
  0
ENDSEC
  0
EOF
