  0
SECTION
  2
HEADER
  9
$ACADVER
  1
AC1027
  9
$ACADMAINTVER
 70
   105
  9
$DWGCODEPAGE
  3
ANSI_1252
  9
$LASTSAVEDBY
  1
Office Desk
  9
$REQUIREDVERSIONS
160
                 0
  9
$INSBASE
 10
0.0
 20
0.0
 30
0.0
  9
$EXTMIN
 10
-21.59924803149606
 20
-5.350409448818898
 30
0.0
  9
$EXTMAX
 10
-14.08119291338583
 20
-1.030767716535433
 30
0.0
  9
$LIMMIN
 10
0.0
 20
0.0
  9
$LIMMAX
 10
12.0
 20
9.0
  9
$ORTHOMODE
 70
     0
  9
$REGENMODE
 70
     1
  9
$FILLMODE
 70
     1
  9
$QTEXTMODE
 70
     0
  9
$MIRRTEXT
 70
     1
  9
$LTSCALE
 40
1.0
  9
$ATTMODE
 70
     1
  9
$TEXTSIZE
 40
0.2
  9
$TRACEWID
 40
0.05
  9
$TEXTSTYLE
  7
Standard
  9
$CLAYER
  8
0
  9
$CELTYPE
  6
ByLayer
  9
$CECOLOR
 62
   256
  9
$CELTSCALE
 40
1.0
  9
$DISPSILH
 70
     0
  9
$DIMSCALE
 40
1.0
  9
$DIMASZ
 40
0.18
  9
$DIMEXO
 40
0.0625
  9
$DIMDLI
 40
0.38
  9
$DIMRND
 40
0.0
  9
$DIMDLE
 40
0.0
  9
$DIMEXE
 40
0.18
  9
$DIMTP
 40
0.0
  9
$DIMTM
 40
0.0
  9
$DIMTXT
 40
0.18
  9
$DIMCEN
 40
0.09
  9
$DIMTSZ
 40
0.0
  9
$DIMTOL
 70
     0
  9
$DIMLIM
 70
     0
  9
$DIMTIH
 70
     1
  9
$DIMTOH
 70
     1
  9
$DIMSE1
 70
     0
  9
$DIMSE2
 70
     0
  9
$DIMTAD
 70
     0
  9
$DIMZIN
 70
     0
  9
$DIMBLK
  1

  9
$DIMASO
 70
     1
  9
$DIMSHO
 70
     1
  9
$DIMPOST
  1

  9
$DIMAPOST
  1

  9
$DIMALT
 70
     0
  9
$DIMALTD
 70
     2
  9
$DIMALTF
 40
25.4
  9
$DIMLFAC
 40
1.0
  9
$DIMTOFL
 70
     0
  9
$DIMTVP
 40
0.0
  9
$DIMTIX
 70
     0
  9
$DIMSOXD
 70
     0
  9
$DIMSAH
 70
     0
  9
$DIMBLK1
  1

  9
$DIMBLK2
  1

  9
$DIMSTYLE
  2
Standard
  9
$DIMCLRD
 70
     0
  9
$DIMCLRE
 70
     0
  9
$DIMCLRT
 70
     0
  9
$DIMTFAC
 40
1.0
  9
$DIMGAP
 40
0.09
  9
$DIMJUST
 70
     0
  9
$DIMSD1
 70
     0
  9
$DIMSD2
 70
     0
  9
$DIMTOLJ
 70
     1
  9
$DIMTZIN
 70
     0
  9
$DIMALTZ
 70
     0
  9
$DIMALTTZ
 70
     0
  9
$DIMUPT
 70
     0
  9
$DIMDEC
 70
     4
  9
$DIMTDEC
 70
     4
  9
$DIMALTU
 70
     2
  9
$DIMALTTD
 70
     2
  9
$DIMTXSTY
  7
Standard
  9
$DIMAUNIT
 70
     0
  9
$DIMADEC
 70
     0
  9
$DIMALTRND
 40
0.0
  9
$DIMAZIN
 70
     0
  9
$DIMDSEP
 70
    46
  9
$DIMATFIT
 70
     3
  9
$DIMFRAC
 70
     0
  9
$DIMLDRBLK
  1

  9
$DIMLUNIT
 70
     2
  9
$DIMLWD
 70
    -2
  9
$DIMLWE
 70
    -2
  9
$DIMTMOVE
 70
     0
  9
$DIMFXL
 40
1.0
  9
$DIMFXLON
 70
     0
  9
$DIMJOGANG
 40
0.7853981633974483
  9
$DIMTFILL
 70
     0
  9
$DIMTFILLCLR
 70
     0
  9
$DIMARCSYM
 70
     0
  9
$DIMLTYPE
  6

  9
$DIMLTEX1
  6

  9
$DIMLTEX2
  6

  9
$DIMTXTDIRECTION
 70
     0
  9
$LUNITS
 70
     2
  9
$LUPREC
 70
     4
  9
$SKETCHINC
 40
0.1
  9
$FILLETRAD
 40
0.0
  9
$AUNITS
 70
     0
  9
$AUPREC
 70
     0
  9
$MENU
  1
.
  9
$ELEVATION
 40
0.0
  9
$PELEVATION
 40
0.0
  9
$THICKNESS
 40
0.0
  9
$LIMCHECK
 70
     0
  9
$CHAMFERA
 40
0.0
  9
$CHAMFERB
 40
0.0
  9
$CHAMFERC
 40
0.0
  9
$CHAMFERD
 40
0.0
  9
$SKPOLY
 70
     0
  9
$TDCREATE
 40
2461020.700748912
  9
$TDUCREATE
 40
2461020.471582246
  9
$TDUPDATE
 40
2461020.70074912
  9
$TDUUPDATE
 40
2461020.471582454
  9
$TDINDWG
 40
0.0000000116
  9
$TDUSRTIMER
 40
0.0000000116
  9
$USRTIMER
 70
     1
  9
$ANGBASE
 50
0.0
  9
$ANGDIR
 70
     0
  9
$PDMODE
 70
     0
  9
$PDSIZE
 40
0.0
  9
$PLINEWID
 40
0.0
  9
$SPLFRAME
 70
     0
  9
$SPLINETYPE
 70
     6
  9
$SPLINESEGS
 70
     8
  9
$HANDSEED
  5
88
  9
$SURFTAB1
 70
     6
  9
$SURFTAB2
 70
     6
  9
$SURFTYPE
 70
     6
  9
$SURFU
 70
     6
  9
$SURFV
 70
     6
  9
$UCSBASE
  2

  9
$UCSNAME
  2

  9
$UCSORG
 10
0.0
 20
0.0
 30
0.0
  9
$UCSXDIR
 10
1.0
 20
0.0
 30
0.0
  9
$UCSYDIR
 10
0.0
 20
1.0
 30
0.0
  9
$UCSORTHOREF
  2

  9
$UCSORTHOVIEW
 70
     0
  9
$UCSORGTOP
 10
0.0
 20
0.0
 30
0.0
  9
$UCSORGBOTTOM
 10
0.0
 20
0.0
 30
0.0
  9
$UCSORGLEFT
 10
0.0
 20
0.0
 30
0.0
  9
$UCSORGRIGHT
 10
0.0
 20
0.0
 30
0.0
  9
$UCSORGFRONT
 10
0.0
 20
0.0
 30
0.0
  9
$UCSORGBACK
 10
0.0
 20
0.0
 30
0.0
  9
$PUCSBASE
  2

  9
$PUCSNAME
  2

  9
$PUCSORG
 10
0.0
 20
0.0
 30
0.0
  9
$PUCSXDIR
 10
1.0
 20
0.0
 30
0.0
  9
$PUCSYDIR
 10
0.0
 20
1.0
 30
0.0
  9
$PUCSORTHOREF
  2

  9
$PUCSORTHOVIEW
 70
     0
  9
$PUCSORGTOP
 10
0.0
 20
0.0
 30
0.0
  9
$PUCSORGBOTTOM
 10
0.0
 20
0.0
 30
0.0
  9
$PUCSORGLEFT
 10
0.0
 20
0.0
 30
0.0
  9
$PUCSORGRIGHT
 10
0.0
 20
0.0
 30
0.0
  9
$PUCSORGFRONT
 10
0.0
 20
0.0
 30
0.0
  9
$PUCSORGBACK
 10
0.0
 20
0.0
 30
0.0
  9
$USERI1
 70
     0
  9
$USERI2
 70
     0
  9
$USERI3
 70
     0
  9
$USERI4
 70
     0
  9
$USERI5
 70
     0
  9
$USERR1
 40
0.0
  9
$USERR2
 40
0.0
  9
$USERR3
 40
0.0
  9
$USERR4
 40
0.0
  9
$USERR5
 40
0.0
  9
$WORLDVIEW
 70
     1
  9
$SHADEDGE
 70
     3
  9
$SHADEDIF
 70
    70
  9
$TILEMODE
 70
     1
  9
$MAXACTVP
 70
    64
  9
$PINSBASE
 10
0.0
 20
0.0
 30
0.0
  9
$PLIMCHECK
 70
     0
  9
$PEXTMIN
 10
1.000000000000000E+20
 20
1.000000000000000E+20
 30
1.000000000000000E+20
  9
$PEXTMAX
 10
-1.000000000000000E+20
 20
-1.000000000000000E+20
 30
-1.000000000000000E+20
  9
$PLIMMIN
 10
0.0
 20
0.0
  9
$PLIMMAX
 10
12.0
 20
9.0
  9
$UNITMODE
 70
     0
  9
$VISRETAIN
 70
     1
  9
$PLINEGEN
 70
     0
  9
$PSLTSCALE
 70
     1
  9
$TREEDEPTH
 70
  3020
  9
$CMLSTYLE
  2
Standard
  9
$CMLJUST
 70
     0
  9
$CMLSCALE
 40
1.0
  9
$PROXYGRAPHICS
 70
     1
  9
$MEASUREMENT
 70
     0
  9
$CELWEIGHT
370
    -1
  9
$ENDCAPS
280
     0
  9
$JOINSTYLE
280
     0
  9
$LWDISPLAY
290
     0
  9
$INSUNITS
 70
     1
  9
$HYPERLINKBASE
  1

  9
$STYLESHEET
  1

  9
$XEDIT
290
     1
  9
$CEPSNTYPE
380
     0
  9
$PSTYLEMODE
290
     1
  9
$FINGERPRINTGUID
  2
{91125b56-8de3-47ef-8dcc-ef0dd44a21a3}
  9
$VERSIONGUID
  2
{FAEB1C32-E019-11D5-929B-00C0DF256EC4}
  9
$EXTNAMES
290
     1
  9
$PSVPSCALE
 40
0.0
  9
$OLESTARTUP
290
     0
  9
$SORTENTS
280
   127
  9
$INDEXCTL
280
     0
  9
$HIDETEXT
280
     1
  9
$XCLIPFRAME
280
     2
  9
$HALOGAP
280
     0
  9
$OBSCOLOR
 70
   257
  9
$OBSLTYPE
280
     0
  9
$INTERSECTIONDISPLAY
280
     0
  9
$INTERSECTIONCOLOR
 70
   257
  9
$DIMASSOC
280
     2
  9
$PROJECTNAME
  1

  9
$CAMERADISPLAY
290
     0
  9
$LENSLENGTH
 40
50.0
  9
$CAMERAHEIGHT
 40
0.0
  9
$STEPSPERSEC
 40
2.0
  9
$STEPSIZE
 40
6.0
  9
$3DDWFPREC
 40
2.0
  9
$PSOLWIDTH
 40
0.25
  9
$PSOLHEIGHT
 40
4.0
  9
$LOFTANG1
 40
1.570796326794897
  9
$LOFTANG2
 40
1.570796326794897
  9
$LOFTMAG1
 40
0.0
  9
$LOFTMAG2
 40
0.0
  9
$LOFTPARAM
 70
     7
  9
$LOFTNORMALS
280
     1
  9
$LATITUDE
 40
37.795
  9
$LONGITUDE
 40
-122.394
  9
$NORTHDIRECTION
 40
0.0
  9
$TIMEZONE
 70
 -8000
  9
$LIGHTGLYPHDISPLAY
280
     1
  9
$TILEMODELIGHTSYNCH
280
     1
  9
$CMATERIAL
347
44
  9
$SOLIDHIST
280
     0
  9
$SHOWHIST
280
     1
  9
$DWFFRAME
280
     2
  9
$DGNFRAME
280
     2
  9
$REALWORLDSCALE
290
     1
  9
$INTERFERECOLOR
 62
   256
  9
$CSHADOW
280
     0
  9
$SHADOWPLANELOCATION
 40
0.0
  0
ENDSEC
  0
SECTION
  2
CLASSES
  0
CLASS
  1
ACDBDICTIONARYWDFLT
  2
AcDbDictionaryWithDefault
  3
ObjectDBX Classes
 90
        0
 91
        3
280
     0
281
     0
  0
CLASS
  1
VISUALSTYLE
  2
AcDbVisualStyle
  3
ObjectDBX Classes
 90
     4095
 91
        3
280
     0
281
     0
  0
CLASS
  1
MATERIAL
  2
AcDbMaterial
  3
ObjectDBX Classes
 90
     1153
 91
        3
280
     0
281
     0
  0
CLASS
  1
SCALE
  2
AcDbScale
  3
ObjectDBX Classes
 90
     1153
 91
        3
280
     0
281
     0
  0
CLASS
  1
TABLESTYLE
  2
AcDbTableStyle
  3
ObjectDBX Classes
 90
     4095
 91
        3
280
     0
281
     0
  0
CLASS
  1
MLEADERSTYLE
  2
AcDbMLeaderStyle
  3
ACDB_MLEADERSTYLE_CLASS
 90
     4095
 91
        3
280
     0
281
     0
  0
CLASS
  1
SUN
  2
AcDbSun
  3
SCENEOE
 90
     1153
 91
        3
280
     0
281
     0
  0
CLASS
  1
DICTIONARYVAR
  2
AcDbDictionaryVar
  3
ObjectDBX Classes
 90
        0
 91
        3
280
     0
281
     0
  0
CLASS
  1
CELLSTYLEMAP
  2
AcDbCellStyleMap
  3
ObjectDBX Classes
 90
     1152
 91
        3
280
     0
281
     0
  0
ENDSEC
  0
SECTION
  2
TABLES
  0
TABLE
  2
VPORT
  5
8
330
0
100
AcDbSymbolTable
 70
     1
  0
VPORT
  5
29
330
8
100
AcDbSymbolTableRecord
100
AcDbViewportTableRecord
  2
*Active
 70
     0
 10
0.0
 20
0.0
 11
1.0
 21
1.0
 12
10.42990654205607
 22
4.5
 13
0.0
 23
0.0
 14
0.5
 24
0.5
 15
0.5
 25
0.5
 16
0.0
 26
0.0
 36
1.0
 17
0.0
 27
0.0
 37
0.0
 40
9.0
 41
1.972972972850329
 42
50.0
 43
0.0
 44
0.0
 50
0.0
 51
0.0
 71
     0
 72
   100
 73
     1
 74
     3
 75
     0
 76
     0
 77
     0
 78
     0
281
     0
 65
     1
110
0.0
120
0.0
130
0.0
111
1.0
121
0.0
131
0.0
112
0.0
122
1.0
132
0.0
 79
     0
146
0.0
348
2F
 60
     3
 61
     5
292
     1
282
     1
141
0.0
142
0.0
 63
   250
361
5D
  0
ENDTAB
  0
TABLE
  2
LTYPE
  5
5
330
0
100
AcDbSymbolTable
 70
     1
  0
LTYPE
  5
14
330
5
100
AcDbSymbolTableRecord
100
AcDbLinetypeTableRecord
  2
ByBlock
 70
     0
  3

 72
    65
 73
     0
 40
0.0
  0
LTYPE
  5
15
330
5
100
AcDbSymbolTableRecord
100
AcDbLinetypeTableRecord
  2
ByLayer
 70
     0
  3

 72
    65
 73
     0
 40
0.0
  0
LTYPE
  5
16
330
5
100
AcDbSymbolTableRecord
100
AcDbLinetypeTableRecord
  2
Continuous
 70
     0
  3
Solid line
 72
    65
 73
     0
 40
0.0
  0
ENDTAB
  0
TABLE
  2
LAYER
  5
2
330
0
100
AcDbSymbolTable
 70
     2
  0
LAYER
  5
10
330
2
100
AcDbSymbolTableRecord
100
AcDbLayerTableRecord
  2
0
 70
     0
 62
     7
  6
Continuous
370
    -3
390
F
347
46
348
0
  0
LAYER
  5
5F
330
2
100
AcDbSymbolTableRecord
100
AcDbLayerTableRecord
  2
Layer 1
 70
     0
 62
     7
  6
Continuous
370
    -3
390
F
347
46
348
0
  0
ENDTAB
  0
TABLE
  2
STYLE
  5
3
330
0
100
AcDbSymbolTable
 70
     1
  0
STYLE
  5
11
330
3
100
AcDbSymbolTableRecord
100
AcDbTextStyleTableRecord
  2
Standard
 70
     0
 40
0.0
 41
1.0
 50
0.0
 71
     0
 42
0.2
  3
txt
  4

  0
ENDTAB
  0
TABLE
  2
VIEW
  5
6
330
0
100
AcDbSymbolTable
 70
     0
  0
ENDTAB
  0
TABLE
  2
UCS
  5
7
330
0
100
AcDbSymbolTable
 70
     0
  0
ENDTAB
  0
TABLE
  2
APPID
  5
9
330
0
100
AcDbSymbolTable
 70
     2
  0
APPID
  5
12
330
9
100
AcDbSymbolTableRecord
100
AcDbRegAppTableRecord
  2
ACAD
 70
     0
  0
APPID
  5
5E
330
9
100
AcDbSymbolTableRecord
100
AcDbRegAppTableRecord
  2
ODA
 70
     0
  0
ENDTAB
  0
TABLE
  2
DIMSTYLE
  5
A
330
0
100
AcDbSymbolTable
 70
     1
100
AcDbDimStyleTable
  0
DIMSTYLE
105
27
330
A
100
AcDbSymbolTableRecord
100
AcDbDimStyleTableRecord
  2
Standard
 70
     0
178
     0
340
11
  0
ENDTAB
  0
TABLE
  2
BLOCK_RECORD
  5
1
330
0
100
AcDbSymbolTable
 70
     1
  0
BLOCK_RECORD
  5
1F
330
1
100
AcDbSymbolTableRecord
100
AcDbBlockTableRecord
  2
*Model_Space
340
22
 70
     0
280
     1
281
     0
  0
BLOCK_RECORD
  5
1B
330
1
100
AcDbSymbolTableRecord
100
AcDbBlockTableRecord
  2
*Paper_Space
340
1E
 70
     0
280
     1
281
     0
  0
BLOCK_RECORD
  5
23
330
1
100
AcDbSymbolTableRecord
100
AcDbBlockTableRecord
  2
*Paper_Space0
340
26
 70
     0
280
     1
281
     0
  0
ENDTAB
  0
ENDSEC
  0
SECTION
  2
BLOCKS
  0
BLOCK
  5
20
330
1F
100
AcDbEntity
  8
0
100
AcDbBlockBegin
  2
*Model_Space
 70
     0
 10
0.0
 20
0.0
 30
0.0
  3
*Model_Space
  1

  0
ENDBLK
  5
21
330
1F
100
AcDbEntity
  8
0
100
AcDbBlockEnd
  0
BLOCK
  5
1C
330
1B
100
AcDbEntity
 67
     1
  8
0
100
AcDbBlockBegin
  2
*Paper_Space
 70
     0
 10
0.0
 20
0.0
 30
0.0
  3
*Paper_Space
  1

  0
ENDBLK
  5
1D
330
1B
100
AcDbEntity
 67
     1
  8
0
100
AcDbBlockEnd
  0
BLOCK
  5
24
330
23
100
AcDbEntity
  8
0
100
AcDbBlockBegin
  2
*Paper_Space0
 70
     0
 10
0.0
 20
0.0
 30
0.0
  3
*Paper_Space0
  1

  0
ENDBLK
  5
25
330
23
100
AcDbEntity
  8
0
100
AcDbBlockEnd
  0
ENDSEC
  0
SECTION
  2
ENTITIES
  0
LWPOLYLINE
  5
60
330
1F
100
AcDbEntity
  8
Layer 1
 62
   250
370
     9
100
AcDbPolyline
 90
        5
 70
     1
 43
0.0
 10
-21.59774803149606
 20
-5.348905511811024
 10
-14.08269291338583
 20
-5.348905511811024
 10
-14.08269291338583
 20
-1.032267716535433
 10
-21.59774803149606
 20
-1.032267716535433
 10
-21.59774803149606
 20
-5.348905511811024
  0
LWPOLYLINE
  5
61
330
1F
100
AcDbEntity
  8
Layer 1
 62
     7
370
    15
100
AcDbPolyline
 90
        9
 70
     1
 43
0.0
 10
-19.18268503937008
 20
-2.621362204724409
 10
-19.58548818897638
 20
-2.770929133858268
 10
-19.58548818897638
 20
-2.967413385826771
 10
-18.37009448818898
 20
-3.619185039370079
 10
-17.76066141732283
 20
-3.351736220472441
 10
-17.76548031496063
 20
-3.152094488188976
 10
-18.1353188976378
 20
-2.968645669291339
 10
-18.3193937007874
 20
-3.048622047244094
 10
-19.18268503937008
 20
-2.621362204724409
  0
LWPOLYLINE
  5
62
330
1F
100
AcDbEntity
  8
Layer 1
 62
     7
370
    15
100
AcDbPolyline
 90
        3
 70
     0
 43
0.0
 10
-17.76548031496063
 20
-3.152094488188976
 10
-18.3666220472441
 20
-3.402145669291339
 10
-19.58548818897638
 20
-2.770929133858268
  0
LWPOLYLINE
  5
63
330
1F
100
AcDbEntity
  8
Layer 1
 62
     7
370
    15
100
AcDbPolyline
 90
        2
 70
     0
 43
0.0
 10
-18.3666220472441
 20
-3.402145669291339
 10
-18.37009448818898
 20
-3.619185039370079
  0
LWPOLYLINE
  5
64
330
1F
100
AcDbEntity
  8
Layer 1
 62
     7
370
    15
100
AcDbPolyline
 90
        6
 70
     1
 43
0.0
 10
-18.1353188976378
 20
-2.968645669291339
 10
-17.76548031496063
 20
-3.152094488188976
 10
-16.45494881889764
 20
-2.635263779527559
 10
-14.99258661417323
 20
-2.042842519685039
 10
-15.33372440944882
 20
-1.876551181102362
 10
-18.1353188976378
 20
-2.968645669291339
  0
LWPOLYLINE
  5
65
330
1F
100
AcDbEntity
  8
Layer 1
 62
     7
370
    15
100
AcDbPolyline
 90
        4
 70
     0
 43
0.0
 10
-17.76066141732283
 20
-3.351736220472441
 10
-16.24138188976378
 20
-2.732665354330709
 10
-14.9639094488189
 20
-2.206098425196851
 10
-14.96128346456693
 20
-2.044362204724409
  0
LWPOLYLINE
  5
66
330
1F
100
AcDbEntity
  8
Layer 1
 62
     7
370
    15
100
AcDbPolyline
 90
       14
 70
     0
 43
0.0
 10
-15.40827952755905
 20
-1.905586614173228
 10
-15.40807480314961
 20
-1.900271653543307
 10
-15.40744488188976
 20
-1.885956692913386
 10
-15.40635039370079
 20
-1.865082677165354
 10
-15.40476377952756
 20
-1.840094488188976
 10
-15.40264566929134
 20
-1.813437007874016
 10
-15.39996456692913
 20
-1.787551181102362
 10
-15.39668897637795
 20
-1.764881889763779
 10
-15.3927874015748
 20
-1.747874015748031
 10
-15.29379527559055
 20
-1.704476377952756
 10
-14.75892125984252
 20
-1.939153543307087
 10
-14.7728937007874
 20
-2.320850393700788
 10
-14.8770905511811
 20
-2.372177165354331
 10
-15.09902362204724
 20
-2.261763779527559
  0
LWPOLYLINE
  5
67
330
1F
100
AcDbEntity
  8
Layer 1
 62
     7
370
    15
100
AcDbPolyline
 90
        3
 70
     0
 43
0.0
 10
-14.8770905511811
 20
-2.372177165354331
 10
-14.86275196850394
 20
-1.983181102362205
 10
-15.3927874015748
 20
-1.747874015748031
  0
LWPOLYLINE
  5
68
330
1F
100
AcDbEntity
  8
Layer 1
 62
     7
370
    15
100
AcDbPolyline
 90
        2
 70
     0
 43
0.0
 10
-14.86275196850394
 20
-1.983181102362205
 10
-14.75892125984252
 20
-1.939153543307087
  0
LWPOLYLINE
  5
69
330
1F
100
AcDbEntity
  8
Layer 1
 62
     7
370
    15
100
AcDbPolyline
 90
       14
 70
     0
 43
0.0
 10
-18.73299212598425
 20
-2.833507874015748
 10
-18.73433070866142
 20
-2.808712598425197
 10
-18.73527952755905
 20
-2.738137795275591
 10
-18.73590551181102
 20
-2.636913385826772
 10
-18.73626771653543
 20
-2.520169291338583
 10
-18.73644094488189
 20
-2.403031496062992
 10
-18.73648031496063
 20
-2.300633858267716
 10
-18.73646062992126
 20
-2.22809842519685
 10
-18.73643700787402
 20
-2.20055905511811
 10
-18.93612598425197
 20
-2.106653543307087
 10
-20.2230905511811
 20
-2.57442125984252
 10
-20.21058661417323
 20
-3.315204724409449
 10
-20.00222047244095
 20
-3.414314960629921
 10
-19.28331496062992
 20
-3.12944094488189
  0
LWPOLYLINE
  5
6A
330
1F
100
AcDbEntity
  8
Layer 1
 62
     7
370
    15
100
AcDbPolyline
 90
        3
 70
     0
 43
0.0
 10
-20.00222047244095
 20
-3.414314960629921
 10
-20.01262992125984
 20
-2.668326771653543
 10
-18.73646062992126
 20
-2.22140157480315
  0
LWPOLYLINE
  5
6B
330
1F
100
AcDbEntity
  8
Layer 1
 62
     7
370
    15
100
AcDbPolyline
 90
        2
 70
     0
 43
0.0
 10
-20.01262992125984
 20
-2.668326771653543
 10
-20.2230905511811
 20
-2.57442125984252
  0
LWPOLYLINE
  5
6C
330
1F
100
AcDbEntity
  8
Layer 1
 62
     7
370
    18
100
AcDbPolyline
 90
        4
 70
     1
 43
0.0
 10
-18.16957874015748
 20
-4.048622047244095
 10
-18.18895275590551
 20
-4.072393700787401
 10
-18.15850393700788
 20
-4.076027559055118
 10
-18.16957874015748
 20
-4.048622047244095
  0
LWPOLYLINE
  5
6D
330
1F
100
AcDbEntity
  8
Layer 1
 62
     7
370
    18
100
AcDbPolyline
 90
        4
 70
     1
 43
0.0
 10
-14.55909448818898
 20
-2.589326771653544
 10
-14.52864960629921
 20
-2.59296062992126
 10
-14.54801968503937
 20
-2.616728346456693
 10
-14.55909448818898
 20
-2.589326771653544
  0
LWPOLYLINE
  5
6E
330
1F
100
AcDbEntity
  8
Layer 1
 62
     7
370
    18
100
AcDbPolyline
 90
        2
 70
     0
 43
0.0
 10
-18.19666535433071
 20
-4.077212598425197
 10
-14.51975590551181
 20
-2.591066929133858
  0
LWPOLYLINE
  5
6F
330
1F
100
AcDbEntity
  8
Layer 1
 62
     7
370
     9
100
AcDbPolyline
 90
        7
 70
     1
 43
0.0
 10
-16.45705511811024
 20
-3.948913385826772
 10
-16.42100393700787
 20
-3.948913385826772
 10
-16.42100393700787
 20
-3.594334645669291
 10
-16.50752362204724
 20
-3.603629921259842
 10
-16.50752362204724
 20
-3.635047244094488
 10
-16.45705511811024
 20
-3.635047244094488
 10
-16.45705511811024
 20
-3.948913385826772
  0
LWPOLYLINE
  5
70
330
1F
100
AcDbEntity
  8
Layer 1
 62
     7
370
     9
100
AcDbPolyline
 90
       69
 70
     1
 43
0.0
 10
-16.25443700787402
 20
-3.789657480314961
 10
-16.26264960629921
 20
-3.789279527559055
 10
-16.27055905511811
 20
-3.788145669291338
 10
-16.27816141732283
 20
-3.786255905511811
 10
-16.28545669291339
 20
-3.783606299212599
 10
-16.29245275590551
 20
-3.780200787401575
 10
-16.29914173228346
 20
-3.77603937007874
 10
-16.30552362204724
 20
-3.771114173228347
 10
-16.3116062992126
 20
-3.765433070866142
 10
-16.31709448818898
 20
-3.759303149606299
 10
-16.32184645669291
 20
-3.752877952755906
 10
-16.32587007874016
 20
-3.746161417322835
 10
-16.32916535433071
 20
-3.739153543307087
 10
-16.33172440944882
 20
-3.731858267716536
 10
-16.33355118110236
 20
-3.724267716535433
 10
-16.33464960629921
 20
-3.716389763779528
 10
-16.33501574803149
 20
-3.708220472440945
 10
-16.33464566929134
 20
-3.700248031496063
 10
-16.33353543307087
 20
-3.692543307086614
 10
-16.33168503937008
 20
-3.685114173228346
 10
-16.32909842519685
 20
-3.67796062992126
 10
-16.32576771653543
 20
-3.67107874015748
 10
-16.3216968503937
 20
-3.664468503937008
 10
-16.31688582677165
 20
-3.658133858267717
 10
-16.31133464566929
 20
-3.652074803149606
 10
-16.30537007874016
 20
-3.64663779527559
 10
-16.29907086614173
 20
-3.641925196850394
 10
-16.29243700787402
 20
-3.63794094488189
 10
-16.28546062992126
 20
-3.634681102362205
 10
-16.27814566929134
 20
-3.632145669291339
 10
-16.27049212598425
 20
-3.630338582677165
 10
-16.2625
 20
-3.629251968503937
 10
-16.25416535433071
 20
-3.628889763779528
 10
-16.246
 20
-3.629263779527559
 10
-16.23811023622047
 20
-3.630385826771653
 10
-16.23049606299213
 20
-3.632255905511811
 10
-16.22315354330709
 20
-3.634874015748032
 10
-16.21608267716535
 20
-3.638240157480315
 10
-16.20928346456693
 20
-3.642358267716535
 10
-16.20275984251969
 20
-3.647224409448819
 10
-16.19650393700788
 20
-3.652838582677165
 10
-16.19083464566929
 20
-3.658909448818898
 10
-16.18591732283464
 20
-3.665283464566929
 10
-16.18175590551181
 20
-3.671952755905512
 10
-16.17835433070866
 20
-3.678925196850394
 10
-16.17570472440945
 20
-3.686192913385827
 10
-16.17381102362205
 20
-3.693759842519685
 10
-16.17267716535433
 20
-3.701622047244094
 10
-16.17229921259842
 20
-3.709779527559055
 10
-16.1726811023622
 20
-3.717704724409449
 10
-16.17383070866142
 20
-3.725370078740157
 10
-16.17574015748032
 20
-3.732779527559055
 10
-16.17841732283464
 20
-3.739933070866142
 10
-16.18185826771654
 20
-3.746822834645669
 10
-16.18606692913386
 20
-3.75346062992126
 10
-16.19103937007874
 20
-3.759838582677165
 10
-16.19677559055118
 20
-3.76596062992126
 10
-16.20254330708661
 20
-3.771094488188977
 10
-16.20880708661417
 20
-3.775688976377953
 10
-16.21555118110236
 20
-3.779732283464567
 10
-16.22278346456693
 20
-3.783228346456693
 10
-16.22653937007874
 20
-3.784736220472441
 10
-16.23035433070866
 20
-3.786043307086614
 10
-16.23422834645669
 20
-3.787149606299212
 10
-16.23815748031496
 20
-3.788051181102362
 10
-16.24214566929134
 20
-3.788755905511811
 10
-16.24618897637795
 20
-3.789255905511811
 10
-16.25028346456693
 20
-3.78955905511811
 10
-16.25443700787402
 20
-3.789657480314961
  0
LWPOLYLINE
  5
71
330
1F
100
AcDbEntity
  8
Layer 1
 62
     7
370
     9
100
AcDbPolyline
 90
       69
 70
     1
 43
0.0
 10
-16.37157480314961
 20
-3.710814960629921
 10
-16.37101181102362
 20
-3.723220472440945
 10
-16.36932677165354
 20
-3.735066929133858
 10
-16.36651181102362
 20
-3.746346456692913
 10
-16.36257086614173
 20
-3.757062992125984
 10
-16.35750787401575
 20
-3.767216535433071
 10
-16.35131496062992
 20
-3.776807086614173
 10
-16.34399212598425
 20
-3.785834645669291
 10
-16.33554330708661
 20
-3.794303149606299
 10
-16.32690157480315
 20
-3.801433070866142
 10
-16.31765748031496
 20
-3.807685039370079
 10
-16.30781102362205
 20
-3.813062992125984
 10
-16.29736220472441
 20
-3.817562992125984
 10
-16.28631102362205
 20
-3.821181102362205
 10
-16.27466141732284
 20
-3.823929133858268
 10
-16.26240551181102
 20
-3.825795275590551
 10
-16.24955118110236
 20
-3.826787401574803
 10
-16.23925590551181
 20
-3.820051181102362
 10
-16.34636614173228
 20
-3.948913385826772
 10
-16.29898425196851
 20
-3.948913385826772
 10
-16.16201968503937
 20
-3.783464566929134
 10
-16.15586220472441
 20
-3.775413385826772
 10
-16.15052755905512
 20
-3.767027559055118
 10
-16.14601181102362
 20
-3.758314960629921
 10
-16.14231496062992
 20
-3.749267716535433
 10
-16.13943700787402
 20
-3.739893700787401
 10
-16.13738582677165
 20
-3.730185039370079
 10
-16.13614960629921
 20
-3.720149606299213
 10
-16.13574015748031
 20
-3.709779527559055
 10
-16.13627952755905
 20
-3.697830708661417
 10
-16.13789763779528
 20
-3.686342519685039
 10
-16.14059448818898
 20
-3.675314960629921
 10
-16.14436614173228
 20
-3.664748031496063
 10
-16.14922047244094
 20
-3.65463779527559
 10
-16.15514960629921
 20
-3.644988188976378
 10
-16.16215748031496
 20
-3.635795275590551
 10
-16.17024409448819
 20
-3.627055118110236
 10
-16.17914960629921
 20
-3.619027559055118
 10
-16.18849212598425
 20
-3.612070866141732
 10
-16.19826771653543
 20
-3.606181102362205
 10
-16.20848031496063
 20
-3.601362204724409
 10
-16.21912598425197
 20
-3.597614173228346
 10
-16.23020472440945
 20
-3.594933070866142
 10
-16.24172047244095
 20
-3.593326771653544
 10
-16.25367322834646
 20
-3.592791338582677
 10
-16.26579133858268
 20
-3.593322834645669
 10
-16.27742519685039
 20
-3.594917322834646
 10
-16.28857480314961
 20
-3.597574803149606
 10
-16.29924015748032
 20
-3.601295275590551
 10
-16.30942125984252
 20
-3.60607874015748
 10
-16.31911811023622
 20
-3.611925196850394
 10
-16.32833464566929
 20
-3.618838582677165
 10
-16.33706692913386
 20
-3.626818897637795
 10
-16.34095669291339
 20
-3.630889763779527
 10
-16.34463385826772
 20
-3.635122047244094
 10
-16.34810236220472
 20
-3.63951968503937
 10
-16.35136220472441
 20
-3.644074803149606
 10
-16.3544094488189
 20
-3.648795275590551
 10
-16.35725196850394
 20
-3.653677165354331
 10
-16.35988582677165
 20
-3.658716535433071
 10
-16.36231102362205
 20
-3.663917322834646
 10
-16.36448818897638
 20
-3.669267716535433
 10
-16.36637007874016
 20
-3.674767716535433
 10
-16.36796456692914
 20
-3.680409448818898
 10
-16.36926377952756
 20
-3.686200787401575
 10
-16.37027559055118
 20
-3.69213779527559
 10
-16.371
 20
-3.698216535433071
 10
-16.37142913385827
 20
-3.704444881889764
 10
-16.37157480314961
 20
-3.710814960629921
  0
LWPOLYLINE
  5
72
330
1F
100
AcDbEntity
  8
Layer 1
 62
     7
370
     9
100
AcDbPolyline
 90
      132
 70
     1
 43
0.0
 10
-16.0296811023622
 20
-3.728354330708661
 10
-16.0059842519685
 20
-3.634555118110236
 10
-15.87933070866142
 20
-3.634555118110236
 10
-15.87933070866142
 20
-3.598456692913386
 10
-16.03327952755906
 20
-3.598456692913386
 10
-16.07343307086614
 20
-3.755645669291339
 10
-16.03431496062992
 20
-3.773169291338583
 10
-16.02862992125984
 20
-3.769303149606299
 10
-16.02266535433071
 20
-3.765956692913386
 10
-16.01642125984252
 20
-3.763122047244094
 10
-16.00990157480315
 20
-3.760803149606299
 10
-16.00310236220473
 20
-3.759
 10
-15.99601968503937
 20
-3.757712598425197
 10
-15.98865748031496
 20
-3.756937007874016
 10
-15.98101181102362
 20
-3.756681102362205
 10
-15.97332283464567
 20
-3.75705905511811
 10
-15.96588976377953
 20
-3.758192913385827
 10
-15.9587125984252
 20
-3.760082677165354
 10
-15.95179133858268
 20
-3.762732283464567
 10
-15.94512598425197
 20
-3.76613779527559
 10
-15.93872047244095
 20
-3.770299212598425
 10
-15.93257086614173
 20
-3.775224409448819
 10
-15.92667716535433
 20
-3.780905511811024
 10
-15.92112598425197
 20
-3.787240157480315
 10
-15.91631496062992
 20
-3.793811023622047
 10
-15.91224409448819
 20
-3.800614173228346
 10
-15.90891338582677
 20
-3.807645669291339
 10
-15.90632677165354
 20
-3.814913385826772
 10
-15.90447637795276
 20
-3.822417322834646
 10
-15.90336614173228
 20
-3.830149606299213
 10
-15.90299606299213
 20
-3.83811811023622
 10
-15.90337401574803
 20
-3.846358267716536
 10
-15.90450787401575
 20
-3.854271653543307
 10
-15.90639763779528
 20
-3.861850393700788
 10
-15.90904330708661
 20
-3.86909842519685
 10
-15.91244881889764
 20
-3.876015748031496
 10
-15.91661023622047
 20
-3.882602362204724
 10
-15.92152755905512
 20
-3.888862204724409
 10
-15.92720472440945
 20
-3.894787401574803
 10
-15.93307480314961
 20
-3.899929133858268
 10
-15.93936614173228
 20
-3.90451968503937
 10
-15.94607874015748
 20
-3.908562992125984
 10
-15.95320866141732
 20
-3.912055118110236
 10
-15.9569842519685
 20
-3.913566929133858
 10
-15.96096456692913
 20
-3.914874015748032
 10
-15.96515748031496
 20
-3.915988188976378
 10
-15.96955905511811
 20
-3.916897637795276
 10
-15.97416929133858
 20
-3.917606299212598
 10
-15.97898818897638
 20
-3.918114173228346
 10
-15.9840157480315
 20
-3.918417322834645
 10
-15.98925590551181
 20
-3.91851968503937
 10
-15.9945905511811
 20
-3.918291338582677
 10
-15.99991732283465
 20
-3.917614173228346
 10
-16.00523622047244
 20
-3.916484251968504
 10
-16.01055118110236
 20
-3.914901574803149
 10
-16.01585433070866
 20
-3.912866141732283
 10
-16.02114960629921
 20
-3.91038188976378
 10
-16.02643700787402
 20
-3.907448818897638
 10
-16.03171653543307
 20
-3.904066929133858
 10
-16.0368031496063
 20
-3.900326771653543
 10
-16.04150393700787
 20
-3.896311023622047
 10
-16.04581889763779
 20
-3.89201968503937
 10
-16.04974409448819
 20
-3.887448818897638
 10
-16.05328346456693
 20
-3.882606299212598
 10
-16.05643307086614
 20
-3.877492125984252
 10
-16.0591968503937
 20
-3.872102362204724
 10
-16.06157480314961
 20
-3.866444881889764
 10
-16.0966062992126
 20
-3.877791338582677
 10
-16.09316929133858
 20
-3.886275590551181
 10
-16.08916141732283
 20
-3.894330708661417
 10
-16.08457874015748
 20
-3.90196062992126
 10
-16.07942125984252
 20
-3.909165354330709
 10
-16.0736968503937
 20
-3.91594094488189
 10
-16.06739763779527
 20
-3.922291338582677
 10
-16.06053149606299
 20
-3.928216535433071
 10
-16.05309448818898
 20
-3.933716535433071
 10
-16.04518503937008
 20
-3.938724409448819
 10
-16.03710236220472
 20
-3.943070866141732
 10
-16.02883858267716
 20
-3.946744094488189
 10
-16.02039763779528
 20
-3.949755905511811
 10
-16.01177952755906
 20
-3.952094488188977
 10
-16.0029842519685
 20
-3.953767716535433
 10
-15.99401181102362
 20
-3.954771653543307
 10
-15.98486220472441
 20
-3.955106299212598
 10
-15.97267322834646
 20
-3.954555118110236
 10
-15.96095275590551
 20
-3.952897637795276
 10
-15.94970078740158
 20
-3.950133858267717
 10
-15.93891338582677
 20
-3.946271653543307
 10
-15.92859448818898
 20
-3.941303149606299
 10
-15.91874409448819
 20
-3.935232283464567
 10
-15.90935433070866
 20
-3.928062992125984
 10
-15.90043307086614
 20
-3.919791338582677
 10
-15.89234645669291
 20
-3.910811023622047
 10
-15.88533464566929
 20
-3.901385826771654
 10
-15.87940157480315
 20
-3.891515748031496
 10
-15.87454724409449
 20
-3.881204724409449
 10
-15.87077165354331
 20
-3.870448818897638
 10
-15.86807086614173
 20
-3.859251968503937
 10
-15.86645275590551
 20
-3.847610236220472
 10
-15.86591338582677
 20
-3.835523622047244
 10
-15.86644488188976
 20
-3.823507874015748
 10
-15.86803937007874
 20
-3.811996062992126
 10
-15.8706968503937
 20
-3.800996062992126
 10
-15.87441732283465
 20
-3.7905
 10
-15.87920078740157
 20
-3.780507874015748
 10
-15.88504330708661
 20
-3.771027559055118
 10
-15.89194488188976
 20
-3.762051181102362
 10
-15.8999094488189
 20
-3.75357874015748
 10
-15.9039842519685
 20
-3.749818897637795
 10
-15.90821653543307
 20
-3.746255905511811
 10
-15.91261417322835
 20
-3.742897637795275
 10
-15.91716535433071
 20
-3.739736220472441
 10
-15.92188188976378
 20
-3.736779527559055
 10
-15.92675590551181
 20
-3.734023622047244
 10
-15.93179527559055
 20
-3.731472440944882
 10
-15.93699212598425
 20
-3.72911811023622
 10
-15.9422874015748
 20
-3.727003937007874
 10
-15.94763385826772
 20
-3.725169291338583
 10
-15.95302755905512
 20
-3.723618110236221
 10
-15.95847244094488
 20
-3.722350393700788
 10
-15.96396062992126
 20
-3.721362204724409
 10
-15.96949212598425
 20
-3.720657480314961
 10
-15.97506299212598
 20
-3.720236220472441
 10
-15.98067322834646
 20
-3.720094488188976
 10
-15.98638582677165
 20
-3.720224409448819
 10
-15.99221653543307
 20
-3.720610236220472
 10
-15.99816535433071
 20
-3.721255905511811
 10
-16.00423228346457
 20
-3.72215748031496
 10
-16.01041338582677
 20
-3.723318897637795
 10
-16.01671653543307
 20
-3.724740157480315
 10
-16.02313779527559
 20
-3.726417322834646
 10
-16.0296811023622
 20
-3.728354330708661
  0
LWPOLYLINE
  5
73
330
1F
100
AcDbEntity
  8
Layer 1
 62
     7
370
     9
100
AcDbPolyline
 90
      155
 70
     1
 43
0.0
 10
-15.51270866141732
 20
-3.947877952755905
 10
-15.47664173228346
 20
-3.947877952755905
 10
-15.47664173228346
 20
-3.806161417322835
 10
-15.47693700787402
 20
-3.796748031496063
 10
-15.47782283464567
 20
-3.787775590551181
 10
-15.47929527559055
 20
-3.779251968503937
 10
-15.48135433070866
 20
-3.771173228346457
 10
-15.484
 20
-3.763535433070866
 10
-15.48723622047244
 20
-3.756338582677165
 10
-15.49105511811024
 20
-3.749590551181103
 10
-15.49545669291339
 20
-3.743279527559055
 10
-15.49791732283465
 20
-3.740263779527559
 10
-15.50052755905512
 20
-3.737405511811024
 10
-15.5032874015748
 20
-3.734696850393701
 10
-15.50620078740157
 20
-3.732137795275591
 10
-15.50926771653543
 20
-3.729736220472441
 10
-15.51248818897638
 20
-3.727488188976378
 10
-15.51586220472441
 20
-3.725393700787401
 10
-15.51938976377953
 20
-3.723452755905512
 10
-15.52314173228346
 20
-3.721692913385827
 10
-15.5271811023622
 20
-3.720169291338583
 10
-15.53150787401575
 20
-3.71888188976378
 10
-15.53612598425197
 20
-3.717826771653543
 10
-15.54103543307087
 20
-3.717007874015748
 10
-15.54623228346457
 20
-3.716425196850394
 10
-15.55172440944882
 20
-3.716074803149606
 10
-15.55750787401575
 20
-3.715956692913386
 10
-15.56333070866142
 20
-3.716157480314961
 10
-15.56897244094488
 20
-3.716763779527559
 10
-15.57443307086614
 20
-3.717771653543307
 10
-15.57970472440945
 20
-3.719185039370079
 10
-15.58479527559055
 20
-3.720996062992126
 10
-15.58970078740158
 20
-3.723212598425197
 10
-15.59441732283465
 20
-3.725826771653543
 10
-15.59895275590551
 20
-3.728846456692914
 10
-15.60288976377953
 20
-3.731858267716536
 10
-15.60664566929134
 20
-3.735094488188976
 10
-15.61022440944882
 20
-3.738551181102362
 10
-15.61362598425197
 20
-3.742224409448819
 10
-15.61685039370079
 20
-3.746114173228346
 10
-15.61989763779528
 20
-3.750224409448819
 10
-15.62276771653543
 20
-3.754543307086614
 10
-15.62546456692913
 20
-3.759074803149606
 10
-15.6349842519685
 20
-3.743279527559055
 10
-15.63744488188976
 20
-3.740263779527559
 10
-15.64005905511811
 20
-3.737405511811024
 10
-15.64282677165354
 20
-3.734696850393701
 10
-15.64574409448819
 20
-3.732137795275591
 10
-15.64881102362205
 20
-3.729736220472441
 10
-15.65203149606299
 20
-3.727488188976378
 10
-15.65539763779528
 20
-3.725393700787401
 10
-15.65891732283464
 20
-3.723452755905512
 10
-15.66267716535433
 20
-3.721692913385827
 10
-15.66672047244094
 20
-3.720169291338583
 10
-15.67105511811024
 20
-3.71888188976378
 10
-15.67567322834646
 20
-3.717826771653543
 10
-15.68058267716535
 20
-3.717007874015748
 10
-15.68577952755905
 20
-3.716425196850394
 10
-15.69126377952756
 20
-3.716074803149606
 10
-15.69703543307087
 20
-3.715956692913386
 10
-15.70286614173228
 20
-3.716157480314961
 10
-15.70850787401575
 20
-3.716763779527559
 10
-15.71396850393701
 20
-3.717771653543307
 10
-15.71924409448819
 20
-3.719185039370079
 10
-15.72433070866142
 20
-3.720996062992126
 10
-15.72923622047244
 20
-3.723212598425197
 10
-15.73395669291339
 20
-3.725826771653543
 10
-15.73849606299213
 20
-3.728846456692914
 10
-15.74224409448819
 20
-3.731716535433071
 10
-15.74583464566929
 20
-3.734779527559055
 10
-15.74925984251968
 20
-3.738031496062992
 10
-15.75252755905512
 20
-3.741484251968504
 10
-15.75562992125984
 20
-3.745133858267716
 10
-15.75857086614173
 20
-3.74898031496063
 10
-15.76134645669291
 20
-3.753027559055118
 10
-15.76396062992126
 20
-3.757275590551181
 10
-15.76396062992126
 20
-3.721110236220472
 10
-15.80002362204724
 20
-3.721110236220472
 10
-15.80002362204724
 20
-3.947877952755905
 10
-15.76396062992126
 20
-3.947877952755905
 10
-15.76396062992126
 20
-3.831842519685039
 10
-15.76312992125984
 20
-3.82507874015748
 10
-15.76204330708661
 20
-3.81857874015748
 10
-15.76069291338583
 20
-3.81234251968504
 10
-15.7590905511811
 20
-3.806366141732283
 10
-15.75722440944882
 20
-3.800649606299213
 10
-15.75510236220472
 20
-3.795185039370079
 10
-15.75272047244095
 20
-3.78998031496063
 10
-15.75008267716535
 20
-3.785023622047244
 10
-15.74793307086614
 20
-3.7815
 10
-15.7456062992126
 20
-3.778133858267716
 10
-15.74309842519685
 20
-3.774929133858268
 10
-15.74042125984252
 20
-3.771885826771654
 10
-15.73756299212598
 20
-3.769
 10
-15.73453149606299
 20
-3.766275590551181
 10
-15.73132283464567
 20
-3.763712598425197
 10
-15.72794488188976
 20
-3.761311023622047
 10
-15.72442913385827
 20
-3.759141732283465
 10
-15.72085039370079
 20
-3.757259842519685
 10
-15.7172125984252
 20
-3.755669291338583
 10
-15.71351181102362
 20
-3.754366141732283
 10
-15.70974803149606
 20
-3.753354330708661
 10
-15.70592125984252
 20
-3.752629921259842
 10
-15.70202755905512
 20
-3.752196850393701
 10
-15.69807086614173
 20
-3.752051181102362
 10
-15.69059842519685
 20
-3.752358267716535
 10
-15.68416141732284
 20
-3.753271653543307
 10
-15.68133070866142
 20
-3.75396062992126
 10
-15.67875590551181
 20
-3.754799212598425
 10
-15.67643700787402
 20
-3.755791338582677
 10
-15.67437401574803
 20
-3.756937007874016
 10
-15.66918503937008
 20
-3.760779527559055
 10
-15.66468897637795
 20
-3.765279527559055
 10
-15.66088188976378
 20
-3.77044094488189
 10
-15.65777165354331
 20
-3.776263779527559
 10
-15.65535039370079
 20
-3.782744094488189
 10
-15.65361811023622
 20
-3.789889763779528
 10
-15.65258267716535
 20
-3.797692913385827
 10
-15.65223622047244
 20
-3.806161417322835
 10
-15.65223622047244
 20
-3.947877952755905
 10
-15.61620472440945
 20
-3.947877952755905
 10
-15.61620472440945
 20
-3.806161417322835
 10
-15.61644094488189
 20
-3.797492125984252
 10
-15.61053937007874
 20
-3.785023622047244
 10
-15.6083937007874
 20
-3.7815
 10
-15.60607086614173
 20
-3.778133858267716
 10
-15.60356692913386
 20
-3.774929133858268
 10
-15.60088976377953
 20
-3.771885826771654
 10
-15.59803149606299
 20
-3.769
 10
-15.59499606299213
 20
-3.766275590551181
 10
-15.5917874015748
 20
-3.763712598425197
 10
-15.58840157480315
 20
-3.761311023622047
 10
-15.58488976377953
 20
-3.759141732283465
 10
-15.58131496062992
 20
-3.757259842519685
 10
-15.57767322834646
 20
-3.755669291338583
 10
-15.57396850393701
 20
-3.754366141732283
 10
-15.57020078740157
 20
-3.753354330708661
 10
-15.56637007874016
 20
-3.752629921259842
 10
-15.56247244094488
 20
-3.752196850393701
 10
-15.55850787401575
 20
-3.752051181102362
 10
-15.55105511811024
 20
-3.752358267716535
 10
-15.54462992125984
 20
-3.753271653543307
 10
-15.54179921259843
 20
-3.75396062992126
 10
-15.53922440944882
 20
-3.754799212598425
 10
-15.5369094488189
 20
-3.755791338582677
 10
-15.53484645669291
 20
-3.756937007874016
 10
-15.52965748031496
 20
-3.760779527559055
 10
-15.52516141732283
 20
-3.765279527559055
 10
-15.52135433070866
 20
-3.77044094488189
 10
-15.51824409448819
 20
-3.776263779527559
 10
-15.51582283464567
 20
-3.782744094488189
 10
-15.5140905511811
 20
-3.789889763779528
 10
-15.51305511811024
 20
-3.797692913385827
 10
-15.51270866141732
 20
-3.806161417322835
 10
-15.51270866141732
 20
-3.947877952755905
  0
LWPOLYLINE
  5
74
330
1F
100
AcDbEntity
  8
Layer 1
 62
     7
370
     9
100
AcDbPolyline
 90
      155
 70
     1
 43
0.0
 10
-15.11980708661417
 20
-3.947877952755905
 10
-15.08375590551181
 20
-3.947877952755905
 10
-15.08375590551181
 20
-3.806161417322835
 10
-15.08405118110236
 20
-3.796748031496063
 10
-15.08493700787402
 20
-3.787775590551181
 10
-15.0864094488189
 20
-3.779251968503937
 10
-15.08846850393701
 20
-3.771173228346457
 10
-15.09111417322835
 20
-3.763535433070866
 10
-15.09435039370079
 20
-3.756338582677165
 10
-15.09816929133858
 20
-3.749590551181103
 10
-15.10257086614173
 20
-3.743279527559055
 10
-15.10502755905512
 20
-3.740263779527559
 10
-15.10763385826772
 20
-3.737405511811024
 10
-15.11039763779528
 20
-3.734696850393701
 10
-15.11331102362205
 20
-3.732137795275591
 10
-15.11637795275591
 20
-3.729736220472441
 10
-15.11960236220472
 20
-3.727488188976378
 10
-15.12297637795276
 20
-3.725393700787401
 10
-15.12650787401575
 20
-3.723452755905512
 10
-15.13025984251968
 20
-3.721692913385827
 10
-15.13429921259842
 20
-3.720169291338583
 10
-15.13862598425197
 20
-3.71888188976378
 10
-15.14324409448819
 20
-3.717826771653543
 10
-15.14815354330709
 20
-3.717007874015748
 10
-15.15335039370079
 20
-3.716425196850394
 10
-15.15884251968504
 20
-3.716074803149606
 10
-15.16462598425197
 20
-3.715956692913386
 10
-15.17044881889764
 20
-3.716157480314961
 10
-15.1760905511811
 20
-3.716763779527559
 10
-15.18155118110236
 20
-3.717771653543307
 10
-15.18682283464567
 20
-3.719185039370079
 10
-15.19191338582677
 20
-3.720996062992126
 10
-15.19681496062992
 20
-3.723212598425197
 10
-15.20153543307087
 20
-3.725826771653543
 10
-15.20606692913386
 20
-3.728846456692914
 10
-15.21
 20
-3.731858267716536
 10
-15.21375590551181
 20
-3.735094488188976
 10
-15.21733464566929
 20
-3.738551181102362
 10
-15.22073622047244
 20
-3.742224409448819
 10
-15.22396062992126
 20
-3.746114173228346
 10
-15.22701181102362
 20
-3.750224409448819
 10
-15.22988582677165
 20
-3.754543307086614
 10
-15.23258267716535
 20
-3.759074803149606
 10
-15.24209842519685
 20
-3.743279527559055
 10
-15.24455905511811
 20
-3.740263779527559
 10
-15.24717322834646
 20
-3.737405511811024
 10
-15.24994094488189
 20
-3.734696850393701
 10
-15.25285826771653
 20
-3.732137795275591
 10
-15.25592519685039
 20
-3.729736220472441
 10
-15.25914566929134
 20
-3.727488188976378
 10
-15.2625157480315
 20
-3.725393700787401
 10
-15.26603543307087
 20
-3.723452755905512
 10
-15.2697874015748
 20
-3.721692913385827
 10
-15.27383070866142
 20
-3.720169291338583
 10
-15.27816141732283
 20
-3.71888188976378
 10
-15.2827874015748
 20
-3.717826771653543
 10
-15.2876968503937
 20
-3.717007874015748
 10
-15.2928937007874
 20
-3.716425196850394
 10
-15.29838188976378
 20
-3.716074803149606
 10
-15.30415354330709
 20
-3.715956692913386
 10
-15.3099842519685
 20
-3.716157480314961
 10
-15.31562598425197
 20
-3.716763779527559
 10
-15.32108661417323
 20
-3.717771653543307
 10
-15.32635826771654
 20
-3.719185039370079
 10
-15.33144881889764
 20
-3.720996062992126
 10
-15.33635433070866
 20
-3.723212598425197
 10
-15.34107480314961
 20
-3.725826771653543
 10
-15.34561417322835
 20
-3.728846456692914
 10
-15.34936220472441
 20
-3.731716535433071
 10
-15.35294881889764
 20
-3.734779527559055
 10
-15.35637401574803
 20
-3.738031496062992
 10
-15.35963779527559
 20
-3.741484251968504
 10
-15.36273622047244
 20
-3.745133858267716
 10
-15.36567716535433
 20
-3.74898031496063
 10
-15.36845669291339
 20
-3.753027559055118
 10
-15.37107480314961
 20
-3.757275590551181
 10
-15.37107480314961
 20
-3.721110236220472
 10
-15.40712204724409
 20
-3.721110236220472
 10
-15.40712204724409
 20
-3.947877952755905
 10
-15.37107480314961
 20
-3.947877952755905
 10
-15.37107480314961
 20
-3.831842519685039
 10
-15.37024409448819
 20
-3.82507874015748
 10
-15.36915748031496
 20
-3.81857874015748
 10
-15.36781102362205
 20
-3.81234251968504
 10
-15.36620078740157
 20
-3.806366141732283
 10
-15.36433464566929
 20
-3.800649606299213
 10
-15.36220866141732
 20
-3.795185039370079
 10
-15.35982677165354
 20
-3.78998031496063
 10
-15.3571811023622
 20
-3.785023622047244
 10
-15.35503937007874
 20
-3.7815
 10
-15.3527125984252
 20
-3.778133858267716
 10
-15.3502125984252
 20
-3.774929133858268
 10
-15.34753149606299
 20
-3.771885826771654
 10
-15.34467322834646
 20
-3.769
 10
-15.34164173228347
 20
-3.766275590551181
 10
-15.33842913385827
 20
-3.763712598425197
 10
-15.33504330708661
 20
-3.761311023622047
 10
-15.33153149606299
 20
-3.759141732283465
 10
-15.32795669291339
 20
-3.757259842519685
 10
-15.3243188976378
 20
-3.755669291338583
 10
-15.32061811023622
 20
-3.754366141732283
 10
-15.31685433070866
 20
-3.753354330708661
 10
-15.31302755905512
 20
-3.752629921259842
 10
-15.30913779527559
 20
-3.752196850393701
 10
-15.30518897637795
 20
-3.752051181102362
 10
-15.29771653543307
 20
-3.752358267716535
 10
-15.29127952755906
 20
-3.753271653543307
 10
-15.28844488188976
 20
-3.75396062992126
 10
-15.28587007874016
 20
-3.754799212598425
 10
-15.28355118110236
 20
-3.755791338582677
 10
-15.28148818897638
 20
-3.756937007874016
 10
-15.27629921259843
 20
-3.760779527559055
 10
-15.2718031496063
 20
-3.765279527559055
 10
-15.268
 20
-3.77044094488189
 10
-15.26488582677165
 20
-3.776263779527559
 10
-15.26246456692913
 20
-3.782744094488189
 10
-15.26073622047244
 20
-3.789889763779528
 10
-15.2596968503937
 20
-3.797692913385827
 10
-15.25935039370079
 20
-3.806161417322835
 10
-15.25935039370079
 20
-3.947877952755905
 10
-15.2233188976378
 20
-3.947877952755905
 10
-15.2233188976378
 20
-3.806161417322835
 10
-15.22355905511811
 20
-3.797492125984252
 10
-15.21765354330709
 20
-3.785023622047244
 10
-15.21550393700787
 20
-3.7815
 10
-15.21317716535433
 20
-3.778133858267716
 10
-15.21067716535433
 20
-3.774929133858268
 10
-15.20799606299213
 20
-3.771885826771654
 10
-15.20514173228347
 20
-3.769
 10
-15.20211023622047
 20
-3.766275590551181
 10
-15.19890157480315
 20
-3.763712598425197
 10
-15.1955157480315
 20
-3.761311023622047
 10
-15.19200393700787
 20
-3.759141732283465
 10
-15.18842913385827
 20
-3.757259842519685
 10
-15.18479133858268
 20
-3.755669291338583
 10
-15.18108661417323
 20
-3.754366141732283
 10
-15.17731889763779
 20
-3.753354330708661
 10
-15.1734842519685
 20
-3.752629921259842
 10
-15.16958661417323
 20
-3.752196850393701
 10
-15.16562598425197
 20
-3.752051181102362
 10
-15.15817322834646
 20
-3.752358267716535
 10
-15.15173622047244
 20
-3.753271653543307
 10
-15.14890551181102
 20
-3.75396062992126
 10
-15.14632677165354
 20
-3.754799212598425
 10
-15.14400787401575
 20
-3.755791338582677
 10
-15.14194488188976
 20
-3.756937007874016
 10
-15.13675984251969
 20
-3.760779527559055
 10
-15.13226377952756
 20
-3.765279527559055
 10
-15.12846062992126
 20
-3.77044094488189
 10
-15.12534645669291
 20
-3.776263779527559
 10
-15.12292519685039
 20
-3.782744094488189
 10
-15.12119291338583
 20
-3.789889763779528
 10
-15.12015354330709
 20
-3.797692913385827
 10
-15.11980708661417
 20
-3.806161417322835
 10
-15.11980708661417
 20
-3.947877952755905
  0
LWPOLYLINE
  5
75
330
1F
100
AcDbEntity
  8
Layer 1
 62
     7
370
    18
100
AcDbPolyline
 90
        4
 70
     1
 43
0.0
 10
-18.8725
 20
-4.37948031496063
 10
-18.84184251968504
 20
-4.378870078740158
 10
-18.85877559055118
 20
-4.353303149606299
 10
-18.8725
 20
-4.37948031496063
  0
LWPOLYLINE
  5
76
330
1F
100
AcDbEntity
  8
Layer 1
 62
     7
370
    18
100
AcDbPolyline
 90
        4
 70
     1
 43
0.0
 10
-20.60248425196851
 20
-3.472389763779527
 10
-20.61941732283465
 20
-3.446822834645669
 10
-20.58875984251969
 20
-3.446212598425197
 10
-20.60248425196851
 20
-3.472389763779527
  0
LWPOLYLINE
  5
77
330
1F
100
AcDbEntity
  8
Layer 1
 62
     7
370
    18
100
AcDbPolyline
 90
        2
 70
     0
 43
0.0
 10
-18.8331811023622
 20
-4.381633858267716
 10
-20.62661811023622
 20
-3.441271653543307
  0
LWPOLYLINE
  5
78
330
1F
100
AcDbEntity
  8
Layer 1
 62
     7
370
     9
100
AcDbPolyline
 90
       69
 70
     1
 43
0.0
 10
-20.75382677165354
 20
-4.171933070866142
 10
-20.74560236220472
 20
-4.172311023622047
 10
-20.73768503937008
 20
-4.173444881889764
 10
-20.73007874015748
 20
-4.175334645669292
 10
-20.72277952755906
 20
-4.17798031496063
 10
-20.7157874015748
 20
-4.181385826771653
 10
-20.70910236220472
 20
-4.185551181102362
 10
-20.70272834645669
 20
-4.190472440944882
 10
-20.69665748031496
 20
-4.196153543307086
 10
-20.69116535433071
 20
-4.202283464566929
 10
-20.68640551181102
 20
-4.208708661417323
 10
-20.68237401574803
 20
-4.215425196850394
 10
-20.67907874015748
 20
-4.222429133858268
 10
-20.67651181102362
 20
-4.229724409448819
 10
-20.67467716535433
 20
-4.237311023622047
 10
-20.67357874015748
 20
-4.245185039370079
 10
-20.6732125984252
 20
-4.253350393700788
 10
-20.67358267716535
 20
-4.261330708661418
 10
-20.67469291338583
 20
-4.269035433070866
 10
-20.67654724409449
 20
-4.276468503937008
 10
-20.67914173228347
 20
-4.283629921259842
 10
-20.68247244094488
 20
-4.290515748031496
 10
-20.68654724409449
 20
-4.297125984251968
 10
-20.69135826771653
 20
-4.303464566929134
 10
-20.69691338582677
 20
-4.309531496062992
 10
-20.70287401574803
 20
-4.314968503937008
 10
-20.70916929133858
 20
-4.319681102362205
 10
-20.71580708661417
 20
-4.323669291338582
 10
-20.72278346456693
 20
-4.326933070866142
 10
-20.73009842519685
 20
-4.329468503937008
 10
-20.73775196850394
 20
-4.331283464566929
 10
-20.74574015748032
 20
-4.332370078740158
 10
-20.75406299212598
 20
-4.332732283464567
 10
-20.76222834645669
 20
-4.332358267716535
 10
-20.77012204724409
 20
-4.331232283464567
 10
-20.77774015748032
 20
-4.329358267716535
 10
-20.78508661417323
 20
-4.326732283464567
 10
-20.79216141732283
 20
-4.323358267716536
 10
-20.79895669291339
 20
-4.319236220472441
 10
-20.80548031496063
 20
-4.314366141732283
 10
-20.81172440944882
 20
-4.308748031496063
 10
-20.81740157480315
 20
-4.302673228346457
 10
-20.8223188976378
 20
-4.296299212598425
 10
-20.82648031496063
 20
-4.289625984251969
 10
-20.82988188976378
 20
-4.282657480314961
 10
-20.83252755905512
 20
-4.275385826771654
 10
-20.83441732283465
 20
-4.267818897637795
 10
-20.83555118110236
 20
-4.259956692913386
 10
-20.83592913385827
 20
-4.251791338582677
 10
-20.83555118110236
 20
-4.243677165354331
 10
-20.83441732283465
 20
-4.235877952755906
 10
-20.83252755905512
 20
-4.228385826771653
 10
-20.82988188976378
 20
-4.221212598425197
 10
-20.82648031496063
 20
-4.214350393700787
 10
-20.8223188976378
 20
-4.207799212598426
 10
-20.81740157480315
 20
-4.201566929133858
 10
-20.81172440944882
 20
-4.195645669291339
 10
-20.80584645669291
 20
-4.1905
 10
-20.79951181102362
 20
-4.185905511811024
 10
-20.79272047244094
 20
-4.181858267716535
 10
-20.78548031496063
 20
-4.17836220472441
 10
-20.78172047244095
 20
-4.176858267716535
 10
-20.77790157480315
 20
-4.175555118110236
 10
-20.77402755905512
 20
-4.174448818897638
 10
-20.77009842519685
 20
-4.173543307086614
 10
-20.76611417322835
 20
-4.172838582677166
 10
-20.76207480314961
 20
-4.172334645669292
 10
-20.75798031496063
 20
-4.172035433070866
 10
-20.75382677165354
 20
-4.171933070866142
  0
LWPOLYLINE
  5
79
330
1F
100
AcDbEntity
  8
Layer 1
 62
     7
370
     9
100
AcDbPolyline
 90
       69
 70
     1
 43
0.0
 10
-20.63665748031496
 20
-4.250771653543307
 10
-20.63722047244094
 20
-4.238366141732284
 10
-20.63891338582677
 20
-4.22651968503937
 10
-20.64173228346457
 20
-4.215240157480315
 10
-20.64567716535433
 20
-4.204523622047244
 10
-20.65074803149606
 20
-4.194370078740158
 10
-20.65694488188976
 20
-4.184779527559055
 10
-20.66427165354331
 20
-4.175751968503937
 10
-20.67272047244094
 20
-4.167283464566929
 10
-20.68135039370079
 20
-4.160153543307087
 10
-20.69058661417323
 20
-4.153901574803149
 10
-20.70042519685039
 20
-4.148527559055118
 10
-20.71087007874016
 20
-4.144031496062992
 10
-20.72192125984252
 20
-4.140413385826772
 10
-20.7335748031496
 20
-4.13767716535433
 10
-20.74583070866142
 20
-4.135814960629921
 10
-20.75869291338583
 20
-4.134834645669291
 10
-20.76900787401575
 20
-4.141535433070866
 10
-20.66189763779527
 20
-4.012673228346457
 10
-20.70927952755905
 20
-4.012673228346457
 10
-20.84624409448819
 20
-4.178122047244094
 10
-20.8523937007874
 20
-4.186173228346457
 10
-20.85772440944882
 20
-4.194555118110237
 10
-20.86223622047244
 20
-4.203267716535433
 10
-20.86592519685039
 20
-4.212311023622047
 10
-20.86879527559055
 20
-4.221685039370079
 10
-20.87084645669291
 20
-4.231389763779528
 10
-20.87207874015748
 20
-4.241425196850393
 10
-20.87248818897638
 20
-4.251791338582677
 10
-20.87194881889764
 20
-4.263740157480315
 10
-20.87033070866142
 20
-4.275232283464567
 10
-20.86763779527559
 20
-4.286259842519685
 10
-20.86386220472441
 20
-4.296830708661417
 10
-20.85901181102362
 20
-4.306944881889764
 10
-20.85307874015748
 20
-4.31659842519685
 10
-20.84607086614173
 20
-4.325791338582677
 10
-20.8379842519685
 20
-4.334531496062992
 10
-20.82907874015748
 20
-4.342559055118111
 10
-20.81974015748031
 20
-4.349515748031496
 10
-20.80996456692914
 20
-4.355405511811024
 10
-20.79975984251968
 20
-4.360224409448819
 10
-20.78911811023622
 20
-4.363972440944882
 10
-20.77804330708661
 20
-4.366653543307087
 10
-20.76653543307087
 20
-4.368259842519685
 10
-20.7545905511811
 20
-4.368795275590551
 10
-20.74247244094488
 20
-4.368263779527559
 10
-20.73083464566929
 20
-4.366669291338583
 10
-20.71968503937008
 20
-4.364011811023622
 10
-20.7090157480315
 20
-4.360291338582678
 10
-20.69882677165354
 20
-4.355507874015748
 10
-20.68912204724409
 20
-4.349661417322834
 10
-20.67990157480315
 20
-4.342748031496063
 10
-20.67116141732284
 20
-4.334767716535433
 10
-20.66727559055118
 20
-4.330700787401574
 10
-20.66359842519685
 20
-4.326468503937008
 10
-20.66013385826772
 20
-4.322074803149606
 10
-20.65687401574803
 20
-4.31751968503937
 10
-20.65382283464567
 20
-4.312799212598425
 10
-20.65098031496063
 20
-4.307921259842519
 10
-20.64834251968504
 20
-4.302877952755906
 10
-20.64591732283465
 20
-4.297673228346457
 10
-20.64375196850394
 20
-4.292314960629922
 10
-20.64187401574803
 20
-4.286814960629921
 10
-20.64028346456693
 20
-4.281169291338583
 10
-20.63898031496063
 20
-4.275381889763779
 10
-20.63796456692913
 20
-4.269448818897637
 10
-20.63724015748031
 20
-4.263366141732283
 10
-20.6368031496063
 20
-4.257141732283465
 10
-20.63665748031496
 20
-4.250771653543307
  0
LWPOLYLINE
  5
7A
330
1F
100
AcDbEntity
  8
Layer 1
 62
     7
370
     9
100
AcDbPolyline
 90
       65
 70
     1
 43
0.0
 10
-20.48732283464567
 20
-4.18482283464567
 10
-20.47968897637795
 20
-4.185153543307087
 10
-20.47235039370079
 20
-4.186141732283464
 10
-20.46530708661417
 20
-4.187787401574803
 10
-20.45856299212598
 20
-4.19009842519685
 10
-20.45211417322835
 20
-4.193066929133859
 10
-20.44596062992126
 20
-4.196696850393701
 10
-20.4401062992126
 20
-4.200988188976378
 10
-20.43454724409449
 20
-4.20594094488189
 10
-20.42953937007874
 20
-4.211311023622048
 10
-20.4251968503937
 20
-4.216988188976378
 10
-20.42152362204724
 20
-4.222968503937008
 10
-20.4185157480315
 20
-4.229255905511811
 10
-20.41618110236221
 20
-4.235850393700788
 10
-20.41450787401575
 20
-4.242748031496063
 10
-20.41350787401575
 20
-4.249948818897638
 10
-20.41317322834646
 20
-4.257456692913386
 10
-20.41350393700787
 20
-4.264905511811024
 10
-20.41449606299213
 20
-4.272106299212599
 10
-20.41614566929134
 20
-4.279055118110236
 10
-20.41845669291338
 20
-4.285751968503937
 10
-20.42142913385827
 20
-4.292196850393701
 10
-20.42505511811024
 20
-4.298397637795276
 10
-20.42933858267716
 20
-4.304342519685039
 10
-20.43427559055118
 20
-4.31003937007874
 10
-20.43970078740157
 20
-4.315232283464567
 10
-20.44547244094488
 20
-4.319736220472441
 10
-20.45158661417323
 20
-4.323547244094488
 10
-20.45804330708662
 20
-4.326665354330709
 10
-20.46484645669291
 20
-4.329090551181102
 10
-20.47199606299213
 20
-4.330822834645669
 10
-20.4794842519685
 20
-4.331862204724409
 10
-20.48732283464567
 20
-4.332208661417323
 10
-20.49516535433071
 20
-4.331862204724409
 10
-20.50266141732283
 20
-4.330822834645669
 10
-20.50980708661417
 20
-4.329090551181102
 10
-20.51661023622047
 20
-4.326665354330709
 10
-20.52306692913386
 20
-4.323547244094488
 10
-20.52917322834646
 20
-4.319736220472441
 10
-20.53493700787402
 20
-4.315232283464567
 10
-20.54035039370079
 20
-4.31003937007874
 10
-20.5453031496063
 20
-4.304342519685039
 10
-20.54959448818898
 20
-4.298397637795276
 10
-20.55322834645669
 20
-4.292196850393701
 10
-20.55620078740158
 20
-4.285751968503937
 10
-20.55851181102362
 20
-4.279055118110236
 10
-20.56016535433071
 20
-4.272106299212599
 10
-20.56115748031496
 20
-4.264905511811024
 10
-20.56148818897638
 20
-4.257456692913386
 10
-20.56115354330709
 20
-4.249948818897638
 10
-20.56015354330709
 20
-4.242748031496063
 10
-20.55848031496063
 20
-4.235850393700788
 10
-20.55614566929134
 20
-4.229255905511811
 10
-20.55313779527559
 20
-4.222968503937008
 10
-20.54946456692914
 20
-4.216988188976378
 10
-20.5451220472441
 20
-4.211311023622048
 10
-20.54011417322835
 20
-4.20594094488189
 10
-20.53455905511811
 20
-4.200988188976378
 10
-20.52870472440945
 20
-4.196696850393701
 10
-20.52255118110236
 20
-4.193066929133859
 10
-20.51609842519685
 20
-4.19009842519685
 10
-20.50935039370079
 20
-4.187787401574803
 10
-20.5023031496063
 20
-4.186141732283464
 10
-20.49496062992126
 20
-4.185153543307087
 10
-20.48732283464567
 20
-4.18482283464567
  0
LWPOLYLINE
  5
7B
330
1F
100
AcDbEntity
  8
Layer 1
 62
     7
370
     9
100
AcDbPolyline
 90
       65
 70
     1
 43
0.0
 10
-20.48732283464567
 20
-4.042562992125984
 10
-20.48116535433071
 20
-4.042822834645669
 10
-20.47524015748031
 20
-4.043594488188976
 10
-20.46955118110236
 20
-4.044885826771654
 10
-20.4640905511811
 20
-4.046692913385827
 10
-20.45886614173228
 20
-4.049015748031496
 10
-20.45387401574803
 20
-4.051850393700787
 10
-20.44911417322835
 20
-4.055200787401575
 10
-20.4445905511811
 20
-4.059066929133858
 10
-20.44036614173228
 20
-4.063413385826772
 10
-20.43670472440945
 20
-4.068007874015748
 10
-20.4336062992126
 20
-4.072850393700787
 10
-20.43107086614173
 20
-4.07794094488189
 10
-20.42909842519685
 20
-4.083283464566929
 10
-20.42768897637795
 20
-4.088874015748032
 10
-20.42684251968504
 20
-4.094716535433071
 10
-20.42655905511811
 20
-4.100811023622048
 10
-20.42684251968504
 20
-4.106763779527559
 10
-20.42768897637795
 20
-4.112527559055118
 10
-20.42909842519685
 20
-4.11809842519685
 10
-20.43107086614173
 20
-4.123476377952756
 10
-20.4336062992126
 20
-4.128661417322834
 10
-20.43670472440945
 20
-4.133653543307086
 10
-20.44036614173228
 20
-4.138456692913386
 10
-20.4445905511811
 20
-4.143062992125985
 10
-20.44908661417323
 20
-4.14717716535433
 10
-20.45382283464567
 20
-4.150740157480315
 10
-20.4588031496063
 20
-4.153751968503937
 10
-20.46402362204724
 20
-4.156212598425197
 10
-20.4694842519685
 20
-4.158129921259842
 10
-20.47518897637795
 20
-4.159496062992126
 10
-20.48113385826772
 20
-4.160314960629921
 10
-20.48732283464567
 20
-4.160586614173228
 10
-20.49351181102362
 20
-4.160314960629921
 10
-20.49946062992126
 20
-4.159496062992126
 10
-20.50516535433071
 20
-4.158129921259842
 10
-20.51062992125984
 20
-4.156212598425197
 10
-20.51585433070866
 20
-4.153751968503937
 10
-20.52083464566929
 20
-4.150740157480315
 10
-20.52557480314961
 20
-4.14717716535433
 10
-20.53007086614173
 20
-4.143062992125985
 10
-20.53429133858268
 20
-4.138456692913386
 10
-20.53795275590551
 20
-4.133653543307086
 10
-20.54104330708661
 20
-4.128661417322834
 10
-20.54357480314961
 20
-4.123476377952756
 10
-20.54554330708661
 20
-4.11809842519685
 10
-20.54694881889764
 20
-4.112527559055118
 10
-20.54779133858268
 20
-4.106763779527559
 10
-20.54807086614173
 20
-4.100811023622048
 10
-20.54779133858268
 20
-4.094716535433071
 10
-20.54694881889764
 20
-4.088874015748032
 10
-20.54554330708661
 20
-4.083283464566929
 10
-20.54357480314961
 20
-4.07794094488189
 10
-20.54104330708661
 20
-4.072850393700787
 10
-20.53795275590551
 20
-4.068007874015748
 10
-20.53429133858268
 20
-4.063413385826772
 10
-20.53007086614173
 20
-4.059066929133858
 10
-20.52554724409449
 20
-4.055200787401575
 10
-20.5207874015748
 20
-4.051850393700787
 10
-20.51579527559055
 20
-4.049015748031496
 10
-20.51056692913386
 20
-4.046692913385827
 10
-20.5051062992126
 20
-4.044885826771654
 10
-20.49941338582677
 20
-4.043594488188976
 10
-20.4934842519685
 20
-4.042822834645669
 10
-20.48732283464567
 20
-4.042562992125984
  0
LWPOLYLINE
  5
7C
330
1F
100
AcDbEntity
  8
Layer 1
 62
     7
370
     9
100
AcDbPolyline
 90
      121
 70
     1
 43
0.0
 10
-20.48732283464567
 20
-4.368287401574803
 10
-20.47552362204724
 20
-4.367842519685039
 10
-20.46420078740157
 20
-4.3665
 10
-20.45335039370079
 20
-4.364263779527559
 10
-20.44297637795276
 20
-4.361137795275591
 10
-20.43307480314961
 20
-4.357114173228346
 10
-20.42365354330709
 20
-4.352192913385827
 10
-20.41470472440945
 20
-4.346381889763779
 10
-20.40623622047244
 20
-4.339673228346457
 10
-20.4024094488189
 20
-4.336169291338583
 10
-20.39879527559055
 20
-4.332488188976378
 10
-20.39538976377953
 20
-4.328629921259843
 10
-20.3921968503937
 20
-4.324594488188977
 10
-20.38920866141732
 20
-4.320381889763779
 10
-20.38643307086614
 20
-4.315992125984252
 10
-20.38386220472441
 20
-4.311425196850394
 10
-20.3815
 20
-4.306681102362205
 10
-20.3793937007874
 20
-4.301763779527559
 10
-20.37757086614173
 20
-4.296669291338583
 10
-20.37602362204725
 20
-4.291397637795275
 10
-20.37475984251968
 20
-4.285944881889764
 10
-20.37377559055118
 20
-4.280314960629921
 10
-20.37307480314961
 20
-4.274507874015748
 10
-20.37265354330709
 20
-4.268523622047244
 10
-20.37251181102362
 20
-4.262358267716535
 10
-20.37274803149606
 20
-4.256118110236221
 10
-20.37346062992126
 20
-4.249897637795276
 10
-20.37464960629921
 20
-4.243692913385827
 10
-20.37631102362205
 20
-4.2375
 10
-20.37844488188976
 20
-4.231326771653543
 10
-20.38105511811024
 20
-4.225173228346456
 10
-20.38413779527559
 20
-4.219035433070866
 10
-20.38769291338583
 20
-4.212913385826772
 10
-20.3916968503937
 20
-4.206929133858267
 10
-20.39611023622047
 20
-4.201228346456693
 10
-20.40093307086614
 20
-4.195811023622047
 10
-20.40616929133858
 20
-4.190673228346457
 10
-20.41181102362205
 20
-4.185818897637795
 10
-20.41786614173228
 20
-4.181248031496063
 10
-20.42433070866142
 20
-4.176956692913386
 10
-20.43120472440945
 20
-4.172948818897638
 10
-20.42142519685039
 20
-4.164224409448819
 10
-20.41295275590551
 20
-4.155318897637795
 10
-20.40578346456693
 20
-4.146224409448819
 10
-20.39991732283465
 20
-4.136944881889764
 10
-20.39535433070866
 20
-4.127484251968504
 10
-20.39209842519685
 20
-4.117834645669292
 10
-20.39014173228346
 20
-4.107996062992126
 10
-20.38949212598425
 20
-4.097976377952756
 10
-20.38993700787401
 20
-4.088086614173228
 10
-20.39127952755906
 20
-4.078661417322834
 10
-20.39351181102362
 20
-4.069696850393701
 10
-20.39663779527559
 20
-4.061188976377953
 10
-20.40065354330709
 20
-4.053141732283464
 10
-20.40556299212598
 20
-4.045551181102362
 10
-20.41136614173228
 20
-4.038417322834646
 10
-20.41805905511811
 20
-4.031740157480315
 10
-20.42514173228346
 20
-4.025944881889764
 10
-20.43267716535433
 20
-4.020921259842519
 10
-20.44066141732284
 20
-4.016669291338583
 10
-20.44909842519685
 20
-4.013192913385827
 10
-20.45798031496063
 20
-4.010484251968504
 10
-20.46731496062992
 20
-4.008555118110237
 10
-20.47709448818897
 20
-4.007393700787402
 10
-20.48732283464567
 20
-4.007007874015748
 10
-20.49755511811023
 20
-4.007393700787402
 10
-20.50734251968504
 20
-4.008555118110237
 10
-20.51667716535433
 20
-4.010484251968504
 10
-20.52556299212598
 20
-4.013192913385827
 10
-20.53399606299213
 20
-4.016669291338583
 10
-20.54197637795276
 20
-4.020921259842519
 10
-20.54950787401575
 20
-4.025944881889764
 10
-20.55658661417323
 20
-4.031740157480315
 10
-20.56328346456693
 20
-4.038413385826772
 10
-20.5690905511811
 20
-4.04553937007874
 10
-20.57400393700787
 20
-4.053110236220473
 10
-20.57802362204724
 20
-4.061129921259843
 10
-20.58114960629921
 20
-4.069602362204725
 10
-20.58338188976378
 20
-4.078527559055118
 10
-20.58472440944882
 20
-4.087897637795275
 10
-20.58516929133858
 20
-4.097724409448819
 10
-20.5845157480315
 20
-4.107803149606299
 10
-20.58255905511811
 20
-4.117688976377953
 10
-20.57929921259842
 20
-4.12738188976378
 10
-20.57473228346457
 20
-4.13688188976378
 10
-20.56886614173228
 20
-4.146188976377953
 10
-20.5616968503937
 20
-4.155303149606299
 10
-20.55322834645669
 20
-4.164220472440945
 10
-20.54345669291338
 20
-4.172948818897638
 10
-20.55032677165354
 20
-4.176956692913386
 10
-20.5567874015748
 20
-4.181248031496063
 10
-20.56284251968504
 20
-4.185818897637795
 10
-20.56848818897638
 20
-4.190673228346457
 10
-20.57372440944882
 20
-4.195811023622047
 10
-20.57855118110236
 20
-4.201228346456693
 10
-20.58296456692914
 20
-4.206929133858267
 10
-20.58696850393701
 20
-4.212913385826772
 10
-20.59052362204724
 20
-4.219047244094488
 10
-20.5936062992126
 20
-4.225224409448819
 10
-20.59621653543307
 20
-4.23144094488189
 10
-20.59835039370079
 20
-4.237704724409449
 10
-20.60001181102362
 20
-4.244003937007874
 10
-20.60120078740157
 20
-4.250346456692913
 10
-20.60191338582677
 20
-4.256732283464567
 10
-20.60214960629921
 20
-4.263153543307086
 10
-20.6016220472441
 20
-4.274661417322835
 10
-20.60004330708662
 20
-4.285618110236221
 10
-20.5974094488189
 20
-4.296015748031496
 10
-20.59372440944882
 20
-4.305862204724409
 10
-20.5889842519685
 20
-4.315149606299213
 10
-20.58318503937008
 20
-4.323877952755906
 10
-20.57633464566929
 20
-4.332055118110236
 10
-20.56842913385827
 20
-4.339673228346457
 10
-20.55994881889764
 20
-4.346381889763779
 10
-20.55099212598425
 20
-4.352192913385827
 10
-20.54156692913386
 20
-4.357114173228346
 10
-20.53166535433071
 20
-4.361137795275591
 10
-20.52129133858268
 20
-4.364263779527559
 10
-20.51044488188976
 20
-4.3665
 10
-20.49912204724409
 20
-4.367842519685039
 10
-20.48732283464567
 20
-4.368287401574803
  0
LWPOLYLINE
  5
7D
330
1F
100
AcDbEntity
  8
Layer 1
 62
     7
370
     9
100
AcDbPolyline
 90
      155
 70
     1
 43
0.0
 10
-20.02597244094488
 20
-4.362094488188976
 10
-19.98992519685039
 20
-4.362094488188976
 10
-19.98992519685039
 20
-4.220377952755905
 10
-19.99022047244095
 20
-4.210964566929134
 10
-19.99110236220472
 20
-4.201992125984252
 10
-19.99257086614173
 20
-4.193468503937008
 10
-19.99462992125984
 20
-4.185389763779527
 10
-19.99727165354331
 20
-4.177751968503937
 10
-20.00050393700787
 20
-4.170555118110236
 10
-20.00431889763779
 20
-4.163807086614173
 10
-20.00872047244095
 20
-4.157496062992126
 10
-20.0111811023622
 20
-4.15448031496063
 10
-20.01379133858268
 20
-4.151622047244095
 10
-20.01655511811024
 20
-4.148913385826772
 10
-20.01946850393701
 20
-4.146354330708661
 10
-20.02253543307087
 20
-4.143952755905512
 10
-20.02575590551181
 20
-4.141704724409449
 10
-20.02912992125984
 20
-4.139610236220473
 10
-20.03265748031496
 20
-4.137669291338582
 10
-20.0364094488189
 20
-4.135909448818897
 10
-20.04044881889764
 20
-4.134385826771654
 10
-20.04477559055118
 20
-4.133098425196851
 10
-20.0493937007874
 20
-4.132043307086614
 10
-20.0543031496063
 20
-4.131224409448819
 10
-20.0595
 20
-4.130641732283465
 10
-20.06499212598425
 20
-4.130291338582677
 10
-20.07077559055118
 20
-4.130173228346457
 10
-20.0766062992126
 20
-4.130374015748031
 10
-20.08224803149606
 20
-4.13098031496063
 10
-20.08770472440945
 20
-4.131988188976378
 10
-20.09298031496063
 20
-4.133401574803149
 10
-20.09806692913386
 20
-4.135212598425197
 10
-20.10297244094488
 20
-4.137429133858268
 10
-20.10769291338583
 20
-4.140043307086614
 10
-20.11223228346457
 20
-4.143062992125985
 10
-20.11616535433071
 20
-4.146074803149606
 10
-20.11991732283465
 20
-4.149311023622047
 10
-20.12349606299212
 20
-4.152767716535433
 10
-20.1268937007874
 20
-4.15644094488189
 10
-20.13011811023622
 20
-4.160330708661418
 10
-20.13316535433071
 20
-4.16444094488189
 10
-20.13603543307087
 20
-4.168759842519685
 10
-20.13873228346457
 20
-4.173291338582677
 10
-20.14826377952756
 20
-4.157496062992126
 10
-20.15072047244094
 20
-4.15448031496063
 10
-20.15333070866142
 20
-4.151622047244095
 10
-20.15609448818898
 20
-4.148913385826772
 10
-20.15901181102362
 20
-4.146354330708661
 10
-20.16207874015748
 20
-4.143952755905512
 10
-20.1653031496063
 20
-4.141704724409449
 10
-20.16867716535433
 20
-4.139610236220473
 10
-20.17220078740158
 20
-4.137669291338582
 10
-20.17595275590551
 20
-4.135909448818897
 10
-20.17999212598425
 20
-4.134385826771654
 10
-20.18432283464567
 20
-4.133098425196851
 10
-20.18894488188976
 20
-4.132043307086614
 10
-20.19385433070866
 20
-4.131224409448819
 10
-20.19905511811024
 20
-4.130641732283465
 10
-20.20454330708661
 20
-4.130291338582677
 10
-20.21031889763779
 20
-4.130173228346457
 10
-20.21614173228346
 20
-4.130374015748031
 10
-20.22178346456693
 20
-4.13098031496063
 10
-20.22724015748031
 20
-4.131988188976378
 10
-20.23251181102362
 20
-4.133401574803149
 10
-20.23759842519685
 20
-4.135212598425197
 10
-20.24250393700787
 20
-4.137429133858268
 10
-20.24722440944882
 20
-4.140043307086614
 10
-20.25176377952756
 20
-4.143062992125985
 10
-20.25551181102362
 20
-4.145933070866142
 10
-20.25909842519685
 20
-4.148992125984252
 10
-20.26252755905512
 20
-4.152248031496063
 10
-20.26579133858268
 20
-4.155700787401575
 10
-20.26889763779528
 20
-4.159346456692913
 10
-20.27183858267717
 20
-4.1631968503937
 10
-20.27462204724409
 20
-4.167244094488189
 10
-20.27724015748031
 20
-4.171492125984252
 10
-20.27724015748031
 20
-4.135326771653543
 10
-20.31329133858268
 20
-4.135326771653543
 10
-20.31329133858268
 20
-4.362094488188976
 10
-20.27724015748031
 20
-4.362094488188976
 10
-20.27724015748031
 20
-4.24605905511811
 10
-20.27640551181102
 20
-4.239295275590552
 10
-20.27531496062992
 20
-4.232795275590552
 10
-20.27396850393701
 20
-4.22655905511811
 10
-20.27236220472441
 20
-4.220582677165354
 10
-20.27049606299213
 20
-4.214862204724409
 10
-20.26837401574803
 20
-4.20940157480315
 10
-20.26599212598425
 20
-4.204192913385826
 10
-20.26334645669291
 20
-4.199240157480315
 10
-20.2611968503937
 20
-4.195716535433071
 10
-20.25887007874016
 20
-4.192350393700788
 10
-20.25637007874016
 20
-4.189145669291339
 10
-20.25368897637795
 20
-4.186102362204724
 10
-20.25083464566929
 20
-4.183216535433071
 10
-20.2478031496063
 20
-4.180492125984252
 10
-20.24459448818898
 20
-4.177929133858267
 10
-20.24120866141732
 20
-4.175527559055118
 10
-20.2376968503937
 20
-4.173358267716536
 10
-20.2341220472441
 20
-4.171472440944882
 10
-20.23048425196851
 20
-4.169877952755906
 10
-20.22678346456693
 20
-4.168574803149606
 10
-20.2230157480315
 20
-4.16755905511811
 10
-20.21918897637795
 20
-4.166834645669291
 10
-20.21529527559055
 20
-4.166397637795275
 10
-20.21133858267716
 20
-4.166251968503937
 10
-20.20387401574803
 20
-4.16655905511811
 10
-20.19743307086614
 20
-4.16748031496063
 10
-20.19459842519685
 20
-4.168173228346457
 10
-20.19201968503937
 20
-4.169015748031496
 10
-20.18970078740157
 20
-4.170007874015748
 10
-20.18763779527559
 20
-4.171153543307087
 10
-20.18245275590551
 20
-4.174996062992126
 10
-20.17796062992126
 20
-4.179496062992126
 10
-20.17415748031496
 20
-4.184657480314961
 10
-20.17104330708661
 20
-4.19048031496063
 10
-20.16861811023622
 20
-4.19696062992126
 10
-20.16688582677165
 20
-4.204106299212598
 10
-20.16584645669291
 20
-4.211909448818898
 10
-20.1655
 20
-4.220377952755905
 10
-20.1655
 20
-4.362094488188976
 10
-20.12946850393701
 20
-4.362094488188976
 10
-20.12946850393701
 20
-4.220377952755905
 10
-20.12970472440945
 20
-4.211708661417322
 10
-20.1238188976378
 20
-4.199240157480315
 10
-20.12166929133858
 20
-4.195716535433071
 10
-20.11934251968504
 20
-4.192350393700788
 10
-20.11683858267716
 20
-4.189145669291339
 10
-20.11415354330709
 20
-4.186102362204724
 10
-20.11129527559055
 20
-4.183216535433071
 10
-20.10826377952756
 20
-4.180492125984252
 10
-20.10505118110236
 20
-4.177929133858267
 10
-20.10166535433071
 20
-4.175527559055118
 10
-20.09815354330709
 20
-4.173358267716536
 10
-20.09457874015748
 20
-4.171472440944882
 10
-20.09094094488189
 20
-4.169877952755906
 10
-20.08723622047244
 20
-4.168574803149606
 10
-20.08347244094488
 20
-4.16755905511811
 10
-20.07964173228346
 20
-4.166834645669291
 10
-20.07574803149606
 20
-4.166397637795275
 10
-20.07179133858268
 20
-4.166251968503937
 10
-20.06432677165354
 20
-4.16655905511811
 10
-20.05789763779527
 20
-4.16748031496063
 10
-20.05506299212598
 20
-4.168173228346457
 10
-20.05249212598425
 20
-4.169015748031496
 10
-20.05017322834646
 20
-4.170007874015748
 10
-20.04811023622047
 20
-4.171153543307087
 10
-20.04292125984252
 20
-4.174996062992126
 10
-20.03842519685039
 20
-4.179496062992126
 10
-20.03461811023622
 20
-4.184657480314961
 10
-20.03150787401575
 20
-4.19048031496063
 10
-20.02908661417323
 20
-4.19696062992126
 10
-20.02735433070866
 20
-4.204106299212598
 10
-20.0263188976378
 20
-4.211909448818898
 10
-20.02597244094488
 20
-4.220377952755905
 10
-20.02597244094488
 20
-4.362094488188976
  0
LWPOLYLINE
  5
7E
330
1F
100
AcDbEntity
  8
Layer 1
 62
     7
370
     9
100
AcDbPolyline
 90
      155
 70
     1
 43
0.0
 10
-19.63308661417323
 20
-4.362094488188976
 10
-19.59702362204725
 20
-4.362094488188976
 10
-19.59702362204725
 20
-4.220377952755905
 10
-19.59731889763779
 20
-4.210964566929134
 10
-19.59820078740157
 20
-4.201992125984252
 10
-19.59967322834646
 20
-4.193468503937008
 10
-19.60173622047244
 20
-4.185389763779527
 10
-19.60438188976378
 20
-4.177751968503937
 10
-19.60761417322835
 20
-4.170555118110236
 10
-19.61143307086614
 20
-4.163807086614173
 10
-19.61583464566929
 20
-4.157496062992126
 10
-19.61829527559055
 20
-4.15448031496063
 10
-19.62090551181102
 20
-4.151622047244095
 10
-19.62366929133858
 20
-4.148913385826772
 10
-19.62658267716536
 20
-4.146354330708661
 10
-19.62964960629921
 20
-4.143952755905512
 10
-19.63287007874016
 20
-4.141704724409449
 10
-19.63624409448819
 20
-4.139610236220473
 10
-19.63977165354331
 20
-4.137669291338582
 10
-19.64352362204724
 20
-4.135909448818897
 10
-19.64756299212598
 20
-4.134385826771654
 10
-19.65188976377953
 20
-4.133098425196851
 10
-19.65650787401575
 20
-4.132043307086614
 10
-19.66141732283464
 20
-4.131224409448819
 10
-19.66661417322835
 20
-4.130641732283465
 10
-19.6721062992126
 20
-4.130291338582677
 10
-19.67788976377953
 20
-4.130173228346457
 10
-19.6837125984252
 20
-4.130374015748031
 10
-19.68935433070866
 20
-4.13098031496063
 10
-19.69481496062992
 20
-4.131988188976378
 10
-19.70008661417323
 20
-4.133401574803149
 10
-19.70517716535433
 20
-4.135212598425197
 10
-19.71007874015748
 20
-4.137429133858268
 10
-19.71479921259843
 20
-4.140043307086614
 10
-19.71933070866142
 20
-4.143062992125985
 10
-19.72326377952756
 20
-4.146074803149606
 10
-19.72701968503937
 20
-4.149311023622047
 10
-19.73059842519685
 20
-4.152767716535433
 10
-19.73400393700787
 20
-4.15644094488189
 10
-19.73722834645669
 20
-4.160330708661418
 10
-19.74027952755905
 20
-4.16444094488189
 10
-19.74314960629921
 20
-4.168759842519685
 10
-19.74584645669291
 20
-4.173291338582677
 10
-19.75536220472441
 20
-4.157496062992126
 10
-19.75782283464567
 20
-4.15448031496063
 10
-19.76043700787402
 20
-4.151622047244095
 10
-19.76320472440945
 20
-4.148913385826772
 10
-19.7661220472441
 20
-4.146354330708661
 10
-19.76919291338583
 20
-4.143952755905512
 10
-19.7724094488189
 20
-4.141704724409449
 10
-19.77577952755906
 20
-4.139610236220473
 10
-19.77929921259842
 20
-4.137669291338582
 10
-19.78305118110236
 20
-4.135909448818897
 10
-19.78709448818898
 20
-4.134385826771654
 10
-19.79142519685039
 20
-4.133098425196851
 10
-19.79605118110236
 20
-4.132043307086614
 10
-19.80096062992126
 20
-4.131224409448819
 10
-19.80615748031496
 20
-4.130641732283465
 10
-19.81164566929134
 20
-4.130291338582677
 10
-19.81741732283465
 20
-4.130173228346457
 10
-19.82324803149606
 20
-4.130374015748031
 10
-19.82888976377953
 20
-4.13098031496063
 10
-19.83435039370079
 20
-4.131988188976378
 10
-19.83962598425197
 20
-4.133401574803149
 10
-19.8447125984252
 20
-4.135212598425197
 10
-19.84961811023622
 20
-4.137429133858268
 10
-19.85433858267717
 20
-4.140043307086614
 10
-19.8588779527559
 20
-4.143062992125985
 10
-19.86262598425197
 20
-4.145933070866142
 10
-19.86621653543307
 20
-4.148992125984252
 10
-19.86964173228347
 20
-4.152248031496063
 10
-19.8729094488189
 20
-4.155700787401575
 10
-19.87601181102362
 20
-4.159346456692913
 10
-19.87895275590551
 20
-4.1631968503937
 10
-19.88172834645669
 20
-4.167244094488189
 10
-19.88434251968504
 20
-4.171492125984252
 10
-19.88434251968504
 20
-4.135326771653543
 10
-19.92040551181102
 20
-4.135326771653543
 10
-19.92040551181102
 20
-4.362094488188976
 10
-19.88434251968504
 20
-4.362094488188976
 10
-19.88434251968504
 20
-4.24605905511811
 10
-19.88351181102362
 20
-4.239295275590552
 10
-19.8824251968504
 20
-4.232795275590552
 10
-19.88107480314961
 20
-4.22655905511811
 10
-19.87947244094488
 20
-4.220582677165354
 10
-19.8776062992126
 20
-4.214862204724409
 10
-19.8754842519685
 20
-4.20940157480315
 10
-19.87310236220473
 20
-4.204192913385826
 10
-19.87046456692913
 20
-4.199240157480315
 10
-19.86831496062992
 20
-4.195716535433071
 10
-19.86598818897638
 20
-4.192350393700788
 10
-19.86348031496063
 20
-4.189145669291339
 10
-19.8608031496063
 20
-4.186102362204724
 10
-19.85794488188976
 20
-4.183216535433071
 10
-19.85491338582677
 20
-4.180492125984252
 10
-19.85170472440945
 20
-4.177929133858267
 10
-19.84832677165354
 20
-4.175527559055118
 10
-19.84481102362205
 20
-4.173358267716536
 10
-19.84123228346457
 20
-4.171472440944882
 10
-19.83759448818898
 20
-4.169877952755906
 10
-19.8338937007874
 20
-4.168574803149606
 10
-19.83012992125984
 20
-4.16755905511811
 10
-19.8263031496063
 20
-4.166834645669291
 10
-19.8224094488189
 20
-4.166397637795275
 10
-19.81845275590551
 20
-4.166251968503937
 10
-19.81098031496063
 20
-4.16655905511811
 10
-19.80454330708661
 20
-4.16748031496063
 10
-19.80170866141732
 20
-4.168173228346457
 10
-19.79913385826772
 20
-4.169015748031496
 10
-19.79681496062992
 20
-4.170007874015748
 10
-19.79475590551181
 20
-4.171153543307087
 10
-19.78956692913386
 20
-4.174996062992126
 10
-19.78507086614173
 20
-4.179496062992126
 10
-19.78126377952756
 20
-4.184657480314961
 10
-19.77815354330709
 20
-4.19048031496063
 10
-19.77573228346457
 20
-4.19696062992126
 10
-19.774
 20
-4.204106299212598
 10
-19.77296456692913
 20
-4.211909448818898
 10
-19.77261811023622
 20
-4.220377952755905
 10
-19.77261811023622
 20
-4.362094488188976
 10
-19.73658661417323
 20
-4.362094488188976
 10
-19.73658661417323
 20
-4.220377952755905
 10
-19.73682283464567
 20
-4.211708661417322
 10
-19.73091732283465
 20
-4.199240157480315
 10
-19.72877559055118
 20
-4.195716535433071
 10
-19.72644881889764
 20
-4.192350393700788
 10
-19.72394881889764
 20
-4.189145669291339
 10
-19.72126771653543
 20
-4.186102362204724
 10
-19.7184094488189
 20
-4.183216535433071
 10
-19.7153779527559
 20
-4.180492125984252
 10
-19.71216535433071
 20
-4.177929133858267
 10
-19.70877952755906
 20
-4.175527559055118
 10
-19.70526771653543
 20
-4.173358267716536
 10
-19.70169291338583
 20
-4.171472440944882
 10
-19.69805511811024
 20
-4.169877952755906
 10
-19.69435039370079
 20
-4.168574803149606
 10
-19.69058267716536
 20
-4.16755905511811
 10
-19.68674803149606
 20
-4.166834645669291
 10
-19.68285039370079
 20
-4.166397637795275
 10
-19.67888976377953
 20
-4.166251968503937
 10
-19.67143700787402
 20
-4.16655905511811
 10
-19.66500787401575
 20
-4.16748031496063
 10
-19.66217716535433
 20
-4.168173228346457
 10
-19.6596062992126
 20
-4.169015748031496
 10
-19.6572874015748
 20
-4.170007874015748
 10
-19.65522440944882
 20
-4.171153543307087
 10
-19.65003543307087
 20
-4.174996062992126
 10
-19.64553937007874
 20
-4.179496062992126
 10
-19.64173622047244
 20
-4.184657480314961
 10
-19.63862204724409
 20
-4.19048031496063
 10
-19.63620078740157
 20
-4.19696062992126
 10
-19.63447244094488
 20
-4.204106299212598
 10
-19.63343307086614
 20
-4.211909448818898
 10
-19.63308661417323
 20
-4.220377952755905
 10
-19.63308661417323
 20
-4.362094488188976
  0
ENDSEC
  0
SECTION
  2
OBJECTS
  0
DICTIONARY
  5
C
330
0
100
AcDbDictionary
281
     1
  3
ACAD_DETAILVIEWSTYLE
350
86
  3
ACAD_GROUP
350
D
  3
ACAD_LAYOUT
350
1A
  3
ACAD_MATERIAL
350
43
  3
ACAD_MLEADERSTYLE
350
5B
  3
ACAD_MLINESTYLE
350
17
  3
ACAD_PLOTSETTINGS
350
19
  3
ACAD_PLOTSTYLENAME
350
E
  3
ACAD_SCALELIST
350
47
  3
ACAD_SECTIONVIEWSTYLE
350
87
  3
ACAD_TABLESTYLE
350
59
  3
ACAD_VISUALSTYLE
350
2A
  3
ACDB_RECOMPOSE_DATA
350
83
  3
AcDbVariableDictionary
350
7F
  0
SUN
  5
5D
330
29
100
AcDbSun
 90
        1
290
     0
 63
     7
421
 16777215
 40
1.0
291
     1
 91
  2455826
 92
 54000000
292
     0
 70
     2
 71
   256
280
     1
  0
DICTIONARY
  5
86
102
{ACAD_REACTORS
330
C
102
}
330
C
100
AcDbDictionary
281
     1
  0
DICTIONARY
  5
D
102
{ACAD_REACTORS
330
C
102
}
330
C
100
AcDbDictionary
281
     1
  0
DICTIONARY
  5
1A
102
{ACAD_REACTORS
330
C
102
}
330
C
100
AcDbDictionary
281
     1
  3
Layout1
350
1E
  3
Layout2
350
26
  3
Model
350
22
  0
DICTIONARY
  5
43
102
{ACAD_REACTORS
330
C
102
}
330
C
100
AcDbDictionary
281
     1
  3
ByBlock
350
45
  3
ByLayer
350
44
  3
Global
350
46
  0
DICTIONARY
  5
5B
102
{ACAD_REACTORS
330
C
102
}
330
C
100
AcDbDictionary
281
     1
  3
Standard
350
5C
  0
DICTIONARY
  5
17
102
{ACAD_REACTORS
330
C
102
}
330
C
100
AcDbDictionary
281
     1
  3
Standard
350
18
  0
DICTIONARY
  5
19
102
{ACAD_REACTORS
330
C
102
}
330
C
100
AcDbDictionary
281
     1
  0
ACDBDICTIONARYWDFLT
  5
E
102
{ACAD_REACTORS
330
C
102
}
330
C
100
AcDbDictionary
281
     1
  3
Normal
350
F
100
AcDbDictionaryWithDefault
340
F
  0
DICTIONARY
  5
47
102
{ACAD_REACTORS
330
C
102
}
330
C
100
AcDbDictionary
281
     1
  3
A0
350
48
  3
A1
350
49
  3
A2
350
4A
  3
A3
350
4B
  3
A4
350
4C
  3
A5
350
4D
  3
A6
350
4E
  3
A7
350
4F
  3
A8
350
50
  3
A9
350
51
  3
B1
350
52
  3
B2
350
53
  3
B3
350
54
  3
B4
350
55
  3
B5
350
56
  3
B6
350
57
  3
B7
350
58
  0
DICTIONARY
  5
87
102
{ACAD_REACTORS
330
C
102
}
330
C
100
AcDbDictionary
281
     1
  0
DICTIONARY
  5
59
102
{ACAD_REACTORS
330
C
102
}
330
C
100
AcDbDictionary
281
     1
  3
Standard
350
5A
  0
DICTIONARY
  5
2A
102
{ACAD_REACTORS
330
C
102
}
330
C
100
AcDbDictionary
281
     1
  3
2dWireframe
350
2F
  3
Basic
350
32
  3
Brighten
350
36
  3
ColorChange
350
3A
  3
Conceptual
350
34
  3
Dim
350
35
  3
EdgeColorOff
350
3D
  3
Facepattern
350
39
  3
Flat
350
2B
  3
FlatWithEdges
350
2C
  3
Gouraud
350
2D
  3
GouraudWithEdges
350
2E
  3
Hidden
350
31
  3
JitterOff
350
3B
  3
Linepattern
350
38
  3
OverhangOff
350
3C
  3
Realistic
350
33
  3
Shaded
350
42
  3
Shaded with edges
350
41
  3
Shades of Gray
350
3E
  3
Sketchy
350
3F
  3
Thicken
350
37
  3
Wireframe
350
30
  3
X-Ray
350
40
  0
XRECORD
  5
83
102
{ACAD_REACTORS
330
C
102
}
330
C
100
AcDbXrecord
280
     1
 90
        1
330
5A
  0
DICTIONARY
  5
7F
102
{ACAD_REACTORS
330
C
102
}
330
C
100
AcDbDictionary
281
     1
  3
CANNOSCALE
350
80
  3
CMLEADERSTYLE
350
85
  3
CTABLESTYLE
350
84
  0
LAYOUT
  5
1E
102
{ACAD_REACTORS
330
1A
102
}
330
1A
100
AcDbPlotSettings
  1

  2
none_device
  4

  6

 40
0.0
 41
0.0
 42
0.0
 43
0.0
 44
0.0
 45
0.0
 46
0.0
 47
0.0
 48
0.0
 49
0.0
140
0.0
141
0.0
142
1.0
143
1.0
 70
   688
 72
     0
 73
     0
 74
     5
  7

 75
    16
 76
     0
 77
     2
 78
   300
147
1.0
148
0.0
149
0.0
100
AcDbLayout
  1
Layout1
 70
     1
 71
     1
 10
0.0
 20
0.0
 11
12.0
 21
9.0
 12
0.0
 22
0.0
 32
0.0
 14
1.000000000000000E+20
 24
1.000000000000000E+20
 34
1.000000000000000E+20
 15
-1.000000000000000E+20
 25
-1.000000000000000E+20
 35
-1.000000000000000E+20
146
0.0
 13
0.0
 23
0.0
 33
0.0
 16
1.0
 26
0.0
 36
0.0
 17
0.0
 27
1.0
 37
0.0
 76
     0
330
1B
  0
LAYOUT
  5
26
102
{ACAD_REACTORS
330
1A
102
}
330
1A
100
AcDbPlotSettings
  1

  2
none_device
  4

  6

 40
0.0
 41
0.0
 42
0.0
 43
0.0
 44
0.0
 45
0.0
 46
0.0
 47
0.0
 48
0.0
 49
0.0
140
0.0
141
0.0
142
1.0
143
1.0
 70
   688
 72
     0
 73
     0
 74
     5
  7

 75
    16
 76
     0
 77
     2
 78
   300
147
1.0
148
0.0
149
0.0
100
AcDbLayout
  1
Layout2
 70
     1
 71
     2
 10
0.0
 20
0.0
 11
0.0
 21
0.0
 12
0.0
 22
0.0
 32
0.0
 14
0.0
 24
0.0
 34
0.0
 15
0.0
 25
0.0
 35
0.0
146
0.0
 13
0.0
 23
0.0
 33
0.0
 16
1.0
 26
0.0
 36
0.0
 17
0.0
 27
1.0
 37
0.0
 76
     0
330
23
  0
LAYOUT
  5
22
102
{ACAD_REACTORS
330
1A
102
}
330
1A
100
AcDbPlotSettings
  1

  2
none_device
  4
Letter_(8.50_x_11.00_Inches)
  6

 40
6.35
 41
6.35
 42
6.35000508
 43
6.35000508
 44
215.9
 45
279.4
 46
0.0
 47
0.0
 48
0.0
 49
0.0
140
0.0
141
0.0
142
1.0
143
1.0
 70
  1712
 72
     0
 73
     0
 74
     0
  7

 75
     0
 76
     0
 77
     2
 78
   300
147
1.0
148
0.0
149
0.0
100
AcDbLayout
  1
Model
 70
     1
 71
     0
 10
0.0
 20
0.0
 11
12.0
 21
9.0
 12
0.0
 22
0.0
 32
0.0
 14
-21.59924803149606
 24
-5.350409448818898
 34
0.0
 15
-14.08119291338583
 25
-1.030767716535433
 35
0.0
146
0.0
 13
0.0
 23
0.0
 33
0.0
 16
1.0
 26
0.0
 36
0.0
 17
0.0
 27
1.0
 37
0.0
 76
     0
330
1F
331
29
  0
MATERIAL
  5
45
102
{ACAD_REACTORS
330
43
102
}
330
43
100
AcDbMaterial
  1
ByBlock
 72
     1
 94
      127
  0
MATERIAL
  5
44
102
{ACAD_REACTORS
330
43
102
}
330
43
100
AcDbMaterial
  1
ByLayer
 72
     1
 94
      127
  0
MATERIAL
  5
46
102
{ACAD_REACTORS
330
43
102
}
330
43
100
AcDbMaterial
  1
Global
 72
     1
 94
      127
  0
MLEADERSTYLE
  5
5C
102
{ACAD_REACTORS
330
5B
102
}
330
5B
100
AcDbMLeaderStyle
179
     2
170
     2
171
     1
172
     0
 90
        2
 40
0.0
 41
0.0
173
     1
 91
-1056964608
340
14
 92
       -2
290
     1
 42
0.09
291
     1
 43
0.36
  3
Standard
341
0
 44
0.18
300

342
11
174
     1
178
     6
175
     1
176
     0
 93
-1056964608
 45
0.18
292
     0
297
     0
 46
0.18
343
0
 94
-1056964608
 47
1.0
 49
1.0
140
1.0
293
     1
141
0.0
294
     1
177
     0
142
1.0
295
     0
296
     0
143
0.125
271
     0
272
     9
273
     9
298
     0
  0
MLINESTYLE
  5
18
102
{ACAD_REACTORS
330
17
102
}
330
17
100
AcDbMlineStyle
  2
Standard
 70
     0
  3

 62
   256
 51
90.0
 52
90.0
 71
     2
 49
0.5
 62
   256
  6
BYLAYER
 49
-0.5
 62
   256
  6
BYLAYER
  0
ACDBPLACEHOLDER
  5
F
102
{ACAD_REACTORS
330
E
102
}
330
E
  0
SCALE
  5
48
102
{ACAD_REACTORS
330
47
102
}
330
47
100
AcDbScale
 70
     0
300
1:1
140
1.0
141
1.0
290
     1
  0
SCALE
  5
49
102
{ACAD_REACTORS
330
47
102
}
330
47
100
AcDbScale
 70
     0
300
1/128" = 1'-0"
140
0.0078125
141
12.0
290
     0
  0
SCALE
  5
4A
102
{ACAD_REACTORS
330
47
102
}
330
47
100
AcDbScale
 70
     0
300
1/64" = 1'-0"
140
0.015625
141
12.0
290
     0
  0
SCALE
  5
4B
102
{ACAD_REACTORS
330
47
102
}
330
47
100
AcDbScale
 70
     0
300
1/32" = 1'-0"
140
0.03125
141
12.0
290
     0
  0
SCALE
  5
4C
102
{ACAD_REACTORS
330
47
102
}
330
47
100
AcDbScale
 70
     0
300
1/16" = 1'-0"
140
0.0625
141
12.0
290
     0
  0
SCALE
  5
4D
102
{ACAD_REACTORS
330
47
102
}
330
47
100
AcDbScale
 70
     0
300
3/32" = 1'-0"
140
0.09375
141
12.0
290
     0
  0
SCALE
  5
4E
102
{ACAD_REACTORS
330
47
102
}
330
47
100
AcDbScale
 70
     0
300
1/8" = 1'-0"
140
0.125
141
12.0
290
     0
  0
SCALE
  5
4F
102
{ACAD_REACTORS
330
47
102
}
330
47
100
AcDbScale
 70
     0
300
3/16" = 1'-0"
140
0.1875
141
12.0
290
     0
  0
SCALE
  5
50
102
{ACAD_REACTORS
330
47
102
}
330
47
100
AcDbScale
 70
     0
300
1/4" = 1'-0"
140
0.25
141
12.0
290
     0
  0
SCALE
  5
51
102
{ACAD_REACTORS
330
47
102
}
330
47
100
AcDbScale
 70
     0
300
3/8" = 1'-0"
140
0.375
141
12.0
290
     0
  0
SCALE
  5
52
102
{ACAD_REACTORS
330
47
102
}
330
47
100
AcDbScale
 70
     0
300
1/2" = 1'-0"
140
0.5
141
12.0
290
     0
  0
SCALE
  5
53
102
{ACAD_REACTORS
330
47
102
}
330
47
100
AcDbScale
 70
     0
300
3/4" = 1'-0"
140
0.75
141
12.0
290
     0
  0
SCALE
  5
54
102
{ACAD_REACTORS
330
47
102
}
330
47
100
AcDbScale
 70
     0
300
1" = 1'-0"
140
1.0
141
12.0
290
     0
  0
SCALE
  5
55
102
{ACAD_REACTORS
330
47
102
}
330
47
100
AcDbScale
 70
     0
300
1-1/2" = 1'-0"
140
1.5
141
12.0
290
     0
  0
SCALE
  5
56
102
{ACAD_REACTORS
330
47
102
}
330
47
100
AcDbScale
 70
     0
300
3" = 1'-0"
140
3.0
141
12.0
290
     0
  0
SCALE
  5
57
102
{ACAD_REACTORS
330
47
102
}
330
47
100
AcDbScale
 70
     0
300
6" = 1'-0"
140
6.0
141
12.0
290
     0
  0
SCALE
  5
58
102
{ACAD_REACTORS
330
47
102
}
330
47
100
AcDbScale
 70
     0
300
1'-0" = 1'-0"
140
12.0
141
12.0
290
     0
  0
TABLESTYLE
  5
5A
102
{ACAD_REACTORS
330
59
102
}
102
{ACAD_XDICTIONARY
360
81
102
}
330
59
100
AcDbTableStyle
  3
Standard
 70
     0
 71
     0
 40
0.06
 41
0.06
280
     0
281
     0
  7
Standard
140
0.18
170
     2
 62
     0
 63
   257
283
     0
 90
        4
 91
        0
  1

274
    -2
284
     1
 64
     0
275
    -2
285
     1
 65
     0
276
    -2
286
     1
 66
     0
277
    -2
287
     1
 67
     0
278
    -2
288
     1
 68
     0
279
    -2
289
     1
 69
     0
  7
Standard
140
0.25
170
     5
 62
     0
 63
   257
283
     0
 90
        4
 91
        0
  1

274
    -2
284
     1
 64
     0
275
    -2
285
     1
 65
     0
276
    -2
286
     1
 66
     0
277
    -2
287
     1
 67
     0
278
    -2
288
     1
 68
     0
279
    -2
289
     1
 69
     0
  7
Standard
140
0.18
170
     5
 62
     0
 63
   257
283
     0
 90
        4
 91
        0
  1

274
    -2
284
     1
 64
     0
275
    -2
285
     1
 65
     0
276
    -2
286
     1
 66
     0
277
    -2
287
     1
 67
     0
278
    -2
288
     1
 68
     0
279
    -2
289
     1
 69
     0
  0
VISUALSTYLE
  5
2F
102
{ACAD_REACTORS
330
2A
102
}
330
2A
100
AcDbVisualStyle
  2
2dWireframe
 70
     4
177
     3
291
     0
 70
    58
 90
        0
176
     1
 90
        2
176
     1
 90
        0
176
     1
 90
        0
176
     1
 40
0.6
176
     1
 40
30.0
176
     1
 62
     7
420
 16777215
176
     1
 90
        1
176
     1
 90
        4
176
     1
 62
     7
176
     1
 62
   257
176
     1
 90
        1
176
     1
 90
        1
176
     1
 40
1.0
176
     1
 90
        0
176
     1
 62
   257
176
     1
 40
1.0
176
     1
 90
        1
176
     1
 90
        6
176
     1
 90
        2
176
     1
 62
     7
176
     1
 90
        5
176
     1
 90
        0
176
     1
 90
        0
176
     1
290
     0
176
     1
 90
        1
176
     1
 40
0.0
176
     1
 90
        0
176
     1
290
     1
176
     1
290
     1
176
     1
290
     0
176
     1
290
     0
176
     1
290
     0
176
     1
290
     0
176
     1
290
     0
176
     1
290
     0
176
     1
290
     0
176
     1
 90
       50
176
     1
 40
0.0
176
     1
 40
1.0
176
     1
 90
        0
176
     1
 62
    18
420
        0
176
     1
 90
       50
176
     1
 90
        3
176
     1
 62
     5
420
      255
176
     1
290
     0
176
     1
 90
       50
176
     1
 90
       50
176
     1
 90
       50
176
     1
290
     0
176
     1
 90
       50
176
     1
 62
   256
176
     0
 40
1.0
176
     0
 90
        2
176
     1
  1
strokes_ogs.tif
176
     1
290
     0
176
     1
 40
1.0
176
     1
 40
1.0
176
     1
  0
VISUALSTYLE
  5
32
102
{ACAD_REACTORS
330
2A
102
}
330
2A
100
AcDbVisualStyle
  2
Basic
 70
     7
177
     3
291
     1
 70
    58
 90
        1
176
     1
 90
        0
176
     1
 90
        1
176
     1
 90
        0
176
     1
 40
0.6
176
     1
 40
30.0
176
     1
 62
     7
420
 16777215
176
     1
 90
        0
176
     1
 90
        4
176
     1
 62
     7
176
     1
 62
   257
176
     1
 90
        1
176
     1
 90
        1
176
     1
 40
1.0
176
     1
 90
        8
176
     1
 62
     7
176
     1
 40
1.0
176
     1
 90
        1
176
     1
 90
        6
176
     1
 90
        2
176
     1
 62
     7
176
     1
 90
        5
176
     1
 90
        0
176
     1
 90
        0
176
     1
290
     0
176
     1
 90
        1
176
     1
 40
0.0
176
     1
 90
        0
176
     1
290
     0
176
     1
290
     1
176
     1
290
     1
176
     1
290
     0
176
     1
290
     0
176
     1
290
     0
176
     1
290
     0
176
     1
290
     0
176
     1
290
     0
176
     1
 90
       50
176
     1
 40
0.0
176
     1
 40
1.0
176
     1
 90
        0
176
     1
 62
    18
420
        0
176
     1
 90
       50
176
     1
 90
        3
176
     1
 62
     5
420
      255
176
     1
290
     0
176
     1
 90
       50
176
     1
 90
       50
176
     1
 90
       50
176
     1
290
     0
176
     1
 90
       50
176
     1
 62
   256
176
     0
 40
1.0
176
     0
 90
        2
176
     1
  1
strokes_ogs.tif
176
     1
290
     0
176
     1
 40
1.0
176
     1
 40
1.0
176
     1
  0
VISUALSTYLE
  5
36
102
{ACAD_REACTORS
330
2A
102
}
330
2A
100
AcDbVisualStyle
  2
Brighten
 70
    12
177
     3
291
     1
 70
    58
 90
        2
176
     1
 90
        2
176
     1
 90
        0
176
     1
 90
        0
176
     1
 40
0.6
176
     1
 40
30.0
176
     1
 62
     7
420
 16777215
176
     1
 90
        1
176
     1
 90
        4
176
     1
 62
     7
176
     1
 62
   257
176
     1
 90
        1
176
     1
 90
        1
176
     1
 40
1.0
176
     1
 90
        8
176
     1
 62
     7
176
     1
 40
1.0
176
     1
 90
        1
176
     1
 90
        6
176
     1
 90
        2
176
     1
 62
     7
176
     1
 90
        5
176
     1
 90
        0
176
     1
 90
        0
176
     1
290
     0
176
     1
 90
        1
176
     1
 40
50.0
176
     1
 90
        0
176
     1
290
     0
176
     1
290
     1
176
     1
290
     1
176
     1
290
     0
176
     1
290
     0
176
     1
290
     0
176
     1
290
     0
176
     1
290
     0
176
     1
290
     0
176
     1
 90
       50
176
     1
 40
0.0
176
     1
 40
1.0
176
     1
 90
        0
176
     1
 62
    18
420
        0
176
     1
 90
       50
176
     1
 90
        3
176
     1
 62
     5
420
      255
176
     1
290
     0
176
     1
 90
       50
176
     1
 90
       50
176
     1
 90
       50
176
     1
290
     0
176
     1
 90
       50
176
     1
 62
   256
176
     0
 40
1.0
176
     0
 90
        2
176
     1
  1
strokes_ogs.tif
176
     1
290
     0
176
     1
 40
1.0
176
     1
 40
1.0
176
     1
  0
VISUALSTYLE
  5
3A
102
{ACAD_REACTORS
330
2A
102
}
330
2A
100
AcDbVisualStyle
  2
ColorChange
 70
    16
177
     3
291
     1
 70
    58
 90
        2
176
     1
 90
        2
176
     1
 90
        3
176
     1
 90
        0
176
     1
 40
0.6
176
     1
 40
30.0
176
     1
 62
     8
420
  8421504
176
     1
 90
        1
176
     1
 90
        4
176
     1
 62
     7
176
     1
 62
   257
176
     1
 90
        1
176
     1
 90
        1
176
     1
 40
1.0
176
     1
 90
        8
176
     1
 62
     8
420
  8421504
176
     1
 40
1.0
176
     1
 90
        1
176
     1
 90
        6
176
     1
 90
        2
176
     1
 62
     7
176
     1
 90
        5
176
     1
 90
        0
176
     1
 90
        0
176
     1
290
     0
176
     1
 90
        1
176
     1
 40
0.0
176
     1
 90
        0
176
     1
290
     0
176
     1
290
     1
176
     1
290
     1
176
     1
290
     0
176
     1
290
     0
176
     1
290
     0
176
     1
290
     0
176
     1
290
     0
176
     1
290
     0
176
     1
 90
       50
176
     1
 40
0.0
176
     1
 40
1.0
176
     1
 90
        0
176
     1
 62
    18
420
        0
176
     1
 90
       50
176
     1
 90
        3
176
     1
 62
     5
420
      255
176
     1
290
     0
176
     1
 90
       50
176
     1
 90
       50
176
     1
 90
       50
176
     1
290
     0
176
     1
 90
       50
176
     1
 62
   256
176
     0
 40
1.0
176
     0
 90
        2
176
     1
  1
strokes_ogs.tif
176
     1
290
     0
176
     1
 40
1.0
176
     1
 40
1.0
176
     1
  0
VISUALSTYLE
  5
34
102
{ACAD_REACTORS
330
2A
102
}
330
2A
100
AcDbVisualStyle
  2
Conceptual
 70
     9
177
     3
291
     0
 70
    58
 90
        3
176
     1
 90
        2
176
     1
 90
        0
176
     1
 90
        0
176
     1
 40
0.6
176
     1
 40
30.0
176
     1
 62
     7
420
 16777215
176
     1
 90
        2
176
     1
 90
        2
176
     1
 62
     7
176
     1
 62
   257
176
     1
 90
        1
176
     1
 90
        1
176
     1
 40
179.0
176
     1
 90
        8
176
     1
 62
     7
176
     1
 40
1.0
176
     1
 90
        1
176
     1
 90
        6
176
     1
 90
        2
176
     1
 62
     7
176
     1
 90
        3
176
     1
 90
        0
176
     1
 90
        0
176
     1
290
     0
176
     1
 90
        1
176
     1
 40
0.0
176
     1
 90
        0
176
     1
290
     0
176
     1
290
     1
176
     1
290
     1
176
     1
290
     0
176
     1
290
     0
176
     1
290
     0
176
     1
290
     0
176
     1
290
     0
176
     1
290
     0
176
     1
 90
       50
176
     1
 40
0.0
176
     1
 40
1.0
176
     1
 90
        0
176
     1
 62
    18
420
        0
176
     1
 90
       50
176
     1
 90
        3
176
     1
 62
     5
420
      255
176
     1
290
     0
176
     1
 90
       50
176
     1
 90
       50
176
     1
 90
       50
176
     1
290
     0
176
     1
 90
       50
176
     1
 62
   256
176
     0
 40
1.0
176
     0
 90
        2
176
     1
  1
strokes_ogs.tif
176
     1
290
     0
176
     1
 40
1.0
176
     1
 40
1.0
176
     1
  0
VISUALSTYLE
  5
35
102
{ACAD_REACTORS
330
2A
102
}
330
2A
100
AcDbVisualStyle
  2
Dim
 70
    11
177
     3
291
     1
 70
    58
 90
        2
176
     1
 90
        2
176
     1
 90
        0
176
     1
 90
        0
176
     1
 40
0.6
176
     1
 40
30.0
176
     1
 62
     7
420
 16777215
176
     1
 90
        1
176
     1
 90
        4
176
     1
 62
     7
176
     1
 62
   257
176
     1
 90
        1
176
     1
 90
        1
176
     1
 40
1.0
176
     1
 90
        8
176
     1
 62
     7
176
     1
 40
1.0
176
     1
 90
        1
176
     1
 90
        6
176
     1
 90
        2
176
     1
 62
     7
176
     1
 90
        5
176
     1
 90
        0
176
     1
 90
        0
176
     1
290
     0
176
     1
 90
        1
176
     1
 40
-50.0
176
     1
 90
        0
176
     1
290
     0
176
     1
290
     1
176
     1
290
     1
176
     1
290
     0
176
     1
290
     0
176
     1
290
     0
176
     1
290
     0
176
     1
290
     0
176
     1
290
     0
176
     1
 90
       50
176
     1
 40
0.0
176
     1
 40
1.0
176
     1
 90
        0
176
     1
 62
    18
420
        0
176
     1
 90
       50
176
     1
 90
        3
176
     1
 62
     5
420
      255
176
     1
290
     0
176
     1
 90
       50
176
     1
 90
       50
176
     1
 90
       50
176
     1
290
     0
176
     1
 90
       50
176
     1
 62
   256
176
     0
 40
1.0
176
     0
 90
        2
176
     1
  1
strokes_ogs.tif
176
     1
290
     0
176
     1
 40
1.0
176
     1
 40
1.0
176
     1
  0
VISUALSTYLE
  5
3D
102
{ACAD_REACTORS
330
2A
102
}
330
2A
100
AcDbVisualStyle
  2
EdgeColorOff
 70
    22
177
     3
291
     1
 70
    58
 90
        2
176
     0
 90
        2
176
     0
 90
        0
176
     0
 90
        0
176
     0
 40
0.6
176
     0
 40
30.0
176
     0
 62
     7
420
 16777215
176
     0
 90
        1
176
     0
 90
        4
176
     0
 62
     7
176
     0
 62
   257
176
     0
 90
        1
176
     0
 90
        1
176
     0
 40
1.0
176
     0
 90
        8
176
     2
 62
     7
176
     0
 40
1.0
176
     0
 90
        1
176
     0
 90
        6
176
     0
 90
        2
176
     0
 62
     7
176
     0
 90
        5
176
     0
 90
        0
176
     0
 90
        0
176
     0
290
     0
176
     0
 90
        1
176
     0
 40
0.0
176
     0
 90
        0
176
     0
290
     0
176
     0
290
     1
176
     0
290
     1
176
     0
290
     0
176
     0
290
     0
176
     0
290
     0
176
     0
290
     0
176
     0
290
     0
176
     0
290
     0
176
     0
 90
       50
176
     0
 40
0.0
176
     0
 40
1.0
176
     0
 90
        0
176
     0
 62
    18
420
        0
176
     0
 90
       50
176
     0
 90
        3
176
     0
 62
     5
420
      255
176
     0
290
     0
176
     0
 90
       50
176
     0
 90
       50
176
     0
 90
       50
176
     0
290
     0
176
     0
 90
       50
176
     0
 62
   256
176
     0
 40
1.0
176
     0
 90
        2
176
     0
  1
strokes_ogs.tif
176
     0
290
     0
176
     0
 40
1.0
176
     0
 40
1.0
176
     0
  0
VISUALSTYLE
  5
39
102
{ACAD_REACTORS
330
2A
102
}
330
2A
100
AcDbVisualStyle
  2
Facepattern
 70
    15
177
     3
291
     1
 70
    58
 90
        2
176
     1
 90
        2
176
     1
 90
        0
176
     1
 90
        0
176
     1
 40
0.6
176
     1
 40
30.0
176
     1
 62
     7
420
 16777215
176
     1
 90
        1
176
     1
 90
        4
176
     1
 62
     7
176
     1
 62
   257
176
     1
 90
        1
176
     1
 90
        1
176
     1
 40
1.0
176
     1
 90
        8
176
     1
 62
     7
176
     1
 40
1.0
176
     1
 90
        1
176
     1
 90
        6
176
     1
 90
        2
176
     1
 62
     7
176
     1
 90
        5
176
     1
 90
        0
176
     1
 90
        0
176
     1
290
     0
176
     1
 90
        1
176
     1
 40
0.0
176
     1
 90
        0
176
     1
290
     0
176
     1
290
     1
176
     1
290
     1
176
     1
290
     0
176
     1
290
     0
176
     1
290
     0
176
     1
290
     0
176
     1
290
     0
176
     1
290
     0
176
     1
 90
       50
176
     1
 40
0.0
176
     1
 40
1.0
176
     1
 90
        0
176
     1
 62
    18
420
        0
176
     1
 90
       50
176
     1
 90
        3
176
     1
 62
     5
420
      255
176
     1
290
     0
176
     1
 90
       50
176
     1
 90
       50
176
     1
 90
       50
176
     1
290
     0
176
     1
 90
       50
176
     1
 62
   256
176
     0
 40
1.0
176
     0
 90
        2
176
     1
  1
strokes_ogs.tif
176
     1
290
     0
176
     1
 40
1.0
176
     1
 40
1.0
176
     1
  0
VISUALSTYLE
  5
2B
102
{ACAD_REACTORS
330
2A
102
}
330
2A
100
AcDbVisualStyle
  2
Flat
 70
     0
177
     3
291
     1
 70
    58
 90
        2
176
     1
 90
        1
176
     1
 90
        1
176
     1
 90
        2
176
     1
 40
0.6
176
     1
 40
30.0
176
     1
 62
     7
420
 16777215
176
     1
 90
        0
176
     1
 90
        0
176
     1
 62
     7
176
     1
 62
   257
176
     1
 90
        1
176
     1
 90
        1
176
     1
 40
1.0
176
     1
 90
        8
176
     1
 62
     7
176
     1
 40
1.0
176
     1
 90
        1
176
     1
 90
        6
176
     1
 90
        2
176
     1
 62
     7
176
     1
 90
        5
176
     1
 90
        0
176
     1
 90
        0
176
     1
290
     0
176
     1
 90
       13
176
     1
 40
0.0
176
     1
 90
        0
176
     1
290
     0
176
     1
290
     1
176
     1
290
     1
176
     1
290
     0
176
     1
290
     0
176
     1
290
     0
176
     1
290
     0
176
     1
290
     0
176
     1
290
     0
176
     1
 90
       50
176
     1
 40
0.0
176
     1
 40
1.0
176
     1
 90
        0
176
     1
 62
    18
420
        0
176
     1
 90
       50
176
     1
 90
        3
176
     1
 62
     5
420
      255
176
     1
290
     0
176
     1
 90
       50
176
     1
 90
       50
176
     1
 90
       50
176
     1
290
     0
176
     1
 90
       50
176
     1
 62
   256
176
     0
 40
1.0
176
     0
 90
        2
176
     1
  1
strokes_ogs.tif
176
     1
290
     0
176
     1
 40
1.0
176
     1
 40
1.0
176
     1
  0
VISUALSTYLE
  5
2C
102
{ACAD_REACTORS
330
2A
102
}
330
2A
100
AcDbVisualStyle
  2
FlatWithEdges
 70
     1
177
     3
291
     1
 70
    58
 90
        2
176
     1
 90
        1
176
     1
 90
        1
176
     1
 90
        2
176
     1
 40
0.6
176
     1
 40
30.0
176
     1
 62
     7
420
 16777215
176
     1
 90
        1
176
     1
 90
        0
176
     1
 62
     7
176
     1
 62
   257
176
     1
 90
        1
176
     1
 90
        1
176
     1
 40
1.0
176
     1
 90
        0
176
     1
 62
   257
176
     1
 40
1.0
176
     1
 90
        1
176
     1
 90
        6
176
     1
 90
        2
176
     1
 62
     7
176
     1
 90
        5
176
     1
 90
        0
176
     1
 90
        0
176
     1
290
     0
176
     1
 90
       13
176
     1
 40
0.0
176
     1
 90
        0
176
     1
290
     0
176
     1
290
     1
176
     1
290
     1
176
     1
290
     0
176
     1
290
     0
176
     1
290
     0
176
     1
290
     0
176
     1
290
     0
176
     1
290
     0
176
     1
 90
       50
176
     1
 40
0.0
176
     1
 40
1.0
176
     1
 90
        0
176
     1
 62
    18
420
        0
176
     1
 90
       50
176
     1
 90
        3
176
     1
 62
     5
420
      255
176
     1
290
     0
176
     1
 90
       50
176
     1
 90
       50
176
     1
 90
       50
176
     1
290
     0
176
     1
 90
       50
176
     1
 62
   256
176
     0
 40
1.0
176
     0
 90
        2
176
     1
  1
strokes_ogs.tif
176
     1
290
     0
176
     1
 40
1.0
176
     1
 40
1.0
176
     1
  0
VISUALSTYLE
  5
2D
102
{ACAD_REACTORS
330
2A
102
}
330
2A
100
AcDbVisualStyle
  2
Gouraud
 70
     2
177
     3
291
     1
 70
    58
 90
        2
176
     1
 90
        2
176
     1
 90
        1
176
     1
 90
        2
176
     1
 40
0.6
176
     1
 40
30.0
176
     1
 62
     7
420
 16777215
176
     1
 90
        0
176
     1
 90
        0
176
     1
 62
     7
176
     1
 62
   257
176
     1
 90
        1
176
     1
 90
        1
176
     1
 40
1.0
176
     1
 90
        0
176
     1
 62
     7
176
     1
 40
1.0
176
     1
 90
        1
176
     1
 90
        6
176
     1
 90
        2
176
     1
 62
     7
176
     1
 90
        5
176
     1
 90
        0
176
     1
 90
        0
176
     1
290
     0
176
     1
 90
       13
176
     1
 40
0.0
176
     1
 90
        0
176
     1
290
     0
176
     1
290
     1
176
     1
290
     1
176
     1
290
     0
176
     1
290
     0
176
     1
290
     0
176
     1
290
     0
176
     1
290
     0
176
     1
290
     0
176
     1
 90
       50
176
     1
 40
0.0
176
     1
 40
1.0
176
     1
 90
        0
176
     1
 62
    18
420
        0
176
     1
 90
       50
176
     1
 90
        3
176
     1
 62
     5
420
      255
176
     1
290
     0
176
     1
 90
       50
176
     1
 90
       50
176
     1
 90
       50
176
     1
290
     0
176
     1
 90
       50
176
     1
 62
   256
176
     0
 40
1.0
176
     0
 90
        2
176
     1
  1
strokes_ogs.tif
176
     1
290
     0
176
     1
 40
1.0
176
     1
 40
1.0
176
     1
  0
VISUALSTYLE
  5
2E
102
{ACAD_REACTORS
330
2A
102
}
330
2A
100
AcDbVisualStyle
  2
GouraudWithEdges
 70
     3
177
     3
291
     1
 70
    58
 90
        2
176
     1
 90
        2
176
     1
 90
        1
176
     1
 90
        2
176
     1
 40
0.6
176
     1
 40
30.0
176
     1
 62
     7
420
 16777215
176
     1
 90
        1
176
     1
 90
        0
176
     1
 62
     7
176
     1
 62
   257
176
     1
 90
        1
176
     1
 90
        1
176
     1
 40
1.0
176
     1
 90
        0
176
     1
 62
   257
176
     1
 40
1.0
176
     1
 90
        1
176
     1
 90
        6
176
     1
 90
        2
176
     1
 62
     7
176
     1
 90
        5
176
     1
 90
        0
176
     1
 90
        0
176
     1
290
     0
176
     1
 90
       13
176
     1
 40
0.0
176
     1
 90
        0
176
     1
290
     0
176
     1
290
     1
176
     1
290
     1
176
     1
290
     0
176
     1
290
     0
176
     1
290
     0
176
     1
290
     0
176
     1
290
     0
176
     1
290
     0
176
     1
 90
       50
176
     1
 40
0.0
176
     1
 40
1.0
176
     1
 90
        0
176
     1
 62
    18
420
        0
176
     1
 90
       50
176
     1
 90
        3
176
     1
 62
     5
420
      255
176
     1
290
     0
176
     1
 90
       50
176
     1
 90
       50
176
     1
 90
       50
176
     1
290
     0
176
     1
 90
       50
176
     1
 62
   256
176
     0
 40
1.0
176
     0
 90
        2
176
     1
  1
strokes_ogs.tif
176
     1
290
     0
176
     1
 40
1.0
176
     1
 40
1.0
176
     1
  0
VISUALSTYLE
  5
31
102
{ACAD_REACTORS
330
2A
102
}
330
2A
100
AcDbVisualStyle
  2
Hidden
 70
     6
177
     3
291
     0
 70
    58
 90
        1
176
     1
 90
        2
176
     1
 90
        2
176
     1
 90
        0
176
     1
 40
0.6
176
     1
 40
30.0
176
     1
 62
     7
420
 16777215
176
     1
 90
        2
176
     1
 90
        2
176
     1
 62
     7
176
     1
 62
   257
176
     1
 90
        2
176
     1
 90
        1
176
     1
 40
40.0
176
     1
 90
        0
176
     1
 62
   257
176
     1
 40
1.0
176
     1
 90
        1
176
     1
 90
        6
176
     1
 90
        2
176
     1
 62
     7
176
     1
 90
        3
176
     1
 90
        0
176
     1
 90
        0
176
     1
290
     0
176
     1
 90
        1
176
     1
 40
0.0
176
     1
 90
        0
176
     1
290
     0
176
     1
290
     1
176
     1
290
     1
176
     1
290
     0
176
     1
290
     0
176
     1
290
     0
176
     1
290
     0
176
     1
290
     0
176
     1
290
     0
176
     1
 90
       50
176
     1
 40
0.0
176
     1
 40
1.0
176
     1
 90
        0
176
     1
 62
    18
420
        0
176
     1
 90
       50
176
     1
 90
        3
176
     1
 62
     5
420
      255
176
     1
290
     0
176
     1
 90
       50
176
     1
 90
       50
176
     1
 90
       50
176
     1
290
     0
176
     1
 90
       50
176
     1
 62
   256
176
     0
 40
1.0
176
     0
 90
        2
176
     1
  1
strokes_ogs.tif
176
     1
290
     0
176
     1
 40
1.0
176
     1
 40
1.0
176
     1
  0
VISUALSTYLE
  5
3B
102
{ACAD_REACTORS
330
2A
102
}
330
2A
100
AcDbVisualStyle
  2
JitterOff
 70
    20
177
     3
291
     1
 70
    58
 90
        2
176
     0
 90
        2
176
     0
 90
        0
176
     0
 90
        0
176
     0
 40
0.6
176
     0
 40
30.0
176
     0
 62
     7
420
 16777215
176
     0
 90
        1
176
     0
 90
        4
176
     0
 62
     7
176
     0
 62
   257
176
     0
 90
        1
176
     0
 90
        1
176
     0
 40
1.0
176
     0
 90
       10
176
     2
 62
     7
176
     0
 40
1.0
176
     0
 90
        1
176
     0
 90
        6
176
     0
 90
        2
176
     0
 62
     7
176
     0
 90
        5
176
     0
 90
        0
176
     0
 90
        0
176
     0
290
     0
176
     0
 90
        1
176
     0
 40
0.0
176
     0
 90
        0
176
     0
290
     0
176
     0
290
     1
176
     0
290
     1
176
     0
290
     0
176
     0
290
     0
176
     0
290
     0
176
     0
290
     0
176
     0
290
     0
176
     0
290
     0
176
     0
 90
       50
176
     0
 40
0.0
176
     0
 40
1.0
176
     0
 90
        0
176
     0
 62
    18
420
        0
176
     0
 90
       50
176
     0
 90
        3
176
     0
 62
     5
420
      255
176
     0
290
     0
176
     0
 90
       50
176
     0
 90
       50
176
     0
 90
       50
176
     0
290
     0
176
     0
 90
       50
176
     0
 62
   256
176
     0
 40
1.0
176
     0
 90
        2
176
     0
  1
strokes_ogs.tif
176
     0
290
     0
176
     0
 40
1.0
176
     0
 40
1.0
176
     0
  0
VISUALSTYLE
  5
38
102
{ACAD_REACTORS
330
2A
102
}
330
2A
100
AcDbVisualStyle
  2
Linepattern
 70
    14
177
     3
291
     1
 70
    58
 90
        2
176
     1
 90
        2
176
     1
 90
        0
176
     1
 90
        0
176
     1
 40
0.6
176
     1
 40
30.0
176
     1
 62
     7
420
 16777215
176
     1
 90
        1
176
     1
 90
        4
176
     1
 62
     7
176
     1
 62
   257
176
     1
 90
        7
176
     1
 90
        7
176
     1
 40
1.0
176
     1
 90
        8
176
     1
 62
     7
176
     1
 40
1.0
176
     1
 90
        1
176
     1
 90
        6
176
     1
 90
        2
176
     1
 62
     7
176
     1
 90
        5
176
     1
 90
        0
176
     1
 90
        0
176
     1
290
     0
176
     1
 90
        1
176
     1
 40
0.0
176
     1
 90
        0
176
     1
290
     0
176
     1
290
     1
176
     1
290
     1
176
     1
290
     0
176
     1
290
     0
176
     1
290
     0
176
     1
290
     0
176
     1
290
     0
176
     1
290
     0
176
     1
 90
       50
176
     1
 40
0.0
176
     1
 40
1.0
176
     1
 90
        0
176
     1
 62
    18
420
        0
176
     1
 90
       50
176
     1
 90
        3
176
     1
 62
     5
420
      255
176
     1
290
     0
176
     1
 90
       50
176
     1
 90
       50
176
     1
 90
       50
176
     1
290
     0
176
     1
 90
       50
176
     1
 62
   256
176
     0
 40
1.0
176
     0
 90
        2
176
     1
  1
strokes_ogs.tif
176
     1
290
     0
176
     1
 40
1.0
176
     1
 40
1.0
176
     1
  0
VISUALSTYLE
  5
3C
102
{ACAD_REACTORS
330
2A
102
}
330
2A
100
AcDbVisualStyle
  2
OverhangOff
 70
    21
177
     3
291
     1
 70
    58
 90
        2
176
     0
 90
        2
176
     0
 90
        0
176
     0
 90
        0
176
     0
 40
0.6
176
     0
 40
30.0
176
     0
 62
     7
420
 16777215
176
     0
 90
        1
176
     0
 90
        4
176
     0
 62
     7
176
     0
 62
   257
176
     0
 90
        1
176
     0
 90
        1
176
     0
 40
1.0
176
     0
 90
        9
176
     2
 62
     7
176
     0
 40
1.0
176
     0
 90
        1
176
     0
 90
        6
176
     0
 90
        2
176
     0
 62
     7
176
     0
 90
        5
176
     0
 90
        0
176
     0
 90
        0
176
     0
290
     0
176
     0
 90
        1
176
     0
 40
0.0
176
     0
 90
        0
176
     0
290
     0
176
     0
290
     1
176
     0
290
     1
176
     0
290
     0
176
     0
290
     0
176
     0
290
     0
176
     0
290
     0
176
     0
290
     0
176
     0
290
     0
176
     0
 90
       50
176
     0
 40
0.0
176
     0
 40
1.0
176
     0
 90
        0
176
     0
 62
    18
420
        0
176
     0
 90
       50
176
     0
 90
        3
176
     0
 62
     5
420
      255
176
     0
290
     0
176
     0
 90
       50
176
     0
 90
       50
176
     0
 90
       50
176
     0
290
     0
176
     0
 90
       50
176
     0
 62
   256
176
     0
 40
1.0
176
     0
 90
        2
176
     0
  1
strokes_ogs.tif
176
     0
290
     0
176
     0
 40
1.0
176
     0
 40
1.0
176
     0
  0
VISUALSTYLE
  5
33
102
{ACAD_REACTORS
330
2A
102
}
330
2A
100
AcDbVisualStyle
  2
Realistic
 70
     8
177
     3
291
     0
 70
    58
 90
        2
176
     1
 90
        3
176
     1
 90
        0
176
     1
 90
        2
176
     1
 40
0.6
176
     1
 40
30.0
176
     1
 62
     7
420
 16777215
176
     1
 90
        0
176
     1
 90
        0
176
     1
 62
     7
176
     1
 62
   257
176
     1
 90
        1
176
     1
 90
        1
176
     1
 40
1.0
176
     1
 90
        8
176
     1
 62
   257
176
     1
 40
1.0
176
     1
 90
        1
176
     1
 90
        6
176
     1
 90
        2
176
     1
 62
     7
176
     1
 90
        3
176
     1
 90
        0
176
     1
 90
        0
176
     1
290
     0
176
     1
 90
       13
176
     1
 40
0.0
176
     1
 90
        0
176
     1
290
     0
176
     1
290
     1
176
     1
290
     1
176
     1
290
     0
176
     1
290
     0
176
     1
290
     0
176
     1
290
     0
176
     1
290
     0
176
     1
290
     0
176
     1
 90
       50
176
     1
 40
0.0
176
     1
 40
1.0
176
     1
 90
        0
176
     1
 62
    18
420
        0
176
     1
 90
       50
176
     1
 90
        3
176
     1
 62
     5
420
      255
176
     1
290
     0
176
     1
 90
       50
176
     1
 90
       50
176
     1
 90
       50
176
     1
290
     0
176
     1
 90
       50
176
     1
 62
   256
176
     0
 40
1.0
176
     0
 90
        2
176
     1
  1
strokes_ogs.tif
176
     1
290
     0
176
     1
 40
1.0
176
     1
 40
1.0
176
     1
  0
VISUALSTYLE
  5
42
102
{ACAD_REACTORS
330
2A
102
}
330
2A
100
AcDbVisualStyle
  2
Shaded
 70
    27
177
     3
291
     0
 70
    58
 90
        2
176
     1
 90
        2
176
     1
 90
        1
176
     1
 90
        2
176
     1
 40
0.6
176
     1
 40
30.0
176
     1
 62
     7
420
 16777215
176
     1
 90
        0
176
     1
 90
        4
176
     1
 62
     7
176
     1
 62
   257
176
     1
 90
        1
176
     1
 90
        1
176
     1
 40
1.0
176
     1
 90
        8
176
     1
 62
   257
176
     1
 40
1.0
176
     1
 90
        1
176
     1
 90
        6
176
     1
 90
        2
176
     1
 62
     8
420
  7895160
176
     1
 90
        3
176
     1
 90
        0
176
     1
 90
        0
176
     1
290
     0
176
     1
 90
        5
176
     1
 40
0.0
176
     1
 90
        0
176
     1
290
     0
176
     1
290
     1
176
     1
290
     1
176
     1
290
     0
176
     1
290
     0
176
     1
290
     0
176
     1
290
     0
176
     1
290
     0
176
     1
290
     0
176
     1
 90
       50
176
     1
 40
0.0
176
     1
 40
1.0
176
     1
 90
        0
176
     1
 62
    18
420
        0
176
     1
 90
       50
176
     1
 90
        3
176
     1
 62
     5
420
      255
176
     1
290
     0
176
     1
 90
       50
176
     1
 90
       50
176
     1
 90
       50
176
     1
290
     0
176
     1
 90
       50
176
     1
 62
   256
176
     0
 40
1.0
176
     0
 90
        2
176
     1
  1
strokes_ogs.tif
176
     1
290
     0
176
     1
 40
1.0
176
     1
 40
1.0
176
     1
  0
VISUALSTYLE
  5
41
102
{ACAD_REACTORS
330
2A
102
}
330
2A
100
AcDbVisualStyle
  2
Shaded with edges
 70
    26
177
     3
291
     0
 70
    58
 90
        2
176
     1
 90
        2
176
     1
 90
        1
176
     1
 90
        2
176
     1
 40
0.6
176
     1
 40
30.0
176
     1
 62
     7
420
 16777215
176
     1
 90
        1
176
     1
 90
       10
176
     1
 62
     7
176
     1
 62
   257
176
     1
 90
        2
176
     1
 90
        1
176
     1
 40
1.0
176
     1
 90
        8
176
     1
 62
   257
176
     1
 40
1.0
176
     1
 90
        1
176
     1
 90
        6
176
     1
 90
        2
176
     1
 62
     7
176
     1
 90
        3
176
     1
 90
        0
176
     1
 90
        0
176
     1
290
     0
176
     1
 90
        5
176
     1
 40
0.0
176
     1
 90
        0
176
     1
290
     0
176
     1
290
     1
176
     1
290
     1
176
     1
290
     0
176
     1
290
     0
176
     1
290
     0
176
     1
290
     0
176
     1
290
     0
176
     1
290
     0
176
     1
 90
       50
176
     1
 40
0.0
176
     1
 40
1.0
176
     1
 90
        0
176
     1
 62
    18
420
        0
176
     1
 90
       50
176
     1
 90
        3
176
     1
 62
     5
420
      255
176
     1
290
     0
176
     1
 90
       50
176
     1
 90
       50
176
     1
 90
       50
176
     1
290
     0
176
     1
 90
       50
176
     1
 62
   256
176
     0
 40
1.0
176
     0
 90
        2
176
     1
  1
strokes_ogs.tif
176
     1
290
     0
176
     1
 40
1.0
176
     1
 40
1.0
176
     1
  0
VISUALSTYLE
  5
3E
102
{ACAD_REACTORS
330
2A
102
}
330
2A
100
AcDbVisualStyle
  2
Shades of Gray
 70
    23
177
     3
291
     0
 70
    58
 90
        2
176
     1
 90
        2
176
     1
 90
        3
176
     1
 90
        0
176
     1
 40
0.6
176
     1
 40
30.0
176
     1
 62
     7
420
 16777215
176
     1
 90
        2
176
     1
 90
        2
176
     1
 62
     7
176
     1
 62
     7
176
     1
 90
        1
176
     1
 90
        1
176
     1
 40
40.0
176
     1
 90
        8
176
     1
 62
     7
176
     1
 40
1.0
176
     1
 90
        1
176
     1
 90
        6
176
     1
 90
        2
176
     1
 62
     7
176
     1
 90
        3
176
     1
 90
        0
176
     1
 90
        0
176
     1
290
     0
176
     1
 90
        1
176
     1
 40
0.0
176
     1
 90
        0
176
     1
290
     0
176
     1
290
     1
176
     1
290
     1
176
     1
290
     0
176
     1
290
     0
176
     1
290
     0
176
     1
290
     0
176
     1
290
     0
176
     1
290
     0
176
     1
 90
       50
176
     1
 40
0.0
176
     1
 40
1.0
176
     1
 90
        0
176
     1
 62
    18
420
        0
176
     1
 90
       50
176
     1
 90
        3
176
     1
 62
     5
420
      255
176
     1
290
     0
176
     1
 90
       50
176
     1
 90
       50
176
     1
 90
       50
176
     1
290
     0
176
     1
 90
       50
176
     1
 62
   256
176
     0
 40
1.0
176
     0
 90
        2
176
     1
  1
strokes_ogs.tif
176
     1
290
     0
176
     1
 40
1.0
176
     1
 40
1.0
176
     1
  0
VISUALSTYLE
  5
3F
102
{ACAD_REACTORS
330
2A
102
}
330
2A
100
AcDbVisualStyle
  2
Sketchy
 70
    24
177
     3
291
     0
 70
    58
 90
        1
176
     1
 90
        2
176
     1
 90
        2
176
     1
 90
        0
176
     1
 40
0.6
176
     1
 40
30.0
176
     1
 62
     7
420
 16777215
176
     1
 90
        2
176
     1
 90
        2
176
     1
 62
     7
176
     1
 62
     7
176
     1
 90
        1
176
     1
 90
        1
176
     1
 40
40.0
176
     1
 90
       11
176
     1
 62
     7
176
     1
 40
1.0
176
     1
 90
        1
176
     1
 90
        6
176
     1
 90
        2
176
     1
 62
     7
176
     1
 90
        6
176
     1
 90
        0
176
     1
 90
        0
176
     1
290
     0
176
     1
 90
        1
176
     1
 40
0.0
176
     1
 90
        0
176
     1
290
     0
176
     1
290
     1
176
     1
290
     1
176
     1
290
     0
176
     1
290
     0
176
     1
290
     0
176
     1
290
     0
176
     1
290
     0
176
     1
290
     0
176
     1
 90
       50
176
     1
 40
0.0
176
     1
 40
1.0
176
     1
 90
        0
176
     1
 62
    18
420
        0
176
     1
 90
       50
176
     1
 90
        3
176
     1
 62
     5
420
      255
176
     1
290
     0
176
     1
 90
       50
176
     1
 90
       50
176
     1
 90
       50
176
     1
290
     0
176
     1
 90
       50
176
     1
 62
   256
176
     0
 40
1.0
176
     0
 90
        2
176
     1
  1
strokes_ogs.tif
176
     1
290
     0
176
     1
 40
1.0
176
     1
 40
1.0
176
     1
  0
VISUALSTYLE
  5
37
102
{ACAD_REACTORS
330
2A
102
}
330
2A
100
AcDbVisualStyle
  2
Thicken
 70
    13
177
     3
291
     1
 70
    58
 90
        2
176
     1
 90
        2
176
     1
 90
        0
176
     1
 90
        0
176
     1
 40
0.6
176
     1
 40
30.0
176
     1
 62
     7
420
 16777215
176
     1
 90
        1
176
     1
 90
        4
176
     1
 62
     7
176
     1
 62
   257
176
     1
 90
        1
176
     1
 90
        1
176
     1
 40
1.0
176
     1
 90
       12
176
     1
 62
     7
176
     1
 40
1.0
176
     1
 90
        1
176
     1
 90
        6
176
     1
 90
        2
176
     1
 62
     7
176
     1
 90
        5
176
     1
 90
        0
176
     1
 90
        0
176
     1
290
     0
176
     1
 90
        1
176
     1
 40
0.0
176
     1
 90
        0
176
     1
290
     0
176
     1
290
     1
176
     1
290
     1
176
     1
290
     0
176
     1
290
     0
176
     1
290
     0
176
     1
290
     0
176
     1
290
     0
176
     1
290
     0
176
     1
 90
       50
176
     1
 40
0.0
176
     1
 40
1.0
176
     1
 90
        0
176
     1
 62
    18
420
        0
176
     1
 90
       50
176
     1
 90
        3
176
     1
 62
     5
420
      255
176
     1
290
     0
176
     1
 90
       50
176
     1
 90
       50
176
     1
 90
       50
176
     1
290
     0
176
     1
 90
       50
176
     1
 62
   256
176
     0
 40
1.0
176
     0
 90
        2
176
     1
  1
strokes_ogs.tif
176
     1
290
     0
176
     1
 40
1.0
176
     1
 40
1.0
176
     1
  0
VISUALSTYLE
  5
30
102
{ACAD_REACTORS
330
2A
102
}
330
2A
100
AcDbVisualStyle
  2
Wireframe
 70
     5
177
     3
291
     0
 70
    58
 90
        0
176
     1
 90
        2
176
     1
 90
        0
176
     1
 90
        0
176
     1
 40
0.6
176
     1
 40
30.0
176
     1
 62
     7
420
 16777215
176
     1
 90
        1
176
     1
 90
        4
176
     1
 62
     7
176
     1
 62
   257
176
     1
 90
        1
176
     1
 90
        1
176
     1
 40
1.0
176
     1
 90
        0
176
     1
 62
   257
176
     1
 40
1.0
176
     1
 90
        1
176
     1
 90
        6
176
     1
 90
        2
176
     1
 62
     7
176
     1
 90
        3
176
     1
 90
        0
176
     1
 90
        0
176
     1
290
     0
176
     1
 90
        1
176
     1
 40
0.0
176
     1
 90
        0
176
     1
290
     0
176
     1
290
     1
176
     1
290
     1
176
     1
290
     0
176
     1
290
     0
176
     1
290
     0
176
     1
290
     0
176
     1
290
     0
176
     1
290
     0
176
     1
 90
       50
176
     1
 40
0.0
176
     1
 40
1.0
176
     1
 90
        0
176
     1
 62
    18
420
        0
176
     1
 90
       50
176
     1
 90
        3
176
     1
 62
     5
420
      255
176
     1
290
     0
176
     1
 90
       50
176
     1
 90
       50
176
     1
 90
       50
176
     1
290
     0
176
     1
 90
       50
176
     1
 62
   256
176
     0
 40
1.0
176
     0
 90
        2
176
     1
  1
strokes_ogs.tif
176
     1
290
     0
176
     1
 40
1.0
176
     1
 40
1.0
176
     1
  0
VISUALSTYLE
  5
40
102
{ACAD_REACTORS
330
2A
102
}
330
2A
100
AcDbVisualStyle
  2
X-Ray
 70
    25
177
     3
291
     0
 70
    58
 90
        2
176
     1
 90
        2
176
     1
 90
        1
176
     1
 90
        1
176
     1
 40
0.5
176
     1
 40
30.0
176
     1
 62
     7
420
 16777215
176
     1
 90
        1
176
     1
 90
        0
176
     1
 62
     7
176
     1
 62
   257
176
     1
 90
        1
176
     1
 90
        1
176
     1
 40
1.0
176
     1
 90
        8
176
     1
 62
     7
176
     1
 40
1.0
176
     1
 90
        1
176
     1
 90
        6
176
     1
 90
        2
176
     1
 62
     7
176
     1
 90
        3
176
     1
 90
        0
176
     1
 90
        0
176
     1
290
     0
176
     1
 90
       13
176
     1
 40
0.0
176
     1
 90
        0
176
     1
290
     0
176
     1
290
     1
176
     1
290
     1
176
     1
290
     0
176
     1
290
     0
176
     1
290
     0
176
     1
290
     0
176
     1
290
     0
176
     1
290
     0
176
     1
 90
       50
176
     1
 40
0.0
176
     1
 40
1.0
176
     1
 90
        0
176
     1
 62
    18
420
        0
176
     1
 90
       50
176
     1
 90
        3
176
     1
 62
     5
420
      255
176
     1
290
     0
176
     1
 90
       50
176
     1
 90
       50
176
     1
 90
       50
176
     1
290
     0
176
     1
 90
       50
176
     1
 62
   256
176
     0
 40
1.0
176
     0
 90
        2
176
     1
  1
strokes_ogs.tif
176
     1
290
     0
176
     1
 40
1.0
176
     1
 40
1.0
176
     1
  0
DICTIONARYVAR
  5
80
102
{ACAD_REACTORS
330
7F
102
}
330
7F
100
DictionaryVariables
280
     0
  1
1:1
  0
DICTIONARYVAR
  5
85
102
{ACAD_REACTORS
330
7F
102
}
330
7F
100
DictionaryVariables
280
     0
  1
Standard
  0
DICTIONARYVAR
  5
84
102
{ACAD_REACTORS
330
7F
102
}
330
7F
100
DictionaryVariables
280
     0
  1
Standard
  0
DICTIONARY
  5
81
330
5A
100
AcDbDictionary
280
     1
281
     1
  3
ACAD_ROUNDTRIP_2008_TABLESTYLE_CELLSTYLEMAP
360
82
  0
CELLSTYLEMAP
  5
82
102
{ACAD_REACTORS
330
81
102
}
330
81
100
AcDbCellStyleMap
 90
        3
300
CELLSTYLE
  1
TABLEFORMAT_BEGIN
 90
        5
170
     1
 91
        0
 92
    32768
 62
   257
 93
        1
300
CONTENTFORMAT
  1
CONTENTFORMAT_BEGIN
 90
        0
 91
        0
 92
        4
 93
        0
300

 40
0.0
140
1.0
 94
        5
 62
     0
340
11
144
0.25
309
CONTENTFORMAT_END
171
     1
301
MARGIN
  1
CELLMARGIN_BEGIN
 40
0.06
 40
0.06
 40
0.06
 40
0.06
 40
0.06
 40
0.06
309
CELLMARGIN_END
 94
        6
 95
        1
302
GRIDFORMAT
  1
GRIDFORMAT_BEGIN
 90
        0
 91
        1
 62
     0
 92
       -2
340
14
 93
        0
 40
0.045
309
GRIDFORMAT_END
 95
        2
302
GRIDFORMAT
  1
GRIDFORMAT_BEGIN
 90
        0
 91
        1
 62
     0
 92
       -2
340
14
 93
        0
 40
0.045
309
GRIDFORMAT_END
 95
        4
302
GRIDFORMAT
  1
GRIDFORMAT_BEGIN
 90
        0
 91
        1
 62
     0
 92
       -2
340
14
 93
        0
 40
0.045
309
GRIDFORMAT_END
 95
        8
302
GRIDFORMAT
  1
GRIDFORMAT_BEGIN
 90
        0
 91
        1
 62
     0
 92
       -2
340
14
 93
        0
 40
0.045
309
GRIDFORMAT_END
 95
       16
302
GRIDFORMAT
  1
GRIDFORMAT_BEGIN
 90
        0
 91
        1
 62
     0
 92
       -2
340
14
 93
        0
 40
0.045
309
GRIDFORMAT_END
 95
       32
302
GRIDFORMAT
  1
GRIDFORMAT_BEGIN
 90
        0
 91
        1
 62
     0
 92
       -2
340
14
 93
        0
 40
0.045
309
GRIDFORMAT_END
309
TABLEFORMAT_END
  1
CELLSTYLE_BEGIN
 90
        1
 91
        1
300
_TITLE
309
CELLSTYLE_END
300
CELLSTYLE
  1
TABLEFORMAT_BEGIN
 90
        5
170
     1
 91
        0
 92
        0
 62
   257
 93
        1
300
CONTENTFORMAT
  1
CONTENTFORMAT_BEGIN
 90
        0
 91
        0
 92
        4
 93
        0
300

 40
0.0
140
1.0
 94
        5
 62
     0
340
11
144
0.18
309
CONTENTFORMAT_END
171
     1
301
MARGIN
  1
CELLMARGIN_BEGIN
 40
0.06
 40
0.06
 40
0.06
 40
0.06
 40
0.06
 40
0.06
309
CELLMARGIN_END
 94
        6
 95
        1
302
GRIDFORMAT
  1
GRIDFORMAT_BEGIN
 90
        0
 91
        1
 62
     0
 92
       -2
340
14
 93
        0
 40
0.045
309
GRIDFORMAT_END
 95
        2
302
GRIDFORMAT
  1
GRIDFORMAT_BEGIN
 90
        0
 91
        1
 62
     0
 92
       -2
340
14
 93
        0
 40
0.045
309
GRIDFORMAT_END
 95
        4
302
GRIDFORMAT
  1
GRIDFORMAT_BEGIN
 90
        0
 91
        1
 62
     0
 92
       -2
340
14
 93
        0
 40
0.045
309
GRIDFORMAT_END
 95
        8
302
GRIDFORMAT
  1
GRIDFORMAT_BEGIN
 90
        0
 91
        1
 62
     0
 92
       -2
340
14
 93
        0
 40
0.045
309
GRIDFORMAT_END
 95
       16
302
GRIDFORMAT
  1
GRIDFORMAT_BEGIN
 90
        0
 91
        1
 62
     0
 92
       -2
340
14
 93
        0
 40
0.045
309
GRIDFORMAT_END
 95
       32
302
GRIDFORMAT
  1
GRIDFORMAT_BEGIN
 90
        0
 91
        1
 62
     0
 92
       -2
340
14
 93
        0
 40
0.045
309
GRIDFORMAT_END
309
TABLEFORMAT_END
  1
CELLSTYLE_BEGIN
 90
        2
 91
        1
300
_HEADER
309
CELLSTYLE_END
300
CELLSTYLE
  1
TABLEFORMAT_BEGIN
 90
        5
170
     1
 91
        0
 92
        0
 62
   257
 93
        1
300
CONTENTFORMAT
  1
CONTENTFORMAT_BEGIN
 90
        0
 91
        0
 92
        4
 93
        0
300

 40
0.0
140
1.0
 94
        2
 62
     0
340
11
144
0.18
309
CONTENTFORMAT_END
171
     1
301
MARGIN
  1
CELLMARGIN_BEGIN
 40
0.06
 40
0.06
 40
0.06
 40
0.06
 40
0.06
 40
0.06
309
CELLMARGIN_END
 94
        6
 95
        1
302
GRIDFORMAT
  1
GRIDFORMAT_BEGIN
 90
        0
 91
        1
 62
     0
 92
       -2
340
14
 93
        0
 40
0.045
309
GRIDFORMAT_END
 95
        2
302
GRIDFORMAT
  1
GRIDFORMAT_BEGIN
 90
        0
 91
        1
 62
     0
 92
       -2
340
14
 93
        0
 40
0.045
309
GRIDFORMAT_END
 95
        4
302
GRIDFORMAT
  1
GRIDFORMAT_BEGIN
 90
        0
 91
        1
 62
     0
 92
       -2
340
14
 93
        0
 40
0.045
309
GRIDFORMAT_END
 95
        8
302
GRIDFORMAT
  1
GRIDFORMAT_BEGIN
 90
        0
 91
        1
 62
     0
 92
       -2
340
14
 93
        0
 40
0.045
309
GRIDFORMAT_END
 95
       16
302
GRIDFORMAT
  1
GRIDFORMAT_BEGIN
 90
        0
 91
        1
 62
     0
 92
       -2
340
14
 93
        0
 40
0.045
309
GRIDFORMAT_END
 95
       32
302
GRIDFORMAT
  1
GRIDFORMAT_BEGIN
 90
        0
 91
        1
 62
     0
 92
       -2
340
14
 93
        0
 40
0.045
309
GRIDFORMAT_END
309
TABLEFORMAT_END
  1
CELLSTYLE_BEGIN
 90
        3
 91
        2
300
_DATA
309
CELLSTYLE_END
  0
ENDSEC
  0
EOF
