  0
SECTION
  2
HEADER
  9
$ACADVER
  1
AC1027
  9
$ACADMAINTVER
 70
   105
  9
$DWGCODEPAGE
  3
ANSI_1252
  9
$LASTSAVEDBY
  1
Office Desk
  9
$REQUIREDVERSIONS
160
                 0
  9
$INSBASE
 10
0.0
 20
0.0
 30
0.0
  9
$EXTMIN
 10
22.71574409448819
 20
-13.52020078740157
 30
0.0
  9
$EXTMAX
 10
40.24293700787402
 20
-5.476114173228346
 30
0.0
  9
$LIMMIN
 10
0.0
 20
0.0
  9
$LIMMAX
 10
12.0
 20
9.0
  9
$ORTHOMODE
 70
     0
  9
$REGENMODE
 70
     1
  9
$FILLMODE
 70
     1
  9
$QTEXTMODE
 70
     0
  9
$MIRRTEXT
 70
     1
  9
$LTSCALE
 40
1.0
  9
$ATTMODE
 70
     1
  9
$TEXTSIZE
 40
0.2
  9
$TRACEWID
 40
0.05
  9
$TEXTSTYLE
  7
Standard
  9
$CLAYER
  8
0
  9
$CELTYPE
  6
ByLayer
  9
$CECOLOR
 62
   256
  9
$CELTSCALE
 40
1.0
  9
$DISPSILH
 70
     0
  9
$DIMSCALE
 40
1.0
  9
$DIMASZ
 40
0.18
  9
$DIMEXO
 40
0.0625
  9
$DIMDLI
 40
0.38
  9
$DIMRND
 40
0.0
  9
$DIMDLE
 40
0.0
  9
$DIMEXE
 40
0.18
  9
$DIMTP
 40
0.0
  9
$DIMTM
 40
0.0
  9
$DIMTXT
 40
0.18
  9
$DIMCEN
 40
0.09
  9
$DIMTSZ
 40
0.0
  9
$DIMTOL
 70
     0
  9
$DIMLIM
 70
     0
  9
$DIMTIH
 70
     1
  9
$DIMTOH
 70
     1
  9
$DIMSE1
 70
     0
  9
$DIMSE2
 70
     0
  9
$DIMTAD
 70
     0
  9
$DIMZIN
 70
     0
  9
$DIMBLK
  1

  9
$DIMASO
 70
     1
  9
$DIMSHO
 70
     1
  9
$DIMPOST
  1

  9
$DIMAPOST
  1

  9
$DIMALT
 70
     0
  9
$DIMALTD
 70
     2
  9
$DIMALTF
 40
25.4
  9
$DIMLFAC
 40
1.0
  9
$DIMTOFL
 70
     0
  9
$DIMTVP
 40
0.0
  9
$DIMTIX
 70
     0
  9
$DIMSOXD
 70
     0
  9
$DIMSAH
 70
     0
  9
$DIMBLK1
  1

  9
$DIMBLK2
  1

  9
$DIMSTYLE
  2
Standard
  9
$DIMCLRD
 70
     0
  9
$DIMCLRE
 70
     0
  9
$DIMCLRT
 70
     0
  9
$DIMTFAC
 40
1.0
  9
$DIMGAP
 40
0.09
  9
$DIMJUST
 70
     0
  9
$DIMSD1
 70
     0
  9
$DIMSD2
 70
     0
  9
$DIMTOLJ
 70
     1
  9
$DIMTZIN
 70
     0
  9
$DIMALTZ
 70
     0
  9
$DIMALTTZ
 70
     0
  9
$DIMUPT
 70
     0
  9
$DIMDEC
 70
     4
  9
$DIMTDEC
 70
     4
  9
$DIMALTU
 70
     2
  9
$DIMALTTD
 70
     2
  9
$DIMTXSTY
  7
Standard
  9
$DIMAUNIT
 70
     0
  9
$DIMADEC
 70
     0
  9
$DIMALTRND
 40
0.0
  9
$DIMAZIN
 70
     0
  9
$DIMDSEP
 70
    46
  9
$DIMATFIT
 70
     3
  9
$DIMFRAC
 70
     0
  9
$DIMLDRBLK
  1

  9
$DIMLUNIT
 70
     2
  9
$DIMLWD
 70
    -2
  9
$DIMLWE
 70
    -2
  9
$DIMTMOVE
 70
     0
  9
$DIMFXL
 40
1.0
  9
$DIMFXLON
 70
     0
  9
$DIMJOGANG
 40
0.7853981633974483
  9
$DIMTFILL
 70
     0
  9
$DIMTFILLCLR
 70
     0
  9
$DIMARCSYM
 70
     0
  9
$DIMLTYPE
  6

  9
$DIMLTEX1
  6

  9
$DIMLTEX2
  6

  9
$DIMTXTDIRECTION
 70
     0
  9
$LUNITS
 70
     2
  9
$LUPREC
 70
     4
  9
$SKETCHINC
 40
0.1
  9
$FILLETRAD
 40
0.0
  9
$AUNITS
 70
     0
  9
$AUPREC
 70
     0
  9
$MENU
  1
.
  9
$ELEVATION
 40
0.0
  9
$PELEVATION
 40
0.0
  9
$THICKNESS
 40
0.0
  9
$LIMCHECK
 70
     0
  9
$CHAMFERA
 40
0.0
  9
$CHAMFERB
 40
0.0
  9
$CHAMFERC
 40
0.0
  9
$CHAMFERD
 40
0.0
  9
$SKPOLY
 70
     0
  9
$TDCREATE
 40
2461020.710482697
  9
$TDUCREATE
 40
2461020.48131603
  9
$TDUPDATE
 40
2461020.710482882
  9
$TDUUPDATE
 40
2461020.481316216
  9
$TDINDWG
 40
0.0000000116
  9
$TDUSRTIMER
 40
0.0000000116
  9
$USRTIMER
 70
     1
  9
$ANGBASE
 50
0.0
  9
$ANGDIR
 70
     0
  9
$PDMODE
 70
     0
  9
$PDSIZE
 40
0.0
  9
$PLINEWID
 40
0.0
  9
$SPLFRAME
 70
     0
  9
$SPLINETYPE
 70
     6
  9
$SPLINESEGS
 70
     8
  9
$HANDSEED
  5
84
  9
$SURFTAB1
 70
     6
  9
$SURFTAB2
 70
     6
  9
$SURFTYPE
 70
     6
  9
$SURFU
 70
     6
  9
$SURFV
 70
     6
  9
$UCSBASE
  2

  9
$UCSNAME
  2

  9
$UCSORG
 10
0.0
 20
0.0
 30
0.0
  9
$UCSXDIR
 10
1.0
 20
0.0
 30
0.0
  9
$UCSYDIR
 10
0.0
 20
1.0
 30
0.0
  9
$UCSORTHOREF
  2

  9
$UCSORTHOVIEW
 70
     0
  9
$UCSORGTOP
 10
0.0
 20
0.0
 30
0.0
  9
$UCSORGBOTTOM
 10
0.0
 20
0.0
 30
0.0
  9
$UCSORGLEFT
 10
0.0
 20
0.0
 30
0.0
  9
$UCSORGRIGHT
 10
0.0
 20
0.0
 30
0.0
  9
$UCSORGFRONT
 10
0.0
 20
0.0
 30
0.0
  9
$UCSORGBACK
 10
0.0
 20
0.0
 30
0.0
  9
$PUCSBASE
  2

  9
$PUCSNAME
  2

  9
$PUCSORG
 10
0.0
 20
0.0
 30
0.0
  9
$PUCSXDIR
 10
1.0
 20
0.0
 30
0.0
  9
$PUCSYDIR
 10
0.0
 20
1.0
 30
0.0
  9
$PUCSORTHOREF
  2

  9
$PUCSORTHOVIEW
 70
     0
  9
$PUCSORGTOP
 10
0.0
 20
0.0
 30
0.0
  9
$PUCSORGBOTTOM
 10
0.0
 20
0.0
 30
0.0
  9
$PUCSORGLEFT
 10
0.0
 20
0.0
 30
0.0
  9
$PUCSORGRIGHT
 10
0.0
 20
0.0
 30
0.0
  9
$PUCSORGFRONT
 10
0.0
 20
0.0
 30
0.0
  9
$PUCSORGBACK
 10
0.0
 20
0.0
 30
0.0
  9
$USERI1
 70
     0
  9
$USERI2
 70
     0
  9
$USERI3
 70
     0
  9
$USERI4
 70
     0
  9
$USERI5
 70
     0
  9
$USERR1
 40
0.0
  9
$USERR2
 40
0.0
  9
$USERR3
 40
0.0
  9
$USERR4
 40
0.0
  9
$USERR5
 40
0.0
  9
$WORLDVIEW
 70
     1
  9
$SHADEDGE
 70
     3
  9
$SHADEDIF
 70
    70
  9
$TILEMODE
 70
     1
  9
$MAXACTVP
 70
    64
  9
$PINSBASE
 10
0.0
 20
0.0
 30
0.0
  9
$PLIMCHECK
 70
     0
  9
$PEXTMIN
 10
1.000000000000000E+20
 20
1.000000000000000E+20
 30
1.000000000000000E+20
  9
$PEXTMAX
 10
-1.000000000000000E+20
 20
-1.000000000000000E+20
 30
-1.000000000000000E+20
  9
$PLIMMIN
 10
0.0
 20
0.0
  9
$PLIMMAX
 10
12.0
 20
9.0
  9
$UNITMODE
 70
     0
  9
$VISRETAIN
 70
     1
  9
$PLINEGEN
 70
     0
  9
$PSLTSCALE
 70
     1
  9
$TREEDEPTH
 70
  3020
  9
$CMLSTYLE
  2
Standard
  9
$CMLJUST
 70
     0
  9
$CMLSCALE
 40
1.0
  9
$PROXYGRAPHICS
 70
     1
  9
$MEASUREMENT
 70
     0
  9
$CELWEIGHT
370
    -1
  9
$ENDCAPS
280
     0
  9
$JOINSTYLE
280
     0
  9
$LWDISPLAY
290
     0
  9
$INSUNITS
 70
     1
  9
$HYPERLINKBASE
  1

  9
$STYLESHEET
  1

  9
$XEDIT
290
     1
  9
$CEPSNTYPE
380
     0
  9
$PSTYLEMODE
290
     1
  9
$FINGERPRINTGUID
  2
{c784c7bb-16fa-4610-ab23-eb11855f4eb3}
  9
$VERSIONGUID
  2
{FAEB1C32-E019-11D5-929B-00C0DF256EC4}
  9
$EXTNAMES
290
     1
  9
$PSVPSCALE
 40
0.0
  9
$OLESTARTUP
290
     0
  9
$SORTENTS
280
   127
  9
$INDEXCTL
280
     0
  9
$HIDETEXT
280
     1
  9
$XCLIPFRAME
280
     2
  9
$HALOGAP
280
     0
  9
$OBSCOLOR
 70
   257
  9
$OBSLTYPE
280
     0
  9
$INTERSECTIONDISPLAY
280
     0
  9
$INTERSECTIONCOLOR
 70
   257
  9
$DIMASSOC
280
     2
  9
$PROJECTNAME
  1

  9
$CAMERADISPLAY
290
     0
  9
$LENSLENGTH
 40
50.0
  9
$CAMERAHEIGHT
 40
0.0
  9
$STEPSPERSEC
 40
2.0
  9
$STEPSIZE
 40
6.0
  9
$3DDWFPREC
 40
2.0
  9
$PSOLWIDTH
 40
0.25
  9
$PSOLHEIGHT
 40
4.0
  9
$LOFTANG1
 40
1.570796326794897
  9
$LOFTANG2
 40
1.570796326794897
  9
$LOFTMAG1
 40
0.0
  9
$LOFTMAG2
 40
0.0
  9
$LOFTPARAM
 70
     7
  9
$LOFTNORMALS
280
     1
  9
$LATITUDE
 40
37.795
  9
$LONGITUDE
 40
-122.394
  9
$NORTHDIRECTION
 40
0.0
  9
$TIMEZONE
 70
 -8000
  9
$LIGHTGLYPHDISPLAY
280
     1
  9
$TILEMODELIGHTSYNCH
280
     1
  9
$CMATERIAL
347
44
  9
$SOLIDHIST
280
     0
  9
$SHOWHIST
280
     1
  9
$DWFFRAME
280
     2
  9
$DGNFRAME
280
     2
  9
$REALWORLDSCALE
290
     1
  9
$INTERFERECOLOR
 62
   256
  9
$CSHADOW
280
     0
  9
$SHADOWPLANELOCATION
 40
0.0
  0
ENDSEC
  0
SECTION
  2
CLASSES
  0
CLASS
  1
ACDBDICTIONARYWDFLT
  2
AcDbDictionaryWithDefault
  3
ObjectDBX Classes
 90
        0
 91
        3
280
     0
281
     0
  0
CLASS
  1
VISUALSTYLE
  2
AcDbVisualStyle
  3
ObjectDBX Classes
 90
     4095
 91
        3
280
     0
281
     0
  0
CLASS
  1
MATERIAL
  2
AcDbMaterial
  3
ObjectDBX Classes
 90
     1153
 91
        3
280
     0
281
     0
  0
CLASS
  1
SCALE
  2
AcDbScale
  3
ObjectDBX Classes
 90
     1153
 91
        3
280
     0
281
     0
  0
CLASS
  1
TABLESTYLE
  2
AcDbTableStyle
  3
ObjectDBX Classes
 90
     4095
 91
        3
280
     0
281
     0
  0
CLASS
  1
MLEADERSTYLE
  2
AcDbMLeaderStyle
  3
ACDB_MLEADERSTYLE_CLASS
 90
     4095
 91
        3
280
     0
281
     0
  0
CLASS
  1
SUN
  2
AcDbSun
  3
SCENEOE
 90
     1153
 91
        3
280
     0
281
     0
  0
CLASS
  1
DICTIONARYVAR
  2
AcDbDictionaryVar
  3
ObjectDBX Classes
 90
        0
 91
        3
280
     0
281
     0
  0
CLASS
  1
CELLSTYLEMAP
  2
AcDbCellStyleMap
  3
ObjectDBX Classes
 90
     1152
 91
        3
280
     0
281
     0
  0
ENDSEC
  0
SECTION
  2
TABLES
  0
TABLE
  2
VPORT
  5
8
330
0
100
AcDbSymbolTable
 70
     1
  0
VPORT
  5
29
330
8
100
AcDbSymbolTableRecord
100
AcDbViewportTableRecord
  2
*Active
 70
     0
 10
0.0
 20
0.0
 11
1.0
 21
1.0
 12
10.42990654205607
 22
4.5
 13
0.0
 23
0.0
 14
0.5
 24
0.5
 15
0.5
 25
0.5
 16
0.0
 26
0.0
 36
1.0
 17
0.0
 27
0.0
 37
0.0
 40
9.0
 41
1.972972972850329
 42
50.0
 43
0.0
 44
0.0
 50
0.0
 51
0.0
 71
     0
 72
   100
 73
     1
 74
     3
 75
     0
 76
     0
 77
     0
 78
     0
281
     0
 65
     1
110
0.0
120
0.0
130
0.0
111
1.0
121
0.0
131
0.0
112
0.0
122
1.0
132
0.0
 79
     0
146
0.0
348
2F
 60
     3
 61
     5
292
     1
282
     1
141
0.0
142
0.0
 63
   250
361
5D
  0
ENDTAB
  0
TABLE
  2
LTYPE
  5
5
330
0
100
AcDbSymbolTable
 70
     1
  0
LTYPE
  5
14
330
5
100
AcDbSymbolTableRecord
100
AcDbLinetypeTableRecord
  2
ByBlock
 70
     0
  3

 72
    65
 73
     0
 40
0.0
  0
LTYPE
  5
15
330
5
100
AcDbSymbolTableRecord
100
AcDbLinetypeTableRecord
  2
ByLayer
 70
     0
  3

 72
    65
 73
     0
 40
0.0
  0
LTYPE
  5
16
330
5
100
AcDbSymbolTableRecord
100
AcDbLinetypeTableRecord
  2
Continuous
 70
     0
  3
Solid line
 72
    65
 73
     0
 40
0.0
  0
ENDTAB
  0
TABLE
  2
LAYER
  5
2
330
0
100
AcDbSymbolTable
 70
     2
  0
LAYER
  5
10
330
2
100
AcDbSymbolTableRecord
100
AcDbLayerTableRecord
  2
0
 70
     0
 62
     7
  6
Continuous
370
    -3
390
F
347
46
348
0
  0
LAYER
  5
5F
330
2
100
AcDbSymbolTableRecord
100
AcDbLayerTableRecord
  2
Layer 1
 70
     0
 62
     7
  6
Continuous
370
    -3
390
F
347
46
348
0
  0
ENDTAB
  0
TABLE
  2
STYLE
  5
3
330
0
100
AcDbSymbolTable
 70
     1
  0
STYLE
  5
11
330
3
100
AcDbSymbolTableRecord
100
AcDbTextStyleTableRecord
  2
Standard
 70
     0
 40
0.0
 41
1.0
 50
0.0
 71
     0
 42
0.2
  3
txt
  4

  0
ENDTAB
  0
TABLE
  2
VIEW
  5
6
330
0
100
AcDbSymbolTable
 70
     0
  0
ENDTAB
  0
TABLE
  2
UCS
  5
7
330
0
100
AcDbSymbolTable
 70
     0
  0
ENDTAB
  0
TABLE
  2
APPID
  5
9
330
0
100
AcDbSymbolTable
 70
     2
  0
APPID
  5
12
330
9
100
AcDbSymbolTableRecord
100
AcDbRegAppTableRecord
  2
ACAD
 70
     0
  0
APPID
  5
5E
330
9
100
AcDbSymbolTableRecord
100
AcDbRegAppTableRecord
  2
ODA
 70
     0
  0
ENDTAB
  0
TABLE
  2
DIMSTYLE
  5
A
330
0
100
AcDbSymbolTable
 70
     1
100
AcDbDimStyleTable
  0
DIMSTYLE
105
27
330
A
100
AcDbSymbolTableRecord
100
AcDbDimStyleTableRecord
  2
Standard
 70
     0
178
     0
340
11
  0
ENDTAB
  0
TABLE
  2
BLOCK_RECORD
  5
1
330
0
100
AcDbSymbolTable
 70
     1
  0
BLOCK_RECORD
  5
1F
330
1
100
AcDbSymbolTableRecord
100
AcDbBlockTableRecord
  2
*Model_Space
340
22
 70
     0
280
     1
281
     0
  0
BLOCK_RECORD
  5
1B
330
1
100
AcDbSymbolTableRecord
100
AcDbBlockTableRecord
  2
*Paper_Space
340
1E
 70
     0
280
     1
281
     0
  0
BLOCK_RECORD
  5
23
330
1
100
AcDbSymbolTableRecord
100
AcDbBlockTableRecord
  2
*Paper_Space0
340
26
 70
     0
280
     1
281
     0
  0
ENDTAB
  0
ENDSEC
  0
SECTION
  2
BLOCKS
  0
BLOCK
  5
20
330
1F
100
AcDbEntity
  8
0
100
AcDbBlockBegin
  2
*Model_Space
 70
     0
 10
0.0
 20
0.0
 30
0.0
  3
*Model_Space
  1

  0
ENDBLK
  5
21
330
1F
100
AcDbEntity
  8
0
100
AcDbBlockEnd
  0
BLOCK
  5
1C
330
1B
100
AcDbEntity
 67
     1
  8
0
100
AcDbBlockBegin
  2
*Paper_Space
 70
     0
 10
0.0
 20
0.0
 30
0.0
  3
*Paper_Space
  1

  0
ENDBLK
  5
1D
330
1B
100
AcDbEntity
 67
     1
  8
0
100
AcDbBlockEnd
  0
BLOCK
  5
24
330
23
100
AcDbEntity
  8
0
100
AcDbBlockBegin
  2
*Paper_Space0
 70
     0
 10
0.0
 20
0.0
 30
0.0
  3
*Paper_Space0
  1

  0
ENDBLK
  5
25
330
23
100
AcDbEntity
  8
0
100
AcDbBlockEnd
  0
ENDSEC
  0
SECTION
  2
ENTITIES
  0
LWPOLYLINE
  5
60
330
1F
100
AcDbEntity
  8
Layer 1
 62
   250
370
     9
100
AcDbPolyline
 90
        5
 70
     1
 43
0.0
 10
22.71724409448819
 20
-13.51870078740157
 10
40.24143307086614
 20
-13.51870078740157
 10
40.24143307086614
 20
-5.477614173228346
 10
22.71724409448819
 20
-5.477614173228346
 10
22.71724409448819
 20
-13.51870078740157
  0
LWPOLYLINE
  5
61
330
1F
100
AcDbEntity
  8
Layer 1
 62
     7
370
     9
100
AcDbPolyline
 90
       19
 70
     1
 43
0.0
 10
24.78625196850394
 20
-9.512165354330708
 10
25.67593700787402
 20
-9.303917322834646
 10
25.99979921259843
 20
-9.532346456692913
 10
26.00108661417323
 20
-9.59167716535433
 10
25.09500787401575
 20
-9.804964566929133
 10
24.87444094488189
 20
-9.642149606299213
 10
24.87177952755906
 20
-9.644476377952756
 10
24.86518897637795
 20
-9.651775590551182
 10
24.85676771653543
 20
-9.664515748031496
 10
24.84861417322834
 20
-9.683173228346456
 10
24.84281889763779
 20
-9.708220472440946
 10
24.84148818897638
 20
-9.740133858267717
 10
24.84670866141732
 20
-9.779377952755906
 10
24.86058267716535
 20
-9.826433070866141
 10
25.12018897637795
 20
-10.04604330708661
 10
25.18951968503937
 20
-10.10320472440945
 10
25.11956299212599
 20
-10.11456299212598
 10
24.80327165354331
 20
-9.867826771653544
 10
24.78625196850394
 20
-9.512165354330708
  0
LWPOLYLINE
  5
62
330
1F
100
AcDbEntity
  8
Layer 1
 62
     7
370
     9
100
AcDbPolyline
 90
        2
 70
     0
 43
0.0
 10
25.12018897637795
 20
-10.04604330708661
 10
25.11956299212599
 20
-10.11456299212598
  0
LWPOLYLINE
  5
63
330
1F
100
AcDbEntity
  8
Layer 1
 62
     7
370
     9
100
AcDbPolyline
 90
        3
 70
     0
 43
0.0
 10
24.78651181102362
 20
-9.517606299212598
 10
25.09372047244095
 20
-9.742251968503936
 10
25.9999094488189
 20
-9.538704724409449
  0
LWPOLYLINE
  5
64
330
1F
100
AcDbEntity
  8
Layer 1
 62
     7
370
     9
100
AcDbPolyline
 90
        2
 70
     0
 43
0.0
 10
25.09372047244095
 20
-9.742251968503936
 10
25.09500787401575
 20
-9.804964566929133
  0
LWPOLYLINE
  5
65
330
1F
100
AcDbEntity
  8
Layer 1
 62
     7
370
     9
100
AcDbPolyline
 90
        5
 70
     1
 43
0.0
 10
36.66342519685039
 20
-6.941303149606299
 10
36.2463031496063
 20
-6.760145669291338
 10
35.60611417322835
 20
-6.909724409448819
 10
36.00434251968504
 20
-7.083897637795276
 10
36.66342519685039
 20
-6.941303149606299
  0
LWPOLYLINE
  5
66
330
1F
100
AcDbEntity
  8
Layer 1
 62
     7
370
     9
100
AcDbPolyline
 90
        5
 70
     0
 43
0.0
 10
35.60611417322835
 20
-6.909724409448819
 10
35.60486220472441
 20
-6.993905511811024
 10
36.00812992125984
 20
-7.152051181102363
 10
36.6659251968504
 20
-6.982917322834646
 10
36.66342519685039
 20
-6.941303149606299
  0
LWPOLYLINE
  5
67
330
1F
100
AcDbEntity
  8
Layer 1
 62
     7
370
     9
100
AcDbPolyline
 90
        2
 70
     0
 43
0.0
 10
36.00434251968504
 20
-7.083897637795276
 10
36.00812992125984
 20
-7.152051181102363
  0
LWPOLYLINE
  5
68
330
1F
100
AcDbEntity
  8
Layer 1
 62
     7
370
     9
100
AcDbPolyline
 90
       29
 70
     0
 43
0.0
 10
36.66342519685039
 20
-6.941303149606299
 10
38.25336220472441
 20
-7.687988188976378
 10
38.2569842519685
 20
-7.69151968503937
 10
38.26618503937008
 20
-7.70196062992126
 10
38.27847637795276
 20
-7.719074803149606
 10
38.29137007874016
 20
-7.74263779527559
 10
38.30237007874016
 20
-7.772409448818897
 10
38.30899212598425
 20
-7.808161417322835
 10
38.30874015748032
 20
-7.849661417322834
 10
38.29912992125984
 20
-7.896677165354331
 10
38.29787401574803
 20
-7.898889763779527
 10
38.29404330708661
 20
-7.904917322834645
 10
38.28755511811023
 20
-7.913846456692913
 10
38.2783188976378
 20
-7.924751968503937
 10
38.26624803149606
 20
-7.936728346456693
 10
38.25125590551181
 20
-7.948850393700788
 10
38.23325196850394
 20
-7.960200787401575
 10
38.21215354330709
 20
-7.969870078740158
 10
34.91901968503937
 20
-8.831393700787402
 10
26.7835
 20
-10.95925196850394
 10
26.7656062992126
 20
-10.96521653543307
 10
26.71666929133858
 20
-10.97964960629921
 10
26.64377952755905
 20
-10.99735826771654
 10
26.55404330708662
 20
-11.01316141732283
 10
26.45456692913386
 20
-11.02186220472441
 10
26.35244488188976
 20
-11.01827559055118
 10
26.25477952755906
 20
-10.9972125984252
 10
26.16867716535433
 20
-10.95348031496063
 10
25.18951968503937
 20
-10.10320472440945
  0
LWPOLYLINE
  5
69
330
1F
100
AcDbEntity
  8
Layer 1
 62
     7
370
     9
100
AcDbPolyline
 90
       28
 70
     0
 43
0.0
 10
24.93333070866142
 20
-9.685637795275591
 10
26.16099212598425
 20
-10.78004330708661
 10
26.17332677165354
 20
-10.78494488188976
 10
26.2090748031496
 20
-10.79667322834646
 10
26.26635826771653
 20
-10.81075984251969
 10
26.34329921259842
 20
-10.82274803149606
 10
26.43801968503937
 20
-10.82816535433071
 10
26.54864173228346
 20
-10.82255118110236
 10
26.6732874015748
 20
-10.80144488188976
 10
26.81007874015748
 20
-10.76037795275591
 10
30.33712204724409
 20
-9.848637795275591
 10
34.83079133858268
 20
-8.682511811023621
 10
34.97384645669291
 20
-8.646208661417322
 10
35.35137007874016
 20
-8.55032283464567
 10
35.88592125984252
 20
-8.414374015748031
 10
36.50005118110236
 20
-8.2578937007874
 10
37.1163031496063
 20
-8.100409448818898
 10
37.65723622047244
 20
-7.961448818897638
 10
38.0453937007874
 20
-7.860535433070866
 10
38.20333070866142
 20
-7.817200787401575
 10
38.20681102362204
 20
-7.815200787401575
 10
38.21601968503937
 20
-7.809625984251968
 10
38.22911417322835
 20
-7.801110236220472
 10
38.24425984251968
 20
-7.790287401574803
 10
38.2596062992126
 20
-7.777795275590552
 10
38.27331889763779
 20
-7.764271653543307
 10
38.28355511811024
 20
-7.750346456692913
 10
38.28846850393701
 20
-7.73665748031496
  0
LWPOLYLINE
  5
6A
330
1F
100
AcDbEntity
  8
Layer 1
 62
     7
370
     9
100
AcDbPolyline
 90
        5
 70
     0
 43
0.0
 10
35.62214173228347
 20
-6.997913385826772
 10
25.79518897637795
 20
-9.374716535433071
 10
25.93947244094488
 20
-9.49815748031496
 10
31.70083464566929
 20
-8.048129921259843
 10
35.77705118110237
 20
-7.06390157480315
  0
LWPOLYLINE
  5
6B
330
1F
100
AcDbEntity
  8
Layer 1
 62
     7
370
    18
100
AcDbPolyline
 90
        4
 70
     1
 43
0.0
 10
26.78442519685039
 20
-11.92433858267717
 10
26.76240157480315
 20
-11.94567716535433
 10
26.79221653543307
 20
-11.95285433070866
 10
26.78442519685039
 20
-11.92433858267717
  0
LWPOLYLINE
  5
6C
330
1F
100
AcDbEntity
  8
Layer 1
 62
     7
370
    18
100
AcDbPolyline
 90
        4
 70
     1
 43
0.0
 10
38.61892519685039
 20
-8.691590551181102
 10
38.64874015748031
 20
-8.698767716535434
 10
38.62671653543307
 20
-8.720102362204724
 10
38.61892519685039
 20
-8.691590551181102
  0
LWPOLYLINE
  5
6D
330
1F
100
AcDbEntity
  8
Layer 1
 62
     7
370
    18
100
AcDbPolyline
 90
        2
 70
     0
 43
0.0
 10
26.7541811023622
 20
-11.94955905511811
 10
38.65779527559055
 20
-8.697929133858267
  0
LWPOLYLINE
  5
6E
330
1F
100
AcDbEntity
  8
Layer 1
 62
     7
370
     9
100
AcDbPolyline
 90
      132
 70
     1
 43
0.0
 10
32.93967716535433
 20
-10.95371653543307
 10
32.96302755905512
 20
-10.86129921259842
 10
33.08782677165355
 20
-10.86129921259842
 10
33.08782677165355
 20
-10.82575590551181
 10
32.93613385826772
 20
-10.82575590551181
 10
32.89652755905512
 20
-10.98064173228346
 10
32.93509842519685
 20
-10.99791338582677
 10
32.9406968503937
 20
-10.99410236220472
 10
32.94656692913386
 20
-10.99079921259843
 10
32.95271653543307
 20
-10.98800787401575
 10
32.95914173228346
 20
-10.98572047244095
 10
32.96584251968504
 20
-10.98394488188976
 10
32.97282283464567
 20
-10.98267716535433
 10
32.98007874015748
 20
-10.98191338582677
 10
32.98761417322834
 20
-10.98166141732283
 10
32.9951968503937
 20
-10.98203543307087
 10
33.00252755905512
 20
-10.98315354330709
 10
33.00960236220472
 20
-10.9850157480315
 10
33.01642125984252
 20
-10.98762598425197
 10
33.02298818897638
 20
-10.99098031496063
 10
33.02929527559055
 20
-10.99508267716535
 10
33.03535039370079
 20
-10.99992519685039
 10
33.04114960629921
 20
-11.0055157480315
 10
33.04662598425197
 20
-11.01176377952756
 10
33.05137007874016
 20
-11.01823622047244
 10
33.05538188976378
 20
-11.02494094488189
 10
33.05866535433071
 20
-11.03187401574803
 10
33.06121653543307
 20
-11.03903543307087
 10
33.06303937007874
 20
-11.04642913385827
 10
33.06412992125984
 20
-11.05405511811024
 10
33.06449606299213
 20
-11.0619094488189
 10
33.0641220472441
 20
-11.07003149606299
 10
33.06300787401575
 20
-11.07782677165354
 10
33.06114566929134
 20
-11.08529527559055
 10
33.05853543307087
 20
-11.09244094488189
 10
33.05518110236221
 20
-11.09925984251968
 10
33.05108267716535
 20
-11.10575196850394
 10
33.04623228346457
 20
-11.11192125984252
 10
33.04063779527559
 20
-11.11776377952756
 10
33.03485433070866
 20
-11.12282677165354
 10
33.02865354330709
 20
-11.12735433070866
 10
33.02203937007874
 20
-11.13133858267716
 10
33.01501574803149
 20
-11.13477952755906
 10
33.01129527559055
 20
-11.13627165354331
 10
33.00736614173228
 20
-11.13756299212598
 10
33.00323622047244
 20
-11.13865354330709
 10
32.99890157480315
 20
-11.13954330708661
 10
32.99436220472441
 20
-11.14023622047244
 10
32.98961417322835
 20
-11.14073228346457
 10
32.98466141732283
 20
-11.14102755905512
 10
32.97950393700788
 20
-11.14112598425197
 10
32.97424409448819
 20
-11.14090551181102
 10
32.96899212598425
 20
-11.14024015748032
 10
32.96374409448819
 20
-11.13912992125984
 10
32.95850787401575
 20
-11.13757480314961
 10
32.95327952755905
 20
-11.13557480314961
 10
32.94805905511811
 20
-11.13313385826772
 10
32.94284645669291
 20
-11.13024409448819
 10
32.93764173228347
 20
-11.1269094488189
 10
32.93262992125985
 20
-11.12322047244094
 10
32.92799606299213
 20
-11.11925984251969
 10
32.92374409448819
 20
-11.11503543307087
 10
32.91987401574803
 20
-11.11053543307087
 10
32.91638582677165
 20
-11.10577165354331
 10
32.91327559055118
 20
-11.10073228346457
 10
32.91054724409449
 20
-11.09542125984252
 10
32.90820078740158
 20
-11.08983858267717
 10
32.87368897637796
 20
-11.101
 10
32.87708661417323
 20
-11.10936220472441
 10
32.88104330708661
 20
-11.11729921259843
 10
32.88555905511811
 20
-11.12481889763779
 10
32.89063779527559
 20
-11.13192125984252
 10
32.89627559055118
 20
-11.13859842519685
 10
32.90247637795276
 20
-11.14485433070866
 10
32.90924015748031
 20
-11.15069291338583
 10
32.91656692913386
 20
-11.1561062992126
 10
32.92436614173229
 20
-11.16104724409449
 10
32.93233858267717
 20
-11.16533070866142
 10
32.94048425196851
 20
-11.16895275590551
 10
32.94880708661417
 20
-11.17192125984252
 10
32.95729921259843
 20
-11.17422834645669
 10
32.96596850393701
 20
-11.17587795275591
 10
32.97481102362205
 20
-11.17686614173228
 10
32.98383070866142
 20
-11.1771968503937
 10
32.99583858267717
 20
-11.17665354330709
 10
33.00738582677165
 20
-11.17501968503937
 10
33.01847244094488
 20
-11.1723031496063
 10
33.02910236220472
 20
-11.16849606299213
 10
33.03927165354331
 20
-11.16360236220472
 10
33.04898425196851
 20
-11.15761811023622
 10
33.05824015748031
 20
-11.15055118110236
 10
33.06703937007874
 20
-11.14239763779528
 10
33.07500787401575
 20
-11.13354724409449
 10
33.08191338582677
 20
-11.12425984251968
 10
33.08775590551181
 20
-11.11453543307087
 10
33.09253543307086
 20
-11.10437401574803
 10
33.09625196850394
 20
-11.09377952755906
 10
33.09890551181103
 20
-11.08274409448819
 10
33.10049606299213
 20
-11.07127559055118
 10
33.10102755905512
 20
-11.05936614173228
 10
33.10050393700787
 20
-11.04751968503937
 10
33.09893700787401
 20
-11.03617716535433
 10
33.09632283464567
 20
-11.02533070866142
 10
33.09266141732284
 20
-11.0149842519685
 10
33.08795275590551
 20
-11.00514173228346
 10
33.08219291338582
 20
-10.99579921259843
 10
33.07538582677165
 20
-10.98696062992126
 10
33.06753149606299
 20
-10.97862204724409
 10
33.06351968503937
 20
-10.97491338582677
 10
33.05935433070866
 20
-10.97140551181102
 10
33.05502755905512
 20
-10.9680905511811
 10
33.05053937007874
 20
-10.96497637795276
 10
33.0458937007874
 20
-10.96205511811024
 10
33.0410905511811
 20
-10.95933858267717
 10
33.03612598425197
 20
-10.95681496062992
 10
33.031
 20
-10.95449606299213
 10
33.02577165354331
 20
-10.9524094488189
 10
33.0205
 20
-10.95060236220472
 10
33.01518110236221
 20
-10.94907480314961
 10
33.00981889763779
 20
-10.94782677165354
 10
33.00441732283465
 20
-10.94685433070866
 10
32.99896850393701
 20
-10.94616141732283
 10
32.99348031496063
 20
-10.94574409448819
 10
32.98795275590551
 20
-10.9456062992126
 10
32.98231496062992
 20
-10.94573228346457
 10
32.97656692913386
 20
-10.94611417322835
 10
32.97070866141733
 20
-10.94674803149606
 10
32.96473228346456
 20
-10.94763779527559
 10
32.95864173228347
 20
-10.94877952755905
 10
32.95243700787402
 20
-10.95017322834646
 10
32.94611417322835
 20
-10.95181889763779
 10
32.93967716535433
 20
-10.95371653543307
  0
LWPOLYLINE
  5
6F
330
1F
100
AcDbEntity
  8
Layer 1
 62
     7
370
     9
100
AcDbPolyline
 90
      125
 70
     1
 43
0.0
 10
33.30883464566929
 20
-11.16727165354331
 10
33.31401968503937
 20
-11.16495275590551
 10
33.31904330708662
 20
-11.16242519685039
 10
33.3239094488189
 20
-11.15968897637795
 10
33.32861417322835
 20
-11.15674409448819
 10
33.33316535433071
 20
-11.15359448818898
 10
33.33755511811024
 20
-11.15023622047244
 10
33.34178740157481
 20
-11.14667716535433
 10
33.34586220472441
 20
-11.1429094488189
 10
33.35388976377953
 20
-11.13438582677165
 10
33.36085039370079
 20
-11.12538976377953
 10
33.36673622047244
 20
-11.11591732283465
 10
33.37155511811024
 20
-11.10596456692913
 10
33.3753031496063
 20
-11.09553937007874
 10
33.37797637795276
 20
-11.08463779527559
 10
33.37958267716535
 20
-11.07325590551181
 10
33.38011811023622
 20
-11.06140157480315
 10
33.37957480314961
 20
-11.04953543307087
 10
33.37794488188976
 20
-11.03813385826772
 10
33.37522834645669
 20
-11.02718503937008
 10
33.37142913385827
 20
-11.01670078740158
 10
33.36653937007874
 20
-11.00667716535433
 10
33.36056299212598
 20
-10.99711417322835
 10
33.3535
 20
-10.98801181102362
 10
33.34535039370079
 20
-10.97937007874016
 10
33.33692913385827
 20
-10.97191732283465
 10
33.32797244094488
 20
-10.96535039370079
 10
33.31847637795276
 20
-10.95967322834646
 10
33.30844488188976
 20
-10.95488188976378
 10
33.29787007874016
 20
-10.95097637795276
 10
33.28675984251969
 20
-10.94796456692913
 10
33.27511023622047
 20
-10.94583858267717
 10
33.26292125984252
 20
-10.9446062992126
 10
33.24768503937008
 20
-10.95371653543307
 10
33.35577165354331
 20
-10.82575590551181
 10
33.17003937007874
 20
-10.82575590551181
 10
33.17003937007874
 20
-10.86129921259842
 10
33.28372440944882
 20
-10.86129921259842
 10
33.17918503937008
 20
-10.98318503937008
 10
33.20607874015748
 20
-11.00502362204724
 10
33.21231102362205
 20
-10.99931496062992
 10
33.21882677165355
 20
-10.99436614173228
 10
33.22562598425197
 20
-10.99017322834646
 10
33.23271653543307
 20
-10.98674409448819
 10
33.24008661417323
 20
-10.98407480314961
 10
33.24774409448819
 20
-10.98216929133858
 10
33.25568897637795
 20
-10.98102362204724
 10
33.26392125984252
 20
-10.98064173228346
 10
33.27213779527559
 20
-10.98101181102362
 10
33.28004330708661
 20
-10.98211811023622
 10
33.28764566929134
 20
-10.98396456692913
 10
33.29493700787402
 20
-10.98654724409449
 10
33.30192125984252
 20
-10.98987007874016
 10
33.30859448818897
 20
-10.99393307086614
 10
33.31495669291338
 20
-10.99873622047244
 10
33.32100393700787
 20
-11.00427559055118
 10
33.32653937007874
 20
-11.0103188976378
 10
33.33133464566929
 20
-11.01666141732283
 10
33.33538976377952
 20
-11.02329527559055
 10
33.33870866141732
 20
-11.03022440944882
 10
33.34129133858268
 20
-11.03744881889764
 10
33.34313385826772
 20
-11.04496850393701
 10
33.34423622047244
 20
-11.05278346456693
 10
33.3446062992126
 20
-11.0608937007874
 10
33.3442283464567
 20
-11.0688188976378
 10
33.34310236220472
 20
-11.07647637795276
 10
33.34121653543307
 20
-11.08386220472441
 10
33.33858267716536
 20
-11.09097637795276
 10
33.33519291338582
 20
-11.09782283464567
 10
33.33104724409448
 20
-11.10439763779527
 10
33.32614566929134
 20
-11.11070472440945
 10
33.32049212598425
 20
-11.11674409448819
 10
33.31480708661417
 20
-11.12180708661417
 10
33.30863779527559
 20
-11.12633070866142
 10
33.30199212598425
 20
-11.13032283464567
 10
33.29487007874016
 20
-11.13377952755905
 10
33.29109842519685
 20
-11.13526377952756
 10
33.28713385826772
 20
-11.13655511811024
 10
33.28298425196851
 20
-11.13764566929134
 10
33.27864173228347
 20
-11.13853543307087
 10
33.2741062992126
 20
-11.13923228346457
 10
33.26938188976378
 20
-11.13972834645669
 10
33.26446456692914
 20
-11.14002755905512
 10
33.25935826771654
 20
-11.14012598425197
 10
33.25415748031496
 20
-11.13990551181102
 10
33.24895669291339
 20
-11.13925196850394
 10
33.24375196850394
 20
-11.13815748031496
 10
33.23854724409449
 20
-11.13662992125984
 10
33.23334251968504
 20
-11.13466141732284
 10
33.22813779527559
 20
-11.13225984251969
 10
33.22293700787402
 20
-11.12942125984252
 10
33.21773622047244
 20
-11.12614566929134
 10
33.21272440944882
 20
-11.12250393700787
 10
33.20809448818898
 20
-11.11854724409449
 10
33.20384645669292
 20
-11.11428346456693
 10
33.19997637795276
 20
-11.1097125984252
 10
33.19648425196851
 20
-11.10482677165354
 10
33.1933779527559
 20
-11.09963385826772
 10
33.19065354330709
 20
-11.09413385826772
 10
33.18831102362205
 20
-11.08832677165354
 10
33.15381496062992
 20
-11.1
 10
33.1570905511811
 20
-11.10827165354331
 10
33.16096456692913
 20
-11.11614960629921
 10
33.16543307086614
 20
-11.12362992125984
 10
33.17049606299213
 20
-11.13071653543307
 10
33.17615354330709
 20
-11.13740551181102
 10
33.18240551181103
 20
-11.14370078740157
 10
33.18925196850394
 20
-11.14960236220472
 10
33.19669291338582
 20
-11.1551062992126
 10
33.20409448818898
 20
-11.1597874015748
 10
33.21185039370079
 20
-11.16392913385827
 10
33.21995275590551
 20
-11.16753149606299
 10
33.22840944881889
 20
-11.17059842519685
 10
33.23727165354331
 20
-11.17303543307087
 10
33.24661023622047
 20
-11.17477165354331
 10
33.25642125984252
 20
-11.17581496062992
 10
33.26670472440945
 20
-11.17616141732283
 10
33.27196850393701
 20
-11.17602362204724
 10
33.2772283464567
 20
-11.1756062992126
 10
33.28249212598426
 20
-11.17491338582677
 10
33.28775984251968
 20
-11.17394488188976
 10
33.29302362204724
 20
-11.17269291338583
 10
33.29829133858268
 20
-11.17116535433071
 10
33.30356299212598
 20
-11.16935826771654
 10
33.30883464566929
 20
-11.16727165354331
  0
LWPOLYLINE
  5
70
330
1F
100
AcDbEntity
  8
Layer 1
 62
     7
370
     9
100
AcDbPolyline
 90
      132
 70
     1
 43
0.0
 10
33.48262204724409
 20
-10.95371653543307
 10
33.50597244094488
 20
-10.86129921259842
 10
33.63077165354331
 20
-10.86129921259842
 10
33.63077165354331
 20
-10.82575590551181
 10
33.47907874015748
 20
-10.82575590551181
 10
33.43947244094488
 20
-10.98064173228346
 10
33.47804330708662
 20
-10.99791338582677
 10
33.48364173228347
 20
-10.99410236220472
 10
33.48951181102363
 20
-10.99079921259843
 10
33.49566141732284
 20
-10.98800787401575
 10
33.50208661417323
 20
-10.98572047244095
 10
33.5087874015748
 20
-10.98394488188976
 10
33.51576771653544
 20
-10.98267716535433
 10
33.52302362204724
 20
-10.98191338582677
 10
33.53055905511811
 20
-10.98166141732283
 10
33.53814566929134
 20
-10.98203543307087
 10
33.54547637795275
 20
-10.98315354330709
 10
33.55255118110236
 20
-10.9850157480315
 10
33.55937007874016
 20
-10.98762598425197
 10
33.56593307086614
 20
-10.99098031496063
 10
33.57224409448819
 20
-10.99508267716535
 10
33.57829527559055
 20
-10.99992519685039
 10
33.58409448818897
 20
-11.0055157480315
 10
33.58956299212598
 20
-11.01176377952756
 10
33.59430708661417
 20
-11.01823622047244
 10
33.5983188976378
 20
-11.02494094488189
 10
33.60160236220472
 20
-11.03187401574803
 10
33.60415748031496
 20
-11.03903543307087
 10
33.60598031496063
 20
-11.04642913385827
 10
33.60707480314961
 20
-11.05405511811024
 10
33.60744094488189
 20
-11.0619094488189
 10
33.60706692913386
 20
-11.07003149606299
 10
33.60595275590551
 20
-11.07782677165354
 10
33.6040905511811
 20
-11.08529527559055
 10
33.60148031496063
 20
-11.09244094488189
 10
33.59812598425197
 20
-11.09925984251968
 10
33.59402755905512
 20
-11.10575196850394
 10
33.58917716535433
 20
-11.11192125984252
 10
33.58358267716535
 20
-11.11776377952756
 10
33.57779921259843
 20
-11.12282677165354
 10
33.57159842519685
 20
-11.12735433070866
 10
33.5649842519685
 20
-11.13133858267716
 10
33.55796062992126
 20
-11.13477952755906
 10
33.55424015748032
 20
-11.13627165354331
 10
33.55031102362205
 20
-11.13756299212598
 10
33.5461811023622
 20
-11.13865354330709
 10
33.54184645669292
 20
-11.13954330708661
 10
33.53730708661417
 20
-11.14023622047244
 10
33.53255905511811
 20
-11.14073228346457
 10
33.5276062992126
 20
-11.14102755905512
 10
33.52244881889764
 20
-11.14112598425197
 10
33.51718897637795
 20
-11.14090551181102
 10
33.51193700787402
 20
-11.14024015748032
 10
33.50669291338583
 20
-11.13912992125984
 10
33.50145275590551
 20
-11.13757480314961
 10
33.49622440944882
 20
-11.13557480314961
 10
33.49100393700787
 20
-11.13313385826772
 10
33.48579133858268
 20
-11.13024409448819
 10
33.48058661417323
 20
-11.1269094488189
 10
33.47557480314961
 20
-11.12322047244094
 10
33.47094094488189
 20
-11.11925984251969
 10
33.46668897637795
 20
-11.11503543307087
 10
33.46282283464567
 20
-11.11053543307087
 10
33.45933070866142
 20
-11.10577165354331
 10
33.45622440944882
 20
-11.10073228346457
 10
33.45349606299212
 20
-11.09542125984252
 10
33.45114960629921
 20
-11.08983858267717
 10
33.41663385826772
 20
-11.101
 10
33.42003149606299
 20
-11.10936220472441
 10
33.42398818897638
 20
-11.11729921259843
 10
33.42850393700787
 20
-11.12481889763779
 10
33.43358267716535
 20
-11.13192125984252
 10
33.43922047244094
 20
-11.13859842519685
 10
33.44542125984252
 20
-11.14485433070866
 10
33.45218503937008
 20
-11.15069291338583
 10
33.45951181102362
 20
-11.1561062992126
 10
33.46731102362205
 20
-11.16104724409449
 10
33.47528346456693
 20
-11.16533070866142
 10
33.48342913385827
 20
-11.16895275590551
 10
33.49175196850393
 20
-11.17192125984252
 10
33.50024409448819
 20
-11.17422834645669
 10
33.50891338582677
 20
-11.17587795275591
 10
33.51775590551181
 20
-11.17686614173228
 10
33.52677559055118
 20
-11.1771968503937
 10
33.53878346456693
 20
-11.17665354330709
 10
33.55032677165354
 20
-11.17501968503937
 10
33.56141732283464
 20
-11.1723031496063
 10
33.57204330708662
 20
-11.16849606299213
 10
33.58221259842519
 20
-11.16360236220472
 10
33.59192125984252
 20
-11.15761811023622
 10
33.60117322834645
 20
-11.15055118110236
 10
33.609968503937
 20
-11.14239763779528
 10
33.61794488188976
 20
-11.13354724409449
 10
33.62485433070866
 20
-11.12425984251968
 10
33.6306968503937
 20
-11.11453543307087
 10
33.63548031496063
 20
-11.10437401574803
 10
33.6391968503937
 20
-11.09377952755906
 10
33.64185039370079
 20
-11.08274409448819
 10
33.64344094488189
 20
-11.07127559055118
 10
33.64397244094488
 20
-11.05936614173228
 10
33.64344881889764
 20
-11.04751968503937
 10
33.64188188976378
 20
-11.03617716535433
 10
33.63926771653544
 20
-11.02533070866142
 10
33.6356062992126
 20
-11.0149842519685
 10
33.63089763779528
 20
-11.00514173228346
 10
33.62514173228347
 20
-10.99579921259843
 10
33.61833464566929
 20
-10.98696062992126
 10
33.61048031496063
 20
-10.97862204724409
 10
33.60646850393701
 20
-10.97491338582677
 10
33.60229921259842
 20
-10.97140551181102
 10
33.59797244094488
 20
-10.9680905511811
 10
33.5934842519685
 20
-10.96497637795276
 10
33.58883858267716
 20
-10.96205511811024
 10
33.58403543307087
 20
-10.95933858267717
 10
33.57907086614173
 20
-10.95681496062992
 10
33.57394488188977
 20
-10.95449606299213
 10
33.56871653543307
 20
-10.9524094488189
 10
33.56344488188977
 20
-10.95060236220472
 10
33.55812598425197
 20
-10.94907480314961
 10
33.55276377952756
 20
-10.94782677165354
 10
33.54736220472441
 20
-10.94685433070866
 10
33.54191338582677
 20
-10.94616141732283
 10
33.5364251968504
 20
-10.94574409448819
 10
33.53089763779528
 20
-10.9456062992126
 10
33.52525984251969
 20
-10.94573228346457
 10
33.51951181102362
 20
-10.94611417322835
 10
33.51365354330709
 20
-10.94674803149606
 10
33.50767716535433
 20
-10.94763779527559
 10
33.50158661417323
 20
-10.94877952755905
 10
33.49538188976378
 20
-10.95017322834646
 10
33.48905905511811
 20
-10.95181889763779
 10
33.48262204724409
 20
-10.95371653543307
  0
LWPOLYLINE
  5
71
330
1F
100
AcDbEntity
  8
Layer 1
 62
     7
370
     9
100
AcDbPolyline
 90
      155
 70
     1
 43
0.0
 10
33.99207480314961
 20
-11.17008661417323
 10
34.0276062992126
 20
-11.17008661417323
 10
34.0276062992126
 20
-11.03042125984252
 10
34.02731496062992
 20
-11.02114566929134
 10
34.02644488188977
 20
-11.01231102362205
 10
34.02499606299212
 20
-11.0039094488189
 10
34.02296850393701
 20
-10.99594881889764
 10
34.02036220472441
 20
-10.98842519685039
 10
34.01717716535433
 20
-10.98133858267717
 10
34.01341338582677
 20
-10.97468897637795
 10
34.00907480314961
 20
-10.96847637795276
 10
34.00665354330709
 20
-10.9655
 10
34.00407874015748
 20
-10.96267322834646
 10
34.00135433070866
 20
-10.96
 10
33.99847637795276
 20
-10.95748031496063
 10
33.99545275590551
 20
-10.95511023622047
 10
33.99227559055118
 20
-10.95288976377953
 10
33.98894881889764
 20
-10.9508188976378
 10
33.98547244094488
 20
-10.94889763779527
 10
33.98178346456693
 20
-10.94717322834646
 10
33.97781102362205
 20
-10.9456811023622
 10
33.97354724409449
 20
-10.94441732283465
 10
33.96899606299213
 20
-10.94338582677165
 10
33.96415748031496
 20
-10.94258267716535
 10
33.95903543307087
 20
-10.94200787401575
 10
33.9536220472441
 20
-10.94166535433071
 10
33.94792519685039
 20
-10.94155118110236
 10
33.94218503937008
 20
-10.94174803149606
 10
33.93662598425197
 20
-10.94234251968504
 10
33.93124803149606
 20
-10.94333464566929
 10
33.92605118110236
 20
-10.94472047244095
 10
33.92103543307087
 20
-10.9465
 10
33.91620472440945
 20
-10.9486811023622
 10
33.91155118110236
 20
-10.95125590551181
 10
33.90708267716536
 20
-10.95422440944882
 10
33.90320472440945
 20
-10.9571968503937
 10
33.8995
 20
-10.96038976377953
 10
33.89597244094488
 20
-10.96379921259843
 10
33.89261811023622
 20
-10.96742519685039
 10
33.88943700787402
 20
-10.97126377952756
 10
33.88642913385826
 20
-10.97531102362205
 10
33.88360236220473
 20
-10.97957086614173
 10
33.88094881889764
 20
-10.98403543307087
 10
33.87155118110236
 20
-10.96847637795276
 10
33.86913385826772
 20
-10.9655
 10
33.86656692913386
 20
-10.96267322834646
 10
33.86384645669291
 20
-10.96
 10
33.86097244094488
 20
-10.95748031496063
 10
33.85794881889764
 20
-10.95511023622047
 10
33.85477165354331
 20
-10.95288976377953
 10
33.85144488188976
 20
-10.9508188976378
 10
33.84796456692914
 20
-10.94889763779527
 10
33.84427165354331
 20
-10.94717322834646
 10
33.84029527559055
 20
-10.9456811023622
 10
33.83603149606299
 20
-10.94441732283465
 10
33.83148031496063
 20
-10.94338582677165
 10
33.82664566929134
 20
-10.94258267716535
 10
33.82151968503937
 20
-10.94200787401575
 10
33.81611023622047
 20
-10.94166535433071
 10
33.81041338582677
 20
-10.94155118110236
 10
33.80466929133858
 20
-10.94174803149606
 10
33.79911023622047
 20
-10.94234251968504
 10
33.7937283464567
 20
-10.94333464566929
 10
33.78853149606299
 20
-10.94472047244095
 10
33.7835157480315
 20
-10.9465
 10
33.77868110236221
 20
-10.9486811023622
 10
33.77402755905512
 20
-10.95125590551181
 10
33.76955511811023
 20
-10.95422440944882
 10
33.76586614173228
 20
-10.95705511811024
 10
33.76233464566929
 20
-10.96007480314961
 10
33.75895669291339
 20
-10.96328346456693
 10
33.75574015748032
 20
-10.96668503937008
 10
33.7526811023622
 20
-10.97028346456693
 10
33.74977952755906
 20
-10.97407480314961
 10
33.74703937007874
 20
-10.97806299212598
 10
33.74446062992126
 20
-10.98225196850394
 10
33.74446062992126
 20
-10.94662598425197
 10
33.70892913385827
 20
-10.94662598425197
 10
33.70892913385827
 20
-11.17008661417323
 10
33.74446062992126
 20
-11.17008661417323
 10
33.74446062992126
 20
-11.05573622047244
 10
33.74527952755906
 20
-11.04906692913386
 10
33.74635433070866
 20
-11.04265748031496
 10
33.74768503937008
 20
-11.03651181102362
 10
33.74927165354331
 20
-11.03062204724409
 10
33.75111023622047
 20
-11.02498818897638
 10
33.75320078740157
 20
-11.0196062992126
 10
33.75555118110236
 20
-11.01448031496063
 10
33.75815354330709
 20
-11.00960236220472
 10
33.76027165354331
 20
-11.00612598425197
 10
33.76255905511811
 20
-11.00280708661417
 10
33.76502362204725
 20
-10.99964960629921
 10
33.76766535433071
 20
-10.99664960629921
 10
33.77047637795275
 20
-10.99380708661417
 10
33.77346456692914
 20
-10.99112598425197
 10
33.77662992125984
 20
-10.98860236220473
 10
33.77997244094488
 20
-10.98624015748032
 10
33.78343307086614
 20
-10.98409448818898
 10
33.78695669291339
 20
-10.98223622047244
 10
33.79054330708662
 20
-10.98066141732284
 10
33.79418897637795
 20
-10.97937795275591
 10
33.79790157480315
 20
-10.97837795275591
 10
33.80167322834646
 20
-10.97766535433071
 10
33.80551181102362
 20
-10.97723622047244
 10
33.80941338582677
 20
-10.97709448818898
 10
33.81676771653543
 20
-10.9773937007874
 10
33.82311023622047
 20
-10.97829527559055
 10
33.82590157480315
 20
-10.97897244094488
 10
33.82843700787402
 20
-10.97979921259843
 10
33.83072440944882
 20
-10.98077952755905
 10
33.83275984251969
 20
-10.98191338582677
 10
33.83787401574803
 20
-10.98570078740157
 10
33.8423031496063
 20
-10.99013385826772
 10
33.84605118110236
 20
-10.99522047244094
 10
33.84911417322834
 20
-11.00095669291339
 10
33.8515
 20
-11.00734645669291
 10
33.85320078740158
 20
-11.01438582677165
 10
33.85422440944882
 20
-11.02207480314961
 10
33.85456299212598
 20
-11.03042125984252
 10
33.85456299212598
 20
-11.17008661417323
 10
33.89007874015748
 20
-11.17008661417323
 10
33.89007874015748
 20
-11.03042125984252
 10
33.88984251968504
 20
-11.02187007874016
 10
33.89566141732283
 20
-11.00960236220472
 10
33.89778346456693
 20
-11.00612598425197
 10
33.90007874015748
 20
-11.00280708661417
 10
33.90254330708662
 20
-10.99964960629921
 10
33.90518503937008
 20
-10.99664960629921
 10
33.908
 20
-10.99380708661417
 10
33.91098818897638
 20
-10.99112598425197
 10
33.91414960629921
 20
-10.98860236220473
 10
33.9174842519685
 20
-10.98624015748032
 10
33.92094094488189
 20
-10.98409448818898
 10
33.92446062992126
 20
-10.98223622047244
 10
33.92804330708661
 20
-10.98066141732284
 10
33.93169291338582
 20
-10.97937795275591
 10
33.93540551181103
 20
-10.97837795275591
 10
33.93918110236221
 20
-10.97766535433071
 10
33.94301968503937
 20
-10.97723622047244
 10
33.94692125984252
 20
-10.97709448818898
 10
33.95427952755905
 20
-10.9773937007874
 10
33.96061811023622
 20
-10.97829527559055
 10
33.96340551181103
 20
-10.97897244094488
 10
33.96594094488189
 20
-10.97979921259843
 10
33.96822440944882
 20
-10.98077952755905
 10
33.97025196850394
 20
-10.98191338582677
 10
33.97536614173228
 20
-10.98570078740157
 10
33.97979921259842
 20
-10.99013385826772
 10
33.98354724409449
 20
-10.99522047244094
 10
33.98661811023622
 20
-11.00095669291339
 10
33.98900393700787
 20
-11.00734645669291
 10
33.99070866141732
 20
-11.01438582677165
 10
33.99173228346456
 20
-11.02207480314961
 10
33.99207480314961
 20
-11.03042125984252
 10
33.99207480314961
 20
-11.17008661417323
  0
LWPOLYLINE
  5
72
330
1F
100
AcDbEntity
  8
Layer 1
 62
     7
370
     9
100
AcDbPolyline
 90
      155
 70
     1
 43
0.0
 10
34.37925196850394
 20
-11.17008661417323
 10
34.41478346456693
 20
-11.17008661417323
 10
34.41478346456693
 20
-11.03042125984252
 10
34.41449212598425
 20
-11.02114566929134
 10
34.4136220472441
 20
-11.01231102362205
 10
34.41217322834645
 20
-11.0039094488189
 10
34.41014566929134
 20
-10.99594881889764
 10
34.40753937007874
 20
-10.98842519685039
 10
34.40435433070866
 20
-10.98133858267717
 10
34.40059448818898
 20
-10.97468897637795
 10
34.39625590551181
 20
-10.96847637795276
 10
34.39383070866142
 20
-10.9655
 10
34.39125984251969
 20
-10.96267322834646
 10
34.38853543307086
 20
-10.96
 10
34.38566141732284
 20
-10.95748031496063
 10
34.38263779527559
 20
-10.95511023622047
 10
34.37946062992126
 20
-10.95288976377953
 10
34.37613385826771
 20
-10.9508188976378
 10
34.37265354330709
 20
-10.94889763779527
 10
34.36896456692914
 20
-10.94717322834646
 10
34.36498818897638
 20
-10.9456811023622
 10
34.36072440944882
 20
-10.94441732283465
 10
34.35617322834646
 20
-10.94338582677165
 10
34.35133464566929
 20
-10.94258267716535
 10
34.3462125984252
 20
-10.94200787401575
 10
34.34079921259843
 20
-10.94166535433071
 10
34.33510236220472
 20
-10.94155118110236
 10
34.32936220472441
 20
-10.94174803149606
 10
34.3238031496063
 20
-10.94234251968504
 10
34.31842519685039
 20
-10.94333464566929
 10
34.31322834645669
 20
-10.94472047244095
 10
34.3082125984252
 20
-10.9465
 10
34.30338188976378
 20
-10.9486811023622
 10
34.29872834645669
 20
-10.95125590551181
 10
34.29425984251969
 20
-10.95422440944882
 10
34.29038188976378
 20
-10.9571968503937
 10
34.2866811023622
 20
-10.96038976377953
 10
34.28315354330709
 20
-10.96379921259843
 10
34.2798031496063
 20
-10.96742519685039
 10
34.27662598425197
 20
-10.97126377952756
 10
34.27362598425197
 20
-10.97531102362205
 10
34.27079921259843
 20
-10.97957086614173
 10
34.26814566929134
 20
-10.98403543307087
 10
34.25872834645669
 20
-10.96847637795276
 10
34.25631496062992
 20
-10.9655
 10
34.25374803149607
 20
-10.96267322834646
 10
34.25102755905512
 20
-10.96
 10
34.24815748031496
 20
-10.95748031496063
 10
34.24512992125985
 20
-10.95511023622047
 10
34.24195275590551
 20
-10.95288976377953
 10
34.23862204724409
 20
-10.9508188976378
 10
34.23514173228347
 20
-10.94889763779527
 10
34.23144881889764
 20
-10.94717322834646
 10
34.22747244094488
 20
-10.9456811023622
 10
34.22320866141732
 20
-10.94441732283465
 10
34.21865748031496
 20
-10.94338582677165
 10
34.21382283464567
 20
-10.94258267716535
 10
34.2086968503937
 20
-10.94200787401575
 10
34.2032874015748
 20
-10.94166535433071
 10
34.1975905511811
 20
-10.94155118110236
 10
34.19184645669291
 20
-10.94174803149606
 10
34.1862874015748
 20
-10.94234251968504
 10
34.18090944881889
 20
-10.94333464566929
 10
34.1757125984252
 20
-10.94472047244095
 10
34.1706968503937
 20
-10.9465
 10
34.16586220472441
 20
-10.9486811023622
 10
34.16120866141732
 20
-10.95125590551181
 10
34.15673228346456
 20
-10.95422440944882
 10
34.15304330708661
 20
-10.95705511811024
 10
34.14951181102362
 20
-10.96007480314961
 10
34.14613779527559
 20
-10.96328346456693
 10
34.14292125984252
 20
-10.96668503937008
 10
34.13986220472441
 20
-10.97028346456693
 10
34.13696062992126
 20
-10.97407480314961
 10
34.13422047244094
 20
-10.97806299212598
 10
34.13163779527559
 20
-10.98225196850394
 10
34.13163779527559
 20
-10.94662598425197
 10
34.0961062992126
 20
-10.94662598425197
 10
34.0961062992126
 20
-11.17008661417323
 10
34.13163779527559
 20
-11.17008661417323
 10
34.13163779527559
 20
-11.05573622047244
 10
34.13246062992126
 20
-11.04906692913386
 10
34.13353543307087
 20
-11.04265748031496
 10
34.13486614173228
 20
-11.03651181102362
 10
34.13644881889764
 20
-11.03062204724409
 10
34.13829133858268
 20
-11.02498818897638
 10
34.14038582677166
 20
-11.0196062992126
 10
34.14274015748032
 20
-11.01448031496063
 10
34.14534645669291
 20
-11.00960236220472
 10
34.14745669291339
 20
-11.00612598425197
 10
34.14974409448819
 20
-11.00280708661417
 10
34.15220472440945
 20
-10.99964960629921
 10
34.15484251968504
 20
-10.99664960629921
 10
34.15765354330708
 20
-10.99380708661417
 10
34.16064173228347
 20
-10.99112598425197
 10
34.16380708661417
 20
-10.98860236220473
 10
34.16714960629921
 20
-10.98624015748032
 10
34.17061023622047
 20
-10.98409448818898
 10
34.17413385826772
 20
-10.98223622047244
 10
34.17772047244095
 20
-10.98066141732284
 10
34.18137007874016
 20
-10.97937795275591
 10
34.18507874015748
 20
-10.97837795275591
 10
34.18885433070866
 20
-10.97766535433071
 10
34.19268897637795
 20
-10.97723622047244
 10
34.1965905511811
 20
-10.97709448818898
 10
34.20394881889764
 20
-10.9773937007874
 10
34.21029133858268
 20
-10.97829527559055
 10
34.21308267716535
 20
-10.97897244094488
 10
34.21561811023622
 20
-10.97979921259843
 10
34.21790551181103
 20
-10.98077952755905
 10
34.21994094488189
 20
-10.98191338582677
 10
34.22505118110237
 20
-10.98570078740157
 10
34.22948031496063
 20
-10.99013385826772
 10
34.23322834645669
 20
-10.99522047244094
 10
34.23629527559055
 20
-11.00095669291339
 10
34.23867716535433
 20
-11.00734645669291
 10
34.24038188976378
 20
-11.01438582677165
 10
34.24140551181102
 20
-11.02207480314961
 10
34.24174409448819
 20
-11.03042125984252
 10
34.24174409448819
 20
-11.17008661417323
 10
34.27725590551181
 20
-11.17008661417323
 10
34.27725590551181
 20
-11.03042125984252
 10
34.27701968503937
 20
-11.02187007874016
 10
34.28283858267717
 20
-11.00960236220472
 10
34.28496062992126
 20
-11.00612598425197
 10
34.28725590551181
 20
-11.00280708661417
 10
34.28972440944882
 20
-10.99964960629921
 10
34.29236220472441
 20
-10.99664960629921
 10
34.29517716535433
 20
-10.99380708661417
 10
34.29816535433071
 20
-10.99112598425197
 10
34.30132677165354
 20
-10.98860236220473
 10
34.30466141732283
 20
-10.98624015748032
 10
34.30811811023622
 20
-10.98409448818898
 10
34.31163779527559
 20
-10.98223622047244
 10
34.31522440944882
 20
-10.98066141732284
 10
34.31887401574803
 20
-10.97937795275591
 10
34.32258661417323
 20
-10.97837795275591
 10
34.32636220472441
 20
-10.97766535433071
 10
34.33020078740157
 20
-10.97723622047244
 10
34.33410236220472
 20
-10.97709448818898
 10
34.34145669291338
 20
-10.9773937007874
 10
34.34779921259842
 20
-10.97829527559055
 10
34.3505905511811
 20
-10.97897244094488
 10
34.35312598425197
 20
-10.97979921259843
 10
34.35541338582677
 20
-10.98077952755905
 10
34.35744881889764
 20
-10.98191338582677
 10
34.36255511811024
 20
-10.98570078740157
 10
34.3669842519685
 20
-10.99013385826772
 10
34.37072834645669
 20
-10.99522047244094
 10
34.37379527559055
 20
-11.00095669291339
 10
34.3761811023622
 20
-11.00734645669291
 10
34.37788582677165
 20
-11.01438582677165
 10
34.3789094488189
 20
-11.02207480314961
 10
34.37925196850394
 20
-11.03042125984252
 10
34.37925196850394
 20
-11.17008661417323
  0
LWPOLYLINE
  5
73
330
1F
100
AcDbEntity
  8
Layer 1
 62
     7
370
    18
100
AcDbPolyline
 90
        4
 70
     1
 43
0.0
 10
24.26946850393701
 20
-9.899633858267716
 10
24.23999212598425
 20
-9.891185039370079
 10
24.24863385826772
 20
-9.920602362204724
 10
24.26946850393701
 20
-9.899633858267716
  0
LWPOLYLINE
  5
74
330
1F
100
AcDbEntity
  8
Layer 1
 62
     7
370
    18
100
AcDbPolyline
 90
        4
 70
     1
 43
0.0
 10
26.42233070866142
 20
-12.03825196850394
 10
26.43097637795276
 20
-12.06766929133858
 10
26.4015
 20
-12.05922047244094
 10
26.42233070866142
 20
-12.03825196850394
  0
LWPOLYLINE
  5
75
330
1F
100
AcDbEntity
  8
Layer 1
 62
     7
370
    18
100
AcDbPolyline
 90
        2
 70
     0
 43
0.0
 10
24.23252755905512
 20
-9.885992125984252
 10
26.43622047244094
 20
-12.07510236220472
  0
LWPOLYLINE
  5
76
330
1F
100
AcDbEntity
  8
Layer 1
 62
     7
370
     9
100
AcDbPolyline
 90
        7
 70
     1
 43
0.0
 10
24.04433464566929
 20
-11.46637401574803
 10
24.07983070866142
 20
-11.46637401574803
 10
24.07983070866142
 20
-11.11694881889764
 10
23.99458267716535
 20
-11.12609448818898
 10
23.99458267716535
 20
-11.15707480314961
 10
24.04433464566929
 20
-11.15707480314961
 10
24.04433464566929
 20
-11.46637401574803
  0
LWPOLYLINE
  5
77
330
1F
100
AcDbEntity
  8
Layer 1
 62
     7
370
     9
100
AcDbPolyline
 90
      125
 70
     1
 43
0.0
 10
24.29576771653543
 20
-11.46255511811024
 10
24.30095275590551
 20
-11.46023228346457
 10
24.30598031496063
 20
-11.45770078740157
 10
24.31084645669291
 20
-11.45496456692913
 10
24.31555118110236
 20
-11.45201968503937
 10
24.32009842519685
 20
-11.44887007874016
 10
24.3244842519685
 20
-11.44551181102362
 10
24.32871653543307
 20
-11.44194488188976
 10
24.33279133858268
 20
-11.43817322834646
 10
24.34082283464567
 20
-11.42964960629921
 10
24.34778346456693
 20
-11.42065354330709
 10
24.35367322834646
 20
-11.4111811023622
 10
24.35849212598425
 20
-11.40123228346457
 10
24.36224409448819
 20
-11.39080708661417
 10
24.36492125984252
 20
-11.37990551181102
 10
24.36653149606299
 20
-11.36852362204724
 10
24.36706692913386
 20
-11.35666929133858
 10
24.36652362204724
 20
-11.3448031496063
 10
24.3648937007874
 20
-11.33339763779528
 10
24.36217716535433
 20
-11.32245275590551
 10
24.35837401574803
 20
-11.31196850393701
 10
24.3534842519685
 20
-11.30194094488189
 10
24.34750787401575
 20
-11.29237795275591
 10
24.34044881889764
 20
-11.28327559055118
 10
24.33229921259842
 20
-11.27463385826772
 10
24.3238779527559
 20
-11.2671811023622
 10
24.31491732283465
 20
-11.26061417322835
 10
24.30542125984252
 20
-11.25493700787402
 10
24.29538188976378
 20
-11.25014566929134
 10
24.28480708661417
 20
-11.24624409448819
 10
24.27369291338583
 20
-11.24322834645669
 10
24.26203937007874
 20
-11.2411062992126
 10
24.24985039370079
 20
-11.23987007874016
 10
24.23461417322835
 20
-11.249
 10
24.34270078740158
 20
-11.12101968503937
 10
24.15696850393701
 20
-11.12101968503937
 10
24.15696850393701
 20
-11.15656692913386
 10
24.27065354330709
 20
-11.15656692913386
 10
24.16611417322835
 20
-11.27845275590551
 10
24.19300787401575
 20
-11.3002874015748
 10
24.19924409448819
 20
-11.29457874015748
 10
24.20576377952756
 20
-11.28962992125984
 10
24.21256692913386
 20
-11.28544094488189
 10
24.21965354330709
 20
-11.28201181102362
 10
24.22702362204724
 20
-11.27934251968504
 10
24.23468110236221
 20
-11.27743700787402
 10
24.24262204724409
 20
-11.27629133858268
 10
24.25085039370079
 20
-11.2759094488189
 10
24.25906692913386
 20
-11.27627952755905
 10
24.26697244094488
 20
-11.27738582677165
 10
24.2745748031496
 20
-11.27923622047244
 10
24.28186614173228
 20
-11.28182283464567
 10
24.28885039370079
 20
-11.28514566929134
 10
24.29552362204725
 20
-11.28920866141732
 10
24.30188582677165
 20
-11.29400787401575
 10
24.30793307086614
 20
-11.29954330708661
 10
24.31346850393701
 20
-11.30558661417323
 10
24.31826771653543
 20
-11.31192913385827
 10
24.32232677165354
 20
-11.31856299212598
 10
24.32564960629921
 20
-11.32549606299213
 10
24.32823228346457
 20
-11.33272047244095
 10
24.33007480314961
 20
-11.34024015748031
 10
24.3311811023622
 20
-11.34805118110236
 10
24.33155118110236
 20
-11.35615748031496
 10
24.33117322834646
 20
-11.36408267716535
 10
24.33004330708662
 20
-11.37174015748031
 10
24.32815748031496
 20
-11.37912598425197
 10
24.32551968503937
 20
-11.38624409448819
 10
24.32212992125984
 20
-11.3930905511811
 10
24.31798818897638
 20
-11.39967322834646
 10
24.3130905511811
 20
-11.4059842519685
 10
24.30744094488189
 20
-11.41202755905512
 10
24.30174409448819
 20
-11.4170905511811
 10
24.29557874015748
 20
-11.42161417322835
 10
24.28893700787401
 20
-11.42559842519685
 10
24.28181889763779
 20
-11.42904724409449
 10
24.27803937007874
 20
-11.43053149606299
 10
24.27407480314961
 20
-11.4318188976378
 10
24.26992125984252
 20
-11.4329094488189
 10
24.26557874015748
 20
-11.4338031496063
 10
24.26104330708661
 20
-11.43449606299213
 10
24.25632283464567
 20
-11.43499212598425
 10
24.25140551181102
 20
-11.43529133858268
 10
24.2463031496063
 20
-11.43538976377953
 10
24.24109842519685
 20
-11.43516929133858
 10
24.2358937007874
 20
-11.4345157480315
 10
24.23068897637795
 20
-11.43342125984252
 10
24.2254842519685
 20
-11.4318937007874
 10
24.22027952755905
 20
-11.42992519685039
 10
24.21507480314961
 20
-11.42752362204724
 10
24.20987007874016
 20
-11.42468503937008
 10
24.20466535433071
 20
-11.4214094488189
 10
24.19965748031496
 20
-11.41776771653543
 10
24.19502755905512
 20
-11.41381496062992
 10
24.19078346456693
 20
-11.40955118110236
 10
24.18691732283465
 20
-11.40497637795276
 10
24.18342913385827
 20
-11.40009448818898
 10
24.18032677165354
 20
-11.39490157480315
 10
24.17760236220472
 20
-11.38940157480315
 10
24.17525984251969
 20
-11.38359448818898
 10
24.14074409448819
 20
-11.39526771653543
 10
24.14402755905512
 20
-11.40354330708661
 10
24.14790157480315
 20
-11.41142125984252
 10
24.15237007874016
 20
-11.41890551181102
 10
24.15743307086614
 20
-11.42598818897638
 10
24.1630905511811
 20
-11.43267716535433
 10
24.16933858267717
 20
-11.43897244094488
 10
24.17618503937008
 20
-11.44487007874016
 10
24.18362598425197
 20
-11.45037401574803
 10
24.19103543307087
 20
-11.45505511811024
 10
24.19879133858268
 20
-11.45920078740157
 10
24.2068937007874
 20
-11.4628031496063
 10
24.21535433070866
 20
-11.46586220472441
 10
24.22420866141732
 20
-11.46829921259843
 10
24.23353937007874
 20
-11.47003937007874
 10
24.24335039370079
 20
-11.47108267716535
 10
24.25363385826772
 20
-11.47142913385827
 10
24.25890157480315
 20
-11.47129133858268
 10
24.26416929133858
 20
-11.47087401574803
 10
24.26943700787401
 20
-11.4701811023622
 10
24.27470078740157
 20
-11.4692125984252
 10
24.27996456692913
 20
-11.46796456692913
 10
24.28523228346457
 20
-11.46644094488189
 10
24.2905
 20
-11.46463779527559
 10
24.29576771653543
 20
-11.46255511811024
  0
LWPOLYLINE
  5
78
330
1F
100
AcDbEntity
  8
Layer 1
 62
     7
370
     9
100
AcDbPolyline
 90
      132
 70
     1
 43
0.0
 10
24.46955511811024
 20
-11.249
 10
24.49290157480315
 20
-11.15656692913386
 10
24.61772047244094
 20
-11.15656692913386
 10
24.61772047244094
 20
-11.12101968503937
 10
24.46600787401575
 20
-11.12101968503937
 10
24.42642125984252
 20
-11.2759094488189
 10
24.46497244094488
 20
-11.2931811023622
 10
24.47057086614173
 20
-11.28937401574803
 10
24.47644094488189
 20
-11.28607480314961
 10
24.4825905511811
 20
-11.28327952755905
 10
24.48901574803149
 20
-11.28099212598425
 10
24.49571653543307
 20
-11.2792125984252
 10
24.5026968503937
 20
-11.27794094488189
 10
24.50995275590551
 20
-11.2771811023622
 10
24.51748818897638
 20
-11.27692519685039
 10
24.52507480314961
 20
-11.27729921259843
 10
24.53240551181102
 20
-11.27842125984252
 10
24.53948031496063
 20
-11.2802874015748
 10
24.54629921259842
 20
-11.28290157480315
 10
24.55286220472441
 20
-11.28625984251969
 10
24.55917322834646
 20
-11.29036220472441
 10
24.56522440944882
 20
-11.29520866141732
 10
24.57102362204724
 20
-11.30079921259843
 10
24.5765
 20
-11.30704330708661
 10
24.58124409448819
 20
-11.31351968503937
 10
24.58525590551181
 20
-11.32022047244094
 10
24.58853937007874
 20
-11.32714960629921
 10
24.5910905511811
 20
-11.33430708661417
 10
24.59291338582677
 20
-11.34170078740157
 10
24.59400393700787
 20
-11.34932283464567
 10
24.59437007874016
 20
-11.35717716535433
 10
24.59399606299213
 20
-11.36529921259842
 10
24.59288188976378
 20
-11.37309448818898
 10
24.59101968503937
 20
-11.38056299212598
 10
24.5884094488189
 20
-11.38770472440945
 10
24.58505511811024
 20
-11.39452362204724
 10
24.58095669291339
 20
-11.40101968503937
 10
24.57611023622047
 20
-11.40718503937008
 10
24.5705157480315
 20
-11.41303149606299
 10
24.56473228346457
 20
-11.41809842519685
 10
24.55853937007874
 20
-11.42262992125984
 10
24.55192519685039
 20
-11.42661811023622
 10
24.5448937007874
 20
-11.43006299212598
 10
24.54117716535433
 20
-11.43154724409449
 10
24.53725590551181
 20
-11.43283464566929
 10
24.53312598425197
 20
-11.43392125984252
 10
24.52879133858268
 20
-11.43481102362205
 10
24.52425196850394
 20
-11.43550393700787
 10
24.51950787401575
 20
-11.436
 10
24.51455511811024
 20
-11.43629527559055
 10
24.5093937007874
 20
-11.4363937007874
 10
24.50412992125984
 20
-11.43617322834646
 10
24.49887401574803
 20
-11.43550393700787
 10
24.49362598425197
 20
-11.4343937007874
 10
24.48838582677165
 20
-11.43283858267717
 10
24.48315748031496
 20
-11.43084251968504
 10
24.47793700787402
 20
-11.42839763779527
 10
24.47272440944882
 20
-11.42550787401575
 10
24.46751968503937
 20
-11.42217322834646
 10
24.46250787401575
 20
-11.4184842519685
 10
24.4578779527559
 20
-11.41452362204724
 10
24.45362598425197
 20
-11.41029921259842
 10
24.44975590551181
 20
-11.40579921259843
 10
24.44626377952756
 20
-11.40103543307087
 10
24.44315748031496
 20
-11.39599606299213
 10
24.44042519685039
 20
-11.39068503937008
 10
24.43807874015748
 20
-11.38510236220472
 10
24.40358267716535
 20
-11.39626771653543
 10
24.40697244094488
 20
-11.40463385826772
 10
24.41092519685039
 20
-11.41257480314961
 10
24.41544094488189
 20
-11.42009448818898
 10
24.42051574803149
 20
-11.42719291338583
 10
24.42615354330709
 20
-11.43387007874016
 10
24.43235826771653
 20
-11.44012598425197
 10
24.43912598425197
 20
-11.44596062992126
 10
24.44646062992126
 20
-11.45137401574803
 10
24.45425196850394
 20
-11.45631496062992
 10
24.46222047244094
 20
-11.46059448818898
 10
24.47036614173228
 20
-11.46422047244094
 10
24.47868503937008
 20
-11.46718897637795
 10
24.48717716535433
 20
-11.46949606299213
 10
24.49584251968504
 20
-11.47114566929134
 10
24.50468897637795
 20
-11.47213385826772
 10
24.51370472440945
 20
-11.47246456692913
 10
24.5257125984252
 20
-11.47192125984252
 10
24.53725984251968
 20
-11.47029133858268
 10
24.54835039370079
 20
-11.46757480314961
 10
24.5589842519685
 20
-11.46376771653543
 10
24.56915354330709
 20
-11.45887401574803
 10
24.57887007874016
 20
-11.4528937007874
 10
24.5881220472441
 20
-11.44582283464567
 10
24.59691732283465
 20
-11.43766535433071
 10
24.60488582677165
 20
-11.42881496062992
 10
24.61179527559055
 20
-11.41952755905512
 10
24.61763779527559
 20
-11.4098031496063
 10
24.62242125984252
 20
-11.39964173228346
 10
24.62613779527559
 20
-11.38904330708661
 10
24.62879527559055
 20
-11.37800787401575
 10
24.63038976377953
 20
-11.36653937007874
 10
24.63092125984252
 20
-11.35462992125984
 10
24.63039763779528
 20
-11.34278346456693
 10
24.62882677165354
 20
-11.33144094488189
 10
24.6262125984252
 20
-11.32059448818898
 10
24.62254724409449
 20
-11.31025196850394
 10
24.61783858267717
 20
-11.3004094488189
 10
24.61207874015748
 20
-11.29106692913386
 10
24.60527559055118
 20
-11.28222834645669
 10
24.59742519685039
 20
-11.27388976377953
 10
24.59341338582677
 20
-11.27018503937008
 10
24.58924409448819
 20
-11.26667322834646
 10
24.58491732283465
 20
-11.26336220472441
 10
24.58042913385827
 20
-11.26024803149606
 10
24.57578346456693
 20
-11.25733070866142
 10
24.57097637795276
 20
-11.25461023622047
 10
24.56600787401575
 20
-11.2520905511811
 10
24.56087795275591
 20
-11.24976377952756
 10
24.55565354330709
 20
-11.24767716535433
 10
24.55038582677165
 20
-11.24586614173228
 10
24.54507086614173
 20
-11.24433858267717
 10
24.53970866141732
 20
-11.2430905511811
 10
24.5343031496063
 20
-11.24211811023622
 10
24.52885433070866
 20
-11.24142519685039
 10
24.52336220472441
 20
-11.24100787401575
 10
24.51782677165354
 20
-11.24087007874016
 10
24.5121968503937
 20
-11.24099606299213
 10
24.50644881889764
 20
-11.24137795275591
 10
24.5005905511811
 20
-11.2420157480315
 10
24.49461417322835
 20
-11.24290551181102
 10
24.48852362204724
 20
-11.24404724409449
 10
24.48231496062992
 20
-11.24544488188976
 10
24.47599212598425
 20
-11.24709448818898
 10
24.46955511811024
 20
-11.249
  0
LWPOLYLINE
  5
79
330
1F
100
AcDbEntity
  8
Layer 1
 62
     7
370
     9
100
AcDbPolyline
 90
      155
 70
     1
 43
0.0
 10
24.97900393700787
 20
-11.46535433070866
 10
25.01453543307086
 20
-11.46535433070866
 10
25.01453543307086
 20
-11.32568503937008
 10
25.01424409448819
 20
-11.31641732283465
 10
25.01337795275591
 20
-11.30758267716535
 10
25.01192913385827
 20
-11.29918503937008
 10
25.00990551181102
 20
-11.29122047244094
 10
25.0073031496063
 20
-11.2836968503937
 10
25.00411811023622
 20
-11.2766062992126
 10
25.00036220472441
 20
-11.26995669291339
 10
24.99602362204724
 20
-11.26374409448819
 10
24.99360236220473
 20
-11.26076771653543
 10
24.99102755905512
 20
-11.25794094488189
 10
24.98829921259842
 20
-11.25526771653543
 10
24.98542519685039
 20
-11.25274409448819
 10
24.98239763779528
 20
-11.25037401574803
 10
24.97921653543307
 20
-11.24815354330709
 10
24.97588582677165
 20
-11.24608267716535
 10
24.97240551181102
 20
-11.24416535433071
 10
24.96871653543307
 20
-11.24244094488189
 10
24.96474015748031
 20
-11.24094881889764
 10
24.96047637795276
 20
-11.23968503937008
 10
24.95592519685039
 20
-11.23865354330709
 10
24.95108661417323
 20
-11.23785039370079
 10
24.94596456692913
 20
-11.23727559055118
 10
24.94055118110236
 20
-11.23693307086614
 10
24.93485433070866
 20
-11.23681889763779
 10
24.92911417322835
 20
-11.2370157480315
 10
24.92355905511811
 20
-11.23761023622047
 10
24.9181811023622
 20
-11.23860236220473
 10
24.9129842519685
 20
-11.23998818897638
 10
24.90796850393701
 20
-11.24176771653543
 10
24.90313779527559
 20
-11.24394881889764
 10
24.89849212598425
 20
-11.24652362204724
 10
24.89402755905512
 20
-11.24949212598425
 10
24.89014566929134
 20
-11.25246456692913
 10
24.88644094488189
 20
-11.25565748031496
 10
24.8829094488189
 20
-11.25906692913386
 10
24.87955905511811
 20
-11.26268897637795
 10
24.87637795275591
 20
-11.26652755905512
 10
24.87337795275591
 20
-11.27057480314961
 10
24.87055118110236
 20
-11.27483464566929
 10
24.86789763779528
 20
-11.27929921259843
 10
24.85849606299213
 20
-11.26374409448819
 10
24.85607874015748
 20
-11.26076771653543
 10
24.85350787401575
 20
-11.25794094488189
 10
24.8507874015748
 20
-11.25526771653543
 10
24.84791338582677
 20
-11.25274409448819
 10
24.84488582677166
 20
-11.25037401574803
 10
24.8417125984252
 20
-11.24815354330709
 10
24.83838582677165
 20
-11.24608267716535
 10
24.8349094488189
 20
-11.24416535433071
 10
24.8312125984252
 20
-11.24244094488189
 10
24.82722834645669
 20
-11.24094881889764
 10
24.82296456692913
 20
-11.23968503937008
 10
24.81841338582677
 20
-11.23865354330709
 10
24.81357874015748
 20
-11.23785039370079
 10
24.80846062992126
 20
-11.23727559055118
 10
24.80305511811024
 20
-11.23693307086614
 10
24.79736220472441
 20
-11.23681889763779
 10
24.79161417322835
 20
-11.2370157480315
 10
24.78604724409449
 20
-11.23761023622047
 10
24.78066535433071
 20
-11.23860236220473
 10
24.77546850393701
 20
-11.23998818897638
 10
24.77045275590551
 20
-11.24176771653543
 10
24.76562204724409
 20
-11.24394881889764
 10
24.76096850393701
 20
-11.24652362204724
 10
24.7565
 20
-11.24949212598425
 10
24.75280708661417
 20
-11.25232677165354
 10
24.74927165354331
 20
-11.25534645669291
 10
24.74589763779528
 20
-11.25855905511811
 10
24.74268110236221
 20
-11.26196062992126
 10
24.73962204724409
 20
-11.26555511811024
 10
24.73672047244094
 20
-11.26934251968504
 10
24.73397637795276
 20
-11.27333070866142
 10
24.73138976377953
 20
-11.27751968503937
 10
24.73138976377953
 20
-11.24188976377953
 10
24.69585826771653
 20
-11.24188976377953
 10
24.69585826771653
 20
-11.46535433070866
 10
24.73138976377953
 20
-11.46535433070866
 10
24.73138976377953
 20
-11.351
 10
24.7322125984252
 20
-11.34433464566929
 10
24.7332874015748
 20
-11.33793307086614
 10
24.73461811023622
 20
-11.3317874015748
 10
24.73620078740158
 20
-11.32589763779528
 10
24.73804330708661
 20
-11.32026377952756
 10
24.74013779527559
 20
-11.31488188976378
 10
24.74249212598425
 20
-11.30975196850394
 10
24.74509842519685
 20
-11.30487007874016
 10
24.74720866141732
 20
-11.3013937007874
 10
24.74949606299213
 20
-11.29807874015748
 10
24.75195669291339
 20
-11.29492125984252
 10
24.75459448818898
 20
-11.29192125984252
 10
24.75740551181102
 20
-11.28908267716535
 10
24.7603937007874
 20
-11.28640157480315
 10
24.76355905511811
 20
-11.28387401574803
 10
24.76690157480315
 20
-11.28150787401575
 10
24.77036220472441
 20
-11.27936614173228
 10
24.77388582677165
 20
-11.27750787401575
 10
24.77747244094488
 20
-11.27593700787402
 10
24.78112204724409
 20
-11.27464960629921
 10
24.78483070866142
 20
-11.27364960629921
 10
24.7886062992126
 20
-11.27293307086614
 10
24.79244094488189
 20
-11.27250393700787
 10
24.79634251968504
 20
-11.27236220472441
 10
24.80370078740157
 20
-11.27266535433071
 10
24.81004330708661
 20
-11.27356692913386
 10
24.81283464566929
 20
-11.27424803149606
 10
24.81537007874016
 20
-11.27507480314961
 10
24.81765748031496
 20
-11.27605118110236
 10
24.81969291338583
 20
-11.2771811023622
 10
24.8248031496063
 20
-11.28096456692913
 10
24.82923228346457
 20
-11.28540157480315
 10
24.83298031496063
 20
-11.29048818897638
 10
24.83604724409449
 20
-11.29622440944882
 10
24.83842913385827
 20
-11.30261023622047
 10
24.84013385826772
 20
-11.30964960629921
 10
24.84115748031496
 20
-11.31734251968504
 10
24.84149606299212
 20
-11.32568503937008
 10
24.84149606299212
 20
-11.46535433070866
 10
24.87700787401575
 20
-11.46535433070866
 10
24.87700787401575
 20
-11.32568503937008
 10
24.87677165354331
 20
-11.31715354330709
 10
24.88261023622047
 20
-11.30487007874016
 10
24.88472440944882
 20
-11.3013937007874
 10
24.88701574803149
 20
-11.29807874015748
 10
24.8894842519685
 20
-11.29492125984252
 10
24.89212204724409
 20
-11.29192125984252
 10
24.89493700787402
 20
-11.28908267716535
 10
24.89792125984252
 20
-11.28640157480315
 10
24.90108267716536
 20
-11.28387401574803
 10
24.90441338582677
 20
-11.28150787401575
 10
24.90787401574803
 20
-11.27936614173228
 10
24.91139763779528
 20
-11.27750787401575
 10
24.91498425196851
 20
-11.27593700787402
 10
24.91862992125984
 20
-11.27464960629921
 10
24.92234251968504
 20
-11.27364960629921
 10
24.92611417322835
 20
-11.27293307086614
 10
24.92995275590551
 20
-11.27250393700787
 10
24.93385433070866
 20
-11.27236220472441
 10
24.94120866141732
 20
-11.27266535433071
 10
24.94755118110236
 20
-11.27356692913386
 10
24.95034251968504
 20
-11.27424803149606
 10
24.95287795275591
 20
-11.27507480314961
 10
24.95516535433071
 20
-11.27605118110236
 10
24.95720078740158
 20
-11.2771811023622
 10
24.96231496062992
 20
-11.28096456692913
 10
24.96674409448819
 20
-11.28540157480315
 10
24.97049212598425
 20
-11.29048818897638
 10
24.97355511811024
 20
-11.29622440944882
 10
24.97594094488189
 20
-11.30261023622047
 10
24.97764173228347
 20
-11.30964960629921
 10
24.97866535433071
 20
-11.31734251968504
 10
24.97900393700787
 20
-11.32568503937008
 10
24.97900393700787
 20
-11.46535433070866
  0
LWPOLYLINE
  5
7A
330
1F
100
AcDbEntity
  8
Layer 1
 62
     7
370
     9
100
AcDbPolyline
 90
      155
 70
     1
 43
0.0
 10
25.36618110236221
 20
-11.46535433070866
 10
25.4017125984252
 20
-11.46535433070866
 10
25.4017125984252
 20
-11.32568503937008
 10
25.40142519685039
 20
-11.31641732283465
 10
25.40055511811024
 20
-11.30758267716535
 10
25.39911023622047
 20
-11.29918503937008
 10
25.39708267716535
 20
-11.29122047244094
 10
25.39448031496063
 20
-11.2836968503937
 10
25.39129921259843
 20
-11.2766062992126
 10
25.38753937007874
 20
-11.26995669291339
 10
25.38320078740157
 20
-11.26374409448819
 10
25.38077952755906
 20
-11.26076771653543
 10
25.37820472440945
 20
-11.25794094488189
 10
25.37547637795275
 20
-11.25526771653543
 10
25.37260236220472
 20
-11.25274409448819
 10
25.36957480314961
 20
-11.25037401574803
 10
25.3663937007874
 20
-11.24815354330709
 10
25.36306299212599
 20
-11.24608267716535
 10
25.35958267716535
 20
-11.24416535433071
 10
25.3558937007874
 20
-11.24244094488189
 10
25.35191732283464
 20
-11.24094881889764
 10
25.34765354330709
 20
-11.23968503937008
 10
25.3431062992126
 20
-11.23865354330709
 10
25.33826771653543
 20
-11.23785039370079
 10
25.33314173228347
 20
-11.23727559055118
 10
25.32772834645669
 20
-11.23693307086614
 10
25.32203149606299
 20
-11.23681889763779
 10
25.31629133858268
 20
-11.2370157480315
 10
25.31073622047244
 20
-11.23761023622047
 10
25.30535826771654
 20
-11.23860236220473
 10
25.30016141732283
 20
-11.23998818897638
 10
25.29514566929134
 20
-11.24176771653543
 10
25.29031496062992
 20
-11.24394881889764
 10
25.28566929133858
 20
-11.24652362204724
 10
25.28120472440945
 20
-11.24949212598425
 10
25.27732283464567
 20
-11.25246456692913
 10
25.27361811023622
 20
-11.25565748031496
 10
25.27008661417323
 20
-11.25906692913386
 10
25.26673622047244
 20
-11.26268897637795
 10
25.26355511811024
 20
-11.26652755905512
 10
25.26055511811024
 20
-11.27057480314961
 10
25.25772834645669
 20
-11.27483464566929
 10
25.25507480314961
 20
-11.27929921259843
 10
25.24567716535433
 20
-11.26374409448819
 10
25.24325984251968
 20
-11.26076771653543
 10
25.24068897637795
 20
-11.25794094488189
 10
25.23796850393701
 20
-11.25526771653543
 10
25.23509448818898
 20
-11.25274409448819
 10
25.23206692913386
 20
-11.25037401574803
 10
25.2288937007874
 20
-11.24815354330709
 10
25.22556692913386
 20
-11.24608267716535
 10
25.2220905511811
 20
-11.24416535433071
 10
25.2183937007874
 20
-11.24244094488189
 10
25.2144094488189
 20
-11.24094881889764
 10
25.21014566929134
 20
-11.23968503937008
 10
25.20559448818898
 20
-11.23865354330709
 10
25.20075590551181
 20
-11.23785039370079
 10
25.19563779527559
 20
-11.23727559055118
 10
25.19023228346457
 20
-11.23693307086614
 10
25.18453937007874
 20
-11.23681889763779
 10
25.17879133858268
 20
-11.2370157480315
 10
25.17322440944882
 20
-11.23761023622047
 10
25.16784251968504
 20
-11.23860236220473
 10
25.16264566929134
 20
-11.23998818897638
 10
25.15762992125984
 20
-11.24176771653543
 10
25.15279921259842
 20
-11.24394881889764
 10
25.14814960629921
 20
-11.24652362204724
 10
25.1436811023622
 20
-11.24949212598425
 10
25.13998818897638
 20
-11.25232677165354
 10
25.13645275590551
 20
-11.25534645669291
 10
25.13307480314961
 20
-11.25855905511811
 10
25.12985826771654
 20
-11.26196062992126
 10
25.1268031496063
 20
-11.26555511811024
 10
25.12390157480315
 20
-11.26934251968504
 10
25.12116141732283
 20
-11.27333070866142
 10
25.11858267716535
 20
-11.27751968503937
 10
25.11858267716535
 20
-11.24188976377953
 10
25.08303543307087
 20
-11.24188976377953
 10
25.08303543307087
 20
-11.46535433070866
 10
25.11858267716535
 20
-11.46535433070866
 10
25.11858267716535
 20
-11.351
 10
25.11939763779528
 20
-11.34433464566929
 10
25.12046850393701
 20
-11.33793307086614
 10
25.12179921259843
 20
-11.3317874015748
 10
25.12338188976378
 20
-11.32589763779528
 10
25.12522047244094
 20
-11.32026377952756
 10
25.12731496062992
 20
-11.31488188976378
 10
25.12966929133858
 20
-11.30975196850394
 10
25.13227559055118
 20
-11.30487007874016
 10
25.13438976377953
 20
-11.3013937007874
 10
25.13667716535433
 20
-11.29807874015748
 10
25.13914173228347
 20
-11.29492125984252
 10
25.14177952755906
 20
-11.29192125984252
 10
25.14459448818898
 20
-11.28908267716535
 10
25.14758267716535
 20
-11.28640157480315
 10
25.15074409448819
 20
-11.28387401574803
 10
25.15408267716536
 20
-11.28150787401575
 10
25.15754330708661
 20
-11.27936614173228
 10
25.16106692913386
 20
-11.27750787401575
 10
25.16464960629921
 20
-11.27593700787402
 10
25.16829921259842
 20
-11.27464960629921
 10
25.17200787401575
 20
-11.27364960629921
 10
25.17578346456693
 20
-11.27293307086614
 10
25.17961811023622
 20
-11.27250393700787
 10
25.18351968503937
 20
-11.27236220472441
 10
25.1908779527559
 20
-11.27266535433071
 10
25.19722047244095
 20
-11.27356692913386
 10
25.20001181102362
 20
-11.27424803149606
 10
25.20254724409449
 20
-11.27507480314961
 10
25.20483464566929
 20
-11.27605118110236
 10
25.20687007874016
 20
-11.2771811023622
 10
25.21198031496063
 20
-11.28096456692913
 10
25.21641338582677
 20
-11.28540157480315
 10
25.22016141732284
 20
-11.29048818897638
 10
25.22323228346457
 20
-11.29622440944882
 10
25.22561811023622
 20
-11.30261023622047
 10
25.22732283464567
 20
-11.30964960629921
 10
25.22834645669291
 20
-11.31734251968504
 10
25.22868897637795
 20
-11.32568503937008
 10
25.22868897637795
 20
-11.46535433070866
 10
25.26418897637795
 20
-11.46535433070866
 10
25.26418897637795
 20
-11.32568503937008
 10
25.26394881889764
 20
-11.31715354330709
 10
25.2697874015748
 20
-11.30487007874016
 10
25.27190551181102
 20
-11.3013937007874
 10
25.2741968503937
 20
-11.29807874015748
 10
25.27666141732283
 20
-11.29492125984252
 10
25.2793031496063
 20
-11.29192125984252
 10
25.28211417322835
 20
-11.28908267716535
 10
25.28510236220473
 20
-11.28640157480315
 10
25.28825984251969
 20
-11.28387401574803
 10
25.2915905511811
 20
-11.28150787401575
 10
25.29505118110236
 20
-11.27936614173228
 10
25.29857480314961
 20
-11.27750787401575
 10
25.30216141732284
 20
-11.27593700787402
 10
25.30580708661417
 20
-11.27464960629921
 10
25.30951968503937
 20
-11.27364960629921
 10
25.31329133858268
 20
-11.27293307086614
 10
25.31712992125984
 20
-11.27250393700787
 10
25.32103149606299
 20
-11.27236220472441
 10
25.32838582677165
 20
-11.27266535433071
 10
25.33472834645669
 20
-11.27356692913386
 10
25.33751968503937
 20
-11.27424803149606
 10
25.34005511811024
 20
-11.27507480314961
 10
25.34234251968504
 20
-11.27605118110236
 10
25.34437795275591
 20
-11.2771811023622
 10
25.34949212598425
 20
-11.28096456692913
 10
25.35392125984252
 20
-11.28540157480315
 10
25.35766929133858
 20
-11.29048818897638
 10
25.36073228346457
 20
-11.29622440944882
 10
25.36311811023622
 20
-11.30261023622047
 10
25.3648188976378
 20
-11.30964960629921
 10
25.36584251968504
 20
-11.31734251968504
 10
25.36618110236221
 20
-11.32568503937008
 10
25.36618110236221
 20
-11.46535433070866
  0
ENDSEC
  0
SECTION
  2
OBJECTS
  0
DICTIONARY
  5
C
330
0
100
AcDbDictionary
281
     1
  3
ACAD_DETAILVIEWSTYLE
350
82
  3
ACAD_GROUP
350
D
  3
ACAD_LAYOUT
350
1A
  3
ACAD_MATERIAL
350
43
  3
ACAD_MLEADERSTYLE
350
5B
  3
ACAD_MLINESTYLE
350
17
  3
ACAD_PLOTSETTINGS
350
19
  3
ACAD_PLOTSTYLENAME
350
E
  3
ACAD_SCALELIST
350
47
  3
ACAD_SECTIONVIEWSTYLE
350
83
  3
ACAD_TABLESTYLE
350
59
  3
ACAD_VISUALSTYLE
350
2A
  3
ACDB_RECOMPOSE_DATA
350
7F
  3
AcDbVariableDictionary
350
7B
  0
SUN
  5
5D
330
29
100
AcDbSun
 90
        1
290
     0
 63
     7
421
 16777215
 40
1.0
291
     1
 91
  2455826
 92
 54000000
292
     0
 70
     2
 71
   256
280
     1
  0
DICTIONARY
  5
82
102
{ACAD_REACTORS
330
C
102
}
330
C
100
AcDbDictionary
281
     1
  0
DICTIONARY
  5
D
102
{ACAD_REACTORS
330
C
102
}
330
C
100
AcDbDictionary
281
     1
  0
DICTIONARY
  5
1A
102
{ACAD_REACTORS
330
C
102
}
330
C
100
AcDbDictionary
281
     1
  3
Layout1
350
1E
  3
Layout2
350
26
  3
Model
350
22
  0
DICTIONARY
  5
43
102
{ACAD_REACTORS
330
C
102
}
330
C
100
AcDbDictionary
281
     1
  3
ByBlock
350
45
  3
ByLayer
350
44
  3
Global
350
46
  0
DICTIONARY
  5
5B
102
{ACAD_REACTORS
330
C
102
}
330
C
100
AcDbDictionary
281
     1
  3
Standard
350
5C
  0
DICTIONARY
  5
17
102
{ACAD_REACTORS
330
C
102
}
330
C
100
AcDbDictionary
281
     1
  3
Standard
350
18
  0
DICTIONARY
  5
19
102
{ACAD_REACTORS
330
C
102
}
330
C
100
AcDbDictionary
281
     1
  0
ACDBDICTIONARYWDFLT
  5
E
102
{ACAD_REACTORS
330
C
102
}
330
C
100
AcDbDictionary
281
     1
  3
Normal
350
F
100
AcDbDictionaryWithDefault
340
F
  0
DICTIONARY
  5
47
102
{ACAD_REACTORS
330
C
102
}
330
C
100
AcDbDictionary
281
     1
  3
A0
350
48
  3
A1
350
49
  3
A2
350
4A
  3
A3
350
4B
  3
A4
350
4C
  3
A5
350
4D
  3
A6
350
4E
  3
A7
350
4F
  3
A8
350
50
  3
A9
350
51
  3
B1
350
52
  3
B2
350
53
  3
B3
350
54
  3
B4
350
55
  3
B5
350
56
  3
B6
350
57
  3
B7
350
58
  0
DICTIONARY
  5
83
102
{ACAD_REACTORS
330
C
102
}
330
C
100
AcDbDictionary
281
     1
  0
DICTIONARY
  5
59
102
{ACAD_REACTORS
330
C
102
}
330
C
100
AcDbDictionary
281
     1
  3
Standard
350
5A
  0
DICTIONARY
  5
2A
102
{ACAD_REACTORS
330
C
102
}
330
C
100
AcDbDictionary
281
     1
  3
2dWireframe
350
2F
  3
Basic
350
32
  3
Brighten
350
36
  3
ColorChange
350
3A
  3
Conceptual
350
34
  3
Dim
350
35
  3
EdgeColorOff
350
3D
  3
Facepattern
350
39
  3
Flat
350
2B
  3
FlatWithEdges
350
2C
  3
Gouraud
350
2D
  3
GouraudWithEdges
350
2E
  3
Hidden
350
31
  3
JitterOff
350
3B
  3
Linepattern
350
38
  3
OverhangOff
350
3C
  3
Realistic
350
33
  3
Shaded
350
42
  3
Shaded with edges
350
41
  3
Shades of Gray
350
3E
  3
Sketchy
350
3F
  3
Thicken
350
37
  3
Wireframe
350
30
  3
X-Ray
350
40
  0
XRECORD
  5
7F
102
{ACAD_REACTORS
330
C
102
}
330
C
100
AcDbXrecord
280
     1
 90
        1
330
5A
  0
DICTIONARY
  5
7B
102
{ACAD_REACTORS
330
C
102
}
330
C
100
AcDbDictionary
281
     1
  3
CANNOSCALE
350
7C
  3
CMLEADERSTYLE
350
81
  3
CTABLESTYLE
350
80
  0
LAYOUT
  5
1E
102
{ACAD_REACTORS
330
1A
102
}
330
1A
100
AcDbPlotSettings
  1

  2
none_device
  4

  6

 40
0.0
 41
0.0
 42
0.0
 43
0.0
 44
0.0
 45
0.0
 46
0.0
 47
0.0
 48
0.0
 49
0.0
140
0.0
141
0.0
142
1.0
143
1.0
 70
   688
 72
     0
 73
     0
 74
     5
  7

 75
    16
 76
     0
 77
     2
 78
   300
147
1.0
148
0.0
149
0.0
100
AcDbLayout
  1
Layout1
 70
     1
 71
     1
 10
0.0
 20
0.0
 11
12.0
 21
9.0
 12
0.0
 22
0.0
 32
0.0
 14
1.000000000000000E+20
 24
1.000000000000000E+20
 34
1.000000000000000E+20
 15
-1.000000000000000E+20
 25
-1.000000000000000E+20
 35
-1.000000000000000E+20
146
0.0
 13
0.0
 23
0.0
 33
0.0
 16
1.0
 26
0.0
 36
0.0
 17
0.0
 27
1.0
 37
0.0
 76
     0
330
1B
  0
LAYOUT
  5
26
102
{ACAD_REACTORS
330
1A
102
}
330
1A
100
AcDbPlotSettings
  1

  2
none_device
  4

  6

 40
0.0
 41
0.0
 42
0.0
 43
0.0
 44
0.0
 45
0.0
 46
0.0
 47
0.0
 48
0.0
 49
0.0
140
0.0
141
0.0
142
1.0
143
1.0
 70
   688
 72
     0
 73
     0
 74
     5
  7

 75
    16
 76
     0
 77
     2
 78
   300
147
1.0
148
0.0
149
0.0
100
AcDbLayout
  1
Layout2
 70
     1
 71
     2
 10
0.0
 20
0.0
 11
0.0
 21
0.0
 12
0.0
 22
0.0
 32
0.0
 14
0.0
 24
0.0
 34
0.0
 15
0.0
 25
0.0
 35
0.0
146
0.0
 13
0.0
 23
0.0
 33
0.0
 16
1.0
 26
0.0
 36
0.0
 17
0.0
 27
1.0
 37
0.0
 76
     0
330
23
  0
LAYOUT
  5
22
102
{ACAD_REACTORS
330
1A
102
}
330
1A
100
AcDbPlotSettings
  1

  2
none_device
  4
Letter_(8.50_x_11.00_Inches)
  6

 40
6.35
 41
6.35
 42
6.35000508
 43
6.35000508
 44
215.9
 45
279.4
 46
0.0
 47
0.0
 48
0.0
 49
0.0
140
0.0
141
0.0
142
1.0
143
1.0
 70
  1712
 72
     0
 73
     0
 74
     0
  7

 75
     0
 76
     0
 77
     2
 78
   300
147
1.0
148
0.0
149
0.0
100
AcDbLayout
  1
Model
 70
     1
 71
     0
 10
0.0
 20
0.0
 11
12.0
 21
9.0
 12
0.0
 22
0.0
 32
0.0
 14
22.71574409448819
 24
-13.52020078740157
 34
0.0
 15
40.24293700787402
 25
-5.476114173228346
 35
0.0
146
0.0
 13
0.0
 23
0.0
 33
0.0
 16
1.0
 26
0.0
 36
0.0
 17
0.0
 27
1.0
 37
0.0
 76
     0
330
1F
331
29
  0
MATERIAL
  5
45
102
{ACAD_REACTORS
330
43
102
}
330
43
100
AcDbMaterial
  1
ByBlock
 72
     1
 94
      127
  0
MATERIAL
  5
44
102
{ACAD_REACTORS
330
43
102
}
330
43
100
AcDbMaterial
  1
ByLayer
 72
     1
 94
      127
  0
MATERIAL
  5
46
102
{ACAD_REACTORS
330
43
102
}
330
43
100
AcDbMaterial
  1
Global
 72
     1
 94
      127
  0
MLEADERSTYLE
  5
5C
102
{ACAD_REACTORS
330
5B
102
}
330
5B
100
AcDbMLeaderStyle
179
     2
170
     2
171
     1
172
     0
 90
        2
 40
0.0
 41
0.0
173
     1
 91
-1056964608
340
14
 92
       -2
290
     1
 42
0.09
291
     1
 43
0.36
  3
Standard
341
0
 44
0.18
300

342
11
174
     1
178
     6
175
     1
176
     0
 93
-1056964608
 45
0.18
292
     0
297
     0
 46
0.18
343
0
 94
-1056964608
 47
1.0
 49
1.0
140
1.0
293
     1
141
0.0
294
     1
177
     0
142
1.0
295
     0
296
     0
143
0.125
271
     0
272
     9
273
     9
298
     0
  0
MLINESTYLE
  5
18
102
{ACAD_REACTORS
330
17
102
}
330
17
100
AcDbMlineStyle
  2
Standard
 70
     0
  3

 62
   256
 51
90.0
 52
90.0
 71
     2
 49
0.5
 62
   256
  6
BYLAYER
 49
-0.5
 62
   256
  6
BYLAYER
  0
ACDBPLACEHOLDER
  5
F
102
{ACAD_REACTORS
330
E
102
}
330
E
  0
SCALE
  5
48
102
{ACAD_REACTORS
330
47
102
}
330
47
100
AcDbScale
 70
     0
300
1:1
140
1.0
141
1.0
290
     1
  0
SCALE
  5
49
102
{ACAD_REACTORS
330
47
102
}
330
47
100
AcDbScale
 70
     0
300
1/128" = 1'-0"
140
0.0078125
141
12.0
290
     0
  0
SCALE
  5
4A
102
{ACAD_REACTORS
330
47
102
}
330
47
100
AcDbScale
 70
     0
300
1/64" = 1'-0"
140
0.015625
141
12.0
290
     0
  0
SCALE
  5
4B
102
{ACAD_REACTORS
330
47
102
}
330
47
100
AcDbScale
 70
     0
300
1/32" = 1'-0"
140
0.03125
141
12.0
290
     0
  0
SCALE
  5
4C
102
{ACAD_REACTORS
330
47
102
}
330
47
100
AcDbScale
 70
     0
300
1/16" = 1'-0"
140
0.0625
141
12.0
290
     0
  0
SCALE
  5
4D
102
{ACAD_REACTORS
330
47
102
}
330
47
100
AcDbScale
 70
     0
300
3/32" = 1'-0"
140
0.09375
141
12.0
290
     0
  0
SCALE
  5
4E
102
{ACAD_REACTORS
330
47
102
}
330
47
100
AcDbScale
 70
     0
300
1/8" = 1'-0"
140
0.125
141
12.0
290
     0
  0
SCALE
  5
4F
102
{ACAD_REACTORS
330
47
102
}
330
47
100
AcDbScale
 70
     0
300
3/16" = 1'-0"
140
0.1875
141
12.0
290
     0
  0
SCALE
  5
50
102
{ACAD_REACTORS
330
47
102
}
330
47
100
AcDbScale
 70
     0
300
1/4" = 1'-0"
140
0.25
141
12.0
290
     0
  0
SCALE
  5
51
102
{ACAD_REACTORS
330
47
102
}
330
47
100
AcDbScale
 70
     0
300
3/8" = 1'-0"
140
0.375
141
12.0
290
     0
  0
SCALE
  5
52
102
{ACAD_REACTORS
330
47
102
}
330
47
100
AcDbScale
 70
     0
300
1/2" = 1'-0"
140
0.5
141
12.0
290
     0
  0
SCALE
  5
53
102
{ACAD_REACTORS
330
47
102
}
330
47
100
AcDbScale
 70
     0
300
3/4" = 1'-0"
140
0.75
141
12.0
290
     0
  0
SCALE
  5
54
102
{ACAD_REACTORS
330
47
102
}
330
47
100
AcDbScale
 70
     0
300
1" = 1'-0"
140
1.0
141
12.0
290
     0
  0
SCALE
  5
55
102
{ACAD_REACTORS
330
47
102
}
330
47
100
AcDbScale
 70
     0
300
1-1/2" = 1'-0"
140
1.5
141
12.0
290
     0
  0
SCALE
  5
56
102
{ACAD_REACTORS
330
47
102
}
330
47
100
AcDbScale
 70
     0
300
3" = 1'-0"
140
3.0
141
12.0
290
     0
  0
SCALE
  5
57
102
{ACAD_REACTORS
330
47
102
}
330
47
100
AcDbScale
 70
     0
300
6" = 1'-0"
140
6.0
141
12.0
290
     0
  0
SCALE
  5
58
102
{ACAD_REACTORS
330
47
102
}
330
47
100
AcDbScale
 70
     0
300
1'-0" = 1'-0"
140
12.0
141
12.0
290
     0
  0
TABLESTYLE
  5
5A
102
{ACAD_REACTORS
330
59
102
}
102
{ACAD_XDICTIONARY
360
7D
102
}
330
59
100
AcDbTableStyle
  3
Standard
 70
     0
 71
     0
 40
0.06
 41
0.06
280
     0
281
     0
  7
Standard
140
0.18
170
     2
 62
     0
 63
   257
283
     0
 90
        4
 91
        0
  1

274
    -2
284
     1
 64
     0
275
    -2
285
     1
 65
     0
276
    -2
286
     1
 66
     0
277
    -2
287
     1
 67
     0
278
    -2
288
     1
 68
     0
279
    -2
289
     1
 69
     0
  7
Standard
140
0.25
170
     5
 62
     0
 63
   257
283
     0
 90
        4
 91
        0
  1

274
    -2
284
     1
 64
     0
275
    -2
285
     1
 65
     0
276
    -2
286
     1
 66
     0
277
    -2
287
     1
 67
     0
278
    -2
288
     1
 68
     0
279
    -2
289
     1
 69
     0
  7
Standard
140
0.18
170
     5
 62
     0
 63
   257
283
     0
 90
        4
 91
        0
  1

274
    -2
284
     1
 64
     0
275
    -2
285
     1
 65
     0
276
    -2
286
     1
 66
     0
277
    -2
287
     1
 67
     0
278
    -2
288
     1
 68
     0
279
    -2
289
     1
 69
     0
  0
VISUALSTYLE
  5
2F
102
{ACAD_REACTORS
330
2A
102
}
330
2A
100
AcDbVisualStyle
  2
2dWireframe
 70
     4
177
     3
291
     0
 70
    58
 90
        0
176
     1
 90
        2
176
     1
 90
        0
176
     1
 90
        0
176
     1
 40
0.6
176
     1
 40
30.0
176
     1
 62
     7
420
 16777215
176
     1
 90
        1
176
     1
 90
        4
176
     1
 62
     7
176
     1
 62
   257
176
     1
 90
        1
176
     1
 90
        1
176
     1
 40
1.0
176
     1
 90
        0
176
     1
 62
   257
176
     1
 40
1.0
176
     1
 90
        1
176
     1
 90
        6
176
     1
 90
        2
176
     1
 62
     7
176
     1
 90
        5
176
     1
 90
        0
176
     1
 90
        0
176
     1
290
     0
176
     1
 90
        1
176
     1
 40
0.0
176
     1
 90
        0
176
     1
290
     1
176
     1
290
     1
176
     1
290
     0
176
     1
290
     0
176
     1
290
     0
176
     1
290
     0
176
     1
290
     0
176
     1
290
     0
176
     1
290
     0
176
     1
 90
       50
176
     1
 40
0.0
176
     1
 40
1.0
176
     1
 90
        0
176
     1
 62
    18
420
        0
176
     1
 90
       50
176
     1
 90
        3
176
     1
 62
     5
420
      255
176
     1
290
     0
176
     1
 90
       50
176
     1
 90
       50
176
     1
 90
       50
176
     1
290
     0
176
     1
 90
       50
176
     1
 62
   256
176
     0
 40
1.0
176
     0
 90
        2
176
     1
  1
strokes_ogs.tif
176
     1
290
     0
176
     1
 40
1.0
176
     1
 40
1.0
176
     1
  0
VISUALSTYLE
  5
32
102
{ACAD_REACTORS
330
2A
102
}
330
2A
100
AcDbVisualStyle
  2
Basic
 70
     7
177
     3
291
     1
 70
    58
 90
        1
176
     1
 90
        0
176
     1
 90
        1
176
     1
 90
        0
176
     1
 40
0.6
176
     1
 40
30.0
176
     1
 62
     7
420
 16777215
176
     1
 90
        0
176
     1
 90
        4
176
     1
 62
     7
176
     1
 62
   257
176
     1
 90
        1
176
     1
 90
        1
176
     1
 40
1.0
176
     1
 90
        8
176
     1
 62
     7
176
     1
 40
1.0
176
     1
 90
        1
176
     1
 90
        6
176
     1
 90
        2
176
     1
 62
     7
176
     1
 90
        5
176
     1
 90
        0
176
     1
 90
        0
176
     1
290
     0
176
     1
 90
        1
176
     1
 40
0.0
176
     1
 90
        0
176
     1
290
     0
176
     1
290
     1
176
     1
290
     1
176
     1
290
     0
176
     1
290
     0
176
     1
290
     0
176
     1
290
     0
176
     1
290
     0
176
     1
290
     0
176
     1
 90
       50
176
     1
 40
0.0
176
     1
 40
1.0
176
     1
 90
        0
176
     1
 62
    18
420
        0
176
     1
 90
       50
176
     1
 90
        3
176
     1
 62
     5
420
      255
176
     1
290
     0
176
     1
 90
       50
176
     1
 90
       50
176
     1
 90
       50
176
     1
290
     0
176
     1
 90
       50
176
     1
 62
   256
176
     0
 40
1.0
176
     0
 90
        2
176
     1
  1
strokes_ogs.tif
176
     1
290
     0
176
     1
 40
1.0
176
     1
 40
1.0
176
     1
  0
VISUALSTYLE
  5
36
102
{ACAD_REACTORS
330
2A
102
}
330
2A
100
AcDbVisualStyle
  2
Brighten
 70
    12
177
     3
291
     1
 70
    58
 90
        2
176
     1
 90
        2
176
     1
 90
        0
176
     1
 90
        0
176
     1
 40
0.6
176
     1
 40
30.0
176
     1
 62
     7
420
 16777215
176
     1
 90
        1
176
     1
 90
        4
176
     1
 62
     7
176
     1
 62
   257
176
     1
 90
        1
176
     1
 90
        1
176
     1
 40
1.0
176
     1
 90
        8
176
     1
 62
     7
176
     1
 40
1.0
176
     1
 90
        1
176
     1
 90
        6
176
     1
 90
        2
176
     1
 62
     7
176
     1
 90
        5
176
     1
 90
        0
176
     1
 90
        0
176
     1
290
     0
176
     1
 90
        1
176
     1
 40
50.0
176
     1
 90
        0
176
     1
290
     0
176
     1
290
     1
176
     1
290
     1
176
     1
290
     0
176
     1
290
     0
176
     1
290
     0
176
     1
290
     0
176
     1
290
     0
176
     1
290
     0
176
     1
 90
       50
176
     1
 40
0.0
176
     1
 40
1.0
176
     1
 90
        0
176
     1
 62
    18
420
        0
176
     1
 90
       50
176
     1
 90
        3
176
     1
 62
     5
420
      255
176
     1
290
     0
176
     1
 90
       50
176
     1
 90
       50
176
     1
 90
       50
176
     1
290
     0
176
     1
 90
       50
176
     1
 62
   256
176
     0
 40
1.0
176
     0
 90
        2
176
     1
  1
strokes_ogs.tif
176
     1
290
     0
176
     1
 40
1.0
176
     1
 40
1.0
176
     1
  0
VISUALSTYLE
  5
3A
102
{ACAD_REACTORS
330
2A
102
}
330
2A
100
AcDbVisualStyle
  2
ColorChange
 70
    16
177
     3
291
     1
 70
    58
 90
        2
176
     1
 90
        2
176
     1
 90
        3
176
     1
 90
        0
176
     1
 40
0.6
176
     1
 40
30.0
176
     1
 62
     8
420
  8421504
176
     1
 90
        1
176
     1
 90
        4
176
     1
 62
     7
176
     1
 62
   257
176
     1
 90
        1
176
     1
 90
        1
176
     1
 40
1.0
176
     1
 90
        8
176
     1
 62
     8
420
  8421504
176
     1
 40
1.0
176
     1
 90
        1
176
     1
 90
        6
176
     1
 90
        2
176
     1
 62
     7
176
     1
 90
        5
176
     1
 90
        0
176
     1
 90
        0
176
     1
290
     0
176
     1
 90
        1
176
     1
 40
0.0
176
     1
 90
        0
176
     1
290
     0
176
     1
290
     1
176
     1
290
     1
176
     1
290
     0
176
     1
290
     0
176
     1
290
     0
176
     1
290
     0
176
     1
290
     0
176
     1
290
     0
176
     1
 90
       50
176
     1
 40
0.0
176
     1
 40
1.0
176
     1
 90
        0
176
     1
 62
    18
420
        0
176
     1
 90
       50
176
     1
 90
        3
176
     1
 62
     5
420
      255
176
     1
290
     0
176
     1
 90
       50
176
     1
 90
       50
176
     1
 90
       50
176
     1
290
     0
176
     1
 90
       50
176
     1
 62
   256
176
     0
 40
1.0
176
     0
 90
        2
176
     1
  1
strokes_ogs.tif
176
     1
290
     0
176
     1
 40
1.0
176
     1
 40
1.0
176
     1
  0
VISUALSTYLE
  5
34
102
{ACAD_REACTORS
330
2A
102
}
330
2A
100
AcDbVisualStyle
  2
Conceptual
 70
     9
177
     3
291
     0
 70
    58
 90
        3
176
     1
 90
        2
176
     1
 90
        0
176
     1
 90
        0
176
     1
 40
0.6
176
     1
 40
30.0
176
     1
 62
     7
420
 16777215
176
     1
 90
        2
176
     1
 90
        2
176
     1
 62
     7
176
     1
 62
   257
176
     1
 90
        1
176
     1
 90
        1
176
     1
 40
179.0
176
     1
 90
        8
176
     1
 62
     7
176
     1
 40
1.0
176
     1
 90
        1
176
     1
 90
        6
176
     1
 90
        2
176
     1
 62
     7
176
     1
 90
        3
176
     1
 90
        0
176
     1
 90
        0
176
     1
290
     0
176
     1
 90
        1
176
     1
 40
0.0
176
     1
 90
        0
176
     1
290
     0
176
     1
290
     1
176
     1
290
     1
176
     1
290
     0
176
     1
290
     0
176
     1
290
     0
176
     1
290
     0
176
     1
290
     0
176
     1
290
     0
176
     1
 90
       50
176
     1
 40
0.0
176
     1
 40
1.0
176
     1
 90
        0
176
     1
 62
    18
420
        0
176
     1
 90
       50
176
     1
 90
        3
176
     1
 62
     5
420
      255
176
     1
290
     0
176
     1
 90
       50
176
     1
 90
       50
176
     1
 90
       50
176
     1
290
     0
176
     1
 90
       50
176
     1
 62
   256
176
     0
 40
1.0
176
     0
 90
        2
176
     1
  1
strokes_ogs.tif
176
     1
290
     0
176
     1
 40
1.0
176
     1
 40
1.0
176
     1
  0
VISUALSTYLE
  5
35
102
{ACAD_REACTORS
330
2A
102
}
330
2A
100
AcDbVisualStyle
  2
Dim
 70
    11
177
     3
291
     1
 70
    58
 90
        2
176
     1
 90
        2
176
     1
 90
        0
176
     1
 90
        0
176
     1
 40
0.6
176
     1
 40
30.0
176
     1
 62
     7
420
 16777215
176
     1
 90
        1
176
     1
 90
        4
176
     1
 62
     7
176
     1
 62
   257
176
     1
 90
        1
176
     1
 90
        1
176
     1
 40
1.0
176
     1
 90
        8
176
     1
 62
     7
176
     1
 40
1.0
176
     1
 90
        1
176
     1
 90
        6
176
     1
 90
        2
176
     1
 62
     7
176
     1
 90
        5
176
     1
 90
        0
176
     1
 90
        0
176
     1
290
     0
176
     1
 90
        1
176
     1
 40
-50.0
176
     1
 90
        0
176
     1
290
     0
176
     1
290
     1
176
     1
290
     1
176
     1
290
     0
176
     1
290
     0
176
     1
290
     0
176
     1
290
     0
176
     1
290
     0
176
     1
290
     0
176
     1
 90
       50
176
     1
 40
0.0
176
     1
 40
1.0
176
     1
 90
        0
176
     1
 62
    18
420
        0
176
     1
 90
       50
176
     1
 90
        3
176
     1
 62
     5
420
      255
176
     1
290
     0
176
     1
 90
       50
176
     1
 90
       50
176
     1
 90
       50
176
     1
290
     0
176
     1
 90
       50
176
     1
 62
   256
176
     0
 40
1.0
176
     0
 90
        2
176
     1
  1
strokes_ogs.tif
176
     1
290
     0
176
     1
 40
1.0
176
     1
 40
1.0
176
     1
  0
VISUALSTYLE
  5
3D
102
{ACAD_REACTORS
330
2A
102
}
330
2A
100
AcDbVisualStyle
  2
EdgeColorOff
 70
    22
177
     3
291
     1
 70
    58
 90
        2
176
     0
 90
        2
176
     0
 90
        0
176
     0
 90
        0
176
     0
 40
0.6
176
     0
 40
30.0
176
     0
 62
     7
420
 16777215
176
     0
 90
        1
176
     0
 90
        4
176
     0
 62
     7
176
     0
 62
   257
176
     0
 90
        1
176
     0
 90
        1
176
     0
 40
1.0
176
     0
 90
        8
176
     2
 62
     7
176
     0
 40
1.0
176
     0
 90
        1
176
     0
 90
        6
176
     0
 90
        2
176
     0
 62
     7
176
     0
 90
        5
176
     0
 90
        0
176
     0
 90
        0
176
     0
290
     0
176
     0
 90
        1
176
     0
 40
0.0
176
     0
 90
        0
176
     0
290
     0
176
     0
290
     1
176
     0
290
     1
176
     0
290
     0
176
     0
290
     0
176
     0
290
     0
176
     0
290
     0
176
     0
290
     0
176
     0
290
     0
176
     0
 90
       50
176
     0
 40
0.0
176
     0
 40
1.0
176
     0
 90
        0
176
     0
 62
    18
420
        0
176
     0
 90
       50
176
     0
 90
        3
176
     0
 62
     5
420
      255
176
     0
290
     0
176
     0
 90
       50
176
     0
 90
       50
176
     0
 90
       50
176
     0
290
     0
176
     0
 90
       50
176
     0
 62
   256
176
     0
 40
1.0
176
     0
 90
        2
176
     0
  1
strokes_ogs.tif
176
     0
290
     0
176
     0
 40
1.0
176
     0
 40
1.0
176
     0
  0
VISUALSTYLE
  5
39
102
{ACAD_REACTORS
330
2A
102
}
330
2A
100
AcDbVisualStyle
  2
Facepattern
 70
    15
177
     3
291
     1
 70
    58
 90
        2
176
     1
 90
        2
176
     1
 90
        0
176
     1
 90
        0
176
     1
 40
0.6
176
     1
 40
30.0
176
     1
 62
     7
420
 16777215
176
     1
 90
        1
176
     1
 90
        4
176
     1
 62
     7
176
     1
 62
   257
176
     1
 90
        1
176
     1
 90
        1
176
     1
 40
1.0
176
     1
 90
        8
176
     1
 62
     7
176
     1
 40
1.0
176
     1
 90
        1
176
     1
 90
        6
176
     1
 90
        2
176
     1
 62
     7
176
     1
 90
        5
176
     1
 90
        0
176
     1
 90
        0
176
     1
290
     0
176
     1
 90
        1
176
     1
 40
0.0
176
     1
 90
        0
176
     1
290
     0
176
     1
290
     1
176
     1
290
     1
176
     1
290
     0
176
     1
290
     0
176
     1
290
     0
176
     1
290
     0
176
     1
290
     0
176
     1
290
     0
176
     1
 90
       50
176
     1
 40
0.0
176
     1
 40
1.0
176
     1
 90
        0
176
     1
 62
    18
420
        0
176
     1
 90
       50
176
     1
 90
        3
176
     1
 62
     5
420
      255
176
     1
290
     0
176
     1
 90
       50
176
     1
 90
       50
176
     1
 90
       50
176
     1
290
     0
176
     1
 90
       50
176
     1
 62
   256
176
     0
 40
1.0
176
     0
 90
        2
176
     1
  1
strokes_ogs.tif
176
     1
290
     0
176
     1
 40
1.0
176
     1
 40
1.0
176
     1
  0
VISUALSTYLE
  5
2B
102
{ACAD_REACTORS
330
2A
102
}
330
2A
100
AcDbVisualStyle
  2
Flat
 70
     0
177
     3
291
     1
 70
    58
 90
        2
176
     1
 90
        1
176
     1
 90
        1
176
     1
 90
        2
176
     1
 40
0.6
176
     1
 40
30.0
176
     1
 62
     7
420
 16777215
176
     1
 90
        0
176
     1
 90
        0
176
     1
 62
     7
176
     1
 62
   257
176
     1
 90
        1
176
     1
 90
        1
176
     1
 40
1.0
176
     1
 90
        8
176
     1
 62
     7
176
     1
 40
1.0
176
     1
 90
        1
176
     1
 90
        6
176
     1
 90
        2
176
     1
 62
     7
176
     1
 90
        5
176
     1
 90
        0
176
     1
 90
        0
176
     1
290
     0
176
     1
 90
       13
176
     1
 40
0.0
176
     1
 90
        0
176
     1
290
     0
176
     1
290
     1
176
     1
290
     1
176
     1
290
     0
176
     1
290
     0
176
     1
290
     0
176
     1
290
     0
176
     1
290
     0
176
     1
290
     0
176
     1
 90
       50
176
     1
 40
0.0
176
     1
 40
1.0
176
     1
 90
        0
176
     1
 62
    18
420
        0
176
     1
 90
       50
176
     1
 90
        3
176
     1
 62
     5
420
      255
176
     1
290
     0
176
     1
 90
       50
176
     1
 90
       50
176
     1
 90
       50
176
     1
290
     0
176
     1
 90
       50
176
     1
 62
   256
176
     0
 40
1.0
176
     0
 90
        2
176
     1
  1
strokes_ogs.tif
176
     1
290
     0
176
     1
 40
1.0
176
     1
 40
1.0
176
     1
  0
VISUALSTYLE
  5
2C
102
{ACAD_REACTORS
330
2A
102
}
330
2A
100
AcDbVisualStyle
  2
FlatWithEdges
 70
     1
177
     3
291
     1
 70
    58
 90
        2
176
     1
 90
        1
176
     1
 90
        1
176
     1
 90
        2
176
     1
 40
0.6
176
     1
 40
30.0
176
     1
 62
     7
420
 16777215
176
     1
 90
        1
176
     1
 90
        0
176
     1
 62
     7
176
     1
 62
   257
176
     1
 90
        1
176
     1
 90
        1
176
     1
 40
1.0
176
     1
 90
        0
176
     1
 62
   257
176
     1
 40
1.0
176
     1
 90
        1
176
     1
 90
        6
176
     1
 90
        2
176
     1
 62
     7
176
     1
 90
        5
176
     1
 90
        0
176
     1
 90
        0
176
     1
290
     0
176
     1
 90
       13
176
     1
 40
0.0
176
     1
 90
        0
176
     1
290
     0
176
     1
290
     1
176
     1
290
     1
176
     1
290
     0
176
     1
290
     0
176
     1
290
     0
176
     1
290
     0
176
     1
290
     0
176
     1
290
     0
176
     1
 90
       50
176
     1
 40
0.0
176
     1
 40
1.0
176
     1
 90
        0
176
     1
 62
    18
420
        0
176
     1
 90
       50
176
     1
 90
        3
176
     1
 62
     5
420
      255
176
     1
290
     0
176
     1
 90
       50
176
     1
 90
       50
176
     1
 90
       50
176
     1
290
     0
176
     1
 90
       50
176
     1
 62
   256
176
     0
 40
1.0
176
     0
 90
        2
176
     1
  1
strokes_ogs.tif
176
     1
290
     0
176
     1
 40
1.0
176
     1
 40
1.0
176
     1
  0
VISUALSTYLE
  5
2D
102
{ACAD_REACTORS
330
2A
102
}
330
2A
100
AcDbVisualStyle
  2
Gouraud
 70
     2
177
     3
291
     1
 70
    58
 90
        2
176
     1
 90
        2
176
     1
 90
        1
176
     1
 90
        2
176
     1
 40
0.6
176
     1
 40
30.0
176
     1
 62
     7
420
 16777215
176
     1
 90
        0
176
     1
 90
        0
176
     1
 62
     7
176
     1
 62
   257
176
     1
 90
        1
176
     1
 90
        1
176
     1
 40
1.0
176
     1
 90
        0
176
     1
 62
     7
176
     1
 40
1.0
176
     1
 90
        1
176
     1
 90
        6
176
     1
 90
        2
176
     1
 62
     7
176
     1
 90
        5
176
     1
 90
        0
176
     1
 90
        0
176
     1
290
     0
176
     1
 90
       13
176
     1
 40
0.0
176
     1
 90
        0
176
     1
290
     0
176
     1
290
     1
176
     1
290
     1
176
     1
290
     0
176
     1
290
     0
176
     1
290
     0
176
     1
290
     0
176
     1
290
     0
176
     1
290
     0
176
     1
 90
       50
176
     1
 40
0.0
176
     1
 40
1.0
176
     1
 90
        0
176
     1
 62
    18
420
        0
176
     1
 90
       50
176
     1
 90
        3
176
     1
 62
     5
420
      255
176
     1
290
     0
176
     1
 90
       50
176
     1
 90
       50
176
     1
 90
       50
176
     1
290
     0
176
     1
 90
       50
176
     1
 62
   256
176
     0
 40
1.0
176
     0
 90
        2
176
     1
  1
strokes_ogs.tif
176
     1
290
     0
176
     1
 40
1.0
176
     1
 40
1.0
176
     1
  0
VISUALSTYLE
  5
2E
102
{ACAD_REACTORS
330
2A
102
}
330
2A
100
AcDbVisualStyle
  2
GouraudWithEdges
 70
     3
177
     3
291
     1
 70
    58
 90
        2
176
     1
 90
        2
176
     1
 90
        1
176
     1
 90
        2
176
     1
 40
0.6
176
     1
 40
30.0
176
     1
 62
     7
420
 16777215
176
     1
 90
        1
176
     1
 90
        0
176
     1
 62
     7
176
     1
 62
   257
176
     1
 90
        1
176
     1
 90
        1
176
     1
 40
1.0
176
     1
 90
        0
176
     1
 62
   257
176
     1
 40
1.0
176
     1
 90
        1
176
     1
 90
        6
176
     1
 90
        2
176
     1
 62
     7
176
     1
 90
        5
176
     1
 90
        0
176
     1
 90
        0
176
     1
290
     0
176
     1
 90
       13
176
     1
 40
0.0
176
     1
 90
        0
176
     1
290
     0
176
     1
290
     1
176
     1
290
     1
176
     1
290
     0
176
     1
290
     0
176
     1
290
     0
176
     1
290
     0
176
     1
290
     0
176
     1
290
     0
176
     1
 90
       50
176
     1
 40
0.0
176
     1
 40
1.0
176
     1
 90
        0
176
     1
 62
    18
420
        0
176
     1
 90
       50
176
     1
 90
        3
176
     1
 62
     5
420
      255
176
     1
290
     0
176
     1
 90
       50
176
     1
 90
       50
176
     1
 90
       50
176
     1
290
     0
176
     1
 90
       50
176
     1
 62
   256
176
     0
 40
1.0
176
     0
 90
        2
176
     1
  1
strokes_ogs.tif
176
     1
290
     0
176
     1
 40
1.0
176
     1
 40
1.0
176
     1
  0
VISUALSTYLE
  5
31
102
{ACAD_REACTORS
330
2A
102
}
330
2A
100
AcDbVisualStyle
  2
Hidden
 70
     6
177
     3
291
     0
 70
    58
 90
        1
176
     1
 90
        2
176
     1
 90
        2
176
     1
 90
        0
176
     1
 40
0.6
176
     1
 40
30.0
176
     1
 62
     7
420
 16777215
176
     1
 90
        2
176
     1
 90
        2
176
     1
 62
     7
176
     1
 62
   257
176
     1
 90
        2
176
     1
 90
        1
176
     1
 40
40.0
176
     1
 90
        0
176
     1
 62
   257
176
     1
 40
1.0
176
     1
 90
        1
176
     1
 90
        6
176
     1
 90
        2
176
     1
 62
     7
176
     1
 90
        3
176
     1
 90
        0
176
     1
 90
        0
176
     1
290
     0
176
     1
 90
        1
176
     1
 40
0.0
176
     1
 90
        0
176
     1
290
     0
176
     1
290
     1
176
     1
290
     1
176
     1
290
     0
176
     1
290
     0
176
     1
290
     0
176
     1
290
     0
176
     1
290
     0
176
     1
290
     0
176
     1
 90
       50
176
     1
 40
0.0
176
     1
 40
1.0
176
     1
 90
        0
176
     1
 62
    18
420
        0
176
     1
 90
       50
176
     1
 90
        3
176
     1
 62
     5
420
      255
176
     1
290
     0
176
     1
 90
       50
176
     1
 90
       50
176
     1
 90
       50
176
     1
290
     0
176
     1
 90
       50
176
     1
 62
   256
176
     0
 40
1.0
176
     0
 90
        2
176
     1
  1
strokes_ogs.tif
176
     1
290
     0
176
     1
 40
1.0
176
     1
 40
1.0
176
     1
  0
VISUALSTYLE
  5
3B
102
{ACAD_REACTORS
330
2A
102
}
330
2A
100
AcDbVisualStyle
  2
JitterOff
 70
    20
177
     3
291
     1
 70
    58
 90
        2
176
     0
 90
        2
176
     0
 90
        0
176
     0
 90
        0
176
     0
 40
0.6
176
     0
 40
30.0
176
     0
 62
     7
420
 16777215
176
     0
 90
        1
176
     0
 90
        4
176
     0
 62
     7
176
     0
 62
   257
176
     0
 90
        1
176
     0
 90
        1
176
     0
 40
1.0
176
     0
 90
       10
176
     2
 62
     7
176
     0
 40
1.0
176
     0
 90
        1
176
     0
 90
        6
176
     0
 90
        2
176
     0
 62
     7
176
     0
 90
        5
176
     0
 90
        0
176
     0
 90
        0
176
     0
290
     0
176
     0
 90
        1
176
     0
 40
0.0
176
     0
 90
        0
176
     0
290
     0
176
     0
290
     1
176
     0
290
     1
176
     0
290
     0
176
     0
290
     0
176
     0
290
     0
176
     0
290
     0
176
     0
290
     0
176
     0
290
     0
176
     0
 90
       50
176
     0
 40
0.0
176
     0
 40
1.0
176
     0
 90
        0
176
     0
 62
    18
420
        0
176
     0
 90
       50
176
     0
 90
        3
176
     0
 62
     5
420
      255
176
     0
290
     0
176
     0
 90
       50
176
     0
 90
       50
176
     0
 90
       50
176
     0
290
     0
176
     0
 90
       50
176
     0
 62
   256
176
     0
 40
1.0
176
     0
 90
        2
176
     0
  1
strokes_ogs.tif
176
     0
290
     0
176
     0
 40
1.0
176
     0
 40
1.0
176
     0
  0
VISUALSTYLE
  5
38
102
{ACAD_REACTORS
330
2A
102
}
330
2A
100
AcDbVisualStyle
  2
Linepattern
 70
    14
177
     3
291
     1
 70
    58
 90
        2
176
     1
 90
        2
176
     1
 90
        0
176
     1
 90
        0
176
     1
 40
0.6
176
     1
 40
30.0
176
     1
 62
     7
420
 16777215
176
     1
 90
        1
176
     1
 90
        4
176
     1
 62
     7
176
     1
 62
   257
176
     1
 90
        7
176
     1
 90
        7
176
     1
 40
1.0
176
     1
 90
        8
176
     1
 62
     7
176
     1
 40
1.0
176
     1
 90
        1
176
     1
 90
        6
176
     1
 90
        2
176
     1
 62
     7
176
     1
 90
        5
176
     1
 90
        0
176
     1
 90
        0
176
     1
290
     0
176
     1
 90
        1
176
     1
 40
0.0
176
     1
 90
        0
176
     1
290
     0
176
     1
290
     1
176
     1
290
     1
176
     1
290
     0
176
     1
290
     0
176
     1
290
     0
176
     1
290
     0
176
     1
290
     0
176
     1
290
     0
176
     1
 90
       50
176
     1
 40
0.0
176
     1
 40
1.0
176
     1
 90
        0
176
     1
 62
    18
420
        0
176
     1
 90
       50
176
     1
 90
        3
176
     1
 62
     5
420
      255
176
     1
290
     0
176
     1
 90
       50
176
     1
 90
       50
176
     1
 90
       50
176
     1
290
     0
176
     1
 90
       50
176
     1
 62
   256
176
     0
 40
1.0
176
     0
 90
        2
176
     1
  1
strokes_ogs.tif
176
     1
290
     0
176
     1
 40
1.0
176
     1
 40
1.0
176
     1
  0
VISUALSTYLE
  5
3C
102
{ACAD_REACTORS
330
2A
102
}
330
2A
100
AcDbVisualStyle
  2
OverhangOff
 70
    21
177
     3
291
     1
 70
    58
 90
        2
176
     0
 90
        2
176
     0
 90
        0
176
     0
 90
        0
176
     0
 40
0.6
176
     0
 40
30.0
176
     0
 62
     7
420
 16777215
176
     0
 90
        1
176
     0
 90
        4
176
     0
 62
     7
176
     0
 62
   257
176
     0
 90
        1
176
     0
 90
        1
176
     0
 40
1.0
176
     0
 90
        9
176
     2
 62
     7
176
     0
 40
1.0
176
     0
 90
        1
176
     0
 90
        6
176
     0
 90
        2
176
     0
 62
     7
176
     0
 90
        5
176
     0
 90
        0
176
     0
 90
        0
176
     0
290
     0
176
     0
 90
        1
176
     0
 40
0.0
176
     0
 90
        0
176
     0
290
     0
176
     0
290
     1
176
     0
290
     1
176
     0
290
     0
176
     0
290
     0
176
     0
290
     0
176
     0
290
     0
176
     0
290
     0
176
     0
290
     0
176
     0
 90
       50
176
     0
 40
0.0
176
     0
 40
1.0
176
     0
 90
        0
176
     0
 62
    18
420
        0
176
     0
 90
       50
176
     0
 90
        3
176
     0
 62
     5
420
      255
176
     0
290
     0
176
     0
 90
       50
176
     0
 90
       50
176
     0
 90
       50
176
     0
290
     0
176
     0
 90
       50
176
     0
 62
   256
176
     0
 40
1.0
176
     0
 90
        2
176
     0
  1
strokes_ogs.tif
176
     0
290
     0
176
     0
 40
1.0
176
     0
 40
1.0
176
     0
  0
VISUALSTYLE
  5
33
102
{ACAD_REACTORS
330
2A
102
}
330
2A
100
AcDbVisualStyle
  2
Realistic
 70
     8
177
     3
291
     0
 70
    58
 90
        2
176
     1
 90
        3
176
     1
 90
        0
176
     1
 90
        2
176
     1
 40
0.6
176
     1
 40
30.0
176
     1
 62
     7
420
 16777215
176
     1
 90
        0
176
     1
 90
        0
176
     1
 62
     7
176
     1
 62
   257
176
     1
 90
        1
176
     1
 90
        1
176
     1
 40
1.0
176
     1
 90
        8
176
     1
 62
   257
176
     1
 40
1.0
176
     1
 90
        1
176
     1
 90
        6
176
     1
 90
        2
176
     1
 62
     7
176
     1
 90
        3
176
     1
 90
        0
176
     1
 90
        0
176
     1
290
     0
176
     1
 90
       13
176
     1
 40
0.0
176
     1
 90
        0
176
     1
290
     0
176
     1
290
     1
176
     1
290
     1
176
     1
290
     0
176
     1
290
     0
176
     1
290
     0
176
     1
290
     0
176
     1
290
     0
176
     1
290
     0
176
     1
 90
       50
176
     1
 40
0.0
176
     1
 40
1.0
176
     1
 90
        0
176
     1
 62
    18
420
        0
176
     1
 90
       50
176
     1
 90
        3
176
     1
 62
     5
420
      255
176
     1
290
     0
176
     1
 90
       50
176
     1
 90
       50
176
     1
 90
       50
176
     1
290
     0
176
     1
 90
       50
176
     1
 62
   256
176
     0
 40
1.0
176
     0
 90
        2
176
     1
  1
strokes_ogs.tif
176
     1
290
     0
176
     1
 40
1.0
176
     1
 40
1.0
176
     1
  0
VISUALSTYLE
  5
42
102
{ACAD_REACTORS
330
2A
102
}
330
2A
100
AcDbVisualStyle
  2
Shaded
 70
    27
177
     3
291
     0
 70
    58
 90
        2
176
     1
 90
        2
176
     1
 90
        1
176
     1
 90
        2
176
     1
 40
0.6
176
     1
 40
30.0
176
     1
 62
     7
420
 16777215
176
     1
 90
        0
176
     1
 90
        4
176
     1
 62
     7
176
     1
 62
   257
176
     1
 90
        1
176
     1
 90
        1
176
     1
 40
1.0
176
     1
 90
        8
176
     1
 62
   257
176
     1
 40
1.0
176
     1
 90
        1
176
     1
 90
        6
176
     1
 90
        2
176
     1
 62
     8
420
  7895160
176
     1
 90
        3
176
     1
 90
        0
176
     1
 90
        0
176
     1
290
     0
176
     1
 90
        5
176
     1
 40
0.0
176
     1
 90
        0
176
     1
290
     0
176
     1
290
     1
176
     1
290
     1
176
     1
290
     0
176
     1
290
     0
176
     1
290
     0
176
     1
290
     0
176
     1
290
     0
176
     1
290
     0
176
     1
 90
       50
176
     1
 40
0.0
176
     1
 40
1.0
176
     1
 90
        0
176
     1
 62
    18
420
        0
176
     1
 90
       50
176
     1
 90
        3
176
     1
 62
     5
420
      255
176
     1
290
     0
176
     1
 90
       50
176
     1
 90
       50
176
     1
 90
       50
176
     1
290
     0
176
     1
 90
       50
176
     1
 62
   256
176
     0
 40
1.0
176
     0
 90
        2
176
     1
  1
strokes_ogs.tif
176
     1
290
     0
176
     1
 40
1.0
176
     1
 40
1.0
176
     1
  0
VISUALSTYLE
  5
41
102
{ACAD_REACTORS
330
2A
102
}
330
2A
100
AcDbVisualStyle
  2
Shaded with edges
 70
    26
177
     3
291
     0
 70
    58
 90
        2
176
     1
 90
        2
176
     1
 90
        1
176
     1
 90
        2
176
     1
 40
0.6
176
     1
 40
30.0
176
     1
 62
     7
420
 16777215
176
     1
 90
        1
176
     1
 90
       10
176
     1
 62
     7
176
     1
 62
   257
176
     1
 90
        2
176
     1
 90
        1
176
     1
 40
1.0
176
     1
 90
        8
176
     1
 62
   257
176
     1
 40
1.0
176
     1
 90
        1
176
     1
 90
        6
176
     1
 90
        2
176
     1
 62
     7
176
     1
 90
        3
176
     1
 90
        0
176
     1
 90
        0
176
     1
290
     0
176
     1
 90
        5
176
     1
 40
0.0
176
     1
 90
        0
176
     1
290
     0
176
     1
290
     1
176
     1
290
     1
176
     1
290
     0
176
     1
290
     0
176
     1
290
     0
176
     1
290
     0
176
     1
290
     0
176
     1
290
     0
176
     1
 90
       50
176
     1
 40
0.0
176
     1
 40
1.0
176
     1
 90
        0
176
     1
 62
    18
420
        0
176
     1
 90
       50
176
     1
 90
        3
176
     1
 62
     5
420
      255
176
     1
290
     0
176
     1
 90
       50
176
     1
 90
       50
176
     1
 90
       50
176
     1
290
     0
176
     1
 90
       50
176
     1
 62
   256
176
     0
 40
1.0
176
     0
 90
        2
176
     1
  1
strokes_ogs.tif
176
     1
290
     0
176
     1
 40
1.0
176
     1
 40
1.0
176
     1
  0
VISUALSTYLE
  5
3E
102
{ACAD_REACTORS
330
2A
102
}
330
2A
100
AcDbVisualStyle
  2
Shades of Gray
 70
    23
177
     3
291
     0
 70
    58
 90
        2
176
     1
 90
        2
176
     1
 90
        3
176
     1
 90
        0
176
     1
 40
0.6
176
     1
 40
30.0
176
     1
 62
     7
420
 16777215
176
     1
 90
        2
176
     1
 90
        2
176
     1
 62
     7
176
     1
 62
     7
176
     1
 90
        1
176
     1
 90
        1
176
     1
 40
40.0
176
     1
 90
        8
176
     1
 62
     7
176
     1
 40
1.0
176
     1
 90
        1
176
     1
 90
        6
176
     1
 90
        2
176
     1
 62
     7
176
     1
 90
        3
176
     1
 90
        0
176
     1
 90
        0
176
     1
290
     0
176
     1
 90
        1
176
     1
 40
0.0
176
     1
 90
        0
176
     1
290
     0
176
     1
290
     1
176
     1
290
     1
176
     1
290
     0
176
     1
290
     0
176
     1
290
     0
176
     1
290
     0
176
     1
290
     0
176
     1
290
     0
176
     1
 90
       50
176
     1
 40
0.0
176
     1
 40
1.0
176
     1
 90
        0
176
     1
 62
    18
420
        0
176
     1
 90
       50
176
     1
 90
        3
176
     1
 62
     5
420
      255
176
     1
290
     0
176
     1
 90
       50
176
     1
 90
       50
176
     1
 90
       50
176
     1
290
     0
176
     1
 90
       50
176
     1
 62
   256
176
     0
 40
1.0
176
     0
 90
        2
176
     1
  1
strokes_ogs.tif
176
     1
290
     0
176
     1
 40
1.0
176
     1
 40
1.0
176
     1
  0
VISUALSTYLE
  5
3F
102
{ACAD_REACTORS
330
2A
102
}
330
2A
100
AcDbVisualStyle
  2
Sketchy
 70
    24
177
     3
291
     0
 70
    58
 90
        1
176
     1
 90
        2
176
     1
 90
        2
176
     1
 90
        0
176
     1
 40
0.6
176
     1
 40
30.0
176
     1
 62
     7
420
 16777215
176
     1
 90
        2
176
     1
 90
        2
176
     1
 62
     7
176
     1
 62
     7
176
     1
 90
        1
176
     1
 90
        1
176
     1
 40
40.0
176
     1
 90
       11
176
     1
 62
     7
176
     1
 40
1.0
176
     1
 90
        1
176
     1
 90
        6
176
     1
 90
        2
176
     1
 62
     7
176
     1
 90
        6
176
     1
 90
        0
176
     1
 90
        0
176
     1
290
     0
176
     1
 90
        1
176
     1
 40
0.0
176
     1
 90
        0
176
     1
290
     0
176
     1
290
     1
176
     1
290
     1
176
     1
290
     0
176
     1
290
     0
176
     1
290
     0
176
     1
290
     0
176
     1
290
     0
176
     1
290
     0
176
     1
 90
       50
176
     1
 40
0.0
176
     1
 40
1.0
176
     1
 90
        0
176
     1
 62
    18
420
        0
176
     1
 90
       50
176
     1
 90
        3
176
     1
 62
     5
420
      255
176
     1
290
     0
176
     1
 90
       50
176
     1
 90
       50
176
     1
 90
       50
176
     1
290
     0
176
     1
 90
       50
176
     1
 62
   256
176
     0
 40
1.0
176
     0
 90
        2
176
     1
  1
strokes_ogs.tif
176
     1
290
     0
176
     1
 40
1.0
176
     1
 40
1.0
176
     1
  0
VISUALSTYLE
  5
37
102
{ACAD_REACTORS
330
2A
102
}
330
2A
100
AcDbVisualStyle
  2
Thicken
 70
    13
177
     3
291
     1
 70
    58
 90
        2
176
     1
 90
        2
176
     1
 90
        0
176
     1
 90
        0
176
     1
 40
0.6
176
     1
 40
30.0
176
     1
 62
     7
420
 16777215
176
     1
 90
        1
176
     1
 90
        4
176
     1
 62
     7
176
     1
 62
   257
176
     1
 90
        1
176
     1
 90
        1
176
     1
 40
1.0
176
     1
 90
       12
176
     1
 62
     7
176
     1
 40
1.0
176
     1
 90
        1
176
     1
 90
        6
176
     1
 90
        2
176
     1
 62
     7
176
     1
 90
        5
176
     1
 90
        0
176
     1
 90
        0
176
     1
290
     0
176
     1
 90
        1
176
     1
 40
0.0
176
     1
 90
        0
176
     1
290
     0
176
     1
290
     1
176
     1
290
     1
176
     1
290
     0
176
     1
290
     0
176
     1
290
     0
176
     1
290
     0
176
     1
290
     0
176
     1
290
     0
176
     1
 90
       50
176
     1
 40
0.0
176
     1
 40
1.0
176
     1
 90
        0
176
     1
 62
    18
420
        0
176
     1
 90
       50
176
     1
 90
        3
176
     1
 62
     5
420
      255
176
     1
290
     0
176
     1
 90
       50
176
     1
 90
       50
176
     1
 90
       50
176
     1
290
     0
176
     1
 90
       50
176
     1
 62
   256
176
     0
 40
1.0
176
     0
 90
        2
176
     1
  1
strokes_ogs.tif
176
     1
290
     0
176
     1
 40
1.0
176
     1
 40
1.0
176
     1
  0
VISUALSTYLE
  5
30
102
{ACAD_REACTORS
330
2A
102
}
330
2A
100
AcDbVisualStyle
  2
Wireframe
 70
     5
177
     3
291
     0
 70
    58
 90
        0
176
     1
 90
        2
176
     1
 90
        0
176
     1
 90
        0
176
     1
 40
0.6
176
     1
 40
30.0
176
     1
 62
     7
420
 16777215
176
     1
 90
        1
176
     1
 90
        4
176
     1
 62
     7
176
     1
 62
   257
176
     1
 90
        1
176
     1
 90
        1
176
     1
 40
1.0
176
     1
 90
        0
176
     1
 62
   257
176
     1
 40
1.0
176
     1
 90
        1
176
     1
 90
        6
176
     1
 90
        2
176
     1
 62
     7
176
     1
 90
        3
176
     1
 90
        0
176
     1
 90
        0
176
     1
290
     0
176
     1
 90
        1
176
     1
 40
0.0
176
     1
 90
        0
176
     1
290
     0
176
     1
290
     1
176
     1
290
     1
176
     1
290
     0
176
     1
290
     0
176
     1
290
     0
176
     1
290
     0
176
     1
290
     0
176
     1
290
     0
176
     1
 90
       50
176
     1
 40
0.0
176
     1
 40
1.0
176
     1
 90
        0
176
     1
 62
    18
420
        0
176
     1
 90
       50
176
     1
 90
        3
176
     1
 62
     5
420
      255
176
     1
290
     0
176
     1
 90
       50
176
     1
 90
       50
176
     1
 90
       50
176
     1
290
     0
176
     1
 90
       50
176
     1
 62
   256
176
     0
 40
1.0
176
     0
 90
        2
176
     1
  1
strokes_ogs.tif
176
     1
290
     0
176
     1
 40
1.0
176
     1
 40
1.0
176
     1
  0
VISUALSTYLE
  5
40
102
{ACAD_REACTORS
330
2A
102
}
330
2A
100
AcDbVisualStyle
  2
X-Ray
 70
    25
177
     3
291
     0
 70
    58
 90
        2
176
     1
 90
        2
176
     1
 90
        1
176
     1
 90
        1
176
     1
 40
0.5
176
     1
 40
30.0
176
     1
 62
     7
420
 16777215
176
     1
 90
        1
176
     1
 90
        0
176
     1
 62
     7
176
     1
 62
   257
176
     1
 90
        1
176
     1
 90
        1
176
     1
 40
1.0
176
     1
 90
        8
176
     1
 62
     7
176
     1
 40
1.0
176
     1
 90
        1
176
     1
 90
        6
176
     1
 90
        2
176
     1
 62
     7
176
     1
 90
        3
176
     1
 90
        0
176
     1
 90
        0
176
     1
290
     0
176
     1
 90
       13
176
     1
 40
0.0
176
     1
 90
        0
176
     1
290
     0
176
     1
290
     1
176
     1
290
     1
176
     1
290
     0
176
     1
290
     0
176
     1
290
     0
176
     1
290
     0
176
     1
290
     0
176
     1
290
     0
176
     1
 90
       50
176
     1
 40
0.0
176
     1
 40
1.0
176
     1
 90
        0
176
     1
 62
    18
420
        0
176
     1
 90
       50
176
     1
 90
        3
176
     1
 62
     5
420
      255
176
     1
290
     0
176
     1
 90
       50
176
     1
 90
       50
176
     1
 90
       50
176
     1
290
     0
176
     1
 90
       50
176
     1
 62
   256
176
     0
 40
1.0
176
     0
 90
        2
176
     1
  1
strokes_ogs.tif
176
     1
290
     0
176
     1
 40
1.0
176
     1
 40
1.0
176
     1
  0
DICTIONARYVAR
  5
7C
102
{ACAD_REACTORS
330
7B
102
}
330
7B
100
DictionaryVariables
280
     0
  1
1:1
  0
DICTIONARYVAR
  5
81
102
{ACAD_REACTORS
330
7B
102
}
330
7B
100
DictionaryVariables
280
     0
  1
Standard
  0
DICTIONARYVAR
  5
80
102
{ACAD_REACTORS
330
7B
102
}
330
7B
100
DictionaryVariables
280
     0
  1
Standard
  0
DICTIONARY
  5
7D
330
5A
100
AcDbDictionary
280
     1
281
     1
  3
ACAD_ROUNDTRIP_2008_TABLESTYLE_CELLSTYLEMAP
360
7E
  0
CELLSTYLEMAP
  5
7E
102
{ACAD_REACTORS
330
7D
102
}
330
7D
100
AcDbCellStyleMap
 90
        3
300
CELLSTYLE
  1
TABLEFORMAT_BEGIN
 90
        5
170
     1
 91
        0
 92
    32768
 62
   257
 93
        1
300
CONTENTFORMAT
  1
CONTENTFORMAT_BEGIN
 90
        0
 91
        0
 92
        4
 93
        0
300

 40
0.0
140
1.0
 94
        5
 62
     0
340
11
144
0.25
309
CONTENTFORMAT_END
171
     1
301
MARGIN
  1
CELLMARGIN_BEGIN
 40
0.06
 40
0.06
 40
0.06
 40
0.06
 40
0.06
 40
0.06
309
CELLMARGIN_END
 94
        6
 95
        1
302
GRIDFORMAT
  1
GRIDFORMAT_BEGIN
 90
        0
 91
        1
 62
     0
 92
       -2
340
14
 93
        0
 40
0.045
309
GRIDFORMAT_END
 95
        2
302
GRIDFORMAT
  1
GRIDFORMAT_BEGIN
 90
        0
 91
        1
 62
     0
 92
       -2
340
14
 93
        0
 40
0.045
309
GRIDFORMAT_END
 95
        4
302
GRIDFORMAT
  1
GRIDFORMAT_BEGIN
 90
        0
 91
        1
 62
     0
 92
       -2
340
14
 93
        0
 40
0.045
309
GRIDFORMAT_END
 95
        8
302
GRIDFORMAT
  1
GRIDFORMAT_BEGIN
 90
        0
 91
        1
 62
     0
 92
       -2
340
14
 93
        0
 40
0.045
309
GRIDFORMAT_END
 95
       16
302
GRIDFORMAT
  1
GRIDFORMAT_BEGIN
 90
        0
 91
        1
 62
     0
 92
       -2
340
14
 93
        0
 40
0.045
309
GRIDFORMAT_END
 95
       32
302
GRIDFORMAT
  1
GRIDFORMAT_BEGIN
 90
        0
 91
        1
 62
     0
 92
       -2
340
14
 93
        0
 40
0.045
309
GRIDFORMAT_END
309
TABLEFORMAT_END
  1
CELLSTYLE_BEGIN
 90
        1
 91
        1
300
_TITLE
309
CELLSTYLE_END
300
CELLSTYLE
  1
TABLEFORMAT_BEGIN
 90
        5
170
     1
 91
        0
 92
        0
 62
   257
 93
        1
300
CONTENTFORMAT
  1
CONTENTFORMAT_BEGIN
 90
        0
 91
        0
 92
        4
 93
        0
300

 40
0.0
140
1.0
 94
        5
 62
     0
340
11
144
0.18
309
CONTENTFORMAT_END
171
     1
301
MARGIN
  1
CELLMARGIN_BEGIN
 40
0.06
 40
0.06
 40
0.06
 40
0.06
 40
0.06
 40
0.06
309
CELLMARGIN_END
 94
        6
 95
        1
302
GRIDFORMAT
  1
GRIDFORMAT_BEGIN
 90
        0
 91
        1
 62
     0
 92
       -2
340
14
 93
        0
 40
0.045
309
GRIDFORMAT_END
 95
        2
302
GRIDFORMAT
  1
GRIDFORMAT_BEGIN
 90
        0
 91
        1
 62
     0
 92
       -2
340
14
 93
        0
 40
0.045
309
GRIDFORMAT_END
 95
        4
302
GRIDFORMAT
  1
GRIDFORMAT_BEGIN
 90
        0
 91
        1
 62
     0
 92
       -2
340
14
 93
        0
 40
0.045
309
GRIDFORMAT_END
 95
        8
302
GRIDFORMAT
  1
GRIDFORMAT_BEGIN
 90
        0
 91
        1
 62
     0
 92
       -2
340
14
 93
        0
 40
0.045
309
GRIDFORMAT_END
 95
       16
302
GRIDFORMAT
  1
GRIDFORMAT_BEGIN
 90
        0
 91
        1
 62
     0
 92
       -2
340
14
 93
        0
 40
0.045
309
GRIDFORMAT_END
 95
       32
302
GRIDFORMAT
  1
GRIDFORMAT_BEGIN
 90
        0
 91
        1
 62
     0
 92
       -2
340
14
 93
        0
 40
0.045
309
GRIDFORMAT_END
309
TABLEFORMAT_END
  1
CELLSTYLE_BEGIN
 90
        2
 91
        1
300
_HEADER
309
CELLSTYLE_END
300
CELLSTYLE
  1
TABLEFORMAT_BEGIN
 90
        5
170
     1
 91
        0
 92
        0
 62
   257
 93
        1
300
CONTENTFORMAT
  1
CONTENTFORMAT_BEGIN
 90
        0
 91
        0
 92
        4
 93
        0
300

 40
0.0
140
1.0
 94
        2
 62
     0
340
11
144
0.18
309
CONTENTFORMAT_END
171
     1
301
MARGIN
  1
CELLMARGIN_BEGIN
 40
0.06
 40
0.06
 40
0.06
 40
0.06
 40
0.06
 40
0.06
309
CELLMARGIN_END
 94
        6
 95
        1
302
GRIDFORMAT
  1
GRIDFORMAT_BEGIN
 90
        0
 91
        1
 62
     0
 92
       -2
340
14
 93
        0
 40
0.045
309
GRIDFORMAT_END
 95
        2
302
GRIDFORMAT
  1
GRIDFORMAT_BEGIN
 90
        0
 91
        1
 62
     0
 92
       -2
340
14
 93
        0
 40
0.045
309
GRIDFORMAT_END
 95
        4
302
GRIDFORMAT
  1
GRIDFORMAT_BEGIN
 90
        0
 91
        1
 62
     0
 92
       -2
340
14
 93
        0
 40
0.045
309
GRIDFORMAT_END
 95
        8
302
GRIDFORMAT
  1
GRIDFORMAT_BEGIN
 90
        0
 91
        1
 62
     0
 92
       -2
340
14
 93
        0
 40
0.045
309
GRIDFORMAT_END
 95
       16
302
GRIDFORMAT
  1
GRIDFORMAT_BEGIN
 90
        0
 91
        1
 62
     0
 92
       -2
340
14
 93
        0
 40
0.045
309
GRIDFORMAT_END
 95
       32
302
GRIDFORMAT
  1
GRIDFORMAT_BEGIN
 90
        0
 91
        1
 62
     0
 92
       -2
340
14
 93
        0
 40
0.045
309
GRIDFORMAT_END
309
TABLEFORMAT_END
  1
CELLSTYLE_BEGIN
 90
        3
 91
        2
300
_DATA
309
CELLSTYLE_END
  0
ENDSEC
  0
EOF
