  0
SECTION
  2
HEADER
  9
$ACADVER
  1
AC1027
  9
$ACADMAINTVER
 70
   105
  9
$DWGCODEPAGE
  3
ANSI_1252
  9
$LASTSAVEDBY
  1
Office Desk
  9
$REQUIREDVERSIONS
160
                 0
  9
$INSBASE
 10
0.0
 20
0.0
 30
0.0
  9
$EXTMIN
 10
8.025905511811024
 20
-8.744051181102362
 30
0.0
  9
$EXTMAX
 10
16.06929921259843
 20
-5.038527559055118
 30
0.0
  9
$LIMMIN
 10
0.0
 20
0.0
  9
$LIMMAX
 10
12.0
 20
9.0
  9
$ORTHOMODE
 70
     0
  9
$REGENMODE
 70
     1
  9
$FILLMODE
 70
     1
  9
$QTEXTMODE
 70
     0
  9
$MIRRTEXT
 70
     1
  9
$LTSCALE
 40
1.0
  9
$ATTMODE
 70
     1
  9
$TEXTSIZE
 40
0.2
  9
$TRACEWID
 40
0.05
  9
$TEXTSTYLE
  7
Standard
  9
$CLAYER
  8
0
  9
$CELTYPE
  6
ByLayer
  9
$CECOLOR
 62
   256
  9
$CELTSCALE
 40
1.0
  9
$DISPSILH
 70
     0
  9
$DIMSCALE
 40
1.0
  9
$DIMASZ
 40
0.18
  9
$DIMEXO
 40
0.0625
  9
$DIMDLI
 40
0.38
  9
$DIMRND
 40
0.0
  9
$DIMDLE
 40
0.0
  9
$DIMEXE
 40
0.18
  9
$DIMTP
 40
0.0
  9
$DIMTM
 40
0.0
  9
$DIMTXT
 40
0.18
  9
$DIMCEN
 40
0.09
  9
$DIMTSZ
 40
0.0
  9
$DIMTOL
 70
     0
  9
$DIMLIM
 70
     0
  9
$DIMTIH
 70
     1
  9
$DIMTOH
 70
     1
  9
$DIMSE1
 70
     0
  9
$DIMSE2
 70
     0
  9
$DIMTAD
 70
     0
  9
$DIMZIN
 70
     0
  9
$DIMBLK
  1

  9
$DIMASO
 70
     1
  9
$DIMSHO
 70
     1
  9
$DIMPOST
  1

  9
$DIMAPOST
  1

  9
$DIMALT
 70
     0
  9
$DIMALTD
 70
     2
  9
$DIMALTF
 40
25.4
  9
$DIMLFAC
 40
1.0
  9
$DIMTOFL
 70
     0
  9
$DIMTVP
 40
0.0
  9
$DIMTIX
 70
     0
  9
$DIMSOXD
 70
     0
  9
$DIMSAH
 70
     0
  9
$DIMBLK1
  1

  9
$DIMBLK2
  1

  9
$DIMSTYLE
  2
Standard
  9
$DIMCLRD
 70
     0
  9
$DIMCLRE
 70
     0
  9
$DIMCLRT
 70
     0
  9
$DIMTFAC
 40
1.0
  9
$DIMGAP
 40
0.09
  9
$DIMJUST
 70
     0
  9
$DIMSD1
 70
     0
  9
$DIMSD2
 70
     0
  9
$DIMTOLJ
 70
     1
  9
$DIMTZIN
 70
     0
  9
$DIMALTZ
 70
     0
  9
$DIMALTTZ
 70
     0
  9
$DIMUPT
 70
     0
  9
$DIMDEC
 70
     4
  9
$DIMTDEC
 70
     4
  9
$DIMALTU
 70
     2
  9
$DIMALTTD
 70
     2
  9
$DIMTXSTY
  7
Standard
  9
$DIMAUNIT
 70
     0
  9
$DIMADEC
 70
     0
  9
$DIMALTRND
 40
0.0
  9
$DIMAZIN
 70
     0
  9
$DIMDSEP
 70
    46
  9
$DIMATFIT
 70
     3
  9
$DIMFRAC
 70
     0
  9
$DIMLDRBLK
  1

  9
$DIMLUNIT
 70
     2
  9
$DIMLWD
 70
    -2
  9
$DIMLWE
 70
    -2
  9
$DIMTMOVE
 70
     0
  9
$DIMFXL
 40
1.0
  9
$DIMFXLON
 70
     0
  9
$DIMJOGANG
 40
0.7853981633974483
  9
$DIMTFILL
 70
     0
  9
$DIMTFILLCLR
 70
     0
  9
$DIMARCSYM
 70
     0
  9
$DIMLTYPE
  6

  9
$DIMLTEX1
  6

  9
$DIMLTEX2
  6

  9
$DIMTXTDIRECTION
 70
     0
  9
$LUNITS
 70
     2
  9
$LUPREC
 70
     4
  9
$SKETCHINC
 40
0.1
  9
$FILLETRAD
 40
0.0
  9
$AUNITS
 70
     0
  9
$AUPREC
 70
     0
  9
$MENU
  1
.
  9
$ELEVATION
 40
0.0
  9
$PELEVATION
 40
0.0
  9
$THICKNESS
 40
0.0
  9
$LIMCHECK
 70
     0
  9
$CHAMFERA
 40
0.0
  9
$CHAMFERB
 40
0.0
  9
$CHAMFERC
 40
0.0
  9
$CHAMFERD
 40
0.0
  9
$SKPOLY
 70
     0
  9
$TDCREATE
 40
2461020.708712662
  9
$TDUCREATE
 40
2461020.479545996
  9
$TDUPDATE
 40
2461020.708712686
  9
$TDUUPDATE
 40
2461020.479546019
  9
$TDINDWG
 40
0.0000000116
  9
$TDUSRTIMER
 40
0.0000000116
  9
$USRTIMER
 70
     1
  9
$ANGBASE
 50
0.0
  9
$ANGDIR
 70
     0
  9
$PDMODE
 70
     0
  9
$PDSIZE
 40
0.0
  9
$PLINEWID
 40
0.0
  9
$SPLFRAME
 70
     0
  9
$SPLINETYPE
 70
     6
  9
$SPLINESEGS
 70
     8
  9
$HANDSEED
  5
8B
  9
$SURFTAB1
 70
     6
  9
$SURFTAB2
 70
     6
  9
$SURFTYPE
 70
     6
  9
$SURFU
 70
     6
  9
$SURFV
 70
     6
  9
$UCSBASE
  2

  9
$UCSNAME
  2

  9
$UCSORG
 10
0.0
 20
0.0
 30
0.0
  9
$UCSXDIR
 10
1.0
 20
0.0
 30
0.0
  9
$UCSYDIR
 10
0.0
 20
1.0
 30
0.0
  9
$UCSORTHOREF
  2

  9
$UCSORTHOVIEW
 70
     0
  9
$UCSORGTOP
 10
0.0
 20
0.0
 30
0.0
  9
$UCSORGBOTTOM
 10
0.0
 20
0.0
 30
0.0
  9
$UCSORGLEFT
 10
0.0
 20
0.0
 30
0.0
  9
$UCSORGRIGHT
 10
0.0
 20
0.0
 30
0.0
  9
$UCSORGFRONT
 10
0.0
 20
0.0
 30
0.0
  9
$UCSORGBACK
 10
0.0
 20
0.0
 30
0.0
  9
$PUCSBASE
  2

  9
$PUCSNAME
  2

  9
$PUCSORG
 10
0.0
 20
0.0
 30
0.0
  9
$PUCSXDIR
 10
1.0
 20
0.0
 30
0.0
  9
$PUCSYDIR
 10
0.0
 20
1.0
 30
0.0
  9
$PUCSORTHOREF
  2

  9
$PUCSORTHOVIEW
 70
     0
  9
$PUCSORGTOP
 10
0.0
 20
0.0
 30
0.0
  9
$PUCSORGBOTTOM
 10
0.0
 20
0.0
 30
0.0
  9
$PUCSORGLEFT
 10
0.0
 20
0.0
 30
0.0
  9
$PUCSORGRIGHT
 10
0.0
 20
0.0
 30
0.0
  9
$PUCSORGFRONT
 10
0.0
 20
0.0
 30
0.0
  9
$PUCSORGBACK
 10
0.0
 20
0.0
 30
0.0
  9
$USERI1
 70
     0
  9
$USERI2
 70
     0
  9
$USERI3
 70
     0
  9
$USERI4
 70
     0
  9
$USERI5
 70
     0
  9
$USERR1
 40
0.0
  9
$USERR2
 40
0.0
  9
$USERR3
 40
0.0
  9
$USERR4
 40
0.0
  9
$USERR5
 40
0.0
  9
$WORLDVIEW
 70
     1
  9
$SHADEDGE
 70
     3
  9
$SHADEDIF
 70
    70
  9
$TILEMODE
 70
     1
  9
$MAXACTVP
 70
    64
  9
$PINSBASE
 10
0.0
 20
0.0
 30
0.0
  9
$PLIMCHECK
 70
     0
  9
$PEXTMIN
 10
1.000000000000000E+20
 20
1.000000000000000E+20
 30
1.000000000000000E+20
  9
$PEXTMAX
 10
-1.000000000000000E+20
 20
-1.000000000000000E+20
 30
-1.000000000000000E+20
  9
$PLIMMIN
 10
0.0
 20
0.0
  9
$PLIMMAX
 10
12.0
 20
9.0
  9
$UNITMODE
 70
     0
  9
$VISRETAIN
 70
     1
  9
$PLINEGEN
 70
     0
  9
$PSLTSCALE
 70
     1
  9
$TREEDEPTH
 70
  3020
  9
$CMLSTYLE
  2
Standard
  9
$CMLJUST
 70
     0
  9
$CMLSCALE
 40
1.0
  9
$PROXYGRAPHICS
 70
     1
  9
$MEASUREMENT
 70
     0
  9
$CELWEIGHT
370
    -1
  9
$ENDCAPS
280
     0
  9
$JOINSTYLE
280
     0
  9
$LWDISPLAY
290
     0
  9
$INSUNITS
 70
     1
  9
$HYPERLINKBASE
  1

  9
$STYLESHEET
  1

  9
$XEDIT
290
     1
  9
$CEPSNTYPE
380
     0
  9
$PSTYLEMODE
290
     1
  9
$FINGERPRINTGUID
  2
{c3a79f72-1f17-4475-8565-c6ca94ea46c1}
  9
$VERSIONGUID
  2
{FAEB1C32-E019-11D5-929B-00C0DF256EC4}
  9
$EXTNAMES
290
     1
  9
$PSVPSCALE
 40
0.0
  9
$OLESTARTUP
290
     0
  9
$SORTENTS
280
   127
  9
$INDEXCTL
280
     0
  9
$HIDETEXT
280
     1
  9
$XCLIPFRAME
280
     2
  9
$HALOGAP
280
     0
  9
$OBSCOLOR
 70
   257
  9
$OBSLTYPE
280
     0
  9
$INTERSECTIONDISPLAY
280
     0
  9
$INTERSECTIONCOLOR
 70
   257
  9
$DIMASSOC
280
     2
  9
$PROJECTNAME
  1

  9
$CAMERADISPLAY
290
     0
  9
$LENSLENGTH
 40
50.0
  9
$CAMERAHEIGHT
 40
0.0
  9
$STEPSPERSEC
 40
2.0
  9
$STEPSIZE
 40
6.0
  9
$3DDWFPREC
 40
2.0
  9
$PSOLWIDTH
 40
0.25
  9
$PSOLHEIGHT
 40
4.0
  9
$LOFTANG1
 40
1.570796326794897
  9
$LOFTANG2
 40
1.570796326794897
  9
$LOFTMAG1
 40
0.0
  9
$LOFTMAG2
 40
0.0
  9
$LOFTPARAM
 70
     7
  9
$LOFTNORMALS
280
     1
  9
$LATITUDE
 40
37.795
  9
$LONGITUDE
 40
-122.394
  9
$NORTHDIRECTION
 40
0.0
  9
$TIMEZONE
 70
 -8000
  9
$LIGHTGLYPHDISPLAY
280
     1
  9
$TILEMODELIGHTSYNCH
280
     1
  9
$CMATERIAL
347
44
  9
$SOLIDHIST
280
     0
  9
$SHOWHIST
280
     1
  9
$DWFFRAME
280
     2
  9
$DGNFRAME
280
     2
  9
$REALWORLDSCALE
290
     1
  9
$INTERFERECOLOR
 62
   256
  9
$CSHADOW
280
     0
  9
$SHADOWPLANELOCATION
 40
0.0
  0
ENDSEC
  0
SECTION
  2
CLASSES
  0
CLASS
  1
ACDBDICTIONARYWDFLT
  2
AcDbDictionaryWithDefault
  3
ObjectDBX Classes
 90
        0
 91
        3
280
     0
281
     0
  0
CLASS
  1
VISUALSTYLE
  2
AcDbVisualStyle
  3
ObjectDBX Classes
 90
     4095
 91
        3
280
     0
281
     0
  0
CLASS
  1
MATERIAL
  2
AcDbMaterial
  3
ObjectDBX Classes
 90
     1153
 91
        3
280
     0
281
     0
  0
CLASS
  1
SCALE
  2
AcDbScale
  3
ObjectDBX Classes
 90
     1153
 91
        3
280
     0
281
     0
  0
CLASS
  1
TABLESTYLE
  2
AcDbTableStyle
  3
ObjectDBX Classes
 90
     4095
 91
        3
280
     0
281
     0
  0
CLASS
  1
MLEADERSTYLE
  2
AcDbMLeaderStyle
  3
ACDB_MLEADERSTYLE_CLASS
 90
     4095
 91
        3
280
     0
281
     0
  0
CLASS
  1
SUN
  2
AcDbSun
  3
SCENEOE
 90
     1153
 91
        3
280
     0
281
     0
  0
CLASS
  1
DICTIONARYVAR
  2
AcDbDictionaryVar
  3
ObjectDBX Classes
 90
        0
 91
        3
280
     0
281
     0
  0
CLASS
  1
CELLSTYLEMAP
  2
AcDbCellStyleMap
  3
ObjectDBX Classes
 90
     1152
 91
        3
280
     0
281
     0
  0
ENDSEC
  0
SECTION
  2
TABLES
  0
TABLE
  2
VPORT
  5
8
330
0
100
AcDbSymbolTable
 70
     1
  0
VPORT
  5
29
330
8
100
AcDbSymbolTableRecord
100
AcDbViewportTableRecord
  2
*Active
 70
     0
 10
0.0
 20
0.0
 11
1.0
 21
1.0
 12
10.42990654205607
 22
4.5
 13
0.0
 23
0.0
 14
0.5
 24
0.5
 15
0.5
 25
0.5
 16
0.0
 26
0.0
 36
1.0
 17
0.0
 27
0.0
 37
0.0
 40
9.0
 41
1.972972972850329
 42
50.0
 43
0.0
 44
0.0
 50
0.0
 51
0.0
 71
     0
 72
   100
 73
     1
 74
     3
 75
     0
 76
     0
 77
     0
 78
     0
281
     0
 65
     1
110
0.0
120
0.0
130
0.0
111
1.0
121
0.0
131
0.0
112
0.0
122
1.0
132
0.0
 79
     0
146
0.0
348
2F
 60
     3
 61
     5
292
     1
282
     1
141
0.0
142
0.0
 63
   250
361
5D
  0
ENDTAB
  0
TABLE
  2
LTYPE
  5
5
330
0
100
AcDbSymbolTable
 70
     1
  0
LTYPE
  5
14
330
5
100
AcDbSymbolTableRecord
100
AcDbLinetypeTableRecord
  2
ByBlock
 70
     0
  3

 72
    65
 73
     0
 40
0.0
  0
LTYPE
  5
15
330
5
100
AcDbSymbolTableRecord
100
AcDbLinetypeTableRecord
  2
ByLayer
 70
     0
  3

 72
    65
 73
     0
 40
0.0
  0
LTYPE
  5
16
330
5
100
AcDbSymbolTableRecord
100
AcDbLinetypeTableRecord
  2
Continuous
 70
     0
  3
Solid line
 72
    65
 73
     0
 40
0.0
  0
ENDTAB
  0
TABLE
  2
LAYER
  5
2
330
0
100
AcDbSymbolTable
 70
     2
  0
LAYER
  5
10
330
2
100
AcDbSymbolTableRecord
100
AcDbLayerTableRecord
  2
0
 70
     0
 62
     7
  6
Continuous
370
    -3
390
F
347
46
348
0
  0
LAYER
  5
5F
330
2
100
AcDbSymbolTableRecord
100
AcDbLayerTableRecord
  2
Layer 1
 70
     0
 62
     7
  6
Continuous
370
    -3
390
F
347
46
348
0
  0
ENDTAB
  0
TABLE
  2
STYLE
  5
3
330
0
100
AcDbSymbolTable
 70
     1
  0
STYLE
  5
11
330
3
100
AcDbSymbolTableRecord
100
AcDbTextStyleTableRecord
  2
Standard
 70
     0
 40
0.0
 41
1.0
 50
0.0
 71
     0
 42
0.2
  3
txt
  4

  0
ENDTAB
  0
TABLE
  2
VIEW
  5
6
330
0
100
AcDbSymbolTable
 70
     0
  0
ENDTAB
  0
TABLE
  2
UCS
  5
7
330
0
100
AcDbSymbolTable
 70
     0
  0
ENDTAB
  0
TABLE
  2
APPID
  5
9
330
0
100
AcDbSymbolTable
 70
     2
  0
APPID
  5
12
330
9
100
AcDbSymbolTableRecord
100
AcDbRegAppTableRecord
  2
ACAD
 70
     0
  0
APPID
  5
5E
330
9
100
AcDbSymbolTableRecord
100
AcDbRegAppTableRecord
  2
ODA
 70
     0
  0
ENDTAB
  0
TABLE
  2
DIMSTYLE
  5
A
330
0
100
AcDbSymbolTable
 70
     1
100
AcDbDimStyleTable
  0
DIMSTYLE
105
27
330
A
100
AcDbSymbolTableRecord
100
AcDbDimStyleTableRecord
  2
Standard
 70
     0
178
     0
340
11
  0
ENDTAB
  0
TABLE
  2
BLOCK_RECORD
  5
1
330
0
100
AcDbSymbolTable
 70
     1
  0
BLOCK_RECORD
  5
1F
330
1
100
AcDbSymbolTableRecord
100
AcDbBlockTableRecord
  2
*Model_Space
340
22
 70
     0
280
     1
281
     0
  0
BLOCK_RECORD
  5
1B
330
1
100
AcDbSymbolTableRecord
100
AcDbBlockTableRecord
  2
*Paper_Space
340
1E
 70
     0
280
     1
281
     0
  0
BLOCK_RECORD
  5
23
330
1
100
AcDbSymbolTableRecord
100
AcDbBlockTableRecord
  2
*Paper_Space0
340
26
 70
     0
280
     1
281
     0
  0
ENDTAB
  0
ENDSEC
  0
SECTION
  2
BLOCKS
  0
BLOCK
  5
20
330
1F
100
AcDbEntity
  8
0
100
AcDbBlockBegin
  2
*Model_Space
 70
     0
 10
0.0
 20
0.0
 30
0.0
  3
*Model_Space
  1

  0
ENDBLK
  5
21
330
1F
100
AcDbEntity
  8
0
100
AcDbBlockEnd
  0
BLOCK
  5
1C
330
1B
100
AcDbEntity
 67
     1
  8
0
100
AcDbBlockBegin
  2
*Paper_Space
 70
     0
 10
0.0
 20
0.0
 30
0.0
  3
*Paper_Space
  1

  0
ENDBLK
  5
1D
330
1B
100
AcDbEntity
 67
     1
  8
0
100
AcDbBlockEnd
  0
BLOCK
  5
24
330
23
100
AcDbEntity
  8
0
100
AcDbBlockBegin
  2
*Paper_Space0
 70
     0
 10
0.0
 20
0.0
 30
0.0
  3
*Paper_Space0
  1

  0
ENDBLK
  5
25
330
23
100
AcDbEntity
  8
0
100
AcDbBlockEnd
  0
ENDSEC
  0
SECTION
  2
ENTITIES
  0
LWPOLYLINE
  5
60
330
1F
100
AcDbEntity
  8
Layer 1
 62
   250
370
     9
100
AcDbPolyline
 90
        5
 70
     1
 43
0.0
 10
8.027405511811024
 20
-8.742547244094489
 10
16.06779921259843
 20
-8.742547244094489
 10
16.06779921259843
 20
-5.040027559055118
 10
8.027405511811024
 20
-5.040027559055118
 10
8.027405511811024
 20
-8.742547244094489
  0
LWPOLYLINE
  5
61
330
1F
100
AcDbEntity
  8
Layer 1
 62
     7
370
     9
100
AcDbPolyline
 90
       38
 70
     1
 43
0.0
 10
9.54405905511811
 20
-7.490984251968504
 10
9.54405905511811
 20
-7.413818897637795
 10
9.756413385826772
 20
-7.328031496062992
 10
10.07166141732283
 20
-7.523464566929134
 10
10.07338188976378
 20
-7.523763779527559
 10
10.0781220472441
 20
-7.524440944881889
 10
10.08523622047244
 20
-7.525149606299212
 10
10.09408267716536
 20
-7.525555118110236
 10
10.10402362204724
 20
-7.525318897637796
 10
10.11441732283465
 20
-7.524102362204724
 10
10.1246220472441
 20
-7.521562992125984
 10
10.13399606299213
 20
-7.517362204724409
 10
11.02515748031496
 20
-7.188830708661417
 10
14.16632677165354
 20
-6.031578740157481
 10
14.45370078740157
 20
-5.928566929133858
 10
14.33358661417323
 20
-5.881874015748031
 10
14.21701181102362
 20
-5.833133858267717
 10
14.22257874015748
 20
-5.770700787401575
 10
14.22674803149606
 20
-5.768838582677166
 10
14.23796062992126
 20
-5.763807086614174
 10
14.25427952755905
 20
-5.756433070866142
 10
14.27377165354331
 20
-5.747543307086614
 10
14.2945
 20
-5.737964566929134
 10
14.31452755905512
 20
-5.72851968503937
 10
14.33192125984252
 20
-5.720043307086614
 10
14.34474015748031
 20
-5.713354330708661
 10
14.8325157480315
 20
-5.914787401574803
 10
14.83272047244095
 20
-5.917417322834646
 10
14.83313385826772
 20
-5.924476377952756
 10
14.83346456692913
 20
-5.934728346456693
 10
14.83342519685039
 20
-5.946937007874015
 10
14.83272047244095
 20
-5.959854330708661
 10
14.83105905511811
 20
-5.972248031496063
 10
14.82814566929134
 20
-5.982877952755906
 10
14.82368897637795
 20
-5.990503937007874
 10
13.56016535433071
 20
-6.472161417322835
 10
10.04277165354331
 20
-7.803405511811023
 10
9.54405905511811
 20
-7.490984251968504
  0
LWPOLYLINE
  5
62
330
1F
100
AcDbEntity
  8
Layer 1
 62
     7
370
     9
100
AcDbPolyline
 90
        4
 70
     0
 43
0.0
 10
9.54405905511811
 20
-7.413818897637795
 10
10.04799212598425
 20
-7.710633858267717
 10
11.94457480314961
 20
-6.994929133858268
 10
14.83000393700787
 20
-5.913740157480315
  0
LWPOLYLINE
  5
63
330
1F
100
AcDbEntity
  8
Layer 1
 62
     7
370
     9
100
AcDbPolyline
 90
        3
 70
     0
 43
0.0
 10
14.22488976377953
 20
-5.769669291338583
 10
14.53023228346457
 20
-5.895070866141732
 10
14.45370078740157
 20
-5.928566929133858
  0
LWPOLYLINE
  5
64
330
1F
100
AcDbEntity
  8
Layer 1
 62
     7
370
     9
100
AcDbPolyline
 90
       10
 70
     0
 43
0.0
 10
14.33358661417323
 20
-5.881874015748031
 10
14.0742874015748
 20
-5.984834645669292
 10
13.98914566929134
 20
-5.947267716535433
 10
14.01955118110236
 20
-5.667074803149606
 10
14.40453149606299
 20
-5.518799212598426
 10
14.50177559055118
 20
-5.54105905511811
 10
14.46738188976378
 20
-5.760562992125984
 10
14.49779921259842
 20
-5.555984251968504
 10
14.10672047244094
 20
-5.707685039370078
 10
14.0742874015748
 20
-5.984834645669292
  0
LWPOLYLINE
  5
65
330
1F
100
AcDbEntity
  8
Layer 1
 62
     7
370
     9
100
AcDbPolyline
 90
        2
 70
     0
 43
0.0
 10
14.01955118110236
 20
-5.667074803149606
 10
14.10672047244094
 20
-5.707685039370078
  0
LWPOLYLINE
  5
66
330
1F
100
AcDbEntity
  8
Layer 1
 62
     7
370
     9
100
AcDbPolyline
 90
        5
 70
     0
 43
0.0
 10
9.965492125984252
 20
-7.457653543307087
 10
9.965492125984252
 20
-7.121842519685039
 10
9.318137795275591
 20
-7.355307086614173
 10
9.32726377952756
 20
-7.710633858267717
 10
9.675858267716535
 20
-7.573547244094488
  0
LWPOLYLINE
  5
67
330
1F
100
AcDbEntity
  8
Layer 1
 62
     7
370
     9
100
AcDbPolyline
 90
        5
 70
     0
 43
0.0
 10
9.971062992125985
 20
-7.112216535433071
 10
9.900795275590552
 20
-7.057629921259842
 10
9.232830708661417
 20
-7.298476377952756
 10
9.2421062992126
 20
-7.656811023622048
 10
9.322295275590552
 20
-7.719976377952756
  0
LWPOLYLINE
  5
68
330
1F
100
AcDbEntity
  8
Layer 1
 62
     7
370
     9
100
AcDbPolyline
 90
        2
 70
     0
 43
0.0
 10
9.318137795275591
 20
-7.355307086614173
 10
9.232830708661417
 20
-7.298476377952756
  0
LWPOLYLINE
  5
69
330
1F
100
AcDbEntity
  8
Layer 1
 62
     7
370
    18
100
AcDbPolyline
 90
        4
 70
     1
 43
0.0
 10
10.1564842519685
 20
-8.079661417322834
 10
10.13657874015748
 20
-8.102984251968504
 10
10.16693307086614
 20
-8.107311023622048
 10
10.1564842519685
 20
-8.079661417322834
  0
LWPOLYLINE
  5
6A
330
1F
100
AcDbEntity
  8
Layer 1
 62
     7
370
    18
100
AcDbPolyline
 90
        4
 70
     1
 43
0.0
 10
15.02238976377953
 20
-6.240826771653543
 10
15.05274803149606
 20
-6.245153543307087
 10
15.03283858267717
 20
-6.268476377952756
 10
15.02238976377953
 20
-6.240826771653543
  0
LWPOLYLINE
  5
6B
330
1F
100
AcDbEntity
  8
Layer 1
 62
     7
370
    18
100
AcDbPolyline
 90
        2
 70
     0
 43
0.0
 10
10.12875984251968
 20
-8.10762598425197
 10
15.06168503937008
 20
-6.243464566929134
  0
LWPOLYLINE
  5
6C
330
1F
100
AcDbEntity
  8
Layer 1
 62
     7
370
     9
100
AcDbPolyline
 90
        4
 70
     1
 43
0.0
 10
12.50430708661417
 20
-7.412748031496063
 10
12.50430708661417
 20
-7.500492125984252
 10
12.44631496062992
 20
-7.500492125984252
 10
12.50430708661417
 20
-7.412748031496063
  0
LWPOLYLINE
  5
6D
330
1F
100
AcDbEntity
  8
Layer 1
 62
     7
370
     9
100
AcDbPolyline
 90
       11
 70
     1
 43
0.0
 10
12.5205905511811
 20
-7.51655905511811
 10
12.53977559055118
 20
-7.51655905511811
 10
12.53977559055118
 20
-7.500492125984252
 10
12.5205905511811
 20
-7.500492125984252
 10
12.52036614173228
 20
-7.395779527559055
 10
12.4985157480315
 20
-7.395779527559055
 10
12.41864960629921
 20
-7.51655905511811
 10
12.50430708661417
 20
-7.51655905511811
 10
12.50430708661417
 20
-7.547602362204724
 10
12.5205905511811
 20
-7.547602362204724
 10
12.5205905511811
 20
-7.51655905511811
  0
LWPOLYLINE
  5
6E
330
1F
100
AcDbEntity
  8
Layer 1
 62
     7
370
     9
100
AcDbPolyline
 90
      112
 70
     1
 43
0.0
 10
12.59019291338583
 20
-7.45203937007874
 10
12.60045669291339
 20
-7.411405511811024
 10
12.65533070866142
 20
-7.411405511811024
 10
12.65533070866142
 20
-7.395779527559055
 10
12.58863385826772
 20
-7.395779527559055
 10
12.57123228346457
 20
-7.463870078740158
 10
12.5881811023622
 20
-7.471464566929134
 10
12.59064173228346
 20
-7.469791338582677
 10
12.59322440944882
 20
-7.468338582677165
 10
12.59592913385827
 20
-7.467110236220472
 10
12.59875590551181
 20
-7.466106299212599
 10
12.60170078740157
 20
-7.465322834645669
 10
12.60476771653543
 20
-7.464767716535433
 10
12.60796062992126
 20
-7.464429133858268
 10
12.61127559055118
 20
-7.464318897637796
 10
12.6146062992126
 20
-7.464484251968504
 10
12.61782677165354
 20
-7.464976377952756
 10
12.62093700787402
 20
-7.465795275590551
 10
12.62393307086614
 20
-7.466944881889764
 10
12.6268188976378
 20
-7.468421259842519
 10
12.62959448818898
 20
-7.470224409448819
 10
12.63225590551181
 20
-7.472354330708662
 10
12.6348031496063
 20
-7.474811023622047
 10
12.63720866141732
 20
-7.477555118110236
 10
12.63929527559055
 20
-7.48040157480315
 10
12.64105905511811
 20
-7.483350393700787
 10
12.64250393700787
 20
-7.486397637795275
 10
12.64362598425197
 20
-7.489543307086614
 10
12.64442519685039
 20
-7.492795275590551
 10
12.64490551181102
 20
-7.496145669291338
 10
12.64506692913386
 20
-7.499598425196851
 10
12.64490157480315
 20
-7.503169291338582
 10
12.64441338582677
 20
-7.506594488188976
 10
12.64359448818898
 20
-7.509877952755906
 10
12.64244881889764
 20
-7.51301968503937
 10
12.64097244094488
 20
-7.516015748031496
 10
12.63917322834646
 20
-7.518870078740157
 10
12.63704330708661
 20
-7.521582677165354
 10
12.63458661417323
 20
-7.524149606299213
 10
12.63203937007874
 20
-7.526377952755905
 10
12.62931496062992
 20
-7.528370078740157
 10
12.62640551181102
 20
-7.530125984251969
 10
12.62331496062992
 20
-7.531641732283465
 10
12.61995669291339
 20
-7.532858267716535
 10
12.61623622047244
 20
-7.533728346456693
 10
12.61215354330709
 20
-7.534248031496063
 10
12.60770866141732
 20
-7.53442125984252
 10
12.60308267716535
 20
-7.534031496062992
 10
12.59847244094488
 20
-7.53286220472441
 10
12.59387795275591
 20
-7.530909448818898
 10
12.58929921259842
 20
-7.528173228346457
 10
12.58709842519685
 20
-7.526551181102362
 10
12.58506299212598
 20
-7.524811023622047
 10
12.58319291338583
 20
-7.522952755905512
 10
12.58149212598425
 20
-7.520976377952756
 10
12.57995669291339
 20
-7.518877952755905
 10
12.5785905511811
 20
-7.516661417322835
 10
12.57738976377953
 20
-7.514326771653543
 10
12.57635826771654
 20
-7.511874015748032
 10
12.56119291338583
 20
-7.516783464566929
 10
12.56268503937008
 20
-7.52046062992126
 10
12.56442125984252
 20
-7.523948818897638
 10
12.56640551181102
 20
-7.527255905511811
 10
12.56863779527559
 20
-7.530377952755906
 10
12.57111811023622
 20
-7.533311023622047
 10
12.57384251968504
 20
-7.536062992125984
 10
12.57681889763779
 20
-7.538625984251969
 10
12.58004330708661
 20
-7.541007874015748
 10
12.58346850393701
 20
-7.543181102362205
 10
12.58697244094488
 20
-7.545062992125985
 10
12.59055118110236
 20
-7.546657480314961
 10
12.59420866141732
 20
-7.54796062992126
 10
12.59794094488189
 20
-7.548976377952756
 10
12.60175196850394
 20
-7.549700787401575
 10
12.60563779527559
 20
-7.550133858267716
 10
12.60960236220472
 20
-7.550279527559055
 10
12.61488188976378
 20
-7.55003937007874
 10
12.61996062992126
 20
-7.549322834645669
 10
12.62483464566929
 20
-7.548129921259843
 10
12.62950787401575
 20
-7.546456692913385
 10
12.63398031496063
 20
-7.544307086614173
 10
12.63825196850394
 20
-7.541677165354331
 10
12.64231889763779
 20
-7.538566929133858
 10
12.64618503937008
 20
-7.53498031496063
 10
12.64968897637795
 20
-7.531090551181102
 10
12.65272440944882
 20
-7.527003937007874
 10
12.65529527559055
 20
-7.522732283464567
 10
12.65739763779528
 20
-7.518263779527559
 10
12.65903149606299
 20
-7.513606299212598
 10
12.66020078740157
 20
-7.508755905511811
 10
12.66090157480315
 20
-7.503712598425197
 10
12.66113385826772
 20
-7.498476377952756
 10
12.66090551181102
 20
-7.493267716535433
 10
12.6602125984252
 20
-7.488283464566929
 10
12.65906299212598
 20
-7.483515748031496
 10
12.65745275590551
 20
-7.478968503937008
 10
12.65538188976378
 20
-7.474637795275591
 10
12.65285039370079
 20
-7.470531496062992
 10
12.64985826771654
 20
-7.466645669291339
 10
12.6464094488189
 20
-7.46298031496063
 10
12.64281102362205
 20
-7.459811023622048
 10
12.63893700787402
 20
-7.456988188976378
 10
12.63477952755906
 20
-7.454507874015748
 10
12.63034251968504
 20
-7.452374015748031
 10
12.62572834645669
 20
-7.450661417322834
 10
12.62103543307087
 20
-7.44944094488189
 10
12.61626377952756
 20
-7.448712598425197
 10
12.61141732283465
 20
-7.448468503937008
 10
12.60641338582677
 20
-7.448692913385827
 10
12.6012125984252
 20
-7.44936220472441
 10
12.5958031496063
 20
-7.450476377952756
 10
12.59019291338583
 20
-7.45203937007874
  0
LWPOLYLINE
  5
6F
330
1F
100
AcDbEntity
  8
Layer 1
 62
     7
370
     9
100
AcDbPolyline
 90
       61
 70
     1
 43
0.0
 10
12.74757480314961
 20
-7.413409448818897
 10
12.75015354330709
 20
-7.415161417322834
 10
12.75255511811024
 20
-7.417153543307086
 10
12.75478346456693
 20
-7.419377952755905
 10
12.75683858267717
 20
-7.42184251968504
 10
12.7587125984252
 20
-7.424543307086614
 10
12.76041732283465
 20
-7.42748031496063
 10
12.76194488188976
 20
-7.43065748031496
 10
12.76329921259843
 20
-7.434070866141732
 10
12.76481496062992
 20
-7.43859842519685
 10
12.76612992125984
 20
-7.443188976377953
 10
12.76724409448819
 20
-7.447846456692913
 10
12.76815354330709
 20
-7.452570866141732
 10
12.76886220472441
 20
-7.45736220472441
 10
12.76937007874016
 20
-7.462224409448819
 10
12.76967322834646
 20
-7.467149606299213
 10
12.76977559055118
 20
-7.472141732283465
 10
12.76910236220473
 20
-7.483188976377953
 10
12.76833070866142
 20
-7.489188976377953
 10
12.76731889763779
 20
-7.494858267716536
 10
12.76607086614173
 20
-7.500196850393701
 10
12.76458267716535
 20
-7.505204724409449
 10
12.76286220472441
 20
-7.509881889763779
 10
12.76090157480315
 20
-7.514228346456693
 10
12.75870472440945
 20
-7.518240157480315
 10
12.75627165354331
 20
-7.52192125984252
 10
12.75405511811024
 20
-7.524696850393701
 10
12.75171653543307
 20
-7.527098425196851
 10
12.74925984251968
 20
-7.529133858267716
 10
12.74668503937008
 20
-7.530799212598425
 10
12.74399212598425
 20
-7.532094488188976
 10
12.74118110236221
 20
-7.53301968503937
 10
12.73824803149606
 20
-7.533574803149606
 10
12.73520078740157
 20
-7.533759842519685
 10
12.73179527559055
 20
-7.533574803149606
 10
12.72855118110236
 20
-7.533027559055118
 10
12.72547637795276
 20
-7.532110236220473
 10
12.72256299212598
 20
-7.530826771653543
 10
12.71981496062992
 20
-7.529177165354331
 10
12.71722834645669
 20
-7.527161417322835
 10
12.71480708661417
 20
-7.524779527559055
 10
12.71255118110236
 20
-7.522031496062992
 10
12.70608661417323
 20
-7.510204724409449
 10
12.70218503937008
 20
-7.4966968503937
 10
12.70028346456693
 20
-7.483299212598425
 10
12.69972834645669
 20
-7.46838188976378
 10
12.70218503937008
 20
-7.447468503937007
 10
12.70597244094488
 20
-7.433952755905512
 10
12.71233070866142
 20
-7.421897637795276
 10
12.71438188976378
 20
-7.419350393700787
 10
12.71662992125984
 20
-7.417070866141732
 10
12.71906692913386
 20
-7.415055118110236
 10
12.7216968503937
 20
-7.413307086614173
 10
12.72455511811024
 20
-7.411885826771654
 10
12.72766141732284
 20
-7.410870078740158
 10
12.73102362204724
 20
-7.410263779527559
 10
12.73464173228346
 20
-7.410062992125984
 10
12.73824803149606
 20
-7.410271653543307
 10
12.7416062992126
 20
-7.41090157480315
 10
12.74471653543307
 20
-7.411944881889764
 10
12.74757480314961
 20
-7.413409448818897
  0
LWPOLYLINE
  5
70
330
1F
100
AcDbEntity
  8
Layer 1
 62
     7
370
     9
100
AcDbPolyline
 90
       65
 70
     1
 43
0.0
 10
12.73542519685039
 20
-7.549606299212599
 10
12.74193700787402
 20
-7.549192913385827
 10
12.74803543307087
 20
-7.547952755905512
 10
12.75371653543307
 20
-7.545885826771654
 10
12.7589842519685
 20
-7.542996062992126
 10
12.76383464566929
 20
-7.539275590551181
 10
12.76827165354331
 20
-7.534728346456693
 10
12.77229527559055
 20
-7.529354330708661
 10
12.77590551181102
 20
-7.523153543307086
 10
12.77844094488189
 20
-7.517740157480315
 10
12.78063779527559
 20
-7.512031496062992
 10
12.7825
 20
-7.50601968503937
 10
12.78401968503937
 20
-7.499708661417323
 10
12.78520472440945
 20
-7.49309842519685
 10
12.78604724409449
 20
-7.486185039370079
 10
12.78655511811024
 20
-7.478976377952756
 10
12.78672440944882
 20
-7.471464566929134
 10
12.78655511811024
 20
-7.463952755905511
 10
12.78604724409449
 20
-7.456740157480315
 10
12.78520472440945
 20
-7.449830708661417
 10
12.78401968503937
 20
-7.443216535433071
 10
12.7825
 20
-7.436905511811023
 10
12.78063779527559
 20
-7.430893700787402
 10
12.77844094488189
 20
-7.425185039370079
 10
12.77590551181102
 20
-7.419771653543307
 10
12.77229527559055
 20
-7.413570866141733
 10
12.76827165354331
 20
-7.408196850393701
 10
12.76383464566929
 20
-7.403649606299212
 10
12.7589842519685
 20
-7.399933070866142
 10
12.75371653543307
 20
-7.39703937007874
 10
12.74803543307087
 20
-7.394972440944882
 10
12.74193700787402
 20
-7.393732283464567
 10
12.73542519685039
 20
-7.393318897637795
 10
12.7289094488189
 20
-7.393732283464567
 10
12.72281102362205
 20
-7.394972440944882
 10
12.71712598425197
 20
-7.39703937007874
 10
12.71185433070866
 20
-7.399933070866142
 10
12.707
 20
-7.403649606299212
 10
12.70255905511811
 20
-7.408196850393701
 10
12.69853543307087
 20
-7.413570866141733
 10
12.69492519685039
 20
-7.419771653543307
 10
12.69238976377953
 20
-7.425185039370079
 10
12.69019291338583
 20
-7.430893700787402
 10
12.68833070866142
 20
-7.436905511811023
 10
12.68681102362205
 20
-7.443216535433071
 10
12.68562598425197
 20
-7.449830708661417
 10
12.68477952755905
 20
-7.456740157480315
 10
12.68427165354331
 20
-7.463952755905511
 10
12.68410236220472
 20
-7.471464566929134
 10
12.68427165354331
 20
-7.478976377952756
 10
12.68477952755905
 20
-7.486185039370079
 10
12.68562598425197
 20
-7.49309842519685
 10
12.68681102362205
 20
-7.499708661417323
 10
12.68833070866142
 20
-7.50601968503937
 10
12.69019291338583
 20
-7.512031496062992
 10
12.69238976377953
 20
-7.517740157480315
 10
12.69492519685039
 20
-7.523153543307086
 10
12.69853543307087
 20
-7.529354330708661
 10
12.70255905511811
 20
-7.534728346456693
 10
12.707
 20
-7.539275590551181
 10
12.71185433070866
 20
-7.542996062992126
 10
12.71712598425197
 20
-7.545885826771654
 10
12.72281102362205
 20
-7.547952755905512
 10
12.7289094488189
 20
-7.549192913385827
 10
12.73542519685039
 20
-7.549606299212599
  0
LWPOLYLINE
  5
71
330
1F
100
AcDbEntity
  8
Layer 1
 62
     7
370
     9
100
AcDbPolyline
 90
        5
 70
     1
 43
0.0
 10
12.91074409448819
 20
-7.380145669291339
 10
12.89401968503937
 20
-7.380145669291339
 10
12.80746062992126
 20
-7.592472440944882
 10
12.82420078740157
 20
-7.592472440944882
 10
12.91074409448819
 20
-7.380145669291339
  0
LWPOLYLINE
  5
72
330
1F
100
AcDbEntity
  8
Layer 1
 62
     7
370
     9
100
AcDbPolyline
 90
       65
 70
     1
 43
0.0
 10
12.97533464566929
 20
-7.464771653543307
 10
12.9788937007874
 20
-7.464937007874016
 10
12.98231889763779
 20
-7.465425196850394
 10
12.98561023622047
 20
-7.466244094488189
 10
12.98877165354331
 20
-7.467393700787402
 10
12.99179921259842
 20
-7.468866141732283
 10
12.9946968503937
 20
-7.470669291338583
 10
12.99745669291339
 20
-7.472799212598425
 10
13.00008661417323
 20
-7.475259842519685
 10
13.00246850393701
 20
-7.477917322834646
 10
13.00453149606299
 20
-7.480700787401575
 10
13.00627952755906
 20
-7.483610236220472
 10
13.00770866141732
 20
-7.486645669291339
 10
13.00881889763779
 20
-7.489807086614173
 10
13.00961417322835
 20
-7.493090551181102
 10
13.0100905511811
 20
-7.4965
 10
13.01024803149606
 20
-7.500035433070866
 10
13.01008661417323
 20
-7.503496062992126
 10
13.0096062992126
 20
-7.506838582677165
 10
13.0088031496063
 20
-7.510062992125984
 10
13.00767716535433
 20
-7.513165354330709
 10
13.00623228346457
 20
-7.516145669291339
 10
13.00446850393701
 20
-7.519011811023622
 10
13.00238582677165
 20
-7.521755905511811
 10
12.9999842519685
 20
-7.524381889763779
 10
12.99739763779528
 20
-7.526736220472441
 10
12.99466929133858
 20
-7.528775590551181
 10
12.99179133858268
 20
-7.5305
 10
12.98877165354331
 20
-7.531913385826772
 10
12.98560236220472
 20
-7.533011811023622
 10
12.9822874015748
 20
-7.533795275590551
 10
12.97882677165354
 20
-7.534263779527559
 10
12.97521653543307
 20
-7.53442125984252
 10
12.9716811023622
 20
-7.534259842519685
 10
12.96826377952756
 20
-7.533771653543307
 10
12.96496062992126
 20
-7.53296062992126
 10
12.96177952755906
 20
-7.531826771653543
 10
12.95871653543307
 20
-7.530366141732284
 10
12.95577559055118
 20
-7.528586614173228
 10
12.95294881889764
 20
-7.526476377952756
 10
12.95024409448819
 20
-7.524047244094488
 10
12.94778346456693
 20
-7.521413385826771
 10
12.94565354330709
 20
-7.518649606299213
 10
12.94385039370079
 20
-7.515759842519685
 10
12.94237401574803
 20
-7.512740157480315
 10
12.94122834645669
 20
-7.509590551181103
 10
12.9404094488189
 20
-7.506314960629921
 10
12.93992125984252
 20
-7.502909448818897
 10
12.93975590551181
 20
-7.499374015748032
 10
12.93992125984252
 20
-7.495854330708662
 10
12.9404094488189
 20
-7.492476377952756
 10
12.94122834645669
 20
-7.489228346456693
 10
12.94237401574803
 20
-7.486122047244095
 10
12.94385039370079
 20
-7.483145669291338
 10
12.94565354330709
 20
-7.480311023622047
 10
12.94778346456693
 20
-7.477610236220473
 10
12.95024409448819
 20
-7.475043307086614
 10
12.95279133858268
 20
-7.472811023622048
 10
12.95553543307087
 20
-7.470818897637796
 10
12.95847637795276
 20
-7.469066929133859
 10
12.96161023622047
 20
-7.467555118110236
 10
12.9648937007874
 20
-7.466334645669291
 10
12.96827952755905
 20
-7.465468503937008
 10
12.97175984251968
 20
-7.464944881889764
 10
12.97533464566929
 20
-7.464771653543307
  0
LWPOLYLINE
  5
73
330
1F
100
AcDbEntity
  8
Layer 1
 62
     7
370
     9
100
AcDbPolyline
 90
       61
 70
     1
 43
0.0
 10
13.02607480314961
 20
-7.498933070866141
 10
13.02583070866142
 20
-7.493555118110236
 10
13.02509842519685
 20
-7.48842125984252
 10
13.02388188976378
 20
-7.483535433070866
 10
13.02217716535433
 20
-7.478889763779527
 10
13.01998031496063
 20
-7.474488188976378
 10
13.01729921259843
 20
-7.470330708661417
 10
13.01412992125984
 20
-7.466421259842519
 10
13.01047244094488
 20
-7.462751968503937
 10
13.00672834645669
 20
-7.459661417322835
 10
13.00272440944882
 20
-7.456956692913386
 10
12.99846062992126
 20
-7.454629921259842
 10
12.99393307086614
 20
-7.452681102362205
 10
12.98914566929134
 20
-7.451114173228347
 10
12.98409448818898
 20
-7.449929133858268
 10
12.97878346456693
 20
-7.449122047244095
 10
12.97320866141732
 20
-7.448692913385827
 10
12.96874803149606
 20
-7.451590551181102
 10
13.01514566929134
 20
-7.395779527559055
 10
12.99462598425197
 20
-7.395779527559055
 10
12.93529527559055
 20
-7.467448818897638
 10
12.93262598425197
 20
-7.470937007874015
 10
12.93031496062992
 20
-7.474570866141732
 10
12.92835826771654
 20
-7.478346456692913
 10
12.92675590551181
 20
-7.482263779527559
 10
12.92551181102362
 20
-7.486326771653543
 10
12.92462204724409
 20
-7.490531496062992
 10
12.92408661417323
 20
-7.494881889763779
 10
12.9239094488189
 20
-7.499374015748032
 10
12.92414173228346
 20
-7.504547244094488
 10
12.92484251968504
 20
-7.509523622047244
 10
12.92601181102362
 20
-7.514303149606299
 10
12.92764566929134
 20
-7.518881889763779
 10
12.92974803149606
 20
-7.523259842519685
 10
12.9323188976378
 20
-7.52744094488189
 10
12.93535433070866
 20
-7.531425196850393
 10
12.93885826771653
 20
-7.535204724409449
 10
12.94271653543307
 20
-7.538685039370079
 10
12.94676771653543
 20
-7.541704724409449
 10
12.951
 20
-7.544255905511811
 10
12.95542519685039
 20
-7.546346456692913
 10
12.96003543307087
 20
-7.547968503937008
 10
12.96483070866142
 20
-7.549125984251969
 10
12.9698188976378
 20
-7.54982283464567
 10
12.97499212598425
 20
-7.550055118110237
 10
12.98024409448819
 20
-7.549826771653543
 10
12.9852874015748
 20
-7.549133858267717
 10
12.99012204724409
 20
-7.547984251968504
 10
12.99474409448819
 20
-7.546370078740157
 10
12.99915748031496
 20
-7.544299212598426
 10
13.00335826771654
 20
-7.541767716535433
 10
13.00735039370079
 20
-7.538775590551182
 10
13.01113385826772
 20
-7.535322834645669
 10
13.0144094488189
 20
-7.531720472440945
 10
13.01732677165354
 20
-7.52784251968504
 10
13.01988188976378
 20
-7.523681102362205
 10
13.02207086614173
 20
-7.519244094488189
 10
13.02382283464567
 20
-7.51453937007874
 10
13.02507480314961
 20
-7.509586614173228
 10
13.02582283464567
 20
-7.50438188976378
 10
13.02607480314961
 20
-7.498933070866141
  0
LWPOLYLINE
  5
74
330
1F
100
AcDbEntity
  8
Layer 1
 62
     7
370
     9
100
AcDbPolyline
 90
       61
 70
     1
 43
0.0
 10
13.10672047244094
 20
-7.413409448818897
 10
13.10929921259843
 20
-7.415161417322834
 10
13.11170078740157
 20
-7.417153543307086
 10
13.11392913385827
 20
-7.419377952755905
 10
13.1159842519685
 20
-7.42184251968504
 10
13.11785826771654
 20
-7.424543307086614
 10
13.11956299212599
 20
-7.42748031496063
 10
13.1210905511811
 20
-7.43065748031496
 10
13.12244488188976
 20
-7.434070866141732
 10
13.12396062992126
 20
-7.43859842519685
 10
13.12527559055118
 20
-7.443188976377953
 10
13.12638976377953
 20
-7.447846456692913
 10
13.12729921259842
 20
-7.452570866141732
 10
13.12800787401575
 20
-7.45736220472441
 10
13.1285157480315
 20
-7.462224409448819
 10
13.1288188976378
 20
-7.467149606299213
 10
13.12892125984252
 20
-7.472141732283465
 10
13.12824803149606
 20
-7.483188976377953
 10
13.12747637795276
 20
-7.489188976377953
 10
13.12646456692913
 20
-7.494858267716536
 10
13.12521653543307
 20
-7.500196850393701
 10
13.12372834645669
 20
-7.505204724409449
 10
13.12200787401575
 20
-7.509881889763779
 10
13.12004724409449
 20
-7.514228346456693
 10
13.11785039370079
 20
-7.518240157480315
 10
13.11541732283465
 20
-7.52192125984252
 10
13.11320078740157
 20
-7.524696850393701
 10
13.11086220472441
 20
-7.527098425196851
 10
13.10840551181102
 20
-7.529133858267716
 10
13.10583070866142
 20
-7.530799212598425
 10
13.10313779527559
 20
-7.532094488188976
 10
13.10032677165354
 20
-7.53301968503937
 10
13.0973937007874
 20
-7.533574803149606
 10
13.09434645669291
 20
-7.533759842519685
 10
13.09094094488189
 20
-7.533574803149606
 10
13.0876968503937
 20
-7.533027559055118
 10
13.08462204724409
 20
-7.532110236220473
 10
13.08170866141732
 20
-7.530826771653543
 10
13.07896062992126
 20
-7.529177165354331
 10
13.07637401574803
 20
-7.527161417322835
 10
13.07395275590551
 20
-7.524779527559055
 10
13.0716968503937
 20
-7.522031496062992
 10
13.06523228346457
 20
-7.510204724409449
 10
13.06133070866142
 20
-7.4966968503937
 10
13.05943307086614
 20
-7.483299212598425
 10
13.05887401574803
 20
-7.46838188976378
 10
13.06133070866142
 20
-7.447468503937007
 10
13.06511811023622
 20
-7.433952755905512
 10
13.07147244094488
 20
-7.421897637795276
 10
13.07352755905512
 20
-7.419350393700787
 10
13.07577559055118
 20
-7.417070866141732
 10
13.0782125984252
 20
-7.415055118110236
 10
13.08084251968504
 20
-7.413307086614173
 10
13.08370078740158
 20
-7.411885826771654
 10
13.08680708661417
 20
-7.410870078740158
 10
13.09016929133858
 20
-7.410263779527559
 10
13.0937874015748
 20
-7.410062992125984
 10
13.0973937007874
 20
-7.410271653543307
 10
13.10075196850394
 20
-7.41090157480315
 10
13.10386220472441
 20
-7.411944881889764
 10
13.10672047244094
 20
-7.413409448818897
  0
LWPOLYLINE
  5
75
330
1F
100
AcDbEntity
  8
Layer 1
 62
     7
370
     9
100
AcDbPolyline
 90
       65
 70
     1
 43
0.0
 10
13.09457086614173
 20
-7.549606299212599
 10
13.10108267716535
 20
-7.549192913385827
 10
13.1071811023622
 20
-7.547952755905512
 10
13.11286220472441
 20
-7.545885826771654
 10
13.11812992125984
 20
-7.542996062992126
 10
13.12298031496063
 20
-7.539275590551181
 10
13.12741732283465
 20
-7.534728346456693
 10
13.13144094488189
 20
-7.529354330708661
 10
13.13505118110236
 20
-7.523153543307086
 10
13.13758661417323
 20
-7.517740157480315
 10
13.13978346456693
 20
-7.512031496062992
 10
13.14164173228346
 20
-7.50601968503937
 10
13.14316535433071
 20
-7.499708661417323
 10
13.14434645669291
 20
-7.49309842519685
 10
13.14518897637795
 20
-7.486185039370079
 10
13.1456968503937
 20
-7.478976377952756
 10
13.14586614173228
 20
-7.471464566929134
 10
13.1456968503937
 20
-7.463952755905511
 10
13.14518897637795
 20
-7.456740157480315
 10
13.14434645669291
 20
-7.449830708661417
 10
13.14316535433071
 20
-7.443216535433071
 10
13.14164173228346
 20
-7.436905511811023
 10
13.13978346456693
 20
-7.430893700787402
 10
13.13758661417323
 20
-7.425185039370079
 10
13.13505118110236
 20
-7.419771653543307
 10
13.13144094488189
 20
-7.413570866141733
 10
13.12741732283465
 20
-7.408196850393701
 10
13.12298031496063
 20
-7.403649606299212
 10
13.11812992125984
 20
-7.399933070866142
 10
13.11286220472441
 20
-7.39703937007874
 10
13.1071811023622
 20
-7.394972440944882
 10
13.10108267716535
 20
-7.393732283464567
 10
13.09457086614173
 20
-7.393318897637795
 10
13.08805511811024
 20
-7.393732283464567
 10
13.08195669291339
 20
-7.394972440944882
 10
13.07627165354331
 20
-7.39703937007874
 10
13.071
 20
-7.399933070866142
 10
13.06614566929134
 20
-7.403649606299212
 10
13.06170472440945
 20
-7.408196850393701
 10
13.0576811023622
 20
-7.413570866141733
 10
13.05407086614173
 20
-7.419771653543307
 10
13.05153543307087
 20
-7.425185039370079
 10
13.04933858267717
 20
-7.430893700787402
 10
13.04747637795276
 20
-7.436905511811023
 10
13.04595669291339
 20
-7.443216535433071
 10
13.04477165354331
 20
-7.449830708661417
 10
13.04392519685039
 20
-7.456740157480315
 10
13.04341732283465
 20
-7.463952755905511
 10
13.04324803149606
 20
-7.471464566929134
 10
13.04341732283465
 20
-7.478976377952756
 10
13.04392519685039
 20
-7.486185039370079
 10
13.04477165354331
 20
-7.49309842519685
 10
13.04595669291339
 20
-7.499708661417323
 10
13.04747637795276
 20
-7.50601968503937
 10
13.04933858267717
 20
-7.512031496062992
 10
13.05153543307087
 20
-7.517740157480315
 10
13.05407086614173
 20
-7.523153543307086
 10
13.0576811023622
 20
-7.529354330708661
 10
13.06170472440945
 20
-7.534728346456693
 10
13.06614566929134
 20
-7.539275590551181
 10
13.071
 20
-7.542996062992126
 10
13.07627165354331
 20
-7.545885826771654
 10
13.08195669291339
 20
-7.547952755905512
 10
13.08805511811024
 20
-7.549192913385827
 10
13.09457086614173
 20
-7.549606299212599
  0
LWPOLYLINE
  5
76
330
1F
100
AcDbEntity
  8
Layer 1
 62
     7
370
     9
100
AcDbPolyline
 90
       61
 70
     1
 43
0.0
 10
13.23163779527559
 20
-7.413409448818897
 10
13.23421653543307
 20
-7.415161417322834
 10
13.23662204724409
 20
-7.417153543307086
 10
13.23885039370079
 20
-7.419377952755905
 10
13.24090157480315
 20
-7.42184251968504
 10
13.24277952755905
 20
-7.424543307086614
 10
13.2444842519685
 20
-7.42748031496063
 10
13.24601181102362
 20
-7.43065748031496
 10
13.24736220472441
 20
-7.434070866141732
 10
13.24888188976378
 20
-7.43859842519685
 10
13.2501968503937
 20
-7.443188976377953
 10
13.25131102362205
 20
-7.447846456692913
 10
13.25222047244094
 20
-7.452570866141732
 10
13.25292913385827
 20
-7.45736220472441
 10
13.25343307086614
 20
-7.462224409448819
 10
13.25373622047244
 20
-7.467149606299213
 10
13.25383858267717
 20
-7.472141732283465
 10
13.25316535433071
 20
-7.483188976377953
 10
13.2523937007874
 20
-7.489188976377953
 10
13.25138582677165
 20
-7.494858267716536
 10
13.25013779527559
 20
-7.500196850393701
 10
13.24864960629921
 20
-7.505204724409449
 10
13.24692519685039
 20
-7.509881889763779
 10
13.24496456692913
 20
-7.514228346456693
 10
13.24276771653543
 20
-7.518240157480315
 10
13.24033464566929
 20
-7.52192125984252
 10
13.23811417322835
 20
-7.524696850393701
 10
13.23577952755906
 20
-7.527098425196851
 10
13.23332283464567
 20
-7.529133858267716
 10
13.23075196850394
 20
-7.530799212598425
 10
13.22805905511811
 20
-7.532094488188976
 10
13.22524409448819
 20
-7.53301968503937
 10
13.22231496062992
 20
-7.533574803149606
 10
13.21926377952756
 20
-7.533759842519685
 10
13.21585826771654
 20
-7.533574803149606
 10
13.21261417322835
 20
-7.533027559055118
 10
13.20953937007874
 20
-7.532110236220473
 10
13.20662598425197
 20
-7.530826771653543
 10
13.2038779527559
 20
-7.529177165354331
 10
13.20129133858268
 20
-7.527161417322835
 10
13.19887007874016
 20
-7.524779527559055
 10
13.19661417322835
 20
-7.522031496062992
 10
13.19015354330709
 20
-7.510204724409449
 10
13.18624803149606
 20
-7.4966968503937
 10
13.18435039370079
 20
-7.483299212598425
 10
13.18379133858268
 20
-7.46838188976378
 10
13.18624803149606
 20
-7.447468503937007
 10
13.19003543307087
 20
-7.433952755905512
 10
13.19639763779528
 20
-7.421897637795276
 10
13.19844881889764
 20
-7.419350393700787
 10
13.20069291338583
 20
-7.417070866141732
 10
13.20312992125984
 20
-7.415055118110236
 10
13.20575984251968
 20
-7.413307086614173
 10
13.20861811023622
 20
-7.411885826771654
 10
13.21172440944882
 20
-7.410870078740158
 10
13.21508661417323
 20
-7.410263779527559
 10
13.21870078740158
 20
-7.410062992125984
 10
13.22231102362205
 20
-7.410271653543307
 10
13.22567322834646
 20
-7.41090157480315
 10
13.22877952755906
 20
-7.411944881889764
 10
13.23163779527559
 20
-7.413409448818897
  0
LWPOLYLINE
  5
77
330
1F
100
AcDbEntity
  8
Layer 1
 62
     7
370
     9
100
AcDbPolyline
 90
       65
 70
     1
 43
0.0
 10
13.2194842519685
 20
-7.549606299212599
 10
13.22599606299213
 20
-7.549192913385827
 10
13.23209448818898
 20
-7.547952755905512
 10
13.23777559055118
 20
-7.545885826771654
 10
13.24304724409449
 20
-7.542996062992126
 10
13.24789763779528
 20
-7.539275590551181
 10
13.25233464566929
 20
-7.534728346456693
 10
13.25635826771654
 20
-7.529354330708661
 10
13.25996850393701
 20
-7.523153543307086
 10
13.26250393700787
 20
-7.517740157480315
 10
13.26470078740157
 20
-7.512031496062992
 10
13.26656299212598
 20
-7.50601968503937
 10
13.26808661417323
 20
-7.499708661417323
 10
13.26926771653543
 20
-7.49309842519685
 10
13.27011417322835
 20
-7.486185039370079
 10
13.27062204724409
 20
-7.478976377952756
 10
13.27079133858268
 20
-7.471464566929134
 10
13.27062204724409
 20
-7.463952755905511
 10
13.27011417322835
 20
-7.456740157480315
 10
13.26926771653543
 20
-7.449830708661417
 10
13.26808661417323
 20
-7.443216535433071
 10
13.26656299212598
 20
-7.436905511811023
 10
13.26470078740157
 20
-7.430893700787402
 10
13.26250393700787
 20
-7.425185039370079
 10
13.25996850393701
 20
-7.419771653543307
 10
13.25635826771654
 20
-7.413570866141733
 10
13.25233464566929
 20
-7.408196850393701
 10
13.24789763779528
 20
-7.403649606299212
 10
13.24304724409449
 20
-7.399933070866142
 10
13.23777559055118
 20
-7.39703937007874
 10
13.23209448818898
 20
-7.394972440944882
 10
13.22599606299213
 20
-7.393732283464567
 10
13.2194842519685
 20
-7.393318897637795
 10
13.21297244094488
 20
-7.393732283464567
 10
13.20687401574803
 20
-7.394972440944882
 10
13.20119291338583
 20
-7.39703937007874
 10
13.19592125984252
 20
-7.399933070866142
 10
13.19106692913386
 20
-7.403649606299212
 10
13.18662598425197
 20
-7.408196850393701
 10
13.18259842519685
 20
-7.413570866141733
 10
13.17898818897638
 20
-7.419771653543307
 10
13.17645275590551
 20
-7.425185039370079
 10
13.17425590551181
 20
-7.430893700787402
 10
13.17239763779528
 20
-7.436905511811023
 10
13.17087795275591
 20
-7.443216535433071
 10
13.16969291338583
 20
-7.449830708661417
 10
13.16885039370079
 20
-7.456740157480315
 10
13.16834251968504
 20
-7.463952755905511
 10
13.16817322834646
 20
-7.471464566929134
 10
13.16834251968504
 20
-7.478976377952756
 10
13.16885039370079
 20
-7.486185039370079
 10
13.16969291338583
 20
-7.49309842519685
 10
13.17087795275591
 20
-7.499708661417323
 10
13.17239763779528
 20
-7.50601968503937
 10
13.17425590551181
 20
-7.512031496062992
 10
13.17645275590551
 20
-7.517740157480315
 10
13.17898818897638
 20
-7.523153543307086
 10
13.18259842519685
 20
-7.529354330708661
 10
13.18662598425197
 20
-7.534728346456693
 10
13.19106692913386
 20
-7.539275590551181
 10
13.19592125984252
 20
-7.542996062992126
 10
13.20119291338583
 20
-7.545885826771654
 10
13.20687401574803
 20
-7.547952755905512
 10
13.21297244094488
 20
-7.549192913385827
 10
13.2194842519685
 20
-7.549606299212599
  0
LWPOLYLINE
  5
78
330
1F
100
AcDbEntity
  8
Layer 1
 62
     7
370
     9
100
AcDbPolyline
 90
       99
 70
     1
 43
0.0
 10
13.42314566929134
 20
-7.547153543307086
 10
13.43876771653543
 20
-7.547153543307086
 10
13.43876771653543
 20
-7.485751968503937
 10
13.43864173228346
 20
-7.481677165354331
 10
13.43825590551181
 20
-7.477795275590551
 10
13.43761811023622
 20
-7.474102362204724
 10
13.43672834645669
 20
-7.470602362204724
 10
13.43558267716536
 20
-7.467295275590551
 10
13.4341811023622
 20
-7.464177165354331
 10
13.43252755905512
 20
-7.461255905511811
 10
13.43061811023622
 20
-7.458523622047244
 10
13.42842125984252
 20
-7.455972440944882
 10
13.42596456692913
 20
-7.453688976377952
 10
13.42323622047244
 20
-7.451669291338582
 10
13.42024409448819
 20
-7.449913385826772
 10
13.41687401574803
 20
-7.4485
 10
13.413
 20
-7.447492125984252
 10
13.40861811023622
 20
-7.446885826771654
 10
13.40373622047244
 20
-7.446685039370078
 10
13.39876771653543
 20
-7.447031496062992
 10
13.39412204724409
 20
-7.44807874015748
 10
13.38979133858268
 20
-7.449818897637796
 10
13.38577952755906
 20
-7.452255905511811
 10
13.38244881889764
 20
-7.454968503937008
 10
13.37942519685039
 20
-7.458059055118111
 10
13.37670866141732
 20
-7.461527559055118
 10
13.37429921259842
 20
-7.46536220472441
 10
13.37016141732284
 20
-7.458523622047244
 10
13.36797244094488
 20
-7.455972440944882
 10
13.36551181102362
 20
-7.453688976377952
 10
13.36278346456693
 20
-7.451669291338582
 10
13.35979133858268
 20
-7.449913385826772
 10
13.35641732283465
 20
-7.4485
 10
13.35254330708661
 20
-7.447492125984252
 10
13.34816535433071
 20
-7.446885826771654
 10
13.34328346456693
 20
-7.446685039370078
 10
13.33831496062992
 20
-7.447031496062992
 10
13.33366535433071
 20
-7.44807874015748
 10
13.32933464566929
 20
-7.449818897637796
 10
13.32532283464567
 20
-7.452255905511811
 10
13.32214566929134
 20
-7.454830708661417
 10
13.31924803149606
 20
-7.457740157480315
 10
13.31662598425197
 20
-7.460984251968504
 10
13.3142874015748
 20
-7.464578740157481
 10
13.3142874015748
 20
-7.448913385826772
 10
13.29866929133858
 20
-7.448913385826772
 10
13.29866929133858
 20
-7.547153543307086
 10
13.3142874015748
 20
-7.547153543307086
 10
13.3142874015748
 20
-7.496881889763779
 10
13.31512204724409
 20
-7.49113779527559
 10
13.31640551181102
 20
-7.485846456692913
 10
13.31813385826772
 20
-7.481003937007874
 10
13.32031496062992
 20
-7.476602362204725
 10
13.32224803149606
 20
-7.473614173228347
 10
13.32449212598425
 20
-7.470909448818897
 10
13.32704330708661
 20
-7.46848031496063
 10
13.32990157480315
 20
-7.466330708661418
 10
13.33297244094488
 20
-7.464574803149606
 10
13.33614960629921
 20
-7.463318897637795
 10
13.33944094488189
 20
-7.462562992125984
 10
13.34284251968504
 20
-7.462311023622047
 10
13.34607480314961
 20
-7.462444881889764
 10
13.34886614173228
 20
-7.462842519685039
 10
13.35120866141732
 20
-7.463503937007874
 10
13.3531062992126
 20
-7.464429133858268
 10
13.35535433070866
 20
-7.466094488188976
 10
13.3573031496063
 20
-7.468043307086615
 10
13.35894881889764
 20
-7.470279527559055
 10
13.36029921259843
 20
-7.472799212598425
 10
13.36134645669291
 20
-7.475610236220472
 10
13.36209448818898
 20
-7.478700787401575
 10
13.36254330708661
 20
-7.482082677165354
 10
13.36269291338583
 20
-7.485751968503937
 10
13.36269291338583
 20
-7.547153543307086
 10
13.37830708661417
 20
-7.547153543307086
 10
13.37830708661417
 20
-7.485751968503937
 10
13.37820078740157
 20
-7.482
 10
13.38075984251969
 20
-7.476602362204725
 10
13.38270078740157
 20
-7.473614173228347
 10
13.38494881889764
 20
-7.470909448818897
 10
13.38749606299213
 20
-7.46848031496063
 10
13.39035433070866
 20
-7.466330708661418
 10
13.39342125984252
 20
-7.464574803149606
 10
13.39660236220472
 20
-7.463318897637795
 10
13.3998937007874
 20
-7.462562992125984
 10
13.40329527559055
 20
-7.462311023622047
 10
13.40652755905512
 20
-7.462444881889764
 10
13.4093188976378
 20
-7.462842519685039
 10
13.41166141732283
 20
-7.463503937007874
 10
13.41355905511811
 20
-7.464429133858268
 10
13.4158031496063
 20
-7.466094488188976
 10
13.41775196850394
 20
-7.468043307086615
 10
13.41939763779528
 20
-7.470279527559055
 10
13.42074803149606
 20
-7.472799212598425
 10
13.42179527559055
 20
-7.475610236220472
 10
13.42254724409449
 20
-7.478700787401575
 10
13.42299606299213
 20
-7.482082677165354
 10
13.42314566929134
 20
-7.485751968503937
 10
13.42314566929134
 20
-7.547153543307086
  0
LWPOLYLINE
  5
79
330
1F
100
AcDbEntity
  8
Layer 1
 62
     7
370
     9
100
AcDbPolyline
 90
       99
 70
     1
 43
0.0
 10
13.59335826771654
 20
-7.547153543307086
 10
13.60897637795276
 20
-7.547153543307086
 10
13.60897637795276
 20
-7.485751968503937
 10
13.60885039370079
 20
-7.481677165354331
 10
13.60846850393701
 20
-7.477795275590551
 10
13.60783070866142
 20
-7.474102362204724
 10
13.60694094488189
 20
-7.470602362204724
 10
13.60579527559055
 20
-7.467295275590551
 10
13.6043937007874
 20
-7.464177165354331
 10
13.60274409448819
 20
-7.461255905511811
 10
13.60083858267716
 20
-7.458523622047244
 10
13.59863779527559
 20
-7.455972440944882
 10
13.59617716535433
 20
-7.453688976377952
 10
13.59344881889764
 20
-7.451669291338582
 10
13.59045669291338
 20
-7.449913385826772
 10
13.58708661417323
 20
-7.4485
 10
13.5832125984252
 20
-7.447492125984252
 10
13.57883070866142
 20
-7.446885826771654
 10
13.57394881889764
 20
-7.446685039370078
 10
13.56898031496063
 20
-7.447031496062992
 10
13.56433464566929
 20
-7.44807874015748
 10
13.56000787401575
 20
-7.449818897637796
 10
13.556
 20
-7.452255905511811
 10
13.55266535433071
 20
-7.454968503937008
 10
13.54963779527559
 20
-7.458059055118111
 10
13.54692125984252
 20
-7.461527559055118
 10
13.54451181102362
 20
-7.46536220472441
 10
13.54037007874016
 20
-7.458523622047244
 10
13.5381811023622
 20
-7.455972440944882
 10
13.53572440944882
 20
-7.453688976377952
 10
13.53299606299213
 20
-7.451669291338582
 10
13.53000393700787
 20
-7.449913385826772
 10
13.52662992125984
 20
-7.4485
 10
13.52275590551181
 20
-7.447492125984252
 10
13.51837795275591
 20
-7.446885826771654
 10
13.51349606299213
 20
-7.446685039370078
 10
13.50852362204724
 20
-7.447031496062992
 10
13.50387795275591
 20
-7.44807874015748
 10
13.49954724409449
 20
-7.449818897637796
 10
13.49553149606299
 20
-7.452255905511811
 10
13.49235826771653
 20
-7.454830708661417
 10
13.48946062992126
 20
-7.457740157480315
 10
13.48683858267717
 20
-7.460984251968504
 10
13.4845
 20
-7.464578740157481
 10
13.4845
 20
-7.448913385826772
 10
13.46887795275591
 20
-7.448913385826772
 10
13.46887795275591
 20
-7.547153543307086
 10
13.4845
 20
-7.547153543307086
 10
13.4845
 20
-7.496881889763779
 10
13.48533464566929
 20
-7.49113779527559
 10
13.48661811023622
 20
-7.485846456692913
 10
13.48834645669291
 20
-7.481003937007874
 10
13.49052755905512
 20
-7.476602362204725
 10
13.49246062992126
 20
-7.473614173228347
 10
13.49470078740157
 20
-7.470909448818897
 10
13.49725196850394
 20
-7.46848031496063
 10
13.50011417322835
 20
-7.466330708661418
 10
13.50318503937008
 20
-7.464574803149606
 10
13.50636220472441
 20
-7.463318897637795
 10
13.50965354330709
 20
-7.462562992125984
 10
13.51305511811024
 20
-7.462311023622047
 10
13.5162874015748
 20
-7.462444881889764
 10
13.51907874015748
 20
-7.462842519685039
 10
13.52142125984252
 20
-7.463503937007874
 10
13.52331889763779
 20
-7.464429133858268
 10
13.52556692913386
 20
-7.466094488188976
 10
13.5275157480315
 20
-7.468043307086615
 10
13.52916141732283
 20
-7.470279527559055
 10
13.53051181102362
 20
-7.472799212598425
 10
13.53155905511811
 20
-7.475610236220472
 10
13.53230708661417
 20
-7.478700787401575
 10
13.53275590551181
 20
-7.482082677165354
 10
13.53290551181102
 20
-7.485751968503937
 10
13.53290551181102
 20
-7.547153543307086
 10
13.5485157480315
 20
-7.547153543307086
 10
13.5485157480315
 20
-7.485751968503937
 10
13.54841338582677
 20
-7.482
 10
13.55097244094488
 20
-7.476602362204725
 10
13.55291338582677
 20
-7.473614173228347
 10
13.55515748031496
 20
-7.470909448818897
 10
13.55770866141732
 20
-7.46848031496063
 10
13.56056299212598
 20
-7.466330708661418
 10
13.56363385826772
 20
-7.464574803149606
 10
13.56681496062992
 20
-7.463318897637795
 10
13.5701062992126
 20
-7.462562992125984
 10
13.57350787401575
 20
-7.462311023622047
 10
13.57674015748031
 20
-7.462444881889764
 10
13.57952755905512
 20
-7.462842519685039
 10
13.58187007874016
 20
-7.463503937007874
 10
13.58377165354331
 20
-7.464429133858268
 10
13.58601968503937
 20
-7.466094488188976
 10
13.58796850393701
 20
-7.468043307086615
 10
13.58961417322835
 20
-7.470279527559055
 10
13.59096456692913
 20
-7.472799212598425
 10
13.59201181102362
 20
-7.475610236220472
 10
13.59275984251969
 20
-7.478700787401575
 10
13.59320866141732
 20
-7.482082677165354
 10
13.59335826771654
 20
-7.485751968503937
 10
13.59335826771654
 20
-7.547153543307086
  0
LWPOLYLINE
  5
7A
330
1F
100
AcDbEntity
  8
Layer 1
 62
     7
370
    18
100
AcDbPolyline
 90
        4
 70
     1
 43
0.0
 10
8.995582677165354
 20
-7.707370078740158
 10
8.964968503937008
 20
-7.705586614173228
 10
8.979854330708662
 20
-7.732397637795276
 10
8.995582677165354
 20
-7.707370078740158
  0
LWPOLYLINE
  5
7B
330
1F
100
AcDbEntity
  8
Layer 1
 62
     7
370
    18
100
AcDbPolyline
 90
        4
 70
     1
 43
0.0
 10
9.845818897637795
 20
-8.241791338582678
 10
9.860700787401575
 20
-8.268602362204724
 10
9.830086614173227
 20
-8.266818897637796
 10
9.845818897637795
 20
-8.241791338582678
  0
LWPOLYLINE
  5
7C
330
1F
100
AcDbEntity
  8
Layer 1
 62
     7
370
    18
100
AcDbPolyline
 90
        2
 70
     0
 43
0.0
 10
8.956551181102363
 20
-7.702157480314961
 10
9.867444881889764
 20
-8.27470472440945
  0
LWPOLYLINE
  5
7D
330
1F
100
AcDbEntity
  8
Layer 1
 62
     7
370
     9
100
AcDbPolyline
 90
        7
 70
     1
 43
0.0
 10
9.004161417322834
 20
-8.220866141732284
 10
9.070858267716535
 20
-8.069712598425197
 10
8.97559842519685
 20
-8.069712598425197
 10
8.97559842519685
 20
-8.085346456692914
 10
9.046547244094489
 20
-8.085346456692914
 10
8.986759842519685
 20
-8.220866141732284
 10
9.004161417322834
 20
-8.220866141732284
  0
LWPOLYLINE
  5
7E
330
1F
100
AcDbEntity
  8
Layer 1
 62
     7
370
     9
100
AcDbPolyline
 90
       61
 70
     1
 43
0.0
 10
9.1535
 20
-8.086681102362204
 10
9.156078740157481
 20
-8.088433070866142
 10
9.158484251968504
 20
-8.09042125984252
 10
9.160712598425198
 20
-8.092649606299213
 10
9.162767716535432
 20
-8.095114173228346
 10
9.164645669291339
 20
-8.097811023622047
 10
9.166350393700787
 20
-8.100748031496064
 10
9.167877952755905
 20
-8.103925196850394
 10
9.169232283464567
 20
-8.107334645669292
 10
9.170748031496062
 20
-8.11186220472441
 10
9.172062992125984
 20
-8.116456692913387
 10
9.17317716535433
 20
-8.121118110236221
 10
9.174086614173229
 20
-8.125842519685039
 10
9.17479527559055
 20
-8.130633858267716
 10
9.175303149606298
 20
-8.135492125984252
 10
9.175606299212598
 20
-8.140413385826772
 10
9.175708661417323
 20
-8.145405511811024
 10
9.175027559055119
 20
-8.15646062992126
 10
9.174255905511812
 20
-8.16246062992126
 10
9.173248031496064
 20
-8.168129921259842
 10
9.172
 20
-8.173464566929134
 10
9.170515748031496
 20
-8.178472440944882
 10
9.16879527559055
 20
-8.183149606299212
 10
9.166834645669292
 20
-8.187496062992127
 10
9.16463779527559
 20
-8.191511811023622
 10
9.162204724409449
 20
-8.195192913385826
 10
9.159988188976378
 20
-8.197968503937007
 10
9.157649606299213
 20
-8.200370078740157
 10
9.155192913385827
 20
-8.202405511811024
 10
9.15261811023622
 20
-8.204070866141732
 10
9.149925196850393
 20
-8.205362204724409
 10
9.147114173228346
 20
-8.206287401574803
 10
9.144181102362205
 20
-8.20684251968504
 10
9.141133858267716
 20
-8.207027559055119
 10
9.137724409448818
 20
-8.20684251968504
 10
9.134484251968503
 20
-8.206295275590552
 10
9.131405511811023
 20
-8.205377952755905
 10
9.128492125984252
 20
-8.20409842519685
 10
9.125744094488189
 20
-8.202448818897638
 10
9.123161417322835
 20
-8.200429133858268
 10
9.120740157480315
 20
-8.198047244094488
 10
9.118484251968503
 20
-8.195295275590551
 10
9.11201968503937
 20
-8.183476377952756
 10
9.108118110236221
 20
-8.16996062992126
 10
9.10621653543307
 20
-8.156562992125984
 10
9.10565748031496
 20
-8.14164566929134
 10
9.108118110236221
 20
-8.120740157480315
 10
9.111897637795275
 20
-8.107224409448818
 10
9.11826377952756
 20
-8.095169291338582
 10
9.120314960629921
 20
-8.092622047244095
 10
9.12255905511811
 20
-8.090338582677166
 10
9.124996062992127
 20
-8.088318897637794
 10
9.127629921259842
 20
-8.086570866141733
 10
9.130484251968504
 20
-8.085153543307086
 10
9.133594488188976
 20
-8.084141732283465
 10
9.136956692913385
 20
-8.083535433070866
 10
9.140574803149606
 20
-8.083334645669291
 10
9.144181102362205
 20
-8.083543307086615
 10
9.14753937007874
 20
-8.084173228346456
 10
9.150645669291338
 20
-8.085216535433071
 10
9.1535
 20
-8.086681102362204
  0
LWPOLYLINE
  5
7F
330
1F
100
AcDbEntity
  8
Layer 1
 62
     7
370
     9
100
AcDbPolyline
 90
       65
 70
     1
 43
0.0
 10
9.141350393700787
 20
-8.222870078740158
 10
9.147866141732283
 20
-8.222456692913386
 10
9.15396062992126
 20
-8.22121653543307
 10
9.159645669291338
 20
-8.219153543307087
 10
9.164909448818898
 20
-8.216259842519685
 10
9.169763779527559
 20
-8.212543307086614
 10
9.174200787401574
 20
-8.207996062992127
 10
9.178220472440945
 20
-8.202622047244095
 10
9.181830708661417
 20
-8.196417322834646
 10
9.184366141732283
 20
-8.191003937007874
 10
9.186566929133859
 20
-8.185295275590551
 10
9.188429133858268
 20
-8.179283464566929
 10
9.189948818897637
 20
-8.172972440944882
 10
9.191133858267717
 20
-8.16636220472441
 10
9.19198031496063
 20
-8.159452755905512
 10
9.192488188976379
 20
-8.152240157480316
 10
9.19265748031496
 20
-8.144732283464567
 10
9.192488188976379
 20
-8.137220472440944
 10
9.19198031496063
 20
-8.130011811023621
 10
9.191133858267717
 20
-8.12309842519685
 10
9.189948818897637
 20
-8.116488188976378
 10
9.188429133858268
 20
-8.110177165354331
 10
9.186566929133859
 20
-8.104165354330709
 10
9.184366141732283
 20
-8.098456692913386
 10
9.181830708661417
 20
-8.093043307086614
 10
9.178220472440945
 20
-8.086842519685039
 10
9.174200787401574
 20
-8.081468503937009
 10
9.169763779527559
 20
-8.07692125984252
 10
9.164909448818898
 20
-8.073204724409448
 10
9.159645669291338
 20
-8.070311023622047
 10
9.15396062992126
 20
-8.06824409448819
 10
9.147866141732283
 20
-8.067003937007874
 10
9.141350393700787
 20
-8.066590551181102
 10
9.134838582677165
 20
-8.067003937007874
 10
9.128740157480316
 20
-8.06824409448819
 10
9.123055118110237
 20
-8.070311023622047
 10
9.117787401574803
 20
-8.073204724409448
 10
9.112933070866141
 20
-8.07692125984252
 10
9.108492125984252
 20
-8.081468503937009
 10
9.104468503937008
 20
-8.086842519685039
 10
9.100858267716536
 20
-8.093043307086614
 10
9.09832283464567
 20
-8.098456692913386
 10
9.096125984251968
 20
-8.104165354330709
 10
9.094263779527559
 20
-8.110177165354331
 10
9.09274409448819
 20
-8.116488188976378
 10
9.09155905511811
 20
-8.12309842519685
 10
9.090712598425197
 20
-8.130011811023621
 10
9.090204724409448
 20
-8.137220472440944
 10
9.090035433070867
 20
-8.144732283464567
 10
9.090204724409448
 20
-8.152240157480316
 10
9.090712598425197
 20
-8.159452755905512
 10
9.09155905511811
 20
-8.16636220472441
 10
9.09274409448819
 20
-8.172972440944882
 10
9.094263779527559
 20
-8.179283464566929
 10
9.096125984251968
 20
-8.185295275590551
 10
9.09832283464567
 20
-8.191003937007874
 10
9.100858267716536
 20
-8.196417322834646
 10
9.104468503937008
 20
-8.202622047244095
 10
9.108492125984252
 20
-8.207996062992127
 10
9.112933070866141
 20
-8.212543307086614
 10
9.117787401574803
 20
-8.216259842519685
 10
9.123055118110237
 20
-8.219153543307087
 10
9.128740157480316
 20
-8.22121653543307
 10
9.134838582677165
 20
-8.222456692913386
 10
9.141350393700787
 20
-8.222870078740158
  0
LWPOLYLINE
  5
80
330
1F
100
AcDbEntity
  8
Layer 1
 62
     7
370
     9
100
AcDbPolyline
 90
       99
 70
     1
 43
0.0
 10
9.345007874015748
 20
-8.220425196850394
 10
9.360629921259843
 20
-8.220425196850394
 10
9.360629921259843
 20
-8.159023622047243
 10
9.360503937007874
 20
-8.154948818897639
 10
9.360122047244095
 20
-8.151062992125985
 10
9.359484251968503
 20
-8.147370078740158
 10
9.358594488188976
 20
-8.143870078740157
 10
9.357448818897637
 20
-8.140562992125984
 10
9.356051181102362
 20
-8.137444881889763
 10
9.354397637795275
 20
-8.13451968503937
 10
9.352492125984252
 20
-8.131787401574803
 10
9.35029527559055
 20
-8.129240157480314
 10
9.347830708661418
 20
-8.126956692913385
 10
9.345102362204724
 20
-8.12494094488189
 10
9.342106299212599
 20
-8.123185039370078
 10
9.338736220472441
 20
-8.121771653543307
 10
9.33486220472441
 20
-8.12076377952756
 10
9.330484251968503
 20
-8.12015748031496
 10
9.32559842519685
 20
-8.119956692913386
 10
9.320633858267717
 20
-8.120303149606299
 10
9.315984251968503
 20
-8.121350393700787
 10
9.311657480314961
 20
-8.123090551181102
 10
9.307653543307087
 20
-8.125527559055119
 10
9.304314960629922
 20
-8.128240157480315
 10
9.301291338582677
 20
-8.131330708661418
 10
9.298570866141732
 20
-8.134799212598425
 10
9.296165354330709
 20
-8.138633858267717
 10
9.292031496062991
 20
-8.131787401574803
 10
9.289838582677165
 20
-8.129240157480314
 10
9.287377952755905
 20
-8.126956692913385
 10
9.284653543307087
 20
-8.12494094488189
 10
9.281661417322834
 20
-8.123185039370078
 10
9.278283464566929
 20
-8.121771653543307
 10
9.274409448818897
 20
-8.12076377952756
 10
9.270031496062993
 20
-8.12015748031496
 10
9.265153543307086
 20
-8.119956692913386
 10
9.260181102362205
 20
-8.120303149606299
 10
9.255531496062993
 20
-8.121350393700787
 10
9.251200787401574
 20
-8.123090551181102
 10
9.247192913385827
 20
-8.125527559055119
 10
9.244015748031496
 20
-8.12809842519685
 10
9.24111811023622
 20
-8.131007874015747
 10
9.2385
 20
-8.13425590551181
 10
9.236161417322835
 20
-8.137850393700788
 10
9.236161417322835
 20
-8.12217716535433
 10
9.220531496062993
 20
-8.12217716535433
 10
9.220531496062993
 20
-8.220425196850394
 10
9.236161417322835
 20
-8.220425196850394
 10
9.236161417322835
 20
-8.170153543307087
 10
9.236988188976378
 20
-8.164405511811024
 10
9.238267716535432
 20
-8.159114173228346
 10
9.24
 20
-8.154271653543308
 10
9.242181102362204
 20
-8.149874015748031
 10
9.244114173228347
 20
-8.146885826771653
 10
9.246358267716536
 20
-8.14417716535433
 10
9.248905511811024
 20
-8.141751968503938
 10
9.25176377952756
 20
-8.139602362204725
 10
9.254834645669291
 20
-8.137842519685039
 10
9.258015748031497
 20
-8.136586614173229
 10
9.261307086614174
 20
-8.135834645669291
 10
9.264708661417323
 20
-8.135582677165354
 10
9.26794094488189
 20
-8.135712598425197
 10
9.270728346456693
 20
-8.136110236220473
 10
9.273070866141733
 20
-8.136771653543308
 10
9.274972440944882
 20
-8.137700787401576
 10
9.277220472440945
 20
-8.139366141732284
 10
9.27916535433071
 20
-8.141314960629922
 10
9.280814960629922
 20
-8.143547244094488
 10
9.282161417322834
 20
-8.146070866141732
 10
9.283208661417323
 20
-8.148877952755905
 10
9.283956692913385
 20
-8.151972440944881
 10
9.284405511811023
 20
-8.155354330708661
 10
9.284555118110235
 20
-8.159023622047243
 10
9.284555118110235
 20
-8.220425196850394
 10
9.300169291338582
 20
-8.220425196850394
 10
9.300169291338582
 20
-8.159023622047243
 10
9.300066929133859
 20
-8.155263779527559
 10
9.302629921259843
 20
-8.149874015748031
 10
9.304570866141733
 20
-8.146885826771653
 10
9.306814960629922
 20
-8.14417716535433
 10
9.309366141732283
 20
-8.141751968503938
 10
9.312216535433071
 20
-8.139602362204725
 10
9.315287401574803
 20
-8.137842519685039
 10
9.318464566929133
 20
-8.136586614173229
 10
9.32175590551181
 20
-8.135834645669291
 10
9.32515748031496
 20
-8.135582677165354
 10
9.328393700787402
 20
-8.135712598425197
 10
9.331181102362205
 20
-8.136110236220473
 10
9.333523622047244
 20
-8.136771653543308
 10
9.335425196850395
 20
-8.137700787401576
 10
9.337673228346457
 20
-8.139366141732284
 10
9.33961811023622
 20
-8.141314960629922
 10
9.341263779527559
 20
-8.143547244094488
 10
9.342614173228347
 20
-8.146070866141732
 10
9.343661417322835
 20
-8.148877952755905
 10
9.344409448818897
 20
-8.151972440944881
 10
9.344858267716535
 20
-8.155354330708661
 10
9.345007874015748
 20
-8.159023622047243
 10
9.345007874015748
 20
-8.220425196850394
  0
LWPOLYLINE
  5
81
330
1F
100
AcDbEntity
  8
Layer 1
 62
     7
370
     9
100
AcDbPolyline
 90
       99
 70
     1
 43
0.0
 10
9.515220472440944
 20
-8.220425196850394
 10
9.530838582677166
 20
-8.220425196850394
 10
9.530838582677166
 20
-8.159023622047243
 10
9.530712598425197
 20
-8.154948818897639
 10
9.530330708661417
 20
-8.151062992125985
 10
9.529692913385826
 20
-8.147370078740158
 10
9.528803149606299
 20
-8.143870078740157
 10
9.527661417322834
 20
-8.140562992125984
 10
9.526259842519686
 20
-8.137444881889763
 10
9.524606299212598
 20
-8.13451968503937
 10
9.522700787401575
 20
-8.131787401574803
 10
9.520503937007874
 20
-8.129240157480314
 10
9.518043307086614
 20
-8.126956692913385
 10
9.51531496062992
 20
-8.12494094488189
 10
9.512318897637796
 20
-8.123185039370078
 10
9.508948818897638
 20
-8.121771653543307
 10
9.505074803149606
 20
-8.12076377952756
 10
9.5006968503937
 20
-8.12015748031496
 10
9.495818897637795
 20
-8.119956692913386
 10
9.490846456692914
 20
-8.120303149606299
 10
9.4861968503937
 20
-8.121350393700787
 10
9.481870078740158
 20
-8.123090551181102
 10
9.47786220472441
 20
-8.125527559055119
 10
9.474527559055119
 20
-8.128240157480315
 10
9.4715
 20
-8.131330708661418
 10
9.468783464566929
 20
-8.134799212598425
 10
9.466374015748032
 20
-8.138633858267717
 10
9.46224409448819
 20
-8.131787401574803
 10
9.460051181102362
 20
-8.129240157480314
 10
9.457590551181102
 20
-8.126956692913385
 10
9.45486220472441
 20
-8.12494094488189
 10
9.451874015748032
 20
-8.123185039370078
 10
9.448496062992126
 20
-8.121771653543307
 10
9.444622047244094
 20
-8.12076377952756
 10
9.44024409448819
 20
-8.12015748031496
 10
9.435366141732283
 20
-8.119956692913386
 10
9.430393700787402
 20
-8.120303149606299
 10
9.425740157480314
 20
-8.121350393700787
 10
9.42141338582677
 20
-8.123090551181102
 10
9.417401574803149
 20
-8.125527559055119
 10
9.414224409448819
 20
-8.12809842519685
 10
9.411326771653544
 20
-8.131007874015747
 10
9.408708661417323
 20
-8.13425590551181
 10
9.406370078740158
 20
-8.137850393700788
 10
9.406370078740158
 20
-8.12217716535433
 10
9.39074409448819
 20
-8.12217716535433
 10
9.39074409448819
 20
-8.220425196850394
 10
9.406370078740158
 20
-8.220425196850394
 10
9.406370078740158
 20
-8.170153543307087
 10
9.407200787401575
 20
-8.164405511811024
 10
9.408480314960629
 20
-8.159114173228346
 10
9.410212598425197
 20
-8.154271653543308
 10
9.412389763779528
 20
-8.149874015748031
 10
9.414326771653544
 20
-8.146885826771653
 10
9.416570866141733
 20
-8.14417716535433
 10
9.419118110236221
 20
-8.141751968503938
 10
9.421976377952756
 20
-8.139602362204725
 10
9.425047244094488
 20
-8.137842519685039
 10
9.428224409448818
 20
-8.136586614173229
 10
9.431515748031496
 20
-8.135834645669291
 10
9.434917322834645
 20
-8.135582677165354
 10
9.438149606299213
 20
-8.135712598425197
 10
9.44094094488189
 20
-8.136110236220473
 10
9.44328346456693
 20
-8.136771653543308
 10
9.445181102362204
 20
-8.137700787401576
 10
9.447429133858268
 20
-8.139366141732284
 10
9.449377952755906
 20
-8.141314960629922
 10
9.451027559055118
 20
-8.143547244094488
 10
9.452377952755905
 20
-8.146070866141732
 10
9.453425196850393
 20
-8.148877952755905
 10
9.45417716535433
 20
-8.151972440944881
 10
9.454625984251969
 20
-8.155354330708661
 10
9.454775590551181
 20
-8.159023622047243
 10
9.454775590551181
 20
-8.220425196850394
 10
9.470381889763779
 20
-8.220425196850394
 10
9.470381889763779
 20
-8.159023622047243
 10
9.47027559055118
 20
-8.155263779527559
 10
9.47284251968504
 20
-8.149874015748031
 10
9.474779527559056
 20
-8.146885826771653
 10
9.477023622047245
 20
-8.14417716535433
 10
9.479574803149607
 20
-8.141751968503938
 10
9.482429133858268
 20
-8.139602362204725
 10
9.4855
 20
-8.137842519685039
 10
9.48867716535433
 20
-8.136586614173229
 10
9.491968503937008
 20
-8.135834645669291
 10
9.495370078740157
 20
-8.135582677165354
 10
9.498602362204725
 20
-8.135712598425197
 10
9.501393700787402
 20
-8.136110236220473
 10
9.50373622047244
 20
-8.136771653543308
 10
9.505633858267716
 20
-8.137700787401576
 10
9.50788188976378
 20
-8.139366141732284
 10
9.509830708661417
 20
-8.141314960629922
 10
9.511476377952755
 20
-8.143547244094488
 10
9.512826771653543
 20
-8.146070866141732
 10
9.513874015748032
 20
-8.148877952755905
 10
9.514622047244094
 20
-8.151972440944881
 10
9.515070866141732
 20
-8.155354330708661
 10
9.515220472440944
 20
-8.159023622047243
 10
9.515220472440944
 20
-8.220425196850394
  0
ENDSEC
  0
SECTION
  2
OBJECTS
  0
DICTIONARY
  5
C
330
0
100
AcDbDictionary
281
     1
  3
ACAD_DETAILVIEWSTYLE
350
89
  3
ACAD_GROUP
350
D
  3
ACAD_LAYOUT
350
1A
  3
ACAD_MATERIAL
350
43
  3
ACAD_MLEADERSTYLE
350
5B
  3
ACAD_MLINESTYLE
350
17
  3
ACAD_PLOTSETTINGS
350
19
  3
ACAD_PLOTSTYLENAME
350
E
  3
ACAD_SCALELIST
350
47
  3
ACAD_SECTIONVIEWSTYLE
350
8A
  3
ACAD_TABLESTYLE
350
59
  3
ACAD_VISUALSTYLE
350
2A
  3
ACDB_RECOMPOSE_DATA
350
86
  3
AcDbVariableDictionary
350
82
  0
SUN
  5
5D
330
29
100
AcDbSun
 90
        1
290
     0
 63
     7
421
 16777215
 40
1.0
291
     1
 91
  2455826
 92
 54000000
292
     0
 70
     2
 71
   256
280
     1
  0
DICTIONARY
  5
89
102
{ACAD_REACTORS
330
C
102
}
330
C
100
AcDbDictionary
281
     1
  0
DICTIONARY
  5
D
102
{ACAD_REACTORS
330
C
102
}
330
C
100
AcDbDictionary
281
     1
  0
DICTIONARY
  5
1A
102
{ACAD_REACTORS
330
C
102
}
330
C
100
AcDbDictionary
281
     1
  3
Layout1
350
1E
  3
Layout2
350
26
  3
Model
350
22
  0
DICTIONARY
  5
43
102
{ACAD_REACTORS
330
C
102
}
330
C
100
AcDbDictionary
281
     1
  3
ByBlock
350
45
  3
ByLayer
350
44
  3
Global
350
46
  0
DICTIONARY
  5
5B
102
{ACAD_REACTORS
330
C
102
}
330
C
100
AcDbDictionary
281
     1
  3
Standard
350
5C
  0
DICTIONARY
  5
17
102
{ACAD_REACTORS
330
C
102
}
330
C
100
AcDbDictionary
281
     1
  3
Standard
350
18
  0
DICTIONARY
  5
19
102
{ACAD_REACTORS
330
C
102
}
330
C
100
AcDbDictionary
281
     1
  0
ACDBDICTIONARYWDFLT
  5
E
102
{ACAD_REACTORS
330
C
102
}
330
C
100
AcDbDictionary
281
     1
  3
Normal
350
F
100
AcDbDictionaryWithDefault
340
F
  0
DICTIONARY
  5
47
102
{ACAD_REACTORS
330
C
102
}
330
C
100
AcDbDictionary
281
     1
  3
A0
350
48
  3
A1
350
49
  3
A2
350
4A
  3
A3
350
4B
  3
A4
350
4C
  3
A5
350
4D
  3
A6
350
4E
  3
A7
350
4F
  3
A8
350
50
  3
A9
350
51
  3
B1
350
52
  3
B2
350
53
  3
B3
350
54
  3
B4
350
55
  3
B5
350
56
  3
B6
350
57
  3
B7
350
58
  0
DICTIONARY
  5
8A
102
{ACAD_REACTORS
330
C
102
}
330
C
100
AcDbDictionary
281
     1
  0
DICTIONARY
  5
59
102
{ACAD_REACTORS
330
C
102
}
330
C
100
AcDbDictionary
281
     1
  3
Standard
350
5A
  0
DICTIONARY
  5
2A
102
{ACAD_REACTORS
330
C
102
}
330
C
100
AcDbDictionary
281
     1
  3
2dWireframe
350
2F
  3
Basic
350
32
  3
Brighten
350
36
  3
ColorChange
350
3A
  3
Conceptual
350
34
  3
Dim
350
35
  3
EdgeColorOff
350
3D
  3
Facepattern
350
39
  3
Flat
350
2B
  3
FlatWithEdges
350
2C
  3
Gouraud
350
2D
  3
GouraudWithEdges
350
2E
  3
Hidden
350
31
  3
JitterOff
350
3B
  3
Linepattern
350
38
  3
OverhangOff
350
3C
  3
Realistic
350
33
  3
Shaded
350
42
  3
Shaded with edges
350
41
  3
Shades of Gray
350
3E
  3
Sketchy
350
3F
  3
Thicken
350
37
  3
Wireframe
350
30
  3
X-Ray
350
40
  0
XRECORD
  5
86
102
{ACAD_REACTORS
330
C
102
}
330
C
100
AcDbXrecord
280
     1
 90
        1
330
5A
  0
DICTIONARY
  5
82
102
{ACAD_REACTORS
330
C
102
}
330
C
100
AcDbDictionary
281
     1
  3
CANNOSCALE
350
83
  3
CMLEADERSTYLE
350
88
  3
CTABLESTYLE
350
87
  0
LAYOUT
  5
1E
102
{ACAD_REACTORS
330
1A
102
}
330
1A
100
AcDbPlotSettings
  1

  2
none_device
  4

  6

 40
0.0
 41
0.0
 42
0.0
 43
0.0
 44
0.0
 45
0.0
 46
0.0
 47
0.0
 48
0.0
 49
0.0
140
0.0
141
0.0
142
1.0
143
1.0
 70
   688
 72
     0
 73
     0
 74
     5
  7

 75
    16
 76
     0
 77
     2
 78
   300
147
1.0
148
0.0
149
0.0
100
AcDbLayout
  1
Layout1
 70
     1
 71
     1
 10
0.0
 20
0.0
 11
12.0
 21
9.0
 12
0.0
 22
0.0
 32
0.0
 14
1.000000000000000E+20
 24
1.000000000000000E+20
 34
1.000000000000000E+20
 15
-1.000000000000000E+20
 25
-1.000000000000000E+20
 35
-1.000000000000000E+20
146
0.0
 13
0.0
 23
0.0
 33
0.0
 16
1.0
 26
0.0
 36
0.0
 17
0.0
 27
1.0
 37
0.0
 76
     0
330
1B
  0
LAYOUT
  5
26
102
{ACAD_REACTORS
330
1A
102
}
330
1A
100
AcDbPlotSettings
  1

  2
none_device
  4

  6

 40
0.0
 41
0.0
 42
0.0
 43
0.0
 44
0.0
 45
0.0
 46
0.0
 47
0.0
 48
0.0
 49
0.0
140
0.0
141
0.0
142
1.0
143
1.0
 70
   688
 72
     0
 73
     0
 74
     5
  7

 75
    16
 76
     0
 77
     2
 78
   300
147
1.0
148
0.0
149
0.0
100
AcDbLayout
  1
Layout2
 70
     1
 71
     2
 10
0.0
 20
0.0
 11
0.0
 21
0.0
 12
0.0
 22
0.0
 32
0.0
 14
0.0
 24
0.0
 34
0.0
 15
0.0
 25
0.0
 35
0.0
146
0.0
 13
0.0
 23
0.0
 33
0.0
 16
1.0
 26
0.0
 36
0.0
 17
0.0
 27
1.0
 37
0.0
 76
     0
330
23
  0
LAYOUT
  5
22
102
{ACAD_REACTORS
330
1A
102
}
330
1A
100
AcDbPlotSettings
  1

  2
none_device
  4
Letter_(8.50_x_11.00_Inches)
  6

 40
6.35
 41
6.35
 42
6.35000508
 43
6.35000508
 44
215.9
 45
279.4
 46
0.0
 47
0.0
 48
0.0
 49
0.0
140
0.0
141
0.0
142
1.0
143
1.0
 70
  1712
 72
     0
 73
     0
 74
     0
  7

 75
     0
 76
     0
 77
     2
 78
   300
147
1.0
148
0.0
149
0.0
100
AcDbLayout
  1
Model
 70
     1
 71
     0
 10
0.0
 20
0.0
 11
12.0
 21
9.0
 12
0.0
 22
0.0
 32
0.0
 14
8.025905511811024
 24
-8.744051181102362
 34
0.0
 15
16.06929921259843
 25
-5.038527559055118
 35
0.0
146
0.0
 13
0.0
 23
0.0
 33
0.0
 16
1.0
 26
0.0
 36
0.0
 17
0.0
 27
1.0
 37
0.0
 76
     0
330
1F
331
29
  0
MATERIAL
  5
45
102
{ACAD_REACTORS
330
43
102
}
330
43
100
AcDbMaterial
  1
ByBlock
 72
     1
 94
      127
  0
MATERIAL
  5
44
102
{ACAD_REACTORS
330
43
102
}
330
43
100
AcDbMaterial
  1
ByLayer
 72
     1
 94
      127
  0
MATERIAL
  5
46
102
{ACAD_REACTORS
330
43
102
}
330
43
100
AcDbMaterial
  1
Global
 72
     1
 94
      127
  0
MLEADERSTYLE
  5
5C
102
{ACAD_REACTORS
330
5B
102
}
330
5B
100
AcDbMLeaderStyle
179
     2
170
     2
171
     1
172
     0
 90
        2
 40
0.0
 41
0.0
173
     1
 91
-1056964608
340
14
 92
       -2
290
     1
 42
0.09
291
     1
 43
0.36
  3
Standard
341
0
 44
0.18
300

342
11
174
     1
178
     6
175
     1
176
     0
 93
-1056964608
 45
0.18
292
     0
297
     0
 46
0.18
343
0
 94
-1056964608
 47
1.0
 49
1.0
140
1.0
293
     1
141
0.0
294
     1
177
     0
142
1.0
295
     0
296
     0
143
0.125
271
     0
272
     9
273
     9
298
     0
  0
MLINESTYLE
  5
18
102
{ACAD_REACTORS
330
17
102
}
330
17
100
AcDbMlineStyle
  2
Standard
 70
     0
  3

 62
   256
 51
90.0
 52
90.0
 71
     2
 49
0.5
 62
   256
  6
BYLAYER
 49
-0.5
 62
   256
  6
BYLAYER
  0
ACDBPLACEHOLDER
  5
F
102
{ACAD_REACTORS
330
E
102
}
330
E
  0
SCALE
  5
48
102
{ACAD_REACTORS
330
47
102
}
330
47
100
AcDbScale
 70
     0
300
1:1
140
1.0
141
1.0
290
     1
  0
SCALE
  5
49
102
{ACAD_REACTORS
330
47
102
}
330
47
100
AcDbScale
 70
     0
300
1/128" = 1'-0"
140
0.0078125
141
12.0
290
     0
  0
SCALE
  5
4A
102
{ACAD_REACTORS
330
47
102
}
330
47
100
AcDbScale
 70
     0
300
1/64" = 1'-0"
140
0.015625
141
12.0
290
     0
  0
SCALE
  5
4B
102
{ACAD_REACTORS
330
47
102
}
330
47
100
AcDbScale
 70
     0
300
1/32" = 1'-0"
140
0.03125
141
12.0
290
     0
  0
SCALE
  5
4C
102
{ACAD_REACTORS
330
47
102
}
330
47
100
AcDbScale
 70
     0
300
1/16" = 1'-0"
140
0.0625
141
12.0
290
     0
  0
SCALE
  5
4D
102
{ACAD_REACTORS
330
47
102
}
330
47
100
AcDbScale
 70
     0
300
3/32" = 1'-0"
140
0.09375
141
12.0
290
     0
  0
SCALE
  5
4E
102
{ACAD_REACTORS
330
47
102
}
330
47
100
AcDbScale
 70
     0
300
1/8" = 1'-0"
140
0.125
141
12.0
290
     0
  0
SCALE
  5
4F
102
{ACAD_REACTORS
330
47
102
}
330
47
100
AcDbScale
 70
     0
300
3/16" = 1'-0"
140
0.1875
141
12.0
290
     0
  0
SCALE
  5
50
102
{ACAD_REACTORS
330
47
102
}
330
47
100
AcDbScale
 70
     0
300
1/4" = 1'-0"
140
0.25
141
12.0
290
     0
  0
SCALE
  5
51
102
{ACAD_REACTORS
330
47
102
}
330
47
100
AcDbScale
 70
     0
300
3/8" = 1'-0"
140
0.375
141
12.0
290
     0
  0
SCALE
  5
52
102
{ACAD_REACTORS
330
47
102
}
330
47
100
AcDbScale
 70
     0
300
1/2" = 1'-0"
140
0.5
141
12.0
290
     0
  0
SCALE
  5
53
102
{ACAD_REACTORS
330
47
102
}
330
47
100
AcDbScale
 70
     0
300
3/4" = 1'-0"
140
0.75
141
12.0
290
     0
  0
SCALE
  5
54
102
{ACAD_REACTORS
330
47
102
}
330
47
100
AcDbScale
 70
     0
300
1" = 1'-0"
140
1.0
141
12.0
290
     0
  0
SCALE
  5
55
102
{ACAD_REACTORS
330
47
102
}
330
47
100
AcDbScale
 70
     0
300
1-1/2" = 1'-0"
140
1.5
141
12.0
290
     0
  0
SCALE
  5
56
102
{ACAD_REACTORS
330
47
102
}
330
47
100
AcDbScale
 70
     0
300
3" = 1'-0"
140
3.0
141
12.0
290
     0
  0
SCALE
  5
57
102
{ACAD_REACTORS
330
47
102
}
330
47
100
AcDbScale
 70
     0
300
6" = 1'-0"
140
6.0
141
12.0
290
     0
  0
SCALE
  5
58
102
{ACAD_REACTORS
330
47
102
}
330
47
100
AcDbScale
 70
     0
300
1'-0" = 1'-0"
140
12.0
141
12.0
290
     0
  0
TABLESTYLE
  5
5A
102
{ACAD_REACTORS
330
59
102
}
102
{ACAD_XDICTIONARY
360
84
102
}
330
59
100
AcDbTableStyle
  3
Standard
 70
     0
 71
     0
 40
0.06
 41
0.06
280
     0
281
     0
  7
Standard
140
0.18
170
     2
 62
     0
 63
   257
283
     0
 90
        4
 91
        0
  1

274
    -2
284
     1
 64
     0
275
    -2
285
     1
 65
     0
276
    -2
286
     1
 66
     0
277
    -2
287
     1
 67
     0
278
    -2
288
     1
 68
     0
279
    -2
289
     1
 69
     0
  7
Standard
140
0.25
170
     5
 62
     0
 63
   257
283
     0
 90
        4
 91
        0
  1

274
    -2
284
     1
 64
     0
275
    -2
285
     1
 65
     0
276
    -2
286
     1
 66
     0
277
    -2
287
     1
 67
     0
278
    -2
288
     1
 68
     0
279
    -2
289
     1
 69
     0
  7
Standard
140
0.18
170
     5
 62
     0
 63
   257
283
     0
 90
        4
 91
        0
  1

274
    -2
284
     1
 64
     0
275
    -2
285
     1
 65
     0
276
    -2
286
     1
 66
     0
277
    -2
287
     1
 67
     0
278
    -2
288
     1
 68
     0
279
    -2
289
     1
 69
     0
  0
VISUALSTYLE
  5
2F
102
{ACAD_REACTORS
330
2A
102
}
330
2A
100
AcDbVisualStyle
  2
2dWireframe
 70
     4
177
     3
291
     0
 70
    58
 90
        0
176
     1
 90
        2
176
     1
 90
        0
176
     1
 90
        0
176
     1
 40
0.6
176
     1
 40
30.0
176
     1
 62
     7
420
 16777215
176
     1
 90
        1
176
     1
 90
        4
176
     1
 62
     7
176
     1
 62
   257
176
     1
 90
        1
176
     1
 90
        1
176
     1
 40
1.0
176
     1
 90
        0
176
     1
 62
   257
176
     1
 40
1.0
176
     1
 90
        1
176
     1
 90
        6
176
     1
 90
        2
176
     1
 62
     7
176
     1
 90
        5
176
     1
 90
        0
176
     1
 90
        0
176
     1
290
     0
176
     1
 90
        1
176
     1
 40
0.0
176
     1
 90
        0
176
     1
290
     1
176
     1
290
     1
176
     1
290
     0
176
     1
290
     0
176
     1
290
     0
176
     1
290
     0
176
     1
290
     0
176
     1
290
     0
176
     1
290
     0
176
     1
 90
       50
176
     1
 40
0.0
176
     1
 40
1.0
176
     1
 90
        0
176
     1
 62
    18
420
        0
176
     1
 90
       50
176
     1
 90
        3
176
     1
 62
     5
420
      255
176
     1
290
     0
176
     1
 90
       50
176
     1
 90
       50
176
     1
 90
       50
176
     1
290
     0
176
     1
 90
       50
176
     1
 62
   256
176
     0
 40
1.0
176
     0
 90
        2
176
     1
  1
strokes_ogs.tif
176
     1
290
     0
176
     1
 40
1.0
176
     1
 40
1.0
176
     1
  0
VISUALSTYLE
  5
32
102
{ACAD_REACTORS
330
2A
102
}
330
2A
100
AcDbVisualStyle
  2
Basic
 70
     7
177
     3
291
     1
 70
    58
 90
        1
176
     1
 90
        0
176
     1
 90
        1
176
     1
 90
        0
176
     1
 40
0.6
176
     1
 40
30.0
176
     1
 62
     7
420
 16777215
176
     1
 90
        0
176
     1
 90
        4
176
     1
 62
     7
176
     1
 62
   257
176
     1
 90
        1
176
     1
 90
        1
176
     1
 40
1.0
176
     1
 90
        8
176
     1
 62
     7
176
     1
 40
1.0
176
     1
 90
        1
176
     1
 90
        6
176
     1
 90
        2
176
     1
 62
     7
176
     1
 90
        5
176
     1
 90
        0
176
     1
 90
        0
176
     1
290
     0
176
     1
 90
        1
176
     1
 40
0.0
176
     1
 90
        0
176
     1
290
     0
176
     1
290
     1
176
     1
290
     1
176
     1
290
     0
176
     1
290
     0
176
     1
290
     0
176
     1
290
     0
176
     1
290
     0
176
     1
290
     0
176
     1
 90
       50
176
     1
 40
0.0
176
     1
 40
1.0
176
     1
 90
        0
176
     1
 62
    18
420
        0
176
     1
 90
       50
176
     1
 90
        3
176
     1
 62
     5
420
      255
176
     1
290
     0
176
     1
 90
       50
176
     1
 90
       50
176
     1
 90
       50
176
     1
290
     0
176
     1
 90
       50
176
     1
 62
   256
176
     0
 40
1.0
176
     0
 90
        2
176
     1
  1
strokes_ogs.tif
176
     1
290
     0
176
     1
 40
1.0
176
     1
 40
1.0
176
     1
  0
VISUALSTYLE
  5
36
102
{ACAD_REACTORS
330
2A
102
}
330
2A
100
AcDbVisualStyle
  2
Brighten
 70
    12
177
     3
291
     1
 70
    58
 90
        2
176
     1
 90
        2
176
     1
 90
        0
176
     1
 90
        0
176
     1
 40
0.6
176
     1
 40
30.0
176
     1
 62
     7
420
 16777215
176
     1
 90
        1
176
     1
 90
        4
176
     1
 62
     7
176
     1
 62
   257
176
     1
 90
        1
176
     1
 90
        1
176
     1
 40
1.0
176
     1
 90
        8
176
     1
 62
     7
176
     1
 40
1.0
176
     1
 90
        1
176
     1
 90
        6
176
     1
 90
        2
176
     1
 62
     7
176
     1
 90
        5
176
     1
 90
        0
176
     1
 90
        0
176
     1
290
     0
176
     1
 90
        1
176
     1
 40
50.0
176
     1
 90
        0
176
     1
290
     0
176
     1
290
     1
176
     1
290
     1
176
     1
290
     0
176
     1
290
     0
176
     1
290
     0
176
     1
290
     0
176
     1
290
     0
176
     1
290
     0
176
     1
 90
       50
176
     1
 40
0.0
176
     1
 40
1.0
176
     1
 90
        0
176
     1
 62
    18
420
        0
176
     1
 90
       50
176
     1
 90
        3
176
     1
 62
     5
420
      255
176
     1
290
     0
176
     1
 90
       50
176
     1
 90
       50
176
     1
 90
       50
176
     1
290
     0
176
     1
 90
       50
176
     1
 62
   256
176
     0
 40
1.0
176
     0
 90
        2
176
     1
  1
strokes_ogs.tif
176
     1
290
     0
176
     1
 40
1.0
176
     1
 40
1.0
176
     1
  0
VISUALSTYLE
  5
3A
102
{ACAD_REACTORS
330
2A
102
}
330
2A
100
AcDbVisualStyle
  2
ColorChange
 70
    16
177
     3
291
     1
 70
    58
 90
        2
176
     1
 90
        2
176
     1
 90
        3
176
     1
 90
        0
176
     1
 40
0.6
176
     1
 40
30.0
176
     1
 62
     8
420
  8421504
176
     1
 90
        1
176
     1
 90
        4
176
     1
 62
     7
176
     1
 62
   257
176
     1
 90
        1
176
     1
 90
        1
176
     1
 40
1.0
176
     1
 90
        8
176
     1
 62
     8
420
  8421504
176
     1
 40
1.0
176
     1
 90
        1
176
     1
 90
        6
176
     1
 90
        2
176
     1
 62
     7
176
     1
 90
        5
176
     1
 90
        0
176
     1
 90
        0
176
     1
290
     0
176
     1
 90
        1
176
     1
 40
0.0
176
     1
 90
        0
176
     1
290
     0
176
     1
290
     1
176
     1
290
     1
176
     1
290
     0
176
     1
290
     0
176
     1
290
     0
176
     1
290
     0
176
     1
290
     0
176
     1
290
     0
176
     1
 90
       50
176
     1
 40
0.0
176
     1
 40
1.0
176
     1
 90
        0
176
     1
 62
    18
420
        0
176
     1
 90
       50
176
     1
 90
        3
176
     1
 62
     5
420
      255
176
     1
290
     0
176
     1
 90
       50
176
     1
 90
       50
176
     1
 90
       50
176
     1
290
     0
176
     1
 90
       50
176
     1
 62
   256
176
     0
 40
1.0
176
     0
 90
        2
176
     1
  1
strokes_ogs.tif
176
     1
290
     0
176
     1
 40
1.0
176
     1
 40
1.0
176
     1
  0
VISUALSTYLE
  5
34
102
{ACAD_REACTORS
330
2A
102
}
330
2A
100
AcDbVisualStyle
  2
Conceptual
 70
     9
177
     3
291
     0
 70
    58
 90
        3
176
     1
 90
        2
176
     1
 90
        0
176
     1
 90
        0
176
     1
 40
0.6
176
     1
 40
30.0
176
     1
 62
     7
420
 16777215
176
     1
 90
        2
176
     1
 90
        2
176
     1
 62
     7
176
     1
 62
   257
176
     1
 90
        1
176
     1
 90
        1
176
     1
 40
179.0
176
     1
 90
        8
176
     1
 62
     7
176
     1
 40
1.0
176
     1
 90
        1
176
     1
 90
        6
176
     1
 90
        2
176
     1
 62
     7
176
     1
 90
        3
176
     1
 90
        0
176
     1
 90
        0
176
     1
290
     0
176
     1
 90
        1
176
     1
 40
0.0
176
     1
 90
        0
176
     1
290
     0
176
     1
290
     1
176
     1
290
     1
176
     1
290
     0
176
     1
290
     0
176
     1
290
     0
176
     1
290
     0
176
     1
290
     0
176
     1
290
     0
176
     1
 90
       50
176
     1
 40
0.0
176
     1
 40
1.0
176
     1
 90
        0
176
     1
 62
    18
420
        0
176
     1
 90
       50
176
     1
 90
        3
176
     1
 62
     5
420
      255
176
     1
290
     0
176
     1
 90
       50
176
     1
 90
       50
176
     1
 90
       50
176
     1
290
     0
176
     1
 90
       50
176
     1
 62
   256
176
     0
 40
1.0
176
     0
 90
        2
176
     1
  1
strokes_ogs.tif
176
     1
290
     0
176
     1
 40
1.0
176
     1
 40
1.0
176
     1
  0
VISUALSTYLE
  5
35
102
{ACAD_REACTORS
330
2A
102
}
330
2A
100
AcDbVisualStyle
  2
Dim
 70
    11
177
     3
291
     1
 70
    58
 90
        2
176
     1
 90
        2
176
     1
 90
        0
176
     1
 90
        0
176
     1
 40
0.6
176
     1
 40
30.0
176
     1
 62
     7
420
 16777215
176
     1
 90
        1
176
     1
 90
        4
176
     1
 62
     7
176
     1
 62
   257
176
     1
 90
        1
176
     1
 90
        1
176
     1
 40
1.0
176
     1
 90
        8
176
     1
 62
     7
176
     1
 40
1.0
176
     1
 90
        1
176
     1
 90
        6
176
     1
 90
        2
176
     1
 62
     7
176
     1
 90
        5
176
     1
 90
        0
176
     1
 90
        0
176
     1
290
     0
176
     1
 90
        1
176
     1
 40
-50.0
176
     1
 90
        0
176
     1
290
     0
176
     1
290
     1
176
     1
290
     1
176
     1
290
     0
176
     1
290
     0
176
     1
290
     0
176
     1
290
     0
176
     1
290
     0
176
     1
290
     0
176
     1
 90
       50
176
     1
 40
0.0
176
     1
 40
1.0
176
     1
 90
        0
176
     1
 62
    18
420
        0
176
     1
 90
       50
176
     1
 90
        3
176
     1
 62
     5
420
      255
176
     1
290
     0
176
     1
 90
       50
176
     1
 90
       50
176
     1
 90
       50
176
     1
290
     0
176
     1
 90
       50
176
     1
 62
   256
176
     0
 40
1.0
176
     0
 90
        2
176
     1
  1
strokes_ogs.tif
176
     1
290
     0
176
     1
 40
1.0
176
     1
 40
1.0
176
     1
  0
VISUALSTYLE
  5
3D
102
{ACAD_REACTORS
330
2A
102
}
330
2A
100
AcDbVisualStyle
  2
EdgeColorOff
 70
    22
177
     3
291
     1
 70
    58
 90
        2
176
     0
 90
        2
176
     0
 90
        0
176
     0
 90
        0
176
     0
 40
0.6
176
     0
 40
30.0
176
     0
 62
     7
420
 16777215
176
     0
 90
        1
176
     0
 90
        4
176
     0
 62
     7
176
     0
 62
   257
176
     0
 90
        1
176
     0
 90
        1
176
     0
 40
1.0
176
     0
 90
        8
176
     2
 62
     7
176
     0
 40
1.0
176
     0
 90
        1
176
     0
 90
        6
176
     0
 90
        2
176
     0
 62
     7
176
     0
 90
        5
176
     0
 90
        0
176
     0
 90
        0
176
     0
290
     0
176
     0
 90
        1
176
     0
 40
0.0
176
     0
 90
        0
176
     0
290
     0
176
     0
290
     1
176
     0
290
     1
176
     0
290
     0
176
     0
290
     0
176
     0
290
     0
176
     0
290
     0
176
     0
290
     0
176
     0
290
     0
176
     0
 90
       50
176
     0
 40
0.0
176
     0
 40
1.0
176
     0
 90
        0
176
     0
 62
    18
420
        0
176
     0
 90
       50
176
     0
 90
        3
176
     0
 62
     5
420
      255
176
     0
290
     0
176
     0
 90
       50
176
     0
 90
       50
176
     0
 90
       50
176
     0
290
     0
176
     0
 90
       50
176
     0
 62
   256
176
     0
 40
1.0
176
     0
 90
        2
176
     0
  1
strokes_ogs.tif
176
     0
290
     0
176
     0
 40
1.0
176
     0
 40
1.0
176
     0
  0
VISUALSTYLE
  5
39
102
{ACAD_REACTORS
330
2A
102
}
330
2A
100
AcDbVisualStyle
  2
Facepattern
 70
    15
177
     3
291
     1
 70
    58
 90
        2
176
     1
 90
        2
176
     1
 90
        0
176
     1
 90
        0
176
     1
 40
0.6
176
     1
 40
30.0
176
     1
 62
     7
420
 16777215
176
     1
 90
        1
176
     1
 90
        4
176
     1
 62
     7
176
     1
 62
   257
176
     1
 90
        1
176
     1
 90
        1
176
     1
 40
1.0
176
     1
 90
        8
176
     1
 62
     7
176
     1
 40
1.0
176
     1
 90
        1
176
     1
 90
        6
176
     1
 90
        2
176
     1
 62
     7
176
     1
 90
        5
176
     1
 90
        0
176
     1
 90
        0
176
     1
290
     0
176
     1
 90
        1
176
     1
 40
0.0
176
     1
 90
        0
176
     1
290
     0
176
     1
290
     1
176
     1
290
     1
176
     1
290
     0
176
     1
290
     0
176
     1
290
     0
176
     1
290
     0
176
     1
290
     0
176
     1
290
     0
176
     1
 90
       50
176
     1
 40
0.0
176
     1
 40
1.0
176
     1
 90
        0
176
     1
 62
    18
420
        0
176
     1
 90
       50
176
     1
 90
        3
176
     1
 62
     5
420
      255
176
     1
290
     0
176
     1
 90
       50
176
     1
 90
       50
176
     1
 90
       50
176
     1
290
     0
176
     1
 90
       50
176
     1
 62
   256
176
     0
 40
1.0
176
     0
 90
        2
176
     1
  1
strokes_ogs.tif
176
     1
290
     0
176
     1
 40
1.0
176
     1
 40
1.0
176
     1
  0
VISUALSTYLE
  5
2B
102
{ACAD_REACTORS
330
2A
102
}
330
2A
100
AcDbVisualStyle
  2
Flat
 70
     0
177
     3
291
     1
 70
    58
 90
        2
176
     1
 90
        1
176
     1
 90
        1
176
     1
 90
        2
176
     1
 40
0.6
176
     1
 40
30.0
176
     1
 62
     7
420
 16777215
176
     1
 90
        0
176
     1
 90
        0
176
     1
 62
     7
176
     1
 62
   257
176
     1
 90
        1
176
     1
 90
        1
176
     1
 40
1.0
176
     1
 90
        8
176
     1
 62
     7
176
     1
 40
1.0
176
     1
 90
        1
176
     1
 90
        6
176
     1
 90
        2
176
     1
 62
     7
176
     1
 90
        5
176
     1
 90
        0
176
     1
 90
        0
176
     1
290
     0
176
     1
 90
       13
176
     1
 40
0.0
176
     1
 90
        0
176
     1
290
     0
176
     1
290
     1
176
     1
290
     1
176
     1
290
     0
176
     1
290
     0
176
     1
290
     0
176
     1
290
     0
176
     1
290
     0
176
     1
290
     0
176
     1
 90
       50
176
     1
 40
0.0
176
     1
 40
1.0
176
     1
 90
        0
176
     1
 62
    18
420
        0
176
     1
 90
       50
176
     1
 90
        3
176
     1
 62
     5
420
      255
176
     1
290
     0
176
     1
 90
       50
176
     1
 90
       50
176
     1
 90
       50
176
     1
290
     0
176
     1
 90
       50
176
     1
 62
   256
176
     0
 40
1.0
176
     0
 90
        2
176
     1
  1
strokes_ogs.tif
176
     1
290
     0
176
     1
 40
1.0
176
     1
 40
1.0
176
     1
  0
VISUALSTYLE
  5
2C
102
{ACAD_REACTORS
330
2A
102
}
330
2A
100
AcDbVisualStyle
  2
FlatWithEdges
 70
     1
177
     3
291
     1
 70
    58
 90
        2
176
     1
 90
        1
176
     1
 90
        1
176
     1
 90
        2
176
     1
 40
0.6
176
     1
 40
30.0
176
     1
 62
     7
420
 16777215
176
     1
 90
        1
176
     1
 90
        0
176
     1
 62
     7
176
     1
 62
   257
176
     1
 90
        1
176
     1
 90
        1
176
     1
 40
1.0
176
     1
 90
        0
176
     1
 62
   257
176
     1
 40
1.0
176
     1
 90
        1
176
     1
 90
        6
176
     1
 90
        2
176
     1
 62
     7
176
     1
 90
        5
176
     1
 90
        0
176
     1
 90
        0
176
     1
290
     0
176
     1
 90
       13
176
     1
 40
0.0
176
     1
 90
        0
176
     1
290
     0
176
     1
290
     1
176
     1
290
     1
176
     1
290
     0
176
     1
290
     0
176
     1
290
     0
176
     1
290
     0
176
     1
290
     0
176
     1
290
     0
176
     1
 90
       50
176
     1
 40
0.0
176
     1
 40
1.0
176
     1
 90
        0
176
     1
 62
    18
420
        0
176
     1
 90
       50
176
     1
 90
        3
176
     1
 62
     5
420
      255
176
     1
290
     0
176
     1
 90
       50
176
     1
 90
       50
176
     1
 90
       50
176
     1
290
     0
176
     1
 90
       50
176
     1
 62
   256
176
     0
 40
1.0
176
     0
 90
        2
176
     1
  1
strokes_ogs.tif
176
     1
290
     0
176
     1
 40
1.0
176
     1
 40
1.0
176
     1
  0
VISUALSTYLE
  5
2D
102
{ACAD_REACTORS
330
2A
102
}
330
2A
100
AcDbVisualStyle
  2
Gouraud
 70
     2
177
     3
291
     1
 70
    58
 90
        2
176
     1
 90
        2
176
     1
 90
        1
176
     1
 90
        2
176
     1
 40
0.6
176
     1
 40
30.0
176
     1
 62
     7
420
 16777215
176
     1
 90
        0
176
     1
 90
        0
176
     1
 62
     7
176
     1
 62
   257
176
     1
 90
        1
176
     1
 90
        1
176
     1
 40
1.0
176
     1
 90
        0
176
     1
 62
     7
176
     1
 40
1.0
176
     1
 90
        1
176
     1
 90
        6
176
     1
 90
        2
176
     1
 62
     7
176
     1
 90
        5
176
     1
 90
        0
176
     1
 90
        0
176
     1
290
     0
176
     1
 90
       13
176
     1
 40
0.0
176
     1
 90
        0
176
     1
290
     0
176
     1
290
     1
176
     1
290
     1
176
     1
290
     0
176
     1
290
     0
176
     1
290
     0
176
     1
290
     0
176
     1
290
     0
176
     1
290
     0
176
     1
 90
       50
176
     1
 40
0.0
176
     1
 40
1.0
176
     1
 90
        0
176
     1
 62
    18
420
        0
176
     1
 90
       50
176
     1
 90
        3
176
     1
 62
     5
420
      255
176
     1
290
     0
176
     1
 90
       50
176
     1
 90
       50
176
     1
 90
       50
176
     1
290
     0
176
     1
 90
       50
176
     1
 62
   256
176
     0
 40
1.0
176
     0
 90
        2
176
     1
  1
strokes_ogs.tif
176
     1
290
     0
176
     1
 40
1.0
176
     1
 40
1.0
176
     1
  0
VISUALSTYLE
  5
2E
102
{ACAD_REACTORS
330
2A
102
}
330
2A
100
AcDbVisualStyle
  2
GouraudWithEdges
 70
     3
177
     3
291
     1
 70
    58
 90
        2
176
     1
 90
        2
176
     1
 90
        1
176
     1
 90
        2
176
     1
 40
0.6
176
     1
 40
30.0
176
     1
 62
     7
420
 16777215
176
     1
 90
        1
176
     1
 90
        0
176
     1
 62
     7
176
     1
 62
   257
176
     1
 90
        1
176
     1
 90
        1
176
     1
 40
1.0
176
     1
 90
        0
176
     1
 62
   257
176
     1
 40
1.0
176
     1
 90
        1
176
     1
 90
        6
176
     1
 90
        2
176
     1
 62
     7
176
     1
 90
        5
176
     1
 90
        0
176
     1
 90
        0
176
     1
290
     0
176
     1
 90
       13
176
     1
 40
0.0
176
     1
 90
        0
176
     1
290
     0
176
     1
290
     1
176
     1
290
     1
176
     1
290
     0
176
     1
290
     0
176
     1
290
     0
176
     1
290
     0
176
     1
290
     0
176
     1
290
     0
176
     1
 90
       50
176
     1
 40
0.0
176
     1
 40
1.0
176
     1
 90
        0
176
     1
 62
    18
420
        0
176
     1
 90
       50
176
     1
 90
        3
176
     1
 62
     5
420
      255
176
     1
290
     0
176
     1
 90
       50
176
     1
 90
       50
176
     1
 90
       50
176
     1
290
     0
176
     1
 90
       50
176
     1
 62
   256
176
     0
 40
1.0
176
     0
 90
        2
176
     1
  1
strokes_ogs.tif
176
     1
290
     0
176
     1
 40
1.0
176
     1
 40
1.0
176
     1
  0
VISUALSTYLE
  5
31
102
{ACAD_REACTORS
330
2A
102
}
330
2A
100
AcDbVisualStyle
  2
Hidden
 70
     6
177
     3
291
     0
 70
    58
 90
        1
176
     1
 90
        2
176
     1
 90
        2
176
     1
 90
        0
176
     1
 40
0.6
176
     1
 40
30.0
176
     1
 62
     7
420
 16777215
176
     1
 90
        2
176
     1
 90
        2
176
     1
 62
     7
176
     1
 62
   257
176
     1
 90
        2
176
     1
 90
        1
176
     1
 40
40.0
176
     1
 90
        0
176
     1
 62
   257
176
     1
 40
1.0
176
     1
 90
        1
176
     1
 90
        6
176
     1
 90
        2
176
     1
 62
     7
176
     1
 90
        3
176
     1
 90
        0
176
     1
 90
        0
176
     1
290
     0
176
     1
 90
        1
176
     1
 40
0.0
176
     1
 90
        0
176
     1
290
     0
176
     1
290
     1
176
     1
290
     1
176
     1
290
     0
176
     1
290
     0
176
     1
290
     0
176
     1
290
     0
176
     1
290
     0
176
     1
290
     0
176
     1
 90
       50
176
     1
 40
0.0
176
     1
 40
1.0
176
     1
 90
        0
176
     1
 62
    18
420
        0
176
     1
 90
       50
176
     1
 90
        3
176
     1
 62
     5
420
      255
176
     1
290
     0
176
     1
 90
       50
176
     1
 90
       50
176
     1
 90
       50
176
     1
290
     0
176
     1
 90
       50
176
     1
 62
   256
176
     0
 40
1.0
176
     0
 90
        2
176
     1
  1
strokes_ogs.tif
176
     1
290
     0
176
     1
 40
1.0
176
     1
 40
1.0
176
     1
  0
VISUALSTYLE
  5
3B
102
{ACAD_REACTORS
330
2A
102
}
330
2A
100
AcDbVisualStyle
  2
JitterOff
 70
    20
177
     3
291
     1
 70
    58
 90
        2
176
     0
 90
        2
176
     0
 90
        0
176
     0
 90
        0
176
     0
 40
0.6
176
     0
 40
30.0
176
     0
 62
     7
420
 16777215
176
     0
 90
        1
176
     0
 90
        4
176
     0
 62
     7
176
     0
 62
   257
176
     0
 90
        1
176
     0
 90
        1
176
     0
 40
1.0
176
     0
 90
       10
176
     2
 62
     7
176
     0
 40
1.0
176
     0
 90
        1
176
     0
 90
        6
176
     0
 90
        2
176
     0
 62
     7
176
     0
 90
        5
176
     0
 90
        0
176
     0
 90
        0
176
     0
290
     0
176
     0
 90
        1
176
     0
 40
0.0
176
     0
 90
        0
176
     0
290
     0
176
     0
290
     1
176
     0
290
     1
176
     0
290
     0
176
     0
290
     0
176
     0
290
     0
176
     0
290
     0
176
     0
290
     0
176
     0
290
     0
176
     0
 90
       50
176
     0
 40
0.0
176
     0
 40
1.0
176
     0
 90
        0
176
     0
 62
    18
420
        0
176
     0
 90
       50
176
     0
 90
        3
176
     0
 62
     5
420
      255
176
     0
290
     0
176
     0
 90
       50
176
     0
 90
       50
176
     0
 90
       50
176
     0
290
     0
176
     0
 90
       50
176
     0
 62
   256
176
     0
 40
1.0
176
     0
 90
        2
176
     0
  1
strokes_ogs.tif
176
     0
290
     0
176
     0
 40
1.0
176
     0
 40
1.0
176
     0
  0
VISUALSTYLE
  5
38
102
{ACAD_REACTORS
330
2A
102
}
330
2A
100
AcDbVisualStyle
  2
Linepattern
 70
    14
177
     3
291
     1
 70
    58
 90
        2
176
     1
 90
        2
176
     1
 90
        0
176
     1
 90
        0
176
     1
 40
0.6
176
     1
 40
30.0
176
     1
 62
     7
420
 16777215
176
     1
 90
        1
176
     1
 90
        4
176
     1
 62
     7
176
     1
 62
   257
176
     1
 90
        7
176
     1
 90
        7
176
     1
 40
1.0
176
     1
 90
        8
176
     1
 62
     7
176
     1
 40
1.0
176
     1
 90
        1
176
     1
 90
        6
176
     1
 90
        2
176
     1
 62
     7
176
     1
 90
        5
176
     1
 90
        0
176
     1
 90
        0
176
     1
290
     0
176
     1
 90
        1
176
     1
 40
0.0
176
     1
 90
        0
176
     1
290
     0
176
     1
290
     1
176
     1
290
     1
176
     1
290
     0
176
     1
290
     0
176
     1
290
     0
176
     1
290
     0
176
     1
290
     0
176
     1
290
     0
176
     1
 90
       50
176
     1
 40
0.0
176
     1
 40
1.0
176
     1
 90
        0
176
     1
 62
    18
420
        0
176
     1
 90
       50
176
     1
 90
        3
176
     1
 62
     5
420
      255
176
     1
290
     0
176
     1
 90
       50
176
     1
 90
       50
176
     1
 90
       50
176
     1
290
     0
176
     1
 90
       50
176
     1
 62
   256
176
     0
 40
1.0
176
     0
 90
        2
176
     1
  1
strokes_ogs.tif
176
     1
290
     0
176
     1
 40
1.0
176
     1
 40
1.0
176
     1
  0
VISUALSTYLE
  5
3C
102
{ACAD_REACTORS
330
2A
102
}
330
2A
100
AcDbVisualStyle
  2
OverhangOff
 70
    21
177
     3
291
     1
 70
    58
 90
        2
176
     0
 90
        2
176
     0
 90
        0
176
     0
 90
        0
176
     0
 40
0.6
176
     0
 40
30.0
176
     0
 62
     7
420
 16777215
176
     0
 90
        1
176
     0
 90
        4
176
     0
 62
     7
176
     0
 62
   257
176
     0
 90
        1
176
     0
 90
        1
176
     0
 40
1.0
176
     0
 90
        9
176
     2
 62
     7
176
     0
 40
1.0
176
     0
 90
        1
176
     0
 90
        6
176
     0
 90
        2
176
     0
 62
     7
176
     0
 90
        5
176
     0
 90
        0
176
     0
 90
        0
176
     0
290
     0
176
     0
 90
        1
176
     0
 40
0.0
176
     0
 90
        0
176
     0
290
     0
176
     0
290
     1
176
     0
290
     1
176
     0
290
     0
176
     0
290
     0
176
     0
290
     0
176
     0
290
     0
176
     0
290
     0
176
     0
290
     0
176
     0
 90
       50
176
     0
 40
0.0
176
     0
 40
1.0
176
     0
 90
        0
176
     0
 62
    18
420
        0
176
     0
 90
       50
176
     0
 90
        3
176
     0
 62
     5
420
      255
176
     0
290
     0
176
     0
 90
       50
176
     0
 90
       50
176
     0
 90
       50
176
     0
290
     0
176
     0
 90
       50
176
     0
 62
   256
176
     0
 40
1.0
176
     0
 90
        2
176
     0
  1
strokes_ogs.tif
176
     0
290
     0
176
     0
 40
1.0
176
     0
 40
1.0
176
     0
  0
VISUALSTYLE
  5
33
102
{ACAD_REACTORS
330
2A
102
}
330
2A
100
AcDbVisualStyle
  2
Realistic
 70
     8
177
     3
291
     0
 70
    58
 90
        2
176
     1
 90
        3
176
     1
 90
        0
176
     1
 90
        2
176
     1
 40
0.6
176
     1
 40
30.0
176
     1
 62
     7
420
 16777215
176
     1
 90
        0
176
     1
 90
        0
176
     1
 62
     7
176
     1
 62
   257
176
     1
 90
        1
176
     1
 90
        1
176
     1
 40
1.0
176
     1
 90
        8
176
     1
 62
   257
176
     1
 40
1.0
176
     1
 90
        1
176
     1
 90
        6
176
     1
 90
        2
176
     1
 62
     7
176
     1
 90
        3
176
     1
 90
        0
176
     1
 90
        0
176
     1
290
     0
176
     1
 90
       13
176
     1
 40
0.0
176
     1
 90
        0
176
     1
290
     0
176
     1
290
     1
176
     1
290
     1
176
     1
290
     0
176
     1
290
     0
176
     1
290
     0
176
     1
290
     0
176
     1
290
     0
176
     1
290
     0
176
     1
 90
       50
176
     1
 40
0.0
176
     1
 40
1.0
176
     1
 90
        0
176
     1
 62
    18
420
        0
176
     1
 90
       50
176
     1
 90
        3
176
     1
 62
     5
420
      255
176
     1
290
     0
176
     1
 90
       50
176
     1
 90
       50
176
     1
 90
       50
176
     1
290
     0
176
     1
 90
       50
176
     1
 62
   256
176
     0
 40
1.0
176
     0
 90
        2
176
     1
  1
strokes_ogs.tif
176
     1
290
     0
176
     1
 40
1.0
176
     1
 40
1.0
176
     1
  0
VISUALSTYLE
  5
42
102
{ACAD_REACTORS
330
2A
102
}
330
2A
100
AcDbVisualStyle
  2
Shaded
 70
    27
177
     3
291
     0
 70
    58
 90
        2
176
     1
 90
        2
176
     1
 90
        1
176
     1
 90
        2
176
     1
 40
0.6
176
     1
 40
30.0
176
     1
 62
     7
420
 16777215
176
     1
 90
        0
176
     1
 90
        4
176
     1
 62
     7
176
     1
 62
   257
176
     1
 90
        1
176
     1
 90
        1
176
     1
 40
1.0
176
     1
 90
        8
176
     1
 62
   257
176
     1
 40
1.0
176
     1
 90
        1
176
     1
 90
        6
176
     1
 90
        2
176
     1
 62
     8
420
  7895160
176
     1
 90
        3
176
     1
 90
        0
176
     1
 90
        0
176
     1
290
     0
176
     1
 90
        5
176
     1
 40
0.0
176
     1
 90
        0
176
     1
290
     0
176
     1
290
     1
176
     1
290
     1
176
     1
290
     0
176
     1
290
     0
176
     1
290
     0
176
     1
290
     0
176
     1
290
     0
176
     1
290
     0
176
     1
 90
       50
176
     1
 40
0.0
176
     1
 40
1.0
176
     1
 90
        0
176
     1
 62
    18
420
        0
176
     1
 90
       50
176
     1
 90
        3
176
     1
 62
     5
420
      255
176
     1
290
     0
176
     1
 90
       50
176
     1
 90
       50
176
     1
 90
       50
176
     1
290
     0
176
     1
 90
       50
176
     1
 62
   256
176
     0
 40
1.0
176
     0
 90
        2
176
     1
  1
strokes_ogs.tif
176
     1
290
     0
176
     1
 40
1.0
176
     1
 40
1.0
176
     1
  0
VISUALSTYLE
  5
41
102
{ACAD_REACTORS
330
2A
102
}
330
2A
100
AcDbVisualStyle
  2
Shaded with edges
 70
    26
177
     3
291
     0
 70
    58
 90
        2
176
     1
 90
        2
176
     1
 90
        1
176
     1
 90
        2
176
     1
 40
0.6
176
     1
 40
30.0
176
     1
 62
     7
420
 16777215
176
     1
 90
        1
176
     1
 90
       10
176
     1
 62
     7
176
     1
 62
   257
176
     1
 90
        2
176
     1
 90
        1
176
     1
 40
1.0
176
     1
 90
        8
176
     1
 62
   257
176
     1
 40
1.0
176
     1
 90
        1
176
     1
 90
        6
176
     1
 90
        2
176
     1
 62
     7
176
     1
 90
        3
176
     1
 90
        0
176
     1
 90
        0
176
     1
290
     0
176
     1
 90
        5
176
     1
 40
0.0
176
     1
 90
        0
176
     1
290
     0
176
     1
290
     1
176
     1
290
     1
176
     1
290
     0
176
     1
290
     0
176
     1
290
     0
176
     1
290
     0
176
     1
290
     0
176
     1
290
     0
176
     1
 90
       50
176
     1
 40
0.0
176
     1
 40
1.0
176
     1
 90
        0
176
     1
 62
    18
420
        0
176
     1
 90
       50
176
     1
 90
        3
176
     1
 62
     5
420
      255
176
     1
290
     0
176
     1
 90
       50
176
     1
 90
       50
176
     1
 90
       50
176
     1
290
     0
176
     1
 90
       50
176
     1
 62
   256
176
     0
 40
1.0
176
     0
 90
        2
176
     1
  1
strokes_ogs.tif
176
     1
290
     0
176
     1
 40
1.0
176
     1
 40
1.0
176
     1
  0
VISUALSTYLE
  5
3E
102
{ACAD_REACTORS
330
2A
102
}
330
2A
100
AcDbVisualStyle
  2
Shades of Gray
 70
    23
177
     3
291
     0
 70
    58
 90
        2
176
     1
 90
        2
176
     1
 90
        3
176
     1
 90
        0
176
     1
 40
0.6
176
     1
 40
30.0
176
     1
 62
     7
420
 16777215
176
     1
 90
        2
176
     1
 90
        2
176
     1
 62
     7
176
     1
 62
     7
176
     1
 90
        1
176
     1
 90
        1
176
     1
 40
40.0
176
     1
 90
        8
176
     1
 62
     7
176
     1
 40
1.0
176
     1
 90
        1
176
     1
 90
        6
176
     1
 90
        2
176
     1
 62
     7
176
     1
 90
        3
176
     1
 90
        0
176
     1
 90
        0
176
     1
290
     0
176
     1
 90
        1
176
     1
 40
0.0
176
     1
 90
        0
176
     1
290
     0
176
     1
290
     1
176
     1
290
     1
176
     1
290
     0
176
     1
290
     0
176
     1
290
     0
176
     1
290
     0
176
     1
290
     0
176
     1
290
     0
176
     1
 90
       50
176
     1
 40
0.0
176
     1
 40
1.0
176
     1
 90
        0
176
     1
 62
    18
420
        0
176
     1
 90
       50
176
     1
 90
        3
176
     1
 62
     5
420
      255
176
     1
290
     0
176
     1
 90
       50
176
     1
 90
       50
176
     1
 90
       50
176
     1
290
     0
176
     1
 90
       50
176
     1
 62
   256
176
     0
 40
1.0
176
     0
 90
        2
176
     1
  1
strokes_ogs.tif
176
     1
290
     0
176
     1
 40
1.0
176
     1
 40
1.0
176
     1
  0
VISUALSTYLE
  5
3F
102
{ACAD_REACTORS
330
2A
102
}
330
2A
100
AcDbVisualStyle
  2
Sketchy
 70
    24
177
     3
291
     0
 70
    58
 90
        1
176
     1
 90
        2
176
     1
 90
        2
176
     1
 90
        0
176
     1
 40
0.6
176
     1
 40
30.0
176
     1
 62
     7
420
 16777215
176
     1
 90
        2
176
     1
 90
        2
176
     1
 62
     7
176
     1
 62
     7
176
     1
 90
        1
176
     1
 90
        1
176
     1
 40
40.0
176
     1
 90
       11
176
     1
 62
     7
176
     1
 40
1.0
176
     1
 90
        1
176
     1
 90
        6
176
     1
 90
        2
176
     1
 62
     7
176
     1
 90
        6
176
     1
 90
        0
176
     1
 90
        0
176
     1
290
     0
176
     1
 90
        1
176
     1
 40
0.0
176
     1
 90
        0
176
     1
290
     0
176
     1
290
     1
176
     1
290
     1
176
     1
290
     0
176
     1
290
     0
176
     1
290
     0
176
     1
290
     0
176
     1
290
     0
176
     1
290
     0
176
     1
 90
       50
176
     1
 40
0.0
176
     1
 40
1.0
176
     1
 90
        0
176
     1
 62
    18
420
        0
176
     1
 90
       50
176
     1
 90
        3
176
     1
 62
     5
420
      255
176
     1
290
     0
176
     1
 90
       50
176
     1
 90
       50
176
     1
 90
       50
176
     1
290
     0
176
     1
 90
       50
176
     1
 62
   256
176
     0
 40
1.0
176
     0
 90
        2
176
     1
  1
strokes_ogs.tif
176
     1
290
     0
176
     1
 40
1.0
176
     1
 40
1.0
176
     1
  0
VISUALSTYLE
  5
37
102
{ACAD_REACTORS
330
2A
102
}
330
2A
100
AcDbVisualStyle
  2
Thicken
 70
    13
177
     3
291
     1
 70
    58
 90
        2
176
     1
 90
        2
176
     1
 90
        0
176
     1
 90
        0
176
     1
 40
0.6
176
     1
 40
30.0
176
     1
 62
     7
420
 16777215
176
     1
 90
        1
176
     1
 90
        4
176
     1
 62
     7
176
     1
 62
   257
176
     1
 90
        1
176
     1
 90
        1
176
     1
 40
1.0
176
     1
 90
       12
176
     1
 62
     7
176
     1
 40
1.0
176
     1
 90
        1
176
     1
 90
        6
176
     1
 90
        2
176
     1
 62
     7
176
     1
 90
        5
176
     1
 90
        0
176
     1
 90
        0
176
     1
290
     0
176
     1
 90
        1
176
     1
 40
0.0
176
     1
 90
        0
176
     1
290
     0
176
     1
290
     1
176
     1
290
     1
176
     1
290
     0
176
     1
290
     0
176
     1
290
     0
176
     1
290
     0
176
     1
290
     0
176
     1
290
     0
176
     1
 90
       50
176
     1
 40
0.0
176
     1
 40
1.0
176
     1
 90
        0
176
     1
 62
    18
420
        0
176
     1
 90
       50
176
     1
 90
        3
176
     1
 62
     5
420
      255
176
     1
290
     0
176
     1
 90
       50
176
     1
 90
       50
176
     1
 90
       50
176
     1
290
     0
176
     1
 90
       50
176
     1
 62
   256
176
     0
 40
1.0
176
     0
 90
        2
176
     1
  1
strokes_ogs.tif
176
     1
290
     0
176
     1
 40
1.0
176
     1
 40
1.0
176
     1
  0
VISUALSTYLE
  5
30
102
{ACAD_REACTORS
330
2A
102
}
330
2A
100
AcDbVisualStyle
  2
Wireframe
 70
     5
177
     3
291
     0
 70
    58
 90
        0
176
     1
 90
        2
176
     1
 90
        0
176
     1
 90
        0
176
     1
 40
0.6
176
     1
 40
30.0
176
     1
 62
     7
420
 16777215
176
     1
 90
        1
176
     1
 90
        4
176
     1
 62
     7
176
     1
 62
   257
176
     1
 90
        1
176
     1
 90
        1
176
     1
 40
1.0
176
     1
 90
        0
176
     1
 62
   257
176
     1
 40
1.0
176
     1
 90
        1
176
     1
 90
        6
176
     1
 90
        2
176
     1
 62
     7
176
     1
 90
        3
176
     1
 90
        0
176
     1
 90
        0
176
     1
290
     0
176
     1
 90
        1
176
     1
 40
0.0
176
     1
 90
        0
176
     1
290
     0
176
     1
290
     1
176
     1
290
     1
176
     1
290
     0
176
     1
290
     0
176
     1
290
     0
176
     1
290
     0
176
     1
290
     0
176
     1
290
     0
176
     1
 90
       50
176
     1
 40
0.0
176
     1
 40
1.0
176
     1
 90
        0
176
     1
 62
    18
420
        0
176
     1
 90
       50
176
     1
 90
        3
176
     1
 62
     5
420
      255
176
     1
290
     0
176
     1
 90
       50
176
     1
 90
       50
176
     1
 90
       50
176
     1
290
     0
176
     1
 90
       50
176
     1
 62
   256
176
     0
 40
1.0
176
     0
 90
        2
176
     1
  1
strokes_ogs.tif
176
     1
290
     0
176
     1
 40
1.0
176
     1
 40
1.0
176
     1
  0
VISUALSTYLE
  5
40
102
{ACAD_REACTORS
330
2A
102
}
330
2A
100
AcDbVisualStyle
  2
X-Ray
 70
    25
177
     3
291
     0
 70
    58
 90
        2
176
     1
 90
        2
176
     1
 90
        1
176
     1
 90
        1
176
     1
 40
0.5
176
     1
 40
30.0
176
     1
 62
     7
420
 16777215
176
     1
 90
        1
176
     1
 90
        0
176
     1
 62
     7
176
     1
 62
   257
176
     1
 90
        1
176
     1
 90
        1
176
     1
 40
1.0
176
     1
 90
        8
176
     1
 62
     7
176
     1
 40
1.0
176
     1
 90
        1
176
     1
 90
        6
176
     1
 90
        2
176
     1
 62
     7
176
     1
 90
        3
176
     1
 90
        0
176
     1
 90
        0
176
     1
290
     0
176
     1
 90
       13
176
     1
 40
0.0
176
     1
 90
        0
176
     1
290
     0
176
     1
290
     1
176
     1
290
     1
176
     1
290
     0
176
     1
290
     0
176
     1
290
     0
176
     1
290
     0
176
     1
290
     0
176
     1
290
     0
176
     1
 90
       50
176
     1
 40
0.0
176
     1
 40
1.0
176
     1
 90
        0
176
     1
 62
    18
420
        0
176
     1
 90
       50
176
     1
 90
        3
176
     1
 62
     5
420
      255
176
     1
290
     0
176
     1
 90
       50
176
     1
 90
       50
176
     1
 90
       50
176
     1
290
     0
176
     1
 90
       50
176
     1
 62
   256
176
     0
 40
1.0
176
     0
 90
        2
176
     1
  1
strokes_ogs.tif
176
     1
290
     0
176
     1
 40
1.0
176
     1
 40
1.0
176
     1
  0
DICTIONARYVAR
  5
83
102
{ACAD_REACTORS
330
82
102
}
330
82
100
DictionaryVariables
280
     0
  1
1:1
  0
DICTIONARYVAR
  5
88
102
{ACAD_REACTORS
330
82
102
}
330
82
100
DictionaryVariables
280
     0
  1
Standard
  0
DICTIONARYVAR
  5
87
102
{ACAD_REACTORS
330
82
102
}
330
82
100
DictionaryVariables
280
     0
  1
Standard
  0
DICTIONARY
  5
84
330
5A
100
AcDbDictionary
280
     1
281
     1
  3
ACAD_ROUNDTRIP_2008_TABLESTYLE_CELLSTYLEMAP
360
85
  0
CELLSTYLEMAP
  5
85
102
{ACAD_REACTORS
330
84
102
}
330
84
100
AcDbCellStyleMap
 90
        3
300
CELLSTYLE
  1
TABLEFORMAT_BEGIN
 90
        5
170
     1
 91
        0
 92
    32768
 62
   257
 93
        1
300
CONTENTFORMAT
  1
CONTENTFORMAT_BEGIN
 90
        0
 91
        0
 92
        4
 93
        0
300

 40
0.0
140
1.0
 94
        5
 62
     0
340
11
144
0.25
309
CONTENTFORMAT_END
171
     1
301
MARGIN
  1
CELLMARGIN_BEGIN
 40
0.06
 40
0.06
 40
0.06
 40
0.06
 40
0.06
 40
0.06
309
CELLMARGIN_END
 94
        6
 95
        1
302
GRIDFORMAT
  1
GRIDFORMAT_BEGIN
 90
        0
 91
        1
 62
     0
 92
       -2
340
14
 93
        0
 40
0.045
309
GRIDFORMAT_END
 95
        2
302
GRIDFORMAT
  1
GRIDFORMAT_BEGIN
 90
        0
 91
        1
 62
     0
 92
       -2
340
14
 93
        0
 40
0.045
309
GRIDFORMAT_END
 95
        4
302
GRIDFORMAT
  1
GRIDFORMAT_BEGIN
 90
        0
 91
        1
 62
     0
 92
       -2
340
14
 93
        0
 40
0.045
309
GRIDFORMAT_END
 95
        8
302
GRIDFORMAT
  1
GRIDFORMAT_BEGIN
 90
        0
 91
        1
 62
     0
 92
       -2
340
14
 93
        0
 40
0.045
309
GRIDFORMAT_END
 95
       16
302
GRIDFORMAT
  1
GRIDFORMAT_BEGIN
 90
        0
 91
        1
 62
     0
 92
       -2
340
14
 93
        0
 40
0.045
309
GRIDFORMAT_END
 95
       32
302
GRIDFORMAT
  1
GRIDFORMAT_BEGIN
 90
        0
 91
        1
 62
     0
 92
       -2
340
14
 93
        0
 40
0.045
309
GRIDFORMAT_END
309
TABLEFORMAT_END
  1
CELLSTYLE_BEGIN
 90
        1
 91
        1
300
_TITLE
309
CELLSTYLE_END
300
CELLSTYLE
  1
TABLEFORMAT_BEGIN
 90
        5
170
     1
 91
        0
 92
        0
 62
   257
 93
        1
300
CONTENTFORMAT
  1
CONTENTFORMAT_BEGIN
 90
        0
 91
        0
 92
        4
 93
        0
300

 40
0.0
140
1.0
 94
        5
 62
     0
340
11
144
0.18
309
CONTENTFORMAT_END
171
     1
301
MARGIN
  1
CELLMARGIN_BEGIN
 40
0.06
 40
0.06
 40
0.06
 40
0.06
 40
0.06
 40
0.06
309
CELLMARGIN_END
 94
        6
 95
        1
302
GRIDFORMAT
  1
GRIDFORMAT_BEGIN
 90
        0
 91
        1
 62
     0
 92
       -2
340
14
 93
        0
 40
0.045
309
GRIDFORMAT_END
 95
        2
302
GRIDFORMAT
  1
GRIDFORMAT_BEGIN
 90
        0
 91
        1
 62
     0
 92
       -2
340
14
 93
        0
 40
0.045
309
GRIDFORMAT_END
 95
        4
302
GRIDFORMAT
  1
GRIDFORMAT_BEGIN
 90
        0
 91
        1
 62
     0
 92
       -2
340
14
 93
        0
 40
0.045
309
GRIDFORMAT_END
 95
        8
302
GRIDFORMAT
  1
GRIDFORMAT_BEGIN
 90
        0
 91
        1
 62
     0
 92
       -2
340
14
 93
        0
 40
0.045
309
GRIDFORMAT_END
 95
       16
302
GRIDFORMAT
  1
GRIDFORMAT_BEGIN
 90
        0
 91
        1
 62
     0
 92
       -2
340
14
 93
        0
 40
0.045
309
GRIDFORMAT_END
 95
       32
302
GRIDFORMAT
  1
GRIDFORMAT_BEGIN
 90
        0
 91
        1
 62
     0
 92
       -2
340
14
 93
        0
 40
0.045
309
GRIDFORMAT_END
309
TABLEFORMAT_END
  1
CELLSTYLE_BEGIN
 90
        2
 91
        1
300
_HEADER
309
CELLSTYLE_END
300
CELLSTYLE
  1
TABLEFORMAT_BEGIN
 90
        5
170
     1
 91
        0
 92
        0
 62
   257
 93
        1
300
CONTENTFORMAT
  1
CONTENTFORMAT_BEGIN
 90
        0
 91
        0
 92
        4
 93
        0
300

 40
0.0
140
1.0
 94
        2
 62
     0
340
11
144
0.18
309
CONTENTFORMAT_END
171
     1
301
MARGIN
  1
CELLMARGIN_BEGIN
 40
0.06
 40
0.06
 40
0.06
 40
0.06
 40
0.06
 40
0.06
309
CELLMARGIN_END
 94
        6
 95
        1
302
GRIDFORMAT
  1
GRIDFORMAT_BEGIN
 90
        0
 91
        1
 62
     0
 92
       -2
340
14
 93
        0
 40
0.045
309
GRIDFORMAT_END
 95
        2
302
GRIDFORMAT
  1
GRIDFORMAT_BEGIN
 90
        0
 91
        1
 62
     0
 92
       -2
340
14
 93
        0
 40
0.045
309
GRIDFORMAT_END
 95
        4
302
GRIDFORMAT
  1
GRIDFORMAT_BEGIN
 90
        0
 91
        1
 62
     0
 92
       -2
340
14
 93
        0
 40
0.045
309
GRIDFORMAT_END
 95
        8
302
GRIDFORMAT
  1
GRIDFORMAT_BEGIN
 90
        0
 91
        1
 62
     0
 92
       -2
340
14
 93
        0
 40
0.045
309
GRIDFORMAT_END
 95
       16
302
GRIDFORMAT
  1
GRIDFORMAT_BEGIN
 90
        0
 91
        1
 62
     0
 92
       -2
340
14
 93
        0
 40
0.045
309
GRIDFORMAT_END
 95
       32
302
GRIDFORMAT
  1
GRIDFORMAT_BEGIN
 90
        0
 91
        1
 62
     0
 92
       -2
340
14
 93
        0
 40
0.045
309
GRIDFORMAT_END
309
TABLEFORMAT_END
  1
CELLSTYLE_BEGIN
 90
        3
 91
        2
300
_DATA
309
CELLSTYLE_END
  0
ENDSEC
  0
EOF
