  0
SECTION
  2
HEADER
  9
$ACADVER
  1
AC1027
  9
$ACADMAINTVER
 70
   105
  9
$DWGCODEPAGE
  3
ANSI_1252
  9
$LASTSAVEDBY
  1
Office Desk
  9
$REQUIREDVERSIONS
160
                 0
  9
$INSBASE
 10
0.0
 20
0.0
 30
0.0
  9
$EXTMIN
 10
-2.36353937007874
 20
-17.04225590551181
 30
0.0
  9
$EXTMAX
 10
6.011535433070867
 20
-9.346114173228347
 30
0.0
  9
$LIMMIN
 10
0.0
 20
0.0
  9
$LIMMAX
 10
12.0
 20
9.0
  9
$ORTHOMODE
 70
     0
  9
$REGENMODE
 70
     1
  9
$FILLMODE
 70
     1
  9
$QTEXTMODE
 70
     0
  9
$MIRRTEXT
 70
     1
  9
$LTSCALE
 40
1.0
  9
$ATTMODE
 70
     1
  9
$TEXTSIZE
 40
0.2
  9
$TRACEWID
 40
0.05
  9
$TEXTSTYLE
  7
Standard
  9
$CLAYER
  8
0
  9
$CELTYPE
  6
ByLayer
  9
$CECOLOR
 62
   256
  9
$CELTSCALE
 40
1.0
  9
$DISPSILH
 70
     0
  9
$DIMSCALE
 40
1.0
  9
$DIMASZ
 40
0.18
  9
$DIMEXO
 40
0.0625
  9
$DIMDLI
 40
0.38
  9
$DIMRND
 40
0.0
  9
$DIMDLE
 40
0.0
  9
$DIMEXE
 40
0.18
  9
$DIMTP
 40
0.0
  9
$DIMTM
 40
0.0
  9
$DIMTXT
 40
0.18
  9
$DIMCEN
 40
0.09
  9
$DIMTSZ
 40
0.0
  9
$DIMTOL
 70
     0
  9
$DIMLIM
 70
     0
  9
$DIMTIH
 70
     1
  9
$DIMTOH
 70
     1
  9
$DIMSE1
 70
     0
  9
$DIMSE2
 70
     0
  9
$DIMTAD
 70
     0
  9
$DIMZIN
 70
     0
  9
$DIMBLK
  1

  9
$DIMASO
 70
     1
  9
$DIMSHO
 70
     1
  9
$DIMPOST
  1

  9
$DIMAPOST
  1

  9
$DIMALT
 70
     0
  9
$DIMALTD
 70
     2
  9
$DIMALTF
 40
25.4
  9
$DIMLFAC
 40
1.0
  9
$DIMTOFL
 70
     0
  9
$DIMTVP
 40
0.0
  9
$DIMTIX
 70
     0
  9
$DIMSOXD
 70
     0
  9
$DIMSAH
 70
     0
  9
$DIMBLK1
  1

  9
$DIMBLK2
  1

  9
$DIMSTYLE
  2
Standard
  9
$DIMCLRD
 70
     0
  9
$DIMCLRE
 70
     0
  9
$DIMCLRT
 70
     0
  9
$DIMTFAC
 40
1.0
  9
$DIMGAP
 40
0.09
  9
$DIMJUST
 70
     0
  9
$DIMSD1
 70
     0
  9
$DIMSD2
 70
     0
  9
$DIMTOLJ
 70
     1
  9
$DIMTZIN
 70
     0
  9
$DIMALTZ
 70
     0
  9
$DIMALTTZ
 70
     0
  9
$DIMUPT
 70
     0
  9
$DIMDEC
 70
     4
  9
$DIMTDEC
 70
     4
  9
$DIMALTU
 70
     2
  9
$DIMALTTD
 70
     2
  9
$DIMTXSTY
  7
Standard
  9
$DIMAUNIT
 70
     0
  9
$DIMADEC
 70
     0
  9
$DIMALTRND
 40
0.0
  9
$DIMAZIN
 70
     0
  9
$DIMDSEP
 70
    46
  9
$DIMATFIT
 70
     3
  9
$DIMFRAC
 70
     0
  9
$DIMLDRBLK
  1

  9
$DIMLUNIT
 70
     2
  9
$DIMLWD
 70
    -2
  9
$DIMLWE
 70
    -2
  9
$DIMTMOVE
 70
     0
  9
$DIMFXL
 40
1.0
  9
$DIMFXLON
 70
     0
  9
$DIMJOGANG
 40
0.7853981633974483
  9
$DIMTFILL
 70
     0
  9
$DIMTFILLCLR
 70
     0
  9
$DIMARCSYM
 70
     0
  9
$DIMLTYPE
  6

  9
$DIMLTEX1
  6

  9
$DIMLTEX2
  6

  9
$DIMTXTDIRECTION
 70
     0
  9
$LUNITS
 70
     2
  9
$LUPREC
 70
     4
  9
$SKETCHINC
 40
0.1
  9
$FILLETRAD
 40
0.0
  9
$AUNITS
 70
     0
  9
$AUPREC
 70
     0
  9
$MENU
  1
.
  9
$ELEVATION
 40
0.0
  9
$PELEVATION
 40
0.0
  9
$THICKNESS
 40
0.0
  9
$LIMCHECK
 70
     0
  9
$CHAMFERA
 40
0.0
  9
$CHAMFERB
 40
0.0
  9
$CHAMFERC
 40
0.0
  9
$CHAMFERD
 40
0.0
  9
$SKPOLY
 70
     0
  9
$TDCREATE
 40
2461020.711455637
  9
$TDUCREATE
 40
2461020.48228897
  9
$TDUPDATE
 40
2461020.71145566
  9
$TDUUPDATE
 40
2461020.482288993
  9
$TDINDWG
 40
0.0000000116
  9
$TDUSRTIMER
 40
0.0000000116
  9
$USRTIMER
 70
     1
  9
$ANGBASE
 50
0.0
  9
$ANGDIR
 70
     0
  9
$PDMODE
 70
     0
  9
$PDSIZE
 40
0.0
  9
$PLINEWID
 40
0.0
  9
$SPLFRAME
 70
     0
  9
$SPLINETYPE
 70
     6
  9
$SPLINESEGS
 70
     8
  9
$HANDSEED
  5
93
  9
$SURFTAB1
 70
     6
  9
$SURFTAB2
 70
     6
  9
$SURFTYPE
 70
     6
  9
$SURFU
 70
     6
  9
$SURFV
 70
     6
  9
$UCSBASE
  2

  9
$UCSNAME
  2

  9
$UCSORG
 10
0.0
 20
0.0
 30
0.0
  9
$UCSXDIR
 10
1.0
 20
0.0
 30
0.0
  9
$UCSYDIR
 10
0.0
 20
1.0
 30
0.0
  9
$UCSORTHOREF
  2

  9
$UCSORTHOVIEW
 70
     0
  9
$UCSORGTOP
 10
0.0
 20
0.0
 30
0.0
  9
$UCSORGBOTTOM
 10
0.0
 20
0.0
 30
0.0
  9
$UCSORGLEFT
 10
0.0
 20
0.0
 30
0.0
  9
$UCSORGRIGHT
 10
0.0
 20
0.0
 30
0.0
  9
$UCSORGFRONT
 10
0.0
 20
0.0
 30
0.0
  9
$UCSORGBACK
 10
0.0
 20
0.0
 30
0.0
  9
$PUCSBASE
  2

  9
$PUCSNAME
  2

  9
$PUCSORG
 10
0.0
 20
0.0
 30
0.0
  9
$PUCSXDIR
 10
1.0
 20
0.0
 30
0.0
  9
$PUCSYDIR
 10
0.0
 20
1.0
 30
0.0
  9
$PUCSORTHOREF
  2

  9
$PUCSORTHOVIEW
 70
     0
  9
$PUCSORGTOP
 10
0.0
 20
0.0
 30
0.0
  9
$PUCSORGBOTTOM
 10
0.0
 20
0.0
 30
0.0
  9
$PUCSORGLEFT
 10
0.0
 20
0.0
 30
0.0
  9
$PUCSORGRIGHT
 10
0.0
 20
0.0
 30
0.0
  9
$PUCSORGFRONT
 10
0.0
 20
0.0
 30
0.0
  9
$PUCSORGBACK
 10
0.0
 20
0.0
 30
0.0
  9
$USERI1
 70
     0
  9
$USERI2
 70
     0
  9
$USERI3
 70
     0
  9
$USERI4
 70
     0
  9
$USERI5
 70
     0
  9
$USERR1
 40
0.0
  9
$USERR2
 40
0.0
  9
$USERR3
 40
0.0
  9
$USERR4
 40
0.0
  9
$USERR5
 40
0.0
  9
$WORLDVIEW
 70
     1
  9
$SHADEDGE
 70
     3
  9
$SHADEDIF
 70
    70
  9
$TILEMODE
 70
     1
  9
$MAXACTVP
 70
    64
  9
$PINSBASE
 10
0.0
 20
0.0
 30
0.0
  9
$PLIMCHECK
 70
     0
  9
$PEXTMIN
 10
1.000000000000000E+20
 20
1.000000000000000E+20
 30
1.000000000000000E+20
  9
$PEXTMAX
 10
-1.000000000000000E+20
 20
-1.000000000000000E+20
 30
-1.000000000000000E+20
  9
$PLIMMIN
 10
0.0
 20
0.0
  9
$PLIMMAX
 10
12.0
 20
9.0
  9
$UNITMODE
 70
     0
  9
$VISRETAIN
 70
     1
  9
$PLINEGEN
 70
     0
  9
$PSLTSCALE
 70
     1
  9
$TREEDEPTH
 70
  3020
  9
$CMLSTYLE
  2
Standard
  9
$CMLJUST
 70
     0
  9
$CMLSCALE
 40
1.0
  9
$PROXYGRAPHICS
 70
     1
  9
$MEASUREMENT
 70
     0
  9
$CELWEIGHT
370
    -1
  9
$ENDCAPS
280
     0
  9
$JOINSTYLE
280
     0
  9
$LWDISPLAY
290
     0
  9
$INSUNITS
 70
     1
  9
$HYPERLINKBASE
  1

  9
$STYLESHEET
  1

  9
$XEDIT
290
     1
  9
$CEPSNTYPE
380
     0
  9
$PSTYLEMODE
290
     1
  9
$FINGERPRINTGUID
  2
{122433a9-ca8d-46f2-8bdc-14cf8bcc446f}
  9
$VERSIONGUID
  2
{FAEB1C32-E019-11D5-929B-00C0DF256EC4}
  9
$EXTNAMES
290
     1
  9
$PSVPSCALE
 40
0.0
  9
$OLESTARTUP
290
     0
  9
$SORTENTS
280
   127
  9
$INDEXCTL
280
     0
  9
$HIDETEXT
280
     1
  9
$XCLIPFRAME
280
     2
  9
$HALOGAP
280
     0
  9
$OBSCOLOR
 70
   257
  9
$OBSLTYPE
280
     0
  9
$INTERSECTIONDISPLAY
280
     0
  9
$INTERSECTIONCOLOR
 70
   257
  9
$DIMASSOC
280
     2
  9
$PROJECTNAME
  1

  9
$CAMERADISPLAY
290
     0
  9
$LENSLENGTH
 40
50.0
  9
$CAMERAHEIGHT
 40
0.0
  9
$STEPSPERSEC
 40
2.0
  9
$STEPSIZE
 40
6.0
  9
$3DDWFPREC
 40
2.0
  9
$PSOLWIDTH
 40
0.25
  9
$PSOLHEIGHT
 40
4.0
  9
$LOFTANG1
 40
1.570796326794897
  9
$LOFTANG2
 40
1.570796326794897
  9
$LOFTMAG1
 40
0.0
  9
$LOFTMAG2
 40
0.0
  9
$LOFTPARAM
 70
     7
  9
$LOFTNORMALS
280
     1
  9
$LATITUDE
 40
37.795
  9
$LONGITUDE
 40
-122.394
  9
$NORTHDIRECTION
 40
0.0
  9
$TIMEZONE
 70
 -8000
  9
$LIGHTGLYPHDISPLAY
280
     1
  9
$TILEMODELIGHTSYNCH
280
     1
  9
$CMATERIAL
347
44
  9
$SOLIDHIST
280
     0
  9
$SHOWHIST
280
     1
  9
$DWFFRAME
280
     2
  9
$DGNFRAME
280
     2
  9
$REALWORLDSCALE
290
     1
  9
$INTERFERECOLOR
 62
   256
  9
$CSHADOW
280
     0
  9
$SHADOWPLANELOCATION
 40
0.0
  0
ENDSEC
  0
SECTION
  2
CLASSES
  0
CLASS
  1
ACDBDICTIONARYWDFLT
  2
AcDbDictionaryWithDefault
  3
ObjectDBX Classes
 90
        0
 91
        3
280
     0
281
     0
  0
CLASS
  1
VISUALSTYLE
  2
AcDbVisualStyle
  3
ObjectDBX Classes
 90
     4095
 91
        3
280
     0
281
     0
  0
CLASS
  1
MATERIAL
  2
AcDbMaterial
  3
ObjectDBX Classes
 90
     1153
 91
        3
280
     0
281
     0
  0
CLASS
  1
SCALE
  2
AcDbScale
  3
ObjectDBX Classes
 90
     1153
 91
        3
280
     0
281
     0
  0
CLASS
  1
TABLESTYLE
  2
AcDbTableStyle
  3
ObjectDBX Classes
 90
     4095
 91
        3
280
     0
281
     0
  0
CLASS
  1
MLEADERSTYLE
  2
AcDbMLeaderStyle
  3
ACDB_MLEADERSTYLE_CLASS
 90
     4095
 91
        3
280
     0
281
     0
  0
CLASS
  1
SUN
  2
AcDbSun
  3
SCENEOE
 90
     1153
 91
        3
280
     0
281
     0
  0
CLASS
  1
DICTIONARYVAR
  2
AcDbDictionaryVar
  3
ObjectDBX Classes
 90
        0
 91
        3
280
     0
281
     0
  0
CLASS
  1
CELLSTYLEMAP
  2
AcDbCellStyleMap
  3
ObjectDBX Classes
 90
     1152
 91
        3
280
     0
281
     0
  0
ENDSEC
  0
SECTION
  2
TABLES
  0
TABLE
  2
VPORT
  5
8
330
0
100
AcDbSymbolTable
 70
     1
  0
VPORT
  5
29
330
8
100
AcDbSymbolTableRecord
100
AcDbViewportTableRecord
  2
*Active
 70
     0
 10
0.0
 20
0.0
 11
1.0
 21
1.0
 12
10.42990654205607
 22
4.5
 13
0.0
 23
0.0
 14
0.5
 24
0.5
 15
0.5
 25
0.5
 16
0.0
 26
0.0
 36
1.0
 17
0.0
 27
0.0
 37
0.0
 40
9.0
 41
1.972972972850329
 42
50.0
 43
0.0
 44
0.0
 50
0.0
 51
0.0
 71
     0
 72
   100
 73
     1
 74
     3
 75
     0
 76
     0
 77
     0
 78
     0
281
     0
 65
     1
110
0.0
120
0.0
130
0.0
111
1.0
121
0.0
131
0.0
112
0.0
122
1.0
132
0.0
 79
     0
146
0.0
348
2F
 60
     3
 61
     5
292
     1
282
     1
141
0.0
142
0.0
 63
   250
361
5D
  0
ENDTAB
  0
TABLE
  2
LTYPE
  5
5
330
0
100
AcDbSymbolTable
 70
     1
  0
LTYPE
  5
14
330
5
100
AcDbSymbolTableRecord
100
AcDbLinetypeTableRecord
  2
ByBlock
 70
     0
  3

 72
    65
 73
     0
 40
0.0
  0
LTYPE
  5
15
330
5
100
AcDbSymbolTableRecord
100
AcDbLinetypeTableRecord
  2
ByLayer
 70
     0
  3

 72
    65
 73
     0
 40
0.0
  0
LTYPE
  5
16
330
5
100
AcDbSymbolTableRecord
100
AcDbLinetypeTableRecord
  2
Continuous
 70
     0
  3
Solid line
 72
    65
 73
     0
 40
0.0
  0
ENDTAB
  0
TABLE
  2
LAYER
  5
2
330
0
100
AcDbSymbolTable
 70
     2
  0
LAYER
  5
10
330
2
100
AcDbSymbolTableRecord
100
AcDbLayerTableRecord
  2
0
 70
     0
 62
     7
  6
Continuous
370
    -3
390
F
347
46
348
0
  0
LAYER
  5
5F
330
2
100
AcDbSymbolTableRecord
100
AcDbLayerTableRecord
  2
Layer 1
 70
     0
 62
     7
  6
Continuous
370
    -3
390
F
347
46
348
0
  0
ENDTAB
  0
TABLE
  2
STYLE
  5
3
330
0
100
AcDbSymbolTable
 70
     1
  0
STYLE
  5
11
330
3
100
AcDbSymbolTableRecord
100
AcDbTextStyleTableRecord
  2
Standard
 70
     0
 40
0.0
 41
1.0
 50
0.0
 71
     0
 42
0.2
  3
txt
  4

  0
ENDTAB
  0
TABLE
  2
VIEW
  5
6
330
0
100
AcDbSymbolTable
 70
     0
  0
ENDTAB
  0
TABLE
  2
UCS
  5
7
330
0
100
AcDbSymbolTable
 70
     0
  0
ENDTAB
  0
TABLE
  2
APPID
  5
9
330
0
100
AcDbSymbolTable
 70
     2
  0
APPID
  5
12
330
9
100
AcDbSymbolTableRecord
100
AcDbRegAppTableRecord
  2
ACAD
 70
     0
  0
APPID
  5
5E
330
9
100
AcDbSymbolTableRecord
100
AcDbRegAppTableRecord
  2
ODA
 70
     0
  0
ENDTAB
  0
TABLE
  2
DIMSTYLE
  5
A
330
0
100
AcDbSymbolTable
 70
     1
100
AcDbDimStyleTable
  0
DIMSTYLE
105
27
330
A
100
AcDbSymbolTableRecord
100
AcDbDimStyleTableRecord
  2
Standard
 70
     0
178
     0
340
11
  0
ENDTAB
  0
TABLE
  2
BLOCK_RECORD
  5
1
330
0
100
AcDbSymbolTable
 70
     1
  0
BLOCK_RECORD
  5
1F
330
1
100
AcDbSymbolTableRecord
100
AcDbBlockTableRecord
  2
*Model_Space
340
22
 70
     0
280
     1
281
     0
  0
BLOCK_RECORD
  5
1B
330
1
100
AcDbSymbolTableRecord
100
AcDbBlockTableRecord
  2
*Paper_Space
340
1E
 70
     0
280
     1
281
     0
  0
BLOCK_RECORD
  5
23
330
1
100
AcDbSymbolTableRecord
100
AcDbBlockTableRecord
  2
*Paper_Space0
340
26
 70
     0
280
     1
281
     0
  0
ENDTAB
  0
ENDSEC
  0
SECTION
  2
BLOCKS
  0
BLOCK
  5
20
330
1F
100
AcDbEntity
  8
0
100
AcDbBlockBegin
  2
*Model_Space
 70
     0
 10
0.0
 20
0.0
 30
0.0
  3
*Model_Space
  1

  0
ENDBLK
  5
21
330
1F
100
AcDbEntity
  8
0
100
AcDbBlockEnd
  0
BLOCK
  5
1C
330
1B
100
AcDbEntity
 67
     1
  8
0
100
AcDbBlockBegin
  2
*Paper_Space
 70
     0
 10
0.0
 20
0.0
 30
0.0
  3
*Paper_Space
  1

  0
ENDBLK
  5
1D
330
1B
100
AcDbEntity
 67
     1
  8
0
100
AcDbBlockEnd
  0
BLOCK
  5
24
330
23
100
AcDbEntity
  8
0
100
AcDbBlockBegin
  2
*Paper_Space0
 70
     0
 10
0.0
 20
0.0
 30
0.0
  3
*Paper_Space0
  1

  0
ENDBLK
  5
25
330
23
100
AcDbEntity
  8
0
100
AcDbBlockEnd
  0
ENDSEC
  0
SECTION
  2
ENTITIES
  0
LWPOLYLINE
  5
60
330
1F
100
AcDbEntity
  8
Layer 1
 62
   250
370
     9
100
AcDbPolyline
 90
        5
 70
     1
 43
0.0
 10
-2.36203937007874
 20
-17.04075590551181
 10
6.010031496062992
 20
-17.04075590551181
 10
6.010031496062992
 20
-9.347614173228347
 10
-2.36203937007874
 20
-9.347614173228347
 10
-2.36203937007874
 20
-17.04075590551181
  0
LWPOLYLINE
  5
61
330
1F
100
AcDbEntity
  8
Layer 1
 62
     7
370
    35
100
AcDbPolyline
 90
      313
 70
     1
 43
0.0
 10
3.102393700787402
 20
-12.01773228346457
 10
3.778897637795275
 20
-12.15747637795276
 10
3.785791338582677
 20
-12.15968897637795
 10
3.803956692913386
 20
-12.16596062992126
 10
3.829645669291339
 20
-12.17573228346457
 10
3.859094488188976
 20
-12.18844488188976
 10
3.88853937007874
 20
-12.20353543307087
 10
3.914228346456693
 20
-12.22045275590551
 10
3.932393700787402
 20
-12.23863385826772
 10
3.939287401574803
 20
-12.25752362204724
 10
3.936114173228347
 20
-12.33374803149606
 10
5.074732283464567
 20
-12.56083858267717
 10
5.081566929133858
 20
-12.56299212598425
 10
5.096610236220473
 20
-12.5689842519685
 10
5.104641732283465
 20
-12.57320078740157
 10
5.111649606299213
 20
-12.57811811023622
 10
5.116602362204724
 20
-12.58364173228346
 10
5.118484251968504
 20
-12.58968897637795
 10
5.073251968503937
 20
-13.68347244094488
 10
5.073185039370078
 20
-13.68515748031496
 10
5.072700787401574
 20
-13.68964960629921
 10
5.071393700787402
 20
-13.69609448818898
 10
5.068846456692913
 20
-13.70365354330709
 10
5.064645669291338
 20
-13.71146850393701
 10
5.058377952755905
 20
-13.71870078740158
 10
5.049633858267716
 20
-13.72449606299213
 10
5.037996062992126
 20
-13.72800787401575
 10
5.019740157480315
 20
-13.73056299212598
 10
4.993547244094488
 20
-13.73383464566929
 10
4.962610236220472
 20
-13.7375
 10
4.930133858267716
 20
-13.74122834645669
 10
4.899307086614173
 20
-13.7446968503937
 10
4.873334645669291
 20
-13.74757874015748
 10
4.85540157480315
 20
-13.74954724409449
 10
4.848716535433071
 20
-13.75027559055118
 10
4.080464566929134
 20
-13.55728346456693
 10
4.075724409448819
 20
-13.63898031496063
 10
4.074988188976378
 20
-13.64318503937008
 10
4.07196062992126
 20
-13.65286220472441
 10
4.069200787401575
 20
-13.65837401574803
 10
4.065409448818897
 20
-13.66359842519685
 10
4.060425196850393
 20
-13.6679842519685
 10
4.054098425196851
 20
-13.67098031496063
 10
3.865141732283464
 20
-13.72086220472441
 10
3.865275590551181
 20
-13.72468503937008
 10
3.864791338582677
 20
-13.73380708661417
 10
3.863905511811024
 20
-13.73924803149606
 10
3.862366141732283
 20
-13.74468897637795
 10
3.860015748031496
 20
-13.74968897637795
 10
3.856685039370079
 20
-13.75380708661417
 10
3.851129921259842
 20
-13.75731889763779
 10
3.84292125984252
 20
-13.76072047244094
 10
3.833102362204724
 20
-13.76390157480315
 10
3.822720472440945
 20
-13.76675196850394
 10
3.812826771653543
 20
-13.76915748031496
 10
3.804464566929134
 20
-13.7710157480315
 10
3.798677165354331
 20
-13.7722125984252
 10
3.796515748031496
 20
-13.77263385826772
 10
3.76348031496063
 20
-15.41300787401575
 10
3.763543307086614
 20
-15.4175
 10
3.763251968503937
 20
-15.42969291338583
 10
3.761885826771654
 20
-15.44764566929134
 10
3.758728346456693
 20
-15.46943307086614
 10
3.75305905511811
 20
-15.49311417322835
 10
3.744157480314961
 20
-15.51675984251968
 10
3.731307086614173
 20
-15.53843700787402
 10
3.713787401574803
 20
-15.55620866141732
 10
3.676834645669291
 20
-15.57474409448819
 10
3.612744094488189
 20
-15.59842913385827
 10
3.531405511811024
 20
-15.62491732283465
 10
3.442696850393701
 20
-15.65185826771654
 10
3.356496062992126
 20
-15.67690157480315
 10
3.282692913385827
 20
-15.6976968503937
 10
3.231165354330709
 20
-15.71189763779527
 10
3.211791338582677
 20
-15.71715354330709
 10
2.591082677165354
 20
-15.89386220472441
 10
2.585952755905512
 20
-15.89556299212598
 10
2.571314960629921
 20
-15.89975590551181
 10
2.548311023622047
 20
-15.90506692913386
 10
2.51807874015748
 20
-15.91012992125984
 10
2.481751968503937
 20
-15.91357086614173
 10
2.440472440944882
 20
-15.9140157480315
 10
2.395374015748032
 20
-15.91010236220473
 10
2.34759842519685
 20
-15.90045669291339
 10
2.268153543307087
 20
-15.8755905511811
 10
2.139562992125984
 20
-15.83155905511811
 10
1.980240157480315
 20
-15.77529133858268
 10
1.808602362204724
 20
-15.71371653543307
 10
1.643055118110236
 20
-15.65375984251969
 10
1.502011811023622
 20
-15.60235433070866
 10
1.403881889763779
 20
-15.56643307086614
 10
1.367082677165354
 20
-15.55291732283465
 10
1.36392125984252
 20
-15.55158267716535
 10
1.355555118110236
 20
-15.54742913385827
 10
1.343681102362205
 20
-15.54024015748032
 10
1.329976377952756
 20
-15.52979133858268
 10
1.316133858267716
 20
-15.51585826771653
 10
1.303842519685039
 20
-15.49822047244094
 10
1.294783464566929
 20
-15.47666141732283
 10
1.290645669291339
 20
-15.45095275590551
 10
1.254653543307087
 20
-13.75034645669291
 10
0.9611023622047244
 20
-13.67840157480315
 10
0.9595905511811024
 20
-13.67707086614173
 10
0.955759842519685
 20
-13.67319291338583
 10
0.9506574803149607
 20
-13.66692913385827
 10
0.9453267716535433
 20
-13.65844488188976
 10
0.9408149606299213
 20
-13.64790157480315
 10
0.9381771653543307
 20
-13.63546850393701
 10
0.9384527559055118
 20
-13.62131102362205
 10
0.9426968503937008
 20
-13.60558661417323
 10
0.9418503937007874
 20
-13.60485433070866
 10
0.9396417322834646
 20
-13.60251968503937
 10
0.9365511811023622
 20
-13.59836614173228
 10
0.9330748031496063
 20
-13.59218897637795
 10
0.9296929133858268
 20
-13.58376771653543
 10
0.9268976377952756
 20
-13.57289763779528
 10
0.9251732283464567
 20
-13.55936614173228
 10
0.9250118110236221
 20
-13.54295669291339
 10
0.9258779527559056
 20
-13.50512598425197
 10
0.9268661417322834
 20
-13.43512204724409
 10
0.9279015748031496
 20
-13.3444094488189
 10
0.9289173228346457
 20
-13.24446062992126
 10
0.9298307086614174
 20
-13.14675590551181
 10
0.9305748031496063
 20
-13.06275984251969
 10
0.9310748031496063
 20
-13.00395275590551
 10
0.9312598425196851
 20
-12.98179921259842
 10
0.9314527559055118
 20
-12.97761417322835
 10
0.9327992125984252
 20
-12.96736220472441
 10
0.9342598425196851
 20
-12.96103937007874
 10
0.9364409448818898
 20
-12.9545
 10
0.9394842519685039
 20
-12.94816929133858
 10
0.9435354330708662
 20
-12.9424842519685
 10
0.9437125984251968
 20
-12.94074015748031
 10
0.944503937007874
 20
-12.93607086614173
 10
0.9462952755905512
 20
-12.92931102362205
 10
0.9494606299212598
 20
-12.92129133858268
 10
0.9543937007874016
 20
-12.91284645669291
 10
0.9614724409448819
 20
-12.9048188976378
 10
0.9710826771653543
 20
-12.89803937007874
 10
0.9836102362204724
 20
-12.89334251968504
 10
1.111224409448819
 20
-12.86467716535433
 10
1.110149606299213
 20
-12.86168503937008
 10
1.107547244094488
 20
-12.85178346456693
 10
1.105952755905512
 20
-12.84381102362205
 10
1.104326771653543
 20
-12.8335905511811
 10
1.102771653543307
 20
-12.82094881889764
 10
1.101409448818898
 20
-12.80571653543307
 10
1.100610236220472
 20
-12.77075196850394
 10
1.100543307086614
 20
-12.7060905511811
 10
1.101011811023622
 20
-12.62232283464567
 10
1.101826771653543
 20
-12.53003937007874
 10
1.102795275590551
 20
-12.43982677165354
 10
1.103728346456693
 20
-12.36227952755906
 10
1.104425196850394
 20
-12.30798818897638
 10
1.104700787401575
 20
-12.28753543307087
 10
1.105779527559055
 20
-12.28211417322835
 10
1.109779527559055
 20
-12.26762598425197
 10
1.117846456692913
 20
-12.24675196850394
 10
1.131129921259842
 20
-12.22216535433071
 10
1.150771653543307
 20
-12.19653149606299
 10
1.177925196850394
 20
-12.17253149606299
 10
1.213736220472441
 20
-12.15283464566929
 10
1.259346456692913
 20
-12.14011417322835
 10
1.959751968503937
 20
-12.02816141732283
 10
1.95961811023622
 20
-12.02476771653543
 10
1.96059842519685
 20
-12.01691732283465
 10
1.962149606299213
 20
-12.01241338582677
 10
1.964755905511811
 20
-12.00811023622047
 10
1.968673228346457
 20
-12.00444488188976
 10
1.974161417322835
 20
-12.00185039370079
 10
1.995641732283465
 20
-11.40785433070866
 10
1.996208661417323
 20
-11.40570078740157
 10
1.999129921259843
 20
-11.39997637795276
 10
2.006216535433071
 20
-11.39177952755906
 10
2.019295275590551
 20
-11.38222047244095
 10
2.040177165354331
 20
-11.37238976377953
 10
2.070688976377953
 20
-11.36340157480315
 10
2.112641732283465
 20
-11.35634645669291
 10
2.167862204724409
 20
-11.35233464566929
 10
2.168996062992126
 20
-11.25375984251968
 10
2.169413385826771
 20
-11.25152362204724
 10
2.17190157480315
 20
-11.24563385826772
 10
2.178318897637795
 20
-11.23733070866142
 10
2.190523622047244
 20
-11.22784251968504
 10
2.210377952755906
 20
-11.2184094488189
 10
2.239740157480315
 20
-11.21026377952756
 10
2.280468503937008
 20
-11.20464173228346
 10
2.33442125984252
 20
-11.20277559055118
 10
2.349437007874016
 20
-10.90526771653543
 10
2.346830708661417
 20
-10.90496062992126
 10
2.339968503937008
 20
-10.90396062992126
 10
2.330271653543307
 20
-10.90213385826772
 10
2.31917716535433
 20
-10.89935433070866
 10
2.308110236220473
 20
-10.89549212598425
 10
2.298503937007874
 20
-10.89042519685039
 10
2.291779527559055
 20
-10.88401968503937
 10
2.289374015748031
 20
-10.87614960629921
 10
2.285913385826772
 20
-10.49018503937008
 10
1.816106299212598
 20
-10.46767716535433
 10
1.812366141732283
 20
-10.46761811023622
 10
1.802023622047244
 20
-10.46753543307087
 10
1.786393700787402
 20
-10.46757874015748
 10
1.766799212598425
 20
-10.46790157480315
 10
1.744551181102362
 20
-10.46865354330709
 10
1.720976377952756
 20
-10.4699842519685
 10
1.697385826771654
 20
-10.47203937007874
 10
1.675102362204724
 20
-10.47497244094488
 10
1.649917322834646
 20
-10.47916141732284
 10
1.618685039370079
 20
-10.48452755905512
 10
1.584307086614173
 20
-10.49053543307087
 10
1.549677165354331
 20
-10.49664960629921
 10
1.517696850393701
 20
-10.50233464566929
 10
1.491263779527559
 20
-10.50705905511811
 10
1.473279527559055
 20
-10.5102874015748
 10
1.466641732283465
 20
-10.51148031496063
 10
1.270937007874016
 20
-10.55115354330709
 10
1.268196850393701
 20
-10.55063779527559
 10
1.260913385826772
 20
-10.54848031496063
 10
1.250496062992126
 20
-10.54376377952756
 10
1.238354330708662
 20
-10.53557480314961
 10
1.225893700787402
 20
-10.52299606299213
 10
1.214523622047244
 20
-10.50511417322835
 10
1.205649606299213
 20
-10.48101181102362
 10
1.200681102362205
 20
-10.44977165354331
 10
1.200188976377953
 20
-10.41816929133858
 10
1.203393700787402
 20
-10.39307086614173
 10
1.209677165354331
 20
-10.37370472440945
 10
1.21842125984252
 20
-10.35929921259843
 10
1.229003937007874
 20
-10.34907480314961
 10
1.240807086614173
 20
-10.34225984251968
 10
1.253212598425197
 20
-10.33808267716535
 10
1.265602362204724
 20
-10.33577165354331
 10
1.648318897637795
 20
-10.26951181102362
 10
1.65140157480315
 20
-10.26917322834646
 10
1.660035433070866
 20
-10.2682874015748
 10
1.673299212598425
 20
-10.26703149606299
 10
1.690287401574803
 20
-10.26559448818898
 10
1.710070866141732
 20
-10.26415748031496
 10
1.731740157480315
 20
-10.26290157480315
 10
1.754374015748031
 20
-10.2620157480315
 10
1.777055118110236
 20
-10.26167716535433
 10
1.812177165354331
 20
-10.2621968503937
 10
1.867602362204724
 20
-10.26356692913386
 10
1.935629921259842
 20
-10.26550787401575
 10
2.008555118110236
 20
-10.26773228346457
 10
2.078685039370079
 20
-10.26995275590551
 10
2.138311023622047
 20
-10.2718937007874
 10
2.179732283464567
 20
-10.27326377952756
 10
2.195251968503937
 20
-10.27378346456693
 10
2.23507874015748
 20
-10.22465354330709
 10
2.234807086614173
 20
-10.22304724409449
 10
2.234236220472441
 20
-10.21874409448819
 10
2.233728346456693
 20
-10.21252362204724
 10
2.233657480314961
 20
-10.20515748031496
 10
2.234385826771653
 20
-10.19742519685039
 10
2.236279527559055
 20
-10.19010236220472
 10
2.239708661417323
 20
-10.18396456692913
 10
2.245035433070866
 20
-10.1797874015748
 10
2.258177165354331
 20
-10.17588976377953
 10
2.285082677165355
 20
-10.1706062992126
 10
2.326161417322834
 20
-10.16472834645669
 10
2.381834645669291
 20
-10.15904330708661
 10
2.452511811023622
 20
-10.15434645669291
 10
2.538614173228346
 20
-10.15143307086614
 10
2.640547244094488
 20
-10.15108661417323
 10
2.758736220472441
 20
-10.15411023622047
 10
2.761988188976378
 20
-10.15412992125984
 10
2.770893700787401
 20
-10.1543937007874
 10
2.784196850393701
 20
-10.1552125984252
 10
2.800625984251969
 20
-10.15689763779528
 10
2.818913385826772
 20
-10.15975984251969
 10
2.837799212598425
 20
-10.16411023622047
 10
2.856015748031496
 20
-10.17025984251969
 10
2.872299212598425
 20
-10.17851968503937
 10
2.873531496062992
 20
-10.18177952755905
 10
2.875350393700788
 20
-10.18994094488189
 10
2.875602362204724
 20
-10.1951062992126
 10
2.874948818897638
 20
-10.2005905511811
 10
2.873035433070866
 20
-10.2060905511811
 10
2.869515748031496
 20
-10.21130708661417
 10
2.824925196850394
 20
-10.26083858267716
 10
2.826614173228347
 20
-10.86104330708661
 10
2.826685039370079
 20
-10.86490551181102
 10
2.825948818897638
 20
-10.87398031496063
 10
2.824830708661417
 20
-10.87929133858268
 10
2.822976377952756
 20
-10.88449606299213
 10
2.820204724409449
 20
-10.88911811023622
 10
2.81634251968504
 20
-10.89268897637795
 10
2.810905511811024
 20
-10.89548031496063
 10
2.803984251968504
 20
-10.89804330708661
 10
2.796259842519685
 20
-10.90033858267716
 10
2.788413385826772
 20
-10.90231889763779
 10
2.77507874015748
 20
-10.90514566929134
 10
2.769425196850394
 20
-10.90616929133858
 10
2.771271653543307
 20
-11.21388976377953
 10
2.777976377952756
 20
-11.21442913385827
 10
2.795681102362205
 20
-11.21615748031496
 10
2.820767716535433
 20
-11.21925984251969
 10
2.849625984251968
 20
-11.2239094488189
 10
2.878637795275591
 20
-11.2302874015748
 10
2.904188976377953
 20
-11.23856299212598
 10
2.922669291338583
 20
-11.24891732283464
 10
2.93046062992126
 20
-11.26153149606299
 10
2.927988188976378
 20
-11.36738582677165
 10
2.935122047244095
 20
-11.36729133858268
 10
2.954007874015748
 20
-11.3676062992126
 10
2.980850393700787
 20
-11.36922834645669
 10
3.011866141732284
 20
-11.37305511811024
 10
3.043267716535433
 20
-11.37997637795276
 10
3.071275590551181
 20
-11.3908937007874
 10
3.092094488188976
 20
-11.40670472440945
 10
3.10194094488189
 20
-11.4283031496063
 10
3.102393700787402
 20
-12.01773228346457
  0
LWPOLYLINE
  5
62
330
1F
100
AcDbEntity
  8
Layer 1
 62
     7
370
    35
100
AcDbPolyline
 90
        9
 70
     0
 43
0.0
 10
1.280027559055118
 20
-10.34305905511811
 10
1.299818897637795
 20
-10.35928346456693
 10
1.314425196850394
 20
-10.38442125984252
 10
1.323511811023622
 20
-10.41535826771653
 10
1.326744094488189
 20
-10.44897244094488
 10
1.323779527559055
 20
-10.48214173228346
 10
1.314283464566929
 20
-10.51175196850394
 10
1.29792125984252
 20
-10.5346811023622
 10
1.274346456692913
 20
-10.54781102362205
  0
LWPOLYLINE
  5
63
330
1F
100
AcDbEntity
  8
Layer 1
 62
     7
370
    35
100
AcDbPolyline
 90
       17
 70
     0
 43
0.0
 10
2.235818897637795
 20
-10.22931102362205
 10
2.244303149606299
 20
-10.22972834645669
 10
2.267996062992126
 20
-10.23079921259843
 10
2.304271653543307
 20
-10.23223228346457
 10
2.3505
 20
-10.23375196850394
 10
2.404051181102362
 20
-10.23506692913386
 10
2.462299212598425
 20
-10.23590157480315
 10
2.522606299212598
 20
-10.23597244094488
 10
2.582350393700787
 20
-10.23499212598425
 10
2.638055118110236
 20
-10.23337795275591
 10
2.687937007874016
 20
-10.23166141732283
 10
2.731889763779527
 20
-10.22974409448819
 10
2.769818897637795
 20
-10.22752755905512
 10
2.801625984251968
 20
-10.2249094488189
 10
2.827204724409449
 20
-10.22179133858268
 10
2.84646062992126
 20
-10.21807480314961
 10
2.859291338582677
 20
-10.21366141732283
  0
LWPOLYLINE
  5
64
330
1F
100
AcDbEntity
  8
Layer 1
 62
     7
370
    35
100
AcDbPolyline
 90
        9
 70
     0
 43
0.0
 10
2.254287401574803
 20
-10.19091338582677
 10
2.271322834645669
 20
-10.19187401574803
 10
2.318129921259843
 20
-10.19406692913386
 10
2.388267716535433
 20
-10.19646062992126
 10
2.475303149606299
 20
-10.19801968503937
 10
2.572787401574803
 20
-10.1977125984252
 10
2.674283464566929
 20
-10.19450787401575
 10
2.773350393700787
 20
-10.18737401574803
 10
2.863547244094488
 20
-10.17527165354331
  0
LWPOLYLINE
  5
65
330
1F
100
AcDbEntity
  8
Layer 1
 62
     7
370
    35
100
AcDbPolyline
 90
       19
 70
     0
 43
0.0
 10
2.302570866141732
 20
-10.48950787401575
 10
2.336661417322835
 20
-10.48950787401575
 10
2.339854330708661
 20
-10.48897244094488
 10
2.348354330708661
 20
-10.48708661417323
 10
2.360551181102362
 20
-10.48343700787402
 10
2.374830708661417
 20
-10.47760236220472
 10
2.389570866141732
 20
-10.46916929133858
 10
2.403165354330709
 20
-10.45771653543307
 10
2.413996062992126
 20
-10.44283464566929
 10
2.420448818897638
 20
-10.42410236220472
 10
2.423669291338583
 20
-10.4028031496063
 10
2.425976377952756
 20
-10.38115748031496
 10
2.427515748031496
 20
-10.36014173228346
 10
2.428437007874016
 20
-10.34074409448819
 10
2.428897637795276
 20
-10.32394881889764
 10
2.42903937007874
 20
-10.31073228346457
 10
2.429015748031496
 20
-10.30208267716535
 10
2.428972440944882
 20
-10.29898031496063
 10
2.379259842519685
 20
-10.23925590551181
  0
LWPOLYLINE
  5
66
330
1F
100
AcDbEntity
  8
Layer 1
 62
     7
370
    35
100
AcDbPolyline
 90
        9
 70
     0
 43
0.0
 10
2.36363779527559
 20
-10.90327952755906
 10
2.372704724409449
 20
-10.90415354330709
 10
2.398346456692913
 20
-10.90625590551181
 10
2.438232283464567
 20
-10.90883070866142
 10
2.49003937007874
 20
-10.91110236220472
 10
2.551429133858268
 20
-10.91230708661417
 10
2.620074803149606
 20
-10.91168110236221
 10
2.693649606299213
 20
-10.90845275590551
 10
2.769818897637795
 20
-10.90186220472441
  0
LWPOLYLINE
  5
67
330
1F
100
AcDbEntity
  8
Layer 1
 62
     7
370
    35
100
AcDbPolyline
 90
       17
 70
     0
 43
0.0
 10
2.190185039370079
 20
-11.24712204724409
 10
2.193649606299213
 20
-11.24877165354331
 10
2.205346456692913
 20
-11.25314566929134
 10
2.227248031496063
 20
-11.25938188976378
 10
2.261318897637795
 20
-11.26662992125984
 10
2.30951968503937
 20
-11.27402755905512
 10
2.373818897637795
 20
-11.2807125984252
 10
2.456185039370079
 20
-11.28583464566929
 10
2.558582677165354
 20
-11.28852755905512
 10
2.661342519685039
 20
-11.28784645669291
 10
2.744673228346457
 20
-11.28406692913386
 10
2.810334645669291
 20
-11.27816929133858
 10
2.860094488188976
 20
-11.27114173228346
 10
2.895720472440945
 20
-11.26396850393701
 10
2.918984251968504
 20
-11.25762204724409
 10
2.931645669291338
 20
-11.25309842519685
 10
2.935472440944882
 20
-11.25137007874016
  0
LWPOLYLINE
  5
68
330
1F
100
AcDbEntity
  8
Layer 1
 62
     7
370
    35
100
AcDbPolyline
 90
       31
 70
     0
 43
0.0
 10
2.333511811023622
 20
-11.19510236220473
 10
2.33351968503937
 20
-11.19707874015748
 10
2.333759842519685
 20
-11.20233464566929
 10
2.334574803149606
 20
-11.20988582677165
 10
2.336299212598425
 20
-11.21872834645669
 10
2.339263779527559
 20
-11.22787007874016
 10
2.343811023622047
 20
-11.23631102362205
 10
2.350275590551181
 20
-11.24306299212599
 10
2.358992125984252
 20
-11.24712204724409
 10
2.370389763779527
 20
-11.24934251968504
 10
2.388248031496063
 20
-11.25198031496063
 10
2.41198031496063
 20
-11.25476377952756
 10
2.441
 20
-11.25739763779528
 10
2.474728346456693
 20
-11.25961023622047
 10
2.51257874015748
 20
-11.26111811023622
 10
2.553964566929134
 20
-11.26163385826772
 10
2.598303149606299
 20
-11.26088188976378
 10
2.612255905511811
 20
-11.26060236220472
 10
2.634055118110236
 20
-11.26007874015748
 10
2.660791338582677
 20
-11.25890157480315
 10
2.689551181102362
 20
-11.25667322834646
 10
2.717429133858268
 20
-11.25297637795276
 10
2.741511811023622
 20
-11.24741732283464
 10
2.758897637795275
 20
-11.23958661417323
 10
2.766669291338583
 20
-11.22907480314961
 10
2.76798031496063
 20
-11.21993307086614
 10
2.768791338582677
 20
-11.21168897637795
 10
2.769208661417323
 20
-11.20444094488189
 10
2.769322834645669
 20
-11.1982874015748
 10
2.76905905511811
 20
-11.18966141732284
 10
2.768791338582677
 20
-11.18661023622047
  0
LWPOLYLINE
  5
69
330
1F
100
AcDbEntity
  8
Layer 1
 62
     7
370
    35
100
AcDbPolyline
 90
       17
 70
     0
 43
0.0
 10
2.009070866141732
 20
-11.40638188976378
 10
2.012366141732283
 20
-11.40904724409449
 10
2.025622047244095
 20
-11.41614173228346
 10
2.053905511811024
 20
-11.42631102362205
 10
2.102275590551181
 20
-11.43820472440945
 10
2.175791338582677
 20
-11.45046850393701
 10
2.279515748031496
 20
-11.46174803149606
 10
2.418511811023622
 20
-11.47068897637795
 10
2.597838582677165
 20
-11.47594488188976
 10
2.773657480314961
 20
-11.47549606299213
 10
2.90340157480315
 20
-11.46941338582677
 10
2.994051181102362
 20
-11.45944488188976
 10
3.052574803149606
 20
-11.44735039370079
 10
3.085956692913386
 20
-11.43488582677165
 10
3.101161417322835
 20
-11.42381102362205
 10
3.105169291338583
 20
-11.41587795275591
 10
3.104956692913386
 20
-11.41284251968504
  0
LWPOLYLINE
  5
6A
330
1F
100
AcDbEntity
  8
Layer 1
 62
     7
370
    35
100
AcDbPolyline
 90
       27
 70
     0
 43
0.0
 10
2.167366141732284
 20
-11.36192519685039
 10
2.167366141732284
 20
-11.37913385826772
 10
2.16705905511811
 20
-11.38026377952756
 10
2.166929133858268
 20
-11.38334645669291
 10
2.168157480314961
 20
-11.3879094488189
 10
2.171929133858268
 20
-11.39347637795276
 10
2.179429133858268
 20
-11.39958661417323
 10
2.191834645669291
 20
-11.40575984251969
 10
2.210338582677165
 20
-11.41153149606299
 10
2.236122047244094
 20
-11.41642913385827
 10
2.269775590551181
 20
-11.42106299212598
 10
2.311027559055118
 20
-11.42608661417323
 10
2.359751968503937
 20
-11.43107480314961
 10
2.415814960629921
 20
-11.43561417322835
 10
2.479102362204725
 20
-11.43927559055118
 10
2.549476377952756
 20
-11.44164173228346
 10
2.626822834645669
 20
-11.44229527559055
 10
2.711007874015748
 20
-11.44081102362205
 10
2.787314960629921
 20
-11.43768503937008
 10
2.843204724409449
 20
-11.43383070866142
 10
2.881838582677165
 20
-11.42945275590551
 10
2.906370078740157
 20
-11.42476377952756
 10
2.919956692913386
 20
-11.41997637795276
 10
2.925755905511811
 20
-11.41529527559055
 10
2.92692125984252
 20
-11.41093700787401
 10
2.926606299212598
 20
-11.4071062992126
 10
2.928755905511811
 20
-11.35761811023622
  0
LWPOLYLINE
  5
6B
330
1F
100
AcDbEntity
  8
Layer 1
 62
     7
370
    35
100
AcDbPolyline
 90
       35
 70
     0
 43
0.0
 10
1.961641732283465
 20
-12.0387125984252
 10
1.961688976377953
 20
-12.04070472440945
 10
1.962023622047244
 20
-12.04610236220472
 10
1.962937007874016
 20
-12.05401968503937
 10
1.964708661417323
 20
-12.06358267716536
 10
1.967633858267717
 20
-12.07391338582677
 10
1.971996062992126
 20
-12.08413385826772
 10
1.978082677165354
 20
-12.09337007874016
 10
1.986185039370079
 20
-12.10073622047244
 10
2.004645669291338
 20
-12.10903543307087
 10
2.041614173228346
 20
-12.12062992125984
 10
2.097070866141732
 20
-12.13397637795276
 10
2.171011811023622
 20
-12.14754330708661
 10
2.263413385826772
 20
-12.15979133858268
 10
2.374267716535433
 20
-12.16918897637795
 10
2.503562992125984
 20
-12.17420078740157
 10
2.651279527559055
 20
-12.1732874015748
 10
2.790814960629921
 20
-12.16693307086614
 10
2.898338582677165
 20
-12.15732677165354
 10
2.978
 20
-12.1455
 10
3.033948818897638
 20
-12.13247637795276
 10
3.070338582677165
 20
-12.11929133858268
 10
3.091314960629921
 20
-12.10696850393701
 10
3.101035433070866
 20
-12.09653937007874
 10
3.103645669291339
 20
-12.08903149606299
 10
3.104318897637795
 20
-12.07585039370079
 10
3.104665354330709
 20
-12.0616811023622
 10
3.104791338582677
 20
-12.05036220472441
 10
3.104811023622047
 20
-12.04573622047244
 10
3.105283464566929
 20
-12.04165748031496
 10
3.105102362204724
 20
-12.03242125984252
 10
3.104007874015748
 20
-12.02727165354331
 10
3.101846456692913
 20
-12.02252362204724
 10
3.098318897637795
 20
-12.01873622047244
 10
3.093118110236221
 20
-12.01647244094488
  0
LWPOLYLINE
  5
6C
330
1F
100
AcDbEntity
  8
Layer 1
 62
     7
370
    35
100
AcDbPolyline
 90
       17
 70
     0
 43
0.0
 10
1.976834645669291
 20
-12.0153031496063
 10
1.985492125984252
 20
-12.01935826771654
 10
2.011700787401575
 20
-12.02996850393701
 10
2.055795275590551
 20
-12.0448031496063
 10
2.118125984251968
 20
-12.06153149606299
 10
2.199027559055118
 20
-12.0778188976378
 10
2.298846456692913
 20
-12.09133858267717
 10
2.41792125984252
 20
-12.09975590551181
 10
2.556602362204724
 20
-12.10073622047244
 10
2.693047244094488
 20
-12.09611023622047
 10
2.806342519685039
 20
-12.08941732283465
 10
2.898212598425197
 20
-12.08088582677165
 10
2.970389763779528
 20
-12.07074803149606
 10
3.024590551181102
 20
-12.05924015748031
 10
3.062551181102362
 20
-12.04659448818898
 10
3.085988188976378
 20
-12.03304330708661
 10
3.096629921259843
 20
-12.01881889763779
  0
LWPOLYLINE
  5
6D
330
1F
100
AcDbEntity
  8
Layer 1
 62
     7
370
    35
100
AcDbPolyline
 90
       18
 70
     0
 43
0.0
 10
1.188905511811024
 20
-12.21302362204724
 10
2.224444881889764
 20
-12.4240905511811
 10
2.234535433070866
 20
-12.42563385826772
 10
2.262165354330709
 20
-12.42949212598425
 10
2.303370078740158
 20
-12.43448818897638
 10
2.354185039370079
 20
-12.43945669291339
 10
2.410645669291338
 20
-12.44322834645669
 10
2.468787401574803
 20
-12.44463779527559
 10
2.524649606299213
 20
-12.44251181102362
 10
2.574267716535433
 20
-12.43568503937008
 10
2.664893700787402
 20
-12.41849212598425
 10
2.828877952755906
 20
-12.38904330708661
 10
3.039881889763779
 20
-12.35182283464567
 10
3.271570866141732
 20
-12.31131102362205
 10
3.497614173228346
 20
-12.27199606299213
 10
3.691681102362205
 20
-12.23836220472441
 10
3.827429133858268
 20
-12.2148937007874
 10
3.878531496062992
 20
-12.20607480314961
  0
LWPOLYLINE
  5
6E
330
1F
100
AcDbEntity
  8
Layer 1
 62
     7
370
    35
100
AcDbPolyline
 90
       34
 70
     0
 43
0.0
 10
3.935496062992126
 20
-12.34694488188976
 10
3.933535433070866
 20
-12.86215354330709
 10
3.933224409448819
 20
-12.86420472440945
 10
3.932153543307086
 20
-12.8697125984252
 10
3.930114173228346
 20
-12.87770472440945
 10
3.926905511811023
 20
-12.88722047244094
 10
3.922311023622047
 20
-12.89729133858268
 10
3.916129921259842
 20
-12.90694488188976
 10
3.908153543307086
 20
-12.91521653543307
 10
3.898177165354331
 20
-12.92114173228346
 10
3.828948818897638
 20
-12.93606692913386
 10
3.664759842519685
 20
-12.96806692913386
 10
3.437724409448819
 20
-13.01126771653543
 10
3.179956692913386
 20
-13.05979133858268
 10
2.923570866141732
 20
-13.10776377952756
 10
2.700681102362205
 20
-13.14930708661417
 10
2.543393700787401
 20
-13.17853937007874
 10
2.483830708661417
 20
-13.1895905511811
 10
2.476783464566929
 20
-13.18955905511811
 10
2.457307086614173
 20
-13.18932677165354
 10
2.427909448818898
 20
-13.18870078740157
 10
2.391090551181102
 20
-13.1874842519685
 10
2.349354330708661
 20
-13.18547637795276
 10
2.305200787401575
 20
-13.18248031496063
 10
2.261133858267717
 20
-13.17829527559055
 10
2.219661417322835
 20
-13.17273228346457
 10
2.147177165354331
 20
-13.15715748031496
 10
2.020220472440945
 20
-13.12612598425197
 10
1.856507874015748
 20
-13.08420866141732
 10
1.673763779527559
 20
-13.03596456692913
 10
1.489700787401575
 20
-12.98596456692913
 10
1.32203937007874
 20
-12.93877559055118
 10
1.188496062992126
 20
-12.89896456692913
 10
1.106791338582677
 20
-12.87109448818898
  0
LWPOLYLINE
  5
6F
330
1F
100
AcDbEntity
  8
Layer 1
 62
     7
370
    35
100
AcDbPolyline
 90
        3
 70
     0
 43
0.0
 10
3.946303149606299
 20
-12.41367716535433
 10
4.886275590551181
 20
-12.63112204724409
 10
4.850712598425197
 20
-13.74627952755906
  0
LWPOLYLINE
  5
70
330
1F
100
AcDbEntity
  8
Layer 1
 62
     7
370
    35
100
AcDbPolyline
 90
        2
 70
     0
 43
0.0
 10
4.893244094488189
 20
-12.62807874015748
 10
5.109374015748031
 20
-12.57801968503937
  0
LWPOLYLINE
  5
71
330
1F
100
AcDbEntity
  8
Layer 1
 62
     7
370
    35
100
AcDbPolyline
 90
        5
 70
     0
 43
0.0
 10
3.941555118110236
 20
-12.85162598425197
 10
4.023854330708661
 20
-12.83157874015748
 10
4.435354330708662
 20
-12.94292913385827
 10
4.422007874015748
 20
-13.19457874015748
 10
4.095031496062992
 20
-13.25470078740157
  0
LWPOLYLINE
  5
72
330
1F
100
AcDbEntity
  8
Layer 1
 62
     7
370
    35
100
AcDbPolyline
 90
       22
 70
     0
 43
0.0
 10
3.919314960629921
 20
-12.92288188976378
 10
4.054992125984252
 20
-12.98746456692913
 10
4.056208661417323
 20
-12.98788976377953
 10
4.059496062992126
 20
-12.9892125984252
 10
4.064307086614173
 20
-12.99150393700787
 10
4.070098425196851
 20
-12.99483464566929
 10
4.076326771653544
 20
-12.99926771653543
 10
4.08244094488189
 20
-13.0048779527559
 10
4.08790157480315
 20
-13.01173228346457
 10
4.092161417322835
 20
-13.01990551181102
 10
4.093570866141732
 20
-13.02414960629921
 10
4.094551181102362
 20
-13.02869291338583
 10
4.095055118110237
 20
-13.03353543307087
 10
4.095031496062992
 20
-13.03869291338583
 10
4.093822834645669
 20
-13.07195275590551
 10
4.092011811023622
 20
-13.13608661417323
 10
4.089834645669291
 20
-13.22020866141732
 10
4.087527559055118
 20
-13.31344094488189
 10
4.08532283464567
 20
-13.40489763779528
 10
4.08346062992126
 20
-13.48370078740157
 10
4.082169291338583
 20
-13.53896062992126
 10
4.081685039370079
 20
-13.55979921259843
  0
LWPOLYLINE
  5
73
330
1F
100
AcDbEntity
  8
Layer 1
 62
     7
370
    35
100
AcDbPolyline
 90
        2
 70
     0
 43
0.0
 10
4.428681102362205
 20
-12.95406299212598
 10
4.090590551181102
 20
-13.01196456692913
  0
LWPOLYLINE
  5
74
330
1F
100
AcDbEntity
  8
Layer 1
 62
     7
370
    35
100
AcDbPolyline
 90
       26
 70
     0
 43
0.0
 10
0.9605472440944882
 20
-12.96627559055118
 10
2.316094488188976
 20
-13.2772125984252
 10
2.32248031496063
 20
-13.27788976377953
 10
2.34042125984252
 20
-13.27947637795276
 10
2.368102362204724
 20
-13.28131102362205
 10
2.403700787401575
 20
-13.28272440944882
 10
2.445397637795276
 20
-13.28305511811024
 10
2.491370078740157
 20
-13.28163779527559
 10
2.539807086614173
 20
-13.27780708661417
 10
2.588881889763779
 20
-13.27090157480315
 10
2.688956692913386
 20
-13.25407086614173
 10
2.871838582677166
 20
-13.22407086614173
 10
3.107897637795276
 20
-13.18565354330709
 10
3.367496062992126
 20
-13.14357086614173
 10
3.620992125984252
 20
-13.10257086614173
 10
3.838755905511811
 20
-13.06740551181102
 10
3.991149606299213
 20
-13.04282283464567
 10
4.048531496062992
 20
-13.03357086614173
 10
4.050224409448819
 20
-13.03304724409449
 10
4.054645669291339
 20
-13.03151181102362
 10
4.060830708661418
 20
-13.02901181102362
 10
4.067799212598425
 20
-13.02559448818898
 10
4.07457874015748
 20
-13.0213031496063
 10
4.080192913385827
 20
-13.01618897637795
 10
4.083673228346457
 20
-13.01029527559055
 10
4.08403937007874
 20
-13.00367716535433
  0
LWPOLYLINE
  5
75
330
1F
100
AcDbEntity
  8
Layer 1
 62
     7
370
    35
100
AcDbPolyline
 90
       18
 70
     0
 43
0.0
 10
1.262775590551181
 20
-13.73538582677165
 10
2.274511811023622
 20
-13.96504330708661
 10
2.278696850393701
 20
-13.96603543307087
 10
2.291854330708662
 20
-13.96837401574803
 10
2.314901574803149
 20
-13.97109448818898
 10
2.348751968503937
 20
-13.97324015748032
 10
2.394311023622047
 20
-13.97385039370079
 10
2.452496062992126
 20
-13.97195669291339
 10
2.524220472440945
 20
-13.9666062992126
 10
2.610389763779528
 20
-13.95683464566929
 10
2.737043307086614
 20
-13.93684251968504
 10
2.915488188976378
 20
-13.90455118110236
 10
3.124555118110236
 20
-13.86456692913386
 10
3.343082677165354
 20
-13.82150787401575
 10
3.549893700787401
 20
-13.7799842519685
 10
3.723826771653543
 20
-13.74461417322835
 10
3.843708661417323
 20
-13.72000787401575
 10
3.888374015748032
 20
-13.71077952755905
  0
LWPOLYLINE
  5
76
330
1F
100
AcDbEntity
  8
Layer 1
 62
     7
370
    35
100
AcDbPolyline
 90
        2
 70
     0
 43
0.0
 10
2.409681102362205
 20
-13.3129842519685
 10
2.401492125984252
 20
-13.95683464566929
  0
LWPOLYLINE
  5
77
330
1F
100
AcDbEntity
  8
Layer 1
 62
     7
370
    35
100
AcDbPolyline
 90
        2
 70
     0
 43
0.0
 10
2.449748031496063
 20
-15.87916929133858
 10
2.433476377952756
 20
-14.0077874015748
  0
LWPOLYLINE
  5
78
330
1F
100
AcDbEntity
  8
Layer 1
 62
     7
370
    35
100
AcDbPolyline
 90
        2
 70
     0
 43
0.0
 10
2.422625984251968
 20
-13.16159842519685
 10
2.417204724409449
 20
-12.45643700787402
  0
LWPOLYLINE
  5
79
330
1F
100
AcDbEntity
  8
Layer 1
 62
     7
370
    18
100
AcDbPolyline
 90
        4
 70
     1
 43
0.0
 10
0.2201141732283464
 20
-15.73726771653543
 10
0.2348425196850394
 20
-15.76416141732284
 10
0.2496692913385827
 20
-15.73732283464567
 10
0.2201141732283464
 20
-15.73726771653543
  0
LWPOLYLINE
  5
7A
330
1F
100
AcDbEntity
  8
Layer 1
 62
     7
370
    18
100
AcDbPolyline
 90
        4
 70
     1
 43
0.0
 10
0.2303897637795276
 20
-10.00863385826772
 10
0.2452165354330709
 20
-9.981795275590551
 10
0.2599488188976378
 20
-10.00868503937008
 10
0.2303897637795276
 20
-10.00863385826772
  0
LWPOLYLINE
  5
7B
330
1F
100
AcDbEntity
  8
Layer 1
 62
     7
370
    18
100
AcDbPolyline
 90
        2
 70
     0
 43
0.0
 10
0.2364055118110236
 20
-15.77312204724409
 10
0.2468110236220472
 20
-9.97284251968504
  0
LWPOLYLINE
  5
7C
330
1F
100
AcDbEntity
  8
Layer 1
 62
     7
370
     9
100
AcDbPolyline
 90
        7
 70
     1
 43
0.0
 10
-1.306799212598425
 20
-12.8909842519685
 10
-1.272948818897638
 20
-12.8909842519685
 10
-1.272948818897638
 20
-12.55793307086614
 10
-1.354216535433071
 20
-12.56664960629921
 10
-1.354216535433071
 20
-12.59617716535433
 10
-1.306799212598425
 20
-12.59617716535433
 10
-1.306799212598425
 20
-12.8909842519685
  0
LWPOLYLINE
  5
7D
330
1F
100
AcDbEntity
  8
Layer 1
 62
     7
370
     9
100
AcDbPolyline
 90
       65
 70
     1
 43
0.0
 10
-1.115015748031496
 20
-12.71140157480315
 10
-1.107303149606299
 20
-12.71175590551181
 10
-1.099877952755905
 20
-12.71282283464567
 10
-1.092740157480315
 20
-12.71459842519685
 10
-1.085885826771654
 20
-12.71708267716535
 10
-1.079322834645669
 20
-12.72028346456693
 10
-1.073043307086614
 20
-12.72419291338583
 10
-1.067055118110236
 20
-12.72881496062992
 10
-1.061354330708661
 20
-12.73415354330709
 10
-1.056192913385827
 20
-12.73991338582677
 10
-1.051716535433071
 20
-12.74594488188976
 10
-1.047933070866142
 20
-12.75225196850394
 10
-1.044834645669291
 20
-12.75883070866142
 10
-1.042425196850394
 20
-12.7656811023622
 10
-1.040704724409449
 20
-12.7728031496063
 10
-1.039669291338583
 20
-12.7801968503937
 10
-1.039326771653543
 20
-12.78785826771654
 10
-1.039673228346457
 20
-12.79536220472441
 10
-1.040716535433071
 20
-12.80261023622047
 10
-1.042456692913386
 20
-12.80959448818898
 10
-1.044889763779528
 20
-12.8163188976378
 10
-1.04801968503937
 20
-12.8227874015748
 10
-1.051846456692913
 20
-12.82899606299213
 10
-1.056366141732283
 20
-12.83494881889764
 10
-1.06157874015748
 20
-12.84064173228346
 10
-1.067181102362205
 20
-12.84574803149606
 10
-1.073102362204724
 20
-12.85016929133858
 10
-1.079334645669291
 20
-12.85391338582677
 10
-1.085885826771654
 20
-12.85697244094488
 10
-1.092755905511811
 20
-12.85935039370079
 10
-1.09994094488189
 20
-12.86105118110236
 10
-1.107448818897638
 20
-12.86207086614173
 10
-1.115275590551181
 20
-12.8624094488189
 10
-1.12294094488189
 20
-12.86205905511811
 10
-1.130354330708661
 20
-12.86100393700787
 10
-1.137507874015748
 20
-12.85924409448819
 10
-1.144405511811024
 20
-12.85678346456693
 10
-1.151047244094488
 20
-12.85361811023622
 10
-1.157429133858268
 20
-12.84975196850394
 10
-1.163555118110236
 20
-12.84518503937008
 10
-1.16942125984252
 20
-12.83991338582677
 10
-1.174755905511811
 20
-12.83420078740157
 10
-1.179374015748031
 20
-12.8282125984252
 10
-1.183283464566929
 20
-12.82194488188976
 10
-1.18648031496063
 20
-12.81540157480315
 10
-1.188968503937008
 20
-12.80857480314961
 10
-1.190740157480315
 20
-12.80146850393701
 10
-1.191807086614173
 20
-12.79408661417323
 10
-1.192161417322835
 20
-12.78642125984252
 10
-1.191807086614173
 20
-12.77879527559055
 10
-1.190740157480315
 20
-12.77146456692913
 10
-1.188968503937008
 20
-12.76442519685039
 10
-1.18648031496063
 20
-12.75768503937008
 10
-1.183283464566929
 20
-12.75124015748031
 10
-1.179374015748031
 20
-12.7450905511811
 10
-1.174755905511811
 20
-12.73923228346457
 10
-1.16942125984252
 20
-12.73366929133858
 10
-1.163897637795276
 20
-12.72882677165354
 10
-1.157948818897638
 20
-12.72450787401575
 10
-1.151574803149606
 20
-12.72070866141732
 10
-1.144775590551181
 20
-12.71743307086614
 10
-1.137653543307087
 20
-12.71479133858268
 10
-1.130318897637795
 20
-12.71290551181102
 10
-1.122771653543307
 20
-12.71177952755906
 10
-1.115015748031496
 20
-12.71140157480315
  0
LWPOLYLINE
  5
7E
330
1F
100
AcDbEntity
  8
Layer 1
 62
     7
370
     9
100
AcDbPolyline
 90
       69
 70
     1
 43
0.0
 10
-1.004988188976378
 20
-12.78546456692913
 10
-1.005515748031496
 20
-12.77380708661417
 10
-1.007102362204724
 20
-12.7626811023622
 10
-1.009748031496063
 20
-12.75208267716535
 10
-1.013448818897638
 20
-12.7420157480315
 10
-1.018208661417323
 20
-12.73247244094488
 10
-1.024027559055118
 20
-12.72346062992126
 10
-1.03090157480315
 20
-12.71497637795276
 10
-1.038838582677165
 20
-12.7070157480315
 10
-1.046952755905512
 20
-12.70032283464567
 10
-1.055629921259843
 20
-12.69444881889764
 10
-1.064874015748031
 20
-12.68940551181102
 10
-1.074688976377953
 20
-12.68518503937008
 10
-1.085066929133858
 20
-12.6817874015748
 10
-1.096011811023622
 20
-12.6792125984252
 10
-1.107527559055118
 20
-12.67746062992126
 10
-1.119610236220473
 20
-12.67653543307087
 10
-1.129295275590551
 20
-12.68282283464567
 10
-1.028685039370079
 20
-12.56181102362205
 10
-1.073192913385827
 20
-12.56181102362205
 10
-1.201834645669291
 20
-12.71720472440945
 10
-1.20761811023622
 20
-12.72477165354331
 10
-1.212629921259843
 20
-12.73264566929134
 10
-1.216874015748032
 20
-12.74083070866142
 10
-1.220342519685039
 20
-12.74932677165354
 10
-1.223043307086614
 20
-12.75813385826772
 10
-1.224972440944882
 20
-12.76725196850394
 10
-1.226129921259842
 20
-12.7766811023622
 10
-1.226515748031496
 20
-12.78642125984252
 10
-1.226007874015748
 20
-12.79764173228346
 10
-1.224488188976378
 20
-12.80843307086614
 10
-1.221956692913386
 20
-12.81879133858268
 10
-1.218413385826772
 20
-12.82872047244095
 10
-1.213854330708661
 20
-12.83821653543307
 10
-1.208283464566929
 20
-12.84727952755905
 10
-1.201696850393701
 20
-12.8559094488189
 10
-1.194102362204724
 20
-12.8641062992126
 10
-1.185736220472441
 20
-12.87165748031496
 10
-1.17696062992126
 20
-12.87820078740157
 10
-1.167775590551181
 20
-12.88373622047244
 10
-1.158185039370079
 20
-12.88826771653543
 10
-1.148188976377953
 20
-12.89179133858268
 10
-1.137779527559055
 20
-12.89431102362205
 10
-1.126964566929134
 20
-12.8958188976378
 10
-1.115744094488189
 20
-12.89632283464567
 10
-1.104362204724409
 20
-12.89582283464567
 10
-1.093433070866142
 20
-12.89432283464567
 10
-1.08296062992126
 20
-12.89182283464567
 10
-1.07294094488189
 20
-12.88832677165354
 10
-1.063374015748032
 20
-12.88383070866142
 10
-1.054259842519685
 20
-12.87833858267716
 10
-1.045602362204724
 20
-12.87185039370079
 10
-1.03740157480315
 20
-12.86436614173228
 10
-1.033751968503937
 20
-12.86053543307087
 10
-1.030295275590551
 20
-12.85655511811024
 10
-1.027035433070866
 20
-12.85242125984252
 10
-1.023976377952756
 20
-12.84813779527559
 10
-1.021106299212598
 20
-12.84370472440945
 10
-1.018437007874016
 20
-12.83912204724409
 10
-1.015964566929134
 20
-12.83438582677165
 10
-1.013688976377953
 20
-12.8295
 10
-1.011653543307087
 20
-12.82447244094488
 10
-1.009889763779528
 20
-12.8193031496063
 10
-1.008393700787402
 20
-12.814
 10
-1.007169291338583
 20
-12.80856299212598
 10
-1.006216535433071
 20
-12.80298818897638
 10
-1.005535433070866
 20
-12.79727952755906
 10
-1.005125984251968
 20
-12.79143700787402
 10
-1.004988188976378
 20
-12.78546456692913
  0
LWPOLYLINE
  5
7F
330
1F
100
AcDbEntity
  8
Layer 1
 62
     7
370
     9
100
AcDbPolyline
 90
      132
 70
     1
 43
0.0
 10
-0.9053464566929134
 20
-12.68379527559055
 10
-0.8831062992125984
 20
-12.59569291338583
 10
-0.7641377952755906
 20
-12.59569291338583
 10
-0.7641377952755906
 20
-12.56181102362205
 10
-0.9087440944881889
 20
-12.56181102362205
 10
-0.9464763779527559
 20
-12.70944094488189
 10
-0.9097283464566929
 20
-12.72590551181102
 10
-0.9043897637795275
 20
-12.72227559055118
 10
-0.8987874015748032
 20
-12.71912992125984
 10
-0.8929212598425197
 20
-12.71646850393701
 10
-0.8867952755905512
 20
-12.71429133858268
 10
-0.8804094488188976
 20
-12.71259448818898
 10
-0.873755905511811
 20
-12.71138188976378
 10
-0.8668385826771654
 20
-12.71065748031496
 10
-0.8596574803149606
 20
-12.71041338582677
 10
-0.8524291338582677
 20
-12.71076771653543
 10
-0.8454409448818898
 20
-12.71183858267717
 10
-0.8386968503937008
 20
-12.71361811023622
 10
-0.8321968503937008
 20
-12.71611023622047
 10
-0.8259409448818897
 20
-12.71930708661417
 10
-0.8199330708661418
 20
-12.72322047244094
 10
-0.8141653543307087
 20
-12.72783858267717
 10
-0.8086456692913386
 20
-12.73316535433071
 10
-0.8034251968503937
 20
-12.73911811023622
 10
-0.7989055118110236
 20
-12.74529133858268
 10
-0.7950787401574804
 20
-12.75167716535433
 10
-0.7919527559055118
 20
-12.75828346456693
 10
-0.7895196850393701
 20
-12.7651062992126
 10
-0.7877834645669292
 20
-12.77215354330709
 10
-0.786740157480315
 20
-12.77941732283464
 10
-0.7863937007874016
 20
-12.78690551181102
 10
-0.786748031496063
 20
-12.79464566929134
 10
-0.7878110236220472
 20
-12.80207480314961
 10
-0.7895866141732284
 20
-12.80919291338583
 10
-0.7920708661417323
 20
-12.81600393700787
 10
-0.795267716535433
 20
-12.82250393700787
 10
-0.7991692913385827
 20
-12.82869291338583
 10
-0.8037874015748031
 20
-12.83457086614173
 10
-0.8091141732283464
 20
-12.84014173228347
 10
-0.8146338582677165
 20
-12.84497244094488
 10
-0.8205433070866142
 20
-12.84929133858268
 10
-0.8268425196850394
 20
-12.85309448818898
 10
-0.8335354330708662
 20
-12.85637795275591
 10
-0.8370826771653543
 20
-12.85779527559055
 10
-0.8408267716535434
 20
-12.85901968503937
 10
-0.8447637795275591
 20
-12.86005511811024
 10
-0.8488976377952756
 20
-12.86090551181102
 10
-0.8532244094488189
 20
-12.86156299212598
 10
-0.857748031496063
 20
-12.86203149606299
 10
-0.8624685039370079
 20
-12.86231496062992
 10
-0.8673858267716535
 20
-12.8624094488189
 10
-0.8723976377952756
 20
-12.8621968503937
 10
-0.8774055118110237
 20
-12.86156692913386
 10
-0.8824055118110237
 20
-12.86050787401575
 10
-0.8874015748031496
 20
-12.85903149606299
 10
-0.8923858267716536
 20
-12.85712598425197
 10
-0.8973661417322835
 20
-12.85479527559055
 10
-0.9023385826771654
 20
-12.85203937007874
 10
-0.9073031496062992
 20
-12.84885826771654
 10
-0.9120787401574804
 20
-12.84534251968504
 10
-0.916488188976378
 20
-12.84156692913386
 10
-0.9205393700787402
 20
-12.83753937007874
 10
-0.9242283464566929
 20
-12.83325196850394
 10
-0.9275511811023622
 20
-12.82870866141732
 10
-0.9305157480314961
 20
-12.82390551181102
 10
-0.9331220472440945
 20
-12.81884645669291
 10
-0.9353622047244095
 20
-12.81352362204724
 10
-0.9682440944881889
 20
-12.82416535433071
 10
-0.9650118110236221
 20
-12.83213779527559
 10
-0.961240157480315
 20
-12.83970866141732
 10
-0.9569370078740157
 20
-12.84687795275591
 10
-0.9520984251968504
 20
-12.85364173228346
 10
-0.9467204724409449
 20
-12.86000787401575
 10
-0.9408070866141732
 20
-12.86597244094488
 10
-0.9343582677165354
 20
-12.87153937007874
 10
-0.9273740157480315
 20
-12.87670472440945
 10
-0.9199409448818897
 20
-12.88141338582677
 10
-0.9123425196850393
 20
-12.88549212598425
 10
-0.9045826771653543
 20
-12.88894488188976
 10
-0.8966574803149606
 20
-12.89176771653543
 10
-0.8885629921259842
 20
-12.89396456692913
 10
-0.8803031496062992
 20
-12.89553543307087
 10
-0.8718740157480315
 20
-12.89647637795276
 10
-0.8632795275590551
 20
-12.89679133858268
 10
-0.8518346456692913
 20
-12.89627165354331
 10
-0.8408267716535434
 20
-12.89472047244094
 10
-0.830255905511811
 20
-12.89212992125984
 10
-0.8201220472440945
 20
-12.88850393700787
 10
-0.8104251968503937
 20
-12.88383858267717
 10
-0.8011692913385827
 20
-12.87813779527559
 10
-0.7923464566929134
 20
-12.87139763779528
 10
-0.7839645669291339
 20
-12.86362204724409
 10
-0.7763700787401575
 20
-12.85518503937008
 10
-0.7697874015748032
 20
-12.84633070866142
 10
-0.7642165354330709
 20
-12.83706299212598
 10
-0.7596574803149606
 20
-12.82738188976378
 10
-0.7561141732283465
 20
-12.81727952755906
 10
-0.7535826771653543
 20
-12.80676377952756
 10
-0.7520629921259843
 20
-12.79583070866142
 10
-0.7515551181102362
 20
-12.78448031496063
 10
-0.7520551181102362
 20
-12.77318897637795
 10
-0.7535511811023622
 20
-12.76237401574803
 10
-0.7560433070866142
 20
-12.75203937007874
 10
-0.7595354330708661
 20
-12.74217716535433
 10
-0.7640275590551181
 20
-12.73279527559055
 10
-0.7695118110236221
 20
-12.72388976377953
 10
-0.775996062992126
 20
-12.71546456692913
 10
-0.78348031496063
 20
-12.70751968503937
 10
-0.7873031496062992
 20
-12.70398818897638
 10
-0.7912795275590552
 20
-12.70064173228347
 10
-0.7954015748031497
 20
-12.6974842519685
 10
-0.7996811023622047
 20
-12.6945157480315
 10
-0.8041102362204724
 20
-12.69173622047244
 10
-0.8086929133858267
 20
-12.68914173228347
 10
-0.8134291338582678
 20
-12.68674015748032
 10
-0.8183188976377953
 20
-12.68452362204724
 10
-0.8232952755905512
 20
-12.68253543307087
 10
-0.8283188976377953
 20
-12.68081102362205
 10
-0.8333858267716535
 20
-12.67935433070866
 10
-0.8384921259842519
 20
-12.67816141732284
 10
-0.8436417322834646
 20
-12.67723622047244
 10
-0.8488346456692913
 20
-12.67657480314961
 10
-0.8540669291338583
 20
-12.67618110236221
 10
-0.8593346456692913
 20
-12.67604724409449
 10
-0.8647047244094488
 20
-12.67616929133858
 10
-0.8701850393700787
 20
-12.67653149606299
 10
-0.8757755905511811
 20
-12.67713779527559
 10
-0.8814724409448819
 20
-12.67798818897638
 10
-0.8872795275590551
 20
-12.67907874015748
 10
-0.8931929133858267
 20
-12.6804094488189
 10
-0.8992165354330709
 20
-12.68198031496063
 10
-0.9053464566929134
 20
-12.68379527559055
  0
LWPOLYLINE
  5
80
330
1F
100
AcDbEntity
  8
Layer 1
 62
     7
370
     9
100
AcDbPolyline
 90
      155
 70
     1
 43
0.0
 10
-0.4197795275590551
 20
-12.8900157480315
 10
-0.3858937007874016
 20
-12.8900157480315
 10
-0.3858937007874016
 20
-12.75688976377953
 10
-0.3861692913385827
 20
-12.74805511811024
 10
-0.387
 20
-12.73963385826772
 10
-0.3883818897637795
 20
-12.73162992125984
 10
-0.3903149606299213
 20
-12.72403937007874
 10
-0.3927992125984252
 20
-12.71686614173228
 10
-0.3958346456692913
 20
-12.71011023622047
 10
-0.3994212598425197
 20
-12.70376771653543
 10
-0.4035551181102362
 20
-12.69784645669291
 10
-0.4058661417322835
 20
-12.69500787401575
 10
-0.4083188976377953
 20
-12.69231496062992
 10
-0.4109173228346457
 20
-12.68976771653543
 10
-0.4136574803149606
 20
-12.68736614173228
 10
-0.4165433070866142
 20
-12.68510236220472
 10
-0.4195708661417323
 20
-12.68298818897638
 10
-0.422740157480315
 20
-12.6810157480315
 10
-0.4260551181102362
 20
-12.67918503937008
 10
-0.4295748031496063
 20
-12.67754724409449
 10
-0.4333700787401575
 20
-12.67612598425197
 10
-0.4374330708661417
 20
-12.67492519685039
 10
-0.4417716535433071
 20
-12.67393700787402
 10
-0.4463818897637795
 20
-12.67317322834646
 10
-0.451263779527559
 20
-12.6726220472441
 10
-0.4564173228346456
 20
-12.67229527559055
 10
-0.4618425196850394
 20
-12.67218503937008
 10
-0.4673188976377953
 20
-12.67237401574803
 10
-0.4726220472440945
 20
-12.67294094488189
 10
-0.477748031496063
 20
-12.67388188976378
 10
-0.4827047244094488
 20
-12.67520472440945
 10
-0.4874842519685039
 20
-12.67690157480315
 10
-0.4920866141732284
 20
-12.67897637795276
 10
-0.4965157480314961
 20
-12.68143307086614
 10
-0.5007716535433071
 20
-12.68426377952756
 10
-0.5044724409448819
 20
-12.68710236220472
 10
-0.508003937007874
 20
-12.69014960629921
 10
-0.5113700787401575
 20
-12.69339763779528
 10
-0.5145669291338583
 20
-12.69685433070866
 10
-0.5175944881889764
 20
-12.70050787401575
 10
-0.5204566929133858
 20
-12.70436614173228
 10
-0.5231535433070866
 20
-12.70842125984252
 10
-0.5256811023622048
 20
-12.71267716535433
 10
-0.5346417322834646
 20
-12.69784645669291
 10
-0.5369448818897637
 20
-12.69500787401575
 10
-0.5393937007874016
 20
-12.69231496062992
 10
-0.5419881889763779
 20
-12.68976771653543
 10
-0.5447283464566929
 20
-12.68736614173228
 10
-0.5476102362204724
 20
-12.68510236220472
 10
-0.5506377952755905
 20
-12.68298818897638
 10
-0.5538070866141732
 20
-12.6810157480315
 10
-0.5571220472440945
 20
-12.67918503937008
 10
-0.5606456692913386
 20
-12.67754724409449
 10
-0.5644409448818898
 20
-12.67612598425197
 10
-0.568503937007874
 20
-12.67492519685039
 10
-0.5728385826771654
 20
-12.67393700787402
 10
-0.5774488188976378
 20
-12.67317322834646
 10
-0.5823307086614173
 20
-12.6726220472441
 10
-0.587484251968504
 20
-12.67229527559055
 10
-0.5929133858267717
 20
-12.67218503937008
 10
-0.5983937007874016
 20
-12.67237401574803
 10
-0.6036968503937008
 20
-12.67294094488189
 10
-0.6088267716535433
 20
-12.67388188976378
 10
-0.6137795275590551
 20
-12.67520472440945
 10
-0.6185590551181103
 20
-12.67690157480315
 10
-0.6231653543307086
 20
-12.67897637795276
 10
-0.6275984251968504
 20
-12.68143307086614
 10
-0.6318582677165354
 20
-12.68426377952756
 10
-0.6353779527559055
 20
-12.68696456692913
 10
-0.638748031496063
 20
-12.68984645669291
 10
-0.6419645669291338
 20
-12.69290551181102
 10
-0.6450314960629921
 20
-12.69614566929134
 10
-0.6479448818897637
 20
-12.69957480314961
 10
-0.6507047244094488
 20
-12.70318503937008
 10
-0.6533149606299212
 20
-12.70698818897638
 10
-0.6557755905511811
 20
-12.71098031496063
 10
-0.6557755905511811
 20
-12.67701968503937
 10
-0.6896456692913386
 20
-12.67701968503937
 10
-0.6896456692913386
 20
-12.8900157480315
 10
-0.6557755905511811
 20
-12.8900157480315
 10
-0.6557755905511811
 20
-12.78101968503937
 10
-0.654996062992126
 20
-12.77466929133858
 10
-0.6539724409448819
 20
-12.76856299212598
 10
-0.6527086614173229
 20
-12.76270472440945
 10
-0.6512007874015748
 20
-12.75709448818898
 10
-0.6494488188976378
 20
-12.75172440944882
 10
-0.6474527559055118
 20
-12.74659448818898
 10
-0.6452086614173228
 20
-12.74170078740157
 10
-0.6427244094488189
 20
-12.73704724409449
 10
-0.6407125984251969
 20
-12.73373228346457
 10
-0.6385314960629921
 20
-12.73057480314961
 10
-0.6361850393700788
 20
-12.72756299212598
 10
-0.6336653543307087
 20
-12.72470866141732
 10
-0.6309842519685039
 20
-12.722
 10
-0.6281299212598426
 20
-12.71944488188976
 10
-0.6251102362204725
 20
-12.71703543307087
 10
-0.6219251968503937
 20
-12.71477952755905
 10
-0.6186299212598425
 20
-12.71273622047244
 10
-0.6152755905511811
 20
-12.71096850393701
 10
-0.6118582677165354
 20
-12.70946850393701
 10
-0.6083818897637795
 20
-12.70824409448819
 10
-0.6048425196850393
 20
-12.70729133858268
 10
-0.6012440944881889
 20
-12.70661023622047
 10
-0.5975866141732283
 20
-12.70620078740157
 10
-0.5938661417322835
 20
-12.70606299212598
 10
-0.5868622047244094
 20
-12.70635039370079
 10
-0.5808188976377953
 20
-12.7072125984252
 10
-0.5781574803149606
 20
-12.70785826771654
 10
-0.5757401574803149
 20
-12.70864960629921
 10
-0.5735629921259843
 20
-12.70958267716535
 10
-0.5716299212598425
 20
-12.71065748031496
 10
-0.566755905511811
 20
-12.71426377952756
 10
-0.5625314960629921
 20
-12.71849212598425
 10
-0.5589566929133858
 20
-12.72333858267717
 10
-0.5560314960629922
 20
-12.72880708661417
 10
-0.553755905511811
 20
-12.7348937007874
 10
-0.5521299212598425
 20
-12.74160236220473
 10
-0.5511574803149606
 20
-12.74893700787402
 10
-0.5508307086614174
 20
-12.75688976377953
 10
-0.5508307086614174
 20
-12.8900157480315
 10
-0.516996062992126
 20
-12.8900157480315
 10
-0.516996062992126
 20
-12.75688976377953
 10
-0.5172204724409449
 20
-12.74875590551181
 10
-0.5116574803149606
 20
-12.73704724409449
 10
-0.5096417322834645
 20
-12.73373228346457
 10
-0.5074566929133858
 20
-12.73057480314961
 10
-0.5051062992125984
 20
-12.72756299212598
 10
-0.5025905511811024
 20
-12.72470866141732
 10
-0.4999055118110236
 20
-12.722
 10
-0.4970590551181102
 20
-12.71944488188976
 10
-0.4940472440944882
 20
-12.71703543307087
 10
-0.4908740157480315
 20
-12.71477952755905
 10
-0.4875748031496063
 20
-12.71273622047244
 10
-0.4842165354330709
 20
-12.71096850393701
 10
-0.4807992125984252
 20
-12.70946850393701
 10
-0.4773228346456693
 20
-12.70824409448819
 10
-0.4737874015748031
 20
-12.70729133858268
 10
-0.4701889763779528
 20
-12.70661023622047
 10
-0.4665314960629921
 20
-12.70620078740157
 10
-0.4628149606299213
 20
-12.70606299212598
 10
-0.4558031496062992
 20
-12.70635039370079
 10
-0.449759842519685
 20
-12.7072125984252
 10
-0.4470984251968504
 20
-12.70785826771654
 10
-0.4446771653543307
 20
-12.70864960629921
 10
-0.4425
 20
-12.70958267716535
 10
-0.4405590551181102
 20
-12.71065748031496
 10
-0.4356889763779527
 20
-12.71426377952756
 10
-0.4314645669291339
 20
-12.71849212598425
 10
-0.4278937007874016
 20
-12.72333858267717
 10
-0.4249724409448819
 20
-12.72880708661417
 10
-0.4227007874015748
 20
-12.7348937007874
 10
-0.4210787401574803
 20
-12.74160236220473
 10
-0.4201023622047244
 20
-12.74893700787402
 10
-0.4197795275590551
 20
-12.75688976377953
 10
-0.4197795275590551
 20
-12.8900157480315
  0
LWPOLYLINE
  5
81
330
1F
100
AcDbEntity
  8
Layer 1
 62
     7
370
     9
100
AcDbPolyline
 90
      155
 70
     1
 43
0.0
 10
-0.0507204724409449
 20
-12.8900157480315
 10
-0.0168543307086614
 20
-12.8900157480315
 10
-0.0168543307086614
 20
-12.75688976377953
 10
-0.0171299212598425
 20
-12.74805511811024
 10
-0.0179606299212598
 20
-12.73963385826772
 10
-0.0193425196850394
 20
-12.73162992125984
 10
-0.0212755905511811
 20
-12.72403937007874
 10
-0.023759842519685
 20
-12.71686614173228
 10
-0.0267952755905512
 20
-12.71011023622047
 10
-0.0303818897637795
 20
-12.70376771653543
 10
-0.0345157480314961
 20
-12.69784645669291
 10
-0.0368267716535433
 20
-12.69500787401575
 10
-0.0392795275590551
 20
-12.69231496062992
 10
-0.0418779527559055
 20
-12.68976771653543
 10
-0.0446181102362205
 20
-12.68736614173228
 10
-0.047503937007874
 20
-12.68510236220472
 10
-0.0505275590551181
 20
-12.68298818897638
 10
-0.0537007874015748
 20
-12.6810157480315
 10
-0.057011811023622
 20
-12.67918503937008
 10
-0.0605275590551181
 20
-12.67754724409449
 10
-0.0643188976377953
 20
-12.67612598425197
 10
-0.0683858267716535
 20
-12.67492519685039
 10
-0.0727244094488189
 20
-12.67393700787402
 10
-0.0773346456692913
 20
-12.67317322834646
 10
-0.0822204724409449
 20
-12.6726220472441
 10
-0.0873779527559055
 20
-12.67229527559055
 10
-0.0928031496062992
 20
-12.67218503937008
 10
-0.0982795275590551
 20
-12.67237401574803
 10
-0.1035787401574803
 20
-12.67294094488189
 10
-0.1087086614173228
 20
-12.67388188976378
 10
-0.1136614173228346
 20
-12.67520472440945
 10
-0.1184409448818898
 20
-12.67690157480315
 10
-0.1230472440944882
 20
-12.67897637795276
 10
-0.1274763779527559
 20
-12.68143307086614
 10
-0.1317322834645669
 20
-12.68426377952756
 10
-0.1354291338582677
 20
-12.68710236220472
 10
-0.1389566929133858
 20
-12.69014960629921
 10
-0.1423228346456693
 20
-12.69339763779528
 10
-0.1455196850393701
 20
-12.69685433070866
 10
-0.1485511811023622
 20
-12.70050787401575
 10
-0.1514173228346457
 20
-12.70436614173228
 10
-0.1541141732283464
 20
-12.70842125984252
 10
-0.1566417322834646
 20
-12.71267716535433
 10
-0.1655984251968504
 20
-12.69784645669291
 10
-0.1679015748031496
 20
-12.69500787401575
 10
-0.1703543307086614
 20
-12.69231496062992
 10
-0.1729488188976378
 20
-12.68976771653543
 10
-0.1756889763779527
 20
-12.68736614173228
 10
-0.1785708661417323
 20
-12.68510236220472
 10
-0.1815984251968504
 20
-12.68298818897638
 10
-0.1847677165354331
 20
-12.6810157480315
 10
-0.1880787401574803
 20
-12.67918503937008
 10
-0.1916023622047244
 20
-12.67754724409449
 10
-0.1953976377952756
 20
-12.67612598425197
 10
-0.1994645669291339
 20
-12.67492519685039
 10
-0.2037992125984252
 20
-12.67393700787402
 10
-0.2084055118110236
 20
-12.67317322834646
 10
-0.2132874015748031
 20
-12.6726220472441
 10
-0.2184409448818898
 20
-12.67229527559055
 10
-0.2238700787401575
 20
-12.67218503937008
 10
-0.2293503937007874
 20
-12.67237401574803
 10
-0.2346535433070866
 20
-12.67294094488189
 10
-0.2397795275590551
 20
-12.67388188976378
 10
-0.2447322834645669
 20
-12.67520472440945
 10
-0.249511811023622
 20
-12.67690157480315
 10
-0.2541181102362205
 20
-12.67897637795276
 10
-0.2585551181102362
 20
-12.68143307086614
 10
-0.2628188976377953
 20
-12.68426377952756
 10
-0.2663385826771654
 20
-12.68696456692913
 10
-0.2697086614173229
 20
-12.68984645669291
 10
-0.2729251968503937
 20
-12.69290551181102
 10
-0.275992125984252
 20
-12.69614566929134
 10
-0.2789055118110236
 20
-12.69957480314961
 10
-0.2816653543307087
 20
-12.70318503937008
 10
-0.2842755905511811
 20
-12.70698818897638
 10
-0.286736220472441
 20
-12.71098031496063
 10
-0.286736220472441
 20
-12.67701968503937
 10
-0.3206023622047244
 20
-12.67701968503937
 10
-0.3206023622047244
 20
-12.8900157480315
 10
-0.286736220472441
 20
-12.8900157480315
 10
-0.286736220472441
 20
-12.78101968503937
 10
-0.2859527559055118
 20
-12.77466929133858
 10
-0.2849330708661417
 20
-12.76856299212598
 10
-0.2836653543307087
 20
-12.76270472440945
 10
-0.2821574803149606
 20
-12.75709448818898
 10
-0.2804055118110236
 20
-12.75172440944882
 10
-0.2784094488188976
 20
-12.74659448818898
 10
-0.2761692913385827
 20
-12.74170078740157
 10
-0.2736850393700788
 20
-12.73704724409449
 10
-0.2716732283464567
 20
-12.73373228346457
 10
-0.269492125984252
 20
-12.73057480314961
 10
-0.2671417322834646
 20
-12.72756299212598
 10
-0.2646259842519685
 20
-12.72470866141732
 10
-0.2619409448818897
 20
-12.722
 10
-0.2590905511811024
 20
-12.71944488188976
 10
-0.2560708661417323
 20
-12.71703543307087
 10
-0.2528858267716536
 20
-12.71477952755905
 10
-0.2495905511811023
 20
-12.71273622047244
 10
-0.246236220472441
 20
-12.71096850393701
 10
-0.2428188976377953
 20
-12.70946850393701
 10
-0.2393425196850394
 20
-12.70824409448819
 10
-0.2358031496062992
 20
-12.70729133858268
 10
-0.2322047244094488
 20
-12.70661023622047
 10
-0.2285472440944882
 20
-12.70620078740157
 10
-0.2248267716535433
 20
-12.70606299212598
 10
-0.2178149606299213
 20
-12.70635039370079
 10
-0.2117716535433071
 20
-12.7072125984252
 10
-0.2091141732283465
 20
-12.70785826771654
 10
-0.2066968503937008
 20
-12.70864960629921
 10
-0.2045196850393701
 20
-12.70958267716535
 10
-0.2025866141732283
 20
-12.71065748031496
 10
-0.1977125984251968
 20
-12.71426377952756
 10
-0.193492125984252
 20
-12.71849212598425
 10
-0.1899173228346457
 20
-12.72333858267717
 10
-0.186992125984252
 20
-12.72880708661417
 10
-0.1847125984251969
 20
-12.7348937007874
 10
-0.1830866141732284
 20
-12.74160236220473
 10
-0.1821141732283464
 20
-12.74893700787402
 10
-0.1817874015748031
 20
-12.75688976377953
 10
-0.1817874015748031
 20
-12.8900157480315
 10
-0.1479370078740158
 20
-12.8900157480315
 10
-0.1479370078740158
 20
-12.75688976377953
 10
-0.1481811023622047
 20
-12.74875590551181
 10
-0.1426181102362205
 20
-12.73704724409449
 10
-0.1405944881889764
 20
-12.73373228346457
 10
-0.1384094488188976
 20
-12.73057480314961
 10
-0.1360551181102362
 20
-12.72756299212598
 10
-0.1335433070866142
 20
-12.72470866141732
 10
-0.1308622047244095
 20
-12.722
 10
-0.1280196850393701
 20
-12.71944488188976
 10
-0.125007874015748
 20
-12.71703543307087
 10
-0.1218346456692913
 20
-12.71477952755905
 10
-0.1185354330708661
 20
-12.71273622047244
 10
-0.1151771653543307
 20
-12.71096850393701
 10
-0.111759842519685
 20
-12.70946850393701
 10
-0.1082834645669291
 20
-12.70824409448819
 10
-0.104748031496063
 20
-12.70729133858268
 10
-0.1011496062992126
 20
-12.70661023622047
 10
-0.097492125984252
 20
-12.70620078740157
 10
-0.0937755905511811
 20
-12.70606299212598
 10
-0.0867637795275591
 20
-12.70635039370079
 10
-0.0807204724409449
 20
-12.7072125984252
 10
-0.0780590551181102
 20
-12.70785826771654
 10
-0.0756377952755906
 20
-12.70864960629921
 10
-0.0734606299212598
 20
-12.70958267716535
 10
-0.0715196850393701
 20
-12.71065748031496
 10
-0.0666456692913386
 20
-12.71426377952756
 10
-0.0624251968503937
 20
-12.71849212598425
 10
-0.0588503937007874
 20
-12.72333858267717
 10
-0.0559251968503937
 20
-12.72880708661417
 10
-0.0536456692913386
 20
-12.7348937007874
 10
-0.0520196850393701
 20
-12.74160236220473
 10
-0.0510472440944882
 20
-12.74893700787402
 10
-0.0507204724409449
 20
-12.75688976377953
 10
-0.0507204724409449
 20
-12.8900157480315
  0
LWPOLYLINE
  5
82
330
1F
100
AcDbEntity
  8
Layer 1
 62
     7
370
    18
100
AcDbPolyline
 90
        4
 70
     1
 43
0.0
 10
5.098688976377953
 20
-15.37622440944882
 10
5.119259842519685
 20
-15.35348818897638
 10
5.08903937007874
 20
-15.3482874015748
 10
5.098688976377953
 20
-15.37622440944882
  0
LWPOLYLINE
  5
83
330
1F
100
AcDbEntity
  8
Layer 1
 62
     7
370
    18
100
AcDbPolyline
 90
        4
 70
     1
 43
0.0
 10
1.94486220472441
 20
-16.46540551181102
 10
1.914641732283465
 20
-16.46020472440945
 10
1.935212598425197
 20
-16.43746850393701
 10
1.94486220472441
 20
-16.46540551181102
  0
LWPOLYLINE
  5
84
330
1F
100
AcDbEntity
  8
Layer 1
 62
     7
370
    18
100
AcDbPolyline
 90
        2
 70
     0
 43
0.0
 10
5.127212598425197
 20
-15.34907480314961
 10
1.905665354330709
 20
-16.46164173228346
  0
LWPOLYLINE
  5
85
330
1F
100
AcDbEntity
  8
Layer 1
 62
     7
370
     9
100
AcDbPolyline
 90
        7
 70
     1
 43
0.0
 10
3.658929133858268
 20
-16.4689094488189
 10
3.692779527559055
 20
-16.4689094488189
 10
3.692779527559055
 20
-16.13585826771654
 10
3.611523622047244
 20
-16.1445905511811
 10
3.611523622047244
 20
-16.17410236220472
 10
3.658929133858268
 20
-16.17410236220472
 10
3.658929133858268
 20
-16.4689094488189
  0
LWPOLYLINE
  5
86
330
1F
100
AcDbEntity
  8
Layer 1
 62
     7
370
     9
100
AcDbPolyline
 90
        7
 70
     1
 43
0.0
 10
3.797744094488189
 20
-16.4689094488189
 10
3.831594488188976
 20
-16.4689094488189
 10
3.831594488188976
 20
-16.13585826771654
 10
3.750338582677165
 20
-16.1445905511811
 10
3.750338582677165
 20
-16.17410236220472
 10
3.797744094488189
 20
-16.17410236220472
 10
3.797744094488189
 20
-16.4689094488189
  0
LWPOLYLINE
  5
87
330
1F
100
AcDbEntity
  8
Layer 1
 62
     7
370
     9
100
AcDbPolyline
 90
       87
 70
     1
 43
0.0
 10
3.895444881889764
 20
-16.4689094488189
 10
4.127125984251968
 20
-16.4689094488189
 10
4.127125984251968
 20
-16.43504724409449
 10
3.977200787401575
 20
-16.43504724409449
 10
4.091818897637795
 20
-16.32127952755906
 10
4.099295275590551
 20
-16.31308661417323
 10
4.105779527559055
 20
-16.30448818897638
 10
4.111267716535433
 20
-16.29547637795276
 10
4.115759842519685
 20
-16.28605905511811
 10
4.119251968503937
 20
-16.27623228346457
 10
4.121748031496063
 20
-16.266
 10
4.123248031496063
 20
-16.25535433070866
 10
4.123748031496063
 20
-16.2443031496063
 10
4.123236220472441
 20
-16.23300393700787
 10
4.121708661417323
 20
-16.22215354330709
 10
4.119157480314961
 20
-16.21175984251969
 10
4.115582677165355
 20
-16.2018188976378
 10
4.110992125984252
 20
-16.19233070866142
 10
4.105377952755905
 20
-16.18329921259842
 10
4.098744094488189
 20
-16.17472047244095
 10
4.091090551181102
 20
-16.16659842519685
 10
4.082590551181102
 20
-16.15905905511811
 10
4.073712598425197
 20
-16.15252362204724
 10
4.064456692913386
 20
-16.14699212598425
 10
4.054818897637795
 20
-16.14246456692914
 10
4.044803149606299
 20
-16.13894488188976
 10
4.034409448818898
 20
-16.13642913385827
 10
4.02363779527559
 20
-16.13492125984252
 10
4.012492125984252
 20
-16.13441732283465
 10
4.00092125984252
 20
-16.13494881889764
 10
3.989783464566929
 20
-16.13653543307086
 10
3.979070866141732
 20
-16.13918503937008
 10
3.968791338582677
 20
-16.14288976377953
 10
3.958937007874016
 20
-16.14765748031496
 10
3.949515748031496
 20
-16.15347637795276
 10
3.940527559055118
 20
-16.16035826771654
 10
3.931964566929134
 20
-16.16829527559055
 10
3.924342519685039
 20
-16.17684251968504
 10
3.917803149606299
 20
-16.18583858267716
 10
3.912342519685039
 20
-16.19527559055118
 10
3.907964566929134
 20
-16.20515748031496
 10
3.904669291338583
 20
-16.2154842519685
 10
3.902448818897638
 20
-16.22625590551181
 10
3.901311023622047
 20
-16.23747244094488
 10
3.901251968503937
 20
-16.24913779527559
 10
3.935602362204724
 20
-16.24913779527559
 10
3.935314960629921
 20
-16.24157874015748
 10
3.935838582677166
 20
-16.23418897637795
 10
3.937181102362205
 20
-16.22696850393701
 10
3.939342519685039
 20
-16.21992519685039
 10
3.942318897637795
 20
-16.21305118110236
 10
3.946114173228346
 20
-16.20635433070866
 10
3.950724409448819
 20
-16.19982677165354
 10
3.956157480314961
 20
-16.19347637795276
 10
3.96196062992126
 20
-16.1878031496063
 10
3.968066929133858
 20
-16.18288976377953
 10
3.974476377952756
 20
-16.17872834645669
 10
3.981185039370079
 20
-16.17532677165354
 10
3.988196850393701
 20
-16.17268503937008
 10
3.995511811023622
 20
-16.17079527559055
 10
4.003129921259842
 20
-16.16966141732284
 10
4.011051181102363
 20
-16.16928346456693
 10
4.018826771653544
 20
-16.16962204724409
 10
4.026303149606299
 20
-16.17064173228346
 10
4.033488188976378
 20
-16.17234251968504
 10
4.040377952755906
 20
-16.17472047244095
 10
4.046968503937008
 20
-16.17777952755905
 10
4.053267716535433
 20
-16.18152362204724
 10
4.059267716535433
 20
-16.18594488188976
 10
4.064972440944882
 20
-16.19105118110236
 10
4.070248031496063
 20
-16.19669291338583
 10
4.074818897637796
 20
-16.2026062992126
 10
4.078685039370079
 20
-16.20879133858268
 10
4.081850393700788
 20
-16.21525196850394
 10
4.084307086614174
 20
-16.2219842519685
 10
4.086062992125984
 20
-16.22899212598425
 10
4.08711811023622
 20
-16.23627559055118
 10
4.087468503937008
 20
-16.24383464566929
 10
4.087129921259843
 20
-16.25154330708661
 10
4.086106299212599
 20
-16.25895275590551
 10
4.084405511811023
 20
-16.26605905511811
 10
4.082023622047244
 20
-16.27286614173228
 10
4.078964566929134
 20
-16.27937007874016
 10
4.075224409448819
 20
-16.28557086614173
 10
4.0708031496063
 20
-16.29147244094488
 10
4.065700787401575
 20
-16.29707086614173
 10
3.895444881889764
 20
-16.4689094488189
  0
LWPOLYLINE
  5
88
330
1F
100
AcDbEntity
  8
Layer 1
 62
     7
370
     9
100
AcDbPolyline
 90
      155
 70
     1
 43
0.0
 10
4.468590551181102
 20
-16.46795669291339
 10
4.502456692913386
 20
-16.46795669291339
 10
4.502456692913386
 20
-16.33483070866142
 10
4.502181102362205
 20
-16.32599212598425
 10
4.501350393700787
 20
-16.31757086614173
 10
4.499968503937008
 20
-16.30956299212598
 10
4.49803937007874
 20
-16.30197244094488
 10
4.495555118110236
 20
-16.29479921259842
 10
4.492523622047244
 20
-16.28804330708661
 10
4.488944881889764
 20
-16.2816968503937
 10
4.484814960629921
 20
-16.27577165354331
 10
4.482503937007874
 20
-16.27294094488189
 10
4.480051181102362
 20
-16.27025196850394
 10
4.477452755905512
 20
-16.26770472440945
 10
4.474708661417323
 20
-16.2653031496063
 10
4.471822834645669
 20
-16.26304724409449
 10
4.468791338582677
 20
-16.26092913385827
 10
4.46561811023622
 20
-16.25895669291339
 10
4.462299212598425
 20
-16.25712598425197
 10
4.458783464566929
 20
-16.2554842519685
 10
4.454996062992126
 20
-16.25405905511811
 10
4.450929133858268
 20
-16.25285826771654
 10
4.446594488188977
 20
-16.25187401574803
 10
4.44198031496063
 20
-16.25111023622047
 10
4.437098425196851
 20
-16.25056299212599
 10
4.431937007874016
 20
-16.25023622047244
 10
4.426507874015748
 20
-16.25012598425197
 10
4.42103937007874
 20
-16.25031496062992
 10
4.415740157480315
 20
-16.25088188976378
 10
4.410614173228346
 20
-16.25182677165354
 10
4.405665354330709
 20
-16.25314566929134
 10
4.400885826771654
 20
-16.25484645669291
 10
4.396279527559055
 20
-16.25692125984252
 10
4.391850393700787
 20
-16.25937401574803
 10
4.387594488188976
 20
-16.26220472440945
 10
4.383893700787402
 20
-16.26503937007874
 10
4.38036220472441
 20
-16.26808267716535
 10
4.377
 20
-16.27133070866142
 10
4.373803149606299
 20
-16.2747874015748
 10
4.370775590551181
 20
-16.27844488188977
 10
4.367913385826772
 20
-16.2823031496063
 10
4.365216535433071
 20
-16.28636220472441
 10
4.362688976377953
 20
-16.29061811023622
 10
4.353712598425197
 20
-16.27577165354331
 10
4.351413385826771
 20
-16.27294094488189
 10
4.348968503937008
 20
-16.27025196850394
 10
4.346374015748031
 20
-16.26770472440945
 10
4.34363779527559
 20
-16.2653031496063
 10
4.340751968503937
 20
-16.26304724409449
 10
4.337724409448819
 20
-16.26092913385827
 10
4.334551181102362
 20
-16.25895669291339
 10
4.331232283464567
 20
-16.25712598425197
 10
4.327712598425197
 20
-16.2554842519685
 10
4.323921259842519
 20
-16.25405905511811
 10
4.319858267716535
 20
-16.25285826771654
 10
4.315523622047244
 20
-16.25187401574803
 10
4.310913385826772
 20
-16.25111023622047
 10
4.306035433070866
 20
-16.25056299212599
 10
4.300881889763779
 20
-16.25023622047244
 10
4.295456692913386
 20
-16.25012598425197
 10
4.289976377952756
 20
-16.25031496062992
 10
4.284673228346457
 20
-16.25088188976378
 10
4.279543307086614
 20
-16.25182677165354
 10
4.274586614173228
 20
-16.25314566929134
 10
4.269807086614173
 20
-16.25484645669291
 10
4.265196850393701
 20
-16.25692125984252
 10
4.260759842519685
 20
-16.25937401574803
 10
4.256496062992126
 20
-16.26220472440945
 10
4.25298031496063
 20
-16.26490157480315
 10
4.249614173228347
 20
-16.26777952755906
 10
4.246397637795275
 20
-16.27083858267716
 10
4.243330708661417
 20
-16.27408267716535
 10
4.240413385826772
 20
-16.27751181102362
 10
4.237649606299213
 20
-16.28112598425197
 10
4.235035433070866
 20
-16.28492913385827
 10
4.232574803149606
 20
-16.28892125984252
 10
4.232574803149606
 20
-16.25494488188976
 10
4.198708661417323
 20
-16.25494488188976
 10
4.198708661417323
 20
-16.46795669291339
 10
4.232574803149606
 20
-16.46795669291339
 10
4.232574803149606
 20
-16.35896062992126
 10
4.233358267716535
 20
-16.35260236220472
 10
4.23438188976378
 20
-16.34649606299213
 10
4.235649606299212
 20
-16.34063779527559
 10
4.237161417322834
 20
-16.33502362204725
 10
4.238917322834646
 20
-16.32965354330709
 10
4.240913385826771
 20
-16.32452362204724
 10
4.24315748031496
 20
-16.31963779527559
 10
4.245641732283465
 20
-16.31498818897638
 10
4.247653543307087
 20
-16.31167322834646
 10
4.249834645669291
 20
-16.30851181102362
 10
4.252181102362205
 20
-16.3055
 10
4.254692913385827
 20
-16.30264173228347
 10
4.257374015748032
 20
-16.29993307086614
 10
4.260224409448819
 20
-16.29737795275591
 10
4.263240157480315
 20
-16.29497244094488
 10
4.266425196850394
 20
-16.29272047244094
 10
4.269724409448819
 20
-16.29067322834646
 10
4.273082677165355
 20
-16.28890157480315
 10
4.2765
 20
-16.28740551181102
 10
4.279976377952756
 20
-16.28617716535433
 10
4.283515748031496
 20
-16.28522834645669
 10
4.287110236220473
 20
-16.28454724409449
 10
4.290771653543307
 20
-16.28413779527559
 10
4.294488188976378
 20
-16.28400393700787
 10
4.3015
 20
-16.28429133858268
 10
4.307543307086614
 20
-16.28514960629921
 10
4.310200787401575
 20
-16.28579527559055
 10
4.312622047244094
 20
-16.28658267716536
 10
4.314803149606299
 20
-16.28751968503937
 10
4.316740157480315
 20
-16.28859842519685
 10
4.321614173228347
 20
-16.29220472440945
 10
4.325834645669292
 20
-16.29643307086614
 10
4.329409448818898
 20
-16.30127952755905
 10
4.332330708661417
 20
-16.30674803149606
 10
4.334602362204724
 20
-16.31283464566929
 10
4.336224409448818
 20
-16.31954724409449
 10
4.337200787401575
 20
-16.3268779527559
 10
4.337523622047244
 20
-16.33483070866142
 10
4.337523622047244
 20
-16.46795669291339
 10
4.371374015748032
 20
-16.46795669291339
 10
4.371374015748032
 20
-16.33483070866142
 10
4.371149606299213
 20
-16.3266811023622
 10
4.376712598425197
 20
-16.31498818897638
 10
4.378728346456693
 20
-16.31167322834646
 10
4.380913385826772
 20
-16.30851181102362
 10
4.383263779527559
 20
-16.3055
 10
4.385779527559055
 20
-16.30264173228347
 10
4.388460629921259
 20
-16.29993307086614
 10
4.391307086614173
 20
-16.29737795275591
 10
4.394318897637795
 20
-16.29497244094488
 10
4.397492125984252
 20
-16.29272047244094
 10
4.400791338582677
 20
-16.29067322834646
 10
4.404149606299213
 20
-16.28890157480315
 10
4.407566929133858
 20
-16.28740551181102
 10
4.411047244094489
 20
-16.28617716535433
 10
4.414582677165354
 20
-16.28522834645669
 10
4.418181102362205
 20
-16.28454724409449
 10
4.421838582677165
 20
-16.28413779527559
 10
4.425555118110236
 20
-16.28400393700787
 10
4.432566929133858
 20
-16.28429133858268
 10
4.438610236220472
 20
-16.28514960629921
 10
4.441271653543307
 20
-16.28579527559055
 10
4.443688976377953
 20
-16.28658267716536
 10
4.445870078740158
 20
-16.28751968503937
 10
4.447807086614173
 20
-16.28859842519685
 10
4.452681102362205
 20
-16.29220472440945
 10
4.456901574803149
 20
-16.29643307086614
 10
4.460476377952756
 20
-16.30127952755905
 10
4.463397637795276
 20
-16.30674803149606
 10
4.465669291338583
 20
-16.31283464566929
 10
4.467291338582677
 20
-16.31954724409449
 10
4.468267716535433
 20
-16.3268779527559
 10
4.468590551181102
 20
-16.33483070866142
 10
4.468590551181102
 20
-16.46795669291339
  0
LWPOLYLINE
  5
89
330
1F
100
AcDbEntity
  8
Layer 1
 62
     7
370
     9
100
AcDbPolyline
 90
      155
 70
     1
 43
0.0
 10
4.837629921259842
 20
-16.46795669291339
 10
4.8715
 20
-16.46795669291339
 10
4.8715
 20
-16.33483070866142
 10
4.871224409448819
 20
-16.32599212598425
 10
4.870397637795276
 20
-16.31757086614173
 10
4.869015748031496
 20
-16.30956299212598
 10
4.867086614173228
 20
-16.30197244094488
 10
4.864602362204725
 20
-16.29479921259842
 10
4.861570866141732
 20
-16.28804330708661
 10
4.857988188976378
 20
-16.2816968503937
 10
4.853854330708661
 20
-16.27577165354331
 10
4.851543307086614
 20
-16.27294094488189
 10
4.849090551181102
 20
-16.27025196850394
 10
4.846492125984252
 20
-16.26770472440945
 10
4.843748031496063
 20
-16.2653031496063
 10
4.840862204724409
 20
-16.26304724409449
 10
4.837830708661417
 20
-16.26092913385827
 10
4.83465748031496
 20
-16.25895669291339
 10
4.831338582677166
 20
-16.25712598425197
 10
4.827822834645669
 20
-16.2554842519685
 10
4.824035433070867
 20
-16.25405905511811
 10
4.819972440944882
 20
-16.25285826771654
 10
4.815633858267717
 20
-16.25187401574803
 10
4.811023622047244
 20
-16.25111023622047
 10
4.806137795275591
 20
-16.25056299212599
 10
4.80098031496063
 20
-16.25023622047244
 10
4.795547244094489
 20
-16.25012598425197
 10
4.79007874015748
 20
-16.25031496062992
 10
4.784783464566929
 20
-16.25088188976378
 10
4.779657480314961
 20
-16.25182677165354
 10
4.774704724409449
 20
-16.25314566929134
 10
4.769925196850394
 20
-16.25484645669291
 10
4.765322834645669
 20
-16.25692125984252
 10
4.760893700787402
 20
-16.25937401574803
 10
4.756637795275591
 20
-16.26220472440945
 10
4.752937007874015
 20
-16.26503937007874
 10
4.749405511811023
 20
-16.26808267716535
 10
4.74603937007874
 20
-16.27133070866142
 10
4.742842519685039
 20
-16.2747874015748
 10
4.739814960629921
 20
-16.27844488188977
 10
4.736952755905512
 20
-16.2823031496063
 10
4.734255905511811
 20
-16.28636220472441
 10
4.731728346456693
 20
-16.29061811023622
 10
4.722767716535433
 20
-16.27577165354331
 10
4.720464566929134
 20
-16.27294094488189
 10
4.718015748031496
 20
-16.27025196850394
 10
4.71542125984252
 20
-16.26770472440945
 10
4.712681102362205
 20
-16.2653031496063
 10
4.709799212598425
 20
-16.26304724409449
 10
4.706771653543307
 20
-16.26092913385827
 10
4.703602362204724
 20
-16.25895669291339
 10
4.700287401574803
 20
-16.25712598425197
 10
4.696763779527559
 20
-16.2554842519685
 10
4.692968503937008
 20
-16.25405905511811
 10
4.68890157480315
 20
-16.25285826771654
 10
4.684562992125985
 20
-16.25187401574803
 10
4.679952755905512
 20
-16.25111023622047
 10
4.675074803149606
 20
-16.25056299212599
 10
4.669921259842519
 20
-16.25023622047244
 10
4.664496062992126
 20
-16.25012598425197
 10
4.659015748031496
 20
-16.25031496062992
 10
4.653712598425197
 20
-16.25088188976378
 10
4.648582677165354
 20
-16.25182677165354
 10
4.643629921259842
 20
-16.25314566929134
 10
4.638850393700787
 20
-16.25484645669291
 10
4.634244094488189
 20
-16.25692125984252
 10
4.629811023622048
 20
-16.25937401574803
 10
4.625551181102362
 20
-16.26220472440945
 10
4.622031496062992
 20
-16.26490157480315
 10
4.618661417322834
 20
-16.26777952755906
 10
4.615444881889764
 20
-16.27083858267716
 10
4.612377952755906
 20
-16.27408267716535
 10
4.609460629921259
 20
-16.27751181102362
 10
4.606692913385827
 20
-16.28112598425197
 10
4.604078740157481
 20
-16.28492913385827
 10
4.601614173228347
 20
-16.28892125984252
 10
4.601614173228347
 20
-16.25494488188976
 10
4.567748031496063
 20
-16.25494488188976
 10
4.567748031496063
 20
-16.46795669291339
 10
4.601614173228347
 20
-16.46795669291339
 10
4.601614173228347
 20
-16.35896062992126
 10
4.602397637795276
 20
-16.35260236220472
 10
4.60342125984252
 20
-16.34649606299213
 10
4.604688976377953
 20
-16.34063779527559
 10
4.606200787401574
 20
-16.33502362204725
 10
4.607956692913386
 20
-16.32965354330709
 10
4.609956692913386
 20
-16.32452362204724
 10
4.612196850393701
 20
-16.31963779527559
 10
4.614685039370078
 20
-16.31498818897638
 10
4.6166968503937
 20
-16.31167322834646
 10
4.618874015748031
 20
-16.30851181102362
 10
4.621220472440945
 20
-16.3055
 10
4.623736220472441
 20
-16.30264173228347
 10
4.626417322834645
 20
-16.29993307086614
 10
4.629263779527559
 20
-16.29737795275591
 10
4.632283464566929
 20
-16.29497244094488
 10
4.635468503937008
 20
-16.29272047244094
 10
4.638767716535433
 20
-16.29067322834646
 10
4.642125984251969
 20
-16.28890157480315
 10
4.645543307086614
 20
-16.28740551181102
 10
4.64901968503937
 20
-16.28617716535433
 10
4.652555118110236
 20
-16.28522834645669
 10
4.656153543307086
 20
-16.28454724409449
 10
4.659811023622047
 20
-16.28413779527559
 10
4.663527559055118
 20
-16.28400393700787
 10
4.67053937007874
 20
-16.28429133858268
 10
4.676582677165355
 20
-16.28514960629921
 10
4.679244094488189
 20
-16.28579527559055
 10
4.681661417322835
 20
-16.28658267716536
 10
4.683842519685039
 20
-16.28751968503937
 10
4.685779527559055
 20
-16.28859842519685
 10
4.690653543307087
 20
-16.29220472440945
 10
4.694874015748032
 20
-16.29643307086614
 10
4.698448818897638
 20
-16.30127952755905
 10
4.701370078740157
 20
-16.30674803149606
 10
4.703641732283464
 20
-16.31283464566929
 10
4.705263779527559
 20
-16.31954724409449
 10
4.706240157480315
 20
-16.3268779527559
 10
4.706562992125984
 20
-16.33483070866142
 10
4.706562992125984
 20
-16.46795669291339
 10
4.740413385826772
 20
-16.46795669291339
 10
4.740413385826772
 20
-16.33483070866142
 10
4.740188976377953
 20
-16.3266811023622
 10
4.745751968503937
 20
-16.31498818897638
 10
4.747767716535433
 20
-16.31167322834646
 10
4.749952755905512
 20
-16.30851181102362
 10
4.752303149606299
 20
-16.3055
 10
4.754822834645669
 20
-16.30264173228347
 10
4.757503937007874
 20
-16.29993307086614
 10
4.760350393700787
 20
-16.29737795275591
 10
4.76336220472441
 20
-16.29497244094488
 10
4.766535433070866
 20
-16.29272047244094
 10
4.769834645669292
 20
-16.29067322834646
 10
4.773192913385826
 20
-16.28890157480315
 10
4.776610236220472
 20
-16.28740551181102
 10
4.780086614173229
 20
-16.28617716535433
 10
4.783622047244094
 20
-16.28522834645669
 10
4.787220472440945
 20
-16.28454724409449
 10
4.790877952755905
 20
-16.28413779527559
 10
4.794594488188976
 20
-16.28400393700787
 10
4.801606299212598
 20
-16.28429133858268
 10
4.807649606299212
 20
-16.28514960629921
 10
4.810311023622047
 20
-16.28579527559055
 10
4.812732283464567
 20
-16.28658267716536
 10
4.814909448818898
 20
-16.28751968503937
 10
4.816850393700787
 20
-16.28859842519685
 10
4.821720472440945
 20
-16.29220472440945
 10
4.825944881889764
 20
-16.29643307086614
 10
4.829515748031496
 20
-16.30127952755905
 10
4.832437007874016
 20
-16.30674803149606
 10
4.834708661417323
 20
-16.31283464566929
 10
4.836330708661417
 20
-16.31954724409449
 10
4.837307086614174
 20
-16.3268779527559
 10
4.837629921259842
 20
-16.33483070866142
 10
4.837629921259842
 20
-16.46795669291339
  0
ENDSEC
  0
SECTION
  2
OBJECTS
  0
DICTIONARY
  5
C
330
0
100
AcDbDictionary
281
     1
  3
ACAD_DETAILVIEWSTYLE
350
91
  3
ACAD_GROUP
350
D
  3
ACAD_LAYOUT
350
1A
  3
ACAD_MATERIAL
350
43
  3
ACAD_MLEADERSTYLE
350
5B
  3
ACAD_MLINESTYLE
350
17
  3
ACAD_PLOTSETTINGS
350
19
  3
ACAD_PLOTSTYLENAME
350
E
  3
ACAD_SCALELIST
350
47
  3
ACAD_SECTIONVIEWSTYLE
350
92
  3
ACAD_TABLESTYLE
350
59
  3
ACAD_VISUALSTYLE
350
2A
  3
ACDB_RECOMPOSE_DATA
350
8E
  3
AcDbVariableDictionary
350
8A
  0
SUN
  5
5D
330
29
100
AcDbSun
 90
        1
290
     0
 63
     7
421
 16777215
 40
1.0
291
     1
 91
  2455826
 92
 54000000
292
     0
 70
     2
 71
   256
280
     1
  0
DICTIONARY
  5
91
102
{ACAD_REACTORS
330
C
102
}
330
C
100
AcDbDictionary
281
     1
  0
DICTIONARY
  5
D
102
{ACAD_REACTORS
330
C
102
}
330
C
100
AcDbDictionary
281
     1
  0
DICTIONARY
  5
1A
102
{ACAD_REACTORS
330
C
102
}
330
C
100
AcDbDictionary
281
     1
  3
Layout1
350
1E
  3
Layout2
350
26
  3
Model
350
22
  0
DICTIONARY
  5
43
102
{ACAD_REACTORS
330
C
102
}
330
C
100
AcDbDictionary
281
     1
  3
ByBlock
350
45
  3
ByLayer
350
44
  3
Global
350
46
  0
DICTIONARY
  5
5B
102
{ACAD_REACTORS
330
C
102
}
330
C
100
AcDbDictionary
281
     1
  3
Standard
350
5C
  0
DICTIONARY
  5
17
102
{ACAD_REACTORS
330
C
102
}
330
C
100
AcDbDictionary
281
     1
  3
Standard
350
18
  0
DICTIONARY
  5
19
102
{ACAD_REACTORS
330
C
102
}
330
C
100
AcDbDictionary
281
     1
  0
ACDBDICTIONARYWDFLT
  5
E
102
{ACAD_REACTORS
330
C
102
}
330
C
100
AcDbDictionary
281
     1
  3
Normal
350
F
100
AcDbDictionaryWithDefault
340
F
  0
DICTIONARY
  5
47
102
{ACAD_REACTORS
330
C
102
}
330
C
100
AcDbDictionary
281
     1
  3
A0
350
48
  3
A1
350
49
  3
A2
350
4A
  3
A3
350
4B
  3
A4
350
4C
  3
A5
350
4D
  3
A6
350
4E
  3
A7
350
4F
  3
A8
350
50
  3
A9
350
51
  3
B1
350
52
  3
B2
350
53
  3
B3
350
54
  3
B4
350
55
  3
B5
350
56
  3
B6
350
57
  3
B7
350
58
  0
DICTIONARY
  5
92
102
{ACAD_REACTORS
330
C
102
}
330
C
100
AcDbDictionary
281
     1
  0
DICTIONARY
  5
59
102
{ACAD_REACTORS
330
C
102
}
330
C
100
AcDbDictionary
281
     1
  3
Standard
350
5A
  0
DICTIONARY
  5
2A
102
{ACAD_REACTORS
330
C
102
}
330
C
100
AcDbDictionary
281
     1
  3
2dWireframe
350
2F
  3
Basic
350
32
  3
Brighten
350
36
  3
ColorChange
350
3A
  3
Conceptual
350
34
  3
Dim
350
35
  3
EdgeColorOff
350
3D
  3
Facepattern
350
39
  3
Flat
350
2B
  3
FlatWithEdges
350
2C
  3
Gouraud
350
2D
  3
GouraudWithEdges
350
2E
  3
Hidden
350
31
  3
JitterOff
350
3B
  3
Linepattern
350
38
  3
OverhangOff
350
3C
  3
Realistic
350
33
  3
Shaded
350
42
  3
Shaded with edges
350
41
  3
Shades of Gray
350
3E
  3
Sketchy
350
3F
  3
Thicken
350
37
  3
Wireframe
350
30
  3
X-Ray
350
40
  0
XRECORD
  5
8E
102
{ACAD_REACTORS
330
C
102
}
330
C
100
AcDbXrecord
280
     1
 90
        1
330
5A
  0
DICTIONARY
  5
8A
102
{ACAD_REACTORS
330
C
102
}
330
C
100
AcDbDictionary
281
     1
  3
CANNOSCALE
350
8B
  3
CMLEADERSTYLE
350
90
  3
CTABLESTYLE
350
8F
  0
LAYOUT
  5
1E
102
{ACAD_REACTORS
330
1A
102
}
330
1A
100
AcDbPlotSettings
  1

  2
none_device
  4

  6

 40
0.0
 41
0.0
 42
0.0
 43
0.0
 44
0.0
 45
0.0
 46
0.0
 47
0.0
 48
0.0
 49
0.0
140
0.0
141
0.0
142
1.0
143
1.0
 70
   688
 72
     0
 73
     0
 74
     5
  7

 75
    16
 76
     0
 77
     2
 78
   300
147
1.0
148
0.0
149
0.0
100
AcDbLayout
  1
Layout1
 70
     1
 71
     1
 10
0.0
 20
0.0
 11
12.0
 21
9.0
 12
0.0
 22
0.0
 32
0.0
 14
1.000000000000000E+20
 24
1.000000000000000E+20
 34
1.000000000000000E+20
 15
-1.000000000000000E+20
 25
-1.000000000000000E+20
 35
-1.000000000000000E+20
146
0.0
 13
0.0
 23
0.0
 33
0.0
 16
1.0
 26
0.0
 36
0.0
 17
0.0
 27
1.0
 37
0.0
 76
     0
330
1B
  0
LAYOUT
  5
26
102
{ACAD_REACTORS
330
1A
102
}
330
1A
100
AcDbPlotSettings
  1

  2
none_device
  4

  6

 40
0.0
 41
0.0
 42
0.0
 43
0.0
 44
0.0
 45
0.0
 46
0.0
 47
0.0
 48
0.0
 49
0.0
140
0.0
141
0.0
142
1.0
143
1.0
 70
   688
 72
     0
 73
     0
 74
     5
  7

 75
    16
 76
     0
 77
     2
 78
   300
147
1.0
148
0.0
149
0.0
100
AcDbLayout
  1
Layout2
 70
     1
 71
     2
 10
0.0
 20
0.0
 11
0.0
 21
0.0
 12
0.0
 22
0.0
 32
0.0
 14
0.0
 24
0.0
 34
0.0
 15
0.0
 25
0.0
 35
0.0
146
0.0
 13
0.0
 23
0.0
 33
0.0
 16
1.0
 26
0.0
 36
0.0
 17
0.0
 27
1.0
 37
0.0
 76
     0
330
23
  0
LAYOUT
  5
22
102
{ACAD_REACTORS
330
1A
102
}
330
1A
100
AcDbPlotSettings
  1

  2
none_device
  4
Letter_(8.50_x_11.00_Inches)
  6

 40
6.35
 41
6.35
 42
6.35000508
 43
6.35000508
 44
215.9
 45
279.4
 46
0.0
 47
0.0
 48
0.0
 49
0.0
140
0.0
141
0.0
142
1.0
143
1.0
 70
  1712
 72
     0
 73
     0
 74
     0
  7

 75
     0
 76
     0
 77
     2
 78
   300
147
1.0
148
0.0
149
0.0
100
AcDbLayout
  1
Model
 70
     1
 71
     0
 10
0.0
 20
0.0
 11
12.0
 21
9.0
 12
0.0
 22
0.0
 32
0.0
 14
-2.36353937007874
 24
-17.04225590551181
 34
0.0
 15
6.011535433070867
 25
-9.346114173228347
 35
0.0
146
0.0
 13
0.0
 23
0.0
 33
0.0
 16
1.0
 26
0.0
 36
0.0
 17
0.0
 27
1.0
 37
0.0
 76
     0
330
1F
331
29
  0
MATERIAL
  5
45
102
{ACAD_REACTORS
330
43
102
}
330
43
100
AcDbMaterial
  1
ByBlock
 72
     1
 94
      127
  0
MATERIAL
  5
44
102
{ACAD_REACTORS
330
43
102
}
330
43
100
AcDbMaterial
  1
ByLayer
 72
     1
 94
      127
  0
MATERIAL
  5
46
102
{ACAD_REACTORS
330
43
102
}
330
43
100
AcDbMaterial
  1
Global
 72
     1
 94
      127
  0
MLEADERSTYLE
  5
5C
102
{ACAD_REACTORS
330
5B
102
}
330
5B
100
AcDbMLeaderStyle
179
     2
170
     2
171
     1
172
     0
 90
        2
 40
0.0
 41
0.0
173
     1
 91
-1056964608
340
14
 92
       -2
290
     1
 42
0.09
291
     1
 43
0.36
  3
Standard
341
0
 44
0.18
300

342
11
174
     1
178
     6
175
     1
176
     0
 93
-1056964608
 45
0.18
292
     0
297
     0
 46
0.18
343
0
 94
-1056964608
 47
1.0
 49
1.0
140
1.0
293
     1
141
0.0
294
     1
177
     0
142
1.0
295
     0
296
     0
143
0.125
271
     0
272
     9
273
     9
298
     0
  0
MLINESTYLE
  5
18
102
{ACAD_REACTORS
330
17
102
}
330
17
100
AcDbMlineStyle
  2
Standard
 70
     0
  3

 62
   256
 51
90.0
 52
90.0
 71
     2
 49
0.5
 62
   256
  6
BYLAYER
 49
-0.5
 62
   256
  6
BYLAYER
  0
ACDBPLACEHOLDER
  5
F
102
{ACAD_REACTORS
330
E
102
}
330
E
  0
SCALE
  5
48
102
{ACAD_REACTORS
330
47
102
}
330
47
100
AcDbScale
 70
     0
300
1:1
140
1.0
141
1.0
290
     1
  0
SCALE
  5
49
102
{ACAD_REACTORS
330
47
102
}
330
47
100
AcDbScale
 70
     0
300
1/128" = 1'-0"
140
0.0078125
141
12.0
290
     0
  0
SCALE
  5
4A
102
{ACAD_REACTORS
330
47
102
}
330
47
100
AcDbScale
 70
     0
300
1/64" = 1'-0"
140
0.015625
141
12.0
290
     0
  0
SCALE
  5
4B
102
{ACAD_REACTORS
330
47
102
}
330
47
100
AcDbScale
 70
     0
300
1/32" = 1'-0"
140
0.03125
141
12.0
290
     0
  0
SCALE
  5
4C
102
{ACAD_REACTORS
330
47
102
}
330
47
100
AcDbScale
 70
     0
300
1/16" = 1'-0"
140
0.0625
141
12.0
290
     0
  0
SCALE
  5
4D
102
{ACAD_REACTORS
330
47
102
}
330
47
100
AcDbScale
 70
     0
300
3/32" = 1'-0"
140
0.09375
141
12.0
290
     0
  0
SCALE
  5
4E
102
{ACAD_REACTORS
330
47
102
}
330
47
100
AcDbScale
 70
     0
300
1/8" = 1'-0"
140
0.125
141
12.0
290
     0
  0
SCALE
  5
4F
102
{ACAD_REACTORS
330
47
102
}
330
47
100
AcDbScale
 70
     0
300
3/16" = 1'-0"
140
0.1875
141
12.0
290
     0
  0
SCALE
  5
50
102
{ACAD_REACTORS
330
47
102
}
330
47
100
AcDbScale
 70
     0
300
1/4" = 1'-0"
140
0.25
141
12.0
290
     0
  0
SCALE
  5
51
102
{ACAD_REACTORS
330
47
102
}
330
47
100
AcDbScale
 70
     0
300
3/8" = 1'-0"
140
0.375
141
12.0
290
     0
  0
SCALE
  5
52
102
{ACAD_REACTORS
330
47
102
}
330
47
100
AcDbScale
 70
     0
300
1/2" = 1'-0"
140
0.5
141
12.0
290
     0
  0
SCALE
  5
53
102
{ACAD_REACTORS
330
47
102
}
330
47
100
AcDbScale
 70
     0
300
3/4" = 1'-0"
140
0.75
141
12.0
290
     0
  0
SCALE
  5
54
102
{ACAD_REACTORS
330
47
102
}
330
47
100
AcDbScale
 70
     0
300
1" = 1'-0"
140
1.0
141
12.0
290
     0
  0
SCALE
  5
55
102
{ACAD_REACTORS
330
47
102
}
330
47
100
AcDbScale
 70
     0
300
1-1/2" = 1'-0"
140
1.5
141
12.0
290
     0
  0
SCALE
  5
56
102
{ACAD_REACTORS
330
47
102
}
330
47
100
AcDbScale
 70
     0
300
3" = 1'-0"
140
3.0
141
12.0
290
     0
  0
SCALE
  5
57
102
{ACAD_REACTORS
330
47
102
}
330
47
100
AcDbScale
 70
     0
300
6" = 1'-0"
140
6.0
141
12.0
290
     0
  0
SCALE
  5
58
102
{ACAD_REACTORS
330
47
102
}
330
47
100
AcDbScale
 70
     0
300
1'-0" = 1'-0"
140
12.0
141
12.0
290
     0
  0
TABLESTYLE
  5
5A
102
{ACAD_REACTORS
330
59
102
}
102
{ACAD_XDICTIONARY
360
8C
102
}
330
59
100
AcDbTableStyle
  3
Standard
 70
     0
 71
     0
 40
0.06
 41
0.06
280
     0
281
     0
  7
Standard
140
0.18
170
     2
 62
     0
 63
   257
283
     0
 90
        4
 91
        0
  1

274
    -2
284
     1
 64
     0
275
    -2
285
     1
 65
     0
276
    -2
286
     1
 66
     0
277
    -2
287
     1
 67
     0
278
    -2
288
     1
 68
     0
279
    -2
289
     1
 69
     0
  7
Standard
140
0.25
170
     5
 62
     0
 63
   257
283
     0
 90
        4
 91
        0
  1

274
    -2
284
     1
 64
     0
275
    -2
285
     1
 65
     0
276
    -2
286
     1
 66
     0
277
    -2
287
     1
 67
     0
278
    -2
288
     1
 68
     0
279
    -2
289
     1
 69
     0
  7
Standard
140
0.18
170
     5
 62
     0
 63
   257
283
     0
 90
        4
 91
        0
  1

274
    -2
284
     1
 64
     0
275
    -2
285
     1
 65
     0
276
    -2
286
     1
 66
     0
277
    -2
287
     1
 67
     0
278
    -2
288
     1
 68
     0
279
    -2
289
     1
 69
     0
  0
VISUALSTYLE
  5
2F
102
{ACAD_REACTORS
330
2A
102
}
330
2A
100
AcDbVisualStyle
  2
2dWireframe
 70
     4
177
     3
291
     0
 70
    58
 90
        0
176
     1
 90
        2
176
     1
 90
        0
176
     1
 90
        0
176
     1
 40
0.6
176
     1
 40
30.0
176
     1
 62
     7
420
 16777215
176
     1
 90
        1
176
     1
 90
        4
176
     1
 62
     7
176
     1
 62
   257
176
     1
 90
        1
176
     1
 90
        1
176
     1
 40
1.0
176
     1
 90
        0
176
     1
 62
   257
176
     1
 40
1.0
176
     1
 90
        1
176
     1
 90
        6
176
     1
 90
        2
176
     1
 62
     7
176
     1
 90
        5
176
     1
 90
        0
176
     1
 90
        0
176
     1
290
     0
176
     1
 90
        1
176
     1
 40
0.0
176
     1
 90
        0
176
     1
290
     1
176
     1
290
     1
176
     1
290
     0
176
     1
290
     0
176
     1
290
     0
176
     1
290
     0
176
     1
290
     0
176
     1
290
     0
176
     1
290
     0
176
     1
 90
       50
176
     1
 40
0.0
176
     1
 40
1.0
176
     1
 90
        0
176
     1
 62
    18
420
        0
176
     1
 90
       50
176
     1
 90
        3
176
     1
 62
     5
420
      255
176
     1
290
     0
176
     1
 90
       50
176
     1
 90
       50
176
     1
 90
       50
176
     1
290
     0
176
     1
 90
       50
176
     1
 62
   256
176
     0
 40
1.0
176
     0
 90
        2
176
     1
  1
strokes_ogs.tif
176
     1
290
     0
176
     1
 40
1.0
176
     1
 40
1.0
176
     1
  0
VISUALSTYLE
  5
32
102
{ACAD_REACTORS
330
2A
102
}
330
2A
100
AcDbVisualStyle
  2
Basic
 70
     7
177
     3
291
     1
 70
    58
 90
        1
176
     1
 90
        0
176
     1
 90
        1
176
     1
 90
        0
176
     1
 40
0.6
176
     1
 40
30.0
176
     1
 62
     7
420
 16777215
176
     1
 90
        0
176
     1
 90
        4
176
     1
 62
     7
176
     1
 62
   257
176
     1
 90
        1
176
     1
 90
        1
176
     1
 40
1.0
176
     1
 90
        8
176
     1
 62
     7
176
     1
 40
1.0
176
     1
 90
        1
176
     1
 90
        6
176
     1
 90
        2
176
     1
 62
     7
176
     1
 90
        5
176
     1
 90
        0
176
     1
 90
        0
176
     1
290
     0
176
     1
 90
        1
176
     1
 40
0.0
176
     1
 90
        0
176
     1
290
     0
176
     1
290
     1
176
     1
290
     1
176
     1
290
     0
176
     1
290
     0
176
     1
290
     0
176
     1
290
     0
176
     1
290
     0
176
     1
290
     0
176
     1
 90
       50
176
     1
 40
0.0
176
     1
 40
1.0
176
     1
 90
        0
176
     1
 62
    18
420
        0
176
     1
 90
       50
176
     1
 90
        3
176
     1
 62
     5
420
      255
176
     1
290
     0
176
     1
 90
       50
176
     1
 90
       50
176
     1
 90
       50
176
     1
290
     0
176
     1
 90
       50
176
     1
 62
   256
176
     0
 40
1.0
176
     0
 90
        2
176
     1
  1
strokes_ogs.tif
176
     1
290
     0
176
     1
 40
1.0
176
     1
 40
1.0
176
     1
  0
VISUALSTYLE
  5
36
102
{ACAD_REACTORS
330
2A
102
}
330
2A
100
AcDbVisualStyle
  2
Brighten
 70
    12
177
     3
291
     1
 70
    58
 90
        2
176
     1
 90
        2
176
     1
 90
        0
176
     1
 90
        0
176
     1
 40
0.6
176
     1
 40
30.0
176
     1
 62
     7
420
 16777215
176
     1
 90
        1
176
     1
 90
        4
176
     1
 62
     7
176
     1
 62
   257
176
     1
 90
        1
176
     1
 90
        1
176
     1
 40
1.0
176
     1
 90
        8
176
     1
 62
     7
176
     1
 40
1.0
176
     1
 90
        1
176
     1
 90
        6
176
     1
 90
        2
176
     1
 62
     7
176
     1
 90
        5
176
     1
 90
        0
176
     1
 90
        0
176
     1
290
     0
176
     1
 90
        1
176
     1
 40
50.0
176
     1
 90
        0
176
     1
290
     0
176
     1
290
     1
176
     1
290
     1
176
     1
290
     0
176
     1
290
     0
176
     1
290
     0
176
     1
290
     0
176
     1
290
     0
176
     1
290
     0
176
     1
 90
       50
176
     1
 40
0.0
176
     1
 40
1.0
176
     1
 90
        0
176
     1
 62
    18
420
        0
176
     1
 90
       50
176
     1
 90
        3
176
     1
 62
     5
420
      255
176
     1
290
     0
176
     1
 90
       50
176
     1
 90
       50
176
     1
 90
       50
176
     1
290
     0
176
     1
 90
       50
176
     1
 62
   256
176
     0
 40
1.0
176
     0
 90
        2
176
     1
  1
strokes_ogs.tif
176
     1
290
     0
176
     1
 40
1.0
176
     1
 40
1.0
176
     1
  0
VISUALSTYLE
  5
3A
102
{ACAD_REACTORS
330
2A
102
}
330
2A
100
AcDbVisualStyle
  2
ColorChange
 70
    16
177
     3
291
     1
 70
    58
 90
        2
176
     1
 90
        2
176
     1
 90
        3
176
     1
 90
        0
176
     1
 40
0.6
176
     1
 40
30.0
176
     1
 62
     8
420
  8421504
176
     1
 90
        1
176
     1
 90
        4
176
     1
 62
     7
176
     1
 62
   257
176
     1
 90
        1
176
     1
 90
        1
176
     1
 40
1.0
176
     1
 90
        8
176
     1
 62
     8
420
  8421504
176
     1
 40
1.0
176
     1
 90
        1
176
     1
 90
        6
176
     1
 90
        2
176
     1
 62
     7
176
     1
 90
        5
176
     1
 90
        0
176
     1
 90
        0
176
     1
290
     0
176
     1
 90
        1
176
     1
 40
0.0
176
     1
 90
        0
176
     1
290
     0
176
     1
290
     1
176
     1
290
     1
176
     1
290
     0
176
     1
290
     0
176
     1
290
     0
176
     1
290
     0
176
     1
290
     0
176
     1
290
     0
176
     1
 90
       50
176
     1
 40
0.0
176
     1
 40
1.0
176
     1
 90
        0
176
     1
 62
    18
420
        0
176
     1
 90
       50
176
     1
 90
        3
176
     1
 62
     5
420
      255
176
     1
290
     0
176
     1
 90
       50
176
     1
 90
       50
176
     1
 90
       50
176
     1
290
     0
176
     1
 90
       50
176
     1
 62
   256
176
     0
 40
1.0
176
     0
 90
        2
176
     1
  1
strokes_ogs.tif
176
     1
290
     0
176
     1
 40
1.0
176
     1
 40
1.0
176
     1
  0
VISUALSTYLE
  5
34
102
{ACAD_REACTORS
330
2A
102
}
330
2A
100
AcDbVisualStyle
  2
Conceptual
 70
     9
177
     3
291
     0
 70
    58
 90
        3
176
     1
 90
        2
176
     1
 90
        0
176
     1
 90
        0
176
     1
 40
0.6
176
     1
 40
30.0
176
     1
 62
     7
420
 16777215
176
     1
 90
        2
176
     1
 90
        2
176
     1
 62
     7
176
     1
 62
   257
176
     1
 90
        1
176
     1
 90
        1
176
     1
 40
179.0
176
     1
 90
        8
176
     1
 62
     7
176
     1
 40
1.0
176
     1
 90
        1
176
     1
 90
        6
176
     1
 90
        2
176
     1
 62
     7
176
     1
 90
        3
176
     1
 90
        0
176
     1
 90
        0
176
     1
290
     0
176
     1
 90
        1
176
     1
 40
0.0
176
     1
 90
        0
176
     1
290
     0
176
     1
290
     1
176
     1
290
     1
176
     1
290
     0
176
     1
290
     0
176
     1
290
     0
176
     1
290
     0
176
     1
290
     0
176
     1
290
     0
176
     1
 90
       50
176
     1
 40
0.0
176
     1
 40
1.0
176
     1
 90
        0
176
     1
 62
    18
420
        0
176
     1
 90
       50
176
     1
 90
        3
176
     1
 62
     5
420
      255
176
     1
290
     0
176
     1
 90
       50
176
     1
 90
       50
176
     1
 90
       50
176
     1
290
     0
176
     1
 90
       50
176
     1
 62
   256
176
     0
 40
1.0
176
     0
 90
        2
176
     1
  1
strokes_ogs.tif
176
     1
290
     0
176
     1
 40
1.0
176
     1
 40
1.0
176
     1
  0
VISUALSTYLE
  5
35
102
{ACAD_REACTORS
330
2A
102
}
330
2A
100
AcDbVisualStyle
  2
Dim
 70
    11
177
     3
291
     1
 70
    58
 90
        2
176
     1
 90
        2
176
     1
 90
        0
176
     1
 90
        0
176
     1
 40
0.6
176
     1
 40
30.0
176
     1
 62
     7
420
 16777215
176
     1
 90
        1
176
     1
 90
        4
176
     1
 62
     7
176
     1
 62
   257
176
     1
 90
        1
176
     1
 90
        1
176
     1
 40
1.0
176
     1
 90
        8
176
     1
 62
     7
176
     1
 40
1.0
176
     1
 90
        1
176
     1
 90
        6
176
     1
 90
        2
176
     1
 62
     7
176
     1
 90
        5
176
     1
 90
        0
176
     1
 90
        0
176
     1
290
     0
176
     1
 90
        1
176
     1
 40
-50.0
176
     1
 90
        0
176
     1
290
     0
176
     1
290
     1
176
     1
290
     1
176
     1
290
     0
176
     1
290
     0
176
     1
290
     0
176
     1
290
     0
176
     1
290
     0
176
     1
290
     0
176
     1
 90
       50
176
     1
 40
0.0
176
     1
 40
1.0
176
     1
 90
        0
176
     1
 62
    18
420
        0
176
     1
 90
       50
176
     1
 90
        3
176
     1
 62
     5
420
      255
176
     1
290
     0
176
     1
 90
       50
176
     1
 90
       50
176
     1
 90
       50
176
     1
290
     0
176
     1
 90
       50
176
     1
 62
   256
176
     0
 40
1.0
176
     0
 90
        2
176
     1
  1
strokes_ogs.tif
176
     1
290
     0
176
     1
 40
1.0
176
     1
 40
1.0
176
     1
  0
VISUALSTYLE
  5
3D
102
{ACAD_REACTORS
330
2A
102
}
330
2A
100
AcDbVisualStyle
  2
EdgeColorOff
 70
    22
177
     3
291
     1
 70
    58
 90
        2
176
     0
 90
        2
176
     0
 90
        0
176
     0
 90
        0
176
     0
 40
0.6
176
     0
 40
30.0
176
     0
 62
     7
420
 16777215
176
     0
 90
        1
176
     0
 90
        4
176
     0
 62
     7
176
     0
 62
   257
176
     0
 90
        1
176
     0
 90
        1
176
     0
 40
1.0
176
     0
 90
        8
176
     2
 62
     7
176
     0
 40
1.0
176
     0
 90
        1
176
     0
 90
        6
176
     0
 90
        2
176
     0
 62
     7
176
     0
 90
        5
176
     0
 90
        0
176
     0
 90
        0
176
     0
290
     0
176
     0
 90
        1
176
     0
 40
0.0
176
     0
 90
        0
176
     0
290
     0
176
     0
290
     1
176
     0
290
     1
176
     0
290
     0
176
     0
290
     0
176
     0
290
     0
176
     0
290
     0
176
     0
290
     0
176
     0
290
     0
176
     0
 90
       50
176
     0
 40
0.0
176
     0
 40
1.0
176
     0
 90
        0
176
     0
 62
    18
420
        0
176
     0
 90
       50
176
     0
 90
        3
176
     0
 62
     5
420
      255
176
     0
290
     0
176
     0
 90
       50
176
     0
 90
       50
176
     0
 90
       50
176
     0
290
     0
176
     0
 90
       50
176
     0
 62
   256
176
     0
 40
1.0
176
     0
 90
        2
176
     0
  1
strokes_ogs.tif
176
     0
290
     0
176
     0
 40
1.0
176
     0
 40
1.0
176
     0
  0
VISUALSTYLE
  5
39
102
{ACAD_REACTORS
330
2A
102
}
330
2A
100
AcDbVisualStyle
  2
Facepattern
 70
    15
177
     3
291
     1
 70
    58
 90
        2
176
     1
 90
        2
176
     1
 90
        0
176
     1
 90
        0
176
     1
 40
0.6
176
     1
 40
30.0
176
     1
 62
     7
420
 16777215
176
     1
 90
        1
176
     1
 90
        4
176
     1
 62
     7
176
     1
 62
   257
176
     1
 90
        1
176
     1
 90
        1
176
     1
 40
1.0
176
     1
 90
        8
176
     1
 62
     7
176
     1
 40
1.0
176
     1
 90
        1
176
     1
 90
        6
176
     1
 90
        2
176
     1
 62
     7
176
     1
 90
        5
176
     1
 90
        0
176
     1
 90
        0
176
     1
290
     0
176
     1
 90
        1
176
     1
 40
0.0
176
     1
 90
        0
176
     1
290
     0
176
     1
290
     1
176
     1
290
     1
176
     1
290
     0
176
     1
290
     0
176
     1
290
     0
176
     1
290
     0
176
     1
290
     0
176
     1
290
     0
176
     1
 90
       50
176
     1
 40
0.0
176
     1
 40
1.0
176
     1
 90
        0
176
     1
 62
    18
420
        0
176
     1
 90
       50
176
     1
 90
        3
176
     1
 62
     5
420
      255
176
     1
290
     0
176
     1
 90
       50
176
     1
 90
       50
176
     1
 90
       50
176
     1
290
     0
176
     1
 90
       50
176
     1
 62
   256
176
     0
 40
1.0
176
     0
 90
        2
176
     1
  1
strokes_ogs.tif
176
     1
290
     0
176
     1
 40
1.0
176
     1
 40
1.0
176
     1
  0
VISUALSTYLE
  5
2B
102
{ACAD_REACTORS
330
2A
102
}
330
2A
100
AcDbVisualStyle
  2
Flat
 70
     0
177
     3
291
     1
 70
    58
 90
        2
176
     1
 90
        1
176
     1
 90
        1
176
     1
 90
        2
176
     1
 40
0.6
176
     1
 40
30.0
176
     1
 62
     7
420
 16777215
176
     1
 90
        0
176
     1
 90
        0
176
     1
 62
     7
176
     1
 62
   257
176
     1
 90
        1
176
     1
 90
        1
176
     1
 40
1.0
176
     1
 90
        8
176
     1
 62
     7
176
     1
 40
1.0
176
     1
 90
        1
176
     1
 90
        6
176
     1
 90
        2
176
     1
 62
     7
176
     1
 90
        5
176
     1
 90
        0
176
     1
 90
        0
176
     1
290
     0
176
     1
 90
       13
176
     1
 40
0.0
176
     1
 90
        0
176
     1
290
     0
176
     1
290
     1
176
     1
290
     1
176
     1
290
     0
176
     1
290
     0
176
     1
290
     0
176
     1
290
     0
176
     1
290
     0
176
     1
290
     0
176
     1
 90
       50
176
     1
 40
0.0
176
     1
 40
1.0
176
     1
 90
        0
176
     1
 62
    18
420
        0
176
     1
 90
       50
176
     1
 90
        3
176
     1
 62
     5
420
      255
176
     1
290
     0
176
     1
 90
       50
176
     1
 90
       50
176
     1
 90
       50
176
     1
290
     0
176
     1
 90
       50
176
     1
 62
   256
176
     0
 40
1.0
176
     0
 90
        2
176
     1
  1
strokes_ogs.tif
176
     1
290
     0
176
     1
 40
1.0
176
     1
 40
1.0
176
     1
  0
VISUALSTYLE
  5
2C
102
{ACAD_REACTORS
330
2A
102
}
330
2A
100
AcDbVisualStyle
  2
FlatWithEdges
 70
     1
177
     3
291
     1
 70
    58
 90
        2
176
     1
 90
        1
176
     1
 90
        1
176
     1
 90
        2
176
     1
 40
0.6
176
     1
 40
30.0
176
     1
 62
     7
420
 16777215
176
     1
 90
        1
176
     1
 90
        0
176
     1
 62
     7
176
     1
 62
   257
176
     1
 90
        1
176
     1
 90
        1
176
     1
 40
1.0
176
     1
 90
        0
176
     1
 62
   257
176
     1
 40
1.0
176
     1
 90
        1
176
     1
 90
        6
176
     1
 90
        2
176
     1
 62
     7
176
     1
 90
        5
176
     1
 90
        0
176
     1
 90
        0
176
     1
290
     0
176
     1
 90
       13
176
     1
 40
0.0
176
     1
 90
        0
176
     1
290
     0
176
     1
290
     1
176
     1
290
     1
176
     1
290
     0
176
     1
290
     0
176
     1
290
     0
176
     1
290
     0
176
     1
290
     0
176
     1
290
     0
176
     1
 90
       50
176
     1
 40
0.0
176
     1
 40
1.0
176
     1
 90
        0
176
     1
 62
    18
420
        0
176
     1
 90
       50
176
     1
 90
        3
176
     1
 62
     5
420
      255
176
     1
290
     0
176
     1
 90
       50
176
     1
 90
       50
176
     1
 90
       50
176
     1
290
     0
176
     1
 90
       50
176
     1
 62
   256
176
     0
 40
1.0
176
     0
 90
        2
176
     1
  1
strokes_ogs.tif
176
     1
290
     0
176
     1
 40
1.0
176
     1
 40
1.0
176
     1
  0
VISUALSTYLE
  5
2D
102
{ACAD_REACTORS
330
2A
102
}
330
2A
100
AcDbVisualStyle
  2
Gouraud
 70
     2
177
     3
291
     1
 70
    58
 90
        2
176
     1
 90
        2
176
     1
 90
        1
176
     1
 90
        2
176
     1
 40
0.6
176
     1
 40
30.0
176
     1
 62
     7
420
 16777215
176
     1
 90
        0
176
     1
 90
        0
176
     1
 62
     7
176
     1
 62
   257
176
     1
 90
        1
176
     1
 90
        1
176
     1
 40
1.0
176
     1
 90
        0
176
     1
 62
     7
176
     1
 40
1.0
176
     1
 90
        1
176
     1
 90
        6
176
     1
 90
        2
176
     1
 62
     7
176
     1
 90
        5
176
     1
 90
        0
176
     1
 90
        0
176
     1
290
     0
176
     1
 90
       13
176
     1
 40
0.0
176
     1
 90
        0
176
     1
290
     0
176
     1
290
     1
176
     1
290
     1
176
     1
290
     0
176
     1
290
     0
176
     1
290
     0
176
     1
290
     0
176
     1
290
     0
176
     1
290
     0
176
     1
 90
       50
176
     1
 40
0.0
176
     1
 40
1.0
176
     1
 90
        0
176
     1
 62
    18
420
        0
176
     1
 90
       50
176
     1
 90
        3
176
     1
 62
     5
420
      255
176
     1
290
     0
176
     1
 90
       50
176
     1
 90
       50
176
     1
 90
       50
176
     1
290
     0
176
     1
 90
       50
176
     1
 62
   256
176
     0
 40
1.0
176
     0
 90
        2
176
     1
  1
strokes_ogs.tif
176
     1
290
     0
176
     1
 40
1.0
176
     1
 40
1.0
176
     1
  0
VISUALSTYLE
  5
2E
102
{ACAD_REACTORS
330
2A
102
}
330
2A
100
AcDbVisualStyle
  2
GouraudWithEdges
 70
     3
177
     3
291
     1
 70
    58
 90
        2
176
     1
 90
        2
176
     1
 90
        1
176
     1
 90
        2
176
     1
 40
0.6
176
     1
 40
30.0
176
     1
 62
     7
420
 16777215
176
     1
 90
        1
176
     1
 90
        0
176
     1
 62
     7
176
     1
 62
   257
176
     1
 90
        1
176
     1
 90
        1
176
     1
 40
1.0
176
     1
 90
        0
176
     1
 62
   257
176
     1
 40
1.0
176
     1
 90
        1
176
     1
 90
        6
176
     1
 90
        2
176
     1
 62
     7
176
     1
 90
        5
176
     1
 90
        0
176
     1
 90
        0
176
     1
290
     0
176
     1
 90
       13
176
     1
 40
0.0
176
     1
 90
        0
176
     1
290
     0
176
     1
290
     1
176
     1
290
     1
176
     1
290
     0
176
     1
290
     0
176
     1
290
     0
176
     1
290
     0
176
     1
290
     0
176
     1
290
     0
176
     1
 90
       50
176
     1
 40
0.0
176
     1
 40
1.0
176
     1
 90
        0
176
     1
 62
    18
420
        0
176
     1
 90
       50
176
     1
 90
        3
176
     1
 62
     5
420
      255
176
     1
290
     0
176
     1
 90
       50
176
     1
 90
       50
176
     1
 90
       50
176
     1
290
     0
176
     1
 90
       50
176
     1
 62
   256
176
     0
 40
1.0
176
     0
 90
        2
176
     1
  1
strokes_ogs.tif
176
     1
290
     0
176
     1
 40
1.0
176
     1
 40
1.0
176
     1
  0
VISUALSTYLE
  5
31
102
{ACAD_REACTORS
330
2A
102
}
330
2A
100
AcDbVisualStyle
  2
Hidden
 70
     6
177
     3
291
     0
 70
    58
 90
        1
176
     1
 90
        2
176
     1
 90
        2
176
     1
 90
        0
176
     1
 40
0.6
176
     1
 40
30.0
176
     1
 62
     7
420
 16777215
176
     1
 90
        2
176
     1
 90
        2
176
     1
 62
     7
176
     1
 62
   257
176
     1
 90
        2
176
     1
 90
        1
176
     1
 40
40.0
176
     1
 90
        0
176
     1
 62
   257
176
     1
 40
1.0
176
     1
 90
        1
176
     1
 90
        6
176
     1
 90
        2
176
     1
 62
     7
176
     1
 90
        3
176
     1
 90
        0
176
     1
 90
        0
176
     1
290
     0
176
     1
 90
        1
176
     1
 40
0.0
176
     1
 90
        0
176
     1
290
     0
176
     1
290
     1
176
     1
290
     1
176
     1
290
     0
176
     1
290
     0
176
     1
290
     0
176
     1
290
     0
176
     1
290
     0
176
     1
290
     0
176
     1
 90
       50
176
     1
 40
0.0
176
     1
 40
1.0
176
     1
 90
        0
176
     1
 62
    18
420
        0
176
     1
 90
       50
176
     1
 90
        3
176
     1
 62
     5
420
      255
176
     1
290
     0
176
     1
 90
       50
176
     1
 90
       50
176
     1
 90
       50
176
     1
290
     0
176
     1
 90
       50
176
     1
 62
   256
176
     0
 40
1.0
176
     0
 90
        2
176
     1
  1
strokes_ogs.tif
176
     1
290
     0
176
     1
 40
1.0
176
     1
 40
1.0
176
     1
  0
VISUALSTYLE
  5
3B
102
{ACAD_REACTORS
330
2A
102
}
330
2A
100
AcDbVisualStyle
  2
JitterOff
 70
    20
177
     3
291
     1
 70
    58
 90
        2
176
     0
 90
        2
176
     0
 90
        0
176
     0
 90
        0
176
     0
 40
0.6
176
     0
 40
30.0
176
     0
 62
     7
420
 16777215
176
     0
 90
        1
176
     0
 90
        4
176
     0
 62
     7
176
     0
 62
   257
176
     0
 90
        1
176
     0
 90
        1
176
     0
 40
1.0
176
     0
 90
       10
176
     2
 62
     7
176
     0
 40
1.0
176
     0
 90
        1
176
     0
 90
        6
176
     0
 90
        2
176
     0
 62
     7
176
     0
 90
        5
176
     0
 90
        0
176
     0
 90
        0
176
     0
290
     0
176
     0
 90
        1
176
     0
 40
0.0
176
     0
 90
        0
176
     0
290
     0
176
     0
290
     1
176
     0
290
     1
176
     0
290
     0
176
     0
290
     0
176
     0
290
     0
176
     0
290
     0
176
     0
290
     0
176
     0
290
     0
176
     0
 90
       50
176
     0
 40
0.0
176
     0
 40
1.0
176
     0
 90
        0
176
     0
 62
    18
420
        0
176
     0
 90
       50
176
     0
 90
        3
176
     0
 62
     5
420
      255
176
     0
290
     0
176
     0
 90
       50
176
     0
 90
       50
176
     0
 90
       50
176
     0
290
     0
176
     0
 90
       50
176
     0
 62
   256
176
     0
 40
1.0
176
     0
 90
        2
176
     0
  1
strokes_ogs.tif
176
     0
290
     0
176
     0
 40
1.0
176
     0
 40
1.0
176
     0
  0
VISUALSTYLE
  5
38
102
{ACAD_REACTORS
330
2A
102
}
330
2A
100
AcDbVisualStyle
  2
Linepattern
 70
    14
177
     3
291
     1
 70
    58
 90
        2
176
     1
 90
        2
176
     1
 90
        0
176
     1
 90
        0
176
     1
 40
0.6
176
     1
 40
30.0
176
     1
 62
     7
420
 16777215
176
     1
 90
        1
176
     1
 90
        4
176
     1
 62
     7
176
     1
 62
   257
176
     1
 90
        7
176
     1
 90
        7
176
     1
 40
1.0
176
     1
 90
        8
176
     1
 62
     7
176
     1
 40
1.0
176
     1
 90
        1
176
     1
 90
        6
176
     1
 90
        2
176
     1
 62
     7
176
     1
 90
        5
176
     1
 90
        0
176
     1
 90
        0
176
     1
290
     0
176
     1
 90
        1
176
     1
 40
0.0
176
     1
 90
        0
176
     1
290
     0
176
     1
290
     1
176
     1
290
     1
176
     1
290
     0
176
     1
290
     0
176
     1
290
     0
176
     1
290
     0
176
     1
290
     0
176
     1
290
     0
176
     1
 90
       50
176
     1
 40
0.0
176
     1
 40
1.0
176
     1
 90
        0
176
     1
 62
    18
420
        0
176
     1
 90
       50
176
     1
 90
        3
176
     1
 62
     5
420
      255
176
     1
290
     0
176
     1
 90
       50
176
     1
 90
       50
176
     1
 90
       50
176
     1
290
     0
176
     1
 90
       50
176
     1
 62
   256
176
     0
 40
1.0
176
     0
 90
        2
176
     1
  1
strokes_ogs.tif
176
     1
290
     0
176
     1
 40
1.0
176
     1
 40
1.0
176
     1
  0
VISUALSTYLE
  5
3C
102
{ACAD_REACTORS
330
2A
102
}
330
2A
100
AcDbVisualStyle
  2
OverhangOff
 70
    21
177
     3
291
     1
 70
    58
 90
        2
176
     0
 90
        2
176
     0
 90
        0
176
     0
 90
        0
176
     0
 40
0.6
176
     0
 40
30.0
176
     0
 62
     7
420
 16777215
176
     0
 90
        1
176
     0
 90
        4
176
     0
 62
     7
176
     0
 62
   257
176
     0
 90
        1
176
     0
 90
        1
176
     0
 40
1.0
176
     0
 90
        9
176
     2
 62
     7
176
     0
 40
1.0
176
     0
 90
        1
176
     0
 90
        6
176
     0
 90
        2
176
     0
 62
     7
176
     0
 90
        5
176
     0
 90
        0
176
     0
 90
        0
176
     0
290
     0
176
     0
 90
        1
176
     0
 40
0.0
176
     0
 90
        0
176
     0
290
     0
176
     0
290
     1
176
     0
290
     1
176
     0
290
     0
176
     0
290
     0
176
     0
290
     0
176
     0
290
     0
176
     0
290
     0
176
     0
290
     0
176
     0
 90
       50
176
     0
 40
0.0
176
     0
 40
1.0
176
     0
 90
        0
176
     0
 62
    18
420
        0
176
     0
 90
       50
176
     0
 90
        3
176
     0
 62
     5
420
      255
176
     0
290
     0
176
     0
 90
       50
176
     0
 90
       50
176
     0
 90
       50
176
     0
290
     0
176
     0
 90
       50
176
     0
 62
   256
176
     0
 40
1.0
176
     0
 90
        2
176
     0
  1
strokes_ogs.tif
176
     0
290
     0
176
     0
 40
1.0
176
     0
 40
1.0
176
     0
  0
VISUALSTYLE
  5
33
102
{ACAD_REACTORS
330
2A
102
}
330
2A
100
AcDbVisualStyle
  2
Realistic
 70
     8
177
     3
291
     0
 70
    58
 90
        2
176
     1
 90
        3
176
     1
 90
        0
176
     1
 90
        2
176
     1
 40
0.6
176
     1
 40
30.0
176
     1
 62
     7
420
 16777215
176
     1
 90
        0
176
     1
 90
        0
176
     1
 62
     7
176
     1
 62
   257
176
     1
 90
        1
176
     1
 90
        1
176
     1
 40
1.0
176
     1
 90
        8
176
     1
 62
   257
176
     1
 40
1.0
176
     1
 90
        1
176
     1
 90
        6
176
     1
 90
        2
176
     1
 62
     7
176
     1
 90
        3
176
     1
 90
        0
176
     1
 90
        0
176
     1
290
     0
176
     1
 90
       13
176
     1
 40
0.0
176
     1
 90
        0
176
     1
290
     0
176
     1
290
     1
176
     1
290
     1
176
     1
290
     0
176
     1
290
     0
176
     1
290
     0
176
     1
290
     0
176
     1
290
     0
176
     1
290
     0
176
     1
 90
       50
176
     1
 40
0.0
176
     1
 40
1.0
176
     1
 90
        0
176
     1
 62
    18
420
        0
176
     1
 90
       50
176
     1
 90
        3
176
     1
 62
     5
420
      255
176
     1
290
     0
176
     1
 90
       50
176
     1
 90
       50
176
     1
 90
       50
176
     1
290
     0
176
     1
 90
       50
176
     1
 62
   256
176
     0
 40
1.0
176
     0
 90
        2
176
     1
  1
strokes_ogs.tif
176
     1
290
     0
176
     1
 40
1.0
176
     1
 40
1.0
176
     1
  0
VISUALSTYLE
  5
42
102
{ACAD_REACTORS
330
2A
102
}
330
2A
100
AcDbVisualStyle
  2
Shaded
 70
    27
177
     3
291
     0
 70
    58
 90
        2
176
     1
 90
        2
176
     1
 90
        1
176
     1
 90
        2
176
     1
 40
0.6
176
     1
 40
30.0
176
     1
 62
     7
420
 16777215
176
     1
 90
        0
176
     1
 90
        4
176
     1
 62
     7
176
     1
 62
   257
176
     1
 90
        1
176
     1
 90
        1
176
     1
 40
1.0
176
     1
 90
        8
176
     1
 62
   257
176
     1
 40
1.0
176
     1
 90
        1
176
     1
 90
        6
176
     1
 90
        2
176
     1
 62
     8
420
  7895160
176
     1
 90
        3
176
     1
 90
        0
176
     1
 90
        0
176
     1
290
     0
176
     1
 90
        5
176
     1
 40
0.0
176
     1
 90
        0
176
     1
290
     0
176
     1
290
     1
176
     1
290
     1
176
     1
290
     0
176
     1
290
     0
176
     1
290
     0
176
     1
290
     0
176
     1
290
     0
176
     1
290
     0
176
     1
 90
       50
176
     1
 40
0.0
176
     1
 40
1.0
176
     1
 90
        0
176
     1
 62
    18
420
        0
176
     1
 90
       50
176
     1
 90
        3
176
     1
 62
     5
420
      255
176
     1
290
     0
176
     1
 90
       50
176
     1
 90
       50
176
     1
 90
       50
176
     1
290
     0
176
     1
 90
       50
176
     1
 62
   256
176
     0
 40
1.0
176
     0
 90
        2
176
     1
  1
strokes_ogs.tif
176
     1
290
     0
176
     1
 40
1.0
176
     1
 40
1.0
176
     1
  0
VISUALSTYLE
  5
41
102
{ACAD_REACTORS
330
2A
102
}
330
2A
100
AcDbVisualStyle
  2
Shaded with edges
 70
    26
177
     3
291
     0
 70
    58
 90
        2
176
     1
 90
        2
176
     1
 90
        1
176
     1
 90
        2
176
     1
 40
0.6
176
     1
 40
30.0
176
     1
 62
     7
420
 16777215
176
     1
 90
        1
176
     1
 90
       10
176
     1
 62
     7
176
     1
 62
   257
176
     1
 90
        2
176
     1
 90
        1
176
     1
 40
1.0
176
     1
 90
        8
176
     1
 62
   257
176
     1
 40
1.0
176
     1
 90
        1
176
     1
 90
        6
176
     1
 90
        2
176
     1
 62
     7
176
     1
 90
        3
176
     1
 90
        0
176
     1
 90
        0
176
     1
290
     0
176
     1
 90
        5
176
     1
 40
0.0
176
     1
 90
        0
176
     1
290
     0
176
     1
290
     1
176
     1
290
     1
176
     1
290
     0
176
     1
290
     0
176
     1
290
     0
176
     1
290
     0
176
     1
290
     0
176
     1
290
     0
176
     1
 90
       50
176
     1
 40
0.0
176
     1
 40
1.0
176
     1
 90
        0
176
     1
 62
    18
420
        0
176
     1
 90
       50
176
     1
 90
        3
176
     1
 62
     5
420
      255
176
     1
290
     0
176
     1
 90
       50
176
     1
 90
       50
176
     1
 90
       50
176
     1
290
     0
176
     1
 90
       50
176
     1
 62
   256
176
     0
 40
1.0
176
     0
 90
        2
176
     1
  1
strokes_ogs.tif
176
     1
290
     0
176
     1
 40
1.0
176
     1
 40
1.0
176
     1
  0
VISUALSTYLE
  5
3E
102
{ACAD_REACTORS
330
2A
102
}
330
2A
100
AcDbVisualStyle
  2
Shades of Gray
 70
    23
177
     3
291
     0
 70
    58
 90
        2
176
     1
 90
        2
176
     1
 90
        3
176
     1
 90
        0
176
     1
 40
0.6
176
     1
 40
30.0
176
     1
 62
     7
420
 16777215
176
     1
 90
        2
176
     1
 90
        2
176
     1
 62
     7
176
     1
 62
     7
176
     1
 90
        1
176
     1
 90
        1
176
     1
 40
40.0
176
     1
 90
        8
176
     1
 62
     7
176
     1
 40
1.0
176
     1
 90
        1
176
     1
 90
        6
176
     1
 90
        2
176
     1
 62
     7
176
     1
 90
        3
176
     1
 90
        0
176
     1
 90
        0
176
     1
290
     0
176
     1
 90
        1
176
     1
 40
0.0
176
     1
 90
        0
176
     1
290
     0
176
     1
290
     1
176
     1
290
     1
176
     1
290
     0
176
     1
290
     0
176
     1
290
     0
176
     1
290
     0
176
     1
290
     0
176
     1
290
     0
176
     1
 90
       50
176
     1
 40
0.0
176
     1
 40
1.0
176
     1
 90
        0
176
     1
 62
    18
420
        0
176
     1
 90
       50
176
     1
 90
        3
176
     1
 62
     5
420
      255
176
     1
290
     0
176
     1
 90
       50
176
     1
 90
       50
176
     1
 90
       50
176
     1
290
     0
176
     1
 90
       50
176
     1
 62
   256
176
     0
 40
1.0
176
     0
 90
        2
176
     1
  1
strokes_ogs.tif
176
     1
290
     0
176
     1
 40
1.0
176
     1
 40
1.0
176
     1
  0
VISUALSTYLE
  5
3F
102
{ACAD_REACTORS
330
2A
102
}
330
2A
100
AcDbVisualStyle
  2
Sketchy
 70
    24
177
     3
291
     0
 70
    58
 90
        1
176
     1
 90
        2
176
     1
 90
        2
176
     1
 90
        0
176
     1
 40
0.6
176
     1
 40
30.0
176
     1
 62
     7
420
 16777215
176
     1
 90
        2
176
     1
 90
        2
176
     1
 62
     7
176
     1
 62
     7
176
     1
 90
        1
176
     1
 90
        1
176
     1
 40
40.0
176
     1
 90
       11
176
     1
 62
     7
176
     1
 40
1.0
176
     1
 90
        1
176
     1
 90
        6
176
     1
 90
        2
176
     1
 62
     7
176
     1
 90
        6
176
     1
 90
        0
176
     1
 90
        0
176
     1
290
     0
176
     1
 90
        1
176
     1
 40
0.0
176
     1
 90
        0
176
     1
290
     0
176
     1
290
     1
176
     1
290
     1
176
     1
290
     0
176
     1
290
     0
176
     1
290
     0
176
     1
290
     0
176
     1
290
     0
176
     1
290
     0
176
     1
 90
       50
176
     1
 40
0.0
176
     1
 40
1.0
176
     1
 90
        0
176
     1
 62
    18
420
        0
176
     1
 90
       50
176
     1
 90
        3
176
     1
 62
     5
420
      255
176
     1
290
     0
176
     1
 90
       50
176
     1
 90
       50
176
     1
 90
       50
176
     1
290
     0
176
     1
 90
       50
176
     1
 62
   256
176
     0
 40
1.0
176
     0
 90
        2
176
     1
  1
strokes_ogs.tif
176
     1
290
     0
176
     1
 40
1.0
176
     1
 40
1.0
176
     1
  0
VISUALSTYLE
  5
37
102
{ACAD_REACTORS
330
2A
102
}
330
2A
100
AcDbVisualStyle
  2
Thicken
 70
    13
177
     3
291
     1
 70
    58
 90
        2
176
     1
 90
        2
176
     1
 90
        0
176
     1
 90
        0
176
     1
 40
0.6
176
     1
 40
30.0
176
     1
 62
     7
420
 16777215
176
     1
 90
        1
176
     1
 90
        4
176
     1
 62
     7
176
     1
 62
   257
176
     1
 90
        1
176
     1
 90
        1
176
     1
 40
1.0
176
     1
 90
       12
176
     1
 62
     7
176
     1
 40
1.0
176
     1
 90
        1
176
     1
 90
        6
176
     1
 90
        2
176
     1
 62
     7
176
     1
 90
        5
176
     1
 90
        0
176
     1
 90
        0
176
     1
290
     0
176
     1
 90
        1
176
     1
 40
0.0
176
     1
 90
        0
176
     1
290
     0
176
     1
290
     1
176
     1
290
     1
176
     1
290
     0
176
     1
290
     0
176
     1
290
     0
176
     1
290
     0
176
     1
290
     0
176
     1
290
     0
176
     1
 90
       50
176
     1
 40
0.0
176
     1
 40
1.0
176
     1
 90
        0
176
     1
 62
    18
420
        0
176
     1
 90
       50
176
     1
 90
        3
176
     1
 62
     5
420
      255
176
     1
290
     0
176
     1
 90
       50
176
     1
 90
       50
176
     1
 90
       50
176
     1
290
     0
176
     1
 90
       50
176
     1
 62
   256
176
     0
 40
1.0
176
     0
 90
        2
176
     1
  1
strokes_ogs.tif
176
     1
290
     0
176
     1
 40
1.0
176
     1
 40
1.0
176
     1
  0
VISUALSTYLE
  5
30
102
{ACAD_REACTORS
330
2A
102
}
330
2A
100
AcDbVisualStyle
  2
Wireframe
 70
     5
177
     3
291
     0
 70
    58
 90
        0
176
     1
 90
        2
176
     1
 90
        0
176
     1
 90
        0
176
     1
 40
0.6
176
     1
 40
30.0
176
     1
 62
     7
420
 16777215
176
     1
 90
        1
176
     1
 90
        4
176
     1
 62
     7
176
     1
 62
   257
176
     1
 90
        1
176
     1
 90
        1
176
     1
 40
1.0
176
     1
 90
        0
176
     1
 62
   257
176
     1
 40
1.0
176
     1
 90
        1
176
     1
 90
        6
176
     1
 90
        2
176
     1
 62
     7
176
     1
 90
        3
176
     1
 90
        0
176
     1
 90
        0
176
     1
290
     0
176
     1
 90
        1
176
     1
 40
0.0
176
     1
 90
        0
176
     1
290
     0
176
     1
290
     1
176
     1
290
     1
176
     1
290
     0
176
     1
290
     0
176
     1
290
     0
176
     1
290
     0
176
     1
290
     0
176
     1
290
     0
176
     1
 90
       50
176
     1
 40
0.0
176
     1
 40
1.0
176
     1
 90
        0
176
     1
 62
    18
420
        0
176
     1
 90
       50
176
     1
 90
        3
176
     1
 62
     5
420
      255
176
     1
290
     0
176
     1
 90
       50
176
     1
 90
       50
176
     1
 90
       50
176
     1
290
     0
176
     1
 90
       50
176
     1
 62
   256
176
     0
 40
1.0
176
     0
 90
        2
176
     1
  1
strokes_ogs.tif
176
     1
290
     0
176
     1
 40
1.0
176
     1
 40
1.0
176
     1
  0
VISUALSTYLE
  5
40
102
{ACAD_REACTORS
330
2A
102
}
330
2A
100
AcDbVisualStyle
  2
X-Ray
 70
    25
177
     3
291
     0
 70
    58
 90
        2
176
     1
 90
        2
176
     1
 90
        1
176
     1
 90
        1
176
     1
 40
0.5
176
     1
 40
30.0
176
     1
 62
     7
420
 16777215
176
     1
 90
        1
176
     1
 90
        0
176
     1
 62
     7
176
     1
 62
   257
176
     1
 90
        1
176
     1
 90
        1
176
     1
 40
1.0
176
     1
 90
        8
176
     1
 62
     7
176
     1
 40
1.0
176
     1
 90
        1
176
     1
 90
        6
176
     1
 90
        2
176
     1
 62
     7
176
     1
 90
        3
176
     1
 90
        0
176
     1
 90
        0
176
     1
290
     0
176
     1
 90
       13
176
     1
 40
0.0
176
     1
 90
        0
176
     1
290
     0
176
     1
290
     1
176
     1
290
     1
176
     1
290
     0
176
     1
290
     0
176
     1
290
     0
176
     1
290
     0
176
     1
290
     0
176
     1
290
     0
176
     1
 90
       50
176
     1
 40
0.0
176
     1
 40
1.0
176
     1
 90
        0
176
     1
 62
    18
420
        0
176
     1
 90
       50
176
     1
 90
        3
176
     1
 62
     5
420
      255
176
     1
290
     0
176
     1
 90
       50
176
     1
 90
       50
176
     1
 90
       50
176
     1
290
     0
176
     1
 90
       50
176
     1
 62
   256
176
     0
 40
1.0
176
     0
 90
        2
176
     1
  1
strokes_ogs.tif
176
     1
290
     0
176
     1
 40
1.0
176
     1
 40
1.0
176
     1
  0
DICTIONARYVAR
  5
8B
102
{ACAD_REACTORS
330
8A
102
}
330
8A
100
DictionaryVariables
280
     0
  1
1:1
  0
DICTIONARYVAR
  5
90
102
{ACAD_REACTORS
330
8A
102
}
330
8A
100
DictionaryVariables
280
     0
  1
Standard
  0
DICTIONARYVAR
  5
8F
102
{ACAD_REACTORS
330
8A
102
}
330
8A
100
DictionaryVariables
280
     0
  1
Standard
  0
DICTIONARY
  5
8C
330
5A
100
AcDbDictionary
280
     1
281
     1
  3
ACAD_ROUNDTRIP_2008_TABLESTYLE_CELLSTYLEMAP
360
8D
  0
CELLSTYLEMAP
  5
8D
102
{ACAD_REACTORS
330
8C
102
}
330
8C
100
AcDbCellStyleMap
 90
        3
300
CELLSTYLE
  1
TABLEFORMAT_BEGIN
 90
        5
170
     1
 91
        0
 92
    32768
 62
   257
 93
        1
300
CONTENTFORMAT
  1
CONTENTFORMAT_BEGIN
 90
        0
 91
        0
 92
        4
 93
        0
300

 40
0.0
140
1.0
 94
        5
 62
     0
340
11
144
0.25
309
CONTENTFORMAT_END
171
     1
301
MARGIN
  1
CELLMARGIN_BEGIN
 40
0.06
 40
0.06
 40
0.06
 40
0.06
 40
0.06
 40
0.06
309
CELLMARGIN_END
 94
        6
 95
        1
302
GRIDFORMAT
  1
GRIDFORMAT_BEGIN
 90
        0
 91
        1
 62
     0
 92
       -2
340
14
 93
        0
 40
0.045
309
GRIDFORMAT_END
 95
        2
302
GRIDFORMAT
  1
GRIDFORMAT_BEGIN
 90
        0
 91
        1
 62
     0
 92
       -2
340
14
 93
        0
 40
0.045
309
GRIDFORMAT_END
 95
        4
302
GRIDFORMAT
  1
GRIDFORMAT_BEGIN
 90
        0
 91
        1
 62
     0
 92
       -2
340
14
 93
        0
 40
0.045
309
GRIDFORMAT_END
 95
        8
302
GRIDFORMAT
  1
GRIDFORMAT_BEGIN
 90
        0
 91
        1
 62
     0
 92
       -2
340
14
 93
        0
 40
0.045
309
GRIDFORMAT_END
 95
       16
302
GRIDFORMAT
  1
GRIDFORMAT_BEGIN
 90
        0
 91
        1
 62
     0
 92
       -2
340
14
 93
        0
 40
0.045
309
GRIDFORMAT_END
 95
       32
302
GRIDFORMAT
  1
GRIDFORMAT_BEGIN
 90
        0
 91
        1
 62
     0
 92
       -2
340
14
 93
        0
 40
0.045
309
GRIDFORMAT_END
309
TABLEFORMAT_END
  1
CELLSTYLE_BEGIN
 90
        1
 91
        1
300
_TITLE
309
CELLSTYLE_END
300
CELLSTYLE
  1
TABLEFORMAT_BEGIN
 90
        5
170
     1
 91
        0
 92
        0
 62
   257
 93
        1
300
CONTENTFORMAT
  1
CONTENTFORMAT_BEGIN
 90
        0
 91
        0
 92
        4
 93
        0
300

 40
0.0
140
1.0
 94
        5
 62
     0
340
11
144
0.18
309
CONTENTFORMAT_END
171
     1
301
MARGIN
  1
CELLMARGIN_BEGIN
 40
0.06
 40
0.06
 40
0.06
 40
0.06
 40
0.06
 40
0.06
309
CELLMARGIN_END
 94
        6
 95
        1
302
GRIDFORMAT
  1
GRIDFORMAT_BEGIN
 90
        0
 91
        1
 62
     0
 92
       -2
340
14
 93
        0
 40
0.045
309
GRIDFORMAT_END
 95
        2
302
GRIDFORMAT
  1
GRIDFORMAT_BEGIN
 90
        0
 91
        1
 62
     0
 92
       -2
340
14
 93
        0
 40
0.045
309
GRIDFORMAT_END
 95
        4
302
GRIDFORMAT
  1
GRIDFORMAT_BEGIN
 90
        0
 91
        1
 62
     0
 92
       -2
340
14
 93
        0
 40
0.045
309
GRIDFORMAT_END
 95
        8
302
GRIDFORMAT
  1
GRIDFORMAT_BEGIN
 90
        0
 91
        1
 62
     0
 92
       -2
340
14
 93
        0
 40
0.045
309
GRIDFORMAT_END
 95
       16
302
GRIDFORMAT
  1
GRIDFORMAT_BEGIN
 90
        0
 91
        1
 62
     0
 92
       -2
340
14
 93
        0
 40
0.045
309
GRIDFORMAT_END
 95
       32
302
GRIDFORMAT
  1
GRIDFORMAT_BEGIN
 90
        0
 91
        1
 62
     0
 92
       -2
340
14
 93
        0
 40
0.045
309
GRIDFORMAT_END
309
TABLEFORMAT_END
  1
CELLSTYLE_BEGIN
 90
        2
 91
        1
300
_HEADER
309
CELLSTYLE_END
300
CELLSTYLE
  1
TABLEFORMAT_BEGIN
 90
        5
170
     1
 91
        0
 92
        0
 62
   257
 93
        1
300
CONTENTFORMAT
  1
CONTENTFORMAT_BEGIN
 90
        0
 91
        0
 92
        4
 93
        0
300

 40
0.0
140
1.0
 94
        2
 62
     0
340
11
144
0.18
309
CONTENTFORMAT_END
171
     1
301
MARGIN
  1
CELLMARGIN_BEGIN
 40
0.06
 40
0.06
 40
0.06
 40
0.06
 40
0.06
 40
0.06
309
CELLMARGIN_END
 94
        6
 95
        1
302
GRIDFORMAT
  1
GRIDFORMAT_BEGIN
 90
        0
 91
        1
 62
     0
 92
       -2
340
14
 93
        0
 40
0.045
309
GRIDFORMAT_END
 95
        2
302
GRIDFORMAT
  1
GRIDFORMAT_BEGIN
 90
        0
 91
        1
 62
     0
 92
       -2
340
14
 93
        0
 40
0.045
309
GRIDFORMAT_END
 95
        4
302
GRIDFORMAT
  1
GRIDFORMAT_BEGIN
 90
        0
 91
        1
 62
     0
 92
       -2
340
14
 93
        0
 40
0.045
309
GRIDFORMAT_END
 95
        8
302
GRIDFORMAT
  1
GRIDFORMAT_BEGIN
 90
        0
 91
        1
 62
     0
 92
       -2
340
14
 93
        0
 40
0.045
309
GRIDFORMAT_END
 95
       16
302
GRIDFORMAT
  1
GRIDFORMAT_BEGIN
 90
        0
 91
        1
 62
     0
 92
       -2
340
14
 93
        0
 40
0.045
309
GRIDFORMAT_END
 95
       32
302
GRIDFORMAT
  1
GRIDFORMAT_BEGIN
 90
        0
 91
        1
 62
     0
 92
       -2
340
14
 93
        0
 40
0.045
309
GRIDFORMAT_END
309
TABLEFORMAT_END
  1
CELLSTYLE_BEGIN
 90
        3
 91
        2
300
_DATA
309
CELLSTYLE_END
  0
ENDSEC
  0
EOF
