  0
SECTION
  2
HEADER
  9
$ACADVER
  1
AC1027
  9
$ACADMAINTVER
 70
   105
  9
$DWGCODEPAGE
  3
ANSI_1252
  9
$LASTSAVEDBY
  1
Office Desk
  9
$REQUIREDVERSIONS
160
                 0
  9
$INSBASE
 10
0.0
 20
0.0
 30
0.0
  9
$EXTMIN
 10
5.430429133858268
 20
-10.53083858267717
 30
0.0
  9
$EXTMAX
 10
11.35196850393701
 20
-3.414700787401575
 30
0.0
  9
$LIMMIN
 10
0.0
 20
0.0
  9
$LIMMAX
 10
12.0
 20
9.0
  9
$ORTHOMODE
 70
     0
  9
$REGENMODE
 70
     1
  9
$FILLMODE
 70
     1
  9
$QTEXTMODE
 70
     0
  9
$MIRRTEXT
 70
     1
  9
$LTSCALE
 40
1.0
  9
$ATTMODE
 70
     1
  9
$TEXTSIZE
 40
0.2
  9
$TRACEWID
 40
0.05
  9
$TEXTSTYLE
  7
Standard
  9
$CLAYER
  8
0
  9
$CELTYPE
  6
ByLayer
  9
$CECOLOR
 62
   256
  9
$CELTSCALE
 40
1.0
  9
$DISPSILH
 70
     0
  9
$DIMSCALE
 40
1.0
  9
$DIMASZ
 40
0.18
  9
$DIMEXO
 40
0.0625
  9
$DIMDLI
 40
0.38
  9
$DIMRND
 40
0.0
  9
$DIMDLE
 40
0.0
  9
$DIMEXE
 40
0.18
  9
$DIMTP
 40
0.0
  9
$DIMTM
 40
0.0
  9
$DIMTXT
 40
0.18
  9
$DIMCEN
 40
0.09
  9
$DIMTSZ
 40
0.0
  9
$DIMTOL
 70
     0
  9
$DIMLIM
 70
     0
  9
$DIMTIH
 70
     1
  9
$DIMTOH
 70
     1
  9
$DIMSE1
 70
     0
  9
$DIMSE2
 70
     0
  9
$DIMTAD
 70
     0
  9
$DIMZIN
 70
     0
  9
$DIMBLK
  1

  9
$DIMASO
 70
     1
  9
$DIMSHO
 70
     1
  9
$DIMPOST
  1

  9
$DIMAPOST
  1

  9
$DIMALT
 70
     0
  9
$DIMALTD
 70
     2
  9
$DIMALTF
 40
25.4
  9
$DIMLFAC
 40
1.0
  9
$DIMTOFL
 70
     0
  9
$DIMTVP
 40
0.0
  9
$DIMTIX
 70
     0
  9
$DIMSOXD
 70
     0
  9
$DIMSAH
 70
     0
  9
$DIMBLK1
  1

  9
$DIMBLK2
  1

  9
$DIMSTYLE
  2
Standard
  9
$DIMCLRD
 70
     0
  9
$DIMCLRE
 70
     0
  9
$DIMCLRT
 70
     0
  9
$DIMTFAC
 40
1.0
  9
$DIMGAP
 40
0.09
  9
$DIMJUST
 70
     0
  9
$DIMSD1
 70
     0
  9
$DIMSD2
 70
     0
  9
$DIMTOLJ
 70
     1
  9
$DIMTZIN
 70
     0
  9
$DIMALTZ
 70
     0
  9
$DIMALTTZ
 70
     0
  9
$DIMUPT
 70
     0
  9
$DIMDEC
 70
     4
  9
$DIMTDEC
 70
     4
  9
$DIMALTU
 70
     2
  9
$DIMALTTD
 70
     2
  9
$DIMTXSTY
  7
Standard
  9
$DIMAUNIT
 70
     0
  9
$DIMADEC
 70
     0
  9
$DIMALTRND
 40
0.0
  9
$DIMAZIN
 70
     0
  9
$DIMDSEP
 70
    46
  9
$DIMATFIT
 70
     3
  9
$DIMFRAC
 70
     0
  9
$DIMLDRBLK
  1

  9
$DIMLUNIT
 70
     2
  9
$DIMLWD
 70
    -2
  9
$DIMLWE
 70
    -2
  9
$DIMTMOVE
 70
     0
  9
$DIMFXL
 40
1.0
  9
$DIMFXLON
 70
     0
  9
$DIMJOGANG
 40
0.7853981633974483
  9
$DIMTFILL
 70
     0
  9
$DIMTFILLCLR
 70
     0
  9
$DIMARCSYM
 70
     0
  9
$DIMLTYPE
  6

  9
$DIMLTEX1
  6

  9
$DIMLTEX2
  6

  9
$DIMTXTDIRECTION
 70
     0
  9
$LUNITS
 70
     2
  9
$LUPREC
 70
     4
  9
$SKETCHINC
 40
0.1
  9
$FILLETRAD
 40
0.0
  9
$AUNITS
 70
     0
  9
$AUPREC
 70
     0
  9
$MENU
  1
.
  9
$ELEVATION
 40
0.0
  9
$PELEVATION
 40
0.0
  9
$THICKNESS
 40
0.0
  9
$LIMCHECK
 70
     0
  9
$CHAMFERA
 40
0.0
  9
$CHAMFERB
 40
0.0
  9
$CHAMFERC
 40
0.0
  9
$CHAMFERD
 40
0.0
  9
$SKPOLY
 70
     0
  9
$TDCREATE
 40
2461028.628296539
  9
$TDUCREATE
 40
2461028.399129873
  9
$TDUPDATE
 40
2461028.628296598
  9
$TDUUPDATE
 40
2461028.399129931
  9
$TDINDWG
 40
0.0000000116
  9
$TDUSRTIMER
 40
0.0000000116
  9
$USRTIMER
 70
     1
  9
$ANGBASE
 50
0.0
  9
$ANGDIR
 70
     0
  9
$PDMODE
 70
     0
  9
$PDSIZE
 40
0.0
  9
$PLINEWID
 40
0.0
  9
$SPLFRAME
 70
     0
  9
$SPLINETYPE
 70
     6
  9
$SPLINESEGS
 70
     8
  9
$HANDSEED
  5
8C
  9
$SURFTAB1
 70
     6
  9
$SURFTAB2
 70
     6
  9
$SURFTYPE
 70
     6
  9
$SURFU
 70
     6
  9
$SURFV
 70
     6
  9
$UCSBASE
  2

  9
$UCSNAME
  2

  9
$UCSORG
 10
0.0
 20
0.0
 30
0.0
  9
$UCSXDIR
 10
1.0
 20
0.0
 30
0.0
  9
$UCSYDIR
 10
0.0
 20
1.0
 30
0.0
  9
$UCSORTHOREF
  2

  9
$UCSORTHOVIEW
 70
     0
  9
$UCSORGTOP
 10
0.0
 20
0.0
 30
0.0
  9
$UCSORGBOTTOM
 10
0.0
 20
0.0
 30
0.0
  9
$UCSORGLEFT
 10
0.0
 20
0.0
 30
0.0
  9
$UCSORGRIGHT
 10
0.0
 20
0.0
 30
0.0
  9
$UCSORGFRONT
 10
0.0
 20
0.0
 30
0.0
  9
$UCSORGBACK
 10
0.0
 20
0.0
 30
0.0
  9
$PUCSBASE
  2

  9
$PUCSNAME
  2

  9
$PUCSORG
 10
0.0
 20
0.0
 30
0.0
  9
$PUCSXDIR
 10
1.0
 20
0.0
 30
0.0
  9
$PUCSYDIR
 10
0.0
 20
1.0
 30
0.0
  9
$PUCSORTHOREF
  2

  9
$PUCSORTHOVIEW
 70
     0
  9
$PUCSORGTOP
 10
0.0
 20
0.0
 30
0.0
  9
$PUCSORGBOTTOM
 10
0.0
 20
0.0
 30
0.0
  9
$PUCSORGLEFT
 10
0.0
 20
0.0
 30
0.0
  9
$PUCSORGRIGHT
 10
0.0
 20
0.0
 30
0.0
  9
$PUCSORGFRONT
 10
0.0
 20
0.0
 30
0.0
  9
$PUCSORGBACK
 10
0.0
 20
0.0
 30
0.0
  9
$USERI1
 70
     0
  9
$USERI2
 70
     0
  9
$USERI3
 70
     0
  9
$USERI4
 70
     0
  9
$USERI5
 70
     0
  9
$USERR1
 40
0.0
  9
$USERR2
 40
0.0
  9
$USERR3
 40
0.0
  9
$USERR4
 40
0.0
  9
$USERR5
 40
0.0
  9
$WORLDVIEW
 70
     1
  9
$SHADEDGE
 70
     3
  9
$SHADEDIF
 70
    70
  9
$TILEMODE
 70
     1
  9
$MAXACTVP
 70
    64
  9
$PINSBASE
 10
0.0
 20
0.0
 30
0.0
  9
$PLIMCHECK
 70
     0
  9
$PEXTMIN
 10
1.000000000000000E+20
 20
1.000000000000000E+20
 30
1.000000000000000E+20
  9
$PEXTMAX
 10
-1.000000000000000E+20
 20
-1.000000000000000E+20
 30
-1.000000000000000E+20
  9
$PLIMMIN
 10
0.0
 20
0.0
  9
$PLIMMAX
 10
12.0
 20
9.0
  9
$UNITMODE
 70
     0
  9
$VISRETAIN
 70
     1
  9
$PLINEGEN
 70
     0
  9
$PSLTSCALE
 70
     1
  9
$TREEDEPTH
 70
  3020
  9
$CMLSTYLE
  2
Standard
  9
$CMLJUST
 70
     0
  9
$CMLSCALE
 40
1.0
  9
$PROXYGRAPHICS
 70
     1
  9
$MEASUREMENT
 70
     0
  9
$CELWEIGHT
370
    -1
  9
$ENDCAPS
280
     0
  9
$JOINSTYLE
280
     0
  9
$LWDISPLAY
290
     0
  9
$INSUNITS
 70
     1
  9
$HYPERLINKBASE
  1

  9
$STYLESHEET
  1

  9
$XEDIT
290
     1
  9
$CEPSNTYPE
380
     0
  9
$PSTYLEMODE
290
     1
  9
$FINGERPRINTGUID
  2
{ccbb35d1-078c-48c1-b8cf-349f8320a6c3}
  9
$VERSIONGUID
  2
{FAEB1C32-E019-11D5-929B-00C0DF256EC4}
  9
$EXTNAMES
290
     1
  9
$PSVPSCALE
 40
0.0
  9
$OLESTARTUP
290
     0
  9
$SORTENTS
280
   127
  9
$INDEXCTL
280
     0
  9
$HIDETEXT
280
     1
  9
$XCLIPFRAME
280
     2
  9
$HALOGAP
280
     0
  9
$OBSCOLOR
 70
   257
  9
$OBSLTYPE
280
     0
  9
$INTERSECTIONDISPLAY
280
     0
  9
$INTERSECTIONCOLOR
 70
   257
  9
$DIMASSOC
280
     2
  9
$PROJECTNAME
  1

  9
$CAMERADISPLAY
290
     0
  9
$LENSLENGTH
 40
50.0
  9
$CAMERAHEIGHT
 40
0.0
  9
$STEPSPERSEC
 40
2.0
  9
$STEPSIZE
 40
6.0
  9
$3DDWFPREC
 40
2.0
  9
$PSOLWIDTH
 40
0.25
  9
$PSOLHEIGHT
 40
4.0
  9
$LOFTANG1
 40
1.570796326794897
  9
$LOFTANG2
 40
1.570796326794897
  9
$LOFTMAG1
 40
0.0
  9
$LOFTMAG2
 40
0.0
  9
$LOFTPARAM
 70
     7
  9
$LOFTNORMALS
280
     1
  9
$LATITUDE
 40
37.795
  9
$LONGITUDE
 40
-122.394
  9
$NORTHDIRECTION
 40
0.0
  9
$TIMEZONE
 70
 -8000
  9
$LIGHTGLYPHDISPLAY
280
     1
  9
$TILEMODELIGHTSYNCH
280
     1
  9
$CMATERIAL
347
44
  9
$SOLIDHIST
280
     0
  9
$SHOWHIST
280
     1
  9
$DWFFRAME
280
     2
  9
$DGNFRAME
280
     2
  9
$REALWORLDSCALE
290
     1
  9
$INTERFERECOLOR
 62
   256
  9
$CSHADOW
280
     0
  9
$SHADOWPLANELOCATION
 40
0.0
  0
ENDSEC
  0
SECTION
  2
CLASSES
  0
CLASS
  1
ACDBDICTIONARYWDFLT
  2
AcDbDictionaryWithDefault
  3
ObjectDBX Classes
 90
        0
 91
        3
280
     0
281
     0
  0
CLASS
  1
VISUALSTYLE
  2
AcDbVisualStyle
  3
ObjectDBX Classes
 90
     4095
 91
        3
280
     0
281
     0
  0
CLASS
  1
MATERIAL
  2
AcDbMaterial
  3
ObjectDBX Classes
 90
     1153
 91
        3
280
     0
281
     0
  0
CLASS
  1
SCALE
  2
AcDbScale
  3
ObjectDBX Classes
 90
     1153
 91
        3
280
     0
281
     0
  0
CLASS
  1
TABLESTYLE
  2
AcDbTableStyle
  3
ObjectDBX Classes
 90
     4095
 91
        3
280
     0
281
     0
  0
CLASS
  1
MLEADERSTYLE
  2
AcDbMLeaderStyle
  3
ACDB_MLEADERSTYLE_CLASS
 90
     4095
 91
        3
280
     0
281
     0
  0
CLASS
  1
SUN
  2
AcDbSun
  3
SCENEOE
 90
     1153
 91
        3
280
     0
281
     0
  0
CLASS
  1
DICTIONARYVAR
  2
AcDbDictionaryVar
  3
ObjectDBX Classes
 90
        0
 91
        3
280
     0
281
     0
  0
CLASS
  1
CELLSTYLEMAP
  2
AcDbCellStyleMap
  3
ObjectDBX Classes
 90
     1152
 91
        3
280
     0
281
     0
  0
ENDSEC
  0
SECTION
  2
TABLES
  0
TABLE
  2
VPORT
  5
8
330
0
100
AcDbSymbolTable
 70
     1
  0
VPORT
  5
29
330
8
100
AcDbSymbolTableRecord
100
AcDbViewportTableRecord
  2
*Active
 70
     0
 10
0.0
 20
0.0
 11
1.0
 21
1.0
 12
10.42990654205607
 22
4.5
 13
0.0
 23
0.0
 14
0.5
 24
0.5
 15
0.5
 25
0.5
 16
0.0
 26
0.0
 36
1.0
 17
0.0
 27
0.0
 37
0.0
 40
9.0
 41
1.972972972850329
 42
50.0
 43
0.0
 44
0.0
 50
0.0
 51
0.0
 71
     0
 72
   100
 73
     1
 74
     3
 75
     0
 76
     0
 77
     0
 78
     0
281
     0
 65
     1
110
0.0
120
0.0
130
0.0
111
1.0
121
0.0
131
0.0
112
0.0
122
1.0
132
0.0
 79
     0
146
0.0
348
2F
 60
     3
 61
     5
292
     1
282
     1
141
0.0
142
0.0
 63
   250
361
5D
  0
ENDTAB
  0
TABLE
  2
LTYPE
  5
5
330
0
100
AcDbSymbolTable
 70
     1
  0
LTYPE
  5
14
330
5
100
AcDbSymbolTableRecord
100
AcDbLinetypeTableRecord
  2
ByBlock
 70
     0
  3

 72
    65
 73
     0
 40
0.0
  0
LTYPE
  5
15
330
5
100
AcDbSymbolTableRecord
100
AcDbLinetypeTableRecord
  2
ByLayer
 70
     0
  3

 72
    65
 73
     0
 40
0.0
  0
LTYPE
  5
16
330
5
100
AcDbSymbolTableRecord
100
AcDbLinetypeTableRecord
  2
Continuous
 70
     0
  3
Solid line
 72
    65
 73
     0
 40
0.0
  0
ENDTAB
  0
TABLE
  2
LAYER
  5
2
330
0
100
AcDbSymbolTable
 70
     2
  0
LAYER
  5
10
330
2
100
AcDbSymbolTableRecord
100
AcDbLayerTableRecord
  2
0
 70
     0
 62
     7
  6
Continuous
370
    -3
390
F
347
46
348
0
  0
LAYER
  5
5F
330
2
100
AcDbSymbolTableRecord
100
AcDbLayerTableRecord
  2
Layer 1
 70
     0
 62
     7
  6
Continuous
370
    -3
390
F
347
46
348
0
  0
ENDTAB
  0
TABLE
  2
STYLE
  5
3
330
0
100
AcDbSymbolTable
 70
     1
  0
STYLE
  5
11
330
3
100
AcDbSymbolTableRecord
100
AcDbTextStyleTableRecord
  2
Standard
 70
     0
 40
0.0
 41
1.0
 50
0.0
 71
     0
 42
0.2
  3
txt
  4

  0
ENDTAB
  0
TABLE
  2
VIEW
  5
6
330
0
100
AcDbSymbolTable
 70
     0
  0
ENDTAB
  0
TABLE
  2
UCS
  5
7
330
0
100
AcDbSymbolTable
 70
     0
  0
ENDTAB
  0
TABLE
  2
APPID
  5
9
330
0
100
AcDbSymbolTable
 70
     2
  0
APPID
  5
12
330
9
100
AcDbSymbolTableRecord
100
AcDbRegAppTableRecord
  2
ACAD
 70
     0
  0
APPID
  5
5E
330
9
100
AcDbSymbolTableRecord
100
AcDbRegAppTableRecord
  2
ODA
 70
     0
  0
ENDTAB
  0
TABLE
  2
DIMSTYLE
  5
A
330
0
100
AcDbSymbolTable
 70
     1
100
AcDbDimStyleTable
  0
DIMSTYLE
105
27
330
A
100
AcDbSymbolTableRecord
100
AcDbDimStyleTableRecord
  2
Standard
 70
     0
178
     0
340
11
  0
ENDTAB
  0
TABLE
  2
BLOCK_RECORD
  5
1
330
0
100
AcDbSymbolTable
 70
     1
  0
BLOCK_RECORD
  5
1F
330
1
100
AcDbSymbolTableRecord
100
AcDbBlockTableRecord
  2
*Model_Space
340
22
 70
     0
280
     1
281
     0
  0
BLOCK_RECORD
  5
1B
330
1
100
AcDbSymbolTableRecord
100
AcDbBlockTableRecord
  2
*Paper_Space
340
1E
 70
     0
280
     1
281
     0
  0
BLOCK_RECORD
  5
23
330
1
100
AcDbSymbolTableRecord
100
AcDbBlockTableRecord
  2
*Paper_Space0
340
26
 70
     0
280
     1
281
     0
  0
ENDTAB
  0
ENDSEC
  0
SECTION
  2
BLOCKS
  0
BLOCK
  5
20
330
1F
100
AcDbEntity
  8
0
100
AcDbBlockBegin
  2
*Model_Space
 70
     0
 10
0.0
 20
0.0
 30
0.0
  3
*Model_Space
  1

  0
ENDBLK
  5
21
330
1F
100
AcDbEntity
  8
0
100
AcDbBlockEnd
  0
BLOCK
  5
1C
330
1B
100
AcDbEntity
 67
     1
  8
0
100
AcDbBlockBegin
  2
*Paper_Space
 70
     0
 10
0.0
 20
0.0
 30
0.0
  3
*Paper_Space
  1

  0
ENDBLK
  5
1D
330
1B
100
AcDbEntity
 67
     1
  8
0
100
AcDbBlockEnd
  0
BLOCK
  5
24
330
23
100
AcDbEntity
  8
0
100
AcDbBlockBegin
  2
*Paper_Space0
 70
     0
 10
0.0
 20
0.0
 30
0.0
  3
*Paper_Space0
  1

  0
ENDBLK
  5
25
330
23
100
AcDbEntity
  8
0
100
AcDbBlockEnd
  0
ENDSEC
  0
SECTION
  2
ENTITIES
  0
LWPOLYLINE
  5
60
330
1F
100
AcDbEntity
  8
Layer 1
 62
   250
100
AcDbPolyline
 90
        5
 70
     1
 43
0.0
 10
5.430425196850393
 20
-3.414696850393701
 10
11.35197244094488
 20
-3.414696850393701
 10
11.35197244094488
 20
-10.53083464566929
 10
5.430425196850393
 20
-10.53083464566929
 10
5.430425196850393
 20
-3.414696850393701
  0
LWPOLYLINE
  5
61
330
1F
100
AcDbEntity
  8
Layer 1
 62
     7
370
    18
100
AcDbPolyline
 90
       33
 70
     1
 43
0.0
 10
7.998665354330709
 20
-3.641472440944882
 10
8.069992125984252
 20
-3.643393700787402
 10
8.136429133858268
 20
-3.648905511811023
 10
8.196555118110236
 20
-3.657622047244094
 10
8.24894094488189
 20
-3.669165354330709
 10
8.292161417322834
 20
-3.683149606299212
 10
8.324799212598425
 20
-3.699196850393701
 10
8.345425196850394
 20
-3.716917322834646
 10
8.35261811023622
 20
-3.735937007874016
 10
8.345425196850394
 20
-3.754964566929134
 10
8.324799212598425
 20
-3.772688976377953
 10
8.292161417322834
 20
-3.788740157480315
 10
8.24894094488189
 20
-3.802728346456693
 10
8.196555118110236
 20
-3.814271653543307
 10
8.136429133858268
 20
-3.822988188976378
 10
8.069992125984252
 20
-3.8285
 10
7.998665354330709
 20
-3.83042125984252
 10
7.927354330708662
 20
-3.8285
 10
7.860925196850394
 20
-3.822988188976378
 10
7.800807086614173
 20
-3.814271653543307
 10
7.748425196850394
 20
-3.802728346456693
 10
7.705200787401575
 20
-3.788740157480315
 10
7.672562992125984
 20
-3.772688976377953
 10
7.651933070866142
 20
-3.754964566929134
 10
7.644740157480315
 20
-3.735937007874016
 10
7.651933070866142
 20
-3.716917322834646
 10
7.672562992125984
 20
-3.699196850393701
 10
7.705200787401575
 20
-3.683149606299212
 10
7.748425196850394
 20
-3.669165354330709
 10
7.800807086614173
 20
-3.657622047244094
 10
7.860925196850394
 20
-3.648905511811023
 10
7.927354330708662
 20
-3.643393700787402
 10
7.998665354330709
 20
-3.641472440944882
  0
LWPOLYLINE
  5
62
330
1F
100
AcDbEntity
  8
Layer 1
 62
     7
370
    18
100
AcDbPolyline
 90
       33
 70
     1
 43
0.0
 10
7.998665354330709
 20
-4.733366141732284
 10
8.102818897637794
 20
-4.736594488188977
 10
8.199838582677165
 20
-4.745858267716535
 10
8.287637795275591
 20
-4.760507874015748
 10
8.36413779527559
 20
-4.779905511811023
 10
8.427259842519685
 20
-4.803405511811023
 10
8.474925196850394
 20
-4.830370078740158
 10
8.505047244094488
 20
-4.860153543307087
 10
8.515551181102362
 20
-4.892114173228347
 10
8.505047244094488
 20
-4.924074803149606
 10
8.474925196850394
 20
-4.953858267716535
 10
8.427259842519685
 20
-4.980822834645669
 10
8.36413779527559
 20
-5.004322834645669
 10
8.287637795275591
 20
-5.023720472440945
 10
8.199838582677165
 20
-5.038370078740157
 10
8.102818897637794
 20
-5.047633858267717
 10
7.998665354330709
 20
-5.050862204724409
 10
7.89451968503937
 20
-5.047633858267717
 10
7.797507874015748
 20
-5.038370078740157
 10
7.709712598425197
 20
-5.023720472440945
 10
7.633216535433071
 20
-5.004322834645669
 10
7.570094488188976
 20
-4.980822834645669
 10
7.522433070866142
 20
-4.953858267716535
 10
7.492311023622047
 20
-4.924074803149606
 10
7.481807086614173
 20
-4.892114173228347
 10
7.492311023622047
 20
-4.860153543307087
 10
7.522433070866142
 20
-4.830370078740158
 10
7.570094488188976
 20
-4.803405511811023
 10
7.633216535433071
 20
-4.779905511811023
 10
7.709712598425197
 20
-4.760507874015748
 10
7.797507874015748
 20
-4.745858267716535
 10
7.89451968503937
 20
-4.736594488188977
 10
7.998665354330709
 20
-4.733366141732284
  0
LWPOLYLINE
  5
63
330
1F
100
AcDbEntity
  8
Layer 1
 62
     7
370
    18
100
AcDbPolyline
 90
       19
 70
     0
 43
0.0
 10
7.646086614173228
 20
-3.744188976377953
 10
7.641110236220473
 20
-4.548417322834646
 10
7.643507874015748
 20
-4.550988188976378
 10
7.650944881889764
 20
-4.557925196850394
 10
7.663795275590551
 20
-4.568070866141732
 10
7.682429133858268
 20
-4.580267716535433
 10
7.707212598425197
 20
-4.593354330708661
 10
7.73851968503937
 20
-4.606177165354331
 10
7.776720472440945
 20
-4.61757874015748
 10
7.822181102362205
 20
-4.626393700787402
 10
7.84098031496063
 20
-4.628909448818898
 10
7.891287401574803
 20
-4.634283464566929
 10
7.963952755905511
 20
-4.639251968503937
 10
8.049834645669291
 20
-4.640555118110236
 10
8.139791338582677
 20
-4.634929133858268
 10
8.224677165354331
 20
-4.61911811023622
 10
8.295350393700787
 20
-4.589854330708661
 10
8.342669291338582
 20
-4.54388188976378
 10
8.343133858267716
 20
-3.757744094488189
  0
LWPOLYLINE
  5
64
330
1F
100
AcDbEntity
  8
Layer 1
 62
     7
370
    18
100
AcDbPolyline
 90
       58
 70
     1
 43
0.0
 10
8.189594488188977
 20
-3.979078740157481
 10
8.189444881889763
 20
-3.974488188976378
 10
8.190102362204724
 20
-3.962236220472441
 10
8.193216535433072
 20
-3.944610236220472
 10
8.200448818897637
 20
-3.923893700787402
 10
8.213448818897637
 20
-3.902370078740157
 10
8.233877952755906
 20
-3.882318897637795
 10
8.263385826771653
 20
-3.866031496062992
 10
8.303629921259843
 20
-3.855787401574803
 10
8.30859842519685
 20
-3.858429133858268
 10
8.323350393700787
 20
-3.865700787401575
 10
8.347649606299212
 20
-3.876629921259843
 10
8.38126377952756
 20
-3.890232283464567
 10
8.423956692913386
 20
-3.905535433070866
 10
8.475496062992127
 20
-3.921562992125984
 10
8.535649606299213
 20
-3.937334645669291
 10
8.604181102362205
 20
-3.951877952755905
 10
8.614555118110236
 20
-3.954043307086614
 10
8.643555118110235
 20
-3.96205905511811
 10
8.688003937007874
 20
-3.978216535433071
 10
8.744712598425197
 20
-4.004795275590551
 10
8.810503937007875
 20
-4.04407874015748
 10
8.882188976377952
 20
-4.098358267716535
 10
8.956594488188976
 20
-4.169909448818897
 10
9.030531496062991
 20
-4.261027559055118
 10
9.217897637795275
 20
-4.537535433070866
 10
9.216433070866142
 20
-4.54001968503937
 10
9.210940944881889
 20
-4.546188976377953
 10
9.199759842519684
 20
-4.554122047244094
 10
9.181240157480316
 20
-4.561893700787402
 10
9.153724409448818
 20
-4.567586614173228
 10
9.115555118110237
 20
-4.569275590551181
 10
9.065086614173229
 20
-4.565035433070866
 10
9.000653543307086
 20
-4.552948818897637
 10
8.993511811023621
 20
-4.539688976377953
 10
8.973232283464567
 20
-4.503992125984252
 10
8.941511811023622
 20
-4.451976377952755
 10
8.900066929133859
 20
-4.389759842519685
 10
8.850602362204725
 20
-4.323464566929134
 10
8.794826771653543
 20
-4.259208661417323
 10
8.73444094488189
 20
-4.203110236220472
 10
8.671161417322836
 20
-4.161287401574803
 10
8.66677559055118
 20
-4.159216535433071
 10
8.652885826771653
 20
-4.153224409448819
 10
8.628385826771654
 20
-4.143645669291338
 10
8.59217716535433
 20
-4.130799212598426
 10
8.543153543307087
 20
-4.115027559055118
 10
8.480212598425197
 20
-4.096649606299213
 10
8.402248031496063
 20
-4.076
 10
8.30816535433071
 20
-4.053409448818898
 10
8.304200787401575
 20
-4.05486220472441
 10
8.29351968503937
 20
-4.057732283464567
 10
8.277925196850394
 20
-4.059771653543307
 10
8.259228346456693
 20
-4.058740157480315
 10
8.23923622047244
 20
-4.052397637795275
 10
8.21976377952756
 20
-4.0385
 10
8.202610236220472
 20
-4.014807086614173
 10
8.189594488188977
 20
-3.979078740157481
  0
LWPOLYLINE
  5
65
330
1F
100
AcDbEntity
  8
Layer 1
 62
     7
370
    18
100
AcDbPolyline
 90
       19
 70
     1
 43
0.0
 10
8.274732283464568
 20
-4.606283464566929
 10
8.276570866141732
 20
-4.875606299212598
 10
8.24420472440945
 20
-4.925114173228346
 10
8.175673228346456
 20
-4.959917322834646
 10
8.083456692913385
 20
-4.980145669291338
 10
7.980023622047244
 20
-4.985940944881889
 10
7.877858267716536
 20
-4.977433070866142
 10
7.789437007874016
 20
-4.954755905511811
 10
7.727232283464567
 20
-4.918051181102363
 10
7.703724409448819
 20
-4.867444881889764
 10
7.703724409448819
 20
-4.597031496062992
 10
7.715236220472441
 20
-4.601775590551181
 10
7.748295275590551
 20
-4.613381889763779
 10
7.800681102362205
 20
-4.627905511811024
 10
7.870169291338582
 20
-4.641405511811024
 10
7.954535433070866
 20
-4.649937007874016
 10
8.051566929133859
 20
-4.649555118110237
 10
8.159039370078741
 20
-4.636318897637795
 10
8.274732283464568
 20
-4.606283464566929
  0
LWPOLYLINE
  5
66
330
1F
100
AcDbEntity
  8
Layer 1
 62
     7
370
    18
100
AcDbPolyline
 90
       11
 70
     0
 43
0.0
 10
7.483433070866142
 20
-4.904716535433071
 10
7.483433070866142
 20
-5.777688976377953
 10
7.521996062992126
 20
-5.823909448818898
 10
7.624598425196851
 20
-5.860114173228347
 10
7.771602362204725
 20
-5.884562992125984
 10
7.94338188976378
 20
-5.89551968503937
 10
8.120303149606299
 20
-5.891236220472441
 10
8.282728346456693
 20
-5.86998031496063
 10
8.411035433070866
 20
-5.830003937007874
 10
8.485582677165354
 20
-5.769574803149606
 10
8.485582677165354
 20
-4.933614173228347
  0
LWPOLYLINE
  5
67
330
1F
100
AcDbEntity
  8
Layer 1
 62
     7
370
    18
100
AcDbPolyline
 90
       33
 70
     0
 43
0.0
 10
8.485582677165354
 20
-5.429598425196851
 10
8.512220472440944
 20
-5.433799212598426
 10
8.583094488188976
 20
-5.447346456692913
 10
8.684633858267716
 20
-5.471661417322835
 10
8.80327559055118
 20
-5.508153543307087
 10
8.925452755905512
 20
-5.558244094488189
 10
9.037598425196851
 20
-5.623354330708661
 10
9.126149606299213
 20
-5.704893700787402
 10
9.177535433070867
 20
-5.804287401574803
 10
9.167279527559055
 20
-5.816433070866141
 10
9.131704724409449
 20
-5.848763779527559
 10
9.063602362204724
 20
-5.89511811023622
 10
8.955751968503938
 20
-5.949330708661417
 10
8.800948818897638
 20
-6.005244094488189
 10
8.591976377952756
 20
-6.056696850393701
 10
8.321622047244094
 20
-6.097527559055118
 10
7.982673228346457
 20
-6.121574803149606
 10
7.932511811023622
 20
-6.119574803149606
 10
7.799751968503937
 20
-6.111236220472441
 10
7.610984251968504
 20
-6.093055118110236
 10
7.392795275590551
 20
-6.061523622047244
 10
7.171779527559055
 20
-6.013137795275591
 10
6.974523622047244
 20
-5.944385826771653
 10
6.82761811023622
 20
-5.851767716535433
 10
6.757649606299212
 20
-5.731771653543307
 10
6.765263779527559
 20
-5.721279527559055
 10
6.790240157480315
 20
-5.693149606299213
 10
6.835763779527559
 20
-5.652413385826772
 10
6.905035433070866
 20
-5.604098425196851
 10
7.001244094488189
 20
-5.553232283464567
 10
7.127582677165354
 20
-5.504842519685039
 10
7.287248031496063
 20
-5.463964566929134
 10
7.483433070866142
 20
-5.435618110236221
  0
LWPOLYLINE
  5
68
330
1F
100
AcDbEntity
  8
Layer 1
 62
     7
370
    18
100
AcDbPolyline
 90
       33
 70
     0
 43
0.0
 10
6.757649606299212
 20
-5.731771653543307
 10
6.755405511811023
 20
-5.736507874015748
 10
6.749759842519685
 20
-5.750393700787401
 10
6.74234251968504
 20
-5.772944881889764
 10
6.734775590551181
 20
-5.803681102362205
 10
6.728692913385827
 20
-5.842110236220472
 10
6.725724409448819
 20
-5.887755905511811
 10
6.727496062992126
 20
-5.940129921259842
 10
6.735633858267716
 20
-5.998748031496063
 10
6.744728346456693
 20
-6.012275590551181
 10
6.778192913385827
 20
-6.048082677165354
 10
6.845299212598425
 20
-6.099011811023622
 10
6.955314960629921
 20
-6.157913385826772
 10
7.117511811023622
 20
-6.217618110236221
 10
7.341157480314961
 20
-6.27098031496063
 10
7.635519685039371
 20
-6.310838582677166
 10
8.009874015748032
 20
-6.330031496062992
 10
8.053240157480316
 20
-6.329271653543307
 10
8.169114173228346
 20
-6.324492125984252
 10
8.336157480314961
 20
-6.311944881889763
 10
8.533031496062993
 20
-6.287889763779527
 10
8.738397637795275
 20
-6.248570866141733
 10
8.930925196850394
 20
-6.190251968503937
 10
9.089267716535433
 20
-6.109177165354331
 10
9.192090551181103
 20
-6.001606299212598
 10
9.192767716535434
 20
-5.996720472440945
 10
9.194279527559056
 20
-5.98309842519685
 10
9.195854330708661
 20
-5.962279527559055
 10
9.196712598425197
 20
-5.935807086614173
 10
9.196086614173229
 20
-5.905228346456693
 10
9.1931968503937
 20
-5.872086614173228
 10
9.187271653543307
 20
-5.837925196850394
 10
9.177535433070867
 20
-5.804287401574803
  0
LWPOLYLINE
  5
69
330
1F
100
AcDbEntity
  8
Layer 1
 62
     7
370
    18
100
AcDbPolyline
 90
       34
 70
     0
 43
0.0
 10
6.779157480314961
 20
-6.048944881889764
 10
6.781342519685039
 20
-6.116062992125984
 10
6.787110236220473
 20
-6.294027559055118
 10
6.795259842519685
 20
-6.547751968503937
 10
6.804606299212598
 20
-6.842153543307087
 10
6.813948818897638
 20
-7.142145669291339
 10
6.822098425196851
 20
-7.412645669291338
 10
6.827866141732284
 20
-7.618562992125984
 10
6.830051181102363
 20
-7.724818897637795
 10
6.830283464566929
 20
-7.733476377952756
 10
6.833043307086614
 20
-7.757539370078741
 10
6.841425196850394
 20
-7.794153543307087
 10
6.858515748031496
 20
-7.84046062992126
 10
6.887413385826772
 20
-7.893606299212599
 10
6.931204724409449
 20
-7.950724409448819
 10
6.992984251968504
 20
-8.008968503937007
 10
7.075846456692913
 20
-8.065472440944882
 10
7.242535433070866
 20
-8.143653543307087
 10
7.428023622047244
 20
-8.199429133858267
 10
7.626673228346457
 20
-8.234586614173228
 10
7.832846456692914
 20
-8.250913385826772
 10
8.040909448818898
 20
-8.250192913385828
 10
8.245220472440945
 20
-8.234208661417323
 10
8.440141732283465
 20
-8.20474409448819
 10
8.620035433070866
 20
-8.163586614173228
 10
8.705362204724409
 20
-8.137291338582678
 10
8.789913385826772
 20
-8.103917322834645
 10
8.870551181102362
 20
-8.062629921259843
 10
8.944129921259842
 20
-8.012602362204724
 10
9.007515748031496
 20
-7.952992125984252
 10
9.05755905511811
 20
-7.882972440944882
 10
9.091122047244095
 20
-7.801704724409449
 10
9.105066929133859
 20
-7.708358267716536
 10
9.151287401574804
 20
-6.056405511811024
  0
LWPOLYLINE
  5
6A
330
1F
100
AcDbEntity
  8
Layer 1
 62
     7
370
    18
100
AcDbPolyline
 90
       25
 70
     0
 43
0.0
 10
6.862389763779528
 20
-7.873082677165354
 10
6.833015748031496
 20
-7.9605
 10
6.868393700787402
 20
-8.039704724409448
 10
6.951736220472441
 20
-8.109964566929134
 10
7.066255905511811
 20
-8.170551181102363
 10
7.195169291338583
 20
-8.220732283464567
 10
7.321692913385827
 20
-8.259779527559056
 10
7.429043307086614
 20
-8.28696062992126
 10
7.500429133858268
 20
-8.301547244094488
 10
7.617555118110237
 20
-8.318696850393701
 10
7.745692913385827
 20
-8.331732283464566
 10
7.883212598425197
 20
-8.339090551181103
 10
8.02848031496063
 20
-8.339228346456693
 10
8.179858267716535
 20
-8.330582677165355
 10
8.335720472440945
 20
-8.311606299212599
 10
8.494429133858267
 20
-8.280748031496064
 10
8.654350393700787
 20
-8.236448818897637
 10
8.711173228346457
 20
-8.217047244094488
 10
8.789799212598425
 20
-8.186956692913386
 10
8.878771653543307
 20
-8.14765748031496
 10
8.966633858267716
 20
-8.100633858267717
 10
9.041933070866142
 20
-8.04736220472441
 10
9.093208661417323
 20
-7.989318897637795
 10
9.109003937007873
 20
-7.927988188976378
 10
9.077866141732283
 20
-7.864850393700787
  0
LWPOLYLINE
  5
6B
330
1F
100
AcDbEntity
  8
Layer 1
 62
     7
370
    18
100
AcDbPolyline
 90
       41
 70
     0
 43
0.0
 10
6.831397637795275
 20
-7.771854330708662
 10
6.832838582677165
 20
-7.804228346456693
 10
6.834551181102362
 20
-7.851283464566929
 10
6.837574803149606
 20
-7.90815748031496
 10
6.842952755905512
 20
-7.97
 10
6.851712598425197
 20
-8.031948818897638
 10
6.864893700787402
 20
-8.089149606299213
 10
6.88353937007874
 20
-8.136748031496063
 10
6.908681102362205
 20
-8.169885826771653
 10
6.942996062992126
 20
-8.195681102362204
 10
6.985988188976378
 20
-8.222271653543308
 10
7.037303149606299
 20
-8.24909842519685
 10
7.096590551181102
 20
-8.275602362204724
 10
7.1635
 20
-8.301236220472441
 10
7.237681102362204
 20
-8.325437007874015
 10
7.318783464566929
 20
-8.347653543307086
 10
7.406452755905512
 20
-8.36732283464567
 10
7.547917322834645
 20
-8.39215748031496
 10
7.688535433070866
 20
-8.409712598425196
 10
7.828598425196851
 20
-8.419948818897637
 10
7.968393700787401
 20
-8.422830708661417
 10
8.108208661417322
 20
-8.41832283464567
 10
8.248334645669292
 20
-8.406389763779528
 10
8.389055118110237
 20
-8.387
 10
8.530665354330708
 20
-8.360114173228347
 10
8.606791338582678
 20
-8.341704724409448
 10
8.681944881889764
 20
-8.319429133858268
 10
8.755248031496063
 20
-8.293397637795275
 10
8.825822834645669
 20
-8.263704724409449
 10
8.89279527559055
 20
-8.230460629921259
 10
8.955291338582677
 20
-8.193767716535433
 10
9.012429133858268
 20
-8.153724409448818
 10
9.063334645669292
 20
-8.110437007874015
 10
9.099767716535434
 20
-8.072177165354331
 10
9.13061811023622
 20
-8.030885826771653
 10
9.154185039370079
 20
-7.987240157480315
 10
9.168775590551181
 20
-7.941933070866142
 10
9.172692913385827
 20
-7.895641732283464
 10
9.164236220472441
 20
-7.849051181102362
 10
9.141708661417322
 20
-7.802850393700788
 10
9.103417322834646
 20
-7.757716535433071
  0
LWPOLYLINE
  5
6C
330
1F
100
AcDbEntity
  8
Layer 1
 62
     7
370
    18
100
AcDbPolyline
 90
       35
 70
     0
 43
0.0
 10
9.156566929133858
 20
-7.988003937007874
 10
9.150917322834646
 20
-9.029748031496062
 10
9.149633858267716
 20
-9.064881889763779
 10
9.14594094488189
 20
-9.094649606299212
 10
9.139425196850393
 20
-9.120165354330709
 10
9.129685039370079
 20
-9.142555118110236
 10
9.116314960629921
 20
-9.162925196850393
 10
9.098913385826771
 20
-9.182397637795276
 10
9.077070866141732
 20
-9.20208661417323
 10
9.050385826771654
 20
-9.223114173228346
 10
8.984909448818899
 20
-9.267917322834645
 10
8.899862204724409
 20
-9.315527559055118
 10
8.793566929133858
 20
-9.363106299212598
 10
8.66434251968504
 20
-9.407830708661418
 10
8.510507874015747
 20
-9.44686220472441
 10
8.33038188976378
 20
-9.477370078740158
 10
8.122283464566928
 20
-9.496527559055117
 10
7.884535433070866
 20
-9.501503937007874
 10
7.849279527559055
 20
-9.499799212598425
 10
7.754645669291339
 20
-9.492905511811024
 10
7.617338582677165
 20
-9.47816535433071
 10
7.45405905511811
 20
-9.452905511811023
 10
7.281511811023622
 20
-9.414464566929134
 10
7.116397637795275
 20
-9.360177165354331
 10
6.975425196850393
 20
-9.287377952755905
 10
6.875295275590551
 20
-9.193401574803149
 10
6.854291338582677
 20
-9.154456692913385
 10
6.841464566929134
 20
-9.11128346456693
 10
6.835192913385827
 20
-9.065051181102362
 10
6.833866141732283
 20
-9.016917322834646
 10
6.83586220472441
 20
-8.968055118110236
 10
6.839562992125984
 20
-8.919625984251969
 10
6.843346456692913
 20
-8.872795275590551
 10
6.845602362204724
 20
-8.828732283464566
 10
6.863133858267717
 20
-8.051196850393701
  0
LWPOLYLINE
  5
6D
330
1F
100
AcDbEntity
  8
Layer 1
 62
     7
370
    18
100
AcDbPolyline
 90
       17
 70
     0
 43
0.0
 10
6.839885826771654
 20
-8.949397637795276
 10
6.84005905511811
 20
-8.966543307086614
 10
6.849905511811023
 20
-9.012192913385826
 10
6.883405511811024
 20
-9.077653543307086
 10
6.954543307086614
 20
-9.154240157480315
 10
7.077307086614173
 20
-9.233255905511811
 10
7.26567716535433
 20
-9.306011811023621
 10
7.533641732283464
 20
-9.363826771653544
 10
7.895185039370078
 20
-9.398
 10
7.942637795275591
 20
-9.39824409448819
 10
8.069102362204724
 20
-9.394834645669292
 10
8.250720472440944
 20
-9.381562992125984
 10
8.46363779527559
 20
-9.352220472440944
 10
8.684011811023622
 20
-9.300594488188976
 10
8.88798031496063
 20
-9.220476377952757
 10
9.051700787401575
 20
-9.105661417322835
 10
9.151311023622048
 20
-8.949933070866141
  0
LWPOLYLINE
  5
6E
330
1F
100
AcDbEntity
  8
Layer 1
 62
     7
370
    18
100
AcDbPolyline
 90
       33
 70
     0
 43
0.0
 10
6.830003937007874
 20
-8.841169291338582
 10
6.822818897637795
 20
-8.844885826771653
 10
6.803929133858268
 20
-8.856169291338583
 10
6.777326771653543
 20
-8.875212598425197
 10
6.747015748031497
 20
-8.902204724409449
 10
6.716984251968504
 20
-8.93734251968504
 10
6.691232283464567
 20
-8.98082283464567
 10
6.673759842519685
 20
-9.032830708661418
 10
6.66855905511811
 20
-9.093566929133859
 10
6.67509842519685
 20
-9.11336220472441
 10
6.701913385826772
 20
-9.165807086614173
 10
6.759807086614173
 20
-9.240492125984252
 10
6.859586614173228
 20
-9.327
 10
7.012051181102362
 20
-9.414929133858267
 10
7.228
 20
-9.493858267716535
 10
7.518244094488189
 20
-9.553381889763779
 10
7.89357874015748
 20
-9.583086614173228
 10
7.953161417322835
 20
-9.582515748031495
 10
8.110917322834645
 20
-9.57598031496063
 10
8.335346456692914
 20
-9.55623622047244
 10
8.594956692913385
 20
-9.516043307086614
 10
8.858255905511811
 20
-9.448161417322835
 10
9.093748031496062
 20
-9.345342519685039
 10
9.269937007874015
 20
-9.200350393700788
 10
9.355326771653543
 20
-9.005940944881889
 10
9.355043307086614
 20
-9.001846456692913
 10
9.352610236220473
 20
-8.989885826771653
 10
9.345645669291338
 20
-8.970527559055117
 10
9.331759842519684
 20
-8.944251968503938
 10
9.308574803149606
 20
-8.911527559055118
 10
9.273708661417324
 20
-8.872830708661418
 10
9.224779527559056
 20
-8.82863779527559
 10
9.15940157480315
 20
-8.77942125984252
  0
LWPOLYLINE
  5
6F
330
1F
100
AcDbEntity
  8
Layer 1
 62
     7
370
    18
100
AcDbPolyline
 90
       33
 70
     0
 43
0.0
 10
6.666023622047244
 20
-9.089637795275591
 10
6.663984251968504
 20
-9.145988188976379
 10
6.667724409448819
 20
-9.196370078740157
 10
6.677488188976378
 20
-9.241779527559055
 10
6.693527559055118
 20
-9.283208661417323
 10
6.716090551181102
 20
-9.321653543307086
 10
6.745421259842519
 20
-9.35809842519685
 10
6.781767716535433
 20
-9.39353937007874
 10
6.825377952755906
 20
-9.428968503937007
 10
6.890740157480315
 20
-9.473488188976377
 10
6.972503937007874
 20
-9.518633858267716
 10
7.072287401574803
 20
-9.562551181102362
 10
7.191708661417323
 20
-9.603385826771653
 10
7.33238188976378
 20
-9.63928346456693
 10
7.495929133858268
 20
-9.668397637795275
 10
7.683968503937008
 20
-9.688866141732284
 10
7.898114173228347
 20
-9.698846456692914
 10
7.944047244094488
 20
-9.698669291338582
 10
8.067929133858268
 20
-9.694787401574803
 10
8.248889763779527
 20
-9.682169291338584
 10
8.466047244094488
 20
-9.655783464566928
 10
8.698527559055119
 20
-9.61059842519685
 10
8.925456692913386
 20
-9.54157874015748
 10
9.12596062992126
 20
-9.443700787401575
 10
9.279161417322834
 20
-9.311929133858268
 10
9.307326771653543
 20
-9.273590551181103
 10
9.32763779527559
 20
-9.237578740157481
 10
9.341358267716535
 20
-9.202740157480315
 10
9.349755905511811
 20
-9.167933070866141
 10
9.354086614173228
 20
-9.132
 10
9.35561811023622
 20
-9.093787401574803
 10
9.355610236220473
 20
-9.052153543307087
 10
9.355326771653543
 20
-9.005940944881889
  0
LWPOLYLINE
  5
70
330
1F
100
AcDbEntity
  8
Layer 1
 62
     7
370
    18
100
AcDbPolyline
 90
        4
 70
     1
 43
0.0
 10
9.68929527559055
 20
-3.963917322834646
 10
9.674507874015749
 20
-3.937055118110236
 10
9.65973622047244
 20
-3.963925196850394
 10
9.68929527559055
 20
-3.963917322834646
  0
LWPOLYLINE
  5
71
330
1F
100
AcDbEntity
  8
Layer 1
 62
     7
370
    18
100
AcDbPolyline
 90
        4
 70
     1
 43
0.0
 10
9.690629921259843
 20
-9.386732283464568
 10
9.675854330708662
 20
-9.413602362204724
 10
9.661070866141733
 20
-9.386736220472441
 10
9.690629921259843
 20
-9.386732283464568
  0
LWPOLYLINE
  5
72
330
1F
100
AcDbEntity
  8
Layer 1
 62
     7
370
    18
100
AcDbPolyline
 90
        2
 70
     0
 43
0.0
 10
9.672933070866142
 20
-3.928102362204724
 10
9.67428346456693
 20
-9.42255905511811
  0
LWPOLYLINE
  5
73
330
1F
100
AcDbEntity
  8
Layer 1
 62
     7
370
     9
100
AcDbPolyline
 90
        7
 70
     1
 43
0.0
 10
10.01113385826772
 20
-6.704433070866142
 10
10.03416535433071
 20
-6.704433070866142
 10
10.03416535433071
 20
-6.477807086614173
 10
9.978874015748032
 20
-6.483740157480315
 10
9.978874015748032
 20
-6.503830708661417
 10
10.01113385826772
 20
-6.503830708661417
 10
10.01113385826772
 20
-6.704433070866142
  0
LWPOLYLINE
  5
74
330
1F
100
AcDbEntity
  8
Layer 1
 62
     7
370
     9
100
AcDbPolyline
 90
        7
 70
     1
 43
0.0
 10
10.10887401574803
 20
-6.704433070866142
 10
10.20727165354331
 20
-6.48144094488189
 10
10.06674803149606
 20
-6.48144094488189
 10
10.06674803149606
 20
-6.504496062992126
 10
10.17140157480315
 20
-6.504496062992126
 10
10.08320078740157
 20
-6.704433070866142
 10
10.10887401574803
 20
-6.704433070866142
  0
LWPOLYLINE
  5
75
330
1F
100
AcDbEntity
  8
Layer 1
 62
     7
370
     9
100
AcDbPolyline
 90
       70
 70
     1
 43
0.0
 10
10.32920866141732
 20
-6.506464566929134
 10
10.33300787401575
 20
-6.509047244094488
 10
10.33655118110236
 20
-6.511984251968504
 10
10.33983858267717
 20
-6.515267716535433
 10
10.34287007874016
 20
-6.51890157480315
 10
10.34564173228346
 20
-6.522885826771653
 10
10.34815354330709
 20
-6.527220472440945
 10
10.3504094488189
 20
-6.531905511811024
 10
10.3524094488189
 20
-6.53694094488189
 10
10.35464566929134
 20
-6.543618110236221
 10
10.35658661417323
 20
-6.550389763779528
 10
10.35822834645669
 20
-6.557263779527559
 10
10.35957086614173
 20
-6.564236220472441
 10
10.36061417322835
 20
-6.571303149606299
 10
10.36136220472441
 20
-6.578468503937008
 10
10.36181102362205
 20
-6.585736220472441
 10
10.36196062992126
 20
-6.593098425196851
 10
10.36096850393701
 20
-6.60940157480315
 10
10.35982677165354
 20
-6.618255905511811
 10
10.35833858267717
 20
-6.626625984251969
 10
10.35649606299213
 20
-6.634503937007874
 10
10.35430708661417
 20
-6.641889763779528
 10
10.35176377952756
 20
-6.648791338582678
 10
10.34887401574803
 20
-6.655200787401575
 10
10.34563385826772
 20
-6.661122047244095
 10
10.34204330708661
 20
-6.666555118110236
 10
10.33876771653543
 20
-6.670649606299213
 10
10.3353188976378
 20
-6.674192913385827
 10
10.33169291338583
 20
-6.677196850393701
 10
10.3278937007874
 20
-6.679649606299213
 10
10.32391732283465
 20
-6.68155905511811
 10
10.31976771653543
 20
-6.682925196850394
 10
10.31544488188976
 20
-6.683744094488189
 10
10.31094488188976
 20
-6.684015748031496
 10
10.30592125984252
 20
-6.683744094488189
 10
10.30114173228347
 20
-6.682933070866142
 10
10.29660236220472
 20
-6.681582677165355
 10
10.29230708661417
 20
-6.679692913385827
 10
10.28825196850394
 20
-6.677259842519685
 10
10.28444094488189
 20
-6.674287401574803
 10
10.28087007874016
 20
-6.670771653543307
 10
10.27753937007874
 20
-6.666720472440945
 10
10.27478346456693
 20
-6.662724409448819
 10
10.27227165354331
 20
-6.658484251968504
 10
10.27001181102362
 20
-6.653996062992126
 10
10.26799606299213
 20
-6.649259842519685
 10
10.26223622047244
 20
-6.629330708661417
 10
10.25944094488189
 20
-6.609566929133858
 10
10.25861417322835
 20
-6.587551181102362
 10
10.25884251968504
 20
-6.580964566929134
 10
10.25952362204724
 20
-6.573629921259842
 10
10.26065354330709
 20
-6.565547244094488
 10
10.26223622047244
 20
-6.556704724409449
 10
10.26783464566929
 20
-6.536775590551181
 10
10.26977559055118
 20
-6.531956692913385
 10
10.27198818897638
 20
-6.527385826771654
 10
10.27446456692913
 20
-6.523062992125984
 10
10.2772125984252
 20
-6.518992125984252
 10
10.28023622047244
 20
-6.515232283464567
 10
10.28354724409449
 20
-6.51186220472441
 10
10.28714960629921
 20
-6.508885826771653
 10
10.29103937007874
 20
-6.506303149606299
 10
10.29524803149606
 20
-6.504212598425197
 10
10.29983464566929
 20
-6.502724409448819
 10
10.30479133858268
 20
-6.501830708661418
 10
10.31011811023622
 20
-6.501531496062992
 10
10.31544881889764
 20
-6.501838582677165
 10
10.32040551181102
 20
-6.502763779527559
 10
10.32499212598425
 20
-6.504307086614173
 10
10.32920866141732
 20
-6.506464566929134
  0
LWPOLYLINE
  5
76
330
1F
100
AcDbEntity
  8
Layer 1
 62
     7
370
     9
100
AcDbPolyline
 90
       65
 70
     1
 43
0.0
 10
10.31127165354331
 20
-6.707397637795276
 10
10.32088188976378
 20
-6.706787401574803
 10
10.32987795275591
 20
-6.704956692913385
 10
10.33826377952756
 20
-6.701909448818897
 10
10.34603543307087
 20
-6.697641732283465
 10
10.3531968503937
 20
-6.692153543307087
 10
10.35974803149606
 20
-6.685444881889763
 10
10.36568503937008
 20
-6.677515748031496
 10
10.37100787401575
 20
-6.668366141732283
 10
10.37474803149606
 20
-6.660381889763779
 10
10.37798818897638
 20
-6.651956692913386
 10
10.38072834645669
 20
-6.643090551181102
 10
10.38297244094488
 20
-6.633779527559055
 10
10.38472047244094
 20
-6.624023622047244
 10
10.38596850393701
 20
-6.613826771653543
 10
10.38671653543307
 20
-6.603188976377953
 10
10.38696456692913
 20
-6.592106299212598
 10
10.38671653543307
 20
-6.581027559055118
 10
10.38596850393701
 20
-6.570385826771654
 10
10.38472047244094
 20
-6.560192913385826
 10
10.38297244094488
 20
-6.550437007874016
 10
10.38072834645669
 20
-6.541125984251969
 10
10.37798818897638
 20
-6.532259842519685
 10
10.37474803149606
 20
-6.523834645669291
 10
10.37100787401575
 20
-6.515850393700787
 10
10.36568503937008
 20
-6.506704724409449
 10
10.35974803149606
 20
-6.498775590551181
 10
10.3531968503937
 20
-6.492066929133858
 10
10.34603543307087
 20
-6.48657874015748
 10
10.33826377952756
 20
-6.482311023622048
 10
10.32987795275591
 20
-6.479259842519685
 10
10.32088188976378
 20
-6.477429133858267
 10
10.31127165354331
 20
-6.476818897637795
 10
10.30166535433071
 20
-6.477429133858267
 10
10.29266929133858
 20
-6.479259842519685
 10
10.28428346456693
 20
-6.482311023622048
 10
10.27651181102362
 20
-6.48657874015748
 10
10.26935039370079
 20
-6.492066929133858
 10
10.26279921259843
 20
-6.498775590551181
 10
10.25686220472441
 20
-6.506704724409449
 10
10.25153543307087
 20
-6.515850393700787
 10
10.24779527559055
 20
-6.523834645669291
 10
10.24455118110236
 20
-6.532259842519685
 10
10.24180708661417
 20
-6.541125984251969
 10
10.23956299212598
 20
-6.550437007874016
 10
10.2378188976378
 20
-6.560192913385826
 10
10.23657086614173
 20
-6.570385826771654
 10
10.23582283464567
 20
-6.581027559055118
 10
10.23557480314961
 20
-6.592106299212598
 10
10.23582283464567
 20
-6.603188976377953
 10
10.23657086614173
 20
-6.613826771653543
 10
10.2378188976378
 20
-6.624023622047244
 10
10.23956299212598
 20
-6.633779527559055
 10
10.24180708661417
 20
-6.643090551181102
 10
10.24455118110236
 20
-6.651956692913386
 10
10.24779527559055
 20
-6.660381889763779
 10
10.25153543307087
 20
-6.668366141732283
 10
10.25686220472441
 20
-6.677515748031496
 10
10.26279921259843
 20
-6.685444881889763
 10
10.26935039370079
 20
-6.692153543307087
 10
10.27651181102362
 20
-6.697641732283465
 10
10.28428346456693
 20
-6.701909448818897
 10
10.29266929133858
 20
-6.704956692913385
 10
10.30166535433071
 20
-6.706787401574803
 10
10.31127165354331
 20
-6.707397637795276
  0
LWPOLYLINE
  5
77
330
1F
100
AcDbEntity
  8
Layer 1
 62
     7
370
     9
100
AcDbPolyline
 90
      113
 70
     1
 43
0.0
 10
10.61175196850394
 20
-6.703779527559055
 10
10.63479133858268
 20
-6.703779527559055
 10
10.63479133858268
 20
-6.613188976377953
 10
10.63460236220472
 20
-6.60717716535433
 10
10.63403937007874
 20
-6.601444881889764
 10
10.63310236220472
 20
-6.596
 10
10.6317874015748
 20
-6.590834645669291
 10
10.63009842519685
 20
-6.585952755905512
 10
10.62803543307087
 20
-6.581350393700787
 10
10.62559448818898
 20
-6.577035433070866
 10
10.62277952755906
 20
-6.573003937007874
 10
10.61953937007874
 20
-6.569248031496063
 10
10.6159094488189
 20
-6.565881889763779
 10
10.61188582677165
 20
-6.562905511811024
 10
10.60747244094488
 20
-6.560322834645669
 10
10.60507874015748
 20
-6.559204724409449
 10
10.60249606299213
 20
-6.558236220472441
 10
10.59973228346457
 20
-6.557417322834645
 10
10.59677952755906
 20
-6.556744094488189
 10
10.5903188976378
 20
-6.555846456692914
 10
10.58311417322835
 20
-6.555547244094488
 10
10.57938976377953
 20
-6.55567716535433
 10
10.57578346456693
 20
-6.556062992125984
 10
10.57229527559055
 20
-6.556708661417323
 10
10.56892519685039
 20
-6.557610236220472
 10
10.56567322834646
 20
-6.558767716535433
 10
10.56253937007874
 20
-6.560181102362205
 10
10.55952362204724
 20
-6.561854330708662
 10
10.55662992125984
 20
-6.563783464566929
 10
10.5517125984252
 20
-6.567775590551181
 10
10.54725196850394
 20
-6.572334645669291
 10
10.54323622047244
 20
-6.577444881889764
 10
10.53967716535433
 20
-6.583102362204724
 10
10.5335905511811
 20
-6.573003937007874
 10
10.53035433070866
 20
-6.569248031496063
 10
10.52672047244094
 20
-6.565881889763779
 10
10.52270078740158
 20
-6.562905511811024
 10
10.51829133858268
 20
-6.560322834645669
 10
10.5158937007874
 20
-6.559204724409449
 10
10.51331102362205
 20
-6.558236220472441
 10
10.51054330708661
 20
-6.557417322834645
 10
10.5075905511811
 20
-6.556744094488189
 10
10.50112992125984
 20
-6.555846456692914
 10
10.49393307086614
 20
-6.555547244094488
 10
10.49020472440945
 20
-6.55567716535433
 10
10.48659842519685
 20
-6.556062992125984
 10
10.4831062992126
 20
-6.556708661417323
 10
10.47973622047244
 20
-6.557610236220472
 10
10.4764842519685
 20
-6.558767716535433
 10
10.47335433070866
 20
-6.560181102362205
 10
10.47033858267717
 20
-6.561854330708662
 10
10.46744094488189
 20
-6.563783464566929
 10
10.46275196850394
 20
-6.567570866141732
 10
10.45847244094488
 20
-6.571858267716536
 10
10.45460236220472
 20
-6.576649606299212
 10
10.45114960629921
 20
-6.581956692913386
 10
10.45114960629921
 20
-6.558842519685039
 10
10.42811023622047
 20
-6.558842519685039
 10
10.42811023622047
 20
-6.703779527559055
 10
10.45114960629921
 20
-6.703779527559055
 10
10.45114960629921
 20
-6.629606299212599
 10
10.45238188976378
 20
-6.621129921259842
 10
10.45427559055118
 20
-6.613326771653544
 10
10.45546850393701
 20
-6.609673228346456
 10
10.45682677165354
 20
-6.606181102362204
 10
10.45834645669291
 20
-6.602854330708661
 10
10.46003543307087
 20
-6.599685039370079
 10
10.4628937007874
 20
-6.595279527559055
 10
10.46620472440945
 20
-6.591287401574803
 10
10.46996850393701
 20
-6.587704724409448
 10
10.47418110236221
 20
-6.584531496062992
 10
10.47870866141732
 20
-6.581937007874016
 10
10.48339763779528
 20
-6.580086614173228
 10
10.48825196850394
 20
-6.578976377952756
 10
10.49327165354331
 20
-6.578606299212598
 10
10.49804330708661
 20
-6.5788031496063
 10
10.50215748031496
 20
-6.579389763779528
 10
10.50561417322835
 20
-6.580366141732283
 10
10.50841338582677
 20
-6.581732283464567
 10
10.51173228346457
 20
-6.584188976377953
 10
10.5146062992126
 20
-6.587066929133858
 10
10.51703937007874
 20
-6.590366141732283
 10
10.51903149606299
 20
-6.594086614173229
 10
10.52057874015748
 20
-6.598228346456693
 10
10.52168503937008
 20
-6.602795275590551
 10
10.52235039370079
 20
-6.607779527559055
 10
10.52257086614173
 20
-6.613188976377953
 10
10.52257086614173
 20
-6.703779527559055
 10
10.54560236220472
 20
-6.703779527559055
 10
10.54560236220472
 20
-6.613188976377953
 10
10.54543700787402
 20
-6.607645669291339
 10
10.54922440944882
 20
-6.599685039370079
 10
10.55208661417323
 20
-6.595279527559055
 10
10.55539763779528
 20
-6.591287401574803
 10
10.55916141732284
 20
-6.587704724409448
 10
10.56337401574803
 20
-6.584531496062992
 10
10.56789763779528
 20
-6.581937007874016
 10
10.57258661417323
 20
-6.580086614173228
 10
10.57744094488189
 20
-6.578976377952756
 10
10.58246062992126
 20
-6.578606299212598
 10
10.58723228346457
 20
-6.5788031496063
 10
10.59134645669291
 20
-6.579389763779528
 10
10.5948031496063
 20
-6.580366141732283
 10
10.5976062992126
 20
-6.581732283464567
 10
10.60092125984252
 20
-6.584188976377953
 10
10.60379527559055
 20
-6.587066929133858
 10
10.60622440944882
 20
-6.590366141732283
 10
10.60821653543307
 20
-6.594086614173229
 10
10.60976377952756
 20
-6.598228346456693
 10
10.61086614173228
 20
-6.602795275590551
 10
10.61153149606299
 20
-6.607779527559055
 10
10.61175196850394
 20
-6.613188976377953
 10
10.61175196850394
 20
-6.703779527559055
  0
LWPOLYLINE
  5
78
330
1F
100
AcDbEntity
  8
Layer 1
 62
     7
370
     9
100
AcDbPolyline
 90
      113
 70
     1
 43
0.0
 10
10.86286220472441
 20
-6.703779527559055
 10
10.88590157480315
 20
-6.703779527559055
 10
10.88590157480315
 20
-6.613188976377953
 10
10.8857125984252
 20
-6.60717716535433
 10
10.88514960629921
 20
-6.601444881889764
 10
10.8842125984252
 20
-6.596
 10
10.88289763779528
 20
-6.590834645669291
 10
10.88120866141732
 20
-6.585952755905512
 10
10.87914566929134
 20
-6.581350393700787
 10
10.87670866141732
 20
-6.577035433070866
 10
10.8738937007874
 20
-6.573003937007874
 10
10.87064960629921
 20
-6.569248031496063
 10
10.86701968503937
 20
-6.565881889763779
 10
10.86299606299213
 20
-6.562905511811024
 10
10.85858267716536
 20
-6.560322834645669
 10
10.85618897637795
 20
-6.559204724409449
 10
10.8536062992126
 20
-6.558236220472441
 10
10.85084251968504
 20
-6.557417322834645
 10
10.84788976377953
 20
-6.556744094488189
 10
10.84142913385827
 20
-6.555846456692914
 10
10.83422834645669
 20
-6.555547244094488
 10
10.83050393700787
 20
-6.55567716535433
 10
10.8268937007874
 20
-6.556062992125984
 10
10.8234094488189
 20
-6.556708661417323
 10
10.82003937007874
 20
-6.557610236220472
 10
10.8167874015748
 20
-6.558767716535433
 10
10.81365354330709
 20
-6.560181102362205
 10
10.81063779527559
 20
-6.561854330708662
 10
10.80774015748032
 20
-6.563783464566929
 10
10.80282283464567
 20
-6.567775590551181
 10
10.79836220472441
 20
-6.572334645669291
 10
10.79434645669291
 20
-6.577444881889764
 10
10.7907874015748
 20
-6.583102362204724
 10
10.78470078740157
 20
-6.573003937007874
 10
10.78146456692913
 20
-6.569248031496063
 10
10.77783070866142
 20
-6.565881889763779
 10
10.77381102362205
 20
-6.562905511811024
 10
10.76940157480315
 20
-6.560322834645669
 10
10.76700393700787
 20
-6.559204724409449
 10
10.76442125984252
 20
-6.558236220472441
 10
10.76165354330709
 20
-6.557417322834645
 10
10.75870078740157
 20
-6.556744094488189
 10
10.75224015748032
 20
-6.555846456692914
 10
10.74504330708661
 20
-6.555547244094488
 10
10.74131889763779
 20
-6.55567716535433
 10
10.7377125984252
 20
-6.556062992125984
 10
10.73422440944882
 20
-6.556708661417323
 10
10.73085433070866
 20
-6.557610236220472
 10
10.72760236220472
 20
-6.558767716535433
 10
10.72446850393701
 20
-6.560181102362205
 10
10.72144881889764
 20
-6.561854330708662
 10
10.71855118110236
 20
-6.563783464566929
 10
10.71386220472441
 20
-6.567570866141732
 10
10.70958267716535
 20
-6.571858267716536
 10
10.7057125984252
 20
-6.576649606299212
 10
10.70225984251969
 20
-6.581956692913386
 10
10.70225984251969
 20
-6.558842519685039
 10
10.67922047244094
 20
-6.558842519685039
 10
10.67922047244094
 20
-6.703779527559055
 10
10.70225984251969
 20
-6.703779527559055
 10
10.70225984251969
 20
-6.629606299212599
 10
10.70349212598425
 20
-6.621129921259842
 10
10.70538582677165
 20
-6.613326771653544
 10
10.70657874015748
 20
-6.609673228346456
 10
10.70793700787402
 20
-6.606181102362204
 10
10.70946062992126
 20
-6.602854330708661
 10
10.71114566929134
 20
-6.599685039370079
 10
10.71400787401575
 20
-6.595279527559055
 10
10.7173188976378
 20
-6.591287401574803
 10
10.72108267716535
 20
-6.587704724409448
 10
10.72529921259843
 20
-6.584531496062992
 10
10.72982283464567
 20
-6.581937007874016
 10
10.73451181102362
 20
-6.580086614173228
 10
10.73936220472441
 20
-6.578976377952756
 10
10.74438188976378
 20
-6.578606299212598
 10
10.74915354330709
 20
-6.5788031496063
 10
10.75326771653543
 20
-6.579389763779528
 10
10.75672440944882
 20
-6.580366141732283
 10
10.75952362204724
 20
-6.581732283464567
 10
10.76284251968504
 20
-6.584188976377953
 10
10.76571653543307
 20
-6.587066929133858
 10
10.76814960629921
 20
-6.590366141732283
 10
10.77014173228346
 20
-6.594086614173229
 10
10.77168897637795
 20
-6.598228346456693
 10
10.77279527559055
 20
-6.602795275590551
 10
10.77346062992126
 20
-6.607779527559055
 10
10.7736811023622
 20
-6.613188976377953
 10
10.7736811023622
 20
-6.703779527559055
 10
10.7967125984252
 20
-6.703779527559055
 10
10.7967125984252
 20
-6.613188976377953
 10
10.79654724409449
 20
-6.607645669291339
 10
10.80033464566929
 20
-6.599685039370079
 10
10.8031968503937
 20
-6.595279527559055
 10
10.80651181102362
 20
-6.591287401574803
 10
10.81027559055118
 20
-6.587704724409448
 10
10.81449212598425
 20
-6.584531496062992
 10
10.8190157480315
 20
-6.581937007874016
 10
10.82370078740158
 20
-6.580086614173228
 10
10.82855511811024
 20
-6.578976377952756
 10
10.83357086614173
 20
-6.578606299212598
 10
10.83834251968504
 20
-6.5788031496063
 10
10.84246062992126
 20
-6.579389763779528
 10
10.84591732283465
 20
-6.580366141732283
 10
10.84871653543307
 20
-6.581732283464567
 10
10.85203149606299
 20
-6.584188976377953
 10
10.85490551181102
 20
-6.587066929133858
 10
10.85733464566929
 20
-6.590366141732283
 10
10.85932677165354
 20
-6.594086614173229
 10
10.86087401574803
 20
-6.598228346456693
 10
10.86197637795276
 20
-6.602795275590551
 10
10.86264173228346
 20
-6.607779527559055
 10
10.86286220472441
 20
-6.613188976377953
 10
10.86286220472441
 20
-6.703779527559055
  0
LWPOLYLINE
  5
79
330
1F
100
AcDbEntity
  8
Layer 1
 62
     7
370
    18
100
AcDbPolyline
 90
        4
 70
     1
 43
0.0
 10
6.613830708661418
 20
-9.946035433070866
 10
6.586952755905512
 20
-9.960799212598426
 10
6.613814960629921
 20
-9.975594488188976
 10
6.613830708661418
 20
-9.946035433070866
  0
LWPOLYLINE
  5
7A
330
1F
100
AcDbEntity
  8
Layer 1
 62
     7
370
    18
100
AcDbPolyline
 90
        4
 70
     1
 43
0.0
 10
9.375153543307087
 20
-9.947547244094489
 10
9.402011811023621
 20
-9.96234251968504
 10
9.37513779527559
 20
-9.977106299212599
 10
9.375153543307087
 20
-9.947547244094489
  0
LWPOLYLINE
  5
7B
330
1F
100
AcDbEntity
  8
Layer 1
 62
     7
370
    18
100
AcDbPolyline
 90
        2
 70
     0
 43
0.0
 10
6.578
 20
-9.962374015748031
 10
9.410968503937008
 20
-9.963925196850393
  0
LWPOLYLINE
  5
7C
330
1F
100
AcDbEntity
  8
Layer 1
 62
     7
370
     9
100
AcDbPolyline
 90
       65
 70
     1
 43
0.0
 10
7.791858267716536
 20
-10.21711417322835
 10
7.796740157480315
 20
-10.21732677165354
 10
7.801433070866142
 20
-10.21796062992126
 10
7.805937007874015
 20
-10.2190157480315
 10
7.810248031496063
 20
-10.22049212598425
 10
7.814370078740158
 20
-10.2223937007874
 10
7.818299212598426
 20
-10.2247125984252
 10
7.82203937007874
 20
-10.22745669291339
 10
7.825586614173228
 20
-10.23061811023622
 10
7.828787401574803
 20
-10.23405511811024
 10
7.831562992125984
 20
-10.23768503937008
 10
7.833909448818898
 20
-10.24150787401575
 10
7.835830708661417
 20
-10.24552755905512
 10
7.837326771653544
 20
-10.24974409448819
 10
7.838393700787401
 20
-10.25415354330709
 10
7.839035433070866
 20
-10.25875984251969
 10
7.839248031496063
 20
-10.26355905511811
 10
7.839035433070866
 20
-10.2683188976378
 10
7.838405511811024
 20
-10.27292125984252
 10
7.837350393700787
 20
-10.27735826771653
 10
7.835874015748032
 20
-10.28163779527559
 10
7.833976377952756
 20
-10.28575984251968
 10
7.831653543307087
 20
-10.28972047244094
 10
7.828913385826771
 20
-10.29352362204724
 10
7.825748031496063
 20
-10.29716535433071
 10
7.822287401574803
 20
-10.3004842519685
 10
7.818606299212599
 20
-10.30335826771654
 10
7.814700787401574
 20
-10.30579133858268
 10
7.810574803149606
 20
-10.30777952755905
 10
7.806228346456693
 20
-10.30933070866142
 10
7.801661417322834
 20
-10.31043307086614
 10
7.796870078740158
 20
-10.31109842519685
 10
7.791858267716536
 20
-10.3113188976378
 10
7.786846456692913
 20
-10.31109842519685
 10
7.78205905511811
 20
-10.31043307086614
 10
7.777488188976378
 20
-10.30933070866142
 10
7.773141732283465
 20
-10.30777952755905
 10
7.769011811023622
 20
-10.30579133858268
 10
7.765102362204725
 20
-10.30335826771654
 10
7.761417322834646
 20
-10.3004842519685
 10
7.757952755905512
 20
-10.29716535433071
 10
7.754791338582677
 20
-10.29352362204724
 10
7.752051181102362
 20
-10.28972047244094
 10
7.749732283464567
 20
-10.28575984251968
 10
7.747834645669291
 20
-10.28163779527559
 10
7.746358267716535
 20
-10.27735826771653
 10
7.7453031496063
 20
-10.27292125984252
 10
7.744673228346457
 20
-10.2683188976378
 10
7.74446062992126
 20
-10.26355905511811
 10
7.744673228346457
 20
-10.25875984251969
 10
7.745314960629921
 20
-10.25415354330709
 10
7.74638188976378
 20
-10.24974409448819
 10
7.747877952755905
 20
-10.24552755905512
 10
7.749799212598425
 20
-10.24150787401575
 10
7.752145669291338
 20
-10.23768503937008
 10
7.754921259842519
 20
-10.23405511811024
 10
7.758125984251969
 20
-10.23061811023622
 10
7.761677165354331
 20
-10.22745669291339
 10
7.765417322834645
 20
-10.2247125984252
 10
7.769346456692913
 20
-10.2223937007874
 10
7.773468503937008
 20
-10.22049212598425
 10
7.777779527559055
 20
-10.2190157480315
 10
7.782283464566929
 20
-10.21796062992126
 10
7.786976377952756
 20
-10.21732677165354
 10
7.791858267716536
 20
-10.21711417322835
  0
LWPOLYLINE
  5
7D
330
1F
100
AcDbEntity
  8
Layer 1
 62
     7
370
     9
100
AcDbPolyline
 90
       65
 70
     1
 43
0.0
 10
7.791858267716536
 20
-10.12620472440945
 10
7.795795275590551
 20
-10.12637007874016
 10
7.799582677165354
 20
-10.12686220472441
 10
7.803220472440945
 20
-10.12768503937008
 10
7.806708661417323
 20
-10.12883858267717
 10
7.810051181102362
 20
-10.1303188976378
 10
7.813240157480315
 20
-10.13212992125984
 10
7.816283464566929
 20
-10.13427165354331
 10
7.819177165354331
 20
-10.13674015748031
 10
7.821874015748032
 20
-10.13951968503937
 10
7.824212598425197
 20
-10.14245669291339
 10
7.826192913385826
 20
-10.14555118110236
 10
7.827811023622047
 20
-10.14881102362205
 10
7.829070866141732
 20
-10.15222440944882
 10
7.829968503937008
 20
-10.15579921259843
 10
7.830507874015748
 20
-10.15953543307087
 10
7.830688976377953
 20
-10.16342913385827
 10
7.830507874015748
 20
-10.16723622047244
 10
7.829968503937008
 20
-10.17092125984252
 10
7.829070866141732
 20
-10.1744842519685
 10
7.827811023622047
 20
-10.17792125984252
 10
7.826192913385826
 20
-10.18123622047244
 10
7.824212598425197
 20
-10.18442913385827
 10
7.821874015748032
 20
-10.18749606299213
 10
7.819177165354331
 20
-10.19044094488189
 10
7.816303149606299
 20
-10.19306299212598
 10
7.813271653543307
 20
-10.19533464566929
 10
7.810090551181102
 20
-10.19725984251968
 10
7.806751968503937
 20
-10.19883464566929
 10
7.803259842519685
 20
-10.20005905511811
 10
7.799614173228346
 20
-10.20093307086614
 10
7.795814960629921
 20
-10.20146062992126
 10
7.791858267716536
 20
-10.20163385826772
 10
7.787905511811023
 20
-10.20146062992126
 10
7.784102362204725
 20
-10.20093307086614
 10
7.780456692913386
 20
-10.20005905511811
 10
7.776964566929134
 20
-10.19883464566929
 10
7.773629921259842
 20
-10.19725984251968
 10
7.770444881889763
 20
-10.19533464566929
 10
7.767417322834645
 20
-10.19306299212598
 10
7.76453937007874
 20
-10.19044094488189
 10
7.761838582677165
 20
-10.18749606299213
 10
7.7595
 20
-10.18442913385827
 10
7.75751968503937
 20
-10.18123622047244
 10
7.755897637795275
 20
-10.17792125984252
 10
7.754637795275591
 20
-10.1744842519685
 10
7.753740157480315
 20
-10.17092125984252
 10
7.753200787401575
 20
-10.16723622047244
 10
7.75301968503937
 20
-10.16342913385827
 10
7.753200787401575
 20
-10.15953543307087
 10
7.753740157480315
 20
-10.15579921259843
 10
7.754637795275591
 20
-10.15222440944882
 10
7.755897637795275
 20
-10.14881102362205
 10
7.75751968503937
 20
-10.14555118110236
 10
7.7595
 20
-10.14245669291339
 10
7.761838582677165
 20
-10.13951968503937
 10
7.76453937007874
 20
-10.13674015748031
 10
7.767433070866142
 20
-10.13427165354331
 10
7.770476377952756
 20
-10.13212992125984
 10
7.773665354330709
 20
-10.1303188976378
 10
7.777007874015748
 20
-10.12883858267717
 10
7.780496062992126
 20
-10.12768503937008
 10
7.784133858267716
 20
-10.12686220472441
 10
7.78792125984252
 20
-10.12637007874016
 10
7.791858267716536
 20
-10.12620472440945
  0
LWPOLYLINE
  5
7E
330
1F
100
AcDbEntity
  8
Layer 1
 62
     7
370
     9
100
AcDbPolyline
 90
      115
 70
     1
 43
0.0
 10
7.791858267716536
 20
-10.33438188976378
 10
7.79940157480315
 20
-10.33409448818898
 10
7.806637795275591
 20
-10.33324015748031
 10
7.813574803149606
 20
-10.33181102362205
 10
7.820204724409449
 20
-10.32981102362205
 10
7.826531496062992
 20
-10.32724015748031
 10
7.832555118110236
 20
-10.32410236220472
 10
7.838275590551181
 20
-10.32038976377953
 10
7.843692913385826
 20
-10.3161062992126
 10
7.848444881889764
 20
-10.31151181102362
 10
7.852661417322834
 20
-10.30646456692913
 10
7.85634251968504
 20
-10.30096850393701
 10
7.859492125984252
 20
-10.29502362204724
 10
7.86084251968504
 20
-10.29187795275591
 10
7.862011811023622
 20
-10.28861811023622
 10
7.863
 20
-10.28524409448819
 10
7.863811023622048
 20
-10.28175984251969
 10
7.864893700787402
 20
-10.27444881889764
 10
7.865251968503937
 20
-10.26668897637795
 10
7.865098425196851
 20
-10.26270078740158
 10
7.864645669291338
 20
-10.25872047244095
 10
7.863885826771654
 20
-10.25475196850394
 10
7.862822834645669
 20
-10.25079527559055
 10
7.861456692913386
 20
-10.24684645669291
 10
7.859787401574803
 20
-10.2429094488189
 10
7.857814960629922
 20
-10.2389842519685
 10
7.85553937007874
 20
-10.23507086614173
 10
7.85298031496063
 20
-10.23124803149606
 10
7.850157480314961
 20
-10.2276062992126
 10
7.847074803149606
 20
-10.22414173228347
 10
7.843732283464567
 20
-10.22086220472441
 10
7.840125984251968
 20
-10.21775984251969
 10
7.836255905511811
 20
-10.21483858267717
 10
7.832122047244095
 20
-10.21210236220472
 10
7.827728346456693
 20
-10.20954330708661
 10
7.833976377952756
 20
-10.20396456692913
 10
7.839389763779527
 20
-10.19826771653543
 10
7.843972440944882
 20
-10.19245275590551
 10
7.847720472440945
 20
-10.18651968503937
 10
7.85063779527559
 20
-10.18047244094488
 10
7.852720472440945
 20
-10.1743031496063
 10
7.853968503937008
 20
-10.16801968503937
 10
7.854385826771654
 20
-10.16161811023622
 10
7.854102362204724
 20
-10.15529921259843
 10
7.853244094488189
 20
-10.14927559055118
 10
7.851818897637795
 20
-10.14354330708662
 10
7.849818897637795
 20
-10.1381062992126
 10
7.847251968503937
 20
-10.13296062992126
 10
7.844114173228347
 20
-10.1281062992126
 10
7.84040157480315
 20
-10.12354724409449
 10
7.836122047244094
 20
-10.11928346456693
 10
7.831598425196851
 20
-10.11557874015748
 10
7.826783464566929
 20
-10.11236614173228
 10
7.821685039370078
 20
-10.10964960629921
 10
7.816295275590551
 20
-10.10742913385827
 10
7.810618110236221
 20
-10.10570078740158
 10
7.804653543307086
 20
-10.10446456692913
 10
7.798401574803149
 20
-10.10372440944882
 10
7.791858267716536
 20
-10.10347637795276
 10
7.785314960629921
 20
-10.10372440944882
 10
7.779062992125985
 20
-10.10446456692913
 10
7.773094488188977
 20
-10.10570078740158
 10
7.767417322834645
 20
-10.10742913385827
 10
7.762027559055118
 20
-10.10964960629921
 10
7.756925196850394
 20
-10.11236614173228
 10
7.752114173228346
 20
-10.11557874015748
 10
7.747586614173228
 20
-10.11928346456693
 10
7.743307086614173
 20
-10.12354724409449
 10
7.73959842519685
 20
-10.12809842519685
 10
7.73646062992126
 20
-10.13293700787402
 10
7.733893700787402
 20
-10.13806299212598
 10
7.731897637795275
 20
-10.14348031496063
 10
7.730472440944882
 20
-10.14918503937008
 10
7.729614173228346
 20
-10.15517716535433
 10
7.729330708661418
 20
-10.16145669291339
 10
7.729748031496063
 20
-10.16789763779528
 10
7.730996062992126
 20
-10.17421653543307
 10
7.73307874015748
 20
-10.1804094488189
 10
7.735992125984252
 20
-10.18648031496063
 10
7.739740157480315
 20
-10.19243307086614
 10
7.744318897637795
 20
-10.19825590551181
 10
7.749732283464567
 20
-10.20396062992126
 10
7.75598031496063
 20
-10.20954330708661
 10
7.751586614173228
 20
-10.21210236220472
 10
7.747452755905512
 20
-10.21483858267717
 10
7.743582677165354
 20
-10.21775984251969
 10
7.739976377952756
 20
-10.22086220472441
 10
7.736633858267717
 20
-10.22414173228347
 10
7.733551181102362
 20
-10.2276062992126
 10
7.730732283464567
 20
-10.23124803149606
 10
7.728177165354331
 20
-10.23507086614173
 10
7.725901574803149
 20
-10.23899212598425
 10
7.723929133858268
 20
-10.24294094488189
 10
7.722259842519685
 20
-10.24691732283465
 10
7.720897637795275
 20
-10.25092125984252
 10
7.719834645669291
 20
-10.25494881889764
 10
7.719074803149606
 20
-10.25900393700787
 10
7.718622047244095
 20
-10.26308267716535
 10
7.718468503937008
 20
-10.26718897637795
 10
7.718807086614174
 20
-10.27454724409449
 10
7.719814960629921
 20
-10.28154724409449
 10
7.7215
 20
-10.28819291338583
 10
7.723858267716535
 20
-10.2944842519685
 10
7.726889763779528
 20
-10.30042125984252
 10
7.730594488188976
 20
-10.30600393700787
 10
7.734968503937008
 20
-10.31123228346457
 10
7.74001968503937
 20
-10.3161062992126
 10
7.745437007874016
 20
-10.32038976377953
 10
7.75115748031496
 20
-10.32410236220472
 10
7.757185039370079
 20
-10.32724015748031
 10
7.763511811023622
 20
-10.32981102362205
 10
7.770141732283465
 20
-10.33181102362205
 10
7.777078740157481
 20
-10.33324015748031
 10
7.784314960629922
 20
-10.33409448818898
 10
7.791858267716536
 20
-10.33438188976378
  0
LWPOLYLINE
  5
7F
330
1F
100
AcDbEntity
  8
Layer 1
 62
     7
370
     9
100
AcDbPolyline
 90
       65
 70
     1
 43
0.0
 10
7.962173228346456
 20
-10.22931102362205
 10
7.956921259842519
 20
-10.22907086614173
 10
7.951866141732284
 20
-10.22834251968504
 10
7.947003937007874
 20
-10.22713385826772
 10
7.942342519685039
 20
-10.22543700787402
 10
7.937874015748031
 20
-10.22325984251968
 10
7.93359842519685
 20
-10.22059842519685
 10
7.929523622047244
 20
-10.21745275590551
 10
7.925641732283465
 20
-10.21382283464567
 10
7.922129921259843
 20
-10.20990157480315
 10
7.919086614173229
 20
-10.20579527559055
 10
7.916515748031496
 20
-10.20150393700787
 10
7.914409448818898
 20
-10.19702755905512
 10
7.912771653543307
 20
-10.19236220472441
 10
7.911602362204724
 20
-10.1875157480315
 10
7.91090157480315
 20
-10.18248031496063
 10
7.910669291338583
 20
-10.17726377952756
 10
7.910905511811023
 20
-10.17216141732283
 10
7.911614173228346
 20
-10.16723622047244
 10
7.912795275590551
 20
-10.16248818897638
 10
7.914452755905512
 20
-10.15791338582677
 10
7.916578740157481
 20
-10.15351181102362
 10
7.919181102362205
 20
-10.1492874015748
 10
7.922255905511811
 20
-10.14523622047244
 10
7.925803149606299
 20
-10.14136220472441
 10
7.929614173228346
 20
-10.13788582677165
 10
7.933641732283465
 20
-10.13487795275591
 10
7.937885826771653
 20
-10.13232677165354
 10
7.942342519685039
 20
-10.13024015748032
 10
7.94701968503937
 20
-10.12861811023622
 10
7.951909448818897
 20
-10.12746062992126
 10
7.957015748031496
 20
-10.12676377952756
 10
7.962338582677165
 20
-10.12653149606299
 10
7.967559055118111
 20
-10.12677165354331
 10
7.972602362204724
 20
-10.12748818897638
 10
7.977472440944882
 20
-10.12868503937008
 10
7.982169291338582
 20
-10.13036220472441
 10
7.986688976377953
 20
-10.13251968503937
 10
7.991035433070866
 20
-10.13515354330709
 10
7.995208661417323
 20
-10.13826377952756
 10
7.999204724409449
 20
-10.14185433070866
 10
8.002826771653544
 20
-10.14573622047244
 10
8.005964566929133
 20
-10.14981102362205
 10
8.008622047244094
 20
-10.15407086614173
 10
8.010795275590551
 20
-10.15852755905512
 10
8.012488188976379
 20
-10.16316929133858
 10
8.013692913385826
 20
-10.16800393700787
 10
8.01442125984252
 20
-10.17302755905512
 10
8.014661417322834
 20
-10.17824409448819
 10
8.014417322834646
 20
-10.18331102362205
 10
8.01368503937008
 20
-10.1882125984252
 10
8.012464566929134
 20
-10.19294881889764
 10
8.010755905511811
 20
-10.19751968503937
 10
8.008559055118111
 20
-10.20192519685039
 10
8.00587401574803
 20
-10.20616535433071
 10
8.002700787401574
 20
-10.21024015748032
 10
7.99903937007874
 20
-10.21414960629921
 10
7.995346456692913
 20
-10.21743307086614
 10
7.991346456692914
 20
-10.22037007874016
 10
7.987035433070866
 20
-10.22295275590551
 10
7.982413385826772
 20
-10.22518897637795
 10
7.977570866141733
 20
-10.22699212598425
 10
7.972582677165354
 20
-10.22827952755905
 10
7.967448818897638
 20
-10.22905118110236
 10
7.962173228346456
 20
-10.22931102362205
  0
LWPOLYLINE
  5
80
330
1F
100
AcDbEntity
  8
Layer 1
 62
     7
370
     9
100
AcDbPolyline
 90
       63
 70
     1
 43
0.0
 10
7.887299212598426
 20
-10.17890551181102
 10
7.887657480314961
 20
-10.18683858267717
 10
7.888740157480315
 20
-10.1944094488189
 10
7.890539370078741
 20
-10.2016220472441
 10
7.89305905511811
 20
-10.20847244094488
 10
7.896299212598425
 20
-10.21496062992126
 10
7.900259842519685
 20
-10.2210905511811
 10
7.90494094488189
 20
-10.22686220472441
 10
7.910342519685039
 20
-10.23227165354331
 10
7.915858267716535
 20
-10.23682677165354
 10
7.921763779527559
 20
-10.24082283464567
 10
7.928055118110236
 20
-10.24425984251969
 10
7.934732283464567
 20
-10.24713385826772
 10
7.941795275590551
 20
-10.24944881889764
 10
7.949244094488189
 20
-10.25120078740157
 10
7.95707874015748
 20
-10.25238976377953
 10
7.965299212598425
 20
-10.25301968503937
 10
7.971885826771653
 20
-10.24874015748031
 10
7.903429133858268
 20
-10.33108661417323
 10
7.933700787401575
 20
-10.33108661417323
 10
8.021248031496063
 20
-10.22535039370079
 10
8.025181102362204
 20
-10.22020078740158
 10
8.028594488188977
 20
-10.21484251968504
 10
8.03148031496063
 20
-10.20927165354331
 10
8.033838582677165
 20
-10.20348818897638
 10
8.035673228346457
 20
-10.19749606299213
 10
8.036988188976379
 20
-10.1912874015748
 10
8.037771653543308
 20
-10.18487401574803
 10
8.038035433070867
 20
-10.17824409448819
 10
8.037688976377952
 20
-10.17061023622047
 10
8.036657480314961
 20
-10.16326771653543
 10
8.034933070866142
 20
-10.15622047244094
 10
8.032523622047243
 20
-10.14946850393701
 10
8.02942125984252
 20
-10.14300787401575
 10
8.025629921259842
 20
-10.13683858267717
 10
8.02114566929134
 20
-10.13096456692913
 10
8.015976377952756
 20
-10.12538582677165
 10
8.010283464566928
 20
-10.12024803149606
 10
8.004314960629921
 20
-10.11579921259843
 10
7.998070866141732
 20
-10.11203149606299
 10
7.991547244094488
 20
-10.10895275590551
 10
7.984744094488189
 20
-10.10655511811024
 10
7.977661417322834
 20
-10.10484645669291
 10
7.970303149606299
 20
-10.1038188976378
 10
7.962665354330709
 20
-10.10347637795276
 10
7.95492125984252
 20
-10.10381496062992
 10
7.947484251968504
 20
-10.10483464566929
 10
7.940358267716536
 20
-10.10653149606299
 10
7.93353937007874
 20
-10.1089094488189
 10
7.927027559055118
 20
-10.11196456692913
 10
7.920826771653544
 20
-10.11570078740158
 10
7.914933070866142
 20
-10.12011811023622
 10
7.909350393700787
 20
-10.1252125984252
 10
7.904515748031496
 20
-10.13052755905512
 10
7.900220472440945
 20
-10.13625196850394
 10
7.896456692913386
 20
-10.14238188976378
 10
7.893224409448819
 20
-10.14892913385827
 10
7.891838582677165
 20
-10.15235433070866
 10
7.890633858267717
 20
-10.15587007874016
 10
7.889614173228346
 20
-10.15947637795276
 10
7.888783464566929
 20
-10.16317716535433
 10
7.887669291338582
 20
-10.17085433070866
 10
7.887299212598426
 20
-10.17890551181102
  0
LWPOLYLINE
  5
81
330
1F
100
AcDbEntity
  8
Layer 1
 62
     7
370
     9
100
AcDbPolyline
 90
      113
 70
     1
 43
0.0
 10
8.255248031496063
 20
-10.33042913385827
 10
8.278279527559055
 20
-10.33042913385827
 10
8.278279527559055
 20
-10.23984645669291
 10
8.278090551181103
 20
-10.23383464566929
 10
8.277531496062991
 20
-10.22810236220472
 10
8.276590551181103
 20
-10.22265354330709
 10
8.275279527559055
 20
-10.21748818897638
 10
8.273590551181103
 20
-10.2126062992126
 10
8.271531496062993
 20
-10.20800787401575
 10
8.269090551181103
 20
-10.20369291338583
 10
8.266279527559055
 20
-10.19966141732283
 10
8.263035433070867
 20
-10.19590157480315
 10
8.259405511811023
 20
-10.19253543307087
 10
8.255381889763779
 20
-10.18955905511811
 10
8.250968503937008
 20
-10.18697244094488
 10
8.248574803149607
 20
-10.18585433070866
 10
8.245992125984252
 20
-10.18488582677165
 10
8.243228346456693
 20
-10.18406692913386
 10
8.240275590551182
 20
-10.18339763779528
 10
8.233814960629921
 20
-10.18250393700787
 10
8.226614173228347
 20
-10.18220472440945
 10
8.222889763779527
 20
-10.18233464566929
 10
8.219279527559054
 20
-10.18272047244094
 10
8.215791338582678
 20
-10.18336220472441
 10
8.21242125984252
 20
-10.18426377952756
 10
8.20916535433071
 20
-10.18542125984252
 10
8.206031496062993
 20
-10.18683858267717
 10
8.203015748031497
 20
-10.18851181102362
 10
8.20011811023622
 20
-10.19044094488189
 10
8.195200787401575
 20
-10.19442913385827
 10
8.190740157480315
 20
-10.19898818897638
 10
8.18672440944882
 20
-10.20410236220472
 10
8.18316535433071
 20
-10.20975984251968
 10
8.177086614173229
 20
-10.19966141732283
 10
8.173850393700787
 20
-10.19590157480315
 10
8.17021653543307
 20
-10.19253543307087
 10
8.166196850393701
 20
-10.18955905511811
 10
8.161787401574804
 20
-10.18697244094488
 10
8.159389763779528
 20
-10.18585433070866
 10
8.156807086614172
 20
-10.18488582677165
 10
8.15403937007874
 20
-10.18406692913386
 10
8.151086614173229
 20
-10.18339763779528
 10
8.144625984251968
 20
-10.18250393700787
 10
8.137429133858268
 20
-10.18220472440945
 10
8.133700787401574
 20
-10.18233464566929
 10
8.130094488188977
 20
-10.18272047244094
 10
8.126602362204725
 20
-10.18336220472441
 10
8.123232283464567
 20
-10.18426377952756
 10
8.11998031496063
 20
-10.18542125984252
 10
8.116846456692913
 20
-10.18683858267717
 10
8.113826771653544
 20
-10.18851181102362
 10
8.110929133858267
 20
-10.19044094488189
 10
8.106240157480315
 20
-10.19422834645669
 10
8.10196062992126
 20
-10.1985157480315
 10
8.098090551181102
 20
-10.20330708661417
 10
8.09463779527559
 20
-10.20861417322835
 10
8.09463779527559
 20
-10.18549212598425
 10
8.071606299212599
 20
-10.18549212598425
 10
8.071606299212599
 20
-10.33042913385827
 10
8.09463779527559
 20
-10.33042913385827
 10
8.09463779527559
 20
-10.25625590551181
 10
8.095870078740157
 20
-10.24778346456693
 10
8.09776377952756
 20
-10.23998031496063
 10
8.098956692913386
 20
-10.23632283464567
 10
8.100314960629921
 20
-10.23283070866142
 10
8.101838582677166
 20
-10.22950393700787
 10
8.103523622047245
 20
-10.22633464566929
 10
8.106385826771653
 20
-10.22193307086614
 10
8.1096968503937
 20
-10.21794094488189
 10
8.11346062992126
 20
-10.21435826771654
 10
8.117677165354332
 20
-10.21118897637795
 10
8.122204724409448
 20
-10.2085905511811
 10
8.126893700787402
 20
-10.20674015748031
 10
8.131748031496063
 20
-10.20562992125984
 10
8.136767716535433
 20
-10.20525984251969
 10
8.14153937007874
 20
-10.20545669291339
 10
8.145653543307086
 20
-10.20603937007874
 10
8.149110236220473
 20
-10.20701968503937
 10
8.151909448818898
 20
-10.20838976377953
 10
8.155228346456694
 20
-10.21084645669291
 10
8.158102362204724
 20
-10.21372047244095
 10
8.160535433070866
 20
-10.21701968503937
 10
8.162527559055118
 20
-10.22074015748031
 10
8.164074803149607
 20
-10.22488188976378
 10
8.165181102362205
 20
-10.22944881889764
 10
8.165846456692913
 20
-10.23443700787402
 10
8.166066929133859
 20
-10.23984645669291
 10
8.166066929133859
 20
-10.33042913385827
 10
8.189090551181103
 20
-10.33042913385827
 10
8.189090551181103
 20
-10.23984645669291
 10
8.188925196850393
 20
-10.23429527559055
 10
8.192716535433071
 20
-10.22633464566929
 10
8.195574803149606
 20
-10.22193307086614
 10
8.198889763779528
 20
-10.21794094488189
 10
8.202653543307086
 20
-10.21435826771654
 10
8.206870078740158
 20
-10.21118897637795
 10
8.2113937007874
 20
-10.2085905511811
 10
8.216082677165355
 20
-10.20674015748031
 10
8.220937007874015
 20
-10.20562992125984
 10
8.225956692913385
 20
-10.20525984251969
 10
8.230728346456694
 20
-10.20545669291339
 10
8.234842519685039
 20
-10.20603937007874
 10
8.238299212598426
 20
-10.20701968503937
 10
8.241102362204725
 20
-10.20838976377953
 10
8.244417322834646
 20
-10.21084645669291
 10
8.247291338582677
 20
-10.21372047244095
 10
8.249720472440945
 20
-10.21701968503937
 10
8.251712598425197
 20
-10.22074015748031
 10
8.253259842519686
 20
-10.22488188976378
 10
8.25436220472441
 20
-10.22944881889764
 10
8.255027559055119
 20
-10.23443700787402
 10
8.255248031496063
 20
-10.23984645669291
 10
8.255248031496063
 20
-10.33042913385827
  0
LWPOLYLINE
  5
82
330
1F
100
AcDbEntity
  8
Layer 1
 62
     7
370
     9
100
AcDbPolyline
 90
      113
 70
     1
 43
0.0
 10
8.506358267716536
 20
-10.33042913385827
 10
8.529401574803149
 20
-10.33042913385827
 10
8.529401574803149
 20
-10.23984645669291
 10
8.529212598425197
 20
-10.23383464566929
 10
8.528649606299213
 20
-10.22810236220472
 10
8.527712598425197
 20
-10.22265354330709
 10
8.526397637795275
 20
-10.21748818897638
 10
8.524708661417323
 20
-10.2126062992126
 10
8.522645669291338
 20
-10.20800787401575
 10
8.52020472440945
 20
-10.20369291338583
 10
8.517389763779528
 20
-10.19966141732283
 10
8.514149606299213
 20
-10.19590157480315
 10
8.510515748031496
 20
-10.19253543307087
 10
8.506496062992126
 20
-10.18955905511811
 10
8.502078740157481
 20
-10.18697244094488
 10
8.499685039370078
 20
-10.18585433070866
 10
8.497102362204725
 20
-10.18488582677165
 10
8.494338582677166
 20
-10.18406692913386
 10
8.491385826771653
 20
-10.18339763779528
 10
8.484925196850394
 20
-10.18250393700787
 10
8.477724409448818
 20
-10.18220472440945
 10
8.474
 20
-10.18233464566929
 10
8.470393700787401
 20
-10.18272047244094
 10
8.466901574803149
 20
-10.18336220472441
 10
8.463531496062991
 20
-10.18426377952756
 10
8.460279527559056
 20
-10.18542125984252
 10
8.45714566929134
 20
-10.18683858267717
 10
8.454129921259842
 20
-10.18851181102362
 10
8.451232283464567
 20
-10.19044094488189
 10
8.446318897637795
 20
-10.19442913385827
 10
8.441854330708662
 20
-10.19898818897638
 10
8.43784251968504
 20
-10.20410236220472
 10
8.43428346456693
 20
-10.20975984251968
 10
8.4281968503937
 20
-10.19966141732283
 10
8.42496062992126
 20
-10.19590157480315
 10
8.421326771653543
 20
-10.19253543307087
 10
8.417307086614173
 20
-10.18955905511811
 10
8.412897637795275
 20
-10.18697244094488
 10
8.4105
 20
-10.18585433070866
 10
8.407917322834646
 20
-10.18488582677165
 10
8.405149606299213
 20
-10.18406692913386
 10
8.4021968503937
 20
-10.18339763779528
 10
8.395736220472442
 20
-10.18250393700787
 10
8.38853937007874
 20
-10.18220472440945
 10
8.384811023622047
 20
-10.18233464566929
 10
8.381204724409448
 20
-10.18272047244094
 10
8.377712598425196
 20
-10.18336220472441
 10
8.374342519685039
 20
-10.18426377952756
 10
8.371090551181103
 20
-10.18542125984252
 10
8.367956692913387
 20
-10.18683858267717
 10
8.364937007874016
 20
-10.18851181102362
 10
8.36203937007874
 20
-10.19044094488189
 10
8.357354330708661
 20
-10.19422834645669
 10
8.35307874015748
 20
-10.1985157480315
 10
8.349208661417324
 20
-10.20330708661417
 10
8.345755905511812
 20
-10.20861417322835
 10
8.345755905511812
 20
-10.18549212598425
 10
8.32271653543307
 20
-10.18549212598425
 10
8.32271653543307
 20
-10.33042913385827
 10
8.345755905511812
 20
-10.33042913385827
 10
8.345755905511812
 20
-10.25625590551181
 10
8.346988188976377
 20
-10.24778346456693
 10
8.34888188976378
 20
-10.23998031496063
 10
8.350074803149607
 20
-10.23632283464567
 10
8.351433070866142
 20
-10.23283070866142
 10
8.352956692913386
 20
-10.22950393700787
 10
8.354641732283465
 20
-10.22633464566929
 10
8.357496062992126
 20
-10.22193307086614
 10
8.360807086614173
 20
-10.21794094488189
 10
8.364570866141733
 20
-10.21435826771654
 10
8.368787401574803
 20
-10.21118897637795
 10
8.373314960629921
 20
-10.2085905511811
 10
8.378003937007874
 20
-10.20674015748031
 10
8.382858267716536
 20
-10.20562992125984
 10
8.387877952755906
 20
-10.20525984251969
 10
8.392649606299212
 20
-10.20545669291339
 10
8.396763779527559
 20
-10.20603937007874
 10
8.400220472440944
 20
-10.20701968503937
 10
8.403023622047245
 20
-10.20838976377953
 10
8.406338582677165
 20
-10.21084645669291
 10
8.409216535433071
 20
-10.21372047244095
 10
8.411645669291339
 20
-10.21701968503937
 10
8.41363779527559
 20
-10.22074015748031
 10
8.415185039370078
 20
-10.22488188976378
 10
8.416291338582678
 20
-10.22944881889764
 10
8.416956692913386
 20
-10.23443700787402
 10
8.41717716535433
 20
-10.23984645669291
 10
8.41717716535433
 20
-10.33042913385827
 10
8.440208661417323
 20
-10.33042913385827
 10
8.440208661417323
 20
-10.23984645669291
 10
8.440043307086615
 20
-10.23429527559055
 10
8.443834645669291
 20
-10.22633464566929
 10
8.446688976377953
 20
-10.22193307086614
 10
8.45
 20
-10.21794094488189
 10
8.45376377952756
 20
-10.21435826771654
 10
8.45798031496063
 20
-10.21118897637795
 10
8.462507874015747
 20
-10.2085905511811
 10
8.467196850393702
 20
-10.20674015748031
 10
8.472051181102362
 20
-10.20562992125984
 10
8.477066929133859
 20
-10.20525984251969
 10
8.481838582677165
 20
-10.20545669291339
 10
8.485956692913385
 20
-10.20603937007874
 10
8.489413385826772
 20
-10.20701968503937
 10
8.492212598425198
 20
-10.20838976377953
 10
8.495527559055118
 20
-10.21084645669291
 10
8.49840157480315
 20
-10.21372047244095
 10
8.500830708661418
 20
-10.21701968503937
 10
8.50282283464567
 20
-10.22074015748031
 10
8.504370078740157
 20
-10.22488188976378
 10
8.505472440944882
 20
-10.22944881889764
 10
8.50613779527559
 20
-10.23443700787402
 10
8.506358267716536
 20
-10.23984645669291
 10
8.506358267716536
 20
-10.33042913385827
  0
ENDSEC
  0
SECTION
  2
OBJECTS
  0
DICTIONARY
  5
C
330
0
100
AcDbDictionary
281
     1
  3
ACAD_DETAILVIEWSTYLE
350
8A
  3
ACAD_GROUP
350
D
  3
ACAD_LAYOUT
350
1A
  3
ACAD_MATERIAL
350
43
  3
ACAD_MLEADERSTYLE
350
5B
  3
ACAD_MLINESTYLE
350
17
  3
ACAD_PLOTSETTINGS
350
19
  3
ACAD_PLOTSTYLENAME
350
E
  3
ACAD_SCALELIST
350
47
  3
ACAD_SECTIONVIEWSTYLE
350
8B
  3
ACAD_TABLESTYLE
350
59
  3
ACAD_VISUALSTYLE
350
2A
  3
ACDB_RECOMPOSE_DATA
350
87
  3
AcDbVariableDictionary
350
83
  0
SUN
  5
5D
330
29
100
AcDbSun
 90
        1
290
     0
 63
     7
421
 16777215
 40
1.0
291
     1
 91
  2455826
 92
 54000000
292
     0
 70
     2
 71
   256
280
     1
  0
DICTIONARY
  5
8A
102
{ACAD_REACTORS
330
C
102
}
330
C
100
AcDbDictionary
281
     1
  0
DICTIONARY
  5
D
102
{ACAD_REACTORS
330
C
102
}
330
C
100
AcDbDictionary
281
     1
  0
DICTIONARY
  5
1A
102
{ACAD_REACTORS
330
C
102
}
330
C
100
AcDbDictionary
281
     1
  3
Layout1
350
1E
  3
Layout2
350
26
  3
Model
350
22
  0
DICTIONARY
  5
43
102
{ACAD_REACTORS
330
C
102
}
330
C
100
AcDbDictionary
281
     1
  3
ByBlock
350
45
  3
ByLayer
350
44
  3
Global
350
46
  0
DICTIONARY
  5
5B
102
{ACAD_REACTORS
330
C
102
}
330
C
100
AcDbDictionary
281
     1
  3
Standard
350
5C
  0
DICTIONARY
  5
17
102
{ACAD_REACTORS
330
C
102
}
330
C
100
AcDbDictionary
281
     1
  3
Standard
350
18
  0
DICTIONARY
  5
19
102
{ACAD_REACTORS
330
C
102
}
330
C
100
AcDbDictionary
281
     1
  0
ACDBDICTIONARYWDFLT
  5
E
102
{ACAD_REACTORS
330
C
102
}
330
C
100
AcDbDictionary
281
     1
  3
Normal
350
F
100
AcDbDictionaryWithDefault
340
F
  0
DICTIONARY
  5
47
102
{ACAD_REACTORS
330
C
102
}
330
C
100
AcDbDictionary
281
     1
  3
A0
350
48
  3
A1
350
49
  3
A2
350
4A
  3
A3
350
4B
  3
A4
350
4C
  3
A5
350
4D
  3
A6
350
4E
  3
A7
350
4F
  3
A8
350
50
  3
A9
350
51
  3
B1
350
52
  3
B2
350
53
  3
B3
350
54
  3
B4
350
55
  3
B5
350
56
  3
B6
350
57
  3
B7
350
58
  0
DICTIONARY
  5
8B
102
{ACAD_REACTORS
330
C
102
}
330
C
100
AcDbDictionary
281
     1
  0
DICTIONARY
  5
59
102
{ACAD_REACTORS
330
C
102
}
330
C
100
AcDbDictionary
281
     1
  3
Standard
350
5A
  0
DICTIONARY
  5
2A
102
{ACAD_REACTORS
330
C
102
}
330
C
100
AcDbDictionary
281
     1
  3
2dWireframe
350
2F
  3
Basic
350
32
  3
Brighten
350
36
  3
ColorChange
350
3A
  3
Conceptual
350
34
  3
Dim
350
35
  3
EdgeColorOff
350
3D
  3
Facepattern
350
39
  3
Flat
350
2B
  3
FlatWithEdges
350
2C
  3
Gouraud
350
2D
  3
GouraudWithEdges
350
2E
  3
Hidden
350
31
  3
JitterOff
350
3B
  3
Linepattern
350
38
  3
OverhangOff
350
3C
  3
Realistic
350
33
  3
Shaded
350
42
  3
Shaded with edges
350
41
  3
Shades of Gray
350
3E
  3
Sketchy
350
3F
  3
Thicken
350
37
  3
Wireframe
350
30
  3
X-Ray
350
40
  0
XRECORD
  5
87
102
{ACAD_REACTORS
330
C
102
}
330
C
100
AcDbXrecord
280
     1
 90
        1
330
5A
  0
DICTIONARY
  5
83
102
{ACAD_REACTORS
330
C
102
}
330
C
100
AcDbDictionary
281
     1
  3
CANNOSCALE
350
84
  3
CMLEADERSTYLE
350
89
  3
CTABLESTYLE
350
88
  0
LAYOUT
  5
1E
102
{ACAD_REACTORS
330
1A
102
}
330
1A
100
AcDbPlotSettings
  1

  2
none_device
  4

  6

 40
0.0
 41
0.0
 42
0.0
 43
0.0
 44
0.0
 45
0.0
 46
0.0
 47
0.0
 48
0.0
 49
0.0
140
0.0
141
0.0
142
1.0
143
1.0
 70
   688
 72
     0
 73
     0
 74
     5
  7

 75
    16
 76
     0
 77
     2
 78
   300
147
1.0
148
0.0
149
0.0
100
AcDbLayout
  1
Layout1
 70
     1
 71
     1
 10
0.0
 20
0.0
 11
12.0
 21
9.0
 12
0.0
 22
0.0
 32
0.0
 14
1.000000000000000E+20
 24
1.000000000000000E+20
 34
1.000000000000000E+20
 15
-1.000000000000000E+20
 25
-1.000000000000000E+20
 35
-1.000000000000000E+20
146
0.0
 13
0.0
 23
0.0
 33
0.0
 16
1.0
 26
0.0
 36
0.0
 17
0.0
 27
1.0
 37
0.0
 76
     0
330
1B
  0
LAYOUT
  5
26
102
{ACAD_REACTORS
330
1A
102
}
330
1A
100
AcDbPlotSettings
  1

  2
none_device
  4

  6

 40
0.0
 41
0.0
 42
0.0
 43
0.0
 44
0.0
 45
0.0
 46
0.0
 47
0.0
 48
0.0
 49
0.0
140
0.0
141
0.0
142
1.0
143
1.0
 70
   688
 72
     0
 73
     0
 74
     5
  7

 75
    16
 76
     0
 77
     2
 78
   300
147
1.0
148
0.0
149
0.0
100
AcDbLayout
  1
Layout2
 70
     1
 71
     2
 10
0.0
 20
0.0
 11
0.0
 21
0.0
 12
0.0
 22
0.0
 32
0.0
 14
0.0
 24
0.0
 34
0.0
 15
0.0
 25
0.0
 35
0.0
146
0.0
 13
0.0
 23
0.0
 33
0.0
 16
1.0
 26
0.0
 36
0.0
 17
0.0
 27
1.0
 37
0.0
 76
     0
330
23
  0
LAYOUT
  5
22
102
{ACAD_REACTORS
330
1A
102
}
330
1A
100
AcDbPlotSettings
  1

  2
none_device
  4
Letter_(8.50_x_11.00_Inches)
  6

 40
6.35
 41
6.35
 42
6.35000508
 43
6.35000508
 44
215.9
 45
279.4
 46
0.0
 47
0.0
 48
0.0
 49
0.0
140
0.0
141
0.0
142
1.0
143
1.0
 70
  1712
 72
     0
 73
     0
 74
     0
  7

 75
     0
 76
     0
 77
     2
 78
   300
147
1.0
148
0.0
149
0.0
100
AcDbLayout
  1
Model
 70
     1
 71
     0
 10
0.0
 20
0.0
 11
12.0
 21
9.0
 12
0.0
 22
0.0
 32
0.0
 14
5.430429133858268
 24
-10.53083858267717
 34
0.0
 15
11.35196850393701
 25
-3.414700787401575
 35
0.0
146
0.0
 13
0.0
 23
0.0
 33
0.0
 16
1.0
 26
0.0
 36
0.0
 17
0.0
 27
1.0
 37
0.0
 76
     0
330
1F
331
29
  0
MATERIAL
  5
45
102
{ACAD_REACTORS
330
43
102
}
330
43
100
AcDbMaterial
  1
ByBlock
 72
     1
 94
      127
  0
MATERIAL
  5
44
102
{ACAD_REACTORS
330
43
102
}
330
43
100
AcDbMaterial
  1
ByLayer
 72
     1
 94
      127
  0
MATERIAL
  5
46
102
{ACAD_REACTORS
330
43
102
}
330
43
100
AcDbMaterial
  1
Global
 72
     1
 94
      127
  0
MLEADERSTYLE
  5
5C
102
{ACAD_REACTORS
330
5B
102
}
330
5B
100
AcDbMLeaderStyle
179
     2
170
     2
171
     1
172
     0
 90
        2
 40
0.0
 41
0.0
173
     1
 91
-1056964608
340
14
 92
       -2
290
     1
 42
0.09
291
     1
 43
0.36
  3
Standard
341
0
 44
0.18
300

342
11
174
     1
178
     6
175
     1
176
     0
 93
-1056964608
 45
0.18
292
     0
297
     0
 46
0.18
343
0
 94
-1056964608
 47
1.0
 49
1.0
140
1.0
293
     1
141
0.0
294
     1
177
     0
142
1.0
295
     0
296
     0
143
0.125
271
     0
272
     9
273
     9
298
     0
  0
MLINESTYLE
  5
18
102
{ACAD_REACTORS
330
17
102
}
330
17
100
AcDbMlineStyle
  2
Standard
 70
     0
  3

 62
   256
 51
90.0
 52
90.0
 71
     2
 49
0.5
 62
   256
  6
BYLAYER
 49
-0.5
 62
   256
  6
BYLAYER
  0
ACDBPLACEHOLDER
  5
F
102
{ACAD_REACTORS
330
E
102
}
330
E
  0
SCALE
  5
48
102
{ACAD_REACTORS
330
47
102
}
330
47
100
AcDbScale
 70
     0
300
1:1
140
1.0
141
1.0
290
     1
  0
SCALE
  5
49
102
{ACAD_REACTORS
330
47
102
}
330
47
100
AcDbScale
 70
     0
300
1/128" = 1'-0"
140
0.0078125
141
12.0
290
     0
  0
SCALE
  5
4A
102
{ACAD_REACTORS
330
47
102
}
330
47
100
AcDbScale
 70
     0
300
1/64" = 1'-0"
140
0.015625
141
12.0
290
     0
  0
SCALE
  5
4B
102
{ACAD_REACTORS
330
47
102
}
330
47
100
AcDbScale
 70
     0
300
1/32" = 1'-0"
140
0.03125
141
12.0
290
     0
  0
SCALE
  5
4C
102
{ACAD_REACTORS
330
47
102
}
330
47
100
AcDbScale
 70
     0
300
1/16" = 1'-0"
140
0.0625
141
12.0
290
     0
  0
SCALE
  5
4D
102
{ACAD_REACTORS
330
47
102
}
330
47
100
AcDbScale
 70
     0
300
3/32" = 1'-0"
140
0.09375
141
12.0
290
     0
  0
SCALE
  5
4E
102
{ACAD_REACTORS
330
47
102
}
330
47
100
AcDbScale
 70
     0
300
1/8" = 1'-0"
140
0.125
141
12.0
290
     0
  0
SCALE
  5
4F
102
{ACAD_REACTORS
330
47
102
}
330
47
100
AcDbScale
 70
     0
300
3/16" = 1'-0"
140
0.1875
141
12.0
290
     0
  0
SCALE
  5
50
102
{ACAD_REACTORS
330
47
102
}
330
47
100
AcDbScale
 70
     0
300
1/4" = 1'-0"
140
0.25
141
12.0
290
     0
  0
SCALE
  5
51
102
{ACAD_REACTORS
330
47
102
}
330
47
100
AcDbScale
 70
     0
300
3/8" = 1'-0"
140
0.375
141
12.0
290
     0
  0
SCALE
  5
52
102
{ACAD_REACTORS
330
47
102
}
330
47
100
AcDbScale
 70
     0
300
1/2" = 1'-0"
140
0.5
141
12.0
290
     0
  0
SCALE
  5
53
102
{ACAD_REACTORS
330
47
102
}
330
47
100
AcDbScale
 70
     0
300
3/4" = 1'-0"
140
0.75
141
12.0
290
     0
  0
SCALE
  5
54
102
{ACAD_REACTORS
330
47
102
}
330
47
100
AcDbScale
 70
     0
300
1" = 1'-0"
140
1.0
141
12.0
290
     0
  0
SCALE
  5
55
102
{ACAD_REACTORS
330
47
102
}
330
47
100
AcDbScale
 70
     0
300
1-1/2" = 1'-0"
140
1.5
141
12.0
290
     0
  0
SCALE
  5
56
102
{ACAD_REACTORS
330
47
102
}
330
47
100
AcDbScale
 70
     0
300
3" = 1'-0"
140
3.0
141
12.0
290
     0
  0
SCALE
  5
57
102
{ACAD_REACTORS
330
47
102
}
330
47
100
AcDbScale
 70
     0
300
6" = 1'-0"
140
6.0
141
12.0
290
     0
  0
SCALE
  5
58
102
{ACAD_REACTORS
330
47
102
}
330
47
100
AcDbScale
 70
     0
300
1'-0" = 1'-0"
140
12.0
141
12.0
290
     0
  0
TABLESTYLE
  5
5A
102
{ACAD_REACTORS
330
59
102
}
102
{ACAD_XDICTIONARY
360
85
102
}
330
59
100
AcDbTableStyle
  3
Standard
 70
     0
 71
     0
 40
0.06
 41
0.06
280
     0
281
     0
  7
Standard
140
0.18
170
     2
 62
     0
 63
   257
283
     0
 90
        4
 91
        0
  1

274
    -2
284
     1
 64
     0
275
    -2
285
     1
 65
     0
276
    -2
286
     1
 66
     0
277
    -2
287
     1
 67
     0
278
    -2
288
     1
 68
     0
279
    -2
289
     1
 69
     0
  7
Standard
140
0.25
170
     5
 62
     0
 63
   257
283
     0
 90
        4
 91
        0
  1

274
    -2
284
     1
 64
     0
275
    -2
285
     1
 65
     0
276
    -2
286
     1
 66
     0
277
    -2
287
     1
 67
     0
278
    -2
288
     1
 68
     0
279
    -2
289
     1
 69
     0
  7
Standard
140
0.18
170
     5
 62
     0
 63
   257
283
     0
 90
        4
 91
        0
  1

274
    -2
284
     1
 64
     0
275
    -2
285
     1
 65
     0
276
    -2
286
     1
 66
     0
277
    -2
287
     1
 67
     0
278
    -2
288
     1
 68
     0
279
    -2
289
     1
 69
     0
  0
VISUALSTYLE
  5
2F
102
{ACAD_REACTORS
330
2A
102
}
330
2A
100
AcDbVisualStyle
  2
2dWireframe
 70
     4
177
     3
291
     0
 70
    58
 90
        0
176
     1
 90
        2
176
     1
 90
        0
176
     1
 90
        0
176
     1
 40
0.6
176
     1
 40
30.0
176
     1
 62
     7
420
 16777215
176
     1
 90
        1
176
     1
 90
        4
176
     1
 62
     7
176
     1
 62
   257
176
     1
 90
        1
176
     1
 90
        1
176
     1
 40
1.0
176
     1
 90
        0
176
     1
 62
   257
176
     1
 40
1.0
176
     1
 90
        1
176
     1
 90
        6
176
     1
 90
        2
176
     1
 62
     7
176
     1
 90
        5
176
     1
 90
        0
176
     1
 90
        0
176
     1
290
     0
176
     1
 90
        1
176
     1
 40
0.0
176
     1
 90
        0
176
     1
290
     1
176
     1
290
     1
176
     1
290
     0
176
     1
290
     0
176
     1
290
     0
176
     1
290
     0
176
     1
290
     0
176
     1
290
     0
176
     1
290
     0
176
     1
 90
       50
176
     1
 40
0.0
176
     1
 40
1.0
176
     1
 90
        0
176
     1
 62
    18
420
        0
176
     1
 90
       50
176
     1
 90
        3
176
     1
 62
     5
420
      255
176
     1
290
     0
176
     1
 90
       50
176
     1
 90
       50
176
     1
 90
       50
176
     1
290
     0
176
     1
 90
       50
176
     1
 62
   256
176
     0
 40
1.0
176
     0
 90
        2
176
     1
  1
strokes_ogs.tif
176
     1
290
     0
176
     1
 40
1.0
176
     1
 40
1.0
176
     1
  0
VISUALSTYLE
  5
32
102
{ACAD_REACTORS
330
2A
102
}
330
2A
100
AcDbVisualStyle
  2
Basic
 70
     7
177
     3
291
     1
 70
    58
 90
        1
176
     1
 90
        0
176
     1
 90
        1
176
     1
 90
        0
176
     1
 40
0.6
176
     1
 40
30.0
176
     1
 62
     7
420
 16777215
176
     1
 90
        0
176
     1
 90
        4
176
     1
 62
     7
176
     1
 62
   257
176
     1
 90
        1
176
     1
 90
        1
176
     1
 40
1.0
176
     1
 90
        8
176
     1
 62
     7
176
     1
 40
1.0
176
     1
 90
        1
176
     1
 90
        6
176
     1
 90
        2
176
     1
 62
     7
176
     1
 90
        5
176
     1
 90
        0
176
     1
 90
        0
176
     1
290
     0
176
     1
 90
        1
176
     1
 40
0.0
176
     1
 90
        0
176
     1
290
     0
176
     1
290
     1
176
     1
290
     1
176
     1
290
     0
176
     1
290
     0
176
     1
290
     0
176
     1
290
     0
176
     1
290
     0
176
     1
290
     0
176
     1
 90
       50
176
     1
 40
0.0
176
     1
 40
1.0
176
     1
 90
        0
176
     1
 62
    18
420
        0
176
     1
 90
       50
176
     1
 90
        3
176
     1
 62
     5
420
      255
176
     1
290
     0
176
     1
 90
       50
176
     1
 90
       50
176
     1
 90
       50
176
     1
290
     0
176
     1
 90
       50
176
     1
 62
   256
176
     0
 40
1.0
176
     0
 90
        2
176
     1
  1
strokes_ogs.tif
176
     1
290
     0
176
     1
 40
1.0
176
     1
 40
1.0
176
     1
  0
VISUALSTYLE
  5
36
102
{ACAD_REACTORS
330
2A
102
}
330
2A
100
AcDbVisualStyle
  2
Brighten
 70
    12
177
     3
291
     1
 70
    58
 90
        2
176
     1
 90
        2
176
     1
 90
        0
176
     1
 90
        0
176
     1
 40
0.6
176
     1
 40
30.0
176
     1
 62
     7
420
 16777215
176
     1
 90
        1
176
     1
 90
        4
176
     1
 62
     7
176
     1
 62
   257
176
     1
 90
        1
176
     1
 90
        1
176
     1
 40
1.0
176
     1
 90
        8
176
     1
 62
     7
176
     1
 40
1.0
176
     1
 90
        1
176
     1
 90
        6
176
     1
 90
        2
176
     1
 62
     7
176
     1
 90
        5
176
     1
 90
        0
176
     1
 90
        0
176
     1
290
     0
176
     1
 90
        1
176
     1
 40
50.0
176
     1
 90
        0
176
     1
290
     0
176
     1
290
     1
176
     1
290
     1
176
     1
290
     0
176
     1
290
     0
176
     1
290
     0
176
     1
290
     0
176
     1
290
     0
176
     1
290
     0
176
     1
 90
       50
176
     1
 40
0.0
176
     1
 40
1.0
176
     1
 90
        0
176
     1
 62
    18
420
        0
176
     1
 90
       50
176
     1
 90
        3
176
     1
 62
     5
420
      255
176
     1
290
     0
176
     1
 90
       50
176
     1
 90
       50
176
     1
 90
       50
176
     1
290
     0
176
     1
 90
       50
176
     1
 62
   256
176
     0
 40
1.0
176
     0
 90
        2
176
     1
  1
strokes_ogs.tif
176
     1
290
     0
176
     1
 40
1.0
176
     1
 40
1.0
176
     1
  0
VISUALSTYLE
  5
3A
102
{ACAD_REACTORS
330
2A
102
}
330
2A
100
AcDbVisualStyle
  2
ColorChange
 70
    16
177
     3
291
     1
 70
    58
 90
        2
176
     1
 90
        2
176
     1
 90
        3
176
     1
 90
        0
176
     1
 40
0.6
176
     1
 40
30.0
176
     1
 62
     8
420
  8421504
176
     1
 90
        1
176
     1
 90
        4
176
     1
 62
     7
176
     1
 62
   257
176
     1
 90
        1
176
     1
 90
        1
176
     1
 40
1.0
176
     1
 90
        8
176
     1
 62
     8
420
  8421504
176
     1
 40
1.0
176
     1
 90
        1
176
     1
 90
        6
176
     1
 90
        2
176
     1
 62
     7
176
     1
 90
        5
176
     1
 90
        0
176
     1
 90
        0
176
     1
290
     0
176
     1
 90
        1
176
     1
 40
0.0
176
     1
 90
        0
176
     1
290
     0
176
     1
290
     1
176
     1
290
     1
176
     1
290
     0
176
     1
290
     0
176
     1
290
     0
176
     1
290
     0
176
     1
290
     0
176
     1
290
     0
176
     1
 90
       50
176
     1
 40
0.0
176
     1
 40
1.0
176
     1
 90
        0
176
     1
 62
    18
420
        0
176
     1
 90
       50
176
     1
 90
        3
176
     1
 62
     5
420
      255
176
     1
290
     0
176
     1
 90
       50
176
     1
 90
       50
176
     1
 90
       50
176
     1
290
     0
176
     1
 90
       50
176
     1
 62
   256
176
     0
 40
1.0
176
     0
 90
        2
176
     1
  1
strokes_ogs.tif
176
     1
290
     0
176
     1
 40
1.0
176
     1
 40
1.0
176
     1
  0
VISUALSTYLE
  5
34
102
{ACAD_REACTORS
330
2A
102
}
330
2A
100
AcDbVisualStyle
  2
Conceptual
 70
     9
177
     3
291
     0
 70
    58
 90
        3
176
     1
 90
        2
176
     1
 90
        0
176
     1
 90
        0
176
     1
 40
0.6
176
     1
 40
30.0
176
     1
 62
     7
420
 16777215
176
     1
 90
        2
176
     1
 90
        2
176
     1
 62
     7
176
     1
 62
   257
176
     1
 90
        1
176
     1
 90
        1
176
     1
 40
179.0
176
     1
 90
        8
176
     1
 62
     7
176
     1
 40
1.0
176
     1
 90
        1
176
     1
 90
        6
176
     1
 90
        2
176
     1
 62
     7
176
     1
 90
        3
176
     1
 90
        0
176
     1
 90
        0
176
     1
290
     0
176
     1
 90
        1
176
     1
 40
0.0
176
     1
 90
        0
176
     1
290
     0
176
     1
290
     1
176
     1
290
     1
176
     1
290
     0
176
     1
290
     0
176
     1
290
     0
176
     1
290
     0
176
     1
290
     0
176
     1
290
     0
176
     1
 90
       50
176
     1
 40
0.0
176
     1
 40
1.0
176
     1
 90
        0
176
     1
 62
    18
420
        0
176
     1
 90
       50
176
     1
 90
        3
176
     1
 62
     5
420
      255
176
     1
290
     0
176
     1
 90
       50
176
     1
 90
       50
176
     1
 90
       50
176
     1
290
     0
176
     1
 90
       50
176
     1
 62
   256
176
     0
 40
1.0
176
     0
 90
        2
176
     1
  1
strokes_ogs.tif
176
     1
290
     0
176
     1
 40
1.0
176
     1
 40
1.0
176
     1
  0
VISUALSTYLE
  5
35
102
{ACAD_REACTORS
330
2A
102
}
330
2A
100
AcDbVisualStyle
  2
Dim
 70
    11
177
     3
291
     1
 70
    58
 90
        2
176
     1
 90
        2
176
     1
 90
        0
176
     1
 90
        0
176
     1
 40
0.6
176
     1
 40
30.0
176
     1
 62
     7
420
 16777215
176
     1
 90
        1
176
     1
 90
        4
176
     1
 62
     7
176
     1
 62
   257
176
     1
 90
        1
176
     1
 90
        1
176
     1
 40
1.0
176
     1
 90
        8
176
     1
 62
     7
176
     1
 40
1.0
176
     1
 90
        1
176
     1
 90
        6
176
     1
 90
        2
176
     1
 62
     7
176
     1
 90
        5
176
     1
 90
        0
176
     1
 90
        0
176
     1
290
     0
176
     1
 90
        1
176
     1
 40
-50.0
176
     1
 90
        0
176
     1
290
     0
176
     1
290
     1
176
     1
290
     1
176
     1
290
     0
176
     1
290
     0
176
     1
290
     0
176
     1
290
     0
176
     1
290
     0
176
     1
290
     0
176
     1
 90
       50
176
     1
 40
0.0
176
     1
 40
1.0
176
     1
 90
        0
176
     1
 62
    18
420
        0
176
     1
 90
       50
176
     1
 90
        3
176
     1
 62
     5
420
      255
176
     1
290
     0
176
     1
 90
       50
176
     1
 90
       50
176
     1
 90
       50
176
     1
290
     0
176
     1
 90
       50
176
     1
 62
   256
176
     0
 40
1.0
176
     0
 90
        2
176
     1
  1
strokes_ogs.tif
176
     1
290
     0
176
     1
 40
1.0
176
     1
 40
1.0
176
     1
  0
VISUALSTYLE
  5
3D
102
{ACAD_REACTORS
330
2A
102
}
330
2A
100
AcDbVisualStyle
  2
EdgeColorOff
 70
    22
177
     3
291
     1
 70
    58
 90
        2
176
     0
 90
        2
176
     0
 90
        0
176
     0
 90
        0
176
     0
 40
0.6
176
     0
 40
30.0
176
     0
 62
     7
420
 16777215
176
     0
 90
        1
176
     0
 90
        4
176
     0
 62
     7
176
     0
 62
   257
176
     0
 90
        1
176
     0
 90
        1
176
     0
 40
1.0
176
     0
 90
        8
176
     2
 62
     7
176
     0
 40
1.0
176
     0
 90
        1
176
     0
 90
        6
176
     0
 90
        2
176
     0
 62
     7
176
     0
 90
        5
176
     0
 90
        0
176
     0
 90
        0
176
     0
290
     0
176
     0
 90
        1
176
     0
 40
0.0
176
     0
 90
        0
176
     0
290
     0
176
     0
290
     1
176
     0
290
     1
176
     0
290
     0
176
     0
290
     0
176
     0
290
     0
176
     0
290
     0
176
     0
290
     0
176
     0
290
     0
176
     0
 90
       50
176
     0
 40
0.0
176
     0
 40
1.0
176
     0
 90
        0
176
     0
 62
    18
420
        0
176
     0
 90
       50
176
     0
 90
        3
176
     0
 62
     5
420
      255
176
     0
290
     0
176
     0
 90
       50
176
     0
 90
       50
176
     0
 90
       50
176
     0
290
     0
176
     0
 90
       50
176
     0
 62
   256
176
     0
 40
1.0
176
     0
 90
        2
176
     0
  1
strokes_ogs.tif
176
     0
290
     0
176
     0
 40
1.0
176
     0
 40
1.0
176
     0
  0
VISUALSTYLE
  5
39
102
{ACAD_REACTORS
330
2A
102
}
330
2A
100
AcDbVisualStyle
  2
Facepattern
 70
    15
177
     3
291
     1
 70
    58
 90
        2
176
     1
 90
        2
176
     1
 90
        0
176
     1
 90
        0
176
     1
 40
0.6
176
     1
 40
30.0
176
     1
 62
     7
420
 16777215
176
     1
 90
        1
176
     1
 90
        4
176
     1
 62
     7
176
     1
 62
   257
176
     1
 90
        1
176
     1
 90
        1
176
     1
 40
1.0
176
     1
 90
        8
176
     1
 62
     7
176
     1
 40
1.0
176
     1
 90
        1
176
     1
 90
        6
176
     1
 90
        2
176
     1
 62
     7
176
     1
 90
        5
176
     1
 90
        0
176
     1
 90
        0
176
     1
290
     0
176
     1
 90
        1
176
     1
 40
0.0
176
     1
 90
        0
176
     1
290
     0
176
     1
290
     1
176
     1
290
     1
176
     1
290
     0
176
     1
290
     0
176
     1
290
     0
176
     1
290
     0
176
     1
290
     0
176
     1
290
     0
176
     1
 90
       50
176
     1
 40
0.0
176
     1
 40
1.0
176
     1
 90
        0
176
     1
 62
    18
420
        0
176
     1
 90
       50
176
     1
 90
        3
176
     1
 62
     5
420
      255
176
     1
290
     0
176
     1
 90
       50
176
     1
 90
       50
176
     1
 90
       50
176
     1
290
     0
176
     1
 90
       50
176
     1
 62
   256
176
     0
 40
1.0
176
     0
 90
        2
176
     1
  1
strokes_ogs.tif
176
     1
290
     0
176
     1
 40
1.0
176
     1
 40
1.0
176
     1
  0
VISUALSTYLE
  5
2B
102
{ACAD_REACTORS
330
2A
102
}
330
2A
100
AcDbVisualStyle
  2
Flat
 70
     0
177
     3
291
     1
 70
    58
 90
        2
176
     1
 90
        1
176
     1
 90
        1
176
     1
 90
        2
176
     1
 40
0.6
176
     1
 40
30.0
176
     1
 62
     7
420
 16777215
176
     1
 90
        0
176
     1
 90
        0
176
     1
 62
     7
176
     1
 62
   257
176
     1
 90
        1
176
     1
 90
        1
176
     1
 40
1.0
176
     1
 90
        8
176
     1
 62
     7
176
     1
 40
1.0
176
     1
 90
        1
176
     1
 90
        6
176
     1
 90
        2
176
     1
 62
     7
176
     1
 90
        5
176
     1
 90
        0
176
     1
 90
        0
176
     1
290
     0
176
     1
 90
       13
176
     1
 40
0.0
176
     1
 90
        0
176
     1
290
     0
176
     1
290
     1
176
     1
290
     1
176
     1
290
     0
176
     1
290
     0
176
     1
290
     0
176
     1
290
     0
176
     1
290
     0
176
     1
290
     0
176
     1
 90
       50
176
     1
 40
0.0
176
     1
 40
1.0
176
     1
 90
        0
176
     1
 62
    18
420
        0
176
     1
 90
       50
176
     1
 90
        3
176
     1
 62
     5
420
      255
176
     1
290
     0
176
     1
 90
       50
176
     1
 90
       50
176
     1
 90
       50
176
     1
290
     0
176
     1
 90
       50
176
     1
 62
   256
176
     0
 40
1.0
176
     0
 90
        2
176
     1
  1
strokes_ogs.tif
176
     1
290
     0
176
     1
 40
1.0
176
     1
 40
1.0
176
     1
  0
VISUALSTYLE
  5
2C
102
{ACAD_REACTORS
330
2A
102
}
330
2A
100
AcDbVisualStyle
  2
FlatWithEdges
 70
     1
177
     3
291
     1
 70
    58
 90
        2
176
     1
 90
        1
176
     1
 90
        1
176
     1
 90
        2
176
     1
 40
0.6
176
     1
 40
30.0
176
     1
 62
     7
420
 16777215
176
     1
 90
        1
176
     1
 90
        0
176
     1
 62
     7
176
     1
 62
   257
176
     1
 90
        1
176
     1
 90
        1
176
     1
 40
1.0
176
     1
 90
        0
176
     1
 62
   257
176
     1
 40
1.0
176
     1
 90
        1
176
     1
 90
        6
176
     1
 90
        2
176
     1
 62
     7
176
     1
 90
        5
176
     1
 90
        0
176
     1
 90
        0
176
     1
290
     0
176
     1
 90
       13
176
     1
 40
0.0
176
     1
 90
        0
176
     1
290
     0
176
     1
290
     1
176
     1
290
     1
176
     1
290
     0
176
     1
290
     0
176
     1
290
     0
176
     1
290
     0
176
     1
290
     0
176
     1
290
     0
176
     1
 90
       50
176
     1
 40
0.0
176
     1
 40
1.0
176
     1
 90
        0
176
     1
 62
    18
420
        0
176
     1
 90
       50
176
     1
 90
        3
176
     1
 62
     5
420
      255
176
     1
290
     0
176
     1
 90
       50
176
     1
 90
       50
176
     1
 90
       50
176
     1
290
     0
176
     1
 90
       50
176
     1
 62
   256
176
     0
 40
1.0
176
     0
 90
        2
176
     1
  1
strokes_ogs.tif
176
     1
290
     0
176
     1
 40
1.0
176
     1
 40
1.0
176
     1
  0
VISUALSTYLE
  5
2D
102
{ACAD_REACTORS
330
2A
102
}
330
2A
100
AcDbVisualStyle
  2
Gouraud
 70
     2
177
     3
291
     1
 70
    58
 90
        2
176
     1
 90
        2
176
     1
 90
        1
176
     1
 90
        2
176
     1
 40
0.6
176
     1
 40
30.0
176
     1
 62
     7
420
 16777215
176
     1
 90
        0
176
     1
 90
        0
176
     1
 62
     7
176
     1
 62
   257
176
     1
 90
        1
176
     1
 90
        1
176
     1
 40
1.0
176
     1
 90
        0
176
     1
 62
     7
176
     1
 40
1.0
176
     1
 90
        1
176
     1
 90
        6
176
     1
 90
        2
176
     1
 62
     7
176
     1
 90
        5
176
     1
 90
        0
176
     1
 90
        0
176
     1
290
     0
176
     1
 90
       13
176
     1
 40
0.0
176
     1
 90
        0
176
     1
290
     0
176
     1
290
     1
176
     1
290
     1
176
     1
290
     0
176
     1
290
     0
176
     1
290
     0
176
     1
290
     0
176
     1
290
     0
176
     1
290
     0
176
     1
 90
       50
176
     1
 40
0.0
176
     1
 40
1.0
176
     1
 90
        0
176
     1
 62
    18
420
        0
176
     1
 90
       50
176
     1
 90
        3
176
     1
 62
     5
420
      255
176
     1
290
     0
176
     1
 90
       50
176
     1
 90
       50
176
     1
 90
       50
176
     1
290
     0
176
     1
 90
       50
176
     1
 62
   256
176
     0
 40
1.0
176
     0
 90
        2
176
     1
  1
strokes_ogs.tif
176
     1
290
     0
176
     1
 40
1.0
176
     1
 40
1.0
176
     1
  0
VISUALSTYLE
  5
2E
102
{ACAD_REACTORS
330
2A
102
}
330
2A
100
AcDbVisualStyle
  2
GouraudWithEdges
 70
     3
177
     3
291
     1
 70
    58
 90
        2
176
     1
 90
        2
176
     1
 90
        1
176
     1
 90
        2
176
     1
 40
0.6
176
     1
 40
30.0
176
     1
 62
     7
420
 16777215
176
     1
 90
        1
176
     1
 90
        0
176
     1
 62
     7
176
     1
 62
   257
176
     1
 90
        1
176
     1
 90
        1
176
     1
 40
1.0
176
     1
 90
        0
176
     1
 62
   257
176
     1
 40
1.0
176
     1
 90
        1
176
     1
 90
        6
176
     1
 90
        2
176
     1
 62
     7
176
     1
 90
        5
176
     1
 90
        0
176
     1
 90
        0
176
     1
290
     0
176
     1
 90
       13
176
     1
 40
0.0
176
     1
 90
        0
176
     1
290
     0
176
     1
290
     1
176
     1
290
     1
176
     1
290
     0
176
     1
290
     0
176
     1
290
     0
176
     1
290
     0
176
     1
290
     0
176
     1
290
     0
176
     1
 90
       50
176
     1
 40
0.0
176
     1
 40
1.0
176
     1
 90
        0
176
     1
 62
    18
420
        0
176
     1
 90
       50
176
     1
 90
        3
176
     1
 62
     5
420
      255
176
     1
290
     0
176
     1
 90
       50
176
     1
 90
       50
176
     1
 90
       50
176
     1
290
     0
176
     1
 90
       50
176
     1
 62
   256
176
     0
 40
1.0
176
     0
 90
        2
176
     1
  1
strokes_ogs.tif
176
     1
290
     0
176
     1
 40
1.0
176
     1
 40
1.0
176
     1
  0
VISUALSTYLE
  5
31
102
{ACAD_REACTORS
330
2A
102
}
330
2A
100
AcDbVisualStyle
  2
Hidden
 70
     6
177
     3
291
     0
 70
    58
 90
        1
176
     1
 90
        2
176
     1
 90
        2
176
     1
 90
        0
176
     1
 40
0.6
176
     1
 40
30.0
176
     1
 62
     7
420
 16777215
176
     1
 90
        2
176
     1
 90
        2
176
     1
 62
     7
176
     1
 62
   257
176
     1
 90
        2
176
     1
 90
        1
176
     1
 40
40.0
176
     1
 90
        0
176
     1
 62
   257
176
     1
 40
1.0
176
     1
 90
        1
176
     1
 90
        6
176
     1
 90
        2
176
     1
 62
     7
176
     1
 90
        3
176
     1
 90
        0
176
     1
 90
        0
176
     1
290
     0
176
     1
 90
        1
176
     1
 40
0.0
176
     1
 90
        0
176
     1
290
     0
176
     1
290
     1
176
     1
290
     1
176
     1
290
     0
176
     1
290
     0
176
     1
290
     0
176
     1
290
     0
176
     1
290
     0
176
     1
290
     0
176
     1
 90
       50
176
     1
 40
0.0
176
     1
 40
1.0
176
     1
 90
        0
176
     1
 62
    18
420
        0
176
     1
 90
       50
176
     1
 90
        3
176
     1
 62
     5
420
      255
176
     1
290
     0
176
     1
 90
       50
176
     1
 90
       50
176
     1
 90
       50
176
     1
290
     0
176
     1
 90
       50
176
     1
 62
   256
176
     0
 40
1.0
176
     0
 90
        2
176
     1
  1
strokes_ogs.tif
176
     1
290
     0
176
     1
 40
1.0
176
     1
 40
1.0
176
     1
  0
VISUALSTYLE
  5
3B
102
{ACAD_REACTORS
330
2A
102
}
330
2A
100
AcDbVisualStyle
  2
JitterOff
 70
    20
177
     3
291
     1
 70
    58
 90
        2
176
     0
 90
        2
176
     0
 90
        0
176
     0
 90
        0
176
     0
 40
0.6
176
     0
 40
30.0
176
     0
 62
     7
420
 16777215
176
     0
 90
        1
176
     0
 90
        4
176
     0
 62
     7
176
     0
 62
   257
176
     0
 90
        1
176
     0
 90
        1
176
     0
 40
1.0
176
     0
 90
       10
176
     2
 62
     7
176
     0
 40
1.0
176
     0
 90
        1
176
     0
 90
        6
176
     0
 90
        2
176
     0
 62
     7
176
     0
 90
        5
176
     0
 90
        0
176
     0
 90
        0
176
     0
290
     0
176
     0
 90
        1
176
     0
 40
0.0
176
     0
 90
        0
176
     0
290
     0
176
     0
290
     1
176
     0
290
     1
176
     0
290
     0
176
     0
290
     0
176
     0
290
     0
176
     0
290
     0
176
     0
290
     0
176
     0
290
     0
176
     0
 90
       50
176
     0
 40
0.0
176
     0
 40
1.0
176
     0
 90
        0
176
     0
 62
    18
420
        0
176
     0
 90
       50
176
     0
 90
        3
176
     0
 62
     5
420
      255
176
     0
290
     0
176
     0
 90
       50
176
     0
 90
       50
176
     0
 90
       50
176
     0
290
     0
176
     0
 90
       50
176
     0
 62
   256
176
     0
 40
1.0
176
     0
 90
        2
176
     0
  1
strokes_ogs.tif
176
     0
290
     0
176
     0
 40
1.0
176
     0
 40
1.0
176
     0
  0
VISUALSTYLE
  5
38
102
{ACAD_REACTORS
330
2A
102
}
330
2A
100
AcDbVisualStyle
  2
Linepattern
 70
    14
177
     3
291
     1
 70
    58
 90
        2
176
     1
 90
        2
176
     1
 90
        0
176
     1
 90
        0
176
     1
 40
0.6
176
     1
 40
30.0
176
     1
 62
     7
420
 16777215
176
     1
 90
        1
176
     1
 90
        4
176
     1
 62
     7
176
     1
 62
   257
176
     1
 90
        7
176
     1
 90
        7
176
     1
 40
1.0
176
     1
 90
        8
176
     1
 62
     7
176
     1
 40
1.0
176
     1
 90
        1
176
     1
 90
        6
176
     1
 90
        2
176
     1
 62
     7
176
     1
 90
        5
176
     1
 90
        0
176
     1
 90
        0
176
     1
290
     0
176
     1
 90
        1
176
     1
 40
0.0
176
     1
 90
        0
176
     1
290
     0
176
     1
290
     1
176
     1
290
     1
176
     1
290
     0
176
     1
290
     0
176
     1
290
     0
176
     1
290
     0
176
     1
290
     0
176
     1
290
     0
176
     1
 90
       50
176
     1
 40
0.0
176
     1
 40
1.0
176
     1
 90
        0
176
     1
 62
    18
420
        0
176
     1
 90
       50
176
     1
 90
        3
176
     1
 62
     5
420
      255
176
     1
290
     0
176
     1
 90
       50
176
     1
 90
       50
176
     1
 90
       50
176
     1
290
     0
176
     1
 90
       50
176
     1
 62
   256
176
     0
 40
1.0
176
     0
 90
        2
176
     1
  1
strokes_ogs.tif
176
     1
290
     0
176
     1
 40
1.0
176
     1
 40
1.0
176
     1
  0
VISUALSTYLE
  5
3C
102
{ACAD_REACTORS
330
2A
102
}
330
2A
100
AcDbVisualStyle
  2
OverhangOff
 70
    21
177
     3
291
     1
 70
    58
 90
        2
176
     0
 90
        2
176
     0
 90
        0
176
     0
 90
        0
176
     0
 40
0.6
176
     0
 40
30.0
176
     0
 62
     7
420
 16777215
176
     0
 90
        1
176
     0
 90
        4
176
     0
 62
     7
176
     0
 62
   257
176
     0
 90
        1
176
     0
 90
        1
176
     0
 40
1.0
176
     0
 90
        9
176
     2
 62
     7
176
     0
 40
1.0
176
     0
 90
        1
176
     0
 90
        6
176
     0
 90
        2
176
     0
 62
     7
176
     0
 90
        5
176
     0
 90
        0
176
     0
 90
        0
176
     0
290
     0
176
     0
 90
        1
176
     0
 40
0.0
176
     0
 90
        0
176
     0
290
     0
176
     0
290
     1
176
     0
290
     1
176
     0
290
     0
176
     0
290
     0
176
     0
290
     0
176
     0
290
     0
176
     0
290
     0
176
     0
290
     0
176
     0
 90
       50
176
     0
 40
0.0
176
     0
 40
1.0
176
     0
 90
        0
176
     0
 62
    18
420
        0
176
     0
 90
       50
176
     0
 90
        3
176
     0
 62
     5
420
      255
176
     0
290
     0
176
     0
 90
       50
176
     0
 90
       50
176
     0
 90
       50
176
     0
290
     0
176
     0
 90
       50
176
     0
 62
   256
176
     0
 40
1.0
176
     0
 90
        2
176
     0
  1
strokes_ogs.tif
176
     0
290
     0
176
     0
 40
1.0
176
     0
 40
1.0
176
     0
  0
VISUALSTYLE
  5
33
102
{ACAD_REACTORS
330
2A
102
}
330
2A
100
AcDbVisualStyle
  2
Realistic
 70
     8
177
     3
291
     0
 70
    58
 90
        2
176
     1
 90
        3
176
     1
 90
        0
176
     1
 90
        2
176
     1
 40
0.6
176
     1
 40
30.0
176
     1
 62
     7
420
 16777215
176
     1
 90
        0
176
     1
 90
        0
176
     1
 62
     7
176
     1
 62
   257
176
     1
 90
        1
176
     1
 90
        1
176
     1
 40
1.0
176
     1
 90
        8
176
     1
 62
   257
176
     1
 40
1.0
176
     1
 90
        1
176
     1
 90
        6
176
     1
 90
        2
176
     1
 62
     7
176
     1
 90
        3
176
     1
 90
        0
176
     1
 90
        0
176
     1
290
     0
176
     1
 90
       13
176
     1
 40
0.0
176
     1
 90
        0
176
     1
290
     0
176
     1
290
     1
176
     1
290
     1
176
     1
290
     0
176
     1
290
     0
176
     1
290
     0
176
     1
290
     0
176
     1
290
     0
176
     1
290
     0
176
     1
 90
       50
176
     1
 40
0.0
176
     1
 40
1.0
176
     1
 90
        0
176
     1
 62
    18
420
        0
176
     1
 90
       50
176
     1
 90
        3
176
     1
 62
     5
420
      255
176
     1
290
     0
176
     1
 90
       50
176
     1
 90
       50
176
     1
 90
       50
176
     1
290
     0
176
     1
 90
       50
176
     1
 62
   256
176
     0
 40
1.0
176
     0
 90
        2
176
     1
  1
strokes_ogs.tif
176
     1
290
     0
176
     1
 40
1.0
176
     1
 40
1.0
176
     1
  0
VISUALSTYLE
  5
42
102
{ACAD_REACTORS
330
2A
102
}
330
2A
100
AcDbVisualStyle
  2
Shaded
 70
    27
177
     3
291
     0
 70
    58
 90
        2
176
     1
 90
        2
176
     1
 90
        1
176
     1
 90
        2
176
     1
 40
0.6
176
     1
 40
30.0
176
     1
 62
     7
420
 16777215
176
     1
 90
        0
176
     1
 90
        4
176
     1
 62
     7
176
     1
 62
   257
176
     1
 90
        1
176
     1
 90
        1
176
     1
 40
1.0
176
     1
 90
        8
176
     1
 62
   257
176
     1
 40
1.0
176
     1
 90
        1
176
     1
 90
        6
176
     1
 90
        2
176
     1
 62
     8
420
  7895160
176
     1
 90
        3
176
     1
 90
        0
176
     1
 90
        0
176
     1
290
     0
176
     1
 90
        5
176
     1
 40
0.0
176
     1
 90
        0
176
     1
290
     0
176
     1
290
     1
176
     1
290
     1
176
     1
290
     0
176
     1
290
     0
176
     1
290
     0
176
     1
290
     0
176
     1
290
     0
176
     1
290
     0
176
     1
 90
       50
176
     1
 40
0.0
176
     1
 40
1.0
176
     1
 90
        0
176
     1
 62
    18
420
        0
176
     1
 90
       50
176
     1
 90
        3
176
     1
 62
     5
420
      255
176
     1
290
     0
176
     1
 90
       50
176
     1
 90
       50
176
     1
 90
       50
176
     1
290
     0
176
     1
 90
       50
176
     1
 62
   256
176
     0
 40
1.0
176
     0
 90
        2
176
     1
  1
strokes_ogs.tif
176
     1
290
     0
176
     1
 40
1.0
176
     1
 40
1.0
176
     1
  0
VISUALSTYLE
  5
41
102
{ACAD_REACTORS
330
2A
102
}
330
2A
100
AcDbVisualStyle
  2
Shaded with edges
 70
    26
177
     3
291
     0
 70
    58
 90
        2
176
     1
 90
        2
176
     1
 90
        1
176
     1
 90
        2
176
     1
 40
0.6
176
     1
 40
30.0
176
     1
 62
     7
420
 16777215
176
     1
 90
        1
176
     1
 90
       10
176
     1
 62
     7
176
     1
 62
   257
176
     1
 90
        2
176
     1
 90
        1
176
     1
 40
1.0
176
     1
 90
        8
176
     1
 62
   257
176
     1
 40
1.0
176
     1
 90
        1
176
     1
 90
        6
176
     1
 90
        2
176
     1
 62
     7
176
     1
 90
        3
176
     1
 90
        0
176
     1
 90
        0
176
     1
290
     0
176
     1
 90
        5
176
     1
 40
0.0
176
     1
 90
        0
176
     1
290
     0
176
     1
290
     1
176
     1
290
     1
176
     1
290
     0
176
     1
290
     0
176
     1
290
     0
176
     1
290
     0
176
     1
290
     0
176
     1
290
     0
176
     1
 90
       50
176
     1
 40
0.0
176
     1
 40
1.0
176
     1
 90
        0
176
     1
 62
    18
420
        0
176
     1
 90
       50
176
     1
 90
        3
176
     1
 62
     5
420
      255
176
     1
290
     0
176
     1
 90
       50
176
     1
 90
       50
176
     1
 90
       50
176
     1
290
     0
176
     1
 90
       50
176
     1
 62
   256
176
     0
 40
1.0
176
     0
 90
        2
176
     1
  1
strokes_ogs.tif
176
     1
290
     0
176
     1
 40
1.0
176
     1
 40
1.0
176
     1
  0
VISUALSTYLE
  5
3E
102
{ACAD_REACTORS
330
2A
102
}
330
2A
100
AcDbVisualStyle
  2
Shades of Gray
 70
    23
177
     3
291
     0
 70
    58
 90
        2
176
     1
 90
        2
176
     1
 90
        3
176
     1
 90
        0
176
     1
 40
0.6
176
     1
 40
30.0
176
     1
 62
     7
420
 16777215
176
     1
 90
        2
176
     1
 90
        2
176
     1
 62
     7
176
     1
 62
     7
176
     1
 90
        1
176
     1
 90
        1
176
     1
 40
40.0
176
     1
 90
        8
176
     1
 62
     7
176
     1
 40
1.0
176
     1
 90
        1
176
     1
 90
        6
176
     1
 90
        2
176
     1
 62
     7
176
     1
 90
        3
176
     1
 90
        0
176
     1
 90
        0
176
     1
290
     0
176
     1
 90
        1
176
     1
 40
0.0
176
     1
 90
        0
176
     1
290
     0
176
     1
290
     1
176
     1
290
     1
176
     1
290
     0
176
     1
290
     0
176
     1
290
     0
176
     1
290
     0
176
     1
290
     0
176
     1
290
     0
176
     1
 90
       50
176
     1
 40
0.0
176
     1
 40
1.0
176
     1
 90
        0
176
     1
 62
    18
420
        0
176
     1
 90
       50
176
     1
 90
        3
176
     1
 62
     5
420
      255
176
     1
290
     0
176
     1
 90
       50
176
     1
 90
       50
176
     1
 90
       50
176
     1
290
     0
176
     1
 90
       50
176
     1
 62
   256
176
     0
 40
1.0
176
     0
 90
        2
176
     1
  1
strokes_ogs.tif
176
     1
290
     0
176
     1
 40
1.0
176
     1
 40
1.0
176
     1
  0
VISUALSTYLE
  5
3F
102
{ACAD_REACTORS
330
2A
102
}
330
2A
100
AcDbVisualStyle
  2
Sketchy
 70
    24
177
     3
291
     0
 70
    58
 90
        1
176
     1
 90
        2
176
     1
 90
        2
176
     1
 90
        0
176
     1
 40
0.6
176
     1
 40
30.0
176
     1
 62
     7
420
 16777215
176
     1
 90
        2
176
     1
 90
        2
176
     1
 62
     7
176
     1
 62
     7
176
     1
 90
        1
176
     1
 90
        1
176
     1
 40
40.0
176
     1
 90
       11
176
     1
 62
     7
176
     1
 40
1.0
176
     1
 90
        1
176
     1
 90
        6
176
     1
 90
        2
176
     1
 62
     7
176
     1
 90
        6
176
     1
 90
        0
176
     1
 90
        0
176
     1
290
     0
176
     1
 90
        1
176
     1
 40
0.0
176
     1
 90
        0
176
     1
290
     0
176
     1
290
     1
176
     1
290
     1
176
     1
290
     0
176
     1
290
     0
176
     1
290
     0
176
     1
290
     0
176
     1
290
     0
176
     1
290
     0
176
     1
 90
       50
176
     1
 40
0.0
176
     1
 40
1.0
176
     1
 90
        0
176
     1
 62
    18
420
        0
176
     1
 90
       50
176
     1
 90
        3
176
     1
 62
     5
420
      255
176
     1
290
     0
176
     1
 90
       50
176
     1
 90
       50
176
     1
 90
       50
176
     1
290
     0
176
     1
 90
       50
176
     1
 62
   256
176
     0
 40
1.0
176
     0
 90
        2
176
     1
  1
strokes_ogs.tif
176
     1
290
     0
176
     1
 40
1.0
176
     1
 40
1.0
176
     1
  0
VISUALSTYLE
  5
37
102
{ACAD_REACTORS
330
2A
102
}
330
2A
100
AcDbVisualStyle
  2
Thicken
 70
    13
177
     3
291
     1
 70
    58
 90
        2
176
     1
 90
        2
176
     1
 90
        0
176
     1
 90
        0
176
     1
 40
0.6
176
     1
 40
30.0
176
     1
 62
     7
420
 16777215
176
     1
 90
        1
176
     1
 90
        4
176
     1
 62
     7
176
     1
 62
   257
176
     1
 90
        1
176
     1
 90
        1
176
     1
 40
1.0
176
     1
 90
       12
176
     1
 62
     7
176
     1
 40
1.0
176
     1
 90
        1
176
     1
 90
        6
176
     1
 90
        2
176
     1
 62
     7
176
     1
 90
        5
176
     1
 90
        0
176
     1
 90
        0
176
     1
290
     0
176
     1
 90
        1
176
     1
 40
0.0
176
     1
 90
        0
176
     1
290
     0
176
     1
290
     1
176
     1
290
     1
176
     1
290
     0
176
     1
290
     0
176
     1
290
     0
176
     1
290
     0
176
     1
290
     0
176
     1
290
     0
176
     1
 90
       50
176
     1
 40
0.0
176
     1
 40
1.0
176
     1
 90
        0
176
     1
 62
    18
420
        0
176
     1
 90
       50
176
     1
 90
        3
176
     1
 62
     5
420
      255
176
     1
290
     0
176
     1
 90
       50
176
     1
 90
       50
176
     1
 90
       50
176
     1
290
     0
176
     1
 90
       50
176
     1
 62
   256
176
     0
 40
1.0
176
     0
 90
        2
176
     1
  1
strokes_ogs.tif
176
     1
290
     0
176
     1
 40
1.0
176
     1
 40
1.0
176
     1
  0
VISUALSTYLE
  5
30
102
{ACAD_REACTORS
330
2A
102
}
330
2A
100
AcDbVisualStyle
  2
Wireframe
 70
     5
177
     3
291
     0
 70
    58
 90
        0
176
     1
 90
        2
176
     1
 90
        0
176
     1
 90
        0
176
     1
 40
0.6
176
     1
 40
30.0
176
     1
 62
     7
420
 16777215
176
     1
 90
        1
176
     1
 90
        4
176
     1
 62
     7
176
     1
 62
   257
176
     1
 90
        1
176
     1
 90
        1
176
     1
 40
1.0
176
     1
 90
        0
176
     1
 62
   257
176
     1
 40
1.0
176
     1
 90
        1
176
     1
 90
        6
176
     1
 90
        2
176
     1
 62
     7
176
     1
 90
        3
176
     1
 90
        0
176
     1
 90
        0
176
     1
290
     0
176
     1
 90
        1
176
     1
 40
0.0
176
     1
 90
        0
176
     1
290
     0
176
     1
290
     1
176
     1
290
     1
176
     1
290
     0
176
     1
290
     0
176
     1
290
     0
176
     1
290
     0
176
     1
290
     0
176
     1
290
     0
176
     1
 90
       50
176
     1
 40
0.0
176
     1
 40
1.0
176
     1
 90
        0
176
     1
 62
    18
420
        0
176
     1
 90
       50
176
     1
 90
        3
176
     1
 62
     5
420
      255
176
     1
290
     0
176
     1
 90
       50
176
     1
 90
       50
176
     1
 90
       50
176
     1
290
     0
176
     1
 90
       50
176
     1
 62
   256
176
     0
 40
1.0
176
     0
 90
        2
176
     1
  1
strokes_ogs.tif
176
     1
290
     0
176
     1
 40
1.0
176
     1
 40
1.0
176
     1
  0
VISUALSTYLE
  5
40
102
{ACAD_REACTORS
330
2A
102
}
330
2A
100
AcDbVisualStyle
  2
X-Ray
 70
    25
177
     3
291
     0
 70
    58
 90
        2
176
     1
 90
        2
176
     1
 90
        1
176
     1
 90
        1
176
     1
 40
0.5
176
     1
 40
30.0
176
     1
 62
     7
420
 16777215
176
     1
 90
        1
176
     1
 90
        0
176
     1
 62
     7
176
     1
 62
   257
176
     1
 90
        1
176
     1
 90
        1
176
     1
 40
1.0
176
     1
 90
        8
176
     1
 62
     7
176
     1
 40
1.0
176
     1
 90
        1
176
     1
 90
        6
176
     1
 90
        2
176
     1
 62
     7
176
     1
 90
        3
176
     1
 90
        0
176
     1
 90
        0
176
     1
290
     0
176
     1
 90
       13
176
     1
 40
0.0
176
     1
 90
        0
176
     1
290
     0
176
     1
290
     1
176
     1
290
     1
176
     1
290
     0
176
     1
290
     0
176
     1
290
     0
176
     1
290
     0
176
     1
290
     0
176
     1
290
     0
176
     1
 90
       50
176
     1
 40
0.0
176
     1
 40
1.0
176
     1
 90
        0
176
     1
 62
    18
420
        0
176
     1
 90
       50
176
     1
 90
        3
176
     1
 62
     5
420
      255
176
     1
290
     0
176
     1
 90
       50
176
     1
 90
       50
176
     1
 90
       50
176
     1
290
     0
176
     1
 90
       50
176
     1
 62
   256
176
     0
 40
1.0
176
     0
 90
        2
176
     1
  1
strokes_ogs.tif
176
     1
290
     0
176
     1
 40
1.0
176
     1
 40
1.0
176
     1
  0
DICTIONARYVAR
  5
84
102
{ACAD_REACTORS
330
83
102
}
330
83
100
DictionaryVariables
280
     0
  1
1:1
  0
DICTIONARYVAR
  5
89
102
{ACAD_REACTORS
330
83
102
}
330
83
100
DictionaryVariables
280
     0
  1
Standard
  0
DICTIONARYVAR
  5
88
102
{ACAD_REACTORS
330
83
102
}
330
83
100
DictionaryVariables
280
     0
  1
Standard
  0
DICTIONARY
  5
85
330
5A
100
AcDbDictionary
280
     1
281
     1
  3
ACAD_ROUNDTRIP_2008_TABLESTYLE_CELLSTYLEMAP
360
86
  0
CELLSTYLEMAP
  5
86
102
{ACAD_REACTORS
330
85
102
}
330
85
100
AcDbCellStyleMap
 90
        3
300
CELLSTYLE
  1
TABLEFORMAT_BEGIN
 90
        5
170
     1
 91
        0
 92
    32768
 62
   257
 93
        1
300
CONTENTFORMAT
  1
CONTENTFORMAT_BEGIN
 90
        0
 91
        0
 92
        4
 93
        0
300

 40
0.0
140
1.0
 94
        5
 62
     0
340
11
144
0.25
309
CONTENTFORMAT_END
171
     1
301
MARGIN
  1
CELLMARGIN_BEGIN
 40
0.06
 40
0.06
 40
0.06
 40
0.06
 40
0.06
 40
0.06
309
CELLMARGIN_END
 94
        6
 95
        1
302
GRIDFORMAT
  1
GRIDFORMAT_BEGIN
 90
        0
 91
        1
 62
     0
 92
       -2
340
14
 93
        0
 40
0.045
309
GRIDFORMAT_END
 95
        2
302
GRIDFORMAT
  1
GRIDFORMAT_BEGIN
 90
        0
 91
        1
 62
     0
 92
       -2
340
14
 93
        0
 40
0.045
309
GRIDFORMAT_END
 95
        4
302
GRIDFORMAT
  1
GRIDFORMAT_BEGIN
 90
        0
 91
        1
 62
     0
 92
       -2
340
14
 93
        0
 40
0.045
309
GRIDFORMAT_END
 95
        8
302
GRIDFORMAT
  1
GRIDFORMAT_BEGIN
 90
        0
 91
        1
 62
     0
 92
       -2
340
14
 93
        0
 40
0.045
309
GRIDFORMAT_END
 95
       16
302
GRIDFORMAT
  1
GRIDFORMAT_BEGIN
 90
        0
 91
        1
 62
     0
 92
       -2
340
14
 93
        0
 40
0.045
309
GRIDFORMAT_END
 95
       32
302
GRIDFORMAT
  1
GRIDFORMAT_BEGIN
 90
        0
 91
        1
 62
     0
 92
       -2
340
14
 93
        0
 40
0.045
309
GRIDFORMAT_END
309
TABLEFORMAT_END
  1
CELLSTYLE_BEGIN
 90
        1
 91
        1
300
_TITLE
309
CELLSTYLE_END
300
CELLSTYLE
  1
TABLEFORMAT_BEGIN
 90
        5
170
     1
 91
        0
 92
        0
 62
   257
 93
        1
300
CONTENTFORMAT
  1
CONTENTFORMAT_BEGIN
 90
        0
 91
        0
 92
        4
 93
        0
300

 40
0.0
140
1.0
 94
        5
 62
     0
340
11
144
0.18
309
CONTENTFORMAT_END
171
     1
301
MARGIN
  1
CELLMARGIN_BEGIN
 40
0.06
 40
0.06
 40
0.06
 40
0.06
 40
0.06
 40
0.06
309
CELLMARGIN_END
 94
        6
 95
        1
302
GRIDFORMAT
  1
GRIDFORMAT_BEGIN
 90
        0
 91
        1
 62
     0
 92
       -2
340
14
 93
        0
 40
0.045
309
GRIDFORMAT_END
 95
        2
302
GRIDFORMAT
  1
GRIDFORMAT_BEGIN
 90
        0
 91
        1
 62
     0
 92
       -2
340
14
 93
        0
 40
0.045
309
GRIDFORMAT_END
 95
        4
302
GRIDFORMAT
  1
GRIDFORMAT_BEGIN
 90
        0
 91
        1
 62
     0
 92
       -2
340
14
 93
        0
 40
0.045
309
GRIDFORMAT_END
 95
        8
302
GRIDFORMAT
  1
GRIDFORMAT_BEGIN
 90
        0
 91
        1
 62
     0
 92
       -2
340
14
 93
        0
 40
0.045
309
GRIDFORMAT_END
 95
       16
302
GRIDFORMAT
  1
GRIDFORMAT_BEGIN
 90
        0
 91
        1
 62
     0
 92
       -2
340
14
 93
        0
 40
0.045
309
GRIDFORMAT_END
 95
       32
302
GRIDFORMAT
  1
GRIDFORMAT_BEGIN
 90
        0
 91
        1
 62
     0
 92
       -2
340
14
 93
        0
 40
0.045
309
GRIDFORMAT_END
309
TABLEFORMAT_END
  1
CELLSTYLE_BEGIN
 90
        2
 91
        1
300
_HEADER
309
CELLSTYLE_END
300
CELLSTYLE
  1
TABLEFORMAT_BEGIN
 90
        5
170
     1
 91
        0
 92
        0
 62
   257
 93
        1
300
CONTENTFORMAT
  1
CONTENTFORMAT_BEGIN
 90
        0
 91
        0
 92
        4
 93
        0
300

 40
0.0
140
1.0
 94
        2
 62
     0
340
11
144
0.18
309
CONTENTFORMAT_END
171
     1
301
MARGIN
  1
CELLMARGIN_BEGIN
 40
0.06
 40
0.06
 40
0.06
 40
0.06
 40
0.06
 40
0.06
309
CELLMARGIN_END
 94
        6
 95
        1
302
GRIDFORMAT
  1
GRIDFORMAT_BEGIN
 90
        0
 91
        1
 62
     0
 92
       -2
340
14
 93
        0
 40
0.045
309
GRIDFORMAT_END
 95
        2
302
GRIDFORMAT
  1
GRIDFORMAT_BEGIN
 90
        0
 91
        1
 62
     0
 92
       -2
340
14
 93
        0
 40
0.045
309
GRIDFORMAT_END
 95
        4
302
GRIDFORMAT
  1
GRIDFORMAT_BEGIN
 90
        0
 91
        1
 62
     0
 92
       -2
340
14
 93
        0
 40
0.045
309
GRIDFORMAT_END
 95
        8
302
GRIDFORMAT
  1
GRIDFORMAT_BEGIN
 90
        0
 91
        1
 62
     0
 92
       -2
340
14
 93
        0
 40
0.045
309
GRIDFORMAT_END
 95
       16
302
GRIDFORMAT
  1
GRIDFORMAT_BEGIN
 90
        0
 91
        1
 62
     0
 92
       -2
340
14
 93
        0
 40
0.045
309
GRIDFORMAT_END
 95
       32
302
GRIDFORMAT
  1
GRIDFORMAT_BEGIN
 90
        0
 91
        1
 62
     0
 92
       -2
340
14
 93
        0
 40
0.045
309
GRIDFORMAT_END
309
TABLEFORMAT_END
  1
CELLSTYLE_BEGIN
 90
        3
 91
        2
300
_DATA
309
CELLSTYLE_END
  0
ENDSEC
  0
EOF
