  0
SECTION
  2
HEADER
  9
$ACADVER
  1
AC1027
  9
$ACADMAINTVER
 70
   105
  9
$DWGCODEPAGE
  3
ANSI_1252
  9
$LASTSAVEDBY
  1
Office Desk
  9
$REQUIREDVERSIONS
160
                 0
  9
$INSBASE
 10
0.0
 20
0.0
 30
0.0
  9
$EXTMIN
 10
-10.25316141732283
 20
2.82048031496063
 30
0.0
  9
$EXTMAX
 10
-5.33684251968504
 20
6.539464566929134
 30
0.0
  9
$LIMMIN
 10
0.0
 20
0.0
  9
$LIMMAX
 10
12.0
 20
9.0
  9
$ORTHOMODE
 70
     0
  9
$REGENMODE
 70
     1
  9
$FILLMODE
 70
     1
  9
$QTEXTMODE
 70
     0
  9
$MIRRTEXT
 70
     1
  9
$LTSCALE
 40
1.0
  9
$ATTMODE
 70
     1
  9
$TEXTSIZE
 40
0.2
  9
$TRACEWID
 40
0.05
  9
$TEXTSTYLE
  7
Standard
  9
$CLAYER
  8
0
  9
$CELTYPE
  6
ByLayer
  9
$CECOLOR
 62
   256
  9
$CELTSCALE
 40
1.0
  9
$DISPSILH
 70
     0
  9
$DIMSCALE
 40
1.0
  9
$DIMASZ
 40
0.18
  9
$DIMEXO
 40
0.0625
  9
$DIMDLI
 40
0.38
  9
$DIMRND
 40
0.0
  9
$DIMDLE
 40
0.0
  9
$DIMEXE
 40
0.18
  9
$DIMTP
 40
0.0
  9
$DIMTM
 40
0.0
  9
$DIMTXT
 40
0.18
  9
$DIMCEN
 40
0.09
  9
$DIMTSZ
 40
0.0
  9
$DIMTOL
 70
     0
  9
$DIMLIM
 70
     0
  9
$DIMTIH
 70
     1
  9
$DIMTOH
 70
     1
  9
$DIMSE1
 70
     0
  9
$DIMSE2
 70
     0
  9
$DIMTAD
 70
     0
  9
$DIMZIN
 70
     0
  9
$DIMBLK
  1

  9
$DIMASO
 70
     1
  9
$DIMSHO
 70
     1
  9
$DIMPOST
  1

  9
$DIMAPOST
  1

  9
$DIMALT
 70
     0
  9
$DIMALTD
 70
     2
  9
$DIMALTF
 40
25.4
  9
$DIMLFAC
 40
1.0
  9
$DIMTOFL
 70
     0
  9
$DIMTVP
 40
0.0
  9
$DIMTIX
 70
     0
  9
$DIMSOXD
 70
     0
  9
$DIMSAH
 70
     0
  9
$DIMBLK1
  1

  9
$DIMBLK2
  1

  9
$DIMSTYLE
  2
Standard
  9
$DIMCLRD
 70
     0
  9
$DIMCLRE
 70
     0
  9
$DIMCLRT
 70
     0
  9
$DIMTFAC
 40
1.0
  9
$DIMGAP
 40
0.09
  9
$DIMJUST
 70
     0
  9
$DIMSD1
 70
     0
  9
$DIMSD2
 70
     0
  9
$DIMTOLJ
 70
     1
  9
$DIMTZIN
 70
     0
  9
$DIMALTZ
 70
     0
  9
$DIMALTTZ
 70
     0
  9
$DIMUPT
 70
     0
  9
$DIMDEC
 70
     4
  9
$DIMTDEC
 70
     4
  9
$DIMALTU
 70
     2
  9
$DIMALTTD
 70
     2
  9
$DIMTXSTY
  7
Standard
  9
$DIMAUNIT
 70
     0
  9
$DIMADEC
 70
     0
  9
$DIMALTRND
 40
0.0
  9
$DIMAZIN
 70
     0
  9
$DIMDSEP
 70
    46
  9
$DIMATFIT
 70
     3
  9
$DIMFRAC
 70
     0
  9
$DIMLDRBLK
  1

  9
$DIMLUNIT
 70
     2
  9
$DIMLWD
 70
    -2
  9
$DIMLWE
 70
    -2
  9
$DIMTMOVE
 70
     0
  9
$DIMFXL
 40
1.0
  9
$DIMFXLON
 70
     0
  9
$DIMJOGANG
 40
0.7853981633974483
  9
$DIMTFILL
 70
     0
  9
$DIMTFILLCLR
 70
     0
  9
$DIMARCSYM
 70
     0
  9
$DIMLTYPE
  6

  9
$DIMLTEX1
  6

  9
$DIMLTEX2
  6

  9
$DIMTXTDIRECTION
 70
     0
  9
$LUNITS
 70
     2
  9
$LUPREC
 70
     4
  9
$SKETCHINC
 40
0.1
  9
$FILLETRAD
 40
0.0
  9
$AUNITS
 70
     0
  9
$AUPREC
 70
     0
  9
$MENU
  1
.
  9
$ELEVATION
 40
0.0
  9
$PELEVATION
 40
0.0
  9
$THICKNESS
 40
0.0
  9
$LIMCHECK
 70
     0
  9
$CHAMFERA
 40
0.0
  9
$CHAMFERB
 40
0.0
  9
$CHAMFERC
 40
0.0
  9
$CHAMFERD
 40
0.0
  9
$SKPOLY
 70
     0
  9
$TDCREATE
 40
2461028.616875822
  9
$TDUCREATE
 40
2461028.387709155
  9
$TDUPDATE
 40
2461028.616875822
  9
$TDUUPDATE
 40
2461028.387709155
  9
$TDINDWG
 40
0.0000000116
  9
$TDUSRTIMER
 40
0.0000000116
  9
$USRTIMER
 70
     1
  9
$ANGBASE
 50
0.0
  9
$ANGDIR
 70
     0
  9
$PDMODE
 70
     0
  9
$PDSIZE
 40
0.0
  9
$PLINEWID
 40
0.0
  9
$SPLFRAME
 70
     0
  9
$SPLINETYPE
 70
     6
  9
$SPLINESEGS
 70
     8
  9
$HANDSEED
  5
84
  9
$SURFTAB1
 70
     6
  9
$SURFTAB2
 70
     6
  9
$SURFTYPE
 70
     6
  9
$SURFU
 70
     6
  9
$SURFV
 70
     6
  9
$UCSBASE
  2

  9
$UCSNAME
  2

  9
$UCSORG
 10
0.0
 20
0.0
 30
0.0
  9
$UCSXDIR
 10
1.0
 20
0.0
 30
0.0
  9
$UCSYDIR
 10
0.0
 20
1.0
 30
0.0
  9
$UCSORTHOREF
  2

  9
$UCSORTHOVIEW
 70
     0
  9
$UCSORGTOP
 10
0.0
 20
0.0
 30
0.0
  9
$UCSORGBOTTOM
 10
0.0
 20
0.0
 30
0.0
  9
$UCSORGLEFT
 10
0.0
 20
0.0
 30
0.0
  9
$UCSORGRIGHT
 10
0.0
 20
0.0
 30
0.0
  9
$UCSORGFRONT
 10
0.0
 20
0.0
 30
0.0
  9
$UCSORGBACK
 10
0.0
 20
0.0
 30
0.0
  9
$PUCSBASE
  2

  9
$PUCSNAME
  2

  9
$PUCSORG
 10
0.0
 20
0.0
 30
0.0
  9
$PUCSXDIR
 10
1.0
 20
0.0
 30
0.0
  9
$PUCSYDIR
 10
0.0
 20
1.0
 30
0.0
  9
$PUCSORTHOREF
  2

  9
$PUCSORTHOVIEW
 70
     0
  9
$PUCSORGTOP
 10
0.0
 20
0.0
 30
0.0
  9
$PUCSORGBOTTOM
 10
0.0
 20
0.0
 30
0.0
  9
$PUCSORGLEFT
 10
0.0
 20
0.0
 30
0.0
  9
$PUCSORGRIGHT
 10
0.0
 20
0.0
 30
0.0
  9
$PUCSORGFRONT
 10
0.0
 20
0.0
 30
0.0
  9
$PUCSORGBACK
 10
0.0
 20
0.0
 30
0.0
  9
$USERI1
 70
     0
  9
$USERI2
 70
     0
  9
$USERI3
 70
     0
  9
$USERI4
 70
     0
  9
$USERI5
 70
     0
  9
$USERR1
 40
0.0
  9
$USERR2
 40
0.0
  9
$USERR3
 40
0.0
  9
$USERR4
 40
0.0
  9
$USERR5
 40
0.0
  9
$WORLDVIEW
 70
     1
  9
$SHADEDGE
 70
     3
  9
$SHADEDIF
 70
    70
  9
$TILEMODE
 70
     1
  9
$MAXACTVP
 70
    64
  9
$PINSBASE
 10
0.0
 20
0.0
 30
0.0
  9
$PLIMCHECK
 70
     0
  9
$PEXTMIN
 10
1.000000000000000E+20
 20
1.000000000000000E+20
 30
1.000000000000000E+20
  9
$PEXTMAX
 10
-1.000000000000000E+20
 20
-1.000000000000000E+20
 30
-1.000000000000000E+20
  9
$PLIMMIN
 10
0.0
 20
0.0
  9
$PLIMMAX
 10
12.0
 20
9.0
  9
$UNITMODE
 70
     0
  9
$VISRETAIN
 70
     1
  9
$PLINEGEN
 70
     0
  9
$PSLTSCALE
 70
     1
  9
$TREEDEPTH
 70
  3020
  9
$CMLSTYLE
  2
Standard
  9
$CMLJUST
 70
     0
  9
$CMLSCALE
 40
1.0
  9
$PROXYGRAPHICS
 70
     1
  9
$MEASUREMENT
 70
     0
  9
$CELWEIGHT
370
    -1
  9
$ENDCAPS
280
     0
  9
$JOINSTYLE
280
     0
  9
$LWDISPLAY
290
     0
  9
$INSUNITS
 70
     1
  9
$HYPERLINKBASE
  1

  9
$STYLESHEET
  1

  9
$XEDIT
290
     1
  9
$CEPSNTYPE
380
     0
  9
$PSTYLEMODE
290
     1
  9
$FINGERPRINTGUID
  2
{6ac1cd28-dbfb-4c9e-bdfc-7a4c1dea6702}
  9
$VERSIONGUID
  2
{FAEB1C32-E019-11D5-929B-00C0DF256EC4}
  9
$EXTNAMES
290
     1
  9
$PSVPSCALE
 40
0.0
  9
$OLESTARTUP
290
     0
  9
$SORTENTS
280
   127
  9
$INDEXCTL
280
     0
  9
$HIDETEXT
280
     1
  9
$XCLIPFRAME
280
     2
  9
$HALOGAP
280
     0
  9
$OBSCOLOR
 70
   257
  9
$OBSLTYPE
280
     0
  9
$INTERSECTIONDISPLAY
280
     0
  9
$INTERSECTIONCOLOR
 70
   257
  9
$DIMASSOC
280
     2
  9
$PROJECTNAME
  1

  9
$CAMERADISPLAY
290
     0
  9
$LENSLENGTH
 40
50.0
  9
$CAMERAHEIGHT
 40
0.0
  9
$STEPSPERSEC
 40
2.0
  9
$STEPSIZE
 40
6.0
  9
$3DDWFPREC
 40
2.0
  9
$PSOLWIDTH
 40
0.25
  9
$PSOLHEIGHT
 40
4.0
  9
$LOFTANG1
 40
1.570796326794897
  9
$LOFTANG2
 40
1.570796326794897
  9
$LOFTMAG1
 40
0.0
  9
$LOFTMAG2
 40
0.0
  9
$LOFTPARAM
 70
     7
  9
$LOFTNORMALS
280
     1
  9
$LATITUDE
 40
37.795
  9
$LONGITUDE
 40
-122.394
  9
$NORTHDIRECTION
 40
0.0
  9
$TIMEZONE
 70
 -8000
  9
$LIGHTGLYPHDISPLAY
280
     1
  9
$TILEMODELIGHTSYNCH
280
     1
  9
$CMATERIAL
347
44
  9
$SOLIDHIST
280
     0
  9
$SHOWHIST
280
     1
  9
$DWFFRAME
280
     2
  9
$DGNFRAME
280
     2
  9
$REALWORLDSCALE
290
     1
  9
$INTERFERECOLOR
 62
   256
  9
$CSHADOW
280
     0
  9
$SHADOWPLANELOCATION
 40
0.0
  0
ENDSEC
  0
SECTION
  2
CLASSES
  0
CLASS
  1
ACDBDICTIONARYWDFLT
  2
AcDbDictionaryWithDefault
  3
ObjectDBX Classes
 90
        0
 91
        3
280
     0
281
     0
  0
CLASS
  1
VISUALSTYLE
  2
AcDbVisualStyle
  3
ObjectDBX Classes
 90
     4095
 91
        3
280
     0
281
     0
  0
CLASS
  1
MATERIAL
  2
AcDbMaterial
  3
ObjectDBX Classes
 90
     1153
 91
        3
280
     0
281
     0
  0
CLASS
  1
SCALE
  2
AcDbScale
  3
ObjectDBX Classes
 90
     1153
 91
        3
280
     0
281
     0
  0
CLASS
  1
TABLESTYLE
  2
AcDbTableStyle
  3
ObjectDBX Classes
 90
     4095
 91
        3
280
     0
281
     0
  0
CLASS
  1
MLEADERSTYLE
  2
AcDbMLeaderStyle
  3
ACDB_MLEADERSTYLE_CLASS
 90
     4095
 91
        3
280
     0
281
     0
  0
CLASS
  1
SUN
  2
AcDbSun
  3
SCENEOE
 90
     1153
 91
        3
280
     0
281
     0
  0
CLASS
  1
DICTIONARYVAR
  2
AcDbDictionaryVar
  3
ObjectDBX Classes
 90
        0
 91
        3
280
     0
281
     0
  0
CLASS
  1
CELLSTYLEMAP
  2
AcDbCellStyleMap
  3
ObjectDBX Classes
 90
     1152
 91
        3
280
     0
281
     0
  0
ENDSEC
  0
SECTION
  2
TABLES
  0
TABLE
  2
VPORT
  5
8
330
0
100
AcDbSymbolTable
 70
     1
  0
VPORT
  5
29
330
8
100
AcDbSymbolTableRecord
100
AcDbViewportTableRecord
  2
*Active
 70
     0
 10
0.0
 20
0.0
 11
1.0
 21
1.0
 12
10.42990654205607
 22
4.5
 13
0.0
 23
0.0
 14
0.5
 24
0.5
 15
0.5
 25
0.5
 16
0.0
 26
0.0
 36
1.0
 17
0.0
 27
0.0
 37
0.0
 40
9.0
 41
1.972972972850329
 42
50.0
 43
0.0
 44
0.0
 50
0.0
 51
0.0
 71
     0
 72
   100
 73
     1
 74
     3
 75
     0
 76
     0
 77
     0
 78
     0
281
     0
 65
     1
110
0.0
120
0.0
130
0.0
111
1.0
121
0.0
131
0.0
112
0.0
122
1.0
132
0.0
 79
     0
146
0.0
348
2F
 60
     3
 61
     5
292
     1
282
     1
141
0.0
142
0.0
 63
   250
361
5D
  0
ENDTAB
  0
TABLE
  2
LTYPE
  5
5
330
0
100
AcDbSymbolTable
 70
     1
  0
LTYPE
  5
14
330
5
100
AcDbSymbolTableRecord
100
AcDbLinetypeTableRecord
  2
ByBlock
 70
     0
  3

 72
    65
 73
     0
 40
0.0
  0
LTYPE
  5
15
330
5
100
AcDbSymbolTableRecord
100
AcDbLinetypeTableRecord
  2
ByLayer
 70
     0
  3

 72
    65
 73
     0
 40
0.0
  0
LTYPE
  5
16
330
5
100
AcDbSymbolTableRecord
100
AcDbLinetypeTableRecord
  2
Continuous
 70
     0
  3
Solid line
 72
    65
 73
     0
 40
0.0
  0
ENDTAB
  0
TABLE
  2
LAYER
  5
2
330
0
100
AcDbSymbolTable
 70
     2
  0
LAYER
  5
10
330
2
100
AcDbSymbolTableRecord
100
AcDbLayerTableRecord
  2
0
 70
     0
 62
     7
  6
Continuous
370
    -3
390
F
347
46
348
0
  0
LAYER
  5
5F
330
2
100
AcDbSymbolTableRecord
100
AcDbLayerTableRecord
  2
Layer 1
 70
     0
 62
     7
  6
Continuous
370
    -3
390
F
347
46
348
0
  0
ENDTAB
  0
TABLE
  2
STYLE
  5
3
330
0
100
AcDbSymbolTable
 70
     1
  0
STYLE
  5
11
330
3
100
AcDbSymbolTableRecord
100
AcDbTextStyleTableRecord
  2
Standard
 70
     0
 40
0.0
 41
1.0
 50
0.0
 71
     0
 42
0.2
  3
txt
  4

  0
ENDTAB
  0
TABLE
  2
VIEW
  5
6
330
0
100
AcDbSymbolTable
 70
     0
  0
ENDTAB
  0
TABLE
  2
UCS
  5
7
330
0
100
AcDbSymbolTable
 70
     0
  0
ENDTAB
  0
TABLE
  2
APPID
  5
9
330
0
100
AcDbSymbolTable
 70
     2
  0
APPID
  5
12
330
9
100
AcDbSymbolTableRecord
100
AcDbRegAppTableRecord
  2
ACAD
 70
     0
  0
APPID
  5
5E
330
9
100
AcDbSymbolTableRecord
100
AcDbRegAppTableRecord
  2
ODA
 70
     0
  0
ENDTAB
  0
TABLE
  2
DIMSTYLE
  5
A
330
0
100
AcDbSymbolTable
 70
     1
100
AcDbDimStyleTable
  0
DIMSTYLE
105
27
330
A
100
AcDbSymbolTableRecord
100
AcDbDimStyleTableRecord
  2
Standard
 70
     0
178
     0
340
11
  0
ENDTAB
  0
TABLE
  2
BLOCK_RECORD
  5
1
330
0
100
AcDbSymbolTable
 70
     1
  0
BLOCK_RECORD
  5
1F
330
1
100
AcDbSymbolTableRecord
100
AcDbBlockTableRecord
  2
*Model_Space
340
22
 70
     0
280
     1
281
     0
  0
BLOCK_RECORD
  5
1B
330
1
100
AcDbSymbolTableRecord
100
AcDbBlockTableRecord
  2
*Paper_Space
340
1E
 70
     0
280
     1
281
     0
  0
BLOCK_RECORD
  5
23
330
1
100
AcDbSymbolTableRecord
100
AcDbBlockTableRecord
  2
*Paper_Space0
340
26
 70
     0
280
     1
281
     0
  0
ENDTAB
  0
ENDSEC
  0
SECTION
  2
BLOCKS
  0
BLOCK
  5
20
330
1F
100
AcDbEntity
  8
0
100
AcDbBlockBegin
  2
*Model_Space
 70
     0
 10
0.0
 20
0.0
 30
0.0
  3
*Model_Space
  1

  0
ENDBLK
  5
21
330
1F
100
AcDbEntity
  8
0
100
AcDbBlockEnd
  0
BLOCK
  5
1C
330
1B
100
AcDbEntity
 67
     1
  8
0
100
AcDbBlockBegin
  2
*Paper_Space
 70
     0
 10
0.0
 20
0.0
 30
0.0
  3
*Paper_Space
  1

  0
ENDBLK
  5
1D
330
1B
100
AcDbEntity
 67
     1
  8
0
100
AcDbBlockEnd
  0
BLOCK
  5
24
330
23
100
AcDbEntity
  8
0
100
AcDbBlockBegin
  2
*Paper_Space0
 70
     0
 10
0.0
 20
0.0
 30
0.0
  3
*Paper_Space0
  1

  0
ENDBLK
  5
25
330
23
100
AcDbEntity
  8
0
100
AcDbBlockEnd
  0
ENDSEC
  0
SECTION
  2
ENTITIES
  0
LWPOLYLINE
  5
60
330
1F
100
AcDbEntity
  8
Layer 1
 62
   250
100
AcDbPolyline
 90
        5
 70
     1
 43
0.0
 10
-10.25316535433071
 20
6.53946062992126
 10
-5.33684251968504
 20
6.53946062992126
 10
-5.33684251968504
 20
2.820484251968504
 10
-10.25316535433071
 20
2.820484251968504
 10
-10.25316535433071
 20
6.53946062992126
  0
LWPOLYLINE
  5
61
330
1F
100
AcDbEntity
  8
Layer 1
 62
     7
370
    25
100
AcDbPolyline
 90
       65
 70
     1
 43
0.0
 10
-8.439988188976377
 20
4.896551181102362
 10
-8.433299212598426
 20
4.911259842519685
 10
-8.407031496062991
 20
4.950397637795276
 10
-8.351862204724409
 20
5.006476377952755
 10
-8.258484251968504
 20
5.07201968503937
 10
-8.11757874015748
 20
5.139535433070866
 10
-7.919838582677166
 20
5.201547244094488
 10
-7.655944881889764
 20
5.250566929133858
 10
-7.316582677165354
 20
5.279110236220473
 10
-7.272661417322834
 20
5.280401574803149
 10
-7.153456692913386
 20
5.28090157480315
 10
-6.977795275590551
 20
5.275566929133858
 10
-6.764511811023622
 20
5.259338582677166
 10
-6.532437007874016
 20
5.227169291338583
 10
-6.300397637795276
 20
5.174003937007874
 10
-6.087228346456693
 20
5.094795275590551
 10
-5.911759842519685
 20
4.984488188976378
 10
-5.907291338582677
 20
4.981464566929134
 10
-5.895905511811024
 20
4.972275590551181
 10
-5.880614173228347
 20
4.956728346456693
 10
-5.86444094488189
 20
4.934641732283464
 10
-5.850405511811023
 20
4.905826771653543
 10
-5.84151968503937
 20
4.870098425196851
 10
-5.840811023622047
 20
4.827271653543307
 10
-5.851291338582677
 20
4.777157480314961
 10
-5.851996062992126
 20
4.767251968503937
 10
-5.85398031496063
 20
4.740854330708661
 10
-5.857055118110236
 20
4.702944881889763
 10
-5.86101968503937
 20
4.6585
 10
-5.865685039370079
 20
4.6125
 10
-5.870854330708662
 20
4.569925196850393
 10
-5.876334645669291
 20
4.535751968503937
 10
-5.881933070866141
 20
4.514960629921259
 10
-5.8863031496063
 20
4.50657874015748
 10
-5.901350393700787
 20
4.483669291338582
 10
-5.929984251968504
 20
4.449602362204724
 10
-5.975125984251968
 20
4.407736220472441
 10
-6.03967716535433
 20
4.36144094488189
 10
-6.126555118110236
 20
4.314074803149606
 10
-6.238669291338582
 20
4.269
 10
-6.378929133858268
 20
4.229586614173228
 10
-6.413082677165354
 20
4.221330708661418
 10
-6.509881889763779
 20
4.201484251968504
 10
-6.660846456692913
 20
4.17744094488189
 10
-6.857492125984252
 20
4.156582677165354
 10
-7.091334645669291
 20
4.146303149606299
 10
-7.353889763779527
 20
4.153988188976378
 10
-7.636669291338583
 20
4.187027559055118
 10
-7.931196850393701
 20
4.252807086614173
 10
-7.95142125984252
 20
4.257629921259842
 10
-8.004944881889763
 20
4.272555118110236
 10
-8.081023622047244
 20
4.298279527559055
 10
-8.168925196850394
 20
4.33548031496063
 10
-8.257913385826772
 20
4.384858267716536
 10
-8.33725590551181
 20
4.447094488188976
 10
-8.396212598425198
 20
4.52288188976378
 10
-8.424047244094488
 20
4.612905511811023
 10
-8.431385826771654
 20
4.699641732283465
 10
-8.436314960629922
 20
4.766763779527559
 10
-8.439275590551182
 20
4.816755905511811
 10
-8.440708661417323
 20
4.85209842519685
 10
-8.441055118110237
 20
4.875267716535433
 10
-8.44075590551181
 20
4.888744094488189
 10
-8.440251968503937
 20
4.895011811023622
 10
-8.439988188976377
 20
4.896551181102362
  0
LWPOLYLINE
  5
62
330
1F
100
AcDbEntity
  8
Layer 1
 62
     7
370
    25
100
AcDbPolyline
 90
       34
 70
     0
 43
0.0
 10
-7.931196850393701
 20
4.252807086614173
 10
-7.930897637795276
 20
4.225511811023622
 10
-7.93005905511811
 20
4.153263779527559
 10
-7.928751968503937
 20
4.050531496062992
 10
-7.92705905511811
 20
3.931775590551181
 10
-7.925051181102362
 20
3.811464566929134
 10
-7.922811023622047
 20
3.704062992125984
 10
-7.920417322834646
 20
3.624035433070866
 10
-7.91794094488189
 20
3.585842519685039
 10
-7.917649606299213
 20
3.581173228346457
 10
-7.913736220472441
 20
3.56807874015748
 10
-7.901649606299213
 20
3.547929133858268
 10
-7.876834645669291
 20
3.522090551181102
 10
-7.834744094488189
 20
3.49194094488189
 10
-7.770822834645669
 20
3.458838582677165
 10
-7.680515748031496
 20
3.424165354330709
 10
-7.559271653543307
 20
3.389279527559055
 10
-7.528905511811024
 20
3.383661417322835
 10
-7.445405511811024
 20
3.370783464566929
 10
-7.320165354330709
 20
3.356602362204725
 10
-7.164582677165354
 20
3.347074803149606
 10
-6.990055118110236
 20
3.348165354330709
 10
-6.807972440944882
 20
3.365830708661417
 10
-6.629736220472441
 20
3.406031496062992
 10
-6.466736220472441
 20
3.474728346456693
 10
-6.46294094488189
 20
3.477303149606299
 10
-6.452822834645669
 20
3.484448818897638
 10
-6.438303149606299
 20
3.495287401574803
 10
-6.421287401574803
 20
3.508948818897638
 10
-6.403685039370079
 20
3.524551181102362
 10
-6.387417322834645
 20
3.541220472440945
 10
-6.374389763779527
 20
3.558090551181103
 10
-6.366515748031496
 20
3.574275590551181
 10
-6.351944881889763
 20
4.235992125984252
  0
LWPOLYLINE
  5
63
330
1F
100
AcDbEntity
  8
Layer 1
 62
     7
370
    25
100
AcDbPolyline
 90
       33
 70
     0
 43
0.0
 10
-7.924161417322835
 20
3.76507874015748
 10
-7.931248031496063
 20
3.761763779527559
 10
-7.949409448818898
 20
3.751334645669291
 10
-7.973996062992126
 20
3.733043307086614
 10
-8.000362204724409
 20
3.706161417322835
 10
-8.023850393700787
 20
3.669944881889764
 10
-8.039818897637796
 20
3.623657480314961
 10
-8.043614173228347
 20
3.566562992125984
 10
-8.03058661417323
 20
3.49792125984252
 10
-8.026531496062992
 20
3.487165354330709
 10
-8.009338582677165
 20
3.458464566929134
 10
-7.971448818897638
 20
3.417177165354331
 10
-7.905311023622048
 20
3.36865748031496
 10
-7.803374015748031
 20
3.318263779527559
 10
-7.658086614173229
 20
3.271354330708661
 10
-7.461897637795276
 20
3.233279527559055
 10
-7.207251968503937
 20
3.20940157480315
 10
-7.162094488188976
 20
3.208988188976378
 10
-7.04384251968504
 20
3.211732283464567
 10
-6.878338582677165
 20
3.223606299212598
 10
-6.69142125984252
 20
3.250582677165355
 10
-6.508929133858268
 20
3.298637795275591
 10
-6.356704724409449
 20
3.373740157480315
 10
-6.260582677165354
 20
3.481862204724409
 10
-6.246409448818897
 20
3.628984251968504
 10
-6.247314960629922
 20
3.632929133858268
 10
-6.250547244094488
 20
3.643696850393701
 10
-6.256889763779528
 20
3.659700787401575
 10
-6.267110236220472
 20
3.679354330708661
 10
-6.281992125984252
 20
3.701066929133858
 10
-6.302307086614173
 20
3.723244094488189
 10
-6.328834645669291
 20
3.744299212598425
 10
-6.362354330708661
 20
3.762645669291338
  0
LWPOLYLINE
  5
64
330
1F
100
AcDbEntity
  8
Layer 1
 62
     7
370
    25
100
AcDbPolyline
 90
       25
 70
     0
 43
0.0
 10
-6.246409448818897
 20
3.628984251968504
 10
-6.245814960629922
 20
3.624212598425197
 10
-6.245385826771654
 20
3.611035433070866
 10
-6.247149606299213
 20
3.591153543307087
 10
-6.253133858267717
 20
3.566263779527559
 10
-6.265374015748032
 20
3.538070866141732
 10
-6.285889763779528
 20
3.508271653543307
 10
-6.316716535433071
 20
3.478570866141732
 10
-6.35988188976378
 20
3.450665354330709
 10
-6.373633858267716
 20
3.442614173228347
 10
-6.414669291338583
 20
3.421574803149606
 10
-6.482645669291339
 20
3.392232283464567
 10
-6.577220472440945
 20
3.359267716535433
 10
-6.698055118110236
 20
3.327354330708661
 10
-6.844807086614173
 20
3.301177165354331
 10
-7.01713779527559
 20
3.285417322834645
 10
-7.214704724409449
 20
3.284755905511811
 10
-7.247897637795275
 20
3.286145669291339
 10
-7.335877952755905
 20
3.292511811023622
 10
-7.461263779527559
 20
3.307129921259842
 10
-7.606669291338583
 20
3.333287401574803
 10
-7.754704724409449
 20
3.374267716535433
 10
-7.887984251968504
 20
3.433350393700787
 10
-7.989118110236221
 20
3.513818897637795
 10
-8.040724409448819
 20
3.61896062992126
  0
LWPOLYLINE
  5
65
330
1F
100
AcDbEntity
  8
Layer 1
 62
     7
370
    25
100
AcDbPolyline
 90
       49
 70
     1
 43
0.0
 10
-8.318850393700787
 20
4.908173228346457
 10
-8.310425196850394
 20
4.921929133858268
 10
-8.279712598425197
 20
4.958181102362205
 10
-8.21855905511811
 20
5.00940157480315
 10
-8.118814960629921
 20
5.068070866141732
 10
-7.972318897637796
 20
5.126661417322834
 10
-7.770921259842519
 20
5.177649606299212
 10
-7.506468503937008
 20
5.213511811023622
 10
-7.170807086614174
 20
5.226720472440945
 10
-7.132905511811024
 20
5.227232283464567
 10
-7.0301968503937
 20
5.225877952755906
 10
-6.879165354330708
 20
5.21832283464567
 10
-6.696295275590551
 20
5.200220472440945
 10
-6.498074803149606
 20
5.167244094488189
 10
-6.300992125984252
 20
5.115051181102362
 10
-6.121535433070866
 20
5.039307086614174
 10
-5.976188976377952
 20
4.935669291338582
 10
-5.954716535433071
 20
4.914
 10
-5.938909448818897
 20
4.895251968503937
 10
-5.928917322834645
 20
4.878259842519685
 10
-5.924885826771654
 20
4.861854330708661
 10
-5.92696062992126
 20
4.844866141732283
 10
-5.935291338582677
 20
4.826122047244095
 10
-5.95001968503937
 20
4.804456692913385
 10
-5.971299212598425
 20
4.778700787401575
 10
-6.013417322834646
 20
4.737381889763779
 10
-6.073696850393701
 20
4.69307874015748
 10
-6.155350393700787
 20
4.648007874015748
 10
-6.261594488188976
 20
4.604374015748031
 10
-6.395653543307087
 20
4.564389763779528
 10
-6.560736220472441
 20
4.530259842519685
 10
-6.760066929133858
 20
4.504192913385827
 10
-6.996862204724409
 20
4.488405511811024
 10
-7.028566929133858
 20
4.486842519685039
 10
-7.116322834645669
 20
4.484933070866142
 10
-7.249074803149607
 20
4.486830708661417
 10
-7.415783464566929
 20
4.496700787401575
 10
-7.605397637795275
 20
4.518704724409448
 10
-7.806874015748032
 20
4.557
 10
-8.009169291338583
 20
4.615748031496063
 10
-8.201228346456693
 20
4.699114173228346
 10
-8.207708661417323
 20
4.703196850393701
 10
-8.2245
 20
4.71498031496063
 10
-8.247618110236221
 20
4.733763779527559
 10
-8.273086614173229
 20
4.758846456692913
 10
-8.29692125984252
 20
4.789527559055118
 10
-8.315149606299213
 20
4.825110236220472
 10
-8.32378346456693
 20
4.864889763779527
 10
-8.318850393700787
 20
4.908173228346457
  0
LWPOLYLINE
  5
66
330
1F
100
AcDbEntity
  8
Layer 1
 62
     7
370
    25
100
AcDbPolyline
 90
       17
 70
     0
 43
0.0
 10
-7.729027559055118
 20
4.540153543307087
 10
-7.722893700787401
 20
4.548153543307087
 10
-7.701988188976378
 20
4.569062992125985
 10
-7.662562992125984
 20
4.598236220472441
 10
-7.600874015748031
 20
4.631043307086614
 10
-7.513169291338583
 20
4.662834645669292
 10
-7.395704724409449
 20
4.688976377952756
 10
-7.244724409448819
 20
4.704826771653543
 10
-7.056488188976378
 20
4.705748031496063
 10
-7.035846456692913
 20
4.704622047244094
 10
-6.981204724409449
 20
4.700334645669291
 10
-6.90348031496063
 20
4.691523622047244
 10
-6.813606299212599
 20
4.676826771653543
 10
-6.722496062992126
 20
4.65488188976378
 10
-6.641074803149606
 20
4.624318897637795
 10
-6.580271653543307
 20
4.583783464566929
 10
-6.551
 20
4.531905511811024
  0
LWPOLYLINE
  5
67
330
1F
100
AcDbEntity
  8
Layer 1
 62
     7
370
    25
100
AcDbPolyline
 90
        2
 70
     0
 43
0.0
 10
-7.069885826771653
 20
4.14659842519685
 10
-7.069885826771653
 20
3.346110236220472
  0
LWPOLYLINE
  5
68
330
1F
100
AcDbEntity
  8
Layer 1
 62
     7
370
    25
100
AcDbPolyline
 90
        9
 70
     0
 43
0.0
 10
-8.436657480314961
 20
4.771992125984252
 10
-8.192271653543306
 20
4.605133858267717
 10
-7.876196850393701
 20
4.486405511811023
 10
-7.51301968503937
 20
4.415669291338583
 10
-7.127338582677165
 20
4.392795275590551
 10
-6.743732283464567
 20
4.417641732283465
 10
-6.386799212598425
 20
4.490070866141732
 10
-6.081122047244095
 20
4.609956692913386
 10
-5.851291338582677
 20
4.777157480314961
  0
LWPOLYLINE
  5
69
330
1F
100
AcDbEntity
  8
Layer 1
 62
     7
370
    18
100
AcDbPolyline
 90
        4
 70
     1
 43
0.0
 10
-8.903795275590552
 20
5.142523622047244
 10
-8.918590551181103
 20
5.169377952755905
 10
-8.933350393700787
 20
5.1425
 10
-8.903795275590552
 20
5.142523622047244
  0
LWPOLYLINE
  5
6A
330
1F
100
AcDbEntity
  8
Layer 1
 62
     7
370
    18
100
AcDbPolyline
 90
        4
 70
     1
 43
0.0
 10
-8.90246062992126
 20
3.287224409448819
 10
-8.917220472440945
 20
3.260350393700787
 10
-8.932015748031496
 20
3.287204724409449
 10
-8.90246062992126
 20
3.287224409448819
  0
LWPOLYLINE
  5
6B
330
1F
100
AcDbEntity
  8
Layer 1
 62
     7
370
    18
100
AcDbPolyline
 90
        2
 70
     0
 43
0.0
 10
-8.92017716535433
 20
5.178334645669291
 10
-8.918791338582677
 20
3.251393700787402
  0
LWPOLYLINE
  5
6C
330
1F
100
AcDbEntity
  8
Layer 1
 62
     7
370
    18
100
AcDbPolyline
 90
        4
 70
     1
 43
0.0
 10
-8.322866141732284
 20
5.660838582677165
 10
-8.349681102362204
 20
5.645968503937008
 10
-8.322763779527559
 20
5.631279527559055
 10
-8.322866141732284
 20
5.660838582677165
  0
LWPOLYLINE
  5
6D
330
1F
100
AcDbEntity
  8
Layer 1
 62
     7
370
    18
100
AcDbPolyline
 90
        4
 70
     1
 43
0.0
 10
-5.856976377952756
 20
5.669326771653544
 10
-5.83005905511811
 20
5.654641732283465
 10
-5.856874015748032
 20
5.639771653543307
 10
-5.856976377952756
 20
5.669326771653544
  0
LWPOLYLINE
  5
6E
330
1F
100
AcDbEntity
  8
Layer 1
 62
     7
370
    18
100
AcDbPolyline
 90
        2
 70
     0
 43
0.0
 10
-8.358633858267716
 20
5.644362204724409
 10
-5.82109842519685
 20
5.65309842519685
  0
LWPOLYLINE
  5
6F
330
1F
100
AcDbEntity
  8
Layer 1
 62
     7
370
     9
100
AcDbPolyline
 90
        7
 70
     1
 43
0.0
 10
-7.391582677165355
 20
5.807897637795276
 10
-7.368015748031496
 20
5.807897637795276
 10
-7.368015748031496
 20
6.039889763779527
 10
-7.424610236220472
 20
6.033838582677165
 10
-7.424610236220472
 20
6.013248031496063
 10
-7.391582677165355
 20
6.013248031496063
 10
-7.391582677165355
 20
5.807897637795276
  0
LWPOLYLINE
  5
70
330
1F
100
AcDbEntity
  8
Layer 1
 62
     7
370
     9
100
AcDbPolyline
 90
       70
 70
     1
 43
0.0
 10
-7.232059055118111
 20
6.010547244094488
 10
-7.228173228346456
 20
6.007905511811024
 10
-7.224551181102362
 20
6.004905511811024
 10
-7.221188976377952
 20
6.001543307086614
 10
-7.218086614173228
 20
5.997822834645669
 10
-7.215248031496063
 20
5.993744094488189
 10
-7.212673228346457
 20
5.989311023622047
 10
-7.210358267716535
 20
5.984515748031496
 10
-7.208311023622048
 20
5.979366141732283
 10
-7.206019685039371
 20
5.972523622047244
 10
-7.204031496062992
 20
5.965586614173229
 10
-7.202354330708661
 20
5.958547244094488
 10
-7.20098031496063
 20
5.951413385826772
 10
-7.199909448818897
 20
5.944177165354331
 10
-7.199145669291338
 20
5.936842519685039
 10
-7.198688976377952
 20
5.929409448818897
 10
-7.198535433070866
 20
5.921877952755906
 10
-7.19955905511811
 20
5.905181102362205
 10
-7.200728346456693
 20
5.896114173228346
 10
-7.202255905511811
 20
5.887551181102363
 10
-7.204137795275591
 20
5.879484251968504
 10
-7.206377952755905
 20
5.871921259842519
 10
-7.208976377952756
 20
5.864858267716535
 10
-7.211933070866142
 20
5.858299212598425
 10
-7.215244094488189
 20
5.852240157480315
 10
-7.218917322834645
 20
5.846681102362204
 10
-7.222275590551181
 20
5.842492125984252
 10
-7.225807086614173
 20
5.838858267716535
 10
-7.229523622047244
 20
5.835787401574803
 10
-7.233413385826772
 20
5.833275590551181
 10
-7.237484251968504
 20
5.831318897637796
 10
-7.241728346456693
 20
5.829925196850394
 10
-7.246153543307087
 20
5.829086614173228
 10
-7.250755905511811
 20
5.828807086614173
 10
-7.255897637795275
 20
5.829082677165355
 10
-7.260791338582677
 20
5.829913385826772
 10
-7.265437007874016
 20
5.831295275590551
 10
-7.269838582677165
 20
5.833232283464567
 10
-7.273988188976378
 20
5.835716535433071
 10
-7.277897637795276
 20
5.838759842519685
 10
-7.281559055118111
 20
5.842354330708662
 10
-7.284972440944882
 20
5.8465
 10
-7.287795275590551
 20
5.850594488188976
 10
-7.29036220472441
 20
5.854937007874016
 10
-7.292673228346457
 20
5.859527559055118
 10
-7.294732283464567
 20
5.864374015748031
 10
-7.300633858267717
 20
5.884771653543307
 10
-7.303484251968504
 20
5.905011811023622
 10
-7.304330708661418
 20
5.927555118110236
 10
-7.304098425196851
 20
5.934299212598425
 10
-7.303405511811023
 20
5.941807086614173
 10
-7.302251968503937
 20
5.950082677165354
 10
-7.300633858267717
 20
5.959125984251968
 10
-7.294901574803149
 20
5.979531496062992
 10
-7.292909448818897
 20
5.984468503937008
 10
-7.290645669291338
 20
5.989149606299213
 10
-7.288114173228347
 20
5.993574803149606
 10
-7.2853031496063
 20
5.997755905511811
 10
-7.282200787401575
 20
6.001598425196851
 10
-7.278807086614173
 20
6.005043307086614
 10
-7.275122047244095
 20
6.008086614173228
 10
-7.271137795275591
 20
6.010728346456693
 10
-7.266826771653544
 20
6.012866141732284
 10
-7.26213779527559
 20
6.014397637795276
 10
-7.257062992125984
 20
6.015322834645669
 10
-7.251598425196851
 20
6.015629921259842
 10
-7.246145669291338
 20
6.015311023622047
 10
-7.241070866141732
 20
6.014354330708661
 10
-7.236374015748032
 20
6.012767716535433
 10
-7.232059055118111
 20
6.010547244094488
  0
LWPOLYLINE
  5
71
330
1F
100
AcDbEntity
  8
Layer 1
 62
     7
370
     9
100
AcDbPolyline
 90
       65
 70
     1
 43
0.0
 10
-7.250421259842519
 20
5.804850393700788
 10
-7.240586614173228
 20
5.805476377952756
 10
-7.231377952755905
 20
5.807350393700787
 10
-7.222795275590551
 20
5.810472440944882
 10
-7.214838582677165
 20
5.814846456692913
 10
-7.207507874015748
 20
5.820464566929134
 10
-7.200803149606299
 20
5.827334645669291
 10
-7.194724409448819
 20
5.835448818897638
 10
-7.189271653543307
 20
5.844811023622047
 10
-7.185444881889763
 20
5.852984251968504
 10
-7.182125984251969
 20
5.861610236220472
 10
-7.179318897637796
 20
5.870688976377953
 10
-7.17701968503937
 20
5.880220472440945
 10
-7.175232283464567
 20
5.890208661417323
 10
-7.173956692913386
 20
5.900649606299212
 10
-7.173188976377952
 20
5.911543307086614
 10
-7.172933070866142
 20
5.922889763779527
 10
-7.173188976377952
 20
5.934232283464567
 10
-7.173956692913386
 20
5.945122047244094
 10
-7.175232283464567
 20
5.95555905511811
 10
-7.17701968503937
 20
5.965543307086614
 10
-7.179318897637796
 20
5.975074803149607
 10
-7.182125984251969
 20
5.984157480314961
 10
-7.185444881889763
 20
5.992779527559055
 10
-7.189271653543307
 20
6.000952755905512
 10
-7.194724409448819
 20
6.010314960629922
 10
-7.200803149606299
 20
6.018429133858268
 10
-7.207507874015748
 20
6.025299212598425
 10
-7.214838582677165
 20
6.030917322834646
 10
-7.222795275590551
 20
6.035291338582677
 10
-7.231377952755905
 20
6.038413385826772
 10
-7.240586614173228
 20
6.040287401574803
 10
-7.250421259842519
 20
6.040913385826772
 10
-7.260259842519685
 20
6.040287401574803
 10
-7.269472440944882
 20
6.038413385826772
 10
-7.278055118110236
 20
6.035291338582677
 10
-7.286011811023622
 20
6.030917322834646
 10
-7.293342519685039
 20
6.025299212598425
 10
-7.300047244094488
 20
6.018429133858268
 10
-7.306122047244094
 20
6.010314960629922
 10
-7.311570866141732
 20
6.000952755905512
 10
-7.31540157480315
 20
5.992779527559055
 10
-7.318724409448819
 20
5.984157480314961
 10
-7.321535433070866
 20
5.975074803149607
 10
-7.323834645669291
 20
5.965543307086614
 10
-7.325622047244094
 20
5.95555905511811
 10
-7.326901574803149
 20
5.945122047244094
 10
-7.327669291338583
 20
5.934232283464567
 10
-7.327925196850393
 20
5.922889763779527
 10
-7.327669291338583
 20
5.911543307086614
 10
-7.326901574803149
 20
5.900649606299212
 10
-7.325622047244094
 20
5.890208661417323
 10
-7.323834645669291
 20
5.880220472440945
 10
-7.321535433070866
 20
5.870688976377953
 10
-7.318724409448819
 20
5.861610236220472
 10
-7.31540157480315
 20
5.852984251968504
 10
-7.311570866141732
 20
5.844811023622047
 10
-7.306122047244094
 20
5.835448818897638
 10
-7.300047244094488
 20
5.827334645669291
 10
-7.293342519685039
 20
5.820464566929134
 10
-7.286011811023622
 20
5.814846456692913
 10
-7.278055118110236
 20
5.810472440944882
 10
-7.269472440944882
 20
5.807350393700787
 10
-7.260259842519685
 20
5.805476377952756
 10
-7.250421259842519
 20
5.804850393700788
  0
LWPOLYLINE
  5
72
330
1F
100
AcDbEntity
  8
Layer 1
 62
     7
370
     9
100
AcDbPolyline
 90
       65
 70
     1
 43
0.0
 10
-7.06932283464567
 20
5.932996062992126
 10
-7.063952755905512
 20
5.932748031496063
 10
-7.058783464566929
 20
5.932003937007874
 10
-7.053811023622047
 20
5.930767716535433
 10
-7.049035433070866
 20
5.929031496062992
 10
-7.044456692913386
 20
5.926803149606299
 10
-7.04007874015748
 20
5.92407874015748
 10
-7.03590157480315
 20
5.920858267716535
 10
-7.03192125984252
 20
5.917141732283465
 10
-7.028330708661417
 20
5.913129921259842
 10
-7.025216535433071
 20
5.908929133858268
 10
-7.022582677165354
 20
5.904535433070866
 10
-7.020425196850394
 20
5.899952755905511
 10
-7.018751968503937
 20
5.895177165354331
 10
-7.017551181102363
 20
5.890212598425197
 10
-7.016834645669292
 20
5.88505905511811
 10
-7.016594488188977
 20
5.87971653543307
 10
-7.016838582677165
 20
5.874496062992126
 10
-7.017562992125984
 20
5.869452755905511
 10
-7.018775590551181
 20
5.864586614173228
 10
-7.020468503937008
 20
5.859905511811023
 10
-7.022649606299213
 20
5.85540157480315
 10
-7.025314960629921
 20
5.851074803149606
 10
-7.028468503937008
 20
5.846933070866141
 10
-7.032102362204724
 20
5.842968503937008
 10
-7.036003937007874
 20
5.839405511811024
 10
-7.040125984251969
 20
5.836318897637796
 10
-7.044468503937008
 20
5.833708661417323
 10
-7.049031496062992
 20
5.831574803149606
 10
-7.053818897637795
 20
5.829913385826772
 10
-7.058826771653544
 20
5.828728346456693
 10
-7.064055118110236
 20
5.828015748031496
 10
-7.069503937007874
 20
5.827779527559055
 10
-7.074846456692914
 20
5.828023622047244
 10
-7.080007874015748
 20
5.828759842519685
 10
-7.084992125984252
 20
5.829988188976378
 10
-7.089799212598425
 20
5.831704724409449
 10
-7.094425196850394
 20
5.833909448818898
 10
-7.098877952755905
 20
5.836606299212598
 10
-7.103145669291338
 20
5.839791338582677
 10
-7.107240157480315
 20
5.843468503937008
 10
-7.110948818897638
 20
5.847444881889764
 10
-7.114165354330709
 20
5.851614173228347
 10
-7.116889763779527
 20
5.85598031496063
 10
-7.11911811023622
 20
5.860543307086614
 10
-7.120850393700787
 20
5.865299212598425
 10
-7.122086614173228
 20
5.870251968503937
 10
-7.122830708661417
 20
5.875397637795276
 10
-7.123078740157481
 20
5.880740157480315
 10
-7.122830708661417
 20
5.886051181102363
 10
-7.122086614173228
 20
5.891157480314961
 10
-7.120850393700787
 20
5.89605905511811
 10
-7.11911811023622
 20
5.900755905511811
 10
-7.116889763779527
 20
5.905244094488189
 10
-7.114165354330709
 20
5.909531496062992
 10
-7.110948818897638
 20
5.913610236220473
 10
-7.107240157480315
 20
5.917488188976378
 10
-7.10338188976378
 20
5.920846456692914
 10
-7.099232283464567
 20
5.923850393700787
 10
-7.094783464566929
 20
5.926496062992126
 10
-7.09003937007874
 20
5.928787401574803
 10
-7.085090551181103
 20
5.930629921259842
 10
-7.079984251968504
 20
5.931944881889764
 10
-7.074724409448819
 20
5.932732283464567
 10
-7.06932283464567
 20
5.932996062992126
  0
LWPOLYLINE
  5
73
330
1F
100
AcDbEntity
  8
Layer 1
 62
     7
370
     9
100
AcDbPolyline
 90
       63
 70
     1
 43
0.0
 10
-6.992692913385826
 20
5.881405511811024
 10
-6.993059055118111
 20
5.889523622047244
 10
-6.994165354330709
 20
5.897275590551181
 10
-6.996003937007874
 20
5.904653543307087
 10
-6.998582677165355
 20
5.911669291338582
 10
-7.001897637795276
 20
5.918314960629921
 10
-7.005948818897638
 20
5.924590551181103
 10
-7.010736220472441
 20
5.9305
 10
-7.016259842519685
 20
5.936043307086615
 10
-7.021913385826772
 20
5.940708661417323
 10
-7.027964566929134
 20
5.944799212598425
 10
-7.034405511811023
 20
5.948314960629921
 10
-7.041240157480315
 20
5.951259842519685
 10
-7.048472440944882
 20
5.953625984251969
 10
-7.056098425196851
 20
5.955417322834646
 10
-7.064118110236221
 20
5.956637795275591
 10
-7.072535433070867
 20
5.957283464566929
 10
-7.079267716535433
 20
5.952893700787402
 10
-7.009200787401575
 20
6.037200787401575
 10
-7.040188976377952
 20
6.037200787401575
 10
-7.129811023622048
 20
5.928952755905512
 10
-7.133838582677165
 20
5.923681102362205
 10
-7.137326771653544
 20
5.9181968503937
 10
-7.140275590551181
 20
5.912492125984252
 10
-7.142688976377952
 20
5.906570866141732
 10
-7.144566929133858
 20
5.900437007874015
 10
-7.145909448818897
 20
5.894082677165354
 10
-7.146712598425196
 20
5.88751968503937
 10
-7.14698031496063
 20
5.880740157480315
 10
-7.146625984251968
 20
5.87292125984252
 10
-7.145570866141732
 20
5.865401574803149
 10
-7.143807086614173
 20
5.858185039370079
 10
-7.14134251968504
 20
5.851267716535433
 10
-7.138169291338583
 20
5.844649606299213
 10
-7.134291338582677
 20
5.838334645669291
 10
-7.129712598425197
 20
5.832318897637795
 10
-7.124425196850393
 20
5.826602362204724
 10
-7.118594488188976
 20
5.821346456692913
 10
-7.11248031496063
 20
5.816791338582677
 10
-7.106082677165355
 20
5.812937007874016
 10
-7.099401574803149
 20
5.809787401574803
 10
-7.092437007874016
 20
5.807334645669291
 10
-7.085188976377953
 20
5.805586614173229
 10
-7.077657480314961
 20
5.804535433070866
 10
-7.069838582677165
 20
5.804185039370079
 10
-7.061909448818898
 20
5.804531496062992
 10
-7.054299212598425
 20
5.805574803149606
 10
-7.047
 20
5.807311023622047
 10
-7.04001968503937
 20
5.809744094488189
 10
-7.033354330708661
 20
5.812874015748031
 10
-7.027003937007874
 20
5.816696850393701
 10
-7.020972440944882
 20
5.821220472440945
 10
-7.015251968503937
 20
5.826437007874016
 10
-7.010307086614173
 20
5.831877952755906
 10
-7.005905511811024
 20
5.837740157480315
 10
-7.002043307086614
 20
5.844015748031496
 10
-6.998728346456693
 20
5.850708661417323
 10
-6.997311023622047
 20
5.854220472440945
 10
-6.996086614173229
 20
5.85782283464567
 10
-6.995047244094488
 20
5.86151968503937
 10
-6.994200787401574
 20
5.865311023622048
 10
-6.993070866141732
 20
5.873169291338582
 10
-6.992692913385826
 20
5.881405511811024
  0
LWPOLYLINE
  5
74
330
1F
100
AcDbEntity
  8
Layer 1
 62
     7
370
     9
100
AcDbPolyline
 90
      115
 70
     1
 43
0.0
 10
-6.770303149606299
 20
5.808562992125984
 10
-6.746720472440945
 20
5.808562992125984
 10
-6.746720472440945
 20
5.901287401574804
 10
-6.746913385826772
 20
5.907448818897638
 10
-6.747492125984252
 20
5.913322834645669
 10
-6.748452755905512
 20
5.918905511811023
 10
-6.749803149606299
 20
5.924196850393701
 10
-6.751535433070866
 20
5.9291968503937
 10
-6.753649606299213
 20
5.933905511811024
 10
-6.756149606299212
 20
5.938326771653544
 10
-6.759031496062992
 20
5.942452755905512
 10
-6.762346456692914
 20
5.946295275590551
 10
-6.766055118110236
 20
5.949740157480315
 10
-6.770169291338583
 20
5.952783464566929
 10
-6.774692913385826
 20
5.955429133858268
 10
-6.777145669291339
 20
5.956574803149606
 10
-6.779787401574803
 20
5.957566929133859
 10
-6.78261811023622
 20
5.958409448818897
 10
-6.785637795275591
 20
5.95909842519685
 10
-6.792248031496063
 20
5.96001968503937
 10
-6.799618110236221
 20
5.960326771653543
 10
-6.803437007874016
 20
5.960192913385827
 10
-6.807129921259842
 20
5.959799212598425
 10
-6.810700787401575
 20
5.95913779527559
 10
-6.814153543307087
 20
5.958212598425197
 10
-6.81748031496063
 20
5.95701968503937
 10
-6.820688976377952
 20
5.955566929133858
 10
-6.823775590551181
 20
5.953850393700788
 10
-6.826744094488189
 20
5.951870078740157
 10
-6.831775590551181
 20
5.947787401574804
 10
-6.836342519685039
 20
5.943125984251968
 10
-6.840448818897638
 20
5.937893700787401
 10
-6.844094488188976
 20
5.93209842519685
 10
-6.850342519685039
 20
5.942452755905512
 10
-6.853649606299212
 20
5.946295275590551
 10
-6.857366141732284
 20
5.949740157480315
 10
-6.861488188976378
 20
5.952783464566929
 10
-6.866003937007874
 20
5.955429133858268
 10
-6.868452755905512
 20
5.956574803149606
 10
-6.871094488188977
 20
5.957566929133859
 10
-6.873925196850394
 20
5.958409448818897
 10
-6.876944881889764
 20
5.95909842519685
 10
-6.883555118110237
 20
5.96001968503937
 10
-6.890929133858267
 20
5.960326771653543
 10
-6.894740157480315
 20
5.960192913385827
 10
-6.898433070866142
 20
5.959799212598425
 10
-6.902003937007874
 20
5.95913779527559
 10
-6.905452755905512
 20
5.958212598425197
 10
-6.908779527559055
 20
5.95701968503937
 10
-6.911984251968504
 20
5.955566929133858
 10
-6.915070866141733
 20
5.953850393700788
 10
-6.91803937007874
 20
5.951870078740157
 10
-6.922850393700787
 20
5.948
 10
-6.927232283464567
 20
5.943610236220472
 10
-6.931188976377952
 20
5.938700787401575
 10
-6.934728346456693
 20
5.933271653543307
 10
-6.934728346456693
 20
5.956937007874016
 10
-6.958311023622048
 20
5.956937007874016
 10
-6.958311023622048
 20
5.808562992125984
 10
-6.934728346456693
 20
5.808562992125984
 10
-6.934728346456693
 20
5.884492125984252
 10
-6.934181102362205
 20
5.888917322834645
 10
-6.933464566929134
 20
5.893173228346456
 10
-6.932582677165354
 20
5.897251968503937
 10
-6.931527559055118
 20
5.901165354330709
 10
-6.930307086614174
 20
5.904909448818898
 10
-6.928917322834645
 20
5.908484251968504
 10
-6.927358267716535
 20
5.911889763779527
 10
-6.925629921259842
 20
5.915133858267716
 10
-6.922704724409448
 20
5.919641732283464
 10
-6.919311023622047
 20
5.923728346456693
 10
-6.915448818897638
 20
5.927393700787402
 10
-6.911129921259842
 20
5.930629921259842
 10
-6.906503937007874
 20
5.933291338582677
 10
-6.901704724409448
 20
5.935188976377953
 10
-6.896732283464567
 20
5.936330708661417
 10
-6.891590551181102
 20
5.936708661417323
 10
-6.886712598425197
 20
5.936511811023622
 10
-6.882503937007874
 20
5.935913385826772
 10
-6.878968503937008
 20
5.934913385826771
 10
-6.87609842519685
 20
5.933507874015748
 10
-6.872704724409449
 20
5.930992125984252
 10
-6.869763779527559
 20
5.928047244094488
 10
-6.867271653543307
 20
5.924665354330709
 10
-6.865236220472441
 20
5.920858267716535
 10
-6.863653543307087
 20
5.916614173228346
 10
-6.86251968503937
 20
5.911937007874016
 10
-6.861842519685039
 20
5.906830708661417
 10
-6.861614173228347
 20
5.901287401574804
 10
-6.861614173228347
 20
5.808562992125984
 10
-6.838043307086614
 20
5.808562992125984
 10
-6.838043307086614
 20
5.901287401574804
 10
-6.838196850393701
 20
5.90698031496063
 10
-6.834318897637795
 20
5.915133858267716
 10
-6.831397637795275
 20
5.919641732283464
 10
-6.828007874015748
 20
5.923728346456693
 10
-6.824153543307086
 20
5.927393700787402
 10
-6.819834645669292
 20
5.930629921259842
 10
-6.815208661417323
 20
5.933291338582677
 10
-6.810405511811024
 20
5.935188976377953
 10
-6.805429133858268
 20
5.936330708661417
 10
-6.800283464566929
 20
5.936708661417323
 10
-6.795405511811023
 20
5.936511811023622
 10
-6.791196850393701
 20
5.935913385826772
 10
-6.787661417322835
 20
5.934913385826771
 10
-6.784799212598426
 20
5.933507874015748
 10
-6.781405511811023
 20
5.930992125984252
 10
-6.778464566929133
 20
5.928047244094488
 10
-6.775972440944882
 20
5.924665354330709
 10
-6.773933070866142
 20
5.920858267716535
 10
-6.772346456692913
 20
5.916614173228346
 10
-6.771212598425197
 20
5.911937007874016
 10
-6.770531496062993
 20
5.906830708661417
 10
-6.770303149606299
 20
5.901287401574804
 10
-6.770303149606299
 20
5.808562992125984
  0
LWPOLYLINE
  5
75
330
1F
100
AcDbEntity
  8
Layer 1
 62
     7
370
     9
100
AcDbPolyline
 90
      115
 70
     1
 43
0.0
 10
-6.513240157480315
 20
5.808562992125984
 10
-6.489641732283465
 20
5.808562992125984
 10
-6.489641732283465
 20
5.901287401574804
 10
-6.489834645669291
 20
5.907448818897638
 10
-6.490413385826772
 20
5.913322834645669
 10
-6.491374015748032
 20
5.918905511811023
 10
-6.492724409448819
 20
5.924196850393701
 10
-6.494456692913386
 20
5.9291968503937
 10
-6.496570866141732
 20
5.933905511811024
 10
-6.499070866141732
 20
5.938326771653544
 10
-6.501952755905512
 20
5.942452755905512
 10
-6.505267716535433
 20
5.946295275590551
 10
-6.50898031496063
 20
5.949740157480315
 10
-6.51309842519685
 20
5.952783464566929
 10
-6.517629921259842
 20
5.955429133858268
 10
-6.52007874015748
 20
5.956574803149606
 10
-6.522716535433071
 20
5.957566929133859
 10
-6.525543307086614
 20
5.958409448818897
 10
-6.528562992125984
 20
5.95909842519685
 10
-6.535177165354331
 20
5.96001968503937
 10
-6.542555118110236
 20
5.960326771653543
 10
-6.546366141732284
 20
5.960192913385827
 10
-6.55005905511811
 20
5.959799212598425
 10
-6.553625984251968
 20
5.95913779527559
 10
-6.557074803149606
 20
5.958212598425197
 10
-6.560405511811024
 20
5.95701968503937
 10
-6.563610236220472
 20
5.955566929133858
 10
-6.566696850393701
 20
5.953850393700788
 10
-6.569665354330708
 20
5.951870078740157
 10
-6.574704724409449
 20
5.947787401574804
 10
-6.579275590551181
 20
5.943125984251968
 10
-6.583377952755906
 20
5.937893700787401
 10
-6.587015748031496
 20
5.93209842519685
 10
-6.593263779527559
 20
5.942452755905512
 10
-6.59657874015748
 20
5.946295275590551
 10
-6.600295275590551
 20
5.949740157480315
 10
-6.604409448818898
 20
5.952783464566929
 10
-6.608925196850394
 20
5.955429133858268
 10
-6.611377952755905
 20
5.956574803149606
 10
-6.61401968503937
 20
5.957566929133859
 10
-6.616850393700787
 20
5.958409448818897
 10
-6.619870078740157
 20
5.95909842519685
 10
-6.62648031496063
 20
5.96001968503937
 10
-6.633850393700787
 20
5.960326771653543
 10
-6.637665354330709
 20
5.960192913385827
 10
-6.64136220472441
 20
5.959799212598425
 10
-6.644933070866141
 20
5.95913779527559
 10
-6.64838188976378
 20
5.958212598425197
 10
-6.651712598425197
 20
5.95701968503937
 10
-6.65492125984252
 20
5.955566929133858
 10
-6.658007874015748
 20
5.953850393700788
 10
-6.660976377952756
 20
5.951870078740157
 10
-6.665779527559055
 20
5.948
 10
-6.670153543307086
 20
5.943610236220472
 10
-6.674110236220472
 20
5.938700787401575
 10
-6.677649606299212
 20
5.933271653543307
 10
-6.677649606299212
 20
5.956937007874016
 10
-6.701232283464567
 20
5.956937007874016
 10
-6.701232283464567
 20
5.808562992125984
 10
-6.677649606299212
 20
5.808562992125984
 10
-6.677649606299212
 20
5.884492125984252
 10
-6.677102362204725
 20
5.888917322834645
 10
-6.676389763779528
 20
5.893173228346456
 10
-6.675503937007874
 20
5.897251968503937
 10
-6.674452755905512
 20
5.901165354330709
 10
-6.673228346456693
 20
5.904909448818898
 10
-6.671838582677165
 20
5.908484251968504
 10
-6.670279527559055
 20
5.911889763779527
 10
-6.668551181102362
 20
5.915133858267716
 10
-6.665625984251968
 20
5.919641732283464
 10
-6.662236220472441
 20
5.923728346456693
 10
-6.658381889763779
 20
5.927393700787402
 10
-6.654055118110236
 20
5.930629921259842
 10
-6.649437007874016
 20
5.933291338582677
 10
-6.644637795275591
 20
5.935188976377953
 10
-6.639661417322834
 20
5.936330708661417
 10
-6.634515748031496
 20
5.936708661417323
 10
-6.629637795275591
 20
5.936511811023622
 10
-6.625429133858268
 20
5.935913385826772
 10
-6.621893700787401
 20
5.934913385826771
 10
-6.619031496062992
 20
5.933507874015748
 10
-6.615637795275591
 20
5.930992125984252
 10
-6.612696850393701
 20
5.928047244094488
 10
-6.610204724409448
 20
5.924665354330709
 10
-6.608165354330708
 20
5.920858267716535
 10
-6.60657874015748
 20
5.916614173228346
 10
-6.605444881889764
 20
5.911937007874016
 10
-6.604763779527559
 20
5.906830708661417
 10
-6.604535433070867
 20
5.901287401574804
 10
-6.604535433070867
 20
5.808562992125984
 10
-6.580964566929134
 20
5.808562992125984
 10
-6.580964566929134
 20
5.901287401574804
 10
-6.58111811023622
 20
5.90698031496063
 10
-6.577240157480315
 20
5.915133858267716
 10
-6.574318897637795
 20
5.919641732283464
 10
-6.570929133858268
 20
5.923728346456693
 10
-6.567074803149606
 20
5.927393700787402
 10
-6.562755905511811
 20
5.930629921259842
 10
-6.558129921259843
 20
5.933291338582677
 10
-6.553330708661417
 20
5.935188976377953
 10
-6.548358267716536
 20
5.936330708661417
 10
-6.54321653543307
 20
5.936708661417323
 10
-6.538338582677166
 20
5.936511811023622
 10
-6.534125984251968
 20
5.935913385826772
 10
-6.530586614173228
 20
5.934913385826771
 10
-6.527724409448819
 20
5.933507874015748
 10
-6.524330708661418
 20
5.930992125984252
 10
-6.521389763779528
 20
5.928047244094488
 10
-6.518897637795275
 20
5.924665354330709
 10
-6.51686220472441
 20
5.920858267716535
 10
-6.515279527559055
 20
5.916614173228346
 10
-6.514145669291339
 20
5.911937007874016
 10
-6.513468503937008
 20
5.906830708661417
 10
-6.513240157480315
 20
5.901287401574804
 10
-6.513240157480315
 20
5.808562992125984
  0
LWPOLYLINE
  5
76
330
1F
100
AcDbEntity
  8
Layer 1
 62
     7
370
     9
100
AcDbPolyline
 90
       65
 70
     1
 43
0.0
 10
-9.916665354330709
 20
4.19607874015748
 10
-9.911291338582677
 20
4.195830708661417
 10
-9.906118110236221
 20
4.195086614173229
 10
-9.901141732283465
 20
4.193850393700788
 10
-9.896366141732283
 20
4.192114173228346
 10
-9.891791338582678
 20
4.189885826771653
 10
-9.887413385826772
 20
4.187161417322835
 10
-9.883240157480316
 20
4.18394094488189
 10
-9.879263779527559
 20
4.180228346456693
 10
-9.875673228346457
 20
4.176212598425197
 10
-9.87255905511811
 20
4.172007874015748
 10
-9.869925196850394
 20
4.167614173228347
 10
-9.867767716535432
 20
4.163027559055118
 10
-9.866094488188976
 20
4.158255905511811
 10
-9.864893700787402
 20
4.153287401574803
 10
-9.86417716535433
 20
4.148133858267717
 10
-9.863937007874016
 20
4.142787401574803
 10
-9.86417716535433
 20
4.137566929133858
 10
-9.864905511811024
 20
4.132523622047244
 10
-9.866114173228347
 20
4.127661417322835
 10
-9.867811023622048
 20
4.122976377952756
 10
-9.869988188976379
 20
4.118476377952756
 10
-9.872653543307086
 20
4.114153543307086
 10
-9.875799212598425
 20
4.110015748031496
 10
-9.879429133858268
 20
4.106055118110236
 10
-9.883330708661417
 20
4.102492125984252
 10
-9.887456692913386
 20
4.099405511811024
 10
-9.891799212598425
 20
4.096795275590551
 10
-9.896366141732283
 20
4.094657480314961
 10
-9.901153543307087
 20
4.093
 10
-9.906161417322835
 20
4.091814960629922
 10
-9.911385826771653
 20
4.091102362204724
 10
-9.916834645669292
 20
4.090866141732284
 10
-9.922181102362204
 20
4.091110236220472
 10
-9.92734251968504
 20
4.091846456692913
 10
-9.932326771653543
 20
4.093070866141733
 10
-9.937133858267716
 20
4.094787401574803
 10
-9.941759842519685
 20
4.096992125984252
 10
-9.94620472440945
 20
4.099685039370079
 10
-9.950476377952755
 20
4.102870078740158
 10
-9.954566929133858
 20
4.10653937007874
 10
-9.958275590551182
 20
4.110515748031496
 10
-9.961492125984252
 20
4.114688976377953
 10
-9.96421653543307
 20
4.119055118110237
 10
-9.966444881889764
 20
4.123618110236221
 10
-9.96817716535433
 20
4.128374015748031
 10
-9.969417322834646
 20
4.133326771653543
 10
-9.970161417322835
 20
4.138472440944882
 10
-9.970409448818897
 20
4.143811023622047
 10
-9.970161417322835
 20
4.149122047244094
 10
-9.969417322834646
 20
4.154232283464567
 10
-9.96817716535433
 20
4.159133858267716
 10
-9.966444881889764
 20
4.163830708661417
 10
-9.96421653543307
 20
4.168322834645669
 10
-9.961492125984252
 20
4.172606299212599
 10
-9.958275590551182
 20
4.176685039370079
 10
-9.954566929133858
 20
4.180559055118111
 10
-9.95071653543307
 20
4.18392125984252
 10
-9.946566929133859
 20
4.186925196850393
 10
-9.94211811023622
 20
4.189570866141732
 10
-9.93738188976378
 20
4.191858267716535
 10
-9.932425196850394
 20
4.193704724409449
 10
-9.927318897637795
 20
4.195023622047244
 10
-9.922066929133859
 20
4.195814960629921
 10
-9.916665354330709
 20
4.19607874015748
  0
LWPOLYLINE
  5
77
330
1F
100
AcDbEntity
  8
Layer 1
 62
     7
370
     9
100
AcDbPolyline
 90
       65
 70
     1
 43
0.0
 10
-9.84001968503937
 20
4.144476377952756
 10
-9.840389763779527
 20
4.152594488188976
 10
-9.841492125984251
 20
4.160342519685039
 10
-9.843334645669291
 20
4.167724409448819
 10
-9.845913385826771
 20
4.174736220472441
 10
-9.849228346456693
 20
4.181381889763779
 10
-9.853283464566928
 20
4.187661417322834
 10
-9.858074803149606
 20
4.193570866141732
 10
-9.863602362204725
 20
4.199114173228346
 10
-9.869251968503937
 20
4.203779527559055
 10
-9.875299212598426
 20
4.207870078740157
 10
-9.881740157480316
 20
4.211385826771654
 10
-9.888574803149606
 20
4.214330708661417
 10
-9.895807086614173
 20
4.216696850393701
 10
-9.903433070866141
 20
4.218488188976378
 10
-9.911452755905511
 20
4.219708661417322
 10
-9.919866141732284
 20
4.220354330708662
 10
-9.926610236220473
 20
4.215964566929133
 10
-9.856527559055118
 20
4.300271653543307
 10
-9.88751968503937
 20
4.300271653543307
 10
-9.97713779527559
 20
4.192023622047244
 10
-9.981169291338583
 20
4.186751968503937
 10
-9.984661417322835
 20
4.181267716535433
 10
-9.987614173228346
 20
4.175562992125984
 10
-9.990031496062992
 20
4.169641732283464
 10
-9.991909448818898
 20
4.163507874015748
 10
-9.993251968503937
 20
4.157153543307087
 10
-9.994055118110236
 20
4.150590551181103
 10
-9.994322834645669
 20
4.143811023622047
 10
-9.993968503937008
 20
4.135996062992126
 10
-9.992913385826771
 20
4.12848031496063
 10
-9.991149606299212
 20
4.121263779527559
 10
-9.988685039370079
 20
4.114346456692913
 10
-9.985511811023622
 20
4.107728346456692
 10
-9.981633858267717
 20
4.101413385826771
 10
-9.977055118110236
 20
4.09540157480315
 10
-9.971767716535433
 20
4.089688976377952
 10
-9.965933070866141
 20
4.084433070866142
 10
-9.959818897637795
 20
4.079877952755906
 10
-9.953417322834646
 20
4.076023622047244
 10
-9.946736220472442
 20
4.072870078740157
 10
-9.939767716535433
 20
4.07042125984252
 10
-9.93251968503937
 20
4.068669291338582
 10
-9.924984251968503
 20
4.067622047244095
 10
-9.91716535433071
 20
4.067271653543307
 10
-9.909240157480316
 20
4.067618110236221
 10
-9.901629921259843
 20
4.068661417322835
 10
-9.894334645669291
 20
4.070397637795276
 10
-9.88735433070866
 20
4.072826771653543
 10
-9.880688976377952
 20
4.075956692913386
 10
-9.874338582677165
 20
4.079775590551181
 10
-9.8683031496063
 20
4.084295275590551
 10
-9.862578740157481
 20
4.089507874015748
 10
-9.85763779527559
 20
4.094948818897638
 10
-9.853240157480315
 20
4.100807086614173
 10
-9.849385826771654
 20
4.107090551181102
 10
-9.846070866141732
 20
4.113795275590551
 10
-9.844653543307087
 20
4.117299212598425
 10
-9.843425196850394
 20
4.12090157480315
 10
-9.842385826771654
 20
4.124594488188976
 10
-9.841535433070867
 20
4.128381889763779
 10
-9.840874015748032
 20
4.132263779527559
 10
-9.840397637795276
 20
4.136244094488189
 10
-9.840114173228347
 20
4.140311023622047
 10
-9.84001968503937
 20
4.144476377952756
  0
LWPOLYLINE
  5
78
330
1F
100
AcDbEntity
  8
Layer 1
 62
     7
370
     9
100
AcDbPolyline
 90
      113
 70
     1
 43
0.0
 10
-9.710811023622048
 20
4.0735
 10
-9.704031496062992
 20
4.076724409448819
 10
-9.697669291338583
 20
4.080492125984252
 10
-9.691728346456692
 20
4.084814960629921
 10
-9.68621653543307
 20
4.089688976377952
 10
-9.68088188976378
 20
4.095342519685039
 10
-9.676259842519684
 20
4.101311023622047
 10
-9.672346456692914
 20
4.107602362204724
 10
-9.669149606299213
 20
4.114212598425197
 10
-9.666661417322835
 20
4.12113779527559
 10
-9.664885826771654
 20
4.128377952755906
 10
-9.663818897637796
 20
4.135937007874015
 10
-9.663464566929134
 20
4.143811023622047
 10
-9.663826771653543
 20
4.151685039370078
 10
-9.664909448818898
 20
4.159255905511811
 10
-9.666712598425196
 20
4.166523622047244
 10
-9.669240157480315
 20
4.173484251968504
 10
-9.672484251968504
 20
4.18013779527559
 10
-9.676452755905512
 20
4.186488188976378
 10
-9.681141732283464
 20
4.192531496062992
 10
-9.686551181102363
 20
4.198267716535433
 10
-9.692141732283465
 20
4.203220472440945
 10
-9.698090551181103
 20
4.207586614173229
 10
-9.704393700787401
 20
4.211358267716536
 10
-9.71105905511811
 20
4.21453937007874
 10
-9.718082677165354
 20
4.217133858267717
 10
-9.725464566929134
 20
4.219133858267717
 10
-9.733204724409449
 20
4.220543307086614
 10
-9.7413031496063
 20
4.221362204724409
 10
-9.751397637795275
 20
4.215299212598425
 10
-9.679641732283464
 20
4.300271653543307
 10
-9.802952755905512
 20
4.300271653543307
 10
-9.802952755905512
 20
4.276665354330708
 10
-9.727468503937008
 20
4.276665354330708
 10
-9.796885826771653
 20
4.195748031496063
 10
-9.779023622047244
 20
4.181236220472441
 10
-9.774885826771653
 20
4.185027559055118
 10
-9.77055905511811
 20
4.188314960629921
 10
-9.766043307086614
 20
4.19109842519685
 10
-9.761338582677165
 20
4.193377952755905
 10
-9.756444881889763
 20
4.195145669291339
 10
-9.75136220472441
 20
4.196413385826772
 10
-9.746090551181103
 20
4.197173228346457
 10
-9.740625984251968
 20
4.197425196850394
 10
-9.735169291338583
 20
4.197181102362205
 10
-9.729917322834646
 20
4.196444881889764
 10
-9.724870078740157
 20
4.195220472440945
 10
-9.720027559055119
 20
4.193507874015748
 10
-9.715393700787402
 20
4.191299212598425
 10
-9.710964566929134
 20
4.188602362204724
 10
-9.706744094488188
 20
4.185417322834645
 10
-9.70272440944882
 20
4.181736220472441
 10
-9.699051181102362
 20
4.177720472440945
 10
-9.695866141732283
 20
4.173507874015748
 10
-9.693173228346456
 20
4.169102362204725
 10
-9.690972440944883
 20
4.164503937007874
 10
-9.689259842519686
 20
4.159708661417323
 10
-9.68803937007874
 20
4.154716535433071
 10
-9.687307086614172
 20
4.149527559055118
 10
-9.687062992125984
 20
4.144145669291339
 10
-9.687311023622048
 20
4.138877952755905
 10
-9.68805905511811
 20
4.133791338582677
 10
-9.689307086614173
 20
4.128889763779528
 10
-9.691055118110237
 20
4.124165354330708
 10
-9.6933031496063
 20
4.119622047244095
 10
-9.696051181102362
 20
4.115251968503937
 10
-9.6993031496063
 20
4.111062992125984
 10
-9.703055118110235
 20
4.107051181102362
 10
-9.706838582677165
 20
4.103688976377953
 10
-9.710933070866142
 20
4.100685039370079
 10
-9.71534251968504
 20
4.09803937007874
 10
-9.720074803149606
 20
4.095751968503937
 10
-9.725216535433072
 20
4.093909448818898
 10
-9.730858267716535
 20
4.092594488188976
 10
-9.737
 20
4.091807086614173
 10
-9.743641732283464
 20
4.091543307086615
 10
-9.74709842519685
 20
4.091688976377953
 10
-9.75055905511811
 20
4.092122047244095
 10
-9.754011811023622
 20
4.092842519685039
 10
-9.757468503937007
 20
4.093854330708662
 10
-9.760917322834645
 20
4.095157480314961
 10
-9.764370078740157
 20
4.096751968503937
 10
-9.767818897637795
 20
4.098641732283465
 10
-9.771267716535434
 20
4.100818897637796
 10
-9.774598425196851
 20
4.103232283464567
 10
-9.77767716535433
 20
4.105858267716536
 10
-9.7805
 20
4.108688976377953
 10
-9.783070866141733
 20
4.111724409448819
 10
-9.785385826771654
 20
4.114968503937008
 10
-9.787452755905512
 20
4.11842125984252
 10
-9.789263779527559
 20
4.122074803149606
 10
-9.790822834645668
 20
4.125937007874016
 10
-9.813724409448819
 20
4.118181102362205
 10
-9.811555118110237
 20
4.112681102362204
 10
-9.808984251968504
 20
4.107448818897637
 10
-9.80601968503937
 20
4.102476377952756
 10
-9.802657480314961
 20
4.097771653543307
 10
-9.79890157480315
 20
4.093330708661417
 10
-9.794748031496063
 20
4.089153543307087
 10
-9.790200787401576
 20
4.085240157480315
 10
-9.78525590551181
 20
4.081586614173228
 10
-9.780346456692913
 20
4.078472440944882
 10
-9.775196850393701
 20
4.075720472440945
 10
-9.76981496062992
 20
4.073330708661417
 10
-9.76420472440945
 20
4.071299212598425
 10
-9.75831496062992
 20
4.069681102362205
 10
-9.752114173228346
 20
4.068527559055118
 10
-9.745598425196851
 20
4.067834645669292
 10
-9.738767716535433
 20
4.067602362204725
 10
-9.731779527559056
 20
4.067968503937008
 10
-9.724791338582676
 20
4.069070866141733
 10
-9.717799212598425
 20
4.070913385826771
 10
-9.710811023622048
 20
4.0735
  0
LWPOLYLINE
  5
79
330
1F
100
AcDbEntity
  8
Layer 1
 62
     7
370
     9
100
AcDbPolyline
 90
      115
 70
     1
 43
0.0
 10
-9.442433070866143
 20
4.071633858267717
 10
-9.418838582677166
 20
4.071633858267717
 10
-9.418838582677166
 20
4.164374015748032
 10
-9.419031496062992
 20
4.170531496062992
 10
-9.419610236220473
 20
4.176401574803149
 10
-9.420570866141732
 20
4.18198031496063
 10
-9.42192125984252
 20
4.187267716535433
 10
-9.423653543307086
 20
4.192267716535433
 10
-9.425771653543308
 20
4.196976377952756
 10
-9.42827559055118
 20
4.201393700787402
 10
-9.431161417322835
 20
4.205523622047244
 10
-9.434476377952755
 20
4.209366141732284
 10
-9.438188976377953
 20
4.212811023622047
 10
-9.4423031496063
 20
4.215854330708662
 10
-9.446822834645669
 20
4.218496062992126
 10
-9.449275590551181
 20
4.219641732283464
 10
-9.451917322834646
 20
4.220633858267717
 10
-9.454748031496063
 20
4.221476377952756
 10
-9.457767716535432
 20
4.222169291338583
 10
-9.464377952755905
 20
4.223090551181103
 10
-9.471748031496062
 20
4.223397637795276
 10
-9.475566929133858
 20
4.223263779527559
 10
-9.479259842519685
 20
4.222870078740158
 10
-9.482830708661417
 20
4.222208661417323
 10
-9.48628346456693
 20
4.221283464566929
 10
-9.489610236220473
 20
4.220094488188977
 10
-9.492818897637795
 20
4.218645669291338
 10
-9.495905511811024
 20
4.216929133858268
 10
-9.498874015748031
 20
4.214952755905512
 10
-9.503905511811023
 20
4.210866141732284
 10
-9.508472440944882
 20
4.206204724409448
 10
-9.512574803149606
 20
4.200972440944882
 10
-9.516212598425197
 20
4.195181102362205
 10
-9.522456692913385
 20
4.205523622047244
 10
-9.52577559055118
 20
4.209366141732284
 10
-9.529496062992125
 20
4.212811023622047
 10
-9.533614173228347
 20
4.215854330708662
 10
-9.538133858267717
 20
4.218496062992126
 10
-9.540586614173229
 20
4.219641732283464
 10
-9.543224409448818
 20
4.220633858267717
 10
-9.546055118110237
 20
4.221476377952756
 10
-9.549074803149606
 20
4.222169291338583
 10
-9.55568503937008
 20
4.223090551181103
 10
-9.56305905511811
 20
4.223397637795276
 10
-9.56687401574803
 20
4.223263779527559
 10
-9.570562992125984
 20
4.222870078740158
 10
-9.574133858267716
 20
4.222208661417323
 10
-9.577582677165354
 20
4.221283464566929
 10
-9.580909448818897
 20
4.220094488188977
 10
-9.58411811023622
 20
4.218645669291338
 10
-9.58720472440945
 20
4.216929133858268
 10
-9.590173228346456
 20
4.214952755905512
 10
-9.59498031496063
 20
4.211078740157481
 10
-9.59936220472441
 20
4.206688976377952
 10
-9.603318897637795
 20
4.201783464566929
 10
-9.606858267716536
 20
4.196358267716535
 10
-9.606858267716536
 20
4.220007874015748
 10
-9.630425196850394
 20
4.220007874015748
 10
-9.630425196850394
 20
4.071633858267717
 10
-9.606858267716536
 20
4.071633858267717
 10
-9.606858267716536
 20
4.14757874015748
 10
-9.606311023622046
 20
4.152003937007874
 10
-9.605594488188977
 20
4.156255905511811
 10
-9.604712598425197
 20
4.160334645669291
 10
-9.603657480314961
 20
4.164240157480315
 10
-9.602433070866141
 20
4.16798031496063
 10
-9.60103937007874
 20
4.171555118110236
 10
-9.599476377952756
 20
4.17496062992126
 10
-9.597744094488188
 20
4.178204724409449
 10
-9.594826771653544
 20
4.182712598425197
 10
-9.591437007874015
 20
4.186799212598425
 10
-9.58757874015748
 20
4.190468503937008
 10
-9.583259842519684
 20
4.193712598425197
 10
-9.578633858267716
 20
4.196370078740157
 10
-9.573834645669292
 20
4.198263779527559
 10
-9.56886220472441
 20
4.199397637795276
 10
-9.563724409448819
 20
4.199775590551181
 10
-9.558846456692914
 20
4.19957874015748
 10
-9.55463779527559
 20
4.198984251968504
 10
-9.55109842519685
 20
4.197988188976378
 10
-9.548228346456693
 20
4.196594488188977
 10
-9.544834645669292
 20
4.19407874015748
 10
-9.541893700787401
 20
4.191129921259843
 10
-9.539401574803149
 20
4.187748031496063
 10
-9.537366141732283
 20
4.183937007874015
 10
-9.53578346456693
 20
4.179692913385827
 10
-9.534649606299213
 20
4.175015748031496
 10
-9.533972440944883
 20
4.169909448818897
 10
-9.533744094488188
 20
4.164374015748032
 10
-9.533744094488188
 20
4.071633858267717
 10
-9.510161417322834
 20
4.071633858267717
 10
-9.510161417322834
 20
4.164374015748032
 10
-9.510326771653544
 20
4.170051181102362
 10
-9.506448818897638
 20
4.178204724409449
 10
-9.503523622047243
 20
4.182712598425197
 10
-9.500133858267716
 20
4.186799212598425
 10
-9.496279527559055
 20
4.190468503937008
 10
-9.491952755905512
 20
4.193712598425197
 10
-9.487326771653544
 20
4.196370078740157
 10
-9.482531496062991
 20
4.198263779527559
 10
-9.47755905511811
 20
4.199397637795276
 10
-9.472413385826771
 20
4.199775590551181
 10
-9.467535433070866
 20
4.19957874015748
 10
-9.463326771653543
 20
4.198984251968504
 10
-9.459791338582678
 20
4.197988188976378
 10
-9.456933070866143
 20
4.196594488188977
 10
-9.45353937007874
 20
4.19407874015748
 10
-9.450594488188976
 20
4.191129921259843
 10
-9.448102362204724
 20
4.187748031496063
 10
-9.446062992125984
 20
4.183937007874015
 10
-9.444476377952755
 20
4.179692913385827
 10
-9.44334251968504
 20
4.175015748031496
 10
-9.442661417322835
 20
4.169909448818897
 10
-9.442433070866143
 20
4.164374015748032
 10
-9.442433070866143
 20
4.071633858267717
  0
LWPOLYLINE
  5
7A
330
1F
100
AcDbEntity
  8
Layer 1
 62
     7
370
     9
100
AcDbPolyline
 90
      115
 70
     1
 43
0.0
 10
-9.185370078740158
 20
4.071633858267717
 10
-9.161771653543306
 20
4.071633858267717
 10
-9.161771653543306
 20
4.164374015748032
 10
-9.161964566929134
 20
4.170531496062992
 10
-9.162543307086613
 20
4.176401574803149
 10
-9.163503937007874
 20
4.18198031496063
 10
-9.164854330708662
 20
4.187267716535433
 10
-9.166586614173228
 20
4.192267716535433
 10
-9.168700787401574
 20
4.196976377952756
 10
-9.171200787401574
 20
4.201393700787402
 10
-9.174082677165355
 20
4.205523622047244
 10
-9.177397637795275
 20
4.209366141732284
 10
-9.181110236220473
 20
4.212811023622047
 10
-9.18522440944882
 20
4.215854330708662
 10
-9.189744094488189
 20
4.218496062992126
 10
-9.192196850393701
 20
4.219641732283464
 10
-9.194838582677166
 20
4.220633858267717
 10
-9.197669291338583
 20
4.221476377952756
 10
-9.200688976377952
 20
4.222169291338583
 10
-9.207299212598425
 20
4.223090551181103
 10
-9.214669291338582
 20
4.223397637795276
 10
-9.218488188976378
 20
4.223263779527559
 10
-9.222181102362205
 20
4.222870078740158
 10
-9.22575590551181
 20
4.222208661417323
 10
-9.229204724409449
 20
4.221283464566929
 10
-9.232535433070867
 20
4.220094488188977
 10
-9.235740157480315
 20
4.218645669291338
 10
-9.238826771653544
 20
4.216929133858268
 10
-9.241795275590551
 20
4.214952755905512
 10
-9.246830708661417
 20
4.210866141732284
 10
-9.25140157480315
 20
4.206204724409448
 10
-9.255507874015748
 20
4.200972440944882
 10
-9.259149606299212
 20
4.195181102362205
 10
-9.265393700787401
 20
4.205523622047244
 10
-9.268708661417323
 20
4.209366141732284
 10
-9.272425196850394
 20
4.212811023622047
 10
-9.27653937007874
 20
4.215854330708662
 10
-9.281055118110237
 20
4.218496062992126
 10
-9.283507874015749
 20
4.219641732283464
 10
-9.286149606299212
 20
4.220633858267717
 10
-9.288976377952755
 20
4.221476377952756
 10
-9.291996062992126
 20
4.222169291338583
 10
-9.298606299212599
 20
4.223090551181103
 10
-9.30598031496063
 20
4.223397637795276
 10
-9.30979527559055
 20
4.223263779527559
 10
-9.313488188976377
 20
4.222870078740158
 10
-9.31705905511811
 20
4.222208661417323
 10
-9.320507874015748
 20
4.221283464566929
 10
-9.323834645669292
 20
4.220094488188977
 10
-9.32703937007874
 20
4.218645669291338
 10
-9.330125984251968
 20
4.216929133858268
 10
-9.333094488188976
 20
4.214952755905512
 10
-9.33790157480315
 20
4.211078740157481
 10
-9.342283464566929
 20
4.206688976377952
 10
-9.346240157480315
 20
4.201783464566929
 10
-9.349779527559056
 20
4.196358267716535
 10
-9.349779527559056
 20
4.220007874015748
 10
-9.37336220472441
 20
4.220007874015748
 10
-9.37336220472441
 20
4.071633858267717
 10
-9.349779527559056
 20
4.071633858267717
 10
-9.349779527559056
 20
4.14757874015748
 10
-9.349232283464566
 20
4.152003937007874
 10
-9.34851968503937
 20
4.156255905511811
 10
-9.347633858267717
 20
4.160334645669291
 10
-9.346582677165355
 20
4.164240157480315
 10
-9.345358267716536
 20
4.16798031496063
 10
-9.343968503937008
 20
4.171555118110236
 10
-9.342409448818898
 20
4.17496062992126
 10
-9.340681102362204
 20
4.178204724409449
 10
-9.337755905511811
 20
4.182712598425197
 10
-9.334366141732284
 20
4.186799212598425
 10
-9.330511811023623
 20
4.190468503937008
 10
-9.32618503937008
 20
4.193712598425197
 10
-9.32155905511811
 20
4.196370078740157
 10
-9.316759842519685
 20
4.198263779527559
 10
-9.311787401574803
 20
4.199397637795276
 10
-9.306645669291338
 20
4.199775590551181
 10
-9.301767716535434
 20
4.19957874015748
 10
-9.29755905511811
 20
4.198984251968504
 10
-9.294023622047245
 20
4.197988188976378
 10
-9.291161417322835
 20
4.196594488188977
 10
-9.287763779527559
 20
4.19407874015748
 10
-9.284818897637795
 20
4.191129921259843
 10
-9.282326771653544
 20
4.187748031496063
 10
-9.280287401574803
 20
4.183937007874015
 10
-9.27870472440945
 20
4.179692913385827
 10
-9.277570866141732
 20
4.175015748031496
 10
-9.2768937007874
 20
4.169909448818897
 10
-9.276665354330708
 20
4.164374015748032
 10
-9.276665354330708
 20
4.071633858267717
 10
-9.25309842519685
 20
4.071633858267717
 10
-9.25309842519685
 20
4.164374015748032
 10
-9.253248031496064
 20
4.170051181102362
 10
-9.249370078740158
 20
4.178204724409449
 10
-9.246448818897639
 20
4.182712598425197
 10
-9.24305905511811
 20
4.186799212598425
 10
-9.239204724409449
 20
4.190468503937008
 10
-9.234885826771654
 20
4.193712598425197
 10
-9.230259842519684
 20
4.196370078740157
 10
-9.22546062992126
 20
4.198263779527559
 10
-9.220484251968504
 20
4.199397637795276
 10
-9.21533464566929
 20
4.199775590551181
 10
-9.21046062992126
 20
4.19957874015748
 10
-9.206255905511812
 20
4.198984251968504
 10
-9.20271653543307
 20
4.197988188976378
 10
-9.19985433070866
 20
4.196594488188977
 10
-9.19646062992126
 20
4.19407874015748
 10
-9.19351968503937
 20
4.191129921259843
 10
-9.191027559055119
 20
4.187748031496063
 10
-9.188992125984251
 20
4.183937007874015
 10
-9.187409448818897
 20
4.179692913385827
 10
-9.186275590551181
 20
4.175015748031496
 10
-9.18559842519685
 20
4.169909448818897
 10
-9.185370078740158
 20
4.164374015748032
 10
-9.185370078740158
 20
4.071633858267717
  0
ENDSEC
  0
SECTION
  2
OBJECTS
  0
DICTIONARY
  5
C
330
0
100
AcDbDictionary
281
     1
  3
ACAD_DETAILVIEWSTYLE
350
82
  3
ACAD_GROUP
350
D
  3
ACAD_LAYOUT
350
1A
  3
ACAD_MATERIAL
350
43
  3
ACAD_MLEADERSTYLE
350
5B
  3
ACAD_MLINESTYLE
350
17
  3
ACAD_PLOTSETTINGS
350
19
  3
ACAD_PLOTSTYLENAME
350
E
  3
ACAD_SCALELIST
350
47
  3
ACAD_SECTIONVIEWSTYLE
350
83
  3
ACAD_TABLESTYLE
350
59
  3
ACAD_VISUALSTYLE
350
2A
  3
ACDB_RECOMPOSE_DATA
350
7F
  3
AcDbVariableDictionary
350
7B
  0
SUN
  5
5D
330
29
100
AcDbSun
 90
        1
290
     0
 63
     7
421
 16777215
 40
1.0
291
     1
 91
  2455826
 92
 54000000
292
     0
 70
     2
 71
   256
280
     1
  0
DICTIONARY
  5
82
102
{ACAD_REACTORS
330
C
102
}
330
C
100
AcDbDictionary
281
     1
  0
DICTIONARY
  5
D
102
{ACAD_REACTORS
330
C
102
}
330
C
100
AcDbDictionary
281
     1
  0
DICTIONARY
  5
1A
102
{ACAD_REACTORS
330
C
102
}
330
C
100
AcDbDictionary
281
     1
  3
Layout1
350
1E
  3
Layout2
350
26
  3
Model
350
22
  0
DICTIONARY
  5
43
102
{ACAD_REACTORS
330
C
102
}
330
C
100
AcDbDictionary
281
     1
  3
ByBlock
350
45
  3
ByLayer
350
44
  3
Global
350
46
  0
DICTIONARY
  5
5B
102
{ACAD_REACTORS
330
C
102
}
330
C
100
AcDbDictionary
281
     1
  3
Standard
350
5C
  0
DICTIONARY
  5
17
102
{ACAD_REACTORS
330
C
102
}
330
C
100
AcDbDictionary
281
     1
  3
Standard
350
18
  0
DICTIONARY
  5
19
102
{ACAD_REACTORS
330
C
102
}
330
C
100
AcDbDictionary
281
     1
  0
ACDBDICTIONARYWDFLT
  5
E
102
{ACAD_REACTORS
330
C
102
}
330
C
100
AcDbDictionary
281
     1
  3
Normal
350
F
100
AcDbDictionaryWithDefault
340
F
  0
DICTIONARY
  5
47
102
{ACAD_REACTORS
330
C
102
}
330
C
100
AcDbDictionary
281
     1
  3
A0
350
48
  3
A1
350
49
  3
A2
350
4A
  3
A3
350
4B
  3
A4
350
4C
  3
A5
350
4D
  3
A6
350
4E
  3
A7
350
4F
  3
A8
350
50
  3
A9
350
51
  3
B1
350
52
  3
B2
350
53
  3
B3
350
54
  3
B4
350
55
  3
B5
350
56
  3
B6
350
57
  3
B7
350
58
  0
DICTIONARY
  5
83
102
{ACAD_REACTORS
330
C
102
}
330
C
100
AcDbDictionary
281
     1
  0
DICTIONARY
  5
59
102
{ACAD_REACTORS
330
C
102
}
330
C
100
AcDbDictionary
281
     1
  3
Standard
350
5A
  0
DICTIONARY
  5
2A
102
{ACAD_REACTORS
330
C
102
}
330
C
100
AcDbDictionary
281
     1
  3
2dWireframe
350
2F
  3
Basic
350
32
  3
Brighten
350
36
  3
ColorChange
350
3A
  3
Conceptual
350
34
  3
Dim
350
35
  3
EdgeColorOff
350
3D
  3
Facepattern
350
39
  3
Flat
350
2B
  3
FlatWithEdges
350
2C
  3
Gouraud
350
2D
  3
GouraudWithEdges
350
2E
  3
Hidden
350
31
  3
JitterOff
350
3B
  3
Linepattern
350
38
  3
OverhangOff
350
3C
  3
Realistic
350
33
  3
Shaded
350
42
  3
Shaded with edges
350
41
  3
Shades of Gray
350
3E
  3
Sketchy
350
3F
  3
Thicken
350
37
  3
Wireframe
350
30
  3
X-Ray
350
40
  0
XRECORD
  5
7F
102
{ACAD_REACTORS
330
C
102
}
330
C
100
AcDbXrecord
280
     1
 90
        1
330
5A
  0
DICTIONARY
  5
7B
102
{ACAD_REACTORS
330
C
102
}
330
C
100
AcDbDictionary
281
     1
  3
CANNOSCALE
350
7C
  3
CMLEADERSTYLE
350
81
  3
CTABLESTYLE
350
80
  0
LAYOUT
  5
1E
102
{ACAD_REACTORS
330
1A
102
}
330
1A
100
AcDbPlotSettings
  1

  2
none_device
  4

  6

 40
0.0
 41
0.0
 42
0.0
 43
0.0
 44
0.0
 45
0.0
 46
0.0
 47
0.0
 48
0.0
 49
0.0
140
0.0
141
0.0
142
1.0
143
1.0
 70
   688
 72
     0
 73
     0
 74
     5
  7

 75
    16
 76
     0
 77
     2
 78
   300
147
1.0
148
0.0
149
0.0
100
AcDbLayout
  1
Layout1
 70
     1
 71
     1
 10
0.0
 20
0.0
 11
12.0
 21
9.0
 12
0.0
 22
0.0
 32
0.0
 14
1.000000000000000E+20
 24
1.000000000000000E+20
 34
1.000000000000000E+20
 15
-1.000000000000000E+20
 25
-1.000000000000000E+20
 35
-1.000000000000000E+20
146
0.0
 13
0.0
 23
0.0
 33
0.0
 16
1.0
 26
0.0
 36
0.0
 17
0.0
 27
1.0
 37
0.0
 76
     0
330
1B
  0
LAYOUT
  5
26
102
{ACAD_REACTORS
330
1A
102
}
330
1A
100
AcDbPlotSettings
  1

  2
none_device
  4

  6

 40
0.0
 41
0.0
 42
0.0
 43
0.0
 44
0.0
 45
0.0
 46
0.0
 47
0.0
 48
0.0
 49
0.0
140
0.0
141
0.0
142
1.0
143
1.0
 70
   688
 72
     0
 73
     0
 74
     5
  7

 75
    16
 76
     0
 77
     2
 78
   300
147
1.0
148
0.0
149
0.0
100
AcDbLayout
  1
Layout2
 70
     1
 71
     2
 10
0.0
 20
0.0
 11
0.0
 21
0.0
 12
0.0
 22
0.0
 32
0.0
 14
0.0
 24
0.0
 34
0.0
 15
0.0
 25
0.0
 35
0.0
146
0.0
 13
0.0
 23
0.0
 33
0.0
 16
1.0
 26
0.0
 36
0.0
 17
0.0
 27
1.0
 37
0.0
 76
     0
330
23
  0
LAYOUT
  5
22
102
{ACAD_REACTORS
330
1A
102
}
330
1A
100
AcDbPlotSettings
  1

  2
none_device
  4
Letter_(8.50_x_11.00_Inches)
  6

 40
6.35
 41
6.35
 42
6.35000508
 43
6.35000508
 44
215.9
 45
279.4
 46
0.0
 47
0.0
 48
0.0
 49
0.0
140
0.0
141
0.0
142
1.0
143
1.0
 70
  1712
 72
     0
 73
     0
 74
     0
  7

 75
     0
 76
     0
 77
     2
 78
   300
147
1.0
148
0.0
149
0.0
100
AcDbLayout
  1
Model
 70
     1
 71
     0
 10
0.0
 20
0.0
 11
12.0
 21
9.0
 12
0.0
 22
0.0
 32
0.0
 14
-10.25316141732283
 24
2.82048031496063
 34
0.0
 15
-5.33684251968504
 25
6.539464566929134
 35
0.0
146
0.0
 13
0.0
 23
0.0
 33
0.0
 16
1.0
 26
0.0
 36
0.0
 17
0.0
 27
1.0
 37
0.0
 76
     0
330
1F
331
29
  0
MATERIAL
  5
45
102
{ACAD_REACTORS
330
43
102
}
330
43
100
AcDbMaterial
  1
ByBlock
 72
     1
 94
      127
  0
MATERIAL
  5
44
102
{ACAD_REACTORS
330
43
102
}
330
43
100
AcDbMaterial
  1
ByLayer
 72
     1
 94
      127
  0
MATERIAL
  5
46
102
{ACAD_REACTORS
330
43
102
}
330
43
100
AcDbMaterial
  1
Global
 72
     1
 94
      127
  0
MLEADERSTYLE
  5
5C
102
{ACAD_REACTORS
330
5B
102
}
330
5B
100
AcDbMLeaderStyle
179
     2
170
     2
171
     1
172
     0
 90
        2
 40
0.0
 41
0.0
173
     1
 91
-1056964608
340
14
 92
       -2
290
     1
 42
0.09
291
     1
 43
0.36
  3
Standard
341
0
 44
0.18
300

342
11
174
     1
178
     6
175
     1
176
     0
 93
-1056964608
 45
0.18
292
     0
297
     0
 46
0.18
343
0
 94
-1056964608
 47
1.0
 49
1.0
140
1.0
293
     1
141
0.0
294
     1
177
     0
142
1.0
295
     0
296
     0
143
0.125
271
     0
272
     9
273
     9
298
     0
  0
MLINESTYLE
  5
18
102
{ACAD_REACTORS
330
17
102
}
330
17
100
AcDbMlineStyle
  2
Standard
 70
     0
  3

 62
   256
 51
90.0
 52
90.0
 71
     2
 49
0.5
 62
   256
  6
BYLAYER
 49
-0.5
 62
   256
  6
BYLAYER
  0
ACDBPLACEHOLDER
  5
F
102
{ACAD_REACTORS
330
E
102
}
330
E
  0
SCALE
  5
48
102
{ACAD_REACTORS
330
47
102
}
330
47
100
AcDbScale
 70
     0
300
1:1
140
1.0
141
1.0
290
     1
  0
SCALE
  5
49
102
{ACAD_REACTORS
330
47
102
}
330
47
100
AcDbScale
 70
     0
300
1/128" = 1'-0"
140
0.0078125
141
12.0
290
     0
  0
SCALE
  5
4A
102
{ACAD_REACTORS
330
47
102
}
330
47
100
AcDbScale
 70
     0
300
1/64" = 1'-0"
140
0.015625
141
12.0
290
     0
  0
SCALE
  5
4B
102
{ACAD_REACTORS
330
47
102
}
330
47
100
AcDbScale
 70
     0
300
1/32" = 1'-0"
140
0.03125
141
12.0
290
     0
  0
SCALE
  5
4C
102
{ACAD_REACTORS
330
47
102
}
330
47
100
AcDbScale
 70
     0
300
1/16" = 1'-0"
140
0.0625
141
12.0
290
     0
  0
SCALE
  5
4D
102
{ACAD_REACTORS
330
47
102
}
330
47
100
AcDbScale
 70
     0
300
3/32" = 1'-0"
140
0.09375
141
12.0
290
     0
  0
SCALE
  5
4E
102
{ACAD_REACTORS
330
47
102
}
330
47
100
AcDbScale
 70
     0
300
1/8" = 1'-0"
140
0.125
141
12.0
290
     0
  0
SCALE
  5
4F
102
{ACAD_REACTORS
330
47
102
}
330
47
100
AcDbScale
 70
     0
300
3/16" = 1'-0"
140
0.1875
141
12.0
290
     0
  0
SCALE
  5
50
102
{ACAD_REACTORS
330
47
102
}
330
47
100
AcDbScale
 70
     0
300
1/4" = 1'-0"
140
0.25
141
12.0
290
     0
  0
SCALE
  5
51
102
{ACAD_REACTORS
330
47
102
}
330
47
100
AcDbScale
 70
     0
300
3/8" = 1'-0"
140
0.375
141
12.0
290
     0
  0
SCALE
  5
52
102
{ACAD_REACTORS
330
47
102
}
330
47
100
AcDbScale
 70
     0
300
1/2" = 1'-0"
140
0.5
141
12.0
290
     0
  0
SCALE
  5
53
102
{ACAD_REACTORS
330
47
102
}
330
47
100
AcDbScale
 70
     0
300
3/4" = 1'-0"
140
0.75
141
12.0
290
     0
  0
SCALE
  5
54
102
{ACAD_REACTORS
330
47
102
}
330
47
100
AcDbScale
 70
     0
300
1" = 1'-0"
140
1.0
141
12.0
290
     0
  0
SCALE
  5
55
102
{ACAD_REACTORS
330
47
102
}
330
47
100
AcDbScale
 70
     0
300
1-1/2" = 1'-0"
140
1.5
141
12.0
290
     0
  0
SCALE
  5
56
102
{ACAD_REACTORS
330
47
102
}
330
47
100
AcDbScale
 70
     0
300
3" = 1'-0"
140
3.0
141
12.0
290
     0
  0
SCALE
  5
57
102
{ACAD_REACTORS
330
47
102
}
330
47
100
AcDbScale
 70
     0
300
6" = 1'-0"
140
6.0
141
12.0
290
     0
  0
SCALE
  5
58
102
{ACAD_REACTORS
330
47
102
}
330
47
100
AcDbScale
 70
     0
300
1'-0" = 1'-0"
140
12.0
141
12.0
290
     0
  0
TABLESTYLE
  5
5A
102
{ACAD_REACTORS
330
59
102
}
102
{ACAD_XDICTIONARY
360
7D
102
}
330
59
100
AcDbTableStyle
  3
Standard
 70
     0
 71
     0
 40
0.06
 41
0.06
280
     0
281
     0
  7
Standard
140
0.18
170
     2
 62
     0
 63
   257
283
     0
 90
        4
 91
        0
  1

274
    -2
284
     1
 64
     0
275
    -2
285
     1
 65
     0
276
    -2
286
     1
 66
     0
277
    -2
287
     1
 67
     0
278
    -2
288
     1
 68
     0
279
    -2
289
     1
 69
     0
  7
Standard
140
0.25
170
     5
 62
     0
 63
   257
283
     0
 90
        4
 91
        0
  1

274
    -2
284
     1
 64
     0
275
    -2
285
     1
 65
     0
276
    -2
286
     1
 66
     0
277
    -2
287
     1
 67
     0
278
    -2
288
     1
 68
     0
279
    -2
289
     1
 69
     0
  7
Standard
140
0.18
170
     5
 62
     0
 63
   257
283
     0
 90
        4
 91
        0
  1

274
    -2
284
     1
 64
     0
275
    -2
285
     1
 65
     0
276
    -2
286
     1
 66
     0
277
    -2
287
     1
 67
     0
278
    -2
288
     1
 68
     0
279
    -2
289
     1
 69
     0
  0
VISUALSTYLE
  5
2F
102
{ACAD_REACTORS
330
2A
102
}
330
2A
100
AcDbVisualStyle
  2
2dWireframe
 70
     4
177
     3
291
     0
 70
    58
 90
        0
176
     1
 90
        2
176
     1
 90
        0
176
     1
 90
        0
176
     1
 40
0.6
176
     1
 40
30.0
176
     1
 62
     7
420
 16777215
176
     1
 90
        1
176
     1
 90
        4
176
     1
 62
     7
176
     1
 62
   257
176
     1
 90
        1
176
     1
 90
        1
176
     1
 40
1.0
176
     1
 90
        0
176
     1
 62
   257
176
     1
 40
1.0
176
     1
 90
        1
176
     1
 90
        6
176
     1
 90
        2
176
     1
 62
     7
176
     1
 90
        5
176
     1
 90
        0
176
     1
 90
        0
176
     1
290
     0
176
     1
 90
        1
176
     1
 40
0.0
176
     1
 90
        0
176
     1
290
     1
176
     1
290
     1
176
     1
290
     0
176
     1
290
     0
176
     1
290
     0
176
     1
290
     0
176
     1
290
     0
176
     1
290
     0
176
     1
290
     0
176
     1
 90
       50
176
     1
 40
0.0
176
     1
 40
1.0
176
     1
 90
        0
176
     1
 62
    18
420
        0
176
     1
 90
       50
176
     1
 90
        3
176
     1
 62
     5
420
      255
176
     1
290
     0
176
     1
 90
       50
176
     1
 90
       50
176
     1
 90
       50
176
     1
290
     0
176
     1
 90
       50
176
     1
 62
   256
176
     0
 40
1.0
176
     0
 90
        2
176
     1
  1
strokes_ogs.tif
176
     1
290
     0
176
     1
 40
1.0
176
     1
 40
1.0
176
     1
  0
VISUALSTYLE
  5
32
102
{ACAD_REACTORS
330
2A
102
}
330
2A
100
AcDbVisualStyle
  2
Basic
 70
     7
177
     3
291
     1
 70
    58
 90
        1
176
     1
 90
        0
176
     1
 90
        1
176
     1
 90
        0
176
     1
 40
0.6
176
     1
 40
30.0
176
     1
 62
     7
420
 16777215
176
     1
 90
        0
176
     1
 90
        4
176
     1
 62
     7
176
     1
 62
   257
176
     1
 90
        1
176
     1
 90
        1
176
     1
 40
1.0
176
     1
 90
        8
176
     1
 62
     7
176
     1
 40
1.0
176
     1
 90
        1
176
     1
 90
        6
176
     1
 90
        2
176
     1
 62
     7
176
     1
 90
        5
176
     1
 90
        0
176
     1
 90
        0
176
     1
290
     0
176
     1
 90
        1
176
     1
 40
0.0
176
     1
 90
        0
176
     1
290
     0
176
     1
290
     1
176
     1
290
     1
176
     1
290
     0
176
     1
290
     0
176
     1
290
     0
176
     1
290
     0
176
     1
290
     0
176
     1
290
     0
176
     1
 90
       50
176
     1
 40
0.0
176
     1
 40
1.0
176
     1
 90
        0
176
     1
 62
    18
420
        0
176
     1
 90
       50
176
     1
 90
        3
176
     1
 62
     5
420
      255
176
     1
290
     0
176
     1
 90
       50
176
     1
 90
       50
176
     1
 90
       50
176
     1
290
     0
176
     1
 90
       50
176
     1
 62
   256
176
     0
 40
1.0
176
     0
 90
        2
176
     1
  1
strokes_ogs.tif
176
     1
290
     0
176
     1
 40
1.0
176
     1
 40
1.0
176
     1
  0
VISUALSTYLE
  5
36
102
{ACAD_REACTORS
330
2A
102
}
330
2A
100
AcDbVisualStyle
  2
Brighten
 70
    12
177
     3
291
     1
 70
    58
 90
        2
176
     1
 90
        2
176
     1
 90
        0
176
     1
 90
        0
176
     1
 40
0.6
176
     1
 40
30.0
176
     1
 62
     7
420
 16777215
176
     1
 90
        1
176
     1
 90
        4
176
     1
 62
     7
176
     1
 62
   257
176
     1
 90
        1
176
     1
 90
        1
176
     1
 40
1.0
176
     1
 90
        8
176
     1
 62
     7
176
     1
 40
1.0
176
     1
 90
        1
176
     1
 90
        6
176
     1
 90
        2
176
     1
 62
     7
176
     1
 90
        5
176
     1
 90
        0
176
     1
 90
        0
176
     1
290
     0
176
     1
 90
        1
176
     1
 40
50.0
176
     1
 90
        0
176
     1
290
     0
176
     1
290
     1
176
     1
290
     1
176
     1
290
     0
176
     1
290
     0
176
     1
290
     0
176
     1
290
     0
176
     1
290
     0
176
     1
290
     0
176
     1
 90
       50
176
     1
 40
0.0
176
     1
 40
1.0
176
     1
 90
        0
176
     1
 62
    18
420
        0
176
     1
 90
       50
176
     1
 90
        3
176
     1
 62
     5
420
      255
176
     1
290
     0
176
     1
 90
       50
176
     1
 90
       50
176
     1
 90
       50
176
     1
290
     0
176
     1
 90
       50
176
     1
 62
   256
176
     0
 40
1.0
176
     0
 90
        2
176
     1
  1
strokes_ogs.tif
176
     1
290
     0
176
     1
 40
1.0
176
     1
 40
1.0
176
     1
  0
VISUALSTYLE
  5
3A
102
{ACAD_REACTORS
330
2A
102
}
330
2A
100
AcDbVisualStyle
  2
ColorChange
 70
    16
177
     3
291
     1
 70
    58
 90
        2
176
     1
 90
        2
176
     1
 90
        3
176
     1
 90
        0
176
     1
 40
0.6
176
     1
 40
30.0
176
     1
 62
     8
420
  8421504
176
     1
 90
        1
176
     1
 90
        4
176
     1
 62
     7
176
     1
 62
   257
176
     1
 90
        1
176
     1
 90
        1
176
     1
 40
1.0
176
     1
 90
        8
176
     1
 62
     8
420
  8421504
176
     1
 40
1.0
176
     1
 90
        1
176
     1
 90
        6
176
     1
 90
        2
176
     1
 62
     7
176
     1
 90
        5
176
     1
 90
        0
176
     1
 90
        0
176
     1
290
     0
176
     1
 90
        1
176
     1
 40
0.0
176
     1
 90
        0
176
     1
290
     0
176
     1
290
     1
176
     1
290
     1
176
     1
290
     0
176
     1
290
     0
176
     1
290
     0
176
     1
290
     0
176
     1
290
     0
176
     1
290
     0
176
     1
 90
       50
176
     1
 40
0.0
176
     1
 40
1.0
176
     1
 90
        0
176
     1
 62
    18
420
        0
176
     1
 90
       50
176
     1
 90
        3
176
     1
 62
     5
420
      255
176
     1
290
     0
176
     1
 90
       50
176
     1
 90
       50
176
     1
 90
       50
176
     1
290
     0
176
     1
 90
       50
176
     1
 62
   256
176
     0
 40
1.0
176
     0
 90
        2
176
     1
  1
strokes_ogs.tif
176
     1
290
     0
176
     1
 40
1.0
176
     1
 40
1.0
176
     1
  0
VISUALSTYLE
  5
34
102
{ACAD_REACTORS
330
2A
102
}
330
2A
100
AcDbVisualStyle
  2
Conceptual
 70
     9
177
     3
291
     0
 70
    58
 90
        3
176
     1
 90
        2
176
     1
 90
        0
176
     1
 90
        0
176
     1
 40
0.6
176
     1
 40
30.0
176
     1
 62
     7
420
 16777215
176
     1
 90
        2
176
     1
 90
        2
176
     1
 62
     7
176
     1
 62
   257
176
     1
 90
        1
176
     1
 90
        1
176
     1
 40
179.0
176
     1
 90
        8
176
     1
 62
     7
176
     1
 40
1.0
176
     1
 90
        1
176
     1
 90
        6
176
     1
 90
        2
176
     1
 62
     7
176
     1
 90
        3
176
     1
 90
        0
176
     1
 90
        0
176
     1
290
     0
176
     1
 90
        1
176
     1
 40
0.0
176
     1
 90
        0
176
     1
290
     0
176
     1
290
     1
176
     1
290
     1
176
     1
290
     0
176
     1
290
     0
176
     1
290
     0
176
     1
290
     0
176
     1
290
     0
176
     1
290
     0
176
     1
 90
       50
176
     1
 40
0.0
176
     1
 40
1.0
176
     1
 90
        0
176
     1
 62
    18
420
        0
176
     1
 90
       50
176
     1
 90
        3
176
     1
 62
     5
420
      255
176
     1
290
     0
176
     1
 90
       50
176
     1
 90
       50
176
     1
 90
       50
176
     1
290
     0
176
     1
 90
       50
176
     1
 62
   256
176
     0
 40
1.0
176
     0
 90
        2
176
     1
  1
strokes_ogs.tif
176
     1
290
     0
176
     1
 40
1.0
176
     1
 40
1.0
176
     1
  0
VISUALSTYLE
  5
35
102
{ACAD_REACTORS
330
2A
102
}
330
2A
100
AcDbVisualStyle
  2
Dim
 70
    11
177
     3
291
     1
 70
    58
 90
        2
176
     1
 90
        2
176
     1
 90
        0
176
     1
 90
        0
176
     1
 40
0.6
176
     1
 40
30.0
176
     1
 62
     7
420
 16777215
176
     1
 90
        1
176
     1
 90
        4
176
     1
 62
     7
176
     1
 62
   257
176
     1
 90
        1
176
     1
 90
        1
176
     1
 40
1.0
176
     1
 90
        8
176
     1
 62
     7
176
     1
 40
1.0
176
     1
 90
        1
176
     1
 90
        6
176
     1
 90
        2
176
     1
 62
     7
176
     1
 90
        5
176
     1
 90
        0
176
     1
 90
        0
176
     1
290
     0
176
     1
 90
        1
176
     1
 40
-50.0
176
     1
 90
        0
176
     1
290
     0
176
     1
290
     1
176
     1
290
     1
176
     1
290
     0
176
     1
290
     0
176
     1
290
     0
176
     1
290
     0
176
     1
290
     0
176
     1
290
     0
176
     1
 90
       50
176
     1
 40
0.0
176
     1
 40
1.0
176
     1
 90
        0
176
     1
 62
    18
420
        0
176
     1
 90
       50
176
     1
 90
        3
176
     1
 62
     5
420
      255
176
     1
290
     0
176
     1
 90
       50
176
     1
 90
       50
176
     1
 90
       50
176
     1
290
     0
176
     1
 90
       50
176
     1
 62
   256
176
     0
 40
1.0
176
     0
 90
        2
176
     1
  1
strokes_ogs.tif
176
     1
290
     0
176
     1
 40
1.0
176
     1
 40
1.0
176
     1
  0
VISUALSTYLE
  5
3D
102
{ACAD_REACTORS
330
2A
102
}
330
2A
100
AcDbVisualStyle
  2
EdgeColorOff
 70
    22
177
     3
291
     1
 70
    58
 90
        2
176
     0
 90
        2
176
     0
 90
        0
176
     0
 90
        0
176
     0
 40
0.6
176
     0
 40
30.0
176
     0
 62
     7
420
 16777215
176
     0
 90
        1
176
     0
 90
        4
176
     0
 62
     7
176
     0
 62
   257
176
     0
 90
        1
176
     0
 90
        1
176
     0
 40
1.0
176
     0
 90
        8
176
     2
 62
     7
176
     0
 40
1.0
176
     0
 90
        1
176
     0
 90
        6
176
     0
 90
        2
176
     0
 62
     7
176
     0
 90
        5
176
     0
 90
        0
176
     0
 90
        0
176
     0
290
     0
176
     0
 90
        1
176
     0
 40
0.0
176
     0
 90
        0
176
     0
290
     0
176
     0
290
     1
176
     0
290
     1
176
     0
290
     0
176
     0
290
     0
176
     0
290
     0
176
     0
290
     0
176
     0
290
     0
176
     0
290
     0
176
     0
 90
       50
176
     0
 40
0.0
176
     0
 40
1.0
176
     0
 90
        0
176
     0
 62
    18
420
        0
176
     0
 90
       50
176
     0
 90
        3
176
     0
 62
     5
420
      255
176
     0
290
     0
176
     0
 90
       50
176
     0
 90
       50
176
     0
 90
       50
176
     0
290
     0
176
     0
 90
       50
176
     0
 62
   256
176
     0
 40
1.0
176
     0
 90
        2
176
     0
  1
strokes_ogs.tif
176
     0
290
     0
176
     0
 40
1.0
176
     0
 40
1.0
176
     0
  0
VISUALSTYLE
  5
39
102
{ACAD_REACTORS
330
2A
102
}
330
2A
100
AcDbVisualStyle
  2
Facepattern
 70
    15
177
     3
291
     1
 70
    58
 90
        2
176
     1
 90
        2
176
     1
 90
        0
176
     1
 90
        0
176
     1
 40
0.6
176
     1
 40
30.0
176
     1
 62
     7
420
 16777215
176
     1
 90
        1
176
     1
 90
        4
176
     1
 62
     7
176
     1
 62
   257
176
     1
 90
        1
176
     1
 90
        1
176
     1
 40
1.0
176
     1
 90
        8
176
     1
 62
     7
176
     1
 40
1.0
176
     1
 90
        1
176
     1
 90
        6
176
     1
 90
        2
176
     1
 62
     7
176
     1
 90
        5
176
     1
 90
        0
176
     1
 90
        0
176
     1
290
     0
176
     1
 90
        1
176
     1
 40
0.0
176
     1
 90
        0
176
     1
290
     0
176
     1
290
     1
176
     1
290
     1
176
     1
290
     0
176
     1
290
     0
176
     1
290
     0
176
     1
290
     0
176
     1
290
     0
176
     1
290
     0
176
     1
 90
       50
176
     1
 40
0.0
176
     1
 40
1.0
176
     1
 90
        0
176
     1
 62
    18
420
        0
176
     1
 90
       50
176
     1
 90
        3
176
     1
 62
     5
420
      255
176
     1
290
     0
176
     1
 90
       50
176
     1
 90
       50
176
     1
 90
       50
176
     1
290
     0
176
     1
 90
       50
176
     1
 62
   256
176
     0
 40
1.0
176
     0
 90
        2
176
     1
  1
strokes_ogs.tif
176
     1
290
     0
176
     1
 40
1.0
176
     1
 40
1.0
176
     1
  0
VISUALSTYLE
  5
2B
102
{ACAD_REACTORS
330
2A
102
}
330
2A
100
AcDbVisualStyle
  2
Flat
 70
     0
177
     3
291
     1
 70
    58
 90
        2
176
     1
 90
        1
176
     1
 90
        1
176
     1
 90
        2
176
     1
 40
0.6
176
     1
 40
30.0
176
     1
 62
     7
420
 16777215
176
     1
 90
        0
176
     1
 90
        0
176
     1
 62
     7
176
     1
 62
   257
176
     1
 90
        1
176
     1
 90
        1
176
     1
 40
1.0
176
     1
 90
        8
176
     1
 62
     7
176
     1
 40
1.0
176
     1
 90
        1
176
     1
 90
        6
176
     1
 90
        2
176
     1
 62
     7
176
     1
 90
        5
176
     1
 90
        0
176
     1
 90
        0
176
     1
290
     0
176
     1
 90
       13
176
     1
 40
0.0
176
     1
 90
        0
176
     1
290
     0
176
     1
290
     1
176
     1
290
     1
176
     1
290
     0
176
     1
290
     0
176
     1
290
     0
176
     1
290
     0
176
     1
290
     0
176
     1
290
     0
176
     1
 90
       50
176
     1
 40
0.0
176
     1
 40
1.0
176
     1
 90
        0
176
     1
 62
    18
420
        0
176
     1
 90
       50
176
     1
 90
        3
176
     1
 62
     5
420
      255
176
     1
290
     0
176
     1
 90
       50
176
     1
 90
       50
176
     1
 90
       50
176
     1
290
     0
176
     1
 90
       50
176
     1
 62
   256
176
     0
 40
1.0
176
     0
 90
        2
176
     1
  1
strokes_ogs.tif
176
     1
290
     0
176
     1
 40
1.0
176
     1
 40
1.0
176
     1
  0
VISUALSTYLE
  5
2C
102
{ACAD_REACTORS
330
2A
102
}
330
2A
100
AcDbVisualStyle
  2
FlatWithEdges
 70
     1
177
     3
291
     1
 70
    58
 90
        2
176
     1
 90
        1
176
     1
 90
        1
176
     1
 90
        2
176
     1
 40
0.6
176
     1
 40
30.0
176
     1
 62
     7
420
 16777215
176
     1
 90
        1
176
     1
 90
        0
176
     1
 62
     7
176
     1
 62
   257
176
     1
 90
        1
176
     1
 90
        1
176
     1
 40
1.0
176
     1
 90
        0
176
     1
 62
   257
176
     1
 40
1.0
176
     1
 90
        1
176
     1
 90
        6
176
     1
 90
        2
176
     1
 62
     7
176
     1
 90
        5
176
     1
 90
        0
176
     1
 90
        0
176
     1
290
     0
176
     1
 90
       13
176
     1
 40
0.0
176
     1
 90
        0
176
     1
290
     0
176
     1
290
     1
176
     1
290
     1
176
     1
290
     0
176
     1
290
     0
176
     1
290
     0
176
     1
290
     0
176
     1
290
     0
176
     1
290
     0
176
     1
 90
       50
176
     1
 40
0.0
176
     1
 40
1.0
176
     1
 90
        0
176
     1
 62
    18
420
        0
176
     1
 90
       50
176
     1
 90
        3
176
     1
 62
     5
420
      255
176
     1
290
     0
176
     1
 90
       50
176
     1
 90
       50
176
     1
 90
       50
176
     1
290
     0
176
     1
 90
       50
176
     1
 62
   256
176
     0
 40
1.0
176
     0
 90
        2
176
     1
  1
strokes_ogs.tif
176
     1
290
     0
176
     1
 40
1.0
176
     1
 40
1.0
176
     1
  0
VISUALSTYLE
  5
2D
102
{ACAD_REACTORS
330
2A
102
}
330
2A
100
AcDbVisualStyle
  2
Gouraud
 70
     2
177
     3
291
     1
 70
    58
 90
        2
176
     1
 90
        2
176
     1
 90
        1
176
     1
 90
        2
176
     1
 40
0.6
176
     1
 40
30.0
176
     1
 62
     7
420
 16777215
176
     1
 90
        0
176
     1
 90
        0
176
     1
 62
     7
176
     1
 62
   257
176
     1
 90
        1
176
     1
 90
        1
176
     1
 40
1.0
176
     1
 90
        0
176
     1
 62
     7
176
     1
 40
1.0
176
     1
 90
        1
176
     1
 90
        6
176
     1
 90
        2
176
     1
 62
     7
176
     1
 90
        5
176
     1
 90
        0
176
     1
 90
        0
176
     1
290
     0
176
     1
 90
       13
176
     1
 40
0.0
176
     1
 90
        0
176
     1
290
     0
176
     1
290
     1
176
     1
290
     1
176
     1
290
     0
176
     1
290
     0
176
     1
290
     0
176
     1
290
     0
176
     1
290
     0
176
     1
290
     0
176
     1
 90
       50
176
     1
 40
0.0
176
     1
 40
1.0
176
     1
 90
        0
176
     1
 62
    18
420
        0
176
     1
 90
       50
176
     1
 90
        3
176
     1
 62
     5
420
      255
176
     1
290
     0
176
     1
 90
       50
176
     1
 90
       50
176
     1
 90
       50
176
     1
290
     0
176
     1
 90
       50
176
     1
 62
   256
176
     0
 40
1.0
176
     0
 90
        2
176
     1
  1
strokes_ogs.tif
176
     1
290
     0
176
     1
 40
1.0
176
     1
 40
1.0
176
     1
  0
VISUALSTYLE
  5
2E
102
{ACAD_REACTORS
330
2A
102
}
330
2A
100
AcDbVisualStyle
  2
GouraudWithEdges
 70
     3
177
     3
291
     1
 70
    58
 90
        2
176
     1
 90
        2
176
     1
 90
        1
176
     1
 90
        2
176
     1
 40
0.6
176
     1
 40
30.0
176
     1
 62
     7
420
 16777215
176
     1
 90
        1
176
     1
 90
        0
176
     1
 62
     7
176
     1
 62
   257
176
     1
 90
        1
176
     1
 90
        1
176
     1
 40
1.0
176
     1
 90
        0
176
     1
 62
   257
176
     1
 40
1.0
176
     1
 90
        1
176
     1
 90
        6
176
     1
 90
        2
176
     1
 62
     7
176
     1
 90
        5
176
     1
 90
        0
176
     1
 90
        0
176
     1
290
     0
176
     1
 90
       13
176
     1
 40
0.0
176
     1
 90
        0
176
     1
290
     0
176
     1
290
     1
176
     1
290
     1
176
     1
290
     0
176
     1
290
     0
176
     1
290
     0
176
     1
290
     0
176
     1
290
     0
176
     1
290
     0
176
     1
 90
       50
176
     1
 40
0.0
176
     1
 40
1.0
176
     1
 90
        0
176
     1
 62
    18
420
        0
176
     1
 90
       50
176
     1
 90
        3
176
     1
 62
     5
420
      255
176
     1
290
     0
176
     1
 90
       50
176
     1
 90
       50
176
     1
 90
       50
176
     1
290
     0
176
     1
 90
       50
176
     1
 62
   256
176
     0
 40
1.0
176
     0
 90
        2
176
     1
  1
strokes_ogs.tif
176
     1
290
     0
176
     1
 40
1.0
176
     1
 40
1.0
176
     1
  0
VISUALSTYLE
  5
31
102
{ACAD_REACTORS
330
2A
102
}
330
2A
100
AcDbVisualStyle
  2
Hidden
 70
     6
177
     3
291
     0
 70
    58
 90
        1
176
     1
 90
        2
176
     1
 90
        2
176
     1
 90
        0
176
     1
 40
0.6
176
     1
 40
30.0
176
     1
 62
     7
420
 16777215
176
     1
 90
        2
176
     1
 90
        2
176
     1
 62
     7
176
     1
 62
   257
176
     1
 90
        2
176
     1
 90
        1
176
     1
 40
40.0
176
     1
 90
        0
176
     1
 62
   257
176
     1
 40
1.0
176
     1
 90
        1
176
     1
 90
        6
176
     1
 90
        2
176
     1
 62
     7
176
     1
 90
        3
176
     1
 90
        0
176
     1
 90
        0
176
     1
290
     0
176
     1
 90
        1
176
     1
 40
0.0
176
     1
 90
        0
176
     1
290
     0
176
     1
290
     1
176
     1
290
     1
176
     1
290
     0
176
     1
290
     0
176
     1
290
     0
176
     1
290
     0
176
     1
290
     0
176
     1
290
     0
176
     1
 90
       50
176
     1
 40
0.0
176
     1
 40
1.0
176
     1
 90
        0
176
     1
 62
    18
420
        0
176
     1
 90
       50
176
     1
 90
        3
176
     1
 62
     5
420
      255
176
     1
290
     0
176
     1
 90
       50
176
     1
 90
       50
176
     1
 90
       50
176
     1
290
     0
176
     1
 90
       50
176
     1
 62
   256
176
     0
 40
1.0
176
     0
 90
        2
176
     1
  1
strokes_ogs.tif
176
     1
290
     0
176
     1
 40
1.0
176
     1
 40
1.0
176
     1
  0
VISUALSTYLE
  5
3B
102
{ACAD_REACTORS
330
2A
102
}
330
2A
100
AcDbVisualStyle
  2
JitterOff
 70
    20
177
     3
291
     1
 70
    58
 90
        2
176
     0
 90
        2
176
     0
 90
        0
176
     0
 90
        0
176
     0
 40
0.6
176
     0
 40
30.0
176
     0
 62
     7
420
 16777215
176
     0
 90
        1
176
     0
 90
        4
176
     0
 62
     7
176
     0
 62
   257
176
     0
 90
        1
176
     0
 90
        1
176
     0
 40
1.0
176
     0
 90
       10
176
     2
 62
     7
176
     0
 40
1.0
176
     0
 90
        1
176
     0
 90
        6
176
     0
 90
        2
176
     0
 62
     7
176
     0
 90
        5
176
     0
 90
        0
176
     0
 90
        0
176
     0
290
     0
176
     0
 90
        1
176
     0
 40
0.0
176
     0
 90
        0
176
     0
290
     0
176
     0
290
     1
176
     0
290
     1
176
     0
290
     0
176
     0
290
     0
176
     0
290
     0
176
     0
290
     0
176
     0
290
     0
176
     0
290
     0
176
     0
 90
       50
176
     0
 40
0.0
176
     0
 40
1.0
176
     0
 90
        0
176
     0
 62
    18
420
        0
176
     0
 90
       50
176
     0
 90
        3
176
     0
 62
     5
420
      255
176
     0
290
     0
176
     0
 90
       50
176
     0
 90
       50
176
     0
 90
       50
176
     0
290
     0
176
     0
 90
       50
176
     0
 62
   256
176
     0
 40
1.0
176
     0
 90
        2
176
     0
  1
strokes_ogs.tif
176
     0
290
     0
176
     0
 40
1.0
176
     0
 40
1.0
176
     0
  0
VISUALSTYLE
  5
38
102
{ACAD_REACTORS
330
2A
102
}
330
2A
100
AcDbVisualStyle
  2
Linepattern
 70
    14
177
     3
291
     1
 70
    58
 90
        2
176
     1
 90
        2
176
     1
 90
        0
176
     1
 90
        0
176
     1
 40
0.6
176
     1
 40
30.0
176
     1
 62
     7
420
 16777215
176
     1
 90
        1
176
     1
 90
        4
176
     1
 62
     7
176
     1
 62
   257
176
     1
 90
        7
176
     1
 90
        7
176
     1
 40
1.0
176
     1
 90
        8
176
     1
 62
     7
176
     1
 40
1.0
176
     1
 90
        1
176
     1
 90
        6
176
     1
 90
        2
176
     1
 62
     7
176
     1
 90
        5
176
     1
 90
        0
176
     1
 90
        0
176
     1
290
     0
176
     1
 90
        1
176
     1
 40
0.0
176
     1
 90
        0
176
     1
290
     0
176
     1
290
     1
176
     1
290
     1
176
     1
290
     0
176
     1
290
     0
176
     1
290
     0
176
     1
290
     0
176
     1
290
     0
176
     1
290
     0
176
     1
 90
       50
176
     1
 40
0.0
176
     1
 40
1.0
176
     1
 90
        0
176
     1
 62
    18
420
        0
176
     1
 90
       50
176
     1
 90
        3
176
     1
 62
     5
420
      255
176
     1
290
     0
176
     1
 90
       50
176
     1
 90
       50
176
     1
 90
       50
176
     1
290
     0
176
     1
 90
       50
176
     1
 62
   256
176
     0
 40
1.0
176
     0
 90
        2
176
     1
  1
strokes_ogs.tif
176
     1
290
     0
176
     1
 40
1.0
176
     1
 40
1.0
176
     1
  0
VISUALSTYLE
  5
3C
102
{ACAD_REACTORS
330
2A
102
}
330
2A
100
AcDbVisualStyle
  2
OverhangOff
 70
    21
177
     3
291
     1
 70
    58
 90
        2
176
     0
 90
        2
176
     0
 90
        0
176
     0
 90
        0
176
     0
 40
0.6
176
     0
 40
30.0
176
     0
 62
     7
420
 16777215
176
     0
 90
        1
176
     0
 90
        4
176
     0
 62
     7
176
     0
 62
   257
176
     0
 90
        1
176
     0
 90
        1
176
     0
 40
1.0
176
     0
 90
        9
176
     2
 62
     7
176
     0
 40
1.0
176
     0
 90
        1
176
     0
 90
        6
176
     0
 90
        2
176
     0
 62
     7
176
     0
 90
        5
176
     0
 90
        0
176
     0
 90
        0
176
     0
290
     0
176
     0
 90
        1
176
     0
 40
0.0
176
     0
 90
        0
176
     0
290
     0
176
     0
290
     1
176
     0
290
     1
176
     0
290
     0
176
     0
290
     0
176
     0
290
     0
176
     0
290
     0
176
     0
290
     0
176
     0
290
     0
176
     0
 90
       50
176
     0
 40
0.0
176
     0
 40
1.0
176
     0
 90
        0
176
     0
 62
    18
420
        0
176
     0
 90
       50
176
     0
 90
        3
176
     0
 62
     5
420
      255
176
     0
290
     0
176
     0
 90
       50
176
     0
 90
       50
176
     0
 90
       50
176
     0
290
     0
176
     0
 90
       50
176
     0
 62
   256
176
     0
 40
1.0
176
     0
 90
        2
176
     0
  1
strokes_ogs.tif
176
     0
290
     0
176
     0
 40
1.0
176
     0
 40
1.0
176
     0
  0
VISUALSTYLE
  5
33
102
{ACAD_REACTORS
330
2A
102
}
330
2A
100
AcDbVisualStyle
  2
Realistic
 70
     8
177
     3
291
     0
 70
    58
 90
        2
176
     1
 90
        3
176
     1
 90
        0
176
     1
 90
        2
176
     1
 40
0.6
176
     1
 40
30.0
176
     1
 62
     7
420
 16777215
176
     1
 90
        0
176
     1
 90
        0
176
     1
 62
     7
176
     1
 62
   257
176
     1
 90
        1
176
     1
 90
        1
176
     1
 40
1.0
176
     1
 90
        8
176
     1
 62
   257
176
     1
 40
1.0
176
     1
 90
        1
176
     1
 90
        6
176
     1
 90
        2
176
     1
 62
     7
176
     1
 90
        3
176
     1
 90
        0
176
     1
 90
        0
176
     1
290
     0
176
     1
 90
       13
176
     1
 40
0.0
176
     1
 90
        0
176
     1
290
     0
176
     1
290
     1
176
     1
290
     1
176
     1
290
     0
176
     1
290
     0
176
     1
290
     0
176
     1
290
     0
176
     1
290
     0
176
     1
290
     0
176
     1
 90
       50
176
     1
 40
0.0
176
     1
 40
1.0
176
     1
 90
        0
176
     1
 62
    18
420
        0
176
     1
 90
       50
176
     1
 90
        3
176
     1
 62
     5
420
      255
176
     1
290
     0
176
     1
 90
       50
176
     1
 90
       50
176
     1
 90
       50
176
     1
290
     0
176
     1
 90
       50
176
     1
 62
   256
176
     0
 40
1.0
176
     0
 90
        2
176
     1
  1
strokes_ogs.tif
176
     1
290
     0
176
     1
 40
1.0
176
     1
 40
1.0
176
     1
  0
VISUALSTYLE
  5
42
102
{ACAD_REACTORS
330
2A
102
}
330
2A
100
AcDbVisualStyle
  2
Shaded
 70
    27
177
     3
291
     0
 70
    58
 90
        2
176
     1
 90
        2
176
     1
 90
        1
176
     1
 90
        2
176
     1
 40
0.6
176
     1
 40
30.0
176
     1
 62
     7
420
 16777215
176
     1
 90
        0
176
     1
 90
        4
176
     1
 62
     7
176
     1
 62
   257
176
     1
 90
        1
176
     1
 90
        1
176
     1
 40
1.0
176
     1
 90
        8
176
     1
 62
   257
176
     1
 40
1.0
176
     1
 90
        1
176
     1
 90
        6
176
     1
 90
        2
176
     1
 62
     8
420
  7895160
176
     1
 90
        3
176
     1
 90
        0
176
     1
 90
        0
176
     1
290
     0
176
     1
 90
        5
176
     1
 40
0.0
176
     1
 90
        0
176
     1
290
     0
176
     1
290
     1
176
     1
290
     1
176
     1
290
     0
176
     1
290
     0
176
     1
290
     0
176
     1
290
     0
176
     1
290
     0
176
     1
290
     0
176
     1
 90
       50
176
     1
 40
0.0
176
     1
 40
1.0
176
     1
 90
        0
176
     1
 62
    18
420
        0
176
     1
 90
       50
176
     1
 90
        3
176
     1
 62
     5
420
      255
176
     1
290
     0
176
     1
 90
       50
176
     1
 90
       50
176
     1
 90
       50
176
     1
290
     0
176
     1
 90
       50
176
     1
 62
   256
176
     0
 40
1.0
176
     0
 90
        2
176
     1
  1
strokes_ogs.tif
176
     1
290
     0
176
     1
 40
1.0
176
     1
 40
1.0
176
     1
  0
VISUALSTYLE
  5
41
102
{ACAD_REACTORS
330
2A
102
}
330
2A
100
AcDbVisualStyle
  2
Shaded with edges
 70
    26
177
     3
291
     0
 70
    58
 90
        2
176
     1
 90
        2
176
     1
 90
        1
176
     1
 90
        2
176
     1
 40
0.6
176
     1
 40
30.0
176
     1
 62
     7
420
 16777215
176
     1
 90
        1
176
     1
 90
       10
176
     1
 62
     7
176
     1
 62
   257
176
     1
 90
        2
176
     1
 90
        1
176
     1
 40
1.0
176
     1
 90
        8
176
     1
 62
   257
176
     1
 40
1.0
176
     1
 90
        1
176
     1
 90
        6
176
     1
 90
        2
176
     1
 62
     7
176
     1
 90
        3
176
     1
 90
        0
176
     1
 90
        0
176
     1
290
     0
176
     1
 90
        5
176
     1
 40
0.0
176
     1
 90
        0
176
     1
290
     0
176
     1
290
     1
176
     1
290
     1
176
     1
290
     0
176
     1
290
     0
176
     1
290
     0
176
     1
290
     0
176
     1
290
     0
176
     1
290
     0
176
     1
 90
       50
176
     1
 40
0.0
176
     1
 40
1.0
176
     1
 90
        0
176
     1
 62
    18
420
        0
176
     1
 90
       50
176
     1
 90
        3
176
     1
 62
     5
420
      255
176
     1
290
     0
176
     1
 90
       50
176
     1
 90
       50
176
     1
 90
       50
176
     1
290
     0
176
     1
 90
       50
176
     1
 62
   256
176
     0
 40
1.0
176
     0
 90
        2
176
     1
  1
strokes_ogs.tif
176
     1
290
     0
176
     1
 40
1.0
176
     1
 40
1.0
176
     1
  0
VISUALSTYLE
  5
3E
102
{ACAD_REACTORS
330
2A
102
}
330
2A
100
AcDbVisualStyle
  2
Shades of Gray
 70
    23
177
     3
291
     0
 70
    58
 90
        2
176
     1
 90
        2
176
     1
 90
        3
176
     1
 90
        0
176
     1
 40
0.6
176
     1
 40
30.0
176
     1
 62
     7
420
 16777215
176
     1
 90
        2
176
     1
 90
        2
176
     1
 62
     7
176
     1
 62
     7
176
     1
 90
        1
176
     1
 90
        1
176
     1
 40
40.0
176
     1
 90
        8
176
     1
 62
     7
176
     1
 40
1.0
176
     1
 90
        1
176
     1
 90
        6
176
     1
 90
        2
176
     1
 62
     7
176
     1
 90
        3
176
     1
 90
        0
176
     1
 90
        0
176
     1
290
     0
176
     1
 90
        1
176
     1
 40
0.0
176
     1
 90
        0
176
     1
290
     0
176
     1
290
     1
176
     1
290
     1
176
     1
290
     0
176
     1
290
     0
176
     1
290
     0
176
     1
290
     0
176
     1
290
     0
176
     1
290
     0
176
     1
 90
       50
176
     1
 40
0.0
176
     1
 40
1.0
176
     1
 90
        0
176
     1
 62
    18
420
        0
176
     1
 90
       50
176
     1
 90
        3
176
     1
 62
     5
420
      255
176
     1
290
     0
176
     1
 90
       50
176
     1
 90
       50
176
     1
 90
       50
176
     1
290
     0
176
     1
 90
       50
176
     1
 62
   256
176
     0
 40
1.0
176
     0
 90
        2
176
     1
  1
strokes_ogs.tif
176
     1
290
     0
176
     1
 40
1.0
176
     1
 40
1.0
176
     1
  0
VISUALSTYLE
  5
3F
102
{ACAD_REACTORS
330
2A
102
}
330
2A
100
AcDbVisualStyle
  2
Sketchy
 70
    24
177
     3
291
     0
 70
    58
 90
        1
176
     1
 90
        2
176
     1
 90
        2
176
     1
 90
        0
176
     1
 40
0.6
176
     1
 40
30.0
176
     1
 62
     7
420
 16777215
176
     1
 90
        2
176
     1
 90
        2
176
     1
 62
     7
176
     1
 62
     7
176
     1
 90
        1
176
     1
 90
        1
176
     1
 40
40.0
176
     1
 90
       11
176
     1
 62
     7
176
     1
 40
1.0
176
     1
 90
        1
176
     1
 90
        6
176
     1
 90
        2
176
     1
 62
     7
176
     1
 90
        6
176
     1
 90
        0
176
     1
 90
        0
176
     1
290
     0
176
     1
 90
        1
176
     1
 40
0.0
176
     1
 90
        0
176
     1
290
     0
176
     1
290
     1
176
     1
290
     1
176
     1
290
     0
176
     1
290
     0
176
     1
290
     0
176
     1
290
     0
176
     1
290
     0
176
     1
290
     0
176
     1
 90
       50
176
     1
 40
0.0
176
     1
 40
1.0
176
     1
 90
        0
176
     1
 62
    18
420
        0
176
     1
 90
       50
176
     1
 90
        3
176
     1
 62
     5
420
      255
176
     1
290
     0
176
     1
 90
       50
176
     1
 90
       50
176
     1
 90
       50
176
     1
290
     0
176
     1
 90
       50
176
     1
 62
   256
176
     0
 40
1.0
176
     0
 90
        2
176
     1
  1
strokes_ogs.tif
176
     1
290
     0
176
     1
 40
1.0
176
     1
 40
1.0
176
     1
  0
VISUALSTYLE
  5
37
102
{ACAD_REACTORS
330
2A
102
}
330
2A
100
AcDbVisualStyle
  2
Thicken
 70
    13
177
     3
291
     1
 70
    58
 90
        2
176
     1
 90
        2
176
     1
 90
        0
176
     1
 90
        0
176
     1
 40
0.6
176
     1
 40
30.0
176
     1
 62
     7
420
 16777215
176
     1
 90
        1
176
     1
 90
        4
176
     1
 62
     7
176
     1
 62
   257
176
     1
 90
        1
176
     1
 90
        1
176
     1
 40
1.0
176
     1
 90
       12
176
     1
 62
     7
176
     1
 40
1.0
176
     1
 90
        1
176
     1
 90
        6
176
     1
 90
        2
176
     1
 62
     7
176
     1
 90
        5
176
     1
 90
        0
176
     1
 90
        0
176
     1
290
     0
176
     1
 90
        1
176
     1
 40
0.0
176
     1
 90
        0
176
     1
290
     0
176
     1
290
     1
176
     1
290
     1
176
     1
290
     0
176
     1
290
     0
176
     1
290
     0
176
     1
290
     0
176
     1
290
     0
176
     1
290
     0
176
     1
 90
       50
176
     1
 40
0.0
176
     1
 40
1.0
176
     1
 90
        0
176
     1
 62
    18
420
        0
176
     1
 90
       50
176
     1
 90
        3
176
     1
 62
     5
420
      255
176
     1
290
     0
176
     1
 90
       50
176
     1
 90
       50
176
     1
 90
       50
176
     1
290
     0
176
     1
 90
       50
176
     1
 62
   256
176
     0
 40
1.0
176
     0
 90
        2
176
     1
  1
strokes_ogs.tif
176
     1
290
     0
176
     1
 40
1.0
176
     1
 40
1.0
176
     1
  0
VISUALSTYLE
  5
30
102
{ACAD_REACTORS
330
2A
102
}
330
2A
100
AcDbVisualStyle
  2
Wireframe
 70
     5
177
     3
291
     0
 70
    58
 90
        0
176
     1
 90
        2
176
     1
 90
        0
176
     1
 90
        0
176
     1
 40
0.6
176
     1
 40
30.0
176
     1
 62
     7
420
 16777215
176
     1
 90
        1
176
     1
 90
        4
176
     1
 62
     7
176
     1
 62
   257
176
     1
 90
        1
176
     1
 90
        1
176
     1
 40
1.0
176
     1
 90
        0
176
     1
 62
   257
176
     1
 40
1.0
176
     1
 90
        1
176
     1
 90
        6
176
     1
 90
        2
176
     1
 62
     7
176
     1
 90
        3
176
     1
 90
        0
176
     1
 90
        0
176
     1
290
     0
176
     1
 90
        1
176
     1
 40
0.0
176
     1
 90
        0
176
     1
290
     0
176
     1
290
     1
176
     1
290
     1
176
     1
290
     0
176
     1
290
     0
176
     1
290
     0
176
     1
290
     0
176
     1
290
     0
176
     1
290
     0
176
     1
 90
       50
176
     1
 40
0.0
176
     1
 40
1.0
176
     1
 90
        0
176
     1
 62
    18
420
        0
176
     1
 90
       50
176
     1
 90
        3
176
     1
 62
     5
420
      255
176
     1
290
     0
176
     1
 90
       50
176
     1
 90
       50
176
     1
 90
       50
176
     1
290
     0
176
     1
 90
       50
176
     1
 62
   256
176
     0
 40
1.0
176
     0
 90
        2
176
     1
  1
strokes_ogs.tif
176
     1
290
     0
176
     1
 40
1.0
176
     1
 40
1.0
176
     1
  0
VISUALSTYLE
  5
40
102
{ACAD_REACTORS
330
2A
102
}
330
2A
100
AcDbVisualStyle
  2
X-Ray
 70
    25
177
     3
291
     0
 70
    58
 90
        2
176
     1
 90
        2
176
     1
 90
        1
176
     1
 90
        1
176
     1
 40
0.5
176
     1
 40
30.0
176
     1
 62
     7
420
 16777215
176
     1
 90
        1
176
     1
 90
        0
176
     1
 62
     7
176
     1
 62
   257
176
     1
 90
        1
176
     1
 90
        1
176
     1
 40
1.0
176
     1
 90
        8
176
     1
 62
     7
176
     1
 40
1.0
176
     1
 90
        1
176
     1
 90
        6
176
     1
 90
        2
176
     1
 62
     7
176
     1
 90
        3
176
     1
 90
        0
176
     1
 90
        0
176
     1
290
     0
176
     1
 90
       13
176
     1
 40
0.0
176
     1
 90
        0
176
     1
290
     0
176
     1
290
     1
176
     1
290
     1
176
     1
290
     0
176
     1
290
     0
176
     1
290
     0
176
     1
290
     0
176
     1
290
     0
176
     1
290
     0
176
     1
 90
       50
176
     1
 40
0.0
176
     1
 40
1.0
176
     1
 90
        0
176
     1
 62
    18
420
        0
176
     1
 90
       50
176
     1
 90
        3
176
     1
 62
     5
420
      255
176
     1
290
     0
176
     1
 90
       50
176
     1
 90
       50
176
     1
 90
       50
176
     1
290
     0
176
     1
 90
       50
176
     1
 62
   256
176
     0
 40
1.0
176
     0
 90
        2
176
     1
  1
strokes_ogs.tif
176
     1
290
     0
176
     1
 40
1.0
176
     1
 40
1.0
176
     1
  0
DICTIONARYVAR
  5
7C
102
{ACAD_REACTORS
330
7B
102
}
330
7B
100
DictionaryVariables
280
     0
  1
1:1
  0
DICTIONARYVAR
  5
81
102
{ACAD_REACTORS
330
7B
102
}
330
7B
100
DictionaryVariables
280
     0
  1
Standard
  0
DICTIONARYVAR
  5
80
102
{ACAD_REACTORS
330
7B
102
}
330
7B
100
DictionaryVariables
280
     0
  1
Standard
  0
DICTIONARY
  5
7D
330
5A
100
AcDbDictionary
280
     1
281
     1
  3
ACAD_ROUNDTRIP_2008_TABLESTYLE_CELLSTYLEMAP
360
7E
  0
CELLSTYLEMAP
  5
7E
102
{ACAD_REACTORS
330
7D
102
}
330
7D
100
AcDbCellStyleMap
 90
        3
300
CELLSTYLE
  1
TABLEFORMAT_BEGIN
 90
        5
170
     1
 91
        0
 92
    32768
 62
   257
 93
        1
300
CONTENTFORMAT
  1
CONTENTFORMAT_BEGIN
 90
        0
 91
        0
 92
        4
 93
        0
300

 40
0.0
140
1.0
 94
        5
 62
     0
340
11
144
0.25
309
CONTENTFORMAT_END
171
     1
301
MARGIN
  1
CELLMARGIN_BEGIN
 40
0.06
 40
0.06
 40
0.06
 40
0.06
 40
0.06
 40
0.06
309
CELLMARGIN_END
 94
        6
 95
        1
302
GRIDFORMAT
  1
GRIDFORMAT_BEGIN
 90
        0
 91
        1
 62
     0
 92
       -2
340
14
 93
        0
 40
0.045
309
GRIDFORMAT_END
 95
        2
302
GRIDFORMAT
  1
GRIDFORMAT_BEGIN
 90
        0
 91
        1
 62
     0
 92
       -2
340
14
 93
        0
 40
0.045
309
GRIDFORMAT_END
 95
        4
302
GRIDFORMAT
  1
GRIDFORMAT_BEGIN
 90
        0
 91
        1
 62
     0
 92
       -2
340
14
 93
        0
 40
0.045
309
GRIDFORMAT_END
 95
        8
302
GRIDFORMAT
  1
GRIDFORMAT_BEGIN
 90
        0
 91
        1
 62
     0
 92
       -2
340
14
 93
        0
 40
0.045
309
GRIDFORMAT_END
 95
       16
302
GRIDFORMAT
  1
GRIDFORMAT_BEGIN
 90
        0
 91
        1
 62
     0
 92
       -2
340
14
 93
        0
 40
0.045
309
GRIDFORMAT_END
 95
       32
302
GRIDFORMAT
  1
GRIDFORMAT_BEGIN
 90
        0
 91
        1
 62
     0
 92
       -2
340
14
 93
        0
 40
0.045
309
GRIDFORMAT_END
309
TABLEFORMAT_END
  1
CELLSTYLE_BEGIN
 90
        1
 91
        1
300
_TITLE
309
CELLSTYLE_END
300
CELLSTYLE
  1
TABLEFORMAT_BEGIN
 90
        5
170
     1
 91
        0
 92
        0
 62
   257
 93
        1
300
CONTENTFORMAT
  1
CONTENTFORMAT_BEGIN
 90
        0
 91
        0
 92
        4
 93
        0
300

 40
0.0
140
1.0
 94
        5
 62
     0
340
11
144
0.18
309
CONTENTFORMAT_END
171
     1
301
MARGIN
  1
CELLMARGIN_BEGIN
 40
0.06
 40
0.06
 40
0.06
 40
0.06
 40
0.06
 40
0.06
309
CELLMARGIN_END
 94
        6
 95
        1
302
GRIDFORMAT
  1
GRIDFORMAT_BEGIN
 90
        0
 91
        1
 62
     0
 92
       -2
340
14
 93
        0
 40
0.045
309
GRIDFORMAT_END
 95
        2
302
GRIDFORMAT
  1
GRIDFORMAT_BEGIN
 90
        0
 91
        1
 62
     0
 92
       -2
340
14
 93
        0
 40
0.045
309
GRIDFORMAT_END
 95
        4
302
GRIDFORMAT
  1
GRIDFORMAT_BEGIN
 90
        0
 91
        1
 62
     0
 92
       -2
340
14
 93
        0
 40
0.045
309
GRIDFORMAT_END
 95
        8
302
GRIDFORMAT
  1
GRIDFORMAT_BEGIN
 90
        0
 91
        1
 62
     0
 92
       -2
340
14
 93
        0
 40
0.045
309
GRIDFORMAT_END
 95
       16
302
GRIDFORMAT
  1
GRIDFORMAT_BEGIN
 90
        0
 91
        1
 62
     0
 92
       -2
340
14
 93
        0
 40
0.045
309
GRIDFORMAT_END
 95
       32
302
GRIDFORMAT
  1
GRIDFORMAT_BEGIN
 90
        0
 91
        1
 62
     0
 92
       -2
340
14
 93
        0
 40
0.045
309
GRIDFORMAT_END
309
TABLEFORMAT_END
  1
CELLSTYLE_BEGIN
 90
        2
 91
        1
300
_HEADER
309
CELLSTYLE_END
300
CELLSTYLE
  1
TABLEFORMAT_BEGIN
 90
        5
170
     1
 91
        0
 92
        0
 62
   257
 93
        1
300
CONTENTFORMAT
  1
CONTENTFORMAT_BEGIN
 90
        0
 91
        0
 92
        4
 93
        0
300

 40
0.0
140
1.0
 94
        2
 62
     0
340
11
144
0.18
309
CONTENTFORMAT_END
171
     1
301
MARGIN
  1
CELLMARGIN_BEGIN
 40
0.06
 40
0.06
 40
0.06
 40
0.06
 40
0.06
 40
0.06
309
CELLMARGIN_END
 94
        6
 95
        1
302
GRIDFORMAT
  1
GRIDFORMAT_BEGIN
 90
        0
 91
        1
 62
     0
 92
       -2
340
14
 93
        0
 40
0.045
309
GRIDFORMAT_END
 95
        2
302
GRIDFORMAT
  1
GRIDFORMAT_BEGIN
 90
        0
 91
        1
 62
     0
 92
       -2
340
14
 93
        0
 40
0.045
309
GRIDFORMAT_END
 95
        4
302
GRIDFORMAT
  1
GRIDFORMAT_BEGIN
 90
        0
 91
        1
 62
     0
 92
       -2
340
14
 93
        0
 40
0.045
309
GRIDFORMAT_END
 95
        8
302
GRIDFORMAT
  1
GRIDFORMAT_BEGIN
 90
        0
 91
        1
 62
     0
 92
       -2
340
14
 93
        0
 40
0.045
309
GRIDFORMAT_END
 95
       16
302
GRIDFORMAT
  1
GRIDFORMAT_BEGIN
 90
        0
 91
        1
 62
     0
 92
       -2
340
14
 93
        0
 40
0.045
309
GRIDFORMAT_END
 95
       32
302
GRIDFORMAT
  1
GRIDFORMAT_BEGIN
 90
        0
 91
        1
 62
     0
 92
       -2
340
14
 93
        0
 40
0.045
309
GRIDFORMAT_END
309
TABLEFORMAT_END
  1
CELLSTYLE_BEGIN
 90
        3
 91
        2
300
_DATA
309
CELLSTYLE_END
  0
ENDSEC
  0
EOF
