  0
SECTION
  2
HEADER
  9
$ACADVER
  1
AC1027
  9
$ACADMAINTVER
 70
   105
  9
$DWGCODEPAGE
  3
ANSI_1252
  9
$LASTSAVEDBY
  1
Office Desk
  9
$REQUIREDVERSIONS
160
                 0
  9
$INSBASE
 10
0.0
 20
0.0
 30
0.0
  9
$EXTMIN
 10
5.194094488188976
 20
2.97253937007874
 30
0.0
  9
$EXTMAX
 10
10.11041732283465
 20
6.691515748031496
 30
0.0
  9
$LIMMIN
 10
0.0
 20
0.0
  9
$LIMMAX
 10
12.0
 20
9.0
  9
$ORTHOMODE
 70
     0
  9
$REGENMODE
 70
     1
  9
$FILLMODE
 70
     1
  9
$QTEXTMODE
 70
     0
  9
$MIRRTEXT
 70
     1
  9
$LTSCALE
 40
1.0
  9
$ATTMODE
 70
     1
  9
$TEXTSIZE
 40
0.2
  9
$TRACEWID
 40
0.05
  9
$TEXTSTYLE
  7
Standard
  9
$CLAYER
  8
0
  9
$CELTYPE
  6
ByLayer
  9
$CECOLOR
 62
   256
  9
$CELTSCALE
 40
1.0
  9
$DISPSILH
 70
     0
  9
$DIMSCALE
 40
1.0
  9
$DIMASZ
 40
0.18
  9
$DIMEXO
 40
0.0625
  9
$DIMDLI
 40
0.38
  9
$DIMRND
 40
0.0
  9
$DIMDLE
 40
0.0
  9
$DIMEXE
 40
0.18
  9
$DIMTP
 40
0.0
  9
$DIMTM
 40
0.0
  9
$DIMTXT
 40
0.18
  9
$DIMCEN
 40
0.09
  9
$DIMTSZ
 40
0.0
  9
$DIMTOL
 70
     0
  9
$DIMLIM
 70
     0
  9
$DIMTIH
 70
     1
  9
$DIMTOH
 70
     1
  9
$DIMSE1
 70
     0
  9
$DIMSE2
 70
     0
  9
$DIMTAD
 70
     0
  9
$DIMZIN
 70
     0
  9
$DIMBLK
  1

  9
$DIMASO
 70
     1
  9
$DIMSHO
 70
     1
  9
$DIMPOST
  1

  9
$DIMAPOST
  1

  9
$DIMALT
 70
     0
  9
$DIMALTD
 70
     2
  9
$DIMALTF
 40
25.4
  9
$DIMLFAC
 40
1.0
  9
$DIMTOFL
 70
     0
  9
$DIMTVP
 40
0.0
  9
$DIMTIX
 70
     0
  9
$DIMSOXD
 70
     0
  9
$DIMSAH
 70
     0
  9
$DIMBLK1
  1

  9
$DIMBLK2
  1

  9
$DIMSTYLE
  2
Standard
  9
$DIMCLRD
 70
     0
  9
$DIMCLRE
 70
     0
  9
$DIMCLRT
 70
     0
  9
$DIMTFAC
 40
1.0
  9
$DIMGAP
 40
0.09
  9
$DIMJUST
 70
     0
  9
$DIMSD1
 70
     0
  9
$DIMSD2
 70
     0
  9
$DIMTOLJ
 70
     1
  9
$DIMTZIN
 70
     0
  9
$DIMALTZ
 70
     0
  9
$DIMALTTZ
 70
     0
  9
$DIMUPT
 70
     0
  9
$DIMDEC
 70
     4
  9
$DIMTDEC
 70
     4
  9
$DIMALTU
 70
     2
  9
$DIMALTTD
 70
     2
  9
$DIMTXSTY
  7
Standard
  9
$DIMAUNIT
 70
     0
  9
$DIMADEC
 70
     0
  9
$DIMALTRND
 40
0.0
  9
$DIMAZIN
 70
     0
  9
$DIMDSEP
 70
    46
  9
$DIMATFIT
 70
     3
  9
$DIMFRAC
 70
     0
  9
$DIMLDRBLK
  1

  9
$DIMLUNIT
 70
     2
  9
$DIMLWD
 70
    -2
  9
$DIMLWE
 70
    -2
  9
$DIMTMOVE
 70
     0
  9
$DIMFXL
 40
1.0
  9
$DIMFXLON
 70
     0
  9
$DIMJOGANG
 40
0.7853981633974483
  9
$DIMTFILL
 70
     0
  9
$DIMTFILLCLR
 70
     0
  9
$DIMARCSYM
 70
     0
  9
$DIMLTYPE
  6

  9
$DIMLTEX1
  6

  9
$DIMLTEX2
  6

  9
$DIMTXTDIRECTION
 70
     0
  9
$LUNITS
 70
     2
  9
$LUPREC
 70
     4
  9
$SKETCHINC
 40
0.1
  9
$FILLETRAD
 40
0.0
  9
$AUNITS
 70
     0
  9
$AUPREC
 70
     0
  9
$MENU
  1
.
  9
$ELEVATION
 40
0.0
  9
$PELEVATION
 40
0.0
  9
$THICKNESS
 40
0.0
  9
$LIMCHECK
 70
     0
  9
$CHAMFERA
 40
0.0
  9
$CHAMFERB
 40
0.0
  9
$CHAMFERC
 40
0.0
  9
$CHAMFERD
 40
0.0
  9
$SKPOLY
 70
     0
  9
$TDCREATE
 40
2461028.621395938
  9
$TDUCREATE
 40
2461028.392229271
  9
$TDUPDATE
 40
2461028.621395961
  9
$TDUUPDATE
 40
2461028.392229294
  9
$TDINDWG
 40
0.0000000116
  9
$TDUSRTIMER
 40
0.0000000116
  9
$USRTIMER
 70
     1
  9
$ANGBASE
 50
0.0
  9
$ANGDIR
 70
     0
  9
$PDMODE
 70
     0
  9
$PDSIZE
 40
0.0
  9
$PLINEWID
 40
0.0
  9
$SPLFRAME
 70
     0
  9
$SPLINETYPE
 70
     6
  9
$SPLINESEGS
 70
     8
  9
$HANDSEED
  5
8B
  9
$SURFTAB1
 70
     6
  9
$SURFTAB2
 70
     6
  9
$SURFTYPE
 70
     6
  9
$SURFU
 70
     6
  9
$SURFV
 70
     6
  9
$UCSBASE
  2

  9
$UCSNAME
  2

  9
$UCSORG
 10
0.0
 20
0.0
 30
0.0
  9
$UCSXDIR
 10
1.0
 20
0.0
 30
0.0
  9
$UCSYDIR
 10
0.0
 20
1.0
 30
0.0
  9
$UCSORTHOREF
  2

  9
$UCSORTHOVIEW
 70
     0
  9
$UCSORGTOP
 10
0.0
 20
0.0
 30
0.0
  9
$UCSORGBOTTOM
 10
0.0
 20
0.0
 30
0.0
  9
$UCSORGLEFT
 10
0.0
 20
0.0
 30
0.0
  9
$UCSORGRIGHT
 10
0.0
 20
0.0
 30
0.0
  9
$UCSORGFRONT
 10
0.0
 20
0.0
 30
0.0
  9
$UCSORGBACK
 10
0.0
 20
0.0
 30
0.0
  9
$PUCSBASE
  2

  9
$PUCSNAME
  2

  9
$PUCSORG
 10
0.0
 20
0.0
 30
0.0
  9
$PUCSXDIR
 10
1.0
 20
0.0
 30
0.0
  9
$PUCSYDIR
 10
0.0
 20
1.0
 30
0.0
  9
$PUCSORTHOREF
  2

  9
$PUCSORTHOVIEW
 70
     0
  9
$PUCSORGTOP
 10
0.0
 20
0.0
 30
0.0
  9
$PUCSORGBOTTOM
 10
0.0
 20
0.0
 30
0.0
  9
$PUCSORGLEFT
 10
0.0
 20
0.0
 30
0.0
  9
$PUCSORGRIGHT
 10
0.0
 20
0.0
 30
0.0
  9
$PUCSORGFRONT
 10
0.0
 20
0.0
 30
0.0
  9
$PUCSORGBACK
 10
0.0
 20
0.0
 30
0.0
  9
$USERI1
 70
     0
  9
$USERI2
 70
     0
  9
$USERI3
 70
     0
  9
$USERI4
 70
     0
  9
$USERI5
 70
     0
  9
$USERR1
 40
0.0
  9
$USERR2
 40
0.0
  9
$USERR3
 40
0.0
  9
$USERR4
 40
0.0
  9
$USERR5
 40
0.0
  9
$WORLDVIEW
 70
     1
  9
$SHADEDGE
 70
     3
  9
$SHADEDIF
 70
    70
  9
$TILEMODE
 70
     1
  9
$MAXACTVP
 70
    64
  9
$PINSBASE
 10
0.0
 20
0.0
 30
0.0
  9
$PLIMCHECK
 70
     0
  9
$PEXTMIN
 10
1.000000000000000E+20
 20
1.000000000000000E+20
 30
1.000000000000000E+20
  9
$PEXTMAX
 10
-1.000000000000000E+20
 20
-1.000000000000000E+20
 30
-1.000000000000000E+20
  9
$PLIMMIN
 10
0.0
 20
0.0
  9
$PLIMMAX
 10
12.0
 20
9.0
  9
$UNITMODE
 70
     0
  9
$VISRETAIN
 70
     1
  9
$PLINEGEN
 70
     0
  9
$PSLTSCALE
 70
     1
  9
$TREEDEPTH
 70
  3020
  9
$CMLSTYLE
  2
Standard
  9
$CMLJUST
 70
     0
  9
$CMLSCALE
 40
1.0
  9
$PROXYGRAPHICS
 70
     1
  9
$MEASUREMENT
 70
     0
  9
$CELWEIGHT
370
    -1
  9
$ENDCAPS
280
     0
  9
$JOINSTYLE
280
     0
  9
$LWDISPLAY
290
     0
  9
$INSUNITS
 70
     1
  9
$HYPERLINKBASE
  1

  9
$STYLESHEET
  1

  9
$XEDIT
290
     1
  9
$CEPSNTYPE
380
     0
  9
$PSTYLEMODE
290
     1
  9
$FINGERPRINTGUID
  2
{b1bfc02e-f3ce-4c8a-979d-bc3df4ed37b4}
  9
$VERSIONGUID
  2
{FAEB1C32-E019-11D5-929B-00C0DF256EC4}
  9
$EXTNAMES
290
     1
  9
$PSVPSCALE
 40
0.0
  9
$OLESTARTUP
290
     0
  9
$SORTENTS
280
   127
  9
$INDEXCTL
280
     0
  9
$HIDETEXT
280
     1
  9
$XCLIPFRAME
280
     2
  9
$HALOGAP
280
     0
  9
$OBSCOLOR
 70
   257
  9
$OBSLTYPE
280
     0
  9
$INTERSECTIONDISPLAY
280
     0
  9
$INTERSECTIONCOLOR
 70
   257
  9
$DIMASSOC
280
     2
  9
$PROJECTNAME
  1

  9
$CAMERADISPLAY
290
     0
  9
$LENSLENGTH
 40
50.0
  9
$CAMERAHEIGHT
 40
0.0
  9
$STEPSPERSEC
 40
2.0
  9
$STEPSIZE
 40
6.0
  9
$3DDWFPREC
 40
2.0
  9
$PSOLWIDTH
 40
0.25
  9
$PSOLHEIGHT
 40
4.0
  9
$LOFTANG1
 40
1.570796326794897
  9
$LOFTANG2
 40
1.570796326794897
  9
$LOFTMAG1
 40
0.0
  9
$LOFTMAG2
 40
0.0
  9
$LOFTPARAM
 70
     7
  9
$LOFTNORMALS
280
     1
  9
$LATITUDE
 40
37.795
  9
$LONGITUDE
 40
-122.394
  9
$NORTHDIRECTION
 40
0.0
  9
$TIMEZONE
 70
 -8000
  9
$LIGHTGLYPHDISPLAY
280
     1
  9
$TILEMODELIGHTSYNCH
280
     1
  9
$CMATERIAL
347
44
  9
$SOLIDHIST
280
     0
  9
$SHOWHIST
280
     1
  9
$DWFFRAME
280
     2
  9
$DGNFRAME
280
     2
  9
$REALWORLDSCALE
290
     1
  9
$INTERFERECOLOR
 62
   256
  9
$CSHADOW
280
     0
  9
$SHADOWPLANELOCATION
 40
0.0
  0
ENDSEC
  0
SECTION
  2
CLASSES
  0
CLASS
  1
ACDBDICTIONARYWDFLT
  2
AcDbDictionaryWithDefault
  3
ObjectDBX Classes
 90
        0
 91
        3
280
     0
281
     0
  0
CLASS
  1
VISUALSTYLE
  2
AcDbVisualStyle
  3
ObjectDBX Classes
 90
     4095
 91
        3
280
     0
281
     0
  0
CLASS
  1
MATERIAL
  2
AcDbMaterial
  3
ObjectDBX Classes
 90
     1153
 91
        3
280
     0
281
     0
  0
CLASS
  1
SCALE
  2
AcDbScale
  3
ObjectDBX Classes
 90
     1153
 91
        3
280
     0
281
     0
  0
CLASS
  1
TABLESTYLE
  2
AcDbTableStyle
  3
ObjectDBX Classes
 90
     4095
 91
        3
280
     0
281
     0
  0
CLASS
  1
MLEADERSTYLE
  2
AcDbMLeaderStyle
  3
ACDB_MLEADERSTYLE_CLASS
 90
     4095
 91
        3
280
     0
281
     0
  0
CLASS
  1
SUN
  2
AcDbSun
  3
SCENEOE
 90
     1153
 91
        3
280
     0
281
     0
  0
CLASS
  1
DICTIONARYVAR
  2
AcDbDictionaryVar
  3
ObjectDBX Classes
 90
        0
 91
        3
280
     0
281
     0
  0
CLASS
  1
CELLSTYLEMAP
  2
AcDbCellStyleMap
  3
ObjectDBX Classes
 90
     1152
 91
        3
280
     0
281
     0
  0
ENDSEC
  0
SECTION
  2
TABLES
  0
TABLE
  2
VPORT
  5
8
330
0
100
AcDbSymbolTable
 70
     1
  0
VPORT
  5
29
330
8
100
AcDbSymbolTableRecord
100
AcDbViewportTableRecord
  2
*Active
 70
     0
 10
0.0
 20
0.0
 11
1.0
 21
1.0
 12
10.42990654205607
 22
4.5
 13
0.0
 23
0.0
 14
0.5
 24
0.5
 15
0.5
 25
0.5
 16
0.0
 26
0.0
 36
1.0
 17
0.0
 27
0.0
 37
0.0
 40
9.0
 41
1.972972972850329
 42
50.0
 43
0.0
 44
0.0
 50
0.0
 51
0.0
 71
     0
 72
   100
 73
     1
 74
     3
 75
     0
 76
     0
 77
     0
 78
     0
281
     0
 65
     1
110
0.0
120
0.0
130
0.0
111
1.0
121
0.0
131
0.0
112
0.0
122
1.0
132
0.0
 79
     0
146
0.0
348
2F
 60
     3
 61
     5
292
     1
282
     1
141
0.0
142
0.0
 63
   250
361
5D
  0
ENDTAB
  0
TABLE
  2
LTYPE
  5
5
330
0
100
AcDbSymbolTable
 70
     1
  0
LTYPE
  5
14
330
5
100
AcDbSymbolTableRecord
100
AcDbLinetypeTableRecord
  2
ByBlock
 70
     0
  3

 72
    65
 73
     0
 40
0.0
  0
LTYPE
  5
15
330
5
100
AcDbSymbolTableRecord
100
AcDbLinetypeTableRecord
  2
ByLayer
 70
     0
  3

 72
    65
 73
     0
 40
0.0
  0
LTYPE
  5
16
330
5
100
AcDbSymbolTableRecord
100
AcDbLinetypeTableRecord
  2
Continuous
 70
     0
  3
Solid line
 72
    65
 73
     0
 40
0.0
  0
ENDTAB
  0
TABLE
  2
LAYER
  5
2
330
0
100
AcDbSymbolTable
 70
     2
  0
LAYER
  5
10
330
2
100
AcDbSymbolTableRecord
100
AcDbLayerTableRecord
  2
0
 70
     0
 62
     7
  6
Continuous
370
    -3
390
F
347
46
348
0
  0
LAYER
  5
5F
330
2
100
AcDbSymbolTableRecord
100
AcDbLayerTableRecord
  2
Layer 1
 70
     0
 62
     7
  6
Continuous
370
    -3
390
F
347
46
348
0
  0
ENDTAB
  0
TABLE
  2
STYLE
  5
3
330
0
100
AcDbSymbolTable
 70
     1
  0
STYLE
  5
11
330
3
100
AcDbSymbolTableRecord
100
AcDbTextStyleTableRecord
  2
Standard
 70
     0
 40
0.0
 41
1.0
 50
0.0
 71
     0
 42
0.2
  3
txt
  4

  0
ENDTAB
  0
TABLE
  2
VIEW
  5
6
330
0
100
AcDbSymbolTable
 70
     0
  0
ENDTAB
  0
TABLE
  2
UCS
  5
7
330
0
100
AcDbSymbolTable
 70
     0
  0
ENDTAB
  0
TABLE
  2
APPID
  5
9
330
0
100
AcDbSymbolTable
 70
     2
  0
APPID
  5
12
330
9
100
AcDbSymbolTableRecord
100
AcDbRegAppTableRecord
  2
ACAD
 70
     0
  0
APPID
  5
5E
330
9
100
AcDbSymbolTableRecord
100
AcDbRegAppTableRecord
  2
ODA
 70
     0
  0
ENDTAB
  0
TABLE
  2
DIMSTYLE
  5
A
330
0
100
AcDbSymbolTable
 70
     1
100
AcDbDimStyleTable
  0
DIMSTYLE
105
27
330
A
100
AcDbSymbolTableRecord
100
AcDbDimStyleTableRecord
  2
Standard
 70
     0
178
     0
340
11
  0
ENDTAB
  0
TABLE
  2
BLOCK_RECORD
  5
1
330
0
100
AcDbSymbolTable
 70
     1
  0
BLOCK_RECORD
  5
1F
330
1
100
AcDbSymbolTableRecord
100
AcDbBlockTableRecord
  2
*Model_Space
340
22
 70
     0
280
     1
281
     0
  0
BLOCK_RECORD
  5
1B
330
1
100
AcDbSymbolTableRecord
100
AcDbBlockTableRecord
  2
*Paper_Space
340
1E
 70
     0
280
     1
281
     0
  0
BLOCK_RECORD
  5
23
330
1
100
AcDbSymbolTableRecord
100
AcDbBlockTableRecord
  2
*Paper_Space0
340
26
 70
     0
280
     1
281
     0
  0
ENDTAB
  0
ENDSEC
  0
SECTION
  2
BLOCKS
  0
BLOCK
  5
20
330
1F
100
AcDbEntity
  8
0
100
AcDbBlockBegin
  2
*Model_Space
 70
     0
 10
0.0
 20
0.0
 30
0.0
  3
*Model_Space
  1

  0
ENDBLK
  5
21
330
1F
100
AcDbEntity
  8
0
100
AcDbBlockEnd
  0
BLOCK
  5
1C
330
1B
100
AcDbEntity
 67
     1
  8
0
100
AcDbBlockBegin
  2
*Paper_Space
 70
     0
 10
0.0
 20
0.0
 30
0.0
  3
*Paper_Space
  1

  0
ENDBLK
  5
1D
330
1B
100
AcDbEntity
 67
     1
  8
0
100
AcDbBlockEnd
  0
BLOCK
  5
24
330
23
100
AcDbEntity
  8
0
100
AcDbBlockBegin
  2
*Paper_Space0
 70
     0
 10
0.0
 20
0.0
 30
0.0
  3
*Paper_Space0
  1

  0
ENDBLK
  5
25
330
23
100
AcDbEntity
  8
0
100
AcDbBlockEnd
  0
ENDSEC
  0
SECTION
  2
ENTITIES
  0
LWPOLYLINE
  5
60
330
1F
100
AcDbEntity
  8
Layer 1
 62
   250
100
AcDbPolyline
 90
        5
 70
     1
 43
0.0
 10
5.194094488188976
 20
6.691515748031496
 10
10.11041732283465
 20
6.691515748031496
 10
10.11041732283465
 20
2.97253937007874
 10
5.194094488188976
 20
2.97253937007874
 10
5.194094488188976
 20
6.691515748031496
  0
LWPOLYLINE
  5
61
330
1F
100
AcDbEntity
  8
Layer 1
 62
     7
370
    18
100
AcDbPolyline
 90
       81
 70
     1
 43
0.0
 10
6.75684251968504
 20
5.226330708661417
 10
6.754905511811024
 20
5.229425196850394
 10
6.751984251968504
 20
5.238070866141732
 10
6.752413385826772
 20
5.251326771653543
 10
6.760531496062992
 20
5.268248031496063
 10
6.780673228346457
 20
5.287885826771654
 10
6.817173228346457
 20
5.309299212598425
 10
6.874370078740157
 20
5.331531496062992
 10
6.956598425196851
 20
5.353649606299212
 10
6.994830708661417
 20
5.363409448818897
 10
7.097106299212599
 20
5.3895
 10
7.244791338582677
 20
5.427149606299213
 10
7.419251968503937
 20
5.471582677165355
 10
7.601850393700787
 20
5.518023622047244
 10
7.773956692913385
 20
5.561700787401575
 10
7.916937007874016
 20
5.597842519685039
 10
8.012149606299213
 20
5.621665354330709
 10
8.021003937007874
 20
5.623992125984252
 10
8.046606299212598
 20
5.629196850393701
 10
8.087503937007874
 20
5.634610236220473
 10
8.142248031496063
 20
5.637574803149606
 10
8.209389763779528
 20
5.635425196850393
 10
8.287476377952755
 20
5.625492125984252
 10
8.37505905511811
 20
5.60511811023622
 10
8.470688976377954
 20
5.571633858267717
 10
8.50986220472441
 20
5.560594488188976
 10
8.613625984251968
 20
5.531444881889763
 10
8.761334645669292
 20
5.490133858267717
 10
8.932346456692914
 20
5.442606299212598
 10
9.106015748031496
 20
5.394814960629922
 10
9.26170472440945
 20
5.352704724409449
 10
9.378771653543307
 20
5.322224409448819
 10
9.436570866141732
 20
5.309322834645669
 10
9.443141732283465
 20
5.307547244094488
 10
9.45998031496063
 20
5.302145669291338
 10
9.482779527559055
 20
5.293015748031496
 10
9.507228346456692
 20
5.280047244094488
 10
9.529015748031496
 20
5.263133858267716
 10
9.543830708661417
 20
5.242173228346457
 10
9.547370078740158
 20
5.21705905511811
 10
9.535314960629922
 20
5.187681102362204
 10
9.527047244094488
 20
5.183964566929133
 10
9.501531496062992
 20
5.172870078740157
 10
9.457685039370078
 20
5.154472440944882
 10
9.394437007874016
 20
5.128854330708662
 10
9.310700787401574
 20
5.096098425196851
 10
9.205405511811023
 20
5.056283464566929
 10
9.077472440944883
 20
5.009484251968504
 10
8.92582283464567
 20
4.955787401574804
 10
8.915866141732284
 20
4.952822834645669
 10
8.887232283464567
 20
4.944208661417322
 10
8.841787401574804
 20
4.930370078740157
 10
8.781393700787401
 20
4.911740157480315
 10
8.707913385826771
 20
4.888740157480315
 10
8.623200787401574
 20
4.861799212598426
 10
8.529129921259843
 20
4.831338582677166
 10
8.427551181102363
 20
4.797791338582678
 10
8.417688976377953
 20
4.795055118110236
 10
8.389724409448819
 20
4.788271653543307
 10
8.346094488188976
 20
4.779570866141732
 10
8.289228346456692
 20
4.771082677165355
 10
8.221562992125984
 20
4.764937007874016
 10
8.145527559055118
 20
4.763267716535433
 10
8.063562992125984
 20
4.768200787401574
 10
7.978094488188977
 20
4.781874015748032
 10
7.884661417322834
 20
4.805696850393701
 10
7.779897637795275
 20
4.837964566929134
 10
7.667897637795275
 20
4.876149606299212
 10
7.552759842519685
 20
4.917712598425197
 10
7.43857874015748
 20
4.960133858267716
 10
7.329452755905511
 20
5.000870078740157
 10
7.229476377952756
 20
5.03740157480315
 10
7.142748031496063
 20
5.067192913385827
 10
7.129586614173228
 20
5.071464566929134
 10
7.094181102362205
 20
5.083263779527559
 10
7.042641732283465
 20
5.10105905511811
 10
6.98107874015748
 20
5.123314960629921
 10
6.915606299212598
 20
5.1485
 10
6.852334645669291
 20
5.175086614173228
 10
6.797377952755905
 20
5.20153937007874
 10
6.75684251968504
 20
5.226330708661417
  0
LWPOLYLINE
  5
62
330
1F
100
AcDbEntity
  8
Layer 1
 62
     7
370
    18
100
AcDbPolyline
 90
       82
 70
     1
 43
0.0
 10
6.640303149606299
 20
5.187094488188976
 10
6.638437007874016
 20
5.19055905511811
 10
6.634637795275591
 20
5.200200787401575
 10
6.631594488188976
 20
5.214905511811024
 10
6.632003937007874
 20
5.233551181102362
 10
6.63855905511811
 20
5.255023622047244
 10
6.653948818897637
 20
5.278200787401575
 10
6.680874015748032
 20
5.30196062992126
 10
6.72201968503937
 20
5.325192913385827
 10
7.87594094488189
 20
5.657149606299213
 10
7.888307086614173
 20
5.660437007874016
 10
7.923409448818898
 20
5.668433070866142
 10
7.978240157480315
 20
5.678334645669291
 10
8.049799212598424
 20
5.687334645669291
 10
8.135086614173229
 20
5.692633858267716
 10
8.23109842519685
 20
5.69142125984252
 10
8.334830708661418
 20
5.680897637795276
 10
8.443287401574803
 20
5.658259842519685
 10
8.48520472440945
 20
5.645622047244094
 10
8.59646062992126
 20
5.612051181102363
 10
8.755307086614174
 20
5.564055118110236
 10
8.94
 20
5.508137795275591
 10
9.128787401574803
 20
5.450807086614173
 10
9.299925196850394
 20
5.398570866141732
 10
9.43166535433071
 20
5.357940944881889
 10
9.502263779527558
 20
5.335421259842519
 10
9.509334645669291
 20
5.333074803149606
 10
9.528094488188977
 20
5.326007874015748
 10
9.554842519685039
 20
5.314204724409449
 10
9.585897637795275
 20
5.297629921259842
 10
9.617562992125984
 20
5.276263779527559
 10
9.64614566929134
 20
5.250070866141733
 10
9.667960629921259
 20
5.219031496062992
 10
9.679314960629922
 20
5.183114173228346
 10
9.680047244094489
 20
5.182976377952756
 10
9.680913385826772
 20
5.181688976377953
 10
9.67992125984252
 20
5.177952755905512
 10
9.675066929133859
 20
5.170456692913386
 10
9.664362204724409
 20
5.15790157480315
 10
9.645811023622047
 20
5.13898031496063
 10
9.617413385826772
 20
5.112385826771654
 10
9.57717716535433
 20
5.076818897637795
 10
9.567956692913386
 20
5.068818897637795
 10
9.541192913385826
 20
5.046925196850394
 10
9.498228346456694
 20
5.014295275590551
 10
9.440405511811024
 20
4.974086614173229
 10
9.369070866141731
 20
4.929452755905512
 10
9.285562992125984
 20
4.883555118110237
 10
9.191224409448818
 20
4.839547244094488
 10
9.087405511811024
 20
4.800586614173229
 10
9.061665354330708
 20
4.791196850393701
 10
8.991531496062992
 20
4.765877952755906
 10
8.887641732283464
 20
4.728917322834645
 10
8.760622047244095
 20
4.68459842519685
 10
8.621110236220472
 20
4.637204724409449
 10
8.479740157480315
 20
4.591023622047244
 10
8.347141732283465
 20
4.550338582677165
 10
8.233948818897638
 20
4.519429133858267
 10
8.229
 20
4.51890157480315
 10
8.215204724409448
 20
4.517759842519685
 10
8.194153543307086
 20
4.516677165354331
 10
8.167425196850393
 20
4.516326771653543
 10
8.136606299212598
 20
4.517374015748032
 10
8.103283464566928
 20
4.520488188976378
 10
8.06903937007874
 20
4.526338582677165
 10
8.035456692913385
 20
4.535602362204725
 10
8.020236220472441
 20
4.540484251968504
 10
7.975811023622048
 20
4.55505905511811
 10
7.904023622047244
 20
4.579224409448819
 10
7.806712598425197
 20
4.612885826771653
 10
7.685728346456693
 20
4.655937007874016
 10
7.542909448818897
 20
4.708275590551181
 10
7.380106299212598
 20
4.769803149606299
 10
7.199161417322834
 20
4.84042125984252
 10
7.135314960629922
 20
4.867503937007874
 10
7.061031496062992
 20
4.902818897637795
 10
6.980661417322835
 20
4.944570866141732
 10
6.898578740157481
 20
4.990968503937008
 10
6.819137795275591
 20
5.040216535433071
 10
6.746704724409449
 20
5.090515748031496
 10
6.685637795275591
 20
5.140074803149607
 10
6.640303149606299
 20
5.187094488188976
  0
LWPOLYLINE
  5
63
330
1F
100
AcDbEntity
  8
Layer 1
 62
     7
370
    18
100
AcDbPolyline
 90
       25
 70
     0
 43
0.0
 10
6.693322834645669
 20
5.133259842519685
 10
6.739716535433071
 20
5.115322834645669
 10
6.864291338582677
 20
5.067858267716535
 10
7.045125984251968
 20
5.000370078740158
 10
7.260314960629922
 20
4.922370078740157
 10
7.48794094488189
 20
4.843374015748031
 10
7.706090551181102
 20
4.772885826771653
 10
7.892846456692913
 20
4.72042125984252
 10
8.02629527559055
 20
4.695488188976378
 10
8.041523622047244
 20
4.694074803149606
 10
8.084531496062992
 20
4.691649606299213
 10
8.151318897637795
 20
4.690925196850394
 10
8.237870078740157
 20
4.694610236220472
 10
8.340188976377952
 20
4.705421259842519
 10
8.454255905511811
 20
4.726074803149606
 10
8.576074803149606
 20
4.759279527559055
 10
8.701633858267716
 20
4.807748031496063
 10
8.735476377952756
 20
4.81909842519685
 10
8.825807086614173
 20
4.849354330708661
 10
8.95582283464567
 20
4.892807086614173
 10
9.108724409448818
 20
4.943759842519685
 10
9.267708661417323
 20
4.996511811023622
 10
9.41598031496063
 20
5.04536220472441
 10
9.536736220472442
 20
5.084606299212599
 10
9.613173228346456
 20
5.108547244094488
  0
LWPOLYLINE
  5
64
330
1F
100
AcDbEntity
  8
Layer 1
 62
     7
370
    18
100
AcDbPolyline
 90
       17
 70
     0
 43
0.0
 10
7.472468503937008
 20
4.947484251968504
 10
7.493
 20
4.95551968503937
 10
7.548740157480315
 20
4.976956692913386
 10
7.630893700787402
 20
5.007783464566929
 10
7.730669291338582
 20
5.044003937007874
 10
7.839279527559055
 20
5.081610236220472
 10
7.947925196850393
 20
5.116594488188976
 10
8.04782283464567
 20
5.144948818897638
 10
8.13017716535433
 20
5.162677165354331
 10
8.146720472440945
 20
5.156976377952756
 10
8.193015748031495
 20
5.140984251968504
 10
8.264082677165355
 20
5.116374015748032
 10
8.354929133858267
 20
5.084814960629921
 10
8.460566929133858
 20
5.047984251968504
 10
8.576003937007874
 20
5.007551181102362
 10
8.696251968503937
 20
4.965185039370079
 10
8.816326771653543
 20
4.922559055118111
  0
LWPOLYLINE
  5
65
330
1F
100
AcDbEntity
  8
Layer 1
 62
     7
370
    18
100
AcDbPolyline
 90
        2
 70
     0
 43
0.0
 10
8.735208661417323
 20
4.897330708661418
 10
8.080338582677165
 20
5.152858267716535
  0
LWPOLYLINE
  5
66
330
1F
100
AcDbEntity
  8
Layer 1
 62
     7
370
    18
100
AcDbPolyline
 90
        2
 70
     0
 43
0.0
 10
8.699173228346456
 20
4.88598031496063
 10
8.041102362204725
 20
5.143216535433071
  0
LWPOLYLINE
  5
67
330
1F
100
AcDbEntity
  8
Layer 1
 62
     7
370
    18
100
AcDbPolyline
 90
        2
 70
     0
 43
0.0
 10
8.571700787401575
 20
4.845196850393701
 10
7.906649606299212
 20
5.103681102362205
  0
LWPOLYLINE
  5
68
330
1F
100
AcDbEntity
  8
Layer 1
 62
     7
370
    18
100
AcDbPolyline
 90
        2
 70
     0
 43
0.0
 10
8.53465748031496
 20
4.834011811023622
 10
7.872141732283464
 20
5.092523622047244
  0
LWPOLYLINE
  5
69
330
1F
100
AcDbEntity
  8
Layer 1
 62
     7
370
    18
100
AcDbPolyline
 90
        2
 70
     0
 43
0.0
 10
8.39966535433071
 20
4.790555118110237
 10
7.737181102362205
 20
5.046318897637796
  0
LWPOLYLINE
  5
6A
330
1F
100
AcDbEntity
  8
Layer 1
 62
     7
370
    18
100
AcDbPolyline
 90
        2
 70
     0
 43
0.0
 10
8.35792125984252
 20
4.781724409448818
 10
7.704145669291338
 20
5.033661417322834
  0
LWPOLYLINE
  5
6B
330
1F
100
AcDbEntity
  8
Layer 1
 62
     7
370
    18
100
AcDbPolyline
 90
        2
 70
     0
 43
0.0
 10
8.201051181102363
 20
4.763933070866142
 10
7.592535433070866
 20
4.993496062992126
  0
LWPOLYLINE
  5
6C
330
1F
100
AcDbEntity
  8
Layer 1
 62
     7
370
    18
100
AcDbPolyline
 90
        2
 70
     0
 43
0.0
 10
8.13992125984252
 20
4.763377952755905
 10
7.559094488188976
 20
4.981933070866142
  0
LWPOLYLINE
  5
6D
330
1F
100
AcDbEntity
  8
Layer 1
 62
     7
370
    18
100
AcDbPolyline
 90
       13
 70
     0
 43
0.0
 10
7.211582677165354
 20
4.835496062992126
 10
7.20290157480315
 20
4.045287401574803
 10
8.113161417322834
 20
3.670161417322835
 10
8.11444094488189
 20
3.669948818897638
 10
8.118090551181103
 20
3.669523622047244
 10
8.123811023622046
 20
3.669204724409449
 10
8.131318897637795
 20
3.669311023622047
 10
8.140311023622047
 20
3.670165354330709
 10
8.150503937007874
 20
3.672086614173228
 10
8.161602362204725
 20
3.675389763779528
 10
8.173314960629922
 20
3.68040157480315
 10
9.048393700787402
 20
4.041909448818898
 10
9.08448031496063
 20
4.79951968503937
  0
LWPOLYLINE
  5
6E
330
1F
100
AcDbEntity
  8
Layer 1
 62
     7
370
    18
100
AcDbPolyline
 90
       43
 70
     0
 43
0.0
 10
7.204492125984252
 20
4.190759842519685
 10
7.193496062992126
 20
4.186992125984252
 10
7.164287401574803
 20
4.176606299212598
 10
7.122527559055118
 20
4.160976377952756
 10
7.073877952755906
 20
4.141468503937008
 10
7.024007874015748
 20
4.119456692913386
 10
6.978574803149606
 20
4.096311023622047
 10
6.943244094488189
 20
4.07340157480315
 10
6.923681102362205
 20
4.052106299212598
 10
6.923137795275591
 20
4.050220472440945
 10
6.922885826771654
 20
4.044929133858267
 10
6.924992125984252
 20
4.036771653543307
 10
6.931523622047244
 20
4.026283464566929
 10
6.944547244094488
 20
4.014011811023622
 10
6.966125984251969
 20
4.000496062992126
 10
6.998330708661418
 20
3.986275590551181
 10
7.043224409448819
 20
3.971889763779528
 10
8.01668503937008
 20
3.563311023622047
 10
8.02390157480315
 20
3.561677165354331
 10
8.043791338582677
 20
3.557720472440945
 10
8.073732283464567
 20
3.552854330708661
 10
8.111086614173228
 20
3.548492125984252
 10
8.153232283464567
 20
3.546047244094488
 10
8.19753937007874
 20
3.546933070866142
 10
8.24137401574803
 20
3.552566929133858
 10
8.282106299212598
 20
3.564362204724409
 10
8.321566929133859
 20
3.581220472440945
 10
8.42622440944882
 20
3.625885826771654
 10
8.575503937007873
 20
3.689496062992126
 10
8.748822834645669
 20
3.763196850393701
 10
8.925594488188976
 20
3.83811811023622
 10
9.085248031496063
 20
3.905409448818898
 10
9.207192913385827
 20
3.956200787401575
 10
9.270854330708662
 20
3.98163779527559
 10
9.274177165354331
 20
3.982685039370079
 10
9.282767716535433
 20
3.985862204724409
 10
9.294570866141733
 20
3.991232283464567
 10
9.307527559055119
 20
3.998862204724409
 10
9.319582677165354
 20
4.008807086614174
 10
9.328673228346457
 20
4.021133858267716
 10
9.33274409448819
 20
4.03590157480315
 10
9.329732283464567
 20
4.053173228346457
 10
9.054326771653542
 20
4.166287401574803
  0
LWPOLYLINE
  5
6F
330
1F
100
AcDbEntity
  8
Layer 1
 62
     7
370
    18
100
AcDbPolyline
 90
       50
 70
     0
 43
0.0
 10
6.923681102362205
 20
4.052106299212598
 10
6.923267716535433
 20
4.050692913385827
 10
6.922204724409449
 20
4.046472440944882
 10
6.920779527559055
 20
4.039464566929134
 10
6.919259842519685
 20
4.029692913385826
 10
6.917925196850394
 20
4.017173228346457
 10
6.917055118110237
 20
4.001933070866142
 10
6.916925196850394
 20
3.983996062992126
 10
6.917811023622047
 20
3.963377952755906
 10
6.917767716535433
 20
3.962322834645669
 10
6.918751968503937
 20
3.959192913385827
 10
6.92242125984252
 20
3.954051181102362
 10
6.93044094488189
 20
3.94696062992126
 10
6.944472440944882
 20
3.937976377952756
 10
6.96617716535433
 20
3.927161417322835
 10
6.997220472440945
 20
3.914574803149606
 10
7.039259842519685
 20
3.900279527559055
 10
7.996263779527559
 20
3.487165354330709
 10
8.00287401574803
 20
3.485106299212598
 10
8.021417322834646
 20
3.480090551181102
 10
8.049956692913385
 20
3.473858267716535
 10
8.086547244094488
 20
3.468149606299213
 10
8.129259842519685
 20
3.464708661417323
 10
8.176153543307086
 20
3.465271653543307
 10
8.225291338582677
 20
3.471582677165354
 10
8.274732283464568
 20
3.485377952755905
 10
8.295393700787402
 20
3.493893700787401
 10
8.350291338582677
 20
3.516507874015748
 10
8.428787401574803
 20
3.548826771653543
 10
8.520259842519685
 20
3.586444881889764
 10
8.614074803149606
 20
3.624968503937008
 10
8.69959842519685
 20
3.660003937007874
 10
8.766196850393701
 20
3.687145669291338
 10
8.803248031496063
 20
3.701996062992126
 10
8.823023622047245
 20
3.710437007874016
 10
8.875476377952756
 20
3.732866141732283
 10
8.950303149606299
 20
3.764937007874016
 10
9.037192913385827
 20
3.802311023622047
 10
9.125838582677165
 20
3.840645669291339
 10
9.205933070866141
 20
3.875594488188976
 10
9.267169291338583
 20
3.902814960629921
 10
9.29923622047244
 20
3.917968503937008
 10
9.301838582677165
 20
3.919027559055118
 10
9.30846062992126
 20
3.922692913385827
 10
9.317318897637795
 20
3.929708661417323
 10
9.326625984251969
 20
3.940818897637795
 10
9.334594488188976
 20
3.956763779527559
 10
9.339448818897639
 20
3.978283464566929
 10
9.339397637795276
 20
4.006114173228347
 10
9.332661417322834
 20
4.041007874015748
  0
LWPOLYLINE
  5
70
330
1F
100
AcDbEntity
  8
Layer 1
 62
     7
370
    18
100
AcDbPolyline
 90
        4
 70
     1
 43
0.0
 10
6.933818897637796
 20
5.988952755905512
 10
6.906996062992126
 20
5.974090551181102
 10
6.933909448818897
 20
5.959393700787402
 10
6.933818897637796
 20
5.988952755905512
  0
LWPOLYLINE
  5
71
330
1F
100
AcDbEntity
  8
Layer 1
 62
     7
370
    18
100
AcDbPolyline
 90
        4
 70
     1
 43
0.0
 10
9.369086614173229
 20
5.996409448818897
 10
9.396
 20
5.981712598425196
 10
9.36917716535433
 20
5.966850393700788
 10
9.369086614173229
 20
5.996409448818897
  0
LWPOLYLINE
  5
72
330
1F
100
AcDbEntity
  8
Layer 1
 62
     7
370
    18
100
AcDbPolyline
 90
        2
 70
     0
 43
0.0
 10
6.898047244094488
 20
5.972488188976378
 10
9.40496062992126
 20
5.980165354330708
  0
LWPOLYLINE
  5
73
330
1F
100
AcDbEntity
  8
Layer 1
 62
     7
370
    18
100
AcDbPolyline
 90
        4
 70
     1
 43
0.0
 10
6.436476377952756
 20
5.357649606299213
 10
6.421681102362204
 20
5.384503937007874
 10
6.40692125984252
 20
5.357625984251968
 10
6.436476377952756
 20
5.357649606299213
  0
LWPOLYLINE
  5
74
330
1F
100
AcDbEntity
  8
Layer 1
 62
     7
370
    18
100
AcDbPolyline
 90
        4
 70
     1
 43
0.0
 10
6.437641732283464
 20
3.736295275590551
 10
6.422881889763779
 20
3.70942125984252
 10
6.408086614173229
 20
3.736275590551181
 10
6.437641732283464
 20
3.736295275590551
  0
LWPOLYLINE
  5
75
330
1F
100
AcDbEntity
  8
Layer 1
 62
     7
370
    18
100
AcDbPolyline
 90
        2
 70
     0
 43
0.0
 10
6.42009842519685
 20
5.39346062992126
 10
6.421314960629921
 20
3.700464566929134
  0
LWPOLYLINE
  5
76
330
1F
100
AcDbEntity
  8
Layer 1
 62
     7
370
     9
100
AcDbPolyline
 90
       65
 70
     1
 43
0.0
 10
5.57594094488189
 20
4.575834645669292
 10
5.580657480314961
 20
4.575618110236221
 10
5.585200787401575
 20
4.574964566929133
 10
5.589570866141733
 20
4.573874015748031
 10
5.593763779527559
 20
4.572350393700788
 10
5.59778346456693
 20
4.570389763779527
 10
5.601629921259843
 20
4.567996062992126
 10
5.605295275590551
 20
4.565169291338583
 10
5.608787401574803
 20
4.561905511811023
 10
5.611944881889764
 20
4.558377952755905
 10
5.614681102362205
 20
4.554685039370079
 10
5.616996062992126
 20
4.550822834645669
 10
5.618889763779528
 20
4.546795275590551
 10
5.620362204724409
 20
4.54259842519685
 10
5.621413385826772
 20
4.538236220472441
 10
5.622047244094488
 20
4.533708661417323
 10
5.622255905511811
 20
4.529011811023622
 10
5.622043307086614
 20
4.524425196850394
 10
5.621405511811024
 20
4.519992125984252
 10
5.620342519685039
 20
4.515720472440945
 10
5.618854330708661
 20
4.511606299212598
 10
5.61694094488189
 20
4.507645669291339
 10
5.61459842519685
 20
4.503846456692913
 10
5.611834645669291
 20
4.500208661417322
 10
5.608641732283465
 20
4.496724409448819
 10
5.605216535433071
 20
4.493598425196851
 10
5.601594488188977
 20
4.490889763779528
 10
5.597775590551181
 20
4.488598425196851
 10
5.593763779527559
 20
4.486724409448819
 10
5.58955905511811
 20
4.485267716535433
 10
5.585161417322834
 20
4.484224409448819
 10
5.580566929133858
 20
4.483602362204724
 10
5.575783464566929
 20
4.483393700787402
 10
5.571086614173228
 20
4.483610236220472
 10
5.566547244094489
 20
4.484251968503937
 10
5.562169291338583
 20
4.485326771653543
 10
5.557944881889764
 20
4.486834645669291
 10
5.55388188976378
 20
4.488767716535433
 10
5.549976377952756
 20
4.491133858267717
 10
5.546224409448819
 20
4.493933070866142
 10
5.542629921259842
 20
4.497161417322834
 10
5.539370078740157
 20
4.500657480314961
 10
5.536543307086614
 20
4.504318897637796
 10
5.534153543307086
 20
4.508157480314961
 10
5.532192913385827
 20
4.512165354330708
 10
5.530673228346457
 20
4.51634251968504
 10
5.529582677165354
 20
4.520692913385827
 10
5.528929133858267
 20
4.525216535433071
 10
5.528712598425197
 20
4.529909448818898
 10
5.528929133858267
 20
4.53457874015748
 10
5.529582677165354
 20
4.539066929133858
 10
5.530673228346457
 20
4.543374015748031
 10
5.532192913385827
 20
4.5475
 10
5.534153543307086
 20
4.551444881889764
 10
5.536543307086614
 20
4.555212598425197
 10
5.539370078740157
 20
4.558795275590551
 10
5.542629921259842
 20
4.5621968503937
 10
5.546011811023622
 20
4.565149606299213
 10
5.549657480314961
 20
4.567791338582677
 10
5.553562992125984
 20
4.570114173228347
 10
5.557728346456693
 20
4.572122047244094
 10
5.562082677165354
 20
4.573744094488189
 10
5.566570866141732
 20
4.574905511811024
 10
5.571188976377953
 20
4.575602362204725
 10
5.57594094488189
 20
4.575834645669292
  0
LWPOLYLINE
  5
77
330
1F
100
AcDbEntity
  8
Layer 1
 62
     7
370
     9
100
AcDbPolyline
 90
       61
 70
     1
 43
0.0
 10
5.643267716535433
 20
4.530496062992126
 10
5.642944881889764
 20
4.537625984251968
 10
5.641972440944881
 20
4.544437007874015
 10
5.640358267716535
 20
4.55092125984252
 10
5.638094488188976
 20
4.557082677165354
 10
5.635181102362205
 20
4.562921259842519
 10
5.631622047244094
 20
4.568437007874016
 10
5.627417322834646
 20
4.573629921259842
 10
5.622562992125984
 20
4.5785
 10
5.617594488188977
 20
4.58259842519685
 10
5.612279527559055
 20
4.586192913385827
 10
5.60661811023622
 20
4.589279527559055
 10
5.600610236220472
 20
4.591866141732283
 10
5.594255905511811
 20
4.593944881889763
 10
5.587555118110236
 20
4.59551968503937
 10
5.580511811023622
 20
4.596590551181102
 10
5.57311811023622
 20
4.59715748031496
 10
5.567192913385827
 20
4.593303149606299
 10
5.628767716535434
 20
4.667374015748032
 10
5.60153937007874
 20
4.667374015748032
 10
5.522799212598425
 20
4.572267716535433
 10
5.519259842519685
 20
4.567637795275591
 10
5.516192913385827
 20
4.562818897637795
 10
5.51359842519685
 20
4.557807086614173
 10
5.511476377952756
 20
4.552606299212599
 10
5.509830708661418
 20
4.547212598425197
 10
5.508653543307086
 20
4.541633858267716
 10
5.507948818897638
 20
4.535866141732283
 10
5.507712598425197
 20
4.529909448818898
 10
5.508023622047244
 20
4.523043307086614
 10
5.508948818897638
 20
4.516437007874016
 10
5.510496062992126
 20
4.51009842519685
 10
5.512661417322835
 20
4.50401968503937
 10
5.515444881889763
 20
4.498208661417323
 10
5.518850393700787
 20
4.492661417322835
 10
5.522874015748031
 20
4.487377952755906
 10
5.52751968503937
 20
4.482358267716536
 10
5.532645669291338
 20
4.477740157480315
 10
5.53801968503937
 20
4.473736220472441
 10
5.543641732283464
 20
4.470350393700787
 10
5.549511811023622
 20
4.467578740157481
 10
5.555633858267717
 20
4.46542125984252
 10
5.562003937007874
 20
4.46388188976378
 10
5.568622047244094
 20
4.462956692913385
 10
5.575492125984252
 20
4.462649606299212
 10
5.582456692913386
 20
4.462952755905512
 10
5.589141732283465
 20
4.463870078740158
 10
5.595551181102362
 20
4.465397637795276
 10
5.601681102362205
 20
4.467535433070866
 10
5.607535433070866
 20
4.470283464566929
 10
5.61311811023622
 20
4.473641732283465
 10
5.61842125984252
 20
4.477614173228346
 10
5.623448818897637
 20
4.482200787401575
 10
5.627791338582677
 20
4.48698031496063
 10
5.631653543307086
 20
4.492129921259843
 10
5.63503937007874
 20
4.497645669291338
 10
5.637952755905512
 20
4.503535433070867
 10
5.640275590551181
 20
4.509779527559055
 10
5.641937007874016
 20
4.516354330708661
 10
5.642933070866142
 20
4.523259842519685
 10
5.643267716535433
 20
4.530496062992126
  0
LWPOLYLINE
  5
78
330
1F
100
AcDbEntity
  8
Layer 1
 62
     7
370
     9
100
AcDbPolyline
 90
      113
 70
     1
 43
0.0
 10
5.756791338582677
 20
4.468125984251968
 10
5.762748031496063
 20
4.470964566929134
 10
5.768338582677165
 20
4.474279527559055
 10
5.773555118110236
 20
4.478074803149607
 10
5.778397637795275
 20
4.482358267716536
 10
5.783086614173229
 20
4.48732283464567
 10
5.787145669291339
 20
4.492570866141732
 10
5.790582677165355
 20
4.498098425196851
 10
5.793393700787401
 20
4.50390157480315
 10
5.79557874015748
 20
4.509988188976378
 10
5.797141732283465
 20
4.516350393700788
 10
5.79807874015748
 20
4.522992125984252
 10
5.798389763779528
 20
4.529909448818898
 10
5.798074803149606
 20
4.536826771653543
 10
5.797122047244095
 20
4.543476377952756
 10
5.79553937007874
 20
4.549858267716536
 10
5.793322834645669
 20
4.555976377952756
 10
5.790472440944882
 20
4.561826771653544
 10
5.786984251968504
 20
4.567405511811024
 10
5.78286220472441
 20
4.572716535433071
 10
5.778106299212598
 20
4.577755905511811
 10
5.773196850393701
 20
4.582110236220473
 10
5.767968503937007
 20
4.58594094488189
 10
5.762429133858268
 20
4.589255905511811
 10
5.756574803149606
 20
4.592055118110236
 10
5.750405511811024
 20
4.594330708661417
 10
5.743921259842519
 20
4.596086614173228
 10
5.737125984251969
 20
4.597326771653544
 10
5.730015748031496
 20
4.598047244094488
 10
5.721133858267716
 20
4.592720472440945
 10
5.784177165354331
 20
4.667374015748032
 10
5.675838582677166
 20
4.667374015748032
 10
5.675838582677166
 20
4.646633858267717
 10
5.742157480314961
 20
4.646633858267717
 10
5.681165354330709
 20
4.575543307086614
 10
5.696862204724409
 20
4.562791338582677
 10
5.7005
 20
4.566122047244095
 10
5.704299212598425
 20
4.569011811023622
 10
5.708263779527559
 20
4.571456692913386
 10
5.712397637795275
 20
4.573456692913386
 10
5.716696850393701
 20
4.575011811023622
 10
5.721161417322834
 20
4.576125984251968
 10
5.725795275590551
 20
4.576791338582678
 10
5.730598425196851
 20
4.577015748031496
 10
5.735393700787402
 20
4.576799212598425
 10
5.740007874015748
 20
4.576153543307087
 10
5.74444094488189
 20
4.575074803149606
 10
5.748692913385827
 20
4.573566929133858
 10
5.752763779527559
 20
4.571629921259842
 10
5.756657480314961
 20
4.569259842519685
 10
5.760366141732283
 20
4.56646062992126
 10
5.763897637795275
 20
4.563232283464567
 10
5.767125984251969
 20
4.559704724409449
 10
5.76992125984252
 20
4.556003937007874
 10
5.772287401574803
 20
4.552133858267717
 10
5.774220472440945
 20
4.548090551181103
 10
5.775724409448819
 20
4.543877952755905
 10
5.776799212598426
 20
4.539492125984252
 10
5.777444881889764
 20
4.534937007874015
 10
5.777657480314961
 20
4.530204724409449
 10
5.777437007874016
 20
4.525574803149606
 10
5.776779527559055
 20
4.521106299212598
 10
5.775685039370079
 20
4.516799212598425
 10
5.774149606299213
 20
4.512645669291339
 10
5.772173228346457
 20
4.508653543307086
 10
5.769759842519685
 20
4.504814960629921
 10
5.76690157480315
 20
4.50113779527559
 10
5.763606299212598
 20
4.497614173228347
 10
5.760283464566929
 20
4.494661417322835
 10
5.756685039370079
 20
4.49201968503937
 10
5.752811023622047
 20
4.489696850393701
 10
5.748653543307086
 20
4.487685039370079
 10
5.744133858267716
 20
4.486066929133858
 10
5.739181102362204
 20
4.484909448818898
 10
5.733783464566929
 20
4.484220472440945
 10
5.727944881889764
 20
4.483988188976378
 10
5.724905511811023
 20
4.484114173228346
 10
5.721870078740158
 20
4.484496062992126
 10
5.718834645669292
 20
4.485129921259842
 10
5.715799212598426
 20
4.48601968503937
 10
5.712767716535433
 20
4.487165354330709
 10
5.709736220472441
 20
4.488566929133858
 10
5.706704724409449
 20
4.490224409448819
 10
5.703673228346457
 20
4.492137795275591
 10
5.700748031496063
 20
4.494259842519685
 10
5.698043307086614
 20
4.496562992125984
 10
5.695562992125984
 20
4.499051181102362
 10
5.693307086614174
 20
4.501720472440945
 10
5.691271653543307
 20
4.504570866141732
 10
5.689456692913386
 20
4.507602362204724
 10
5.687866141732283
 20
4.510814960629921
 10
5.686496062992126
 20
4.514204724409449
 10
5.666374015748032
 20
4.507393700787402
 10
5.66828346456693
 20
4.50255905511811
 10
5.67053937007874
 20
4.49796062992126
 10
5.673141732283464
 20
4.493594488188976
 10
5.676098425196851
 20
4.48946062992126
 10
5.679397637795276
 20
4.48555905511811
 10
5.683047244094488
 20
4.481885826771654
 10
5.687043307086614
 20
4.478448818897638
 10
5.691385826771653
 20
4.475240157480315
 10
5.695700787401575
 20
4.472507874015748
 10
5.700220472440945
 20
4.470090551181102
 10
5.704948818897638
 20
4.467988188976378
 10
5.709877952755906
 20
4.466204724409449
 10
5.715051181102362
 20
4.464779527559055
 10
5.7205
 20
4.463759842519685
 10
5.726224409448819
 20
4.463145669291339
 10
5.732228346456693
 20
4.46294094488189
 10
5.738370078740157
 20
4.463263779527559
 10
5.744511811023622
 20
4.464236220472441
 10
5.750649606299213
 20
4.465858267716535
 10
5.756791338582677
 20
4.468125984251968
  0
LWPOLYLINE
  5
79
330
1F
100
AcDbEntity
  8
Layer 1
 62
     7
370
     9
100
AcDbPolyline
 90
      107
 70
     1
 43
0.0
 10
5.992586614173228
 20
4.466496062992126
 10
6.013318897637795
 20
4.466496062992126
 10
6.013318897637795
 20
4.547976377952756
 10
6.013149606299213
 20
4.553385826771653
 10
6.012641732283464
 20
4.558543307086614
 10
6.011795275590551
 20
4.563444881889763
 10
6.010610236220472
 20
4.568090551181102
 10
6.009086614173229
 20
4.572484251968504
 10
6.007224409448819
 20
4.576622047244094
 10
6.005023622047244
 20
4.580503937007874
 10
6.002488188976378
 20
4.584129921259843
 10
5.999578740157481
 20
4.587503937007874
 10
5.996314960629921
 20
4.590531496062992
 10
5.992700787401575
 20
4.593204724409449
 10
5.988728346456693
 20
4.595527559055118
 10
5.984255905511811
 20
4.597409448818897
 10
5.979114173228346
 20
4.598755905511811
 10
5.973307086614173
 20
4.599562992125985
 10
5.966830708661417
 20
4.599834645669291
 10
5.963476377952756
 20
4.599716535433071
 10
5.960228346456693
 20
4.599370078740158
 10
5.957090551181103
 20
4.598787401574803
 10
5.954062992125984
 20
4.597976377952756
 10
5.95113779527559
 20
4.596933070866141
 10
5.948322834645669
 20
4.59565748031496
 10
5.945610236220473
 20
4.594149606299212
 10
5.943007874015748
 20
4.592413385826772
 10
5.93857874015748
 20
4.588826771653543
 10
5.934566929133858
 20
4.584728346456693
 10
5.93096062992126
 20
4.580129921259842
 10
5.927763779527559
 20
4.575043307086614
 10
5.922275590551181
 20
4.584129921259843
 10
5.919362204724409
 20
4.587503937007874
 10
5.916094488188977
 20
4.590531496062992
 10
5.912472440944882
 20
4.593204724409449
 10
5.908503937007874
 20
4.595527559055118
 10
5.904035433070866
 20
4.597409448818897
 10
5.898897637795276
 20
4.598755905511811
 10
5.893086614173228
 20
4.599562992125985
 10
5.886606299212598
 20
4.599834645669291
 10
5.883255905511811
 20
4.599716535433071
 10
5.880015748031496
 20
4.599370078740158
 10
5.876877952755906
 20
4.598787401574803
 10
5.873846456692913
 20
4.597976377952756
 10
5.870925196850393
 20
4.596933070866141
 10
5.868106299212599
 20
4.59565748031496
 10
5.865389763779527
 20
4.594149606299212
 10
5.862783464566929
 20
4.592413385826772
 10
5.858559055118111
 20
4.589011811023622
 10
5.854708661417323
 20
4.585153543307086
 10
5.851232283464567
 20
4.580838582677165
 10
5.848122047244095
 20
4.576066929133859
 10
5.848122047244095
 20
4.596854330708662
 10
5.827417322834646
 20
4.596854330708662
 10
5.827417322834646
 20
4.466496062992126
 10
5.848122047244095
 20
4.466496062992126
 10
5.848122047244095
 20
4.533220472440945
 10
5.849232283464567
 20
4.540842519685039
 10
5.850933070866142
 20
4.547862204724409
 10
5.853232283464567
 20
4.554287401574803
 10
5.856129921259843
 20
4.560129921259843
 10
5.858692913385827
 20
4.564090551181103
 10
5.861673228346457
 20
4.567681102362204
 10
5.865059055118111
 20
4.570897637795276
 10
5.868854330708661
 20
4.573740157480315
 10
5.87292125984252
 20
4.57607874015748
 10
5.877137795275591
 20
4.577748031496063
 10
5.881503937007874
 20
4.578748031496063
 10
5.88601968503937
 20
4.579082677165355
 10
5.890311023622047
 20
4.578909448818898
 10
5.894011811023622
 20
4.578385826771654
 10
5.897122047244094
 20
4.577507874015748
 10
5.899633858267716
 20
4.576271653543307
 10
5.902614173228346
 20
4.574062992125985
 10
5.905200787401575
 20
4.571472440944881
 10
5.907389763779528
 20
4.568503937007874
 10
5.909177165354331
 20
4.56515748031496
 10
5.910570866141732
 20
4.561433070866141
 10
5.911566929133858
 20
4.557326771653543
 10
5.912161417322834
 20
4.552842519685039
 10
5.91236220472441
 20
4.547976377952756
 10
5.91236220472441
 20
4.466496062992126
 10
5.93307874015748
 20
4.466496062992126
 10
5.93307874015748
 20
4.547976377952756
 10
5.932933070866142
 20
4.552964566929134
 10
5.93634251968504
 20
4.560129921259843
 10
5.938909448818897
 20
4.564090551181103
 10
5.941889763779527
 20
4.567681102362204
 10
5.945279527559055
 20
4.570897637795276
 10
5.94907874015748
 20
4.573740157480315
 10
5.953141732283465
 20
4.57607874015748
 10
5.957358267716535
 20
4.577748031496063
 10
5.961724409448819
 20
4.578748031496063
 10
5.966244094488189
 20
4.579082677165355
 10
5.970531496062992
 20
4.578909448818898
 10
5.974228346456693
 20
4.578385826771654
 10
5.977334645669291
 20
4.577507874015748
 10
5.979846456692913
 20
4.576271653543307
 10
5.982826771653543
 20
4.574062992125985
 10
5.985413385826772
 20
4.571472440944881
 10
5.987602362204725
 20
4.568503937007874
 10
5.989397637795276
 20
4.56515748031496
 10
5.990791338582677
 20
4.561433070866141
 10
5.991787401574803
 20
4.557326771653543
 10
5.992385826771653
 20
4.552842519685039
 10
5.992586614173228
 20
4.547976377952756
 10
5.992586614173228
 20
4.466496062992126
  0
LWPOLYLINE
  5
7A
330
1F
100
AcDbEntity
  8
Layer 1
 62
     7
370
     9
100
AcDbPolyline
 90
      107
 70
     1
 43
0.0
 10
6.218440944881889
 20
4.466496062992126
 10
6.239173228346456
 20
4.466496062992126
 10
6.239173228346456
 20
4.547976377952756
 10
6.239003937007874
 20
4.553385826771653
 10
6.238496062992126
 20
4.558543307086614
 10
6.237649606299213
 20
4.563444881889763
 10
6.236464566929134
 20
4.568090551181102
 10
6.234944881889763
 20
4.572484251968504
 10
6.233082677165354
 20
4.576622047244094
 10
6.230885826771654
 20
4.580503937007874
 10
6.228354330708662
 20
4.584129921259843
 10
6.225444881889763
 20
4.587503937007874
 10
6.222181102362205
 20
4.590531496062992
 10
6.218566929133858
 20
4.593204724409449
 10
6.214594488188976
 20
4.595527559055118
 10
6.210118110236221
 20
4.597409448818897
 10
6.204976377952756
 20
4.598755905511811
 10
6.199169291338583
 20
4.599562992125985
 10
6.192696850393701
 20
4.599834645669291
 10
6.18934251968504
 20
4.599716535433071
 10
6.186094488188976
 20
4.599370078740158
 10
6.182956692913386
 20
4.598787401574803
 10
6.179925196850394
 20
4.597976377952756
 10
6.177
 20
4.596933070866141
 10
6.174185039370078
 20
4.59565748031496
 10
6.171468503937008
 20
4.594149606299212
 10
6.16886220472441
 20
4.592413385826772
 10
6.16444094488189
 20
4.588826771653543
 10
6.160425196850394
 20
4.584728346456693
 10
6.156814960629921
 20
4.580129921259842
 10
6.153618110236221
 20
4.575043307086614
 10
6.148129921259843
 20
4.584129921259843
 10
6.145220472440945
 20
4.587503937007874
 10
6.141956692913386
 20
4.590531496062992
 10
6.138338582677165
 20
4.593204724409449
 10
6.134370078740157
 20
4.595527559055118
 10
6.129897637795276
 20
4.597409448818897
 10
6.124755905511811
 20
4.598755905511811
 10
6.118948818897638
 20
4.599562992125985
 10
6.112472440944882
 20
4.599834645669291
 10
6.109118110236221
 20
4.599716535433071
 10
6.105874015748031
 20
4.599370078740158
 10
6.102736220472441
 20
4.598787401574803
 10
6.099708661417323
 20
4.597976377952756
 10
6.096783464566929
 20
4.596933070866141
 10
6.093968503937008
 20
4.59565748031496
 10
6.091255905511811
 20
4.594149606299212
 10
6.088649606299213
 20
4.592413385826772
 10
6.084425196850393
 20
4.589011811023622
 10
6.080574803149606
 20
4.585153543307086
 10
6.077098425196851
 20
4.580838582677165
 10
6.073988188976378
 20
4.576066929133859
 10
6.073988188976378
 20
4.596854330708662
 10
6.053271653543307
 20
4.596854330708662
 10
6.053271653543307
 20
4.466496062992126
 10
6.073988188976378
 20
4.466496062992126
 10
6.073988188976378
 20
4.533220472440945
 10
6.075098425196851
 20
4.540842519685039
 10
6.076799212598425
 20
4.547862204724409
 10
6.079094488188977
 20
4.554287401574803
 10
6.081984251968504
 20
4.560129921259843
 10
6.084551181102362
 20
4.564090551181103
 10
6.087531496062992
 20
4.567681102362204
 10
6.09092125984252
 20
4.570897637795276
 10
6.094720472440945
 20
4.573740157480315
 10
6.098787401574803
 20
4.57607874015748
 10
6.103003937007874
 20
4.577748031496063
 10
6.107374015748031
 20
4.578748031496063
 10
6.111889763779527
 20
4.579082677165355
 10
6.116177165354331
 20
4.578909448818898
 10
6.119870078740157
 20
4.578385826771654
 10
6.122976377952756
 20
4.577507874015748
 10
6.125488188976378
 20
4.576271653543307
 10
6.128472440944882
 20
4.574062992125985
 10
6.131062992125984
 20
4.571472440944881
 10
6.133251968503937
 20
4.568503937007874
 10
6.135043307086614
 20
4.56515748031496
 10
6.136437007874016
 20
4.561433070866141
 10
6.137433070866142
 20
4.557326771653543
 10
6.138027559055118
 20
4.552842519685039
 10
6.138228346456693
 20
4.547976377952756
 10
6.138228346456693
 20
4.466496062992126
 10
6.158933070866142
 20
4.466496062992126
 10
6.158933070866142
 20
4.547976377952756
 10
6.158799212598425
 20
4.552964566929134
 10
6.162208661417323
 20
4.560129921259843
 10
6.164775590551181
 20
4.564090551181103
 10
6.167755905511811
 20
4.567681102362204
 10
6.171141732283465
 20
4.570897637795276
 10
6.174933070866142
 20
4.573740157480315
 10
6.179
 20
4.57607874015748
 10
6.183216535433071
 20
4.577748031496063
 10
6.187590551181103
 20
4.578748031496063
 10
6.192114173228346
 20
4.579082677165355
 10
6.196397637795275
 20
4.578909448818898
 10
6.200094488188976
 20
4.578385826771654
 10
6.203200787401575
 20
4.577507874015748
 10
6.205712598425197
 20
4.576271653543307
 10
6.208692913385827
 20
4.574062992125985
 10
6.211279527559055
 20
4.571472440944881
 10
6.213468503937007
 20
4.568503937007874
 10
6.215255905511811
 20
4.56515748031496
 10
6.216649606299213
 20
4.561433070866141
 10
6.217645669291339
 20
4.557326771653543
 10
6.218240157480315
 20
4.552842519685039
 10
6.218440944881889
 20
4.547976377952756
 10
6.218440944881889
 20
4.466496062992126
  0
LWPOLYLINE
  5
7B
330
1F
100
AcDbEntity
  8
Layer 1
 62
     7
370
     9
100
AcDbPolyline
 90
        7
 70
     1
 43
0.0
 10
7.831830708661418
 20
6.151566929133859
 10
7.852535433070866
 20
6.151566929133859
 10
7.852535433070866
 20
6.355393700787402
 10
7.802803149606299
 20
6.350074803149607
 10
7.802803149606299
 20
6.332
 10
7.831830708661418
 20
6.332
 10
7.831830708661418
 20
6.151566929133859
  0
LWPOLYLINE
  5
7C
330
1F
100
AcDbEntity
  8
Layer 1
 62
     7
370
     9
100
AcDbPolyline
 90
       70
 70
     1
 43
0.0
 10
7.971984251968504
 20
6.329625984251969
 10
7.975397637795275
 20
6.327303149606299
 10
7.978582677165354
 20
6.324661417322835
 10
7.981535433070866
 20
6.321708661417323
 10
7.984259842519685
 20
6.31844094488189
 10
7.986755905511811
 20
6.31486220472441
 10
7.98901968503937
 20
6.310964566929134
 10
7.991051181102362
 20
6.306755905511811
 10
7.992850393700787
 20
6.302232283464567
 10
7.994866141732284
 20
6.296220472440945
 10
7.996610236220472
 20
6.290125984251969
 10
7.998086614173229
 20
6.283940944881889
 10
7.999295275590551
 20
6.277669291338583
 10
8.000236220472441
 20
6.271311023622047
 10
8.000905511811023
 20
6.264866141732283
 10
8.001307086614172
 20
6.258330708661417
 10
8.00144094488189
 20
6.251708661417323
 10
8.00053937007874
 20
6.23703937007874
 10
7.999511811023622
 20
6.229078740157481
 10
7.998173228346457
 20
6.221555118110237
 10
7.996515748031496
 20
6.214468503937008
 10
7.994551181102362
 20
6.207822834645669
 10
7.992267716535433
 20
6.201618110236221
 10
7.989669291338583
 20
6.195850393700788
 10
7.986759842519685
 20
6.190523622047244
 10
7.983531496062992
 20
6.185641732283464
 10
7.980578740157481
 20
6.181964566929134
 10
7.977472440944882
 20
6.178775590551181
 10
7.974208661417323
 20
6.176074803149606
 10
7.970791338582677
 20
6.173866141732283
 10
7.967212598425196
 20
6.172149606299213
 10
7.963484251968504
 20
6.17092125984252
 10
7.959594488188976
 20
6.170181102362204
 10
7.955547244094488
 20
6.169937007874016
 10
7.951035433070866
 20
6.170181102362204
 10
7.946740157480315
 20
6.170909448818898
 10
7.942657480314961
 20
6.172122047244095
 10
7.938795275590551
 20
6.173822834645669
 10
7.935145669291338
 20
6.176007874015748
 10
7.931716535433071
 20
6.178681102362205
 10
7.9285
 20
6.181838582677165
 10
7.9255
 20
6.185484251968504
 10
7.92301968503937
 20
6.189086614173228
 10
7.920763779527559
 20
6.19290157480315
 10
7.918732283464567
 20
6.196937007874015
 10
7.916921259842519
 20
6.201188976377953
 10
7.911740157480315
 20
6.21911811023622
 10
7.909220472440945
 20
6.236905511811024
 10
7.908488188976378
 20
6.256696850393701
 10
7.908692913385827
 20
6.262622047244094
 10
7.909299212598425
 20
6.269220472440945
 10
7.910314960629921
 20
6.276492125984252
 10
7.911740157480315
 20
6.284444881889764
 10
7.916775590551181
 20
6.302366141732284
 10
7.91851968503937
 20
6.306704724409449
 10
7.920507874015748
 20
6.310818897637795
 10
7.922736220472441
 20
6.314704724409449
 10
7.925204724409449
 20
6.318374015748032
 10
7.927925196850394
 20
6.321755905511811
 10
7.930909448818897
 20
6.324779527559055
 10
7.934145669291339
 20
6.327452755905512
 10
7.937641732283464
 20
6.329771653543308
 10
7.941437007874016
 20
6.331649606299212
 10
7.94555905511811
 20
6.332996062992126
 10
7.95001968503937
 20
6.333807086614173
 10
7.954818897637796
 20
6.33407874015748
 10
7.959606299212599
 20
6.333799212598425
 10
7.964062992125984
 20
6.33296062992126
 10
7.968188976377952
 20
6.331570866141733
 10
7.971984251968504
 20
6.329625984251969
  0
LWPOLYLINE
  5
7D
330
1F
100
AcDbEntity
  8
Layer 1
 62
     7
370
     9
100
AcDbPolyline
 90
       65
 70
     1
 43
0.0
 10
7.95584251968504
 20
6.148901574803149
 10
7.964484251968504
 20
6.149448818897638
 10
7.972578740157481
 20
6.151094488188976
 10
7.980122047244095
 20
6.153838582677166
 10
7.987110236220472
 20
6.157681102362205
 10
7.993551181102363
 20
6.16261811023622
 10
7.99944094488189
 20
6.168653543307086
 10
8.004779527559055
 20
6.175783464566929
 10
8.00956692913386
 20
6.184011811023622
 10
8.012933070866142
 20
6.191188976377953
 10
8.015850393700788
 20
6.198767716535433
 10
8.01832283464567
 20
6.206740157480315
 10
8.02034251968504
 20
6.215118110236221
 10
8.021913385826771
 20
6.223889763779527
 10
8.02303937007874
 20
6.233062992125984
 10
8.023712598425197
 20
6.24263779527559
 10
8.023937007874016
 20
6.252610236220472
 10
8.023712598425197
 20
6.262570866141732
 10
8.02303937007874
 20
6.27213779527559
 10
8.021913385826771
 20
6.281303149606299
 10
8.02034251968504
 20
6.290074803149606
 10
8.01832283464567
 20
6.298448818897638
 10
8.015850393700788
 20
6.306425196850394
 10
8.012933070866142
 20
6.314003937007874
 10
8.00956692913386
 20
6.321185039370079
 10
8.004779527559055
 20
6.329413385826772
 10
7.99944094488189
 20
6.336543307086614
 10
7.993551181102363
 20
6.342578740157481
 10
7.987110236220472
 20
6.347515748031496
 10
7.980122047244095
 20
6.351354330708661
 10
7.972578740157481
 20
6.354098425196851
 10
7.964484251968504
 20
6.355744094488189
 10
7.95584251968504
 20
6.356291338582677
 10
7.947200787401575
 20
6.355744094488189
 10
7.939110236220473
 20
6.354098425196851
 10
7.931570866141732
 20
6.351354330708661
 10
7.924578740157481
 20
6.347515748031496
 10
7.918137795275591
 20
6.342578740157481
 10
7.912248031496063
 20
6.336543307086614
 10
7.906905511811024
 20
6.329413385826772
 10
7.902114173228346
 20
6.321185039370079
 10
7.898751968503937
 20
6.314003937007874
 10
7.895838582677166
 20
6.306425196850394
 10
7.893370078740158
 20
6.298448818897638
 10
7.891350393700788
 20
6.290074803149606
 10
7.889779527559055
 20
6.281303149606299
 10
7.888657480314961
 20
6.27213779527559
 10
7.887984251968504
 20
6.262570866141732
 10
7.887759842519685
 20
6.252610236220472
 10
7.887984251968504
 20
6.24263779527559
 10
7.888657480314961
 20
6.233062992125984
 10
7.889779527559055
 20
6.223889763779527
 10
7.891350393700788
 20
6.215118110236221
 10
7.893370078740158
 20
6.206740157480315
 10
7.895838582677166
 20
6.198767716535433
 10
7.898751968503937
 20
6.191188976377953
 10
7.902114173228346
 20
6.184011811023622
 10
7.906905511811024
 20
6.175783464566929
 10
7.912248031496063
 20
6.168653543307086
 10
7.918137795275591
 20
6.16261811023622
 10
7.924578740157481
 20
6.157681102362205
 10
7.931570866141732
 20
6.153838582677166
 10
7.939110236220473
 20
6.151094488188976
 10
7.947200787401575
 20
6.149448818897638
 10
7.95584251968504
 20
6.148901574803149
  0
LWPOLYLINE
  5
7E
330
1F
100
AcDbEntity
  8
Layer 1
 62
     7
370
     9
100
AcDbPolyline
 90
       65
 70
     1
 43
0.0
 10
8.114964566929133
 20
6.261492125984252
 10
8.119681102362204
 20
6.261275590551181
 10
8.12422440944882
 20
6.260622047244095
 10
8.128594488188977
 20
6.259531496062992
 10
8.132791338582678
 20
6.258007874015748
 10
8.136811023622048
 20
6.256047244094488
 10
8.14065748031496
 20
6.253653543307086
 10
8.144326771653544
 20
6.250826771653544
 10
8.14782283464567
 20
6.247562992125984
 10
8.15098031496063
 20
6.244035433070867
 10
8.153716535433071
 20
6.240342519685039
 10
8.156031496062992
 20
6.23648031496063
 10
8.157925196850394
 20
6.232452755905512
 10
8.159397637795276
 20
6.228255905511811
 10
8.160448818897638
 20
6.223893700787402
 10
8.161082677165354
 20
6.219362204724409
 10
8.161291338582677
 20
6.214665354330709
 10
8.16107874015748
 20
6.21007874015748
 10
8.16044094488189
 20
6.205649606299213
 10
8.159374015748032
 20
6.20138188976378
 10
8.157881889763779
 20
6.197267716535433
 10
8.155964566929134
 20
6.193311023622047
 10
8.153625984251969
 20
6.189515748031496
 10
8.150858267716535
 20
6.185874015748031
 10
8.147665354330709
 20
6.182393700787402
 10
8.144236220472441
 20
6.179263779527559
 10
8.140614173228347
 20
6.176551181102362
 10
8.136799212598426
 20
6.174255905511811
 10
8.132787401574802
 20
6.17238188976378
 10
8.128582677165355
 20
6.17092125984252
 10
8.12418503937008
 20
6.169881889763779
 10
8.119590551181103
 20
6.169255905511811
 10
8.114807086614173
 20
6.169047244094489
 10
8.110114173228347
 20
6.169263779527559
 10
8.105574803149606
 20
6.169909448818897
 10
8.1011968503937
 20
6.170984251968504
 10
8.096972440944882
 20
6.172492125984252
 10
8.092909448818897
 20
6.174429133858268
 10
8.089
 20
6.176795275590552
 10
8.085248031496063
 20
6.179594488188976
 10
8.081653543307086
 20
6.182818897637795
 10
8.078393700787402
 20
6.186311023622047
 10
8.075566929133858
 20
6.189976377952756
 10
8.073173228346457
 20
6.193814960629921
 10
8.07121653543307
 20
6.197822834645669
 10
8.069692913385827
 20
6.202003937007874
 10
8.068602362204725
 20
6.206354330708661
 10
8.067948818897637
 20
6.210874015748032
 10
8.067732283464567
 20
6.215566929133859
 10
8.067948818897637
 20
6.220236220472441
 10
8.068602362204725
 20
6.224724409448819
 10
8.069692913385827
 20
6.229031496062992
 10
8.07121653543307
 20
6.233157480314961
 10
8.073173228346457
 20
6.237102362204724
 10
8.075566929133858
 20
6.240866141732283
 10
8.078393700787402
 20
6.244452755905511
 10
8.081653543307086
 20
6.247854330708662
 10
8.08503937007874
 20
6.250807086614174
 10
8.088688976377952
 20
6.253448818897637
 10
8.092594488188976
 20
6.255775590551181
 10
8.096763779527558
 20
6.257791338582678
 10
8.101110236220473
 20
6.259405511811024
 10
8.105594488188977
 20
6.260562992125984
 10
8.110212598425196
 20
6.261259842519685
 10
8.114964566929133
 20
6.261492125984252
  0
LWPOLYLINE
  5
7F
330
1F
100
AcDbEntity
  8
Layer 1
 62
     7
370
     9
100
AcDbPolyline
 90
       61
 70
     1
 43
0.0
 10
8.182291338582678
 20
6.216149606299212
 10
8.181968503937007
 20
6.223287401574803
 10
8.180996062992126
 20
6.230094488188977
 10
8.17938188976378
 20
6.236582677165354
 10
8.17711811023622
 20
6.242744094488189
 10
8.17420472440945
 20
6.24857874015748
 10
8.17064566929134
 20
6.254094488188977
 10
8.166437007874016
 20
6.259283464566929
 10
8.161582677165354
 20
6.264153543307087
 10
8.156614173228347
 20
6.268251968503937
 10
8.151299212598426
 20
6.271846456692914
 10
8.14563779527559
 20
6.274937007874016
 10
8.139633858267716
 20
6.277523622047244
 10
8.133279527559056
 20
6.279606299212598
 10
8.12657874015748
 20
6.281181102362205
 10
8.119531496062992
 20
6.282255905511811
 10
8.112141732283465
 20
6.282826771653543
 10
8.10621653543307
 20
6.278972440944882
 10
8.167787401574802
 20
6.353031496062992
 10
8.140562992125984
 20
6.353031496062992
 10
8.06182283464567
 20
6.257925196850394
 10
8.058283464566928
 20
6.253295275590551
 10
8.055220472440945
 20
6.248472440944882
 10
8.052625984251968
 20
6.24346062992126
 10
8.050507874015748
 20
6.238259842519685
 10
8.048858267716536
 20
6.232870078740158
 10
8.047677165354331
 20
6.227291338582678
 10
8.046972440944883
 20
6.221523622047244
 10
8.046736220472441
 20
6.215566929133859
 10
8.047047244094488
 20
6.208700787401574
 10
8.047976377952756
 20
6.202094488188976
 10
8.049523622047245
 20
6.195755905511811
 10
8.051692913385827
 20
6.189677165354331
 10
8.054476377952756
 20
6.183866141732284
 10
8.057885826771653
 20
6.178318897637795
 10
8.061909448818898
 20
6.173035433070866
 10
8.066555118110236
 20
6.168015748031496
 10
8.071681102362204
 20
6.163397637795276
 10
8.077051181102362
 20
6.159393700787402
 10
8.082673228346456
 20
6.156011811023622
 10
8.08853937007874
 20
6.153240157480315
 10
8.094657480314961
 20
6.151086614173228
 10
8.101027559055119
 20
6.149547244094488
 10
8.107641732283465
 20
6.148625984251969
 10
8.114511811023622
 20
6.148318897637795
 10
8.121476377952757
 20
6.148622047244094
 10
8.128165354330708
 20
6.14953937007874
 10
8.134574803149606
 20
6.151066929133858
 10
8.14070472440945
 20
6.153200787401575
 10
8.14655905511811
 20
6.155948818897638
 10
8.152141732283464
 20
6.159307086614173
 10
8.157444881889763
 20
6.163275590551181
 10
8.162472440944882
 20
6.167858267716535
 10
8.166814960629921
 20
6.172641732283465
 10
8.170681102362204
 20
6.177791338582677
 10
8.174070866141733
 20
6.183307086614173
 10
8.176976377952755
 20
6.189192913385827
 10
8.1793031496063
 20
6.195437007874016
 10
8.180964566929134
 20
6.202011811023622
 10
8.18196062992126
 20
6.208917322834646
 10
8.182291338582678
 20
6.216149606299212
  0
LWPOLYLINE
  5
80
330
1F
100
AcDbEntity
  8
Layer 1
 62
     7
370
     9
100
AcDbPolyline
 90
      107
 70
     1
 43
0.0
 10
8.377669291338583
 20
6.152149606299212
 10
8.398401574803149
 20
6.152149606299212
 10
8.398401574803149
 20
6.233633858267717
 10
8.398232283464568
 20
6.239043307086614
 10
8.397724409448818
 20
6.244200787401574
 10
8.396877952755906
 20
6.249102362204725
 10
8.395692913385826
 20
6.253748031496063
 10
8.394173228346457
 20
6.258141732283464
 10
8.392311023622048
 20
6.262279527559055
 10
8.390114173228346
 20
6.266161417322834
 10
8.387582677165355
 20
6.269787401574803
 10
8.384673228346458
 20
6.273161417322835
 10
8.381409448818898
 20
6.276188976377953
 10
8.377795275590552
 20
6.278862204724409
 10
8.373822834645669
 20
6.281185039370079
 10
8.369346456692913
 20
6.283062992125984
 10
8.364204724409449
 20
6.284409448818898
 10
8.358393700787401
 20
6.285220472440945
 10
8.351913385826771
 20
6.285492125984252
 10
8.348562992125984
 20
6.285374015748031
 10
8.34532283464567
 20
6.285027559055118
 10
8.34218503937008
 20
6.284444881889764
 10
8.339153543307086
 20
6.283633858267716
 10
8.336232283464566
 20
6.282590551181102
 10
8.333413385826772
 20
6.281314960629921
 10
8.3306968503937
 20
6.279807086614174
 10
8.328090551181102
 20
6.278070866141732
 10
8.323661417322835
 20
6.27448031496063
 10
8.319649606299212
 20
6.270385826771654
 10
8.316043307086614
 20
6.265787401574803
 10
8.312846456692913
 20
6.260700787401575
 10
8.30736220472441
 20
6.269787401574803
 10
8.304448818897638
 20
6.273161417322835
 10
8.301181102362206
 20
6.276188976377953
 10
8.297566929133858
 20
6.278862204724409
 10
8.29359842519685
 20
6.281185039370079
 10
8.28912598425197
 20
6.283062992125984
 10
8.283988188976378
 20
6.284409448818898
 10
8.278181102362204
 20
6.285220472440945
 10
8.271700787401574
 20
6.285492125984252
 10
8.268346456692914
 20
6.285374015748031
 10
8.265102362204724
 20
6.285027559055118
 10
8.261964566929134
 20
6.284444881889764
 10
8.258933070866142
 20
6.283633858267716
 10
8.256007874015747
 20
6.282590551181102
 10
8.253188976377952
 20
6.281314960629921
 10
8.250472440944883
 20
6.279807086614174
 10
8.247866141732283
 20
6.278070866141732
 10
8.243649606299213
 20
6.274669291338583
 10
8.239807086614173
 20
6.270811023622048
 10
8.236330708661418
 20
6.2665
 10
8.233220472440944
 20
6.261732283464567
 10
8.233220472440944
 20
6.282511811023622
 10
8.2125
 20
6.282511811023622
 10
8.2125
 20
6.152149606299212
 10
8.233220472440944
 20
6.152149606299212
 10
8.233220472440944
 20
6.218877952755905
 10
8.234326771653544
 20
6.2265
 10
8.236031496062992
 20
6.23351968503937
 10
8.23832283464567
 20
6.23994094488189
 10
8.241212598425196
 20
6.245783464566929
 10
8.243779527559056
 20
6.249744094488189
 10
8.246759842519685
 20
6.253334645669291
 10
8.250149606299212
 20
6.25655905511811
 10
8.253948818897637
 20
6.259409448818897
 10
8.258011811023621
 20
6.261748031496063
 10
8.262228346456693
 20
6.263413385826771
 10
8.266594488188977
 20
6.264409448818897
 10
8.27111811023622
 20
6.264740157480315
 10
8.275405511811023
 20
6.264566929133858
 10
8.279102362204725
 20
6.264043307086614
 10
8.282204724409448
 20
6.263169291338583
 10
8.284720472440945
 20
6.26194094488189
 10
8.287700787401574
 20
6.259728346456693
 10
8.290287401574803
 20
6.25713779527559
 10
8.292476377952756
 20
6.254169291338583
 10
8.294267716535433
 20
6.250818897637795
 10
8.295661417322835
 20
6.247090551181103
 10
8.29665748031496
 20
6.242984251968504
 10
8.297255905511811
 20
6.2385
 10
8.297456692913386
 20
6.233633858267717
 10
8.297456692913386
 20
6.152149606299212
 10
8.31816535433071
 20
6.152149606299212
 10
8.31816535433071
 20
6.233633858267717
 10
8.318031496062993
 20
6.238622047244094
 10
8.321437007874016
 20
6.245783464566929
 10
8.324003937007873
 20
6.249744094488189
 10
8.326984251968504
 20
6.253334645669291
 10
8.330370078740158
 20
6.25655905511811
 10
8.334161417322834
 20
6.259409448818897
 10
8.338228346456694
 20
6.261748031496063
 10
8.342444881889763
 20
6.263413385826771
 10
8.34681496062992
 20
6.264409448818897
 10
8.351330708661417
 20
6.264740157480315
 10
8.35561811023622
 20
6.264566929133858
 10
8.359318897637795
 20
6.264043307086614
 10
8.362429133858267
 20
6.263169291338583
 10
8.364944881889764
 20
6.26194094488189
 10
8.367925196850393
 20
6.259728346456693
 10
8.370507874015749
 20
6.25713779527559
 10
8.372696850393702
 20
6.254169291338583
 10
8.374484251968504
 20
6.250818897637795
 10
8.375877952755905
 20
6.247090551181103
 10
8.376874015748031
 20
6.242984251968504
 10
8.377468503937008
 20
6.2385
 10
8.377669291338583
 20
6.233633858267717
 10
8.377669291338583
 20
6.152149606299212
  0
LWPOLYLINE
  5
81
330
1F
100
AcDbEntity
  8
Layer 1
 62
     7
370
     9
100
AcDbPolyline
 90
      107
 70
     1
 43
0.0
 10
8.603535433070865
 20
6.152149606299212
 10
8.624267716535433
 20
6.152149606299212
 10
8.624267716535433
 20
6.233633858267717
 10
8.62409842519685
 20
6.239043307086614
 10
8.623590551181103
 20
6.244200787401574
 10
8.622744094488189
 20
6.249102362204725
 10
8.62155905511811
 20
6.253748031496063
 10
8.620035433070866
 20
6.258141732283464
 10
8.618173228346457
 20
6.262279527559055
 10
8.615972440944882
 20
6.266161417322834
 10
8.613437007874015
 20
6.269787401574803
 10
8.610531496062992
 20
6.273161417322835
 10
8.60727559055118
 20
6.276188976377953
 10
8.603657480314961
 20
6.278862204724409
 10
8.599677165354331
 20
6.281185039370079
 10
8.595204724409449
 20
6.283062992125984
 10
8.590062992125985
 20
6.284409448818898
 10
8.58425590551181
 20
6.285220472440945
 10
8.577779527559056
 20
6.285492125984252
 10
8.574429133858267
 20
6.285374015748031
 10
8.571188976377952
 20
6.285027559055118
 10
8.568051181102362
 20
6.284444881889764
 10
8.56501968503937
 20
6.283633858267716
 10
8.56209842519685
 20
6.282590551181102
 10
8.559279527559054
 20
6.281314960629921
 10
8.556562992125984
 20
6.279807086614174
 10
8.553956692913387
 20
6.278070866141732
 10
8.549531496062992
 20
6.27448031496063
 10
8.545515748031496
 20
6.270385826771654
 10
8.541909448818897
 20
6.265787401574803
 10
8.538712598425198
 20
6.260700787401575
 10
8.533228346456692
 20
6.269787401574803
 10
8.530314960629921
 20
6.273161417322835
 10
8.527051181102362
 20
6.276188976377953
 10
8.523437007874016
 20
6.278862204724409
 10
8.519468503937007
 20
6.281185039370079
 10
8.514992125984252
 20
6.283062992125984
 10
8.509850393700788
 20
6.284409448818898
 10
8.50403937007874
 20
6.285220472440945
 10
8.497566929133859
 20
6.285492125984252
 10
8.494212598425197
 20
6.285374015748031
 10
8.490968503937008
 20
6.285027559055118
 10
8.487830708661418
 20
6.284444881889764
 10
8.484799212598425
 20
6.283633858267716
 10
8.481874015748032
 20
6.282590551181102
 10
8.479055118110237
 20
6.281314960629921
 10
8.476338582677165
 20
6.279807086614174
 10
8.473732283464567
 20
6.278070866141732
 10
8.469511811023622
 20
6.274669291338583
 10
8.465665354330708
 20
6.270811023622048
 10
8.462185039370079
 20
6.2665
 10
8.459074803149607
 20
6.261732283464567
 10
8.459074803149607
 20
6.282511811023622
 10
8.438366141732283
 20
6.282511811023622
 10
8.438366141732283
 20
6.152149606299212
 10
8.459074803149607
 20
6.152149606299212
 10
8.459074803149607
 20
6.218877952755905
 10
8.460188976377953
 20
6.2265
 10
8.461897637795275
 20
6.23351968503937
 10
8.464192913385826
 20
6.23994094488189
 10
8.467078740157481
 20
6.245783464566929
 10
8.469645669291339
 20
6.249744094488189
 10
8.472625984251968
 20
6.253334645669291
 10
8.476011811023621
 20
6.25655905511811
 10
8.4798031496063
 20
6.259409448818897
 10
8.483870078740157
 20
6.261748031496063
 10
8.488086614173229
 20
6.263413385826771
 10
8.49246062992126
 20
6.264409448818897
 10
8.496984251968504
 20
6.264740157480315
 10
8.501271653543307
 20
6.264566929133858
 10
8.504968503937008
 20
6.264043307086614
 10
8.508070866141733
 20
6.263169291338583
 10
8.510586614173228
 20
6.26194094488189
 10
8.513566929133859
 20
6.259728346456693
 10
8.516153543307087
 20
6.25713779527559
 10
8.518338582677165
 20
6.254169291338583
 10
8.520129921259842
 20
6.250818897637795
 10
8.52151968503937
 20
6.247090551181103
 10
8.522515748031497
 20
6.242984251968504
 10
8.523110236220472
 20
6.2385
 10
8.523311023622048
 20
6.233633858267717
 10
8.523311023622048
 20
6.152149606299212
 10
8.544031496062992
 20
6.152149606299212
 10
8.544031496062992
 20
6.233633858267717
 10
8.543897637795276
 20
6.238622047244094
 10
8.547303149606298
 20
6.245783464566929
 10
8.549866141732284
 20
6.249744094488189
 10
8.552846456692913
 20
6.253334645669291
 10
8.556232283464567
 20
6.25655905511811
 10
8.560027559055118
 20
6.259409448818897
 10
8.564094488188976
 20
6.261748031496063
 10
8.568311023622048
 20
6.263413385826771
 10
8.572681102362205
 20
6.264409448818897
 10
8.577196850393701
 20
6.264740157480315
 10
8.581484251968504
 20
6.264566929133858
 10
8.585181102362204
 20
6.264043307086614
 10
8.588291338582676
 20
6.263169291338583
 10
8.590811023622047
 20
6.26194094488189
 10
8.593791338582678
 20
6.259728346456693
 10
8.596377952755905
 20
6.25713779527559
 10
8.598562992125984
 20
6.254169291338583
 10
8.600354330708662
 20
6.250818897637795
 10
8.60174409448819
 20
6.247090551181103
 10
8.602740157480316
 20
6.242984251968504
 10
8.60333464566929
 20
6.2385
 10
8.603535433070865
 20
6.233633858267717
 10
8.603535433070865
 20
6.152149606299212
  0
ENDSEC
  0
SECTION
  2
OBJECTS
  0
DICTIONARY
  5
C
330
0
100
AcDbDictionary
281
     1
  3
ACAD_DETAILVIEWSTYLE
350
89
  3
ACAD_GROUP
350
D
  3
ACAD_LAYOUT
350
1A
  3
ACAD_MATERIAL
350
43
  3
ACAD_MLEADERSTYLE
350
5B
  3
ACAD_MLINESTYLE
350
17
  3
ACAD_PLOTSETTINGS
350
19
  3
ACAD_PLOTSTYLENAME
350
E
  3
ACAD_SCALELIST
350
47
  3
ACAD_SECTIONVIEWSTYLE
350
8A
  3
ACAD_TABLESTYLE
350
59
  3
ACAD_VISUALSTYLE
350
2A
  3
ACDB_RECOMPOSE_DATA
350
86
  3
AcDbVariableDictionary
350
82
  0
SUN
  5
5D
330
29
100
AcDbSun
 90
        1
290
     0
 63
     7
421
 16777215
 40
1.0
291
     1
 91
  2455826
 92
 54000000
292
     0
 70
     2
 71
   256
280
     1
  0
DICTIONARY
  5
89
102
{ACAD_REACTORS
330
C
102
}
330
C
100
AcDbDictionary
281
     1
  0
DICTIONARY
  5
D
102
{ACAD_REACTORS
330
C
102
}
330
C
100
AcDbDictionary
281
     1
  0
DICTIONARY
  5
1A
102
{ACAD_REACTORS
330
C
102
}
330
C
100
AcDbDictionary
281
     1
  3
Layout1
350
1E
  3
Layout2
350
26
  3
Model
350
22
  0
DICTIONARY
  5
43
102
{ACAD_REACTORS
330
C
102
}
330
C
100
AcDbDictionary
281
     1
  3
ByBlock
350
45
  3
ByLayer
350
44
  3
Global
350
46
  0
DICTIONARY
  5
5B
102
{ACAD_REACTORS
330
C
102
}
330
C
100
AcDbDictionary
281
     1
  3
Standard
350
5C
  0
DICTIONARY
  5
17
102
{ACAD_REACTORS
330
C
102
}
330
C
100
AcDbDictionary
281
     1
  3
Standard
350
18
  0
DICTIONARY
  5
19
102
{ACAD_REACTORS
330
C
102
}
330
C
100
AcDbDictionary
281
     1
  0
ACDBDICTIONARYWDFLT
  5
E
102
{ACAD_REACTORS
330
C
102
}
330
C
100
AcDbDictionary
281
     1
  3
Normal
350
F
100
AcDbDictionaryWithDefault
340
F
  0
DICTIONARY
  5
47
102
{ACAD_REACTORS
330
C
102
}
330
C
100
AcDbDictionary
281
     1
  3
A0
350
48
  3
A1
350
49
  3
A2
350
4A
  3
A3
350
4B
  3
A4
350
4C
  3
A5
350
4D
  3
A6
350
4E
  3
A7
350
4F
  3
A8
350
50
  3
A9
350
51
  3
B1
350
52
  3
B2
350
53
  3
B3
350
54
  3
B4
350
55
  3
B5
350
56
  3
B6
350
57
  3
B7
350
58
  0
DICTIONARY
  5
8A
102
{ACAD_REACTORS
330
C
102
}
330
C
100
AcDbDictionary
281
     1
  0
DICTIONARY
  5
59
102
{ACAD_REACTORS
330
C
102
}
330
C
100
AcDbDictionary
281
     1
  3
Standard
350
5A
  0
DICTIONARY
  5
2A
102
{ACAD_REACTORS
330
C
102
}
330
C
100
AcDbDictionary
281
     1
  3
2dWireframe
350
2F
  3
Basic
350
32
  3
Brighten
350
36
  3
ColorChange
350
3A
  3
Conceptual
350
34
  3
Dim
350
35
  3
EdgeColorOff
350
3D
  3
Facepattern
350
39
  3
Flat
350
2B
  3
FlatWithEdges
350
2C
  3
Gouraud
350
2D
  3
GouraudWithEdges
350
2E
  3
Hidden
350
31
  3
JitterOff
350
3B
  3
Linepattern
350
38
  3
OverhangOff
350
3C
  3
Realistic
350
33
  3
Shaded
350
42
  3
Shaded with edges
350
41
  3
Shades of Gray
350
3E
  3
Sketchy
350
3F
  3
Thicken
350
37
  3
Wireframe
350
30
  3
X-Ray
350
40
  0
XRECORD
  5
86
102
{ACAD_REACTORS
330
C
102
}
330
C
100
AcDbXrecord
280
     1
 90
        1
330
5A
  0
DICTIONARY
  5
82
102
{ACAD_REACTORS
330
C
102
}
330
C
100
AcDbDictionary
281
     1
  3
CANNOSCALE
350
83
  3
CMLEADERSTYLE
350
88
  3
CTABLESTYLE
350
87
  0
LAYOUT
  5
1E
102
{ACAD_REACTORS
330
1A
102
}
330
1A
100
AcDbPlotSettings
  1

  2
none_device
  4

  6

 40
0.0
 41
0.0
 42
0.0
 43
0.0
 44
0.0
 45
0.0
 46
0.0
 47
0.0
 48
0.0
 49
0.0
140
0.0
141
0.0
142
1.0
143
1.0
 70
   688
 72
     0
 73
     0
 74
     5
  7

 75
    16
 76
     0
 77
     2
 78
   300
147
1.0
148
0.0
149
0.0
100
AcDbLayout
  1
Layout1
 70
     1
 71
     1
 10
0.0
 20
0.0
 11
12.0
 21
9.0
 12
0.0
 22
0.0
 32
0.0
 14
1.000000000000000E+20
 24
1.000000000000000E+20
 34
1.000000000000000E+20
 15
-1.000000000000000E+20
 25
-1.000000000000000E+20
 35
-1.000000000000000E+20
146
0.0
 13
0.0
 23
0.0
 33
0.0
 16
1.0
 26
0.0
 36
0.0
 17
0.0
 27
1.0
 37
0.0
 76
     0
330
1B
  0
LAYOUT
  5
26
102
{ACAD_REACTORS
330
1A
102
}
330
1A
100
AcDbPlotSettings
  1

  2
none_device
  4

  6

 40
0.0
 41
0.0
 42
0.0
 43
0.0
 44
0.0
 45
0.0
 46
0.0
 47
0.0
 48
0.0
 49
0.0
140
0.0
141
0.0
142
1.0
143
1.0
 70
   688
 72
     0
 73
     0
 74
     5
  7

 75
    16
 76
     0
 77
     2
 78
   300
147
1.0
148
0.0
149
0.0
100
AcDbLayout
  1
Layout2
 70
     1
 71
     2
 10
0.0
 20
0.0
 11
0.0
 21
0.0
 12
0.0
 22
0.0
 32
0.0
 14
0.0
 24
0.0
 34
0.0
 15
0.0
 25
0.0
 35
0.0
146
0.0
 13
0.0
 23
0.0
 33
0.0
 16
1.0
 26
0.0
 36
0.0
 17
0.0
 27
1.0
 37
0.0
 76
     0
330
23
  0
LAYOUT
  5
22
102
{ACAD_REACTORS
330
1A
102
}
330
1A
100
AcDbPlotSettings
  1

  2
none_device
  4
Letter_(8.50_x_11.00_Inches)
  6

 40
6.35
 41
6.35
 42
6.35000508
 43
6.35000508
 44
215.9
 45
279.4
 46
0.0
 47
0.0
 48
0.0
 49
0.0
140
0.0
141
0.0
142
1.0
143
1.0
 70
  1712
 72
     0
 73
     0
 74
     0
  7

 75
     0
 76
     0
 77
     2
 78
   300
147
1.0
148
0.0
149
0.0
100
AcDbLayout
  1
Model
 70
     1
 71
     0
 10
0.0
 20
0.0
 11
12.0
 21
9.0
 12
0.0
 22
0.0
 32
0.0
 14
5.194094488188976
 24
2.97253937007874
 34
0.0
 15
10.11041732283465
 25
6.691515748031496
 35
0.0
146
0.0
 13
0.0
 23
0.0
 33
0.0
 16
1.0
 26
0.0
 36
0.0
 17
0.0
 27
1.0
 37
0.0
 76
     0
330
1F
331
29
  0
MATERIAL
  5
45
102
{ACAD_REACTORS
330
43
102
}
330
43
100
AcDbMaterial
  1
ByBlock
 72
     1
 94
      127
  0
MATERIAL
  5
44
102
{ACAD_REACTORS
330
43
102
}
330
43
100
AcDbMaterial
  1
ByLayer
 72
     1
 94
      127
  0
MATERIAL
  5
46
102
{ACAD_REACTORS
330
43
102
}
330
43
100
AcDbMaterial
  1
Global
 72
     1
 94
      127
  0
MLEADERSTYLE
  5
5C
102
{ACAD_REACTORS
330
5B
102
}
330
5B
100
AcDbMLeaderStyle
179
     2
170
     2
171
     1
172
     0
 90
        2
 40
0.0
 41
0.0
173
     1
 91
-1056964608
340
14
 92
       -2
290
     1
 42
0.09
291
     1
 43
0.36
  3
Standard
341
0
 44
0.18
300

342
11
174
     1
178
     6
175
     1
176
     0
 93
-1056964608
 45
0.18
292
     0
297
     0
 46
0.18
343
0
 94
-1056964608
 47
1.0
 49
1.0
140
1.0
293
     1
141
0.0
294
     1
177
     0
142
1.0
295
     0
296
     0
143
0.125
271
     0
272
     9
273
     9
298
     0
  0
MLINESTYLE
  5
18
102
{ACAD_REACTORS
330
17
102
}
330
17
100
AcDbMlineStyle
  2
Standard
 70
     0
  3

 62
   256
 51
90.0
 52
90.0
 71
     2
 49
0.5
 62
   256
  6
BYLAYER
 49
-0.5
 62
   256
  6
BYLAYER
  0
ACDBPLACEHOLDER
  5
F
102
{ACAD_REACTORS
330
E
102
}
330
E
  0
SCALE
  5
48
102
{ACAD_REACTORS
330
47
102
}
330
47
100
AcDbScale
 70
     0
300
1:1
140
1.0
141
1.0
290
     1
  0
SCALE
  5
49
102
{ACAD_REACTORS
330
47
102
}
330
47
100
AcDbScale
 70
     0
300
1/128" = 1'-0"
140
0.0078125
141
12.0
290
     0
  0
SCALE
  5
4A
102
{ACAD_REACTORS
330
47
102
}
330
47
100
AcDbScale
 70
     0
300
1/64" = 1'-0"
140
0.015625
141
12.0
290
     0
  0
SCALE
  5
4B
102
{ACAD_REACTORS
330
47
102
}
330
47
100
AcDbScale
 70
     0
300
1/32" = 1'-0"
140
0.03125
141
12.0
290
     0
  0
SCALE
  5
4C
102
{ACAD_REACTORS
330
47
102
}
330
47
100
AcDbScale
 70
     0
300
1/16" = 1'-0"
140
0.0625
141
12.0
290
     0
  0
SCALE
  5
4D
102
{ACAD_REACTORS
330
47
102
}
330
47
100
AcDbScale
 70
     0
300
3/32" = 1'-0"
140
0.09375
141
12.0
290
     0
  0
SCALE
  5
4E
102
{ACAD_REACTORS
330
47
102
}
330
47
100
AcDbScale
 70
     0
300
1/8" = 1'-0"
140
0.125
141
12.0
290
     0
  0
SCALE
  5
4F
102
{ACAD_REACTORS
330
47
102
}
330
47
100
AcDbScale
 70
     0
300
3/16" = 1'-0"
140
0.1875
141
12.0
290
     0
  0
SCALE
  5
50
102
{ACAD_REACTORS
330
47
102
}
330
47
100
AcDbScale
 70
     0
300
1/4" = 1'-0"
140
0.25
141
12.0
290
     0
  0
SCALE
  5
51
102
{ACAD_REACTORS
330
47
102
}
330
47
100
AcDbScale
 70
     0
300
3/8" = 1'-0"
140
0.375
141
12.0
290
     0
  0
SCALE
  5
52
102
{ACAD_REACTORS
330
47
102
}
330
47
100
AcDbScale
 70
     0
300
1/2" = 1'-0"
140
0.5
141
12.0
290
     0
  0
SCALE
  5
53
102
{ACAD_REACTORS
330
47
102
}
330
47
100
AcDbScale
 70
     0
300
3/4" = 1'-0"
140
0.75
141
12.0
290
     0
  0
SCALE
  5
54
102
{ACAD_REACTORS
330
47
102
}
330
47
100
AcDbScale
 70
     0
300
1" = 1'-0"
140
1.0
141
12.0
290
     0
  0
SCALE
  5
55
102
{ACAD_REACTORS
330
47
102
}
330
47
100
AcDbScale
 70
     0
300
1-1/2" = 1'-0"
140
1.5
141
12.0
290
     0
  0
SCALE
  5
56
102
{ACAD_REACTORS
330
47
102
}
330
47
100
AcDbScale
 70
     0
300
3" = 1'-0"
140
3.0
141
12.0
290
     0
  0
SCALE
  5
57
102
{ACAD_REACTORS
330
47
102
}
330
47
100
AcDbScale
 70
     0
300
6" = 1'-0"
140
6.0
141
12.0
290
     0
  0
SCALE
  5
58
102
{ACAD_REACTORS
330
47
102
}
330
47
100
AcDbScale
 70
     0
300
1'-0" = 1'-0"
140
12.0
141
12.0
290
     0
  0
TABLESTYLE
  5
5A
102
{ACAD_REACTORS
330
59
102
}
102
{ACAD_XDICTIONARY
360
84
102
}
330
59
100
AcDbTableStyle
  3
Standard
 70
     0
 71
     0
 40
0.06
 41
0.06
280
     0
281
     0
  7
Standard
140
0.18
170
     2
 62
     0
 63
   257
283
     0
 90
        4
 91
        0
  1

274
    -2
284
     1
 64
     0
275
    -2
285
     1
 65
     0
276
    -2
286
     1
 66
     0
277
    -2
287
     1
 67
     0
278
    -2
288
     1
 68
     0
279
    -2
289
     1
 69
     0
  7
Standard
140
0.25
170
     5
 62
     0
 63
   257
283
     0
 90
        4
 91
        0
  1

274
    -2
284
     1
 64
     0
275
    -2
285
     1
 65
     0
276
    -2
286
     1
 66
     0
277
    -2
287
     1
 67
     0
278
    -2
288
     1
 68
     0
279
    -2
289
     1
 69
     0
  7
Standard
140
0.18
170
     5
 62
     0
 63
   257
283
     0
 90
        4
 91
        0
  1

274
    -2
284
     1
 64
     0
275
    -2
285
     1
 65
     0
276
    -2
286
     1
 66
     0
277
    -2
287
     1
 67
     0
278
    -2
288
     1
 68
     0
279
    -2
289
     1
 69
     0
  0
VISUALSTYLE
  5
2F
102
{ACAD_REACTORS
330
2A
102
}
330
2A
100
AcDbVisualStyle
  2
2dWireframe
 70
     4
177
     3
291
     0
 70
    58
 90
        0
176
     1
 90
        2
176
     1
 90
        0
176
     1
 90
        0
176
     1
 40
0.6
176
     1
 40
30.0
176
     1
 62
     7
420
 16777215
176
     1
 90
        1
176
     1
 90
        4
176
     1
 62
     7
176
     1
 62
   257
176
     1
 90
        1
176
     1
 90
        1
176
     1
 40
1.0
176
     1
 90
        0
176
     1
 62
   257
176
     1
 40
1.0
176
     1
 90
        1
176
     1
 90
        6
176
     1
 90
        2
176
     1
 62
     7
176
     1
 90
        5
176
     1
 90
        0
176
     1
 90
        0
176
     1
290
     0
176
     1
 90
        1
176
     1
 40
0.0
176
     1
 90
        0
176
     1
290
     1
176
     1
290
     1
176
     1
290
     0
176
     1
290
     0
176
     1
290
     0
176
     1
290
     0
176
     1
290
     0
176
     1
290
     0
176
     1
290
     0
176
     1
 90
       50
176
     1
 40
0.0
176
     1
 40
1.0
176
     1
 90
        0
176
     1
 62
    18
420
        0
176
     1
 90
       50
176
     1
 90
        3
176
     1
 62
     5
420
      255
176
     1
290
     0
176
     1
 90
       50
176
     1
 90
       50
176
     1
 90
       50
176
     1
290
     0
176
     1
 90
       50
176
     1
 62
   256
176
     0
 40
1.0
176
     0
 90
        2
176
     1
  1
strokes_ogs.tif
176
     1
290
     0
176
     1
 40
1.0
176
     1
 40
1.0
176
     1
  0
VISUALSTYLE
  5
32
102
{ACAD_REACTORS
330
2A
102
}
330
2A
100
AcDbVisualStyle
  2
Basic
 70
     7
177
     3
291
     1
 70
    58
 90
        1
176
     1
 90
        0
176
     1
 90
        1
176
     1
 90
        0
176
     1
 40
0.6
176
     1
 40
30.0
176
     1
 62
     7
420
 16777215
176
     1
 90
        0
176
     1
 90
        4
176
     1
 62
     7
176
     1
 62
   257
176
     1
 90
        1
176
     1
 90
        1
176
     1
 40
1.0
176
     1
 90
        8
176
     1
 62
     7
176
     1
 40
1.0
176
     1
 90
        1
176
     1
 90
        6
176
     1
 90
        2
176
     1
 62
     7
176
     1
 90
        5
176
     1
 90
        0
176
     1
 90
        0
176
     1
290
     0
176
     1
 90
        1
176
     1
 40
0.0
176
     1
 90
        0
176
     1
290
     0
176
     1
290
     1
176
     1
290
     1
176
     1
290
     0
176
     1
290
     0
176
     1
290
     0
176
     1
290
     0
176
     1
290
     0
176
     1
290
     0
176
     1
 90
       50
176
     1
 40
0.0
176
     1
 40
1.0
176
     1
 90
        0
176
     1
 62
    18
420
        0
176
     1
 90
       50
176
     1
 90
        3
176
     1
 62
     5
420
      255
176
     1
290
     0
176
     1
 90
       50
176
     1
 90
       50
176
     1
 90
       50
176
     1
290
     0
176
     1
 90
       50
176
     1
 62
   256
176
     0
 40
1.0
176
     0
 90
        2
176
     1
  1
strokes_ogs.tif
176
     1
290
     0
176
     1
 40
1.0
176
     1
 40
1.0
176
     1
  0
VISUALSTYLE
  5
36
102
{ACAD_REACTORS
330
2A
102
}
330
2A
100
AcDbVisualStyle
  2
Brighten
 70
    12
177
     3
291
     1
 70
    58
 90
        2
176
     1
 90
        2
176
     1
 90
        0
176
     1
 90
        0
176
     1
 40
0.6
176
     1
 40
30.0
176
     1
 62
     7
420
 16777215
176
     1
 90
        1
176
     1
 90
        4
176
     1
 62
     7
176
     1
 62
   257
176
     1
 90
        1
176
     1
 90
        1
176
     1
 40
1.0
176
     1
 90
        8
176
     1
 62
     7
176
     1
 40
1.0
176
     1
 90
        1
176
     1
 90
        6
176
     1
 90
        2
176
     1
 62
     7
176
     1
 90
        5
176
     1
 90
        0
176
     1
 90
        0
176
     1
290
     0
176
     1
 90
        1
176
     1
 40
50.0
176
     1
 90
        0
176
     1
290
     0
176
     1
290
     1
176
     1
290
     1
176
     1
290
     0
176
     1
290
     0
176
     1
290
     0
176
     1
290
     0
176
     1
290
     0
176
     1
290
     0
176
     1
 90
       50
176
     1
 40
0.0
176
     1
 40
1.0
176
     1
 90
        0
176
     1
 62
    18
420
        0
176
     1
 90
       50
176
     1
 90
        3
176
     1
 62
     5
420
      255
176
     1
290
     0
176
     1
 90
       50
176
     1
 90
       50
176
     1
 90
       50
176
     1
290
     0
176
     1
 90
       50
176
     1
 62
   256
176
     0
 40
1.0
176
     0
 90
        2
176
     1
  1
strokes_ogs.tif
176
     1
290
     0
176
     1
 40
1.0
176
     1
 40
1.0
176
     1
  0
VISUALSTYLE
  5
3A
102
{ACAD_REACTORS
330
2A
102
}
330
2A
100
AcDbVisualStyle
  2
ColorChange
 70
    16
177
     3
291
     1
 70
    58
 90
        2
176
     1
 90
        2
176
     1
 90
        3
176
     1
 90
        0
176
     1
 40
0.6
176
     1
 40
30.0
176
     1
 62
     8
420
  8421504
176
     1
 90
        1
176
     1
 90
        4
176
     1
 62
     7
176
     1
 62
   257
176
     1
 90
        1
176
     1
 90
        1
176
     1
 40
1.0
176
     1
 90
        8
176
     1
 62
     8
420
  8421504
176
     1
 40
1.0
176
     1
 90
        1
176
     1
 90
        6
176
     1
 90
        2
176
     1
 62
     7
176
     1
 90
        5
176
     1
 90
        0
176
     1
 90
        0
176
     1
290
     0
176
     1
 90
        1
176
     1
 40
0.0
176
     1
 90
        0
176
     1
290
     0
176
     1
290
     1
176
     1
290
     1
176
     1
290
     0
176
     1
290
     0
176
     1
290
     0
176
     1
290
     0
176
     1
290
     0
176
     1
290
     0
176
     1
 90
       50
176
     1
 40
0.0
176
     1
 40
1.0
176
     1
 90
        0
176
     1
 62
    18
420
        0
176
     1
 90
       50
176
     1
 90
        3
176
     1
 62
     5
420
      255
176
     1
290
     0
176
     1
 90
       50
176
     1
 90
       50
176
     1
 90
       50
176
     1
290
     0
176
     1
 90
       50
176
     1
 62
   256
176
     0
 40
1.0
176
     0
 90
        2
176
     1
  1
strokes_ogs.tif
176
     1
290
     0
176
     1
 40
1.0
176
     1
 40
1.0
176
     1
  0
VISUALSTYLE
  5
34
102
{ACAD_REACTORS
330
2A
102
}
330
2A
100
AcDbVisualStyle
  2
Conceptual
 70
     9
177
     3
291
     0
 70
    58
 90
        3
176
     1
 90
        2
176
     1
 90
        0
176
     1
 90
        0
176
     1
 40
0.6
176
     1
 40
30.0
176
     1
 62
     7
420
 16777215
176
     1
 90
        2
176
     1
 90
        2
176
     1
 62
     7
176
     1
 62
   257
176
     1
 90
        1
176
     1
 90
        1
176
     1
 40
179.0
176
     1
 90
        8
176
     1
 62
     7
176
     1
 40
1.0
176
     1
 90
        1
176
     1
 90
        6
176
     1
 90
        2
176
     1
 62
     7
176
     1
 90
        3
176
     1
 90
        0
176
     1
 90
        0
176
     1
290
     0
176
     1
 90
        1
176
     1
 40
0.0
176
     1
 90
        0
176
     1
290
     0
176
     1
290
     1
176
     1
290
     1
176
     1
290
     0
176
     1
290
     0
176
     1
290
     0
176
     1
290
     0
176
     1
290
     0
176
     1
290
     0
176
     1
 90
       50
176
     1
 40
0.0
176
     1
 40
1.0
176
     1
 90
        0
176
     1
 62
    18
420
        0
176
     1
 90
       50
176
     1
 90
        3
176
     1
 62
     5
420
      255
176
     1
290
     0
176
     1
 90
       50
176
     1
 90
       50
176
     1
 90
       50
176
     1
290
     0
176
     1
 90
       50
176
     1
 62
   256
176
     0
 40
1.0
176
     0
 90
        2
176
     1
  1
strokes_ogs.tif
176
     1
290
     0
176
     1
 40
1.0
176
     1
 40
1.0
176
     1
  0
VISUALSTYLE
  5
35
102
{ACAD_REACTORS
330
2A
102
}
330
2A
100
AcDbVisualStyle
  2
Dim
 70
    11
177
     3
291
     1
 70
    58
 90
        2
176
     1
 90
        2
176
     1
 90
        0
176
     1
 90
        0
176
     1
 40
0.6
176
     1
 40
30.0
176
     1
 62
     7
420
 16777215
176
     1
 90
        1
176
     1
 90
        4
176
     1
 62
     7
176
     1
 62
   257
176
     1
 90
        1
176
     1
 90
        1
176
     1
 40
1.0
176
     1
 90
        8
176
     1
 62
     7
176
     1
 40
1.0
176
     1
 90
        1
176
     1
 90
        6
176
     1
 90
        2
176
     1
 62
     7
176
     1
 90
        5
176
     1
 90
        0
176
     1
 90
        0
176
     1
290
     0
176
     1
 90
        1
176
     1
 40
-50.0
176
     1
 90
        0
176
     1
290
     0
176
     1
290
     1
176
     1
290
     1
176
     1
290
     0
176
     1
290
     0
176
     1
290
     0
176
     1
290
     0
176
     1
290
     0
176
     1
290
     0
176
     1
 90
       50
176
     1
 40
0.0
176
     1
 40
1.0
176
     1
 90
        0
176
     1
 62
    18
420
        0
176
     1
 90
       50
176
     1
 90
        3
176
     1
 62
     5
420
      255
176
     1
290
     0
176
     1
 90
       50
176
     1
 90
       50
176
     1
 90
       50
176
     1
290
     0
176
     1
 90
       50
176
     1
 62
   256
176
     0
 40
1.0
176
     0
 90
        2
176
     1
  1
strokes_ogs.tif
176
     1
290
     0
176
     1
 40
1.0
176
     1
 40
1.0
176
     1
  0
VISUALSTYLE
  5
3D
102
{ACAD_REACTORS
330
2A
102
}
330
2A
100
AcDbVisualStyle
  2
EdgeColorOff
 70
    22
177
     3
291
     1
 70
    58
 90
        2
176
     0
 90
        2
176
     0
 90
        0
176
     0
 90
        0
176
     0
 40
0.6
176
     0
 40
30.0
176
     0
 62
     7
420
 16777215
176
     0
 90
        1
176
     0
 90
        4
176
     0
 62
     7
176
     0
 62
   257
176
     0
 90
        1
176
     0
 90
        1
176
     0
 40
1.0
176
     0
 90
        8
176
     2
 62
     7
176
     0
 40
1.0
176
     0
 90
        1
176
     0
 90
        6
176
     0
 90
        2
176
     0
 62
     7
176
     0
 90
        5
176
     0
 90
        0
176
     0
 90
        0
176
     0
290
     0
176
     0
 90
        1
176
     0
 40
0.0
176
     0
 90
        0
176
     0
290
     0
176
     0
290
     1
176
     0
290
     1
176
     0
290
     0
176
     0
290
     0
176
     0
290
     0
176
     0
290
     0
176
     0
290
     0
176
     0
290
     0
176
     0
 90
       50
176
     0
 40
0.0
176
     0
 40
1.0
176
     0
 90
        0
176
     0
 62
    18
420
        0
176
     0
 90
       50
176
     0
 90
        3
176
     0
 62
     5
420
      255
176
     0
290
     0
176
     0
 90
       50
176
     0
 90
       50
176
     0
 90
       50
176
     0
290
     0
176
     0
 90
       50
176
     0
 62
   256
176
     0
 40
1.0
176
     0
 90
        2
176
     0
  1
strokes_ogs.tif
176
     0
290
     0
176
     0
 40
1.0
176
     0
 40
1.0
176
     0
  0
VISUALSTYLE
  5
39
102
{ACAD_REACTORS
330
2A
102
}
330
2A
100
AcDbVisualStyle
  2
Facepattern
 70
    15
177
     3
291
     1
 70
    58
 90
        2
176
     1
 90
        2
176
     1
 90
        0
176
     1
 90
        0
176
     1
 40
0.6
176
     1
 40
30.0
176
     1
 62
     7
420
 16777215
176
     1
 90
        1
176
     1
 90
        4
176
     1
 62
     7
176
     1
 62
   257
176
     1
 90
        1
176
     1
 90
        1
176
     1
 40
1.0
176
     1
 90
        8
176
     1
 62
     7
176
     1
 40
1.0
176
     1
 90
        1
176
     1
 90
        6
176
     1
 90
        2
176
     1
 62
     7
176
     1
 90
        5
176
     1
 90
        0
176
     1
 90
        0
176
     1
290
     0
176
     1
 90
        1
176
     1
 40
0.0
176
     1
 90
        0
176
     1
290
     0
176
     1
290
     1
176
     1
290
     1
176
     1
290
     0
176
     1
290
     0
176
     1
290
     0
176
     1
290
     0
176
     1
290
     0
176
     1
290
     0
176
     1
 90
       50
176
     1
 40
0.0
176
     1
 40
1.0
176
     1
 90
        0
176
     1
 62
    18
420
        0
176
     1
 90
       50
176
     1
 90
        3
176
     1
 62
     5
420
      255
176
     1
290
     0
176
     1
 90
       50
176
     1
 90
       50
176
     1
 90
       50
176
     1
290
     0
176
     1
 90
       50
176
     1
 62
   256
176
     0
 40
1.0
176
     0
 90
        2
176
     1
  1
strokes_ogs.tif
176
     1
290
     0
176
     1
 40
1.0
176
     1
 40
1.0
176
     1
  0
VISUALSTYLE
  5
2B
102
{ACAD_REACTORS
330
2A
102
}
330
2A
100
AcDbVisualStyle
  2
Flat
 70
     0
177
     3
291
     1
 70
    58
 90
        2
176
     1
 90
        1
176
     1
 90
        1
176
     1
 90
        2
176
     1
 40
0.6
176
     1
 40
30.0
176
     1
 62
     7
420
 16777215
176
     1
 90
        0
176
     1
 90
        0
176
     1
 62
     7
176
     1
 62
   257
176
     1
 90
        1
176
     1
 90
        1
176
     1
 40
1.0
176
     1
 90
        8
176
     1
 62
     7
176
     1
 40
1.0
176
     1
 90
        1
176
     1
 90
        6
176
     1
 90
        2
176
     1
 62
     7
176
     1
 90
        5
176
     1
 90
        0
176
     1
 90
        0
176
     1
290
     0
176
     1
 90
       13
176
     1
 40
0.0
176
     1
 90
        0
176
     1
290
     0
176
     1
290
     1
176
     1
290
     1
176
     1
290
     0
176
     1
290
     0
176
     1
290
     0
176
     1
290
     0
176
     1
290
     0
176
     1
290
     0
176
     1
 90
       50
176
     1
 40
0.0
176
     1
 40
1.0
176
     1
 90
        0
176
     1
 62
    18
420
        0
176
     1
 90
       50
176
     1
 90
        3
176
     1
 62
     5
420
      255
176
     1
290
     0
176
     1
 90
       50
176
     1
 90
       50
176
     1
 90
       50
176
     1
290
     0
176
     1
 90
       50
176
     1
 62
   256
176
     0
 40
1.0
176
     0
 90
        2
176
     1
  1
strokes_ogs.tif
176
     1
290
     0
176
     1
 40
1.0
176
     1
 40
1.0
176
     1
  0
VISUALSTYLE
  5
2C
102
{ACAD_REACTORS
330
2A
102
}
330
2A
100
AcDbVisualStyle
  2
FlatWithEdges
 70
     1
177
     3
291
     1
 70
    58
 90
        2
176
     1
 90
        1
176
     1
 90
        1
176
     1
 90
        2
176
     1
 40
0.6
176
     1
 40
30.0
176
     1
 62
     7
420
 16777215
176
     1
 90
        1
176
     1
 90
        0
176
     1
 62
     7
176
     1
 62
   257
176
     1
 90
        1
176
     1
 90
        1
176
     1
 40
1.0
176
     1
 90
        0
176
     1
 62
   257
176
     1
 40
1.0
176
     1
 90
        1
176
     1
 90
        6
176
     1
 90
        2
176
     1
 62
     7
176
     1
 90
        5
176
     1
 90
        0
176
     1
 90
        0
176
     1
290
     0
176
     1
 90
       13
176
     1
 40
0.0
176
     1
 90
        0
176
     1
290
     0
176
     1
290
     1
176
     1
290
     1
176
     1
290
     0
176
     1
290
     0
176
     1
290
     0
176
     1
290
     0
176
     1
290
     0
176
     1
290
     0
176
     1
 90
       50
176
     1
 40
0.0
176
     1
 40
1.0
176
     1
 90
        0
176
     1
 62
    18
420
        0
176
     1
 90
       50
176
     1
 90
        3
176
     1
 62
     5
420
      255
176
     1
290
     0
176
     1
 90
       50
176
     1
 90
       50
176
     1
 90
       50
176
     1
290
     0
176
     1
 90
       50
176
     1
 62
   256
176
     0
 40
1.0
176
     0
 90
        2
176
     1
  1
strokes_ogs.tif
176
     1
290
     0
176
     1
 40
1.0
176
     1
 40
1.0
176
     1
  0
VISUALSTYLE
  5
2D
102
{ACAD_REACTORS
330
2A
102
}
330
2A
100
AcDbVisualStyle
  2
Gouraud
 70
     2
177
     3
291
     1
 70
    58
 90
        2
176
     1
 90
        2
176
     1
 90
        1
176
     1
 90
        2
176
     1
 40
0.6
176
     1
 40
30.0
176
     1
 62
     7
420
 16777215
176
     1
 90
        0
176
     1
 90
        0
176
     1
 62
     7
176
     1
 62
   257
176
     1
 90
        1
176
     1
 90
        1
176
     1
 40
1.0
176
     1
 90
        0
176
     1
 62
     7
176
     1
 40
1.0
176
     1
 90
        1
176
     1
 90
        6
176
     1
 90
        2
176
     1
 62
     7
176
     1
 90
        5
176
     1
 90
        0
176
     1
 90
        0
176
     1
290
     0
176
     1
 90
       13
176
     1
 40
0.0
176
     1
 90
        0
176
     1
290
     0
176
     1
290
     1
176
     1
290
     1
176
     1
290
     0
176
     1
290
     0
176
     1
290
     0
176
     1
290
     0
176
     1
290
     0
176
     1
290
     0
176
     1
 90
       50
176
     1
 40
0.0
176
     1
 40
1.0
176
     1
 90
        0
176
     1
 62
    18
420
        0
176
     1
 90
       50
176
     1
 90
        3
176
     1
 62
     5
420
      255
176
     1
290
     0
176
     1
 90
       50
176
     1
 90
       50
176
     1
 90
       50
176
     1
290
     0
176
     1
 90
       50
176
     1
 62
   256
176
     0
 40
1.0
176
     0
 90
        2
176
     1
  1
strokes_ogs.tif
176
     1
290
     0
176
     1
 40
1.0
176
     1
 40
1.0
176
     1
  0
VISUALSTYLE
  5
2E
102
{ACAD_REACTORS
330
2A
102
}
330
2A
100
AcDbVisualStyle
  2
GouraudWithEdges
 70
     3
177
     3
291
     1
 70
    58
 90
        2
176
     1
 90
        2
176
     1
 90
        1
176
     1
 90
        2
176
     1
 40
0.6
176
     1
 40
30.0
176
     1
 62
     7
420
 16777215
176
     1
 90
        1
176
     1
 90
        0
176
     1
 62
     7
176
     1
 62
   257
176
     1
 90
        1
176
     1
 90
        1
176
     1
 40
1.0
176
     1
 90
        0
176
     1
 62
   257
176
     1
 40
1.0
176
     1
 90
        1
176
     1
 90
        6
176
     1
 90
        2
176
     1
 62
     7
176
     1
 90
        5
176
     1
 90
        0
176
     1
 90
        0
176
     1
290
     0
176
     1
 90
       13
176
     1
 40
0.0
176
     1
 90
        0
176
     1
290
     0
176
     1
290
     1
176
     1
290
     1
176
     1
290
     0
176
     1
290
     0
176
     1
290
     0
176
     1
290
     0
176
     1
290
     0
176
     1
290
     0
176
     1
 90
       50
176
     1
 40
0.0
176
     1
 40
1.0
176
     1
 90
        0
176
     1
 62
    18
420
        0
176
     1
 90
       50
176
     1
 90
        3
176
     1
 62
     5
420
      255
176
     1
290
     0
176
     1
 90
       50
176
     1
 90
       50
176
     1
 90
       50
176
     1
290
     0
176
     1
 90
       50
176
     1
 62
   256
176
     0
 40
1.0
176
     0
 90
        2
176
     1
  1
strokes_ogs.tif
176
     1
290
     0
176
     1
 40
1.0
176
     1
 40
1.0
176
     1
  0
VISUALSTYLE
  5
31
102
{ACAD_REACTORS
330
2A
102
}
330
2A
100
AcDbVisualStyle
  2
Hidden
 70
     6
177
     3
291
     0
 70
    58
 90
        1
176
     1
 90
        2
176
     1
 90
        2
176
     1
 90
        0
176
     1
 40
0.6
176
     1
 40
30.0
176
     1
 62
     7
420
 16777215
176
     1
 90
        2
176
     1
 90
        2
176
     1
 62
     7
176
     1
 62
   257
176
     1
 90
        2
176
     1
 90
        1
176
     1
 40
40.0
176
     1
 90
        0
176
     1
 62
   257
176
     1
 40
1.0
176
     1
 90
        1
176
     1
 90
        6
176
     1
 90
        2
176
     1
 62
     7
176
     1
 90
        3
176
     1
 90
        0
176
     1
 90
        0
176
     1
290
     0
176
     1
 90
        1
176
     1
 40
0.0
176
     1
 90
        0
176
     1
290
     0
176
     1
290
     1
176
     1
290
     1
176
     1
290
     0
176
     1
290
     0
176
     1
290
     0
176
     1
290
     0
176
     1
290
     0
176
     1
290
     0
176
     1
 90
       50
176
     1
 40
0.0
176
     1
 40
1.0
176
     1
 90
        0
176
     1
 62
    18
420
        0
176
     1
 90
       50
176
     1
 90
        3
176
     1
 62
     5
420
      255
176
     1
290
     0
176
     1
 90
       50
176
     1
 90
       50
176
     1
 90
       50
176
     1
290
     0
176
     1
 90
       50
176
     1
 62
   256
176
     0
 40
1.0
176
     0
 90
        2
176
     1
  1
strokes_ogs.tif
176
     1
290
     0
176
     1
 40
1.0
176
     1
 40
1.0
176
     1
  0
VISUALSTYLE
  5
3B
102
{ACAD_REACTORS
330
2A
102
}
330
2A
100
AcDbVisualStyle
  2
JitterOff
 70
    20
177
     3
291
     1
 70
    58
 90
        2
176
     0
 90
        2
176
     0
 90
        0
176
     0
 90
        0
176
     0
 40
0.6
176
     0
 40
30.0
176
     0
 62
     7
420
 16777215
176
     0
 90
        1
176
     0
 90
        4
176
     0
 62
     7
176
     0
 62
   257
176
     0
 90
        1
176
     0
 90
        1
176
     0
 40
1.0
176
     0
 90
       10
176
     2
 62
     7
176
     0
 40
1.0
176
     0
 90
        1
176
     0
 90
        6
176
     0
 90
        2
176
     0
 62
     7
176
     0
 90
        5
176
     0
 90
        0
176
     0
 90
        0
176
     0
290
     0
176
     0
 90
        1
176
     0
 40
0.0
176
     0
 90
        0
176
     0
290
     0
176
     0
290
     1
176
     0
290
     1
176
     0
290
     0
176
     0
290
     0
176
     0
290
     0
176
     0
290
     0
176
     0
290
     0
176
     0
290
     0
176
     0
 90
       50
176
     0
 40
0.0
176
     0
 40
1.0
176
     0
 90
        0
176
     0
 62
    18
420
        0
176
     0
 90
       50
176
     0
 90
        3
176
     0
 62
     5
420
      255
176
     0
290
     0
176
     0
 90
       50
176
     0
 90
       50
176
     0
 90
       50
176
     0
290
     0
176
     0
 90
       50
176
     0
 62
   256
176
     0
 40
1.0
176
     0
 90
        2
176
     0
  1
strokes_ogs.tif
176
     0
290
     0
176
     0
 40
1.0
176
     0
 40
1.0
176
     0
  0
VISUALSTYLE
  5
38
102
{ACAD_REACTORS
330
2A
102
}
330
2A
100
AcDbVisualStyle
  2
Linepattern
 70
    14
177
     3
291
     1
 70
    58
 90
        2
176
     1
 90
        2
176
     1
 90
        0
176
     1
 90
        0
176
     1
 40
0.6
176
     1
 40
30.0
176
     1
 62
     7
420
 16777215
176
     1
 90
        1
176
     1
 90
        4
176
     1
 62
     7
176
     1
 62
   257
176
     1
 90
        7
176
     1
 90
        7
176
     1
 40
1.0
176
     1
 90
        8
176
     1
 62
     7
176
     1
 40
1.0
176
     1
 90
        1
176
     1
 90
        6
176
     1
 90
        2
176
     1
 62
     7
176
     1
 90
        5
176
     1
 90
        0
176
     1
 90
        0
176
     1
290
     0
176
     1
 90
        1
176
     1
 40
0.0
176
     1
 90
        0
176
     1
290
     0
176
     1
290
     1
176
     1
290
     1
176
     1
290
     0
176
     1
290
     0
176
     1
290
     0
176
     1
290
     0
176
     1
290
     0
176
     1
290
     0
176
     1
 90
       50
176
     1
 40
0.0
176
     1
 40
1.0
176
     1
 90
        0
176
     1
 62
    18
420
        0
176
     1
 90
       50
176
     1
 90
        3
176
     1
 62
     5
420
      255
176
     1
290
     0
176
     1
 90
       50
176
     1
 90
       50
176
     1
 90
       50
176
     1
290
     0
176
     1
 90
       50
176
     1
 62
   256
176
     0
 40
1.0
176
     0
 90
        2
176
     1
  1
strokes_ogs.tif
176
     1
290
     0
176
     1
 40
1.0
176
     1
 40
1.0
176
     1
  0
VISUALSTYLE
  5
3C
102
{ACAD_REACTORS
330
2A
102
}
330
2A
100
AcDbVisualStyle
  2
OverhangOff
 70
    21
177
     3
291
     1
 70
    58
 90
        2
176
     0
 90
        2
176
     0
 90
        0
176
     0
 90
        0
176
     0
 40
0.6
176
     0
 40
30.0
176
     0
 62
     7
420
 16777215
176
     0
 90
        1
176
     0
 90
        4
176
     0
 62
     7
176
     0
 62
   257
176
     0
 90
        1
176
     0
 90
        1
176
     0
 40
1.0
176
     0
 90
        9
176
     2
 62
     7
176
     0
 40
1.0
176
     0
 90
        1
176
     0
 90
        6
176
     0
 90
        2
176
     0
 62
     7
176
     0
 90
        5
176
     0
 90
        0
176
     0
 90
        0
176
     0
290
     0
176
     0
 90
        1
176
     0
 40
0.0
176
     0
 90
        0
176
     0
290
     0
176
     0
290
     1
176
     0
290
     1
176
     0
290
     0
176
     0
290
     0
176
     0
290
     0
176
     0
290
     0
176
     0
290
     0
176
     0
290
     0
176
     0
 90
       50
176
     0
 40
0.0
176
     0
 40
1.0
176
     0
 90
        0
176
     0
 62
    18
420
        0
176
     0
 90
       50
176
     0
 90
        3
176
     0
 62
     5
420
      255
176
     0
290
     0
176
     0
 90
       50
176
     0
 90
       50
176
     0
 90
       50
176
     0
290
     0
176
     0
 90
       50
176
     0
 62
   256
176
     0
 40
1.0
176
     0
 90
        2
176
     0
  1
strokes_ogs.tif
176
     0
290
     0
176
     0
 40
1.0
176
     0
 40
1.0
176
     0
  0
VISUALSTYLE
  5
33
102
{ACAD_REACTORS
330
2A
102
}
330
2A
100
AcDbVisualStyle
  2
Realistic
 70
     8
177
     3
291
     0
 70
    58
 90
        2
176
     1
 90
        3
176
     1
 90
        0
176
     1
 90
        2
176
     1
 40
0.6
176
     1
 40
30.0
176
     1
 62
     7
420
 16777215
176
     1
 90
        0
176
     1
 90
        0
176
     1
 62
     7
176
     1
 62
   257
176
     1
 90
        1
176
     1
 90
        1
176
     1
 40
1.0
176
     1
 90
        8
176
     1
 62
   257
176
     1
 40
1.0
176
     1
 90
        1
176
     1
 90
        6
176
     1
 90
        2
176
     1
 62
     7
176
     1
 90
        3
176
     1
 90
        0
176
     1
 90
        0
176
     1
290
     0
176
     1
 90
       13
176
     1
 40
0.0
176
     1
 90
        0
176
     1
290
     0
176
     1
290
     1
176
     1
290
     1
176
     1
290
     0
176
     1
290
     0
176
     1
290
     0
176
     1
290
     0
176
     1
290
     0
176
     1
290
     0
176
     1
 90
       50
176
     1
 40
0.0
176
     1
 40
1.0
176
     1
 90
        0
176
     1
 62
    18
420
        0
176
     1
 90
       50
176
     1
 90
        3
176
     1
 62
     5
420
      255
176
     1
290
     0
176
     1
 90
       50
176
     1
 90
       50
176
     1
 90
       50
176
     1
290
     0
176
     1
 90
       50
176
     1
 62
   256
176
     0
 40
1.0
176
     0
 90
        2
176
     1
  1
strokes_ogs.tif
176
     1
290
     0
176
     1
 40
1.0
176
     1
 40
1.0
176
     1
  0
VISUALSTYLE
  5
42
102
{ACAD_REACTORS
330
2A
102
}
330
2A
100
AcDbVisualStyle
  2
Shaded
 70
    27
177
     3
291
     0
 70
    58
 90
        2
176
     1
 90
        2
176
     1
 90
        1
176
     1
 90
        2
176
     1
 40
0.6
176
     1
 40
30.0
176
     1
 62
     7
420
 16777215
176
     1
 90
        0
176
     1
 90
        4
176
     1
 62
     7
176
     1
 62
   257
176
     1
 90
        1
176
     1
 90
        1
176
     1
 40
1.0
176
     1
 90
        8
176
     1
 62
   257
176
     1
 40
1.0
176
     1
 90
        1
176
     1
 90
        6
176
     1
 90
        2
176
     1
 62
     8
420
  7895160
176
     1
 90
        3
176
     1
 90
        0
176
     1
 90
        0
176
     1
290
     0
176
     1
 90
        5
176
     1
 40
0.0
176
     1
 90
        0
176
     1
290
     0
176
     1
290
     1
176
     1
290
     1
176
     1
290
     0
176
     1
290
     0
176
     1
290
     0
176
     1
290
     0
176
     1
290
     0
176
     1
290
     0
176
     1
 90
       50
176
     1
 40
0.0
176
     1
 40
1.0
176
     1
 90
        0
176
     1
 62
    18
420
        0
176
     1
 90
       50
176
     1
 90
        3
176
     1
 62
     5
420
      255
176
     1
290
     0
176
     1
 90
       50
176
     1
 90
       50
176
     1
 90
       50
176
     1
290
     0
176
     1
 90
       50
176
     1
 62
   256
176
     0
 40
1.0
176
     0
 90
        2
176
     1
  1
strokes_ogs.tif
176
     1
290
     0
176
     1
 40
1.0
176
     1
 40
1.0
176
     1
  0
VISUALSTYLE
  5
41
102
{ACAD_REACTORS
330
2A
102
}
330
2A
100
AcDbVisualStyle
  2
Shaded with edges
 70
    26
177
     3
291
     0
 70
    58
 90
        2
176
     1
 90
        2
176
     1
 90
        1
176
     1
 90
        2
176
     1
 40
0.6
176
     1
 40
30.0
176
     1
 62
     7
420
 16777215
176
     1
 90
        1
176
     1
 90
       10
176
     1
 62
     7
176
     1
 62
   257
176
     1
 90
        2
176
     1
 90
        1
176
     1
 40
1.0
176
     1
 90
        8
176
     1
 62
   257
176
     1
 40
1.0
176
     1
 90
        1
176
     1
 90
        6
176
     1
 90
        2
176
     1
 62
     7
176
     1
 90
        3
176
     1
 90
        0
176
     1
 90
        0
176
     1
290
     0
176
     1
 90
        5
176
     1
 40
0.0
176
     1
 90
        0
176
     1
290
     0
176
     1
290
     1
176
     1
290
     1
176
     1
290
     0
176
     1
290
     0
176
     1
290
     0
176
     1
290
     0
176
     1
290
     0
176
     1
290
     0
176
     1
 90
       50
176
     1
 40
0.0
176
     1
 40
1.0
176
     1
 90
        0
176
     1
 62
    18
420
        0
176
     1
 90
       50
176
     1
 90
        3
176
     1
 62
     5
420
      255
176
     1
290
     0
176
     1
 90
       50
176
     1
 90
       50
176
     1
 90
       50
176
     1
290
     0
176
     1
 90
       50
176
     1
 62
   256
176
     0
 40
1.0
176
     0
 90
        2
176
     1
  1
strokes_ogs.tif
176
     1
290
     0
176
     1
 40
1.0
176
     1
 40
1.0
176
     1
  0
VISUALSTYLE
  5
3E
102
{ACAD_REACTORS
330
2A
102
}
330
2A
100
AcDbVisualStyle
  2
Shades of Gray
 70
    23
177
     3
291
     0
 70
    58
 90
        2
176
     1
 90
        2
176
     1
 90
        3
176
     1
 90
        0
176
     1
 40
0.6
176
     1
 40
30.0
176
     1
 62
     7
420
 16777215
176
     1
 90
        2
176
     1
 90
        2
176
     1
 62
     7
176
     1
 62
     7
176
     1
 90
        1
176
     1
 90
        1
176
     1
 40
40.0
176
     1
 90
        8
176
     1
 62
     7
176
     1
 40
1.0
176
     1
 90
        1
176
     1
 90
        6
176
     1
 90
        2
176
     1
 62
     7
176
     1
 90
        3
176
     1
 90
        0
176
     1
 90
        0
176
     1
290
     0
176
     1
 90
        1
176
     1
 40
0.0
176
     1
 90
        0
176
     1
290
     0
176
     1
290
     1
176
     1
290
     1
176
     1
290
     0
176
     1
290
     0
176
     1
290
     0
176
     1
290
     0
176
     1
290
     0
176
     1
290
     0
176
     1
 90
       50
176
     1
 40
0.0
176
     1
 40
1.0
176
     1
 90
        0
176
     1
 62
    18
420
        0
176
     1
 90
       50
176
     1
 90
        3
176
     1
 62
     5
420
      255
176
     1
290
     0
176
     1
 90
       50
176
     1
 90
       50
176
     1
 90
       50
176
     1
290
     0
176
     1
 90
       50
176
     1
 62
   256
176
     0
 40
1.0
176
     0
 90
        2
176
     1
  1
strokes_ogs.tif
176
     1
290
     0
176
     1
 40
1.0
176
     1
 40
1.0
176
     1
  0
VISUALSTYLE
  5
3F
102
{ACAD_REACTORS
330
2A
102
}
330
2A
100
AcDbVisualStyle
  2
Sketchy
 70
    24
177
     3
291
     0
 70
    58
 90
        1
176
     1
 90
        2
176
     1
 90
        2
176
     1
 90
        0
176
     1
 40
0.6
176
     1
 40
30.0
176
     1
 62
     7
420
 16777215
176
     1
 90
        2
176
     1
 90
        2
176
     1
 62
     7
176
     1
 62
     7
176
     1
 90
        1
176
     1
 90
        1
176
     1
 40
40.0
176
     1
 90
       11
176
     1
 62
     7
176
     1
 40
1.0
176
     1
 90
        1
176
     1
 90
        6
176
     1
 90
        2
176
     1
 62
     7
176
     1
 90
        6
176
     1
 90
        0
176
     1
 90
        0
176
     1
290
     0
176
     1
 90
        1
176
     1
 40
0.0
176
     1
 90
        0
176
     1
290
     0
176
     1
290
     1
176
     1
290
     1
176
     1
290
     0
176
     1
290
     0
176
     1
290
     0
176
     1
290
     0
176
     1
290
     0
176
     1
290
     0
176
     1
 90
       50
176
     1
 40
0.0
176
     1
 40
1.0
176
     1
 90
        0
176
     1
 62
    18
420
        0
176
     1
 90
       50
176
     1
 90
        3
176
     1
 62
     5
420
      255
176
     1
290
     0
176
     1
 90
       50
176
     1
 90
       50
176
     1
 90
       50
176
     1
290
     0
176
     1
 90
       50
176
     1
 62
   256
176
     0
 40
1.0
176
     0
 90
        2
176
     1
  1
strokes_ogs.tif
176
     1
290
     0
176
     1
 40
1.0
176
     1
 40
1.0
176
     1
  0
VISUALSTYLE
  5
37
102
{ACAD_REACTORS
330
2A
102
}
330
2A
100
AcDbVisualStyle
  2
Thicken
 70
    13
177
     3
291
     1
 70
    58
 90
        2
176
     1
 90
        2
176
     1
 90
        0
176
     1
 90
        0
176
     1
 40
0.6
176
     1
 40
30.0
176
     1
 62
     7
420
 16777215
176
     1
 90
        1
176
     1
 90
        4
176
     1
 62
     7
176
     1
 62
   257
176
     1
 90
        1
176
     1
 90
        1
176
     1
 40
1.0
176
     1
 90
       12
176
     1
 62
     7
176
     1
 40
1.0
176
     1
 90
        1
176
     1
 90
        6
176
     1
 90
        2
176
     1
 62
     7
176
     1
 90
        5
176
     1
 90
        0
176
     1
 90
        0
176
     1
290
     0
176
     1
 90
        1
176
     1
 40
0.0
176
     1
 90
        0
176
     1
290
     0
176
     1
290
     1
176
     1
290
     1
176
     1
290
     0
176
     1
290
     0
176
     1
290
     0
176
     1
290
     0
176
     1
290
     0
176
     1
290
     0
176
     1
 90
       50
176
     1
 40
0.0
176
     1
 40
1.0
176
     1
 90
        0
176
     1
 62
    18
420
        0
176
     1
 90
       50
176
     1
 90
        3
176
     1
 62
     5
420
      255
176
     1
290
     0
176
     1
 90
       50
176
     1
 90
       50
176
     1
 90
       50
176
     1
290
     0
176
     1
 90
       50
176
     1
 62
   256
176
     0
 40
1.0
176
     0
 90
        2
176
     1
  1
strokes_ogs.tif
176
     1
290
     0
176
     1
 40
1.0
176
     1
 40
1.0
176
     1
  0
VISUALSTYLE
  5
30
102
{ACAD_REACTORS
330
2A
102
}
330
2A
100
AcDbVisualStyle
  2
Wireframe
 70
     5
177
     3
291
     0
 70
    58
 90
        0
176
     1
 90
        2
176
     1
 90
        0
176
     1
 90
        0
176
     1
 40
0.6
176
     1
 40
30.0
176
     1
 62
     7
420
 16777215
176
     1
 90
        1
176
     1
 90
        4
176
     1
 62
     7
176
     1
 62
   257
176
     1
 90
        1
176
     1
 90
        1
176
     1
 40
1.0
176
     1
 90
        0
176
     1
 62
   257
176
     1
 40
1.0
176
     1
 90
        1
176
     1
 90
        6
176
     1
 90
        2
176
     1
 62
     7
176
     1
 90
        3
176
     1
 90
        0
176
     1
 90
        0
176
     1
290
     0
176
     1
 90
        1
176
     1
 40
0.0
176
     1
 90
        0
176
     1
290
     0
176
     1
290
     1
176
     1
290
     1
176
     1
290
     0
176
     1
290
     0
176
     1
290
     0
176
     1
290
     0
176
     1
290
     0
176
     1
290
     0
176
     1
 90
       50
176
     1
 40
0.0
176
     1
 40
1.0
176
     1
 90
        0
176
     1
 62
    18
420
        0
176
     1
 90
       50
176
     1
 90
        3
176
     1
 62
     5
420
      255
176
     1
290
     0
176
     1
 90
       50
176
     1
 90
       50
176
     1
 90
       50
176
     1
290
     0
176
     1
 90
       50
176
     1
 62
   256
176
     0
 40
1.0
176
     0
 90
        2
176
     1
  1
strokes_ogs.tif
176
     1
290
     0
176
     1
 40
1.0
176
     1
 40
1.0
176
     1
  0
VISUALSTYLE
  5
40
102
{ACAD_REACTORS
330
2A
102
}
330
2A
100
AcDbVisualStyle
  2
X-Ray
 70
    25
177
     3
291
     0
 70
    58
 90
        2
176
     1
 90
        2
176
     1
 90
        1
176
     1
 90
        1
176
     1
 40
0.5
176
     1
 40
30.0
176
     1
 62
     7
420
 16777215
176
     1
 90
        1
176
     1
 90
        0
176
     1
 62
     7
176
     1
 62
   257
176
     1
 90
        1
176
     1
 90
        1
176
     1
 40
1.0
176
     1
 90
        8
176
     1
 62
     7
176
     1
 40
1.0
176
     1
 90
        1
176
     1
 90
        6
176
     1
 90
        2
176
     1
 62
     7
176
     1
 90
        3
176
     1
 90
        0
176
     1
 90
        0
176
     1
290
     0
176
     1
 90
       13
176
     1
 40
0.0
176
     1
 90
        0
176
     1
290
     0
176
     1
290
     1
176
     1
290
     1
176
     1
290
     0
176
     1
290
     0
176
     1
290
     0
176
     1
290
     0
176
     1
290
     0
176
     1
290
     0
176
     1
 90
       50
176
     1
 40
0.0
176
     1
 40
1.0
176
     1
 90
        0
176
     1
 62
    18
420
        0
176
     1
 90
       50
176
     1
 90
        3
176
     1
 62
     5
420
      255
176
     1
290
     0
176
     1
 90
       50
176
     1
 90
       50
176
     1
 90
       50
176
     1
290
     0
176
     1
 90
       50
176
     1
 62
   256
176
     0
 40
1.0
176
     0
 90
        2
176
     1
  1
strokes_ogs.tif
176
     1
290
     0
176
     1
 40
1.0
176
     1
 40
1.0
176
     1
  0
DICTIONARYVAR
  5
83
102
{ACAD_REACTORS
330
82
102
}
330
82
100
DictionaryVariables
280
     0
  1
1:1
  0
DICTIONARYVAR
  5
88
102
{ACAD_REACTORS
330
82
102
}
330
82
100
DictionaryVariables
280
     0
  1
Standard
  0
DICTIONARYVAR
  5
87
102
{ACAD_REACTORS
330
82
102
}
330
82
100
DictionaryVariables
280
     0
  1
Standard
  0
DICTIONARY
  5
84
330
5A
100
AcDbDictionary
280
     1
281
     1
  3
ACAD_ROUNDTRIP_2008_TABLESTYLE_CELLSTYLEMAP
360
85
  0
CELLSTYLEMAP
  5
85
102
{ACAD_REACTORS
330
84
102
}
330
84
100
AcDbCellStyleMap
 90
        3
300
CELLSTYLE
  1
TABLEFORMAT_BEGIN
 90
        5
170
     1
 91
        0
 92
    32768
 62
   257
 93
        1
300
CONTENTFORMAT
  1
CONTENTFORMAT_BEGIN
 90
        0
 91
        0
 92
        4
 93
        0
300

 40
0.0
140
1.0
 94
        5
 62
     0
340
11
144
0.25
309
CONTENTFORMAT_END
171
     1
301
MARGIN
  1
CELLMARGIN_BEGIN
 40
0.06
 40
0.06
 40
0.06
 40
0.06
 40
0.06
 40
0.06
309
CELLMARGIN_END
 94
        6
 95
        1
302
GRIDFORMAT
  1
GRIDFORMAT_BEGIN
 90
        0
 91
        1
 62
     0
 92
       -2
340
14
 93
        0
 40
0.045
309
GRIDFORMAT_END
 95
        2
302
GRIDFORMAT
  1
GRIDFORMAT_BEGIN
 90
        0
 91
        1
 62
     0
 92
       -2
340
14
 93
        0
 40
0.045
309
GRIDFORMAT_END
 95
        4
302
GRIDFORMAT
  1
GRIDFORMAT_BEGIN
 90
        0
 91
        1
 62
     0
 92
       -2
340
14
 93
        0
 40
0.045
309
GRIDFORMAT_END
 95
        8
302
GRIDFORMAT
  1
GRIDFORMAT_BEGIN
 90
        0
 91
        1
 62
     0
 92
       -2
340
14
 93
        0
 40
0.045
309
GRIDFORMAT_END
 95
       16
302
GRIDFORMAT
  1
GRIDFORMAT_BEGIN
 90
        0
 91
        1
 62
     0
 92
       -2
340
14
 93
        0
 40
0.045
309
GRIDFORMAT_END
 95
       32
302
GRIDFORMAT
  1
GRIDFORMAT_BEGIN
 90
        0
 91
        1
 62
     0
 92
       -2
340
14
 93
        0
 40
0.045
309
GRIDFORMAT_END
309
TABLEFORMAT_END
  1
CELLSTYLE_BEGIN
 90
        1
 91
        1
300
_TITLE
309
CELLSTYLE_END
300
CELLSTYLE
  1
TABLEFORMAT_BEGIN
 90
        5
170
     1
 91
        0
 92
        0
 62
   257
 93
        1
300
CONTENTFORMAT
  1
CONTENTFORMAT_BEGIN
 90
        0
 91
        0
 92
        4
 93
        0
300

 40
0.0
140
1.0
 94
        5
 62
     0
340
11
144
0.18
309
CONTENTFORMAT_END
171
     1
301
MARGIN
  1
CELLMARGIN_BEGIN
 40
0.06
 40
0.06
 40
0.06
 40
0.06
 40
0.06
 40
0.06
309
CELLMARGIN_END
 94
        6
 95
        1
302
GRIDFORMAT
  1
GRIDFORMAT_BEGIN
 90
        0
 91
        1
 62
     0
 92
       -2
340
14
 93
        0
 40
0.045
309
GRIDFORMAT_END
 95
        2
302
GRIDFORMAT
  1
GRIDFORMAT_BEGIN
 90
        0
 91
        1
 62
     0
 92
       -2
340
14
 93
        0
 40
0.045
309
GRIDFORMAT_END
 95
        4
302
GRIDFORMAT
  1
GRIDFORMAT_BEGIN
 90
        0
 91
        1
 62
     0
 92
       -2
340
14
 93
        0
 40
0.045
309
GRIDFORMAT_END
 95
        8
302
GRIDFORMAT
  1
GRIDFORMAT_BEGIN
 90
        0
 91
        1
 62
     0
 92
       -2
340
14
 93
        0
 40
0.045
309
GRIDFORMAT_END
 95
       16
302
GRIDFORMAT
  1
GRIDFORMAT_BEGIN
 90
        0
 91
        1
 62
     0
 92
       -2
340
14
 93
        0
 40
0.045
309
GRIDFORMAT_END
 95
       32
302
GRIDFORMAT
  1
GRIDFORMAT_BEGIN
 90
        0
 91
        1
 62
     0
 92
       -2
340
14
 93
        0
 40
0.045
309
GRIDFORMAT_END
309
TABLEFORMAT_END
  1
CELLSTYLE_BEGIN
 90
        2
 91
        1
300
_HEADER
309
CELLSTYLE_END
300
CELLSTYLE
  1
TABLEFORMAT_BEGIN
 90
        5
170
     1
 91
        0
 92
        0
 62
   257
 93
        1
300
CONTENTFORMAT
  1
CONTENTFORMAT_BEGIN
 90
        0
 91
        0
 92
        4
 93
        0
300

 40
0.0
140
1.0
 94
        2
 62
     0
340
11
144
0.18
309
CONTENTFORMAT_END
171
     1
301
MARGIN
  1
CELLMARGIN_BEGIN
 40
0.06
 40
0.06
 40
0.06
 40
0.06
 40
0.06
 40
0.06
309
CELLMARGIN_END
 94
        6
 95
        1
302
GRIDFORMAT
  1
GRIDFORMAT_BEGIN
 90
        0
 91
        1
 62
     0
 92
       -2
340
14
 93
        0
 40
0.045
309
GRIDFORMAT_END
 95
        2
302
GRIDFORMAT
  1
GRIDFORMAT_BEGIN
 90
        0
 91
        1
 62
     0
 92
       -2
340
14
 93
        0
 40
0.045
309
GRIDFORMAT_END
 95
        4
302
GRIDFORMAT
  1
GRIDFORMAT_BEGIN
 90
        0
 91
        1
 62
     0
 92
       -2
340
14
 93
        0
 40
0.045
309
GRIDFORMAT_END
 95
        8
302
GRIDFORMAT
  1
GRIDFORMAT_BEGIN
 90
        0
 91
        1
 62
     0
 92
       -2
340
14
 93
        0
 40
0.045
309
GRIDFORMAT_END
 95
       16
302
GRIDFORMAT
  1
GRIDFORMAT_BEGIN
 90
        0
 91
        1
 62
     0
 92
       -2
340
14
 93
        0
 40
0.045
309
GRIDFORMAT_END
 95
       32
302
GRIDFORMAT
  1
GRIDFORMAT_BEGIN
 90
        0
 91
        1
 62
     0
 92
       -2
340
14
 93
        0
 40
0.045
309
GRIDFORMAT_END
309
TABLEFORMAT_END
  1
CELLSTYLE_BEGIN
 90
        3
 91
        2
300
_DATA
309
CELLSTYLE_END
  0
ENDSEC
  0
EOF
