  0
SECTION
  2
HEADER
  9
$ACADVER
  1
AC1027
  9
$ACADMAINTVER
 70
   105
  9
$DWGCODEPAGE
  3
ANSI_1252
  9
$LASTSAVEDBY
  1
Office Desk
  9
$REQUIREDVERSIONS
160
                 0
  9
$INSBASE
 10
0.0
 20
0.0
 30
0.0
  9
$EXTMIN
 10
-12.30377559055118
 20
-5.432578740157481
 30
0.0
  9
$EXTMAX
 10
-4.922295275590551
 20
2.161866141732284
 30
0.0
  9
$LIMMIN
 10
0.0
 20
0.0
  9
$LIMMAX
 10
12.0
 20
9.0
  9
$ORTHOMODE
 70
     0
  9
$REGENMODE
 70
     1
  9
$FILLMODE
 70
     1
  9
$QTEXTMODE
 70
     0
  9
$MIRRTEXT
 70
     1
  9
$LTSCALE
 40
1.0
  9
$ATTMODE
 70
     1
  9
$TEXTSIZE
 40
0.2
  9
$TRACEWID
 40
0.05
  9
$TEXTSTYLE
  7
Standard
  9
$CLAYER
  8
0
  9
$CELTYPE
  6
ByLayer
  9
$CECOLOR
 62
   256
  9
$CELTSCALE
 40
1.0
  9
$DISPSILH
 70
     0
  9
$DIMSCALE
 40
1.0
  9
$DIMASZ
 40
0.18
  9
$DIMEXO
 40
0.0625
  9
$DIMDLI
 40
0.38
  9
$DIMRND
 40
0.0
  9
$DIMDLE
 40
0.0
  9
$DIMEXE
 40
0.18
  9
$DIMTP
 40
0.0
  9
$DIMTM
 40
0.0
  9
$DIMTXT
 40
0.18
  9
$DIMCEN
 40
0.09
  9
$DIMTSZ
 40
0.0
  9
$DIMTOL
 70
     0
  9
$DIMLIM
 70
     0
  9
$DIMTIH
 70
     1
  9
$DIMTOH
 70
     1
  9
$DIMSE1
 70
     0
  9
$DIMSE2
 70
     0
  9
$DIMTAD
 70
     0
  9
$DIMZIN
 70
     0
  9
$DIMBLK
  1

  9
$DIMASO
 70
     1
  9
$DIMSHO
 70
     1
  9
$DIMPOST
  1

  9
$DIMAPOST
  1

  9
$DIMALT
 70
     0
  9
$DIMALTD
 70
     2
  9
$DIMALTF
 40
25.4
  9
$DIMLFAC
 40
1.0
  9
$DIMTOFL
 70
     0
  9
$DIMTVP
 40
0.0
  9
$DIMTIX
 70
     0
  9
$DIMSOXD
 70
     0
  9
$DIMSAH
 70
     0
  9
$DIMBLK1
  1

  9
$DIMBLK2
  1

  9
$DIMSTYLE
  2
Standard
  9
$DIMCLRD
 70
     0
  9
$DIMCLRE
 70
     0
  9
$DIMCLRT
 70
     0
  9
$DIMTFAC
 40
1.0
  9
$DIMGAP
 40
0.09
  9
$DIMJUST
 70
     0
  9
$DIMSD1
 70
     0
  9
$DIMSD2
 70
     0
  9
$DIMTOLJ
 70
     1
  9
$DIMTZIN
 70
     0
  9
$DIMALTZ
 70
     0
  9
$DIMALTTZ
 70
     0
  9
$DIMUPT
 70
     0
  9
$DIMDEC
 70
     4
  9
$DIMTDEC
 70
     4
  9
$DIMALTU
 70
     2
  9
$DIMALTTD
 70
     2
  9
$DIMTXSTY
  7
Standard
  9
$DIMAUNIT
 70
     0
  9
$DIMADEC
 70
     0
  9
$DIMALTRND
 40
0.0
  9
$DIMAZIN
 70
     0
  9
$DIMDSEP
 70
    46
  9
$DIMATFIT
 70
     3
  9
$DIMFRAC
 70
     0
  9
$DIMLDRBLK
  1

  9
$DIMLUNIT
 70
     2
  9
$DIMLWD
 70
    -2
  9
$DIMLWE
 70
    -2
  9
$DIMTMOVE
 70
     0
  9
$DIMFXL
 40
1.0
  9
$DIMFXLON
 70
     0
  9
$DIMJOGANG
 40
0.7853981633974483
  9
$DIMTFILL
 70
     0
  9
$DIMTFILLCLR
 70
     0
  9
$DIMARCSYM
 70
     0
  9
$DIMLTYPE
  6

  9
$DIMLTEX1
  6

  9
$DIMLTEX2
  6

  9
$DIMTXTDIRECTION
 70
     0
  9
$LUNITS
 70
     2
  9
$LUPREC
 70
     4
  9
$SKETCHINC
 40
0.1
  9
$FILLETRAD
 40
0.0
  9
$AUNITS
 70
     0
  9
$AUPREC
 70
     0
  9
$MENU
  1
.
  9
$ELEVATION
 40
0.0
  9
$PELEVATION
 40
0.0
  9
$THICKNESS
 40
0.0
  9
$LIMCHECK
 70
     0
  9
$CHAMFERA
 40
0.0
  9
$CHAMFERB
 40
0.0
  9
$CHAMFERC
 40
0.0
  9
$CHAMFERD
 40
0.0
  9
$SKPOLY
 70
     0
  9
$TDCREATE
 40
2461028.622839734
  9
$TDUCREATE
 40
2461028.393673067
  9
$TDUPDATE
 40
2461028.622839792
  9
$TDUUPDATE
 40
2461028.393673125
  9
$TDINDWG
 40
0.0000000116
  9
$TDUSRTIMER
 40
0.0000000116
  9
$USRTIMER
 70
     1
  9
$ANGBASE
 50
0.0
  9
$ANGDIR
 70
     0
  9
$PDMODE
 70
     0
  9
$PDSIZE
 40
0.0
  9
$PLINEWID
 40
0.0
  9
$SPLFRAME
 70
     0
  9
$SPLINETYPE
 70
     6
  9
$SPLINESEGS
 70
     8
  9
$HANDSEED
  5
8A
  9
$SURFTAB1
 70
     6
  9
$SURFTAB2
 70
     6
  9
$SURFTYPE
 70
     6
  9
$SURFU
 70
     6
  9
$SURFV
 70
     6
  9
$UCSBASE
  2

  9
$UCSNAME
  2

  9
$UCSORG
 10
0.0
 20
0.0
 30
0.0
  9
$UCSXDIR
 10
1.0
 20
0.0
 30
0.0
  9
$UCSYDIR
 10
0.0
 20
1.0
 30
0.0
  9
$UCSORTHOREF
  2

  9
$UCSORTHOVIEW
 70
     0
  9
$UCSORGTOP
 10
0.0
 20
0.0
 30
0.0
  9
$UCSORGBOTTOM
 10
0.0
 20
0.0
 30
0.0
  9
$UCSORGLEFT
 10
0.0
 20
0.0
 30
0.0
  9
$UCSORGRIGHT
 10
0.0
 20
0.0
 30
0.0
  9
$UCSORGFRONT
 10
0.0
 20
0.0
 30
0.0
  9
$UCSORGBACK
 10
0.0
 20
0.0
 30
0.0
  9
$PUCSBASE
  2

  9
$PUCSNAME
  2

  9
$PUCSORG
 10
0.0
 20
0.0
 30
0.0
  9
$PUCSXDIR
 10
1.0
 20
0.0
 30
0.0
  9
$PUCSYDIR
 10
0.0
 20
1.0
 30
0.0
  9
$PUCSORTHOREF
  2

  9
$PUCSORTHOVIEW
 70
     0
  9
$PUCSORGTOP
 10
0.0
 20
0.0
 30
0.0
  9
$PUCSORGBOTTOM
 10
0.0
 20
0.0
 30
0.0
  9
$PUCSORGLEFT
 10
0.0
 20
0.0
 30
0.0
  9
$PUCSORGRIGHT
 10
0.0
 20
0.0
 30
0.0
  9
$PUCSORGFRONT
 10
0.0
 20
0.0
 30
0.0
  9
$PUCSORGBACK
 10
0.0
 20
0.0
 30
0.0
  9
$USERI1
 70
     0
  9
$USERI2
 70
     0
  9
$USERI3
 70
     0
  9
$USERI4
 70
     0
  9
$USERI5
 70
     0
  9
$USERR1
 40
0.0
  9
$USERR2
 40
0.0
  9
$USERR3
 40
0.0
  9
$USERR4
 40
0.0
  9
$USERR5
 40
0.0
  9
$WORLDVIEW
 70
     1
  9
$SHADEDGE
 70
     3
  9
$SHADEDIF
 70
    70
  9
$TILEMODE
 70
     1
  9
$MAXACTVP
 70
    64
  9
$PINSBASE
 10
0.0
 20
0.0
 30
0.0
  9
$PLIMCHECK
 70
     0
  9
$PEXTMIN
 10
1.000000000000000E+20
 20
1.000000000000000E+20
 30
1.000000000000000E+20
  9
$PEXTMAX
 10
-1.000000000000000E+20
 20
-1.000000000000000E+20
 30
-1.000000000000000E+20
  9
$PLIMMIN
 10
0.0
 20
0.0
  9
$PLIMMAX
 10
12.0
 20
9.0
  9
$UNITMODE
 70
     0
  9
$VISRETAIN
 70
     1
  9
$PLINEGEN
 70
     0
  9
$PSLTSCALE
 70
     1
  9
$TREEDEPTH
 70
  3020
  9
$CMLSTYLE
  2
Standard
  9
$CMLJUST
 70
     0
  9
$CMLSCALE
 40
1.0
  9
$PROXYGRAPHICS
 70
     1
  9
$MEASUREMENT
 70
     0
  9
$CELWEIGHT
370
    -1
  9
$ENDCAPS
280
     0
  9
$JOINSTYLE
280
     0
  9
$LWDISPLAY
290
     0
  9
$INSUNITS
 70
     1
  9
$HYPERLINKBASE
  1

  9
$STYLESHEET
  1

  9
$XEDIT
290
     1
  9
$CEPSNTYPE
380
     0
  9
$PSTYLEMODE
290
     1
  9
$FINGERPRINTGUID
  2
{25f68781-f8b3-42a5-a6c2-484762a80887}
  9
$VERSIONGUID
  2
{FAEB1C32-E019-11D5-929B-00C0DF256EC4}
  9
$EXTNAMES
290
     1
  9
$PSVPSCALE
 40
0.0
  9
$OLESTARTUP
290
     0
  9
$SORTENTS
280
   127
  9
$INDEXCTL
280
     0
  9
$HIDETEXT
280
     1
  9
$XCLIPFRAME
280
     2
  9
$HALOGAP
280
     0
  9
$OBSCOLOR
 70
   257
  9
$OBSLTYPE
280
     0
  9
$INTERSECTIONDISPLAY
280
     0
  9
$INTERSECTIONCOLOR
 70
   257
  9
$DIMASSOC
280
     2
  9
$PROJECTNAME
  1

  9
$CAMERADISPLAY
290
     0
  9
$LENSLENGTH
 40
50.0
  9
$CAMERAHEIGHT
 40
0.0
  9
$STEPSPERSEC
 40
2.0
  9
$STEPSIZE
 40
6.0
  9
$3DDWFPREC
 40
2.0
  9
$PSOLWIDTH
 40
0.25
  9
$PSOLHEIGHT
 40
4.0
  9
$LOFTANG1
 40
1.570796326794897
  9
$LOFTANG2
 40
1.570796326794897
  9
$LOFTMAG1
 40
0.0
  9
$LOFTMAG2
 40
0.0
  9
$LOFTPARAM
 70
     7
  9
$LOFTNORMALS
280
     1
  9
$LATITUDE
 40
37.795
  9
$LONGITUDE
 40
-122.394
  9
$NORTHDIRECTION
 40
0.0
  9
$TIMEZONE
 70
 -8000
  9
$LIGHTGLYPHDISPLAY
280
     1
  9
$TILEMODELIGHTSYNCH
280
     1
  9
$CMATERIAL
347
44
  9
$SOLIDHIST
280
     0
  9
$SHOWHIST
280
     1
  9
$DWFFRAME
280
     2
  9
$DGNFRAME
280
     2
  9
$REALWORLDSCALE
290
     1
  9
$INTERFERECOLOR
 62
   256
  9
$CSHADOW
280
     0
  9
$SHADOWPLANELOCATION
 40
0.0
  0
ENDSEC
  0
SECTION
  2
CLASSES
  0
CLASS
  1
ACDBDICTIONARYWDFLT
  2
AcDbDictionaryWithDefault
  3
ObjectDBX Classes
 90
        0
 91
        3
280
     0
281
     0
  0
CLASS
  1
VISUALSTYLE
  2
AcDbVisualStyle
  3
ObjectDBX Classes
 90
     4095
 91
        3
280
     0
281
     0
  0
CLASS
  1
MATERIAL
  2
AcDbMaterial
  3
ObjectDBX Classes
 90
     1153
 91
        3
280
     0
281
     0
  0
CLASS
  1
SCALE
  2
AcDbScale
  3
ObjectDBX Classes
 90
     1153
 91
        3
280
     0
281
     0
  0
CLASS
  1
TABLESTYLE
  2
AcDbTableStyle
  3
ObjectDBX Classes
 90
     4095
 91
        3
280
     0
281
     0
  0
CLASS
  1
MLEADERSTYLE
  2
AcDbMLeaderStyle
  3
ACDB_MLEADERSTYLE_CLASS
 90
     4095
 91
        3
280
     0
281
     0
  0
CLASS
  1
SUN
  2
AcDbSun
  3
SCENEOE
 90
     1153
 91
        3
280
     0
281
     0
  0
CLASS
  1
DICTIONARYVAR
  2
AcDbDictionaryVar
  3
ObjectDBX Classes
 90
        0
 91
        3
280
     0
281
     0
  0
CLASS
  1
CELLSTYLEMAP
  2
AcDbCellStyleMap
  3
ObjectDBX Classes
 90
     1152
 91
        3
280
     0
281
     0
  0
ENDSEC
  0
SECTION
  2
TABLES
  0
TABLE
  2
VPORT
  5
8
330
0
100
AcDbSymbolTable
 70
     1
  0
VPORT
  5
29
330
8
100
AcDbSymbolTableRecord
100
AcDbViewportTableRecord
  2
*Active
 70
     0
 10
0.0
 20
0.0
 11
1.0
 21
1.0
 12
10.42990654205607
 22
4.5
 13
0.0
 23
0.0
 14
0.5
 24
0.5
 15
0.5
 25
0.5
 16
0.0
 26
0.0
 36
1.0
 17
0.0
 27
0.0
 37
0.0
 40
9.0
 41
1.972972972850329
 42
50.0
 43
0.0
 44
0.0
 50
0.0
 51
0.0
 71
     0
 72
   100
 73
     1
 74
     3
 75
     0
 76
     0
 77
     0
 78
     0
281
     0
 65
     1
110
0.0
120
0.0
130
0.0
111
1.0
121
0.0
131
0.0
112
0.0
122
1.0
132
0.0
 79
     0
146
0.0
348
2F
 60
     3
 61
     5
292
     1
282
     1
141
0.0
142
0.0
 63
   250
361
5D
  0
ENDTAB
  0
TABLE
  2
LTYPE
  5
5
330
0
100
AcDbSymbolTable
 70
     1
  0
LTYPE
  5
14
330
5
100
AcDbSymbolTableRecord
100
AcDbLinetypeTableRecord
  2
ByBlock
 70
     0
  3

 72
    65
 73
     0
 40
0.0
  0
LTYPE
  5
15
330
5
100
AcDbSymbolTableRecord
100
AcDbLinetypeTableRecord
  2
ByLayer
 70
     0
  3

 72
    65
 73
     0
 40
0.0
  0
LTYPE
  5
16
330
5
100
AcDbSymbolTableRecord
100
AcDbLinetypeTableRecord
  2
Continuous
 70
     0
  3
Solid line
 72
    65
 73
     0
 40
0.0
  0
ENDTAB
  0
TABLE
  2
LAYER
  5
2
330
0
100
AcDbSymbolTable
 70
     2
  0
LAYER
  5
10
330
2
100
AcDbSymbolTableRecord
100
AcDbLayerTableRecord
  2
0
 70
     0
 62
     7
  6
Continuous
370
    -3
390
F
347
46
348
0
  0
LAYER
  5
5F
330
2
100
AcDbSymbolTableRecord
100
AcDbLayerTableRecord
  2
Layer 1
 70
     0
 62
     7
  6
Continuous
370
    -3
390
F
347
46
348
0
  0
ENDTAB
  0
TABLE
  2
STYLE
  5
3
330
0
100
AcDbSymbolTable
 70
     1
  0
STYLE
  5
11
330
3
100
AcDbSymbolTableRecord
100
AcDbTextStyleTableRecord
  2
Standard
 70
     0
 40
0.0
 41
1.0
 50
0.0
 71
     0
 42
0.2
  3
txt
  4

  0
ENDTAB
  0
TABLE
  2
VIEW
  5
6
330
0
100
AcDbSymbolTable
 70
     0
  0
ENDTAB
  0
TABLE
  2
UCS
  5
7
330
0
100
AcDbSymbolTable
 70
     0
  0
ENDTAB
  0
TABLE
  2
APPID
  5
9
330
0
100
AcDbSymbolTable
 70
     2
  0
APPID
  5
12
330
9
100
AcDbSymbolTableRecord
100
AcDbRegAppTableRecord
  2
ACAD
 70
     0
  0
APPID
  5
5E
330
9
100
AcDbSymbolTableRecord
100
AcDbRegAppTableRecord
  2
ODA
 70
     0
  0
ENDTAB
  0
TABLE
  2
DIMSTYLE
  5
A
330
0
100
AcDbSymbolTable
 70
     1
100
AcDbDimStyleTable
  0
DIMSTYLE
105
27
330
A
100
AcDbSymbolTableRecord
100
AcDbDimStyleTableRecord
  2
Standard
 70
     0
178
     0
340
11
  0
ENDTAB
  0
TABLE
  2
BLOCK_RECORD
  5
1
330
0
100
AcDbSymbolTable
 70
     1
  0
BLOCK_RECORD
  5
1F
330
1
100
AcDbSymbolTableRecord
100
AcDbBlockTableRecord
  2
*Model_Space
340
22
 70
     0
280
     1
281
     0
  0
BLOCK_RECORD
  5
1B
330
1
100
AcDbSymbolTableRecord
100
AcDbBlockTableRecord
  2
*Paper_Space
340
1E
 70
     0
280
     1
281
     0
  0
BLOCK_RECORD
  5
23
330
1
100
AcDbSymbolTableRecord
100
AcDbBlockTableRecord
  2
*Paper_Space0
340
26
 70
     0
280
     1
281
     0
  0
ENDTAB
  0
ENDSEC
  0
SECTION
  2
BLOCKS
  0
BLOCK
  5
20
330
1F
100
AcDbEntity
  8
0
100
AcDbBlockBegin
  2
*Model_Space
 70
     0
 10
0.0
 20
0.0
 30
0.0
  3
*Model_Space
  1

  0
ENDBLK
  5
21
330
1F
100
AcDbEntity
  8
0
100
AcDbBlockEnd
  0
BLOCK
  5
1C
330
1B
100
AcDbEntity
 67
     1
  8
0
100
AcDbBlockBegin
  2
*Paper_Space
 70
     0
 10
0.0
 20
0.0
 30
0.0
  3
*Paper_Space
  1

  0
ENDBLK
  5
1D
330
1B
100
AcDbEntity
 67
     1
  8
0
100
AcDbBlockEnd
  0
BLOCK
  5
24
330
23
100
AcDbEntity
  8
0
100
AcDbBlockBegin
  2
*Paper_Space0
 70
     0
 10
0.0
 20
0.0
 30
0.0
  3
*Paper_Space0
  1

  0
ENDBLK
  5
25
330
23
100
AcDbEntity
  8
0
100
AcDbBlockEnd
  0
ENDSEC
  0
SECTION
  2
ENTITIES
  0
LWPOLYLINE
  5
60
330
1F
100
AcDbEntity
  8
Layer 1
 62
   250
100
AcDbPolyline
 90
        5
 70
     1
 43
0.0
 10
-12.30377165354331
 20
2.161870078740157
 10
-4.922295275590551
 20
2.161870078740157
 10
-4.922295275590551
 20
-5.432582677165354
 10
-12.30377165354331
 20
-5.432582677165354
 10
-12.30377165354331
 20
2.161870078740157
  0
LWPOLYLINE
  5
61
330
1F
100
AcDbEntity
  8
Layer 1
 62
     7
370
    18
100
AcDbPolyline
 90
       33
 70
     1
 43
0.0
 10
-9.013767716535433
 20
1.796370078740158
 10
-8.955070866141732
 20
1.794787401574803
 10
-8.9003937007874
 20
1.790251968503937
 10
-8.850913385826772
 20
1.78307874015748
 10
-8.807803149606299
 20
1.77357874015748
 10
-8.772232283464566
 20
1.762066929133858
 10
-8.745370078740157
 20
1.748862204724409
 10
-8.728393700787402
 20
1.734271653543307
 10
-8.722476377952756
 20
1.718618110236221
 10
-8.728393700787402
 20
1.702968503937008
 10
-8.745370078740157
 20
1.688381889763779
 10
-8.772232283464566
 20
1.675177165354331
 10
-8.807803149606299
 20
1.663665354330709
 10
-8.850913385826772
 20
1.654165354330709
 10
-8.9003937007874
 20
1.646988188976378
 10
-8.955070866141732
 20
1.642448818897638
 10
-9.013767716535433
 20
1.640866141732283
 10
-9.07246062992126
 20
1.642448818897638
 10
-9.127129921259842
 20
1.646988188976378
 10
-9.176602362204724
 20
1.654165354330709
 10
-9.219712598425197
 20
1.663665354330709
 10
-9.25528346456693
 20
1.675177165354331
 10
-9.282141732283465
 20
1.688381889763779
 10
-9.29911811023622
 20
1.702968503937008
 10
-9.305035433070866
 20
1.718618110236221
 10
-9.29911811023622
 20
1.734271653543307
 10
-9.282141732283465
 20
1.748862204724409
 10
-9.25528346456693
 20
1.762066929133858
 10
-9.219712598425197
 20
1.77357874015748
 10
-9.176602362204724
 20
1.78307874015748
 10
-9.127129921259842
 20
1.790251968503937
 10
-9.07246062992126
 20
1.794787401574803
 10
-9.013767716535433
 20
1.796370078740158
  0
LWPOLYLINE
  5
62
330
1F
100
AcDbEntity
  8
Layer 1
 62
     7
370
    18
100
AcDbPolyline
 90
       33
 70
     1
 43
0.0
 10
-9.013767716535433
 20
0.897751968503937
 10
-8.928047244094488
 20
0.8950944881889764
 10
-8.848200787401575
 20
0.8874724409448819
 10
-8.775944881889764
 20
0.8754133858267716
 10
-8.712984251968503
 20
0.8594488188976378
 10
-8.661035433070866
 20
0.8401062992125984
 10
-8.621811023622048
 20
0.8179173228346457
 10
-8.59701968503937
 20
0.7934015748031497
 10
-8.588374015748032
 20
0.7670984251968503
 10
-8.59701968503937
 20
0.7407992125984252
 10
-8.621811023622048
 20
0.7162952755905512
 10
-8.661035433070866
 20
0.6941062992125985
 10
-8.712984251968503
 20
0.6747677165354331
 10
-8.775944881889764
 20
0.6588031496062993
 10
-8.848200787401575
 20
0.646748031496063
 10
-8.928047244094488
 20
0.6391259842519685
 10
-9.013767716535433
 20
0.6364685039370078
 10
-9.09948031496063
 20
0.6391259842519685
 10
-9.179322834645669
 20
0.646748031496063
 10
-9.251574803149607
 20
0.6588031496062993
 10
-9.314531496062992
 20
0.6747677165354331
 10
-9.36648031496063
 20
0.6941062992125985
 10
-9.405704724409448
 20
0.7162952755905512
 10
-9.430492125984252
 20
0.7407992125984252
 10
-9.43913779527559
 20
0.7670984251968503
 10
-9.430492125984252
 20
0.7934015748031497
 10
-9.405704724409448
 20
0.8179173228346457
 10
-9.36648031496063
 20
0.8401062992125984
 10
-9.314531496062992
 20
0.8594488188976378
 10
-9.251574803149607
 20
0.8754133858267716
 10
-9.179322834645669
 20
0.8874724409448819
 10
-9.09948031496063
 20
0.8950944881889764
 10
-9.013767716535433
 20
0.897751968503937
  0
LWPOLYLINE
  5
63
330
1F
100
AcDbEntity
  8
Layer 1
 62
     7
370
    18
100
AcDbPolyline
 90
       19
 70
     0
 43
0.0
 10
-9.303948818897638
 20
1.711846456692913
 10
-9.30801968503937
 20
1.049956692913386
 10
-9.306047244094488
 20
1.047842519685039
 10
-9.299929133858267
 20
1.042133858267716
 10
-9.289358267716535
 20
1.033787401574803
 10
-9.274031496062992
 20
1.023751968503937
 10
-9.25363779527559
 20
1.01298031496063
 10
-9.227877952755906
 20
1.002429133858268
 10
-9.19644094488189
 20
0.9930472440944882
 10
-9.159027559055119
 20
0.9857913385826772
 10
-9.143555118110235
 20
0.9837204724409448
 10
-9.102153543307086
 20
0.9792992125984252
 10
-9.042350393700787
 20
0.9752086614173229
 10
-8.971669291338582
 20
0.9741377952755905
 10
-8.897633858267717
 20
0.9787637795275591
 10
-8.82777559055118
 20
0.9917755905511811
 10
-8.769610236220473
 20
1.015854330708661
 10
-8.730673228346456
 20
1.053685039370079
 10
-8.730271653543307
 20
1.700685039370079
  0
LWPOLYLINE
  5
64
330
1F
100
AcDbEntity
  8
Layer 1
 62
     7
370
    18
100
AcDbPolyline
 90
       58
 70
     1
 43
0.0
 10
-8.856641732283464
 20
1.51851968503937
 10
-8.85676377952756
 20
1.522299212598425
 10
-8.856228346456692
 20
1.53238188976378
 10
-8.853665354330708
 20
1.546885826771654
 10
-8.847712598425197
 20
1.563937007874016
 10
-8.837015748031495
 20
1.581653543307087
 10
-8.820200787401575
 20
1.598157480314961
 10
-8.795917322834645
 20
1.611562992125984
 10
-8.762791338582677
 20
1.619996062992126
 10
-8.758700787401574
 20
1.617822834645669
 10
-8.74655905511811
 20
1.611834645669291
 10
-8.726562992125984
 20
1.602842519685039
 10
-8.698897637795275
 20
1.591645669291339
 10
-8.663759842519685
 20
1.579051181102362
 10
-8.621338582677165
 20
1.56586220472441
 10
-8.571834645669291
 20
1.552885826771653
 10
-8.515433070866141
 20
1.54092125984252
 10
-8.506893700787401
 20
1.53913779527559
 10
-8.483027559055119
 20
1.53253937007874
 10
-8.446448818897638
 20
1.519244094488189
 10
-8.399779527559055
 20
1.497370078740157
 10
-8.345633858267716
 20
1.46503937007874
 10
-8.28663779527559
 20
1.420370078740157
 10
-8.225405511811024
 20
1.36148031496063
 10
-8.164555118110236
 20
1.286496062992126
 10
-8.010350393700788
 20
1.05892125984252
 10
-8.011555118110236
 20
1.056877952755906
 10
-8.01607874015748
 20
1.051799212598425
 10
-8.025279527559055
 20
1.045271653543307
 10
-8.040523622047244
 20
1.038870078740157
 10
-8.063169291338582
 20
1.034185039370079
 10
-8.09457874015748
 20
1.032795275590551
 10
-8.136110236220473
 20
1.036283464566929
 10
-8.189129921259843
 20
1.046228346456693
 10
-8.195007874015747
 20
1.057141732283465
 10
-8.211700787401575
 20
1.08651968503937
 10
-8.237807086614174
 20
1.129326771653543
 10
-8.27192125984252
 20
1.180531496062992
 10
-8.312633858267716
 20
1.235090551181102
 10
-8.35853937007874
 20
1.287972440944882
 10
-8.40823622047244
 20
1.334133858267716
 10
-8.460318897637796
 20
1.368547244094488
 10
-8.463929133858267
 20
1.370251968503937
 10
-8.475358267716535
 20
1.375181102362205
 10
-8.495515748031496
 20
1.383070866141732
 10
-8.525314960629922
 20
1.393641732283465
 10
-8.565657480314961
 20
1.406625984251969
 10
-8.617456692913386
 20
1.421755905511811
 10
-8.681614173228347
 20
1.438755905511811
 10
-8.759043307086614
 20
1.457354330708661
 10
-8.7623031496063
 20
1.456157480314961
 10
-8.77109842519685
 20
1.453795275590551
 10
-8.783933070866143
 20
1.45211811023622
 10
-8.79932283464567
 20
1.452964566929134
 10
-8.815775590551182
 20
1.458185039370079
 10
-8.831807086614173
 20
1.46961811023622
 10
-8.845925196850393
 20
1.489114173228346
 10
-8.856641732283464
 20
1.51851968503937
  0
LWPOLYLINE
  5
65
330
1F
100
AcDbEntity
  8
Layer 1
 62
     7
370
    18
100
AcDbPolyline
 90
       19
 70
     1
 43
0.0
 10
-8.786216535433072
 20
1.006917322834646
 10
-8.78498031496063
 20
0.7851141732283464
 10
-8.811641732283464
 20
0.7443622047244095
 10
-8.868062992125985
 20
0.7157125984251969
 10
-8.943972440944881
 20
0.6990551181102362
 10
-9.029106299212598
 20
0.6942795275590551
 10
-9.113188976377952
 20
0.701275590551181
 10
-9.185964566929133
 20
0.7199330708661418
 10
-9.237157480314961
 20
0.7501456692913386
 10
-9.256503937007874
 20
0.7918031496062992
 10
-9.256503937007874
 20
1.014283464566929
 10
-9.245153543307087
 20
1.010622047244095
 10
-9.213389763779528
 20
1.001661417322835
 10
-9.164641732283464
 20
0.9904448818897638
 10
-9.102338582677165
 20
0.980011811023622
 10
-9.029917322834645
 20
0.9734015748031496
 10
-8.950799212598426
 20
0.9736574803149606
 10
-8.868425196850394
 20
0.9838149606299212
 10
-8.786216535433072
 20
1.006917322834646
  0
LWPOLYLINE
  5
66
330
1F
100
AcDbEntity
  8
Layer 1
 62
     7
370
    18
100
AcDbPolyline
 90
       11
 70
     0
 43
0.0
 10
-9.437799212598426
 20
0.756728346456693
 10
-9.437799212598426
 20
0.0382952755905512
 10
-9.406062992125984
 20
0.000251968503937
 10
-9.321625984251968
 20
-0.0295472440944882
 10
-9.200641732283465
 20
-0.0496692913385827
 10
-9.059271653543307
 20
-0.0586889763779528
 10
-8.913669291338582
 20
-0.0551653543307087
 10
-8.779988188976377
 20
-0.0376771653543307
 10
-8.674393700787402
 20
-0.0047834645669291
 10
-8.613035433070866
 20
0.0449409448818898
 10
-8.613035433070866
 20
0.7329409448818898
  0
LWPOLYLINE
  5
67
330
1F
100
AcDbEntity
  8
Layer 1
 62
     7
370
    18
100
AcDbPolyline
 90
       36
 70
     0
 43
0.0
 10
-8.613035433070866
 20
0.3889606299212598
 10
-8.579547244094488
 20
0.3781141732283465
 10
-8.490586614173228
 20
0.3487755905511811
 10
-8.363413385826771
 20
0.305759842519685
 10
-8.215279527559055
 20
0.2538740157480315
 10
-8.06344094488189
 20
0.1979330708661417
 10
-7.925153543307086
 20
0.142744094488189
 10
-7.817677165354331
 20
0.0931181102362205
 10
-7.758263779527559
 20
0.0538622047244094
 10
-7.758007874015748
 20
0.0521417322834646
 10
-7.759003937007874
 20
0.0470944881889764
 10
-7.763917322834645
 20
0.0389015748031496
 10
-7.775393700787402
 20
0.0277322834645669
 10
-7.796094488188976
 20
0.0137637795275591
 10
-7.828673228346457
 20
-0.0028267716535433
 10
-7.875787401574804
 20
-0.0218700787401575
 10
-7.940090551181102
 20
-0.0431850393700787
 10
-8.929838582677165
 20
-0.4118858267716535
 10
-8.93886220472441
 20
-0.4134724409448819
 10
-8.964283464566929
 20
-0.416740157480315
 10
-9.003649606299213
 20
-0.4194527559055118
 10
-9.054488188976379
 20
-0.4193622047244094
 10
-9.114342519685039
 20
-0.4142322834645669
 10
-9.180744094488189
 20
-0.4018228346456693
 10
-9.25123622047244
 20
-0.3798976377952756
 10
-9.323350393700787
 20
-0.3462086614173228
 10
-10.29818897637795
 20
0.0702834645669291
 10
-10.30087401574803
 20
0.0727165354330709
 10
-10.30596456692913
 20
0.0796811023622047
 10
-10.30903149606299
 20
0.0906692913385827
 10
-10.30563779527559
 20
0.1051732283464567
 10
-10.29133858267716
 20
0.1226850393700787
 10
-10.26170472440945
 20
0.1426968503937008
 10
-10.21229921259843
 20
0.1647047244094488
 10
-10.1386811023622
 20
0.1882007874015748
 10
-9.437799212598426
 20
0.3975
  0
LWPOLYLINE
  5
68
330
1F
100
AcDbEntity
  8
Layer 1
 62
     7
370
    18
100
AcDbPolyline
 90
       35
 70
     0
 43
0.0
 10
-10.30751968503937
 20
0.0831456692913386
 10
-10.30893700787402
 20
0.081488188976378
 10
-10.31251181102362
 20
0.0762322834645669
 10
-10.31721653543307
 20
0.0669448818897638
 10
-10.32203937007874
 20
0.0531889763779528
 10
-10.32594881889764
 20
0.0345354330708661
 10
-10.32792913385827
 20
0.0105551181102362
 10
-10.32696062992126
 20
-0.0191929133858268
 10
-10.32201968503937
 20
-0.0551299212598425
 10
-9.503708661417322
 20
-0.4089055118110236
 10
-9.490547244094488
 20
-0.4148543307086614
 10
-9.45507874015748
 20
-0.4306811023622047
 10
-9.403311023622047
 20
-0.4533661417322835
 10
-9.341271653543307
 20
-0.4798818897637795
 10
-9.274964566929134
 20
-0.5071968503937008
 10
-9.210417322834646
 20
-0.5322952755905512
 10
-9.153637795275591
 20
-0.5521456692913386
 10
-9.110645669291339
 20
-0.5637283464566929
 10
-9.104700787401574
 20
-0.5646338582677165
 10
-9.088090551181102
 20
-0.5666377952755906
 10
-9.06265748031496
 20
-0.5686574803149607
 10
-9.030248031496063
 20
-0.5696220472440945
 10
-8.992700787401574
 20
-0.5684488188976378
 10
-8.95186220472441
 20
-0.5640629921259842
 10
-8.909570866141733
 20
-0.5553858267716535
 10
-8.867673228346456
 20
-0.5413464566929134
 10
-7.773173228346456
 20
-0.1357362204724409
 10
-7.771240157480315
 20
-0.1353976377952756
 10
-7.766413385826771
 20
-0.1329015748031496
 10
-7.760145669291338
 20
-0.1260433070866142
 10
-7.753885826771653
 20
-0.1126062992125984
 10
-7.749090551181102
 20
-0.0903779527559055
 10
-7.747216535433071
 20
-0.0571496062992126
 10
-7.749712598425197
 20
-0.0107086614173228
 10
-7.758031496062992
 20
0.0511574803149606
  0
LWPOLYLINE
  5
69
330
1F
100
AcDbEntity
  8
Layer 1
 62
     7
370
    18
100
AcDbPolyline
 90
       43
 70
     0
 43
0.0
 10
-7.773173228346456
 20
-0.1342874015748032
 10
-7.774834645669292
 20
-0.2225472440944882
 10
-7.779200787401575
 20
-0.4561181102362205
 10
-7.785346456692913
 20
-0.7881771653543307
 10
-7.792346456692913
 20
-1.171913385826772
 10
-7.799279527559055
 20
-1.560507874015748
 10
-7.805220472440945
 20
-1.907141732283465
 10
-7.809240157480315
 20
-2.164996062992126
 10
-7.810417322834645
 20
-2.287259842519685
 10
-7.810086614173228
 20
-2.289704724409449
 10
-7.810578740157481
 20
-2.296681102362205
 10
-7.814110236220473
 20
-2.307665354330709
 10
-7.82290157480315
 20
-2.322122047244095
 10
-7.839165354330708
 20
-2.339515748031496
 10
-7.865125984251969
 20
-2.359326771653543
 10
-7.902996062992126
 20
-2.381015748031496
 10
-7.955
 20
-2.404051181102362
 10
-7.992763779527559
 20
-2.419090551181102
 10
-8.093062992125985
 20
-2.458968503937008
 10
-8.23640157480315
 20
-2.515811023622047
 10
-8.403287401574802
 20
-2.581751968503937
 10
-8.574224409448819
 20
-2.648929133858268
 10
-8.729720472440945
 20
-2.709468503937008
 10
-8.85028346456693
 20
-2.755503937007874
 10
-8.91642125984252
 20
-2.779165354330709
 10
-8.923905511811023
 20
-2.78201968503937
 10
-8.945279527559055
 20
-2.788586614173228
 10
-8.978913385826772
 20
-2.795870078740157
 10
-9.023185039370079
 20
-2.800881889763779
 10
-9.076468503937008
 20
-2.800622047244095
 10
-9.137141732283464
 20
-2.792102362204724
 10
-9.20357874015748
 20
-2.772322834645669
 10
-9.27415748031496
 20
-2.738295275590551
 10
-10.16253149606299
 20
-2.354409448818898
 10
-10.1676811023622
 20
-2.352397637795276
 10
-10.18114960629921
 20
-2.345925196850394
 10
-10.19996850393701
 20
-2.334318897637795
 10
-10.22116535433071
 20
-2.316913385826772
 10
-10.24176377952756
 20
-2.293043307086614
 10
-10.25879921259843
 20
-2.26203937007874
 10
-10.26929921259842
 20
-2.223236220472441
 10
-10.27029133858268
 20
-2.175968503937008
 10
-10.28662598425197
 20
-0.0704212598425197
  0
LWPOLYLINE
  5
6A
330
1F
100
AcDbEntity
  8
Layer 1
 62
     7
370
    18
100
AcDbPolyline
 90
       35
 70
     0
 43
0.0
 10
-10.26922834645669
 20
-2.272547244094488
 10
-10.27211417322835
 20
-2.273224409448819
 10
-10.27980708661417
 20
-2.275366141732283
 10
-10.29087007874016
 20
-2.279118110236221
 10
-10.30386220472441
 20
-2.284641732283465
 10
-10.31734251968504
 20
-2.292086614173229
 10
-10.32987401574803
 20
-2.301610236220472
 10
-10.34001181102362
 20
-2.313366141732283
 10
-10.3463188976378
 20
-2.327511811023622
 10
-10.3429094488189
 20
-2.329984251968504
 10
-10.33230708661417
 20
-2.337204724409449
 10
-10.31397244094488
 20
-2.348889763779527
 10
-10.28734251968504
 20
-2.364744094488189
 10
-10.2518779527559
 20
-2.38448031496063
 10
-10.20702362204724
 20
-2.407814960629921
 10
-10.15223228346457
 20
-2.434452755905512
 10
-10.08695275590551
 20
-2.464106299212598
 10
-9.104232283464567
 20
-2.915291338582677
 10
-9.101267716535434
 20
-2.916389763779528
 10
-9.092877952755906
 20
-2.91896062992126
 10
-9.079807086614172
 20
-2.921913385826772
 10
-9.062811023622046
 20
-2.924173228346457
 10
-9.04263779527559
 20
-2.924641732283464
 10
-9.020031496062993
 20
-2.922244094488189
 10
-8.995748031496063
 20
-2.915889763779528
 10
-8.970535433070866
 20
-2.904492125984252
 10
-7.735625984251969
 20
-2.405137795275591
 10
-7.734602362204725
 20
-2.402562992125984
 10
-7.732791338582677
 20
-2.395610236220473
 10
-7.732062992125984
 20
-2.385417322834646
 10
-7.734299212598425
 20
-2.373133858267717
 10
-7.741377952755905
 20
-2.359905511811024
 10
-7.755177165354331
 20
-2.346881889763779
 10
-7.777570866141732
 20
-2.335204724409449
 10
-7.81044094488189
 20
-2.32601968503937
  0
LWPOLYLINE
  5
6B
330
1F
100
AcDbEntity
  8
Layer 1
 62
     7
370
    18
100
AcDbPolyline
 90
       13
 70
     0
 43
0.0
 10
-10.3463188976378
 20
-2.327511811023622
 10
-10.34736220472441
 20
-3.38401968503937
 10
-9.101251968503936
 20
-4.02144094488189
 10
-9.098031496062992
 20
-4.02190157480315
 10
-9.089165354330708
 20
-4.022889763779528
 10
-9.075866141732284
 20
-4.023803149606299
 10
-9.059334645669292
 20
-4.024055118110236
 10
-9.040779527559055
 20
-4.023047244094488
 10
-9.02140157480315
 20
-4.020185039370078
 10
-9.002405511811023
 20
-4.014870078740158
 10
-8.984996062992126
 20
-4.006511811023622
 10
-7.750787401574804
 20
-3.458665354330709
 10
-7.735625984251969
 20
-2.405137795275591
  0
LWPOLYLINE
  5
6C
330
1F
100
AcDbEntity
  8
Layer 1
 62
     7
370
    18
100
AcDbPolyline
 90
       50
 70
     0
 43
0.0
 10
-10.34712992125984
 20
-3.148165354330709
 10
-10.36240157480315
 20
-3.153889763779528
 10
-10.40301181102362
 20
-3.169622047244094
 10
-10.46117322834646
 20
-3.193192913385827
 10
-10.52908661417323
 20
-3.222429133858268
 10
-10.59896062992126
 20
-3.255165354330709
 10
-10.66299212598425
 20
-3.289228346456693
 10
-10.7133937007874
 20
-3.322456692913386
 10
-10.74236614173228
 20
-3.352673228346457
 10
-10.74370078740158
 20
-3.355909448818898
 10
-10.74548818897638
 20
-3.365125984251968
 10
-10.74441338582677
 20
-3.379594488188976
 10
-10.73715354330709
 20
-3.398570866141732
 10
-10.72038976377953
 20
-3.421330708661417
 10
-10.69080708661417
 20
-3.447133858267716
 10
-10.64508267716535
 20
-3.475248031496063
 10
-10.57989763779528
 20
-3.50494094488189
 10
-10.52627952755905
 20
-3.532240157480315
 10
-10.38404724409449
 20
-3.604677165354331
 10
-10.18113385826772
 20
-3.70803937007874
 10
-9.945468503937008
 20
-3.828125984251968
 10
-9.704980314960629
 20
-3.950732283464567
 10
-9.487602362204724
 20
-4.061649606299213
 10
-9.321267716535433
 20
-4.146685039370078
 10
-9.233905511811024
 20
-4.191622047244095
 10
-9.22648031496063
 20
-4.193909448818897
 10
-9.205539370078741
 20
-4.199574803149607
 10
-9.173066929133858
 20
-4.206811023622048
 10
-9.13105905511811
 20
-4.213818897637795
 10
-9.081503937007874
 20
-4.218799212598425
 10
-9.026393700787402
 20
-4.219948818897638
 10
-8.967720472440945
 20
-4.215464566929134
 10
-8.907476377952756
 20
-4.203547244094488
 10
-8.849964566929135
 20
-4.178248031496063
 10
-8.697240157480316
 20
-4.110854330708661
 10
-8.479007874015748
 20
-4.014145669291339
 10
-8.224988188976377
 20
-3.900889763779527
 10
-7.964889763779528
 20
-3.783850393700787
 10
-7.72842125984252
 20
-3.675803149606299
 10
-7.545295275590552
 20
-3.589515748031496
 10
-7.445228346456693
 20
-3.537759842519685
 10
-7.439188976377952
 20
-3.535125984251969
 10
-7.42392125984252
 20
-3.527531496062992
 10
-7.403720472440945
 20
-3.515425196850394
 10
-7.382862204724409
 20
-3.499263779527559
 10
-7.365641732283464
 20
-3.479496062992126
 10
-7.356338582677165
 20
-3.45657874015748
 10
-7.359244094488189
 20
-3.43096062992126
 10
-7.378637795275591
 20
-3.403102362204725
 10
-7.747468503937008
 20
-3.227665354330709
  0
LWPOLYLINE
  5
6D
330
1F
100
AcDbEntity
  8
Layer 1
 62
     7
370
    18
100
AcDbPolyline
 90
       35
 70
     0
 43
0.0
 10
-10.74517716535433
 20
-3.375161417322835
 10
-10.74568503937008
 20
-3.380114173228347
 10
-10.7469094488189
 20
-3.39344094488189
 10
-10.74838582677165
 20
-3.412850393700787
 10
-10.74966141732284
 20
-3.436055118110236
 10
-10.75027165354331
 20
-3.460767716535433
 10
-10.74975984251969
 20
-3.484692913385827
 10
-10.74766929133858
 20
-3.50553937007874
 10
-10.74353937007874
 20
-3.52101968503937
 10
-9.974720472440945
 20
-3.919921259842519
 10
-9.94334251968504
 20
-3.936
 10
-9.860082677165355
 20
-3.97855905511811
 10
-9.741259842519685
 20
-4.039066929133858
 10
-9.603188976377952
 20
-4.109
 10
-9.462181102362205
 20
-4.179838582677165
 10
-9.334555118110236
 20
-4.243055118110236
 10
-9.236629921259842
 20
-4.290122047244094
 10
-9.184712598425197
 20
-4.31251968503937
 10
-9.177389763779528
 20
-4.314523622047244
 10
-9.156858267716535
 20
-4.319311023622047
 10
-9.125287401574804
 20
-4.325043307086614
 10
-9.084846456692913
 20
-4.329881889763779
 10
-9.0376968503937
 20
-4.331992125984252
 10
-8.986003937007874
 20
-4.329535433070866
 10
-8.931937007874016
 20
-4.320677165354331
 10
-8.877661417322834
 20
-4.303574803149607
 10
-7.403511811023622
 20
-3.633314960629921
 10
-7.400267716535433
 20
-3.63236220472441
 10
-7.391964566929134
 20
-3.628425196850394
 10
-7.380740157480315
 20
-3.619870078740158
 10
-7.368736220472441
 20
-3.605070866141732
 10
-7.358094488188977
 20
-3.582397637795276
 10
-7.35096062992126
 20
-3.550220472440945
 10
-7.349468503937008
 20
-3.506913385826772
 10
-7.355763779527559
 20
-3.450850393700787
  0
LWPOLYLINE
  5
6E
330
1F
100
AcDbEntity
  8
Layer 1
 62
     7
370
    18
100
AcDbPolyline
 90
        4
 70
     1
 43
0.0
 10
-6.911448818897638
 20
1.634917322834646
 10
-6.926236220472441
 20
1.661779527559055
 10
-6.941007874015748
 20
1.634905511811024
 10
-6.911448818897638
 20
1.634917322834646
  0
LWPOLYLINE
  5
6F
330
1F
100
AcDbEntity
  8
Layer 1
 62
     7
370
    18
100
AcDbPolyline
 90
        4
 70
     1
 43
0.0
 10
-6.90936220472441
 20
-4.151007874015748
 10
-6.924133858267717
 20
-4.177881889763779
 10
-6.93892125984252
 20
-4.15101968503937
 10
-6.90936220472441
 20
-4.151007874015748
  0
LWPOLYLINE
  5
70
330
1F
100
AcDbEntity
  8
Layer 1
 62
     7
370
    18
100
AcDbPolyline
 90
        2
 70
     0
 43
0.0
 10
-6.927818897637795
 20
1.670736220472441
 10
-6.925708661417323
 20
-4.186838582677165
  0
LWPOLYLINE
  5
71
330
1F
100
AcDbEntity
  8
Layer 1
 62
     7
370
     9
100
AcDbPolyline
 90
        7
 70
     1
 43
0.0
 10
-6.612681102362204
 20
-1.360181102362205
 10
-6.576775590551181
 20
-1.360181102362205
 10
-6.576775590551181
 20
-1.006728346456693
 10
-6.663015748031496
 20
-1.015968503937008
 10
-6.663015748031496
 20
-1.047311023622047
 10
-6.612681102362204
 20
-1.047311023622047
 10
-6.612681102362204
 20
-1.360181102362205
  0
LWPOLYLINE
  5
72
330
1F
100
AcDbEntity
  8
Layer 1
 62
     7
370
     9
100
AcDbPolyline
 90
        7
 70
     1
 43
0.0
 10
-6.460259842519685
 20
-1.360181102362205
 10
-6.306787401574804
 20
-1.01238188976378
 10
-6.525976377952756
 20
-1.01238188976378
 10
-6.525976377952756
 20
-1.048326771653543
 10
-6.362732283464567
 20
-1.048326771653543
 10
-6.500279527559055
 20
-1.360181102362205
 10
-6.460259842519685
 20
-1.360181102362205
  0
LWPOLYLINE
  5
73
330
1F
100
AcDbEntity
  8
Layer 1
 62
     7
370
     9
100
AcDbPolyline
 90
       84
 70
     1
 43
0.0
 10
-6.116602362204724
 20
-1.051425196850394
 10
-6.110685039370079
 20
-1.055448818897638
 10
-6.105165354330708
 20
-1.060023622047244
 10
-6.100043307086614
 20
-1.065145669291339
 10
-6.095318897637795
 20
-1.070811023622047
 10
-6.090992125984252
 20
-1.077023622047244
 10
-6.087066929133858
 20
-1.083783464566929
 10
-6.083543307086615
 20
-1.091082677165354
 10
-6.080421259842519
 20
-1.098929133858268
 10
-6.076929133858267
 20
-1.109350393700787
 10
-6.073905511811024
 20
-1.119925196850394
 10
-6.071342519685039
 20
-1.130645669291338
 10
-6.069248031496063
 20
-1.141523622047244
 10
-6.067622047244095
 20
-1.152547244094488
 10
-6.066456692913386
 20
-1.163724409448819
 10
-6.065759842519685
 20
-1.175055118110236
 10
-6.065527559055118
 20
-1.186535433070866
 10
-6.067090551181102
 20
-1.211972440944882
 10
-6.068874015748031
 20
-1.225775590551181
 10
-6.071196850393701
 20
-1.238822834645669
 10
-6.074062992125985
 20
-1.251110236220472
 10
-6.077476377952756
 20
-1.262633858267717
 10
-6.081433070866142
 20
-1.273397637795276
 10
-6.085937007874016
 20
-1.283393700787402
 10
-6.090988188976378
 20
-1.292625984251969
 10
-6.096582677165355
 20
-1.301094488188976
 10
-6.101700787401575
 20
-1.307472440944882
 10
-6.107090551181102
 20
-1.313
 10
-6.112748031496063
 20
-1.317677165354331
 10
-6.118677165354331
 20
-1.321503937007874
 10
-6.124874015748031
 20
-1.32448031496063
 10
-6.131346456692913
 20
-1.326606299212598
 10
-6.138086614173228
 20
-1.32788188976378
 10
-6.145102362204724
 20
-1.328307086614173
 10
-6.152929133858268
 20
-1.327885826771654
 10
-6.160381889763779
 20
-1.326622047244094
 10
-6.167456692913386
 20
-1.324515748031496
 10
-6.17415748031496
 20
-1.321566929133858
 10
-6.180484251968504
 20
-1.317779527559055
 10
-6.186433070866141
 20
-1.313145669291339
 10
-6.192011811023622
 20
-1.307669291338583
 10
-6.197212598425197
 20
-1.301350393700787
 10
-6.201511811023622
 20
-1.295114173228346
 10
-6.205425196850394
 20
-1.2885
 10
-6.208948818897638
 20
-1.2815
 10
-6.212086614173228
 20
-1.27411811023622
 10
-6.214862204724409
 20
-1.266488188976378
 10
-6.217283464566929
 20
-1.258763779527559
 10
-6.219350393700787
 20
-1.250944881889764
 10
-6.221070866141733
 20
-1.243043307086614
 10
-6.225417322834645
 20
-1.212204724409449
 10
-6.226704724409449
 20
-1.177866141732284
 10
-6.226354330708661
 20
-1.167590551181102
 10
-6.225295275590551
 20
-1.156157480314961
 10
-6.223535433070866
 20
-1.143555118110236
 10
-6.221070866141733
 20
-1.129771653543307
 10
-6.219366141732284
 20
-1.121956692913386
 10
-6.217346456692914
 20
-1.114169291338583
 10
-6.215003937007874
 20
-1.106417322834646
 10
-6.212338582677165
 20
-1.098696850393701
 10
-6.209311023622047
 20
-1.091165354330709
 10
-6.205866141732283
 20
-1.084031496062992
 10
-6.202
 20
-1.077287401574803
 10
-6.197716535433071
 20
-1.070917322834646
 10
-6.193
 20
-1.065062992125984
 10
-6.187830708661417
 20
-1.059818897637795
 10
-6.182216535433071
 20
-1.055177165354331
 10
-6.176157480314961
 20
-1.051153543307087
 10
-6.172937007874015
 20
-1.049409448818898
 10
-6.169578740157481
 20
-1.047897637795276
 10
-6.166074803149606
 20
-1.04661811023622
 10
-6.162425196850394
 20
-1.045570866141732
 10
-6.158633858267716
 20
-1.044755905511811
 10
-6.154692913385826
 20
-1.044173228346457
 10
-6.150606299212598
 20
-1.043822834645669
 10
-6.146370078740158
 20
-1.043704724409449
 10
-6.142145669291339
 20
-1.043826771653543
 10
-6.138062992125985
 20
-1.044188976377953
 10
-6.134125984251969
 20
-1.044795275590551
 10
-6.130330708661417
 20
-1.045641732283465
 10
-6.126681102362205
 20
-1.046728346456693
 10
-6.12317716535433
 20
-1.048055118110236
 10
-6.119818897637796
 20
-1.049622047244094
 10
-6.116602362204724
 20
-1.051425196850394
  0
LWPOLYLINE
  5
74
330
1F
100
AcDbEntity
  8
Layer 1
 62
     7
370
     9
100
AcDbPolyline
 90
       65
 70
     1
 43
0.0
 10
-6.14457874015748
 20
-1.364799212598425
 10
-6.129594488188976
 20
-1.363846456692913
 10
-6.115566929133858
 20
-1.360992125984252
 10
-6.102492125984252
 20
-1.356232283464567
 10
-6.090370078740158
 20
-1.349574803149606
 10
-6.079200787401575
 20
-1.341011811023622
 10
-6.068984251968504
 20
-1.330547244094488
 10
-6.059724409448819
 20
-1.318185039370079
 10
-6.051417322834646
 20
-1.30392125984252
 10
-6.045586614173228
 20
-1.291472440944882
 10
-6.040531496062992
 20
-1.278334645669291
 10
-6.036251968503937
 20
-1.2645
 10
-6.032751968503937
 20
-1.249976377952756
 10
-6.030027559055118
 20
-1.234763779527559
 10
-6.028082677165354
 20
-1.218858267716535
 10
-6.026913385826772
 20
-1.202259842519685
 10
-6.026523622047244
 20
-1.184972440944882
 10
-6.026913385826772
 20
-1.167692913385827
 10
-6.028082677165354
 20
-1.151106299212598
 10
-6.030027559055118
 20
-1.135204724409449
 10
-6.032751968503937
 20
-1.12
 10
-6.036251968503937
 20
-1.10548031496063
 10
-6.040531496062992
 20
-1.091653543307087
 10
-6.045586614173228
 20
-1.078515748031496
 10
-6.051417322834646
 20
-1.066066929133858
 10
-6.059724409448819
 20
-1.051799212598425
 10
-6.068984251968504
 20
-1.039433070866142
 10
-6.079200787401575
 20
-1.028968503937008
 10
-6.090370078740158
 20
-1.020409448818898
 10
-6.102492125984252
 20
-1.013748031496063
 10
-6.115566929133858
 20
-1.008992125984252
 10
-6.129594488188976
 20
-1.006141732283464
 10
-6.14457874015748
 20
-1.005188976377953
 10
-6.159566929133859
 20
-1.006141732283464
 10
-6.17359842519685
 20
-1.008992125984252
 10
-6.186677165354331
 20
-1.013748031496063
 10
-6.198799212598425
 20
-1.020409448818898
 10
-6.209964566929134
 20
-1.028968503937008
 10
-6.220177165354331
 20
-1.039433070866142
 10
-6.229437007874016
 20
-1.051799212598425
 10
-6.237736220472441
 20
-1.066066929133858
 10
-6.243574803149606
 20
-1.078515748031496
 10
-6.248633858267716
 20
-1.091653543307087
 10
-6.252917322834645
 20
-1.10548031496063
 10
-6.25642125984252
 20
-1.12
 10
-6.259149606299212
 20
-1.135204724409449
 10
-6.261094488188976
 20
-1.151106299212598
 10
-6.262263779527559
 20
-1.167692913385827
 10
-6.262653543307087
 20
-1.184972440944882
 10
-6.262263779527559
 20
-1.202259842519685
 10
-6.261094488188976
 20
-1.218858267716535
 10
-6.259149606299212
 20
-1.234763779527559
 10
-6.25642125984252
 20
-1.249976377952756
 10
-6.252917322834645
 20
-1.2645
 10
-6.248633858267716
 20
-1.278334645669291
 10
-6.243574803149606
 20
-1.291472440944882
 10
-6.237736220472441
 20
-1.30392125984252
 10
-6.229437007874016
 20
-1.318185039370079
 10
-6.220177165354331
 20
-1.330547244094488
 10
-6.209964566929134
 20
-1.341011811023622
 10
-6.198799212598425
 20
-1.349574803149606
 10
-6.186677165354331
 20
-1.356232283464567
 10
-6.17359842519685
 20
-1.360992125984252
 10
-6.159566929133859
 20
-1.363846456692913
 10
-6.14457874015748
 20
-1.364799212598425
  0
LWPOLYLINE
  5
75
330
1F
100
AcDbEntity
  8
Layer 1
 62
     7
370
     9
100
AcDbPolyline
 90
      155
 70
     1
 43
0.0
 10
-5.675944881889764
 20
-1.359145669291339
 10
-5.639996062992126
 20
-1.359145669291339
 10
-5.639996062992126
 20
-1.217877952755906
 10
-5.640291338582677
 20
-1.208492125984252
 10
-5.641169291338582
 20
-1.199547244094488
 10
-5.642637795275591
 20
-1.191047244094488
 10
-5.644692913385827
 20
-1.182992125984252
 10
-5.647334645669291
 20
-1.175377952755906
 10
-5.650562992125984
 20
-1.168204724409449
 10
-5.654374015748031
 20
-1.161476377952756
 10
-5.658771653543307
 20
-1.155188976377953
 10
-5.661212598425196
 20
-1.152181102362205
 10
-5.663811023622047
 20
-1.149326771653543
 10
-5.666562992125984
 20
-1.146625984251969
 10
-5.669468503937008
 20
-1.14407874015748
 10
-5.672527559055118
 20
-1.141685039370079
 10
-5.675740157480315
 20
-1.139444881889764
 10
-5.679110236220472
 20
-1.137358267716535
 10
-5.682633858267716
 20
-1.13542125984252
 10
-5.686366141732283
 20
-1.133677165354331
 10
-5.690389763779527
 20
-1.132165354330709
 10
-5.694700787401575
 20
-1.13088188976378
 10
-5.699299212598425
 20
-1.129830708661417
 10
-5.704188976377953
 20
-1.129011811023622
 10
-5.709370078740157
 20
-1.128425196850394
 10
-5.714842519685039
 20
-1.128074803149606
 10
-5.720606299212599
 20
-1.127956692913386
 10
-5.726421259842519
 20
-1.128157480314961
 10
-5.732047244094488
 20
-1.128763779527559
 10
-5.737488188976378
 20
-1.129771653543307
 10
-5.742740157480315
 20
-1.131177165354331
 10
-5.747807086614173
 20
-1.132988188976378
 10
-5.752692913385827
 20
-1.135200787401575
 10
-5.757393700787402
 20
-1.137811023622047
 10
-5.761913385826771
 20
-1.140822834645669
 10
-5.765842519685039
 20
-1.143822834645669
 10
-5.769590551181103
 20
-1.147043307086614
 10
-5.773161417322835
 20
-1.150484251968504
 10
-5.776555118110236
 20
-1.154145669291339
 10
-5.779767716535433
 20
-1.158023622047244
 10
-5.782803149606299
 20
-1.162114173228346
 10
-5.785661417322834
 20
-1.166425196850394
 10
-5.788346456692913
 20
-1.170944881889764
 10
-5.797858267716536
 20
-1.155188976377953
 10
-5.800311023622047
 20
-1.152181102362205
 10
-5.802913385826772
 20
-1.149326771653543
 10
-5.805669291338583
 20
-1.146625984251969
 10
-5.808582677165354
 20
-1.14407874015748
 10
-5.811641732283465
 20
-1.141685039370079
 10
-5.814858267716535
 20
-1.139444881889764
 10
-5.818224409448819
 20
-1.137358267716535
 10
-5.821740157480315
 20
-1.13542125984252
 10
-5.825468503937008
 20
-1.133677165354331
 10
-5.829492125984252
 20
-1.132165354330709
 10
-5.833803149606299
 20
-1.13088188976378
 10
-5.838401574803149
 20
-1.129830708661417
 10
-5.843295275590552
 20
-1.129011811023622
 10
-5.848476377952756
 20
-1.128425196850394
 10
-5.853948818897638
 20
-1.128074803149606
 10
-5.859712598425197
 20
-1.127956692913386
 10
-5.865523622047244
 20
-1.128157480314961
 10
-5.871145669291338
 20
-1.128763779527559
 10
-5.876582677165354
 20
-1.129771653543307
 10
-5.881838582677165
 20
-1.131177165354331
 10
-5.886909448818898
 20
-1.132988188976378
 10
-5.891795275590551
 20
-1.135200787401575
 10
-5.8965
 20
-1.137811023622047
 10
-5.90101968503937
 20
-1.140822834645669
 10
-5.904767716535433
 20
-1.143673228346457
 10
-5.908346456692914
 20
-1.146720472440945
 10
-5.911763779527559
 20
-1.149964566929134
 10
-5.91501968503937
 20
-1.153405511811024
 10
-5.918114173228346
 20
-1.157047244094488
 10
-5.921047244094488
 20
-1.16088188976378
 10
-5.923822834645669
 20
-1.164917322834646
 10
-5.92644094488189
 20
-1.169153543307087
 10
-5.92644094488189
 20
-1.133122047244095
 10
-5.962346456692913
 20
-1.133122047244095
 10
-5.962346456692913
 20
-1.359145669291339
 10
-5.92644094488189
 20
-1.359145669291339
 10
-5.92644094488189
 20
-1.243468503937008
 10
-5.925606299212599
 20
-1.236728346456693
 10
-5.924515748031496
 20
-1.230248031496063
 10
-5.923165354330709
 20
-1.224031496062992
 10
-5.921555118110236
 20
-1.218074803149606
 10
-5.919692913385827
 20
-1.212374015748031
 10
-5.917570866141732
 20
-1.206933070866142
 10
-5.915192913385827
 20
-1.201744094488189
 10
-5.91255905511811
 20
-1.196807086614173
 10
-5.910421259842519
 20
-1.193287401574803
 10
-5.908106299212599
 20
-1.189933070866142
 10
-5.905610236220473
 20
-1.186740157480315
 10
-5.90294094488189
 20
-1.183704724409449
 10
-5.900094488188977
 20
-1.180834645669291
 10
-5.897070866141732
 20
-1.178122047244095
 10
-5.893870078740157
 20
-1.175570866141732
 10
-5.890492125984252
 20
-1.173181102362205
 10
-5.887003937007874
 20
-1.171007874015748
 10
-5.883444881889764
 20
-1.169125984251969
 10
-5.879822834645669
 20
-1.167535433070866
 10
-5.876133858267717
 20
-1.166232283464567
 10
-5.872377952755905
 20
-1.165220472440945
 10
-5.86855905511811
 20
-1.1645
 10
-5.864677165354331
 20
-1.164066929133858
 10
-5.860728346456693
 20
-1.16392125984252
 10
-5.853291338582677
 20
-1.164224409448819
 10
-5.846874015748032
 20
-1.165141732283465
 10
-5.844051181102362
 20
-1.165826771653543
 10
-5.84148031496063
 20
-1.166665354330709
 10
-5.839169291338583
 20
-1.167653543307087
 10
-5.83711811023622
 20
-1.168795275590551
 10
-5.831948818897637
 20
-1.172629921259843
 10
-5.827468503937008
 20
-1.17711811023622
 10
-5.823677165354331
 20
-1.182267716535433
 10
-5.820574803149606
 20
-1.188074803149606
 10
-5.818161417322835
 20
-1.19453937007874
 10
-5.816437007874016
 20
-1.201661417322835
 10
-5.81540157480315
 20
-1.20944094488189
 10
-5.815055118110236
 20
-1.217877952755906
 10
-5.815055118110236
 20
-1.359145669291339
 10
-5.779125984251968
 20
-1.359145669291339
 10
-5.779125984251968
 20
-1.217877952755906
 10
-5.779377952755905
 20
-1.209208661417323
 10
-5.773472440944882
 20
-1.196807086614173
 10
-5.771334645669292
 20
-1.193287401574803
 10
-5.76901968503937
 20
-1.189933070866142
 10
-5.766523622047244
 20
-1.186740157480315
 10
-5.763854330708662
 20
-1.183704724409449
 10
-5.761003937007874
 20
-1.180834645669291
 10
-5.757976377952756
 20
-1.178122047244095
 10
-5.754767716535433
 20
-1.175570866141732
 10
-5.751385826771654
 20
-1.173181102362205
 10
-5.747893700787402
 20
-1.171007874015748
 10
-5.744338582677165
 20
-1.169125984251969
 10
-5.740712598425197
 20
-1.167535433070866
 10
-5.737023622047244
 20
-1.166232283464567
 10
-5.733267716535433
 20
-1.165220472440945
 10
-5.729448818897637
 20
-1.1645
 10
-5.725566929133858
 20
-1.164066929133858
 10
-5.72161811023622
 20
-1.16392125984252
 10
-5.714185039370078
 20
-1.164224409448819
 10
-5.707775590551181
 20
-1.165141732283465
 10
-5.704952755905512
 20
-1.165826771653543
 10
-5.702389763779528
 20
-1.166665354330709
 10
-5.700082677165354
 20
-1.167653543307087
 10
-5.698031496062992
 20
-1.168795275590551
 10
-5.692854330708661
 20
-1.172629921259843
 10
-5.688370078740157
 20
-1.17711811023622
 10
-5.684570866141732
 20
-1.182267716535433
 10
-5.681468503937008
 20
-1.188074803149606
 10
-5.679051181102362
 20
-1.19453937007874
 10
-5.677326771653544
 20
-1.201661417322835
 10
-5.676291338582677
 20
-1.20944094488189
 10
-5.675944881889764
 20
-1.217877952755906
 10
-5.675944881889764
 20
-1.359145669291339
  0
LWPOLYLINE
  5
76
330
1F
100
AcDbEntity
  8
Layer 1
 62
     7
370
     9
100
AcDbPolyline
 90
      155
 70
     1
 43
0.0
 10
-5.284291338582677
 20
-1.359145669291339
 10
-5.248366141732284
 20
-1.359145669291339
 10
-5.248366141732284
 20
-1.217877952755906
 10
-5.248661417322834
 20
-1.208492125984252
 10
-5.24953937007874
 20
-1.199547244094488
 10
-5.251007874015748
 20
-1.191047244094488
 10
-5.25305905511811
 20
-1.182992125984252
 10
-5.255696850393701
 20
-1.175377952755906
 10
-5.25892125984252
 20
-1.168204724409449
 10
-5.262728346456693
 20
-1.161476377952756
 10
-5.267122047244094
 20
-1.155188976377953
 10
-5.269570866141732
 20
-1.152181102362205
 10
-5.272169291338582
 20
-1.149326771653543
 10
-5.27492125984252
 20
-1.146625984251969
 10
-5.277822834645669
 20
-1.14407874015748
 10
-5.28088188976378
 20
-1.141685039370079
 10
-5.284094488188976
 20
-1.139444881889764
 10
-5.287460629921259
 20
-1.137358267716535
 10
-5.29098031496063
 20
-1.13542125984252
 10
-5.294716535433071
 20
-1.133677165354331
 10
-5.298740157480315
 20
-1.132165354330709
 10
-5.303055118110236
 20
-1.13088188976378
 10
-5.307657480314961
 20
-1.129830708661417
 10
-5.312547244094488
 20
-1.129011811023622
 10
-5.317728346456693
 20
-1.128425196850394
 10
-5.323196850393701
 20
-1.128074803149606
 10
-5.328952755905512
 20
-1.127956692913386
 10
-5.334767716535433
 20
-1.128157480314961
 10
-5.340397637795276
 20
-1.128763779527559
 10
-5.345838582677166
 20
-1.129771653543307
 10
-5.351098425196851
 20
-1.131177165354331
 10
-5.356169291338583
 20
-1.132988188976378
 10
-5.361055118110237
 20
-1.135200787401575
 10
-5.365759842519685
 20
-1.137811023622047
 10
-5.370279527559055
 20
-1.140822834645669
 10
-5.374200787401575
 20
-1.143822834645669
 10
-5.377948818897638
 20
-1.147043307086614
 10
-5.381515748031496
 20
-1.150484251968504
 10
-5.384905511811024
 20
-1.154145669291339
 10
-5.388122047244094
 20
-1.158023622047244
 10
-5.391161417322834
 20
-1.162114173228346
 10
-5.394027559055118
 20
-1.166425196850394
 10
-5.396716535433071
 20
-1.170944881889764
 10
-5.406228346456693
 20
-1.155188976377953
 10
-5.408673228346457
 20
-1.152181102362205
 10
-5.411271653543307
 20
-1.149326771653543
 10
-5.414023622047244
 20
-1.146625984251969
 10
-5.416933070866142
 20
-1.14407874015748
 10
-5.419992125984252
 20
-1.141685039370079
 10
-5.423208661417322
 20
-1.139444881889764
 10
-5.426574803149606
 20
-1.137358267716535
 10
-5.430090551181102
 20
-1.13542125984252
 10
-5.433822834645669
 20
-1.133677165354331
 10
-5.437846456692913
 20
-1.132165354330709
 10
-5.442157480314961
 20
-1.13088188976378
 10
-5.446755905511811
 20
-1.129830708661417
 10
-5.451645669291339
 20
-1.129011811023622
 10
-5.456826771653543
 20
-1.128425196850394
 10
-5.462299212598425
 20
-1.128074803149606
 10
-5.468062992125985
 20
-1.127956692913386
 10
-5.473870078740157
 20
-1.128157480314961
 10
-5.479496062992126
 20
-1.128763779527559
 10
-5.484933070866142
 20
-1.129771653543307
 10
-5.490188976377953
 20
-1.131177165354331
 10
-5.495255905511811
 20
-1.132988188976378
 10
-5.500145669291339
 20
-1.135200787401575
 10
-5.504846456692913
 20
-1.137811023622047
 10
-5.509370078740157
 20
-1.140822834645669
 10
-5.513114173228346
 20
-1.143673228346457
 10
-5.516696850393701
 20
-1.146720472440945
 10
-5.520114173228347
 20
-1.149964566929134
 10
-5.523370078740157
 20
-1.153405511811024
 10
-5.52646062992126
 20
-1.157047244094488
 10
-5.529397637795276
 20
-1.16088188976378
 10
-5.532173228346457
 20
-1.164917322834646
 10
-5.534791338582677
 20
-1.169153543307087
 10
-5.534791338582677
 20
-1.133122047244095
 10
-5.570696850393701
 20
-1.133122047244095
 10
-5.570696850393701
 20
-1.359145669291339
 10
-5.534791338582677
 20
-1.359145669291339
 10
-5.534791338582677
 20
-1.243468503937008
 10
-5.533956692913386
 20
-1.236728346456693
 10
-5.532870078740157
 20
-1.230248031496063
 10
-5.53151968503937
 20
-1.224031496062992
 10
-5.529913385826772
 20
-1.218074803149606
 10
-5.528051181102362
 20
-1.212374015748031
 10
-5.525929133858268
 20
-1.206933070866142
 10
-5.523547244094488
 20
-1.201744094488189
 10
-5.520909448818897
 20
-1.196807086614173
 10
-5.518775590551181
 20
-1.193287401574803
 10
-5.516464566929134
 20
-1.189933070866142
 10
-5.513972440944882
 20
-1.186740157480315
 10
-5.511299212598425
 20
-1.183704724409449
 10
-5.508448818897638
 20
-1.180834645669291
 10
-5.50542125984252
 20
-1.178122047244095
 10
-5.502220472440944
 20
-1.175570866141732
 10
-5.49884251968504
 20
-1.173181102362205
 10
-5.495350393700788
 20
-1.171007874015748
 10
-5.491795275590551
 20
-1.169125984251969
 10
-5.488169291338583
 20
-1.167535433070866
 10
-5.48448031496063
 20
-1.166232283464567
 10
-5.480724409448819
 20
-1.165220472440945
 10
-5.476905511811023
 20
-1.1645
 10
-5.473023622047244
 20
-1.164066929133858
 10
-5.469074803149606
 20
-1.16392125984252
 10
-5.461641732283464
 20
-1.164224409448819
 10
-5.455228346456693
 20
-1.165141732283465
 10
-5.452405511811024
 20
-1.165826771653543
 10
-5.449838582677165
 20
-1.166665354330709
 10
-5.447527559055118
 20
-1.167653543307087
 10
-5.445468503937008
 20
-1.168795275590551
 10
-5.440299212598426
 20
-1.172629921259843
 10
-5.435818897637795
 20
-1.17711811023622
 10
-5.432023622047244
 20
-1.182267716535433
 10
-5.42892125984252
 20
-1.188074803149606
 10
-5.426507874015748
 20
-1.19453937007874
 10
-5.42478346456693
 20
-1.201661417322835
 10
-5.423748031496063
 20
-1.20944094488189
 10
-5.423401574803149
 20
-1.217877952755906
 10
-5.423401574803149
 20
-1.359145669291339
 10
-5.387496062992126
 20
-1.359145669291339
 10
-5.387496062992126
 20
-1.217877952755906
 10
-5.387728346456693
 20
-1.209208661417323
 10
-5.381818897637795
 20
-1.196807086614173
 10
-5.379681102362205
 20
-1.193287401574803
 10
-5.377366141732283
 20
-1.189933070866142
 10
-5.374874015748031
 20
-1.186740157480315
 10
-5.372204724409449
 20
-1.183704724409449
 10
-5.369358267716535
 20
-1.180834645669291
 10
-5.366334645669292
 20
-1.178122047244095
 10
-5.363133858267717
 20
-1.175570866141732
 10
-5.359755905511811
 20
-1.173181102362205
 10
-5.356263779527559
 20
-1.171007874015748
 10
-5.352704724409449
 20
-1.169125984251969
 10
-5.349082677165354
 20
-1.167535433070866
 10
-5.345389763779528
 20
-1.166232283464567
 10
-5.341633858267716
 20
-1.165220472440945
 10
-5.337807086614173
 20
-1.1645
 10
-5.33392125984252
 20
-1.164066929133858
 10
-5.329964566929134
 20
-1.16392125984252
 10
-5.322531496062992
 20
-1.164224409448819
 10
-5.316125984251968
 20
-1.165141732283465
 10
-5.313303149606299
 20
-1.165826771653543
 10
-5.310740157480315
 20
-1.166665354330709
 10
-5.308433070866141
 20
-1.167653543307087
 10
-5.306381889763779
 20
-1.168795275590551
 10
-5.301212598425197
 20
-1.172629921259843
 10
-5.296728346456693
 20
-1.17711811023622
 10
-5.292929133858268
 20
-1.182267716535433
 10
-5.289822834645669
 20
-1.188074803149606
 10
-5.287405511811023
 20
-1.19453937007874
 10
-5.285673228346456
 20
-1.201661417322835
 10
-5.28463779527559
 20
-1.20944094488189
 10
-5.284291338582677
 20
-1.217877952755906
 10
-5.284291338582677
 20
-1.359145669291339
  0
LWPOLYLINE
  5
77
330
1F
100
AcDbEntity
  8
Layer 1
 62
     7
370
    18
100
AcDbPolyline
 90
        4
 70
     1
 43
0.0
 10
-11.50516141732284
 20
-3.643562992125984
 10
-11.5358188976378
 20
-3.644220472440945
 10
-11.51885039370079
 20
-3.669759842519685
 10
-11.50516141732284
 20
-3.643562992125984
  0
LWPOLYLINE
  5
78
330
1F
100
AcDbEntity
  8
Layer 1
 62
     7
370
    18
100
AcDbPolyline
 90
        4
 70
     1
 43
0.0
 10
-9.16640157480315
 20
-4.86544094488189
 10
-9.149433070866142
 20
-4.89098031496063
 10
-9.180090551181102
 20
-4.891637795275591
 10
-9.16640157480315
 20
-4.86544094488189
  0
LWPOLYLINE
  5
79
330
1F
100
AcDbEntity
  8
Layer 1
 62
     7
370
    18
100
AcDbPolyline
 90
        2
 70
     0
 43
0.0
 10
-11.54448818897638
 20
-3.641472440944882
 10
-9.142228346456694
 20
-4.896527559055118
  0
LWPOLYLINE
  5
7A
330
1F
100
AcDbEntity
  8
Layer 1
 62
     7
370
     9
100
AcDbPolyline
 90
       65
 70
     1
 43
0.0
 10
-11.56013385826772
 20
-4.581862204724409
 10
-11.55251968503937
 20
-4.582192913385827
 10
-11.54520078740157
 20
-4.583181102362205
 10
-11.53817716535433
 20
-4.584830708661418
 10
-11.53145275590551
 20
-4.587137795275591
 10
-11.52502362204724
 20
-4.590102362204725
 10
-11.51888976377953
 20
-4.593724409448819
 10
-11.51305511811024
 20
-4.598
 10
-11.50751968503937
 20
-4.602933070866142
 10
-11.50252755905512
 20
-4.608283464566929
 10
-11.49820078740157
 20
-4.61394094488189
 10
-11.49453937007874
 20
-4.619905511811024
 10
-11.49154330708661
 20
-4.62617716535433
 10
-11.4892125984252
 20
-4.632751968503937
 10
-11.48754724409449
 20
-4.639633858267716
 10
-11.48654724409449
 20
-4.646822834645669
 10
-11.4862125984252
 20
-4.654318897637795
 10
-11.48653937007874
 20
-4.661740157480315
 10
-11.48752755905512
 20
-4.668913385826771
 10
-11.48916929133858
 20
-4.675838582677166
 10
-11.49146850393701
 20
-4.682511811023622
 10
-11.49442519685039
 20
-4.688937007874015
 10
-11.49803937007874
 20
-4.695114173228347
 10
-11.50231102362205
 20
-4.70103937007874
 10
-11.50724409448819
 20
-4.70671653543307
 10
-11.51264960629921
 20
-4.711893700787401
 10
-11.51840157480315
 20
-4.716377952755906
 10
-11.52449212598425
 20
-4.720177165354331
 10
-11.53092519685039
 20
-4.723283464566929
 10
-11.53770866141732
 20
-4.7256968503937
 10
-11.54483464566929
 20
-4.72742125984252
 10
-11.55231102362205
 20
-4.728456692913386
 10
-11.56013385826772
 20
-4.728803149606299
 10
-11.56794881889764
 20
-4.728456692913386
 10
-11.57542125984252
 20
-4.72742125984252
 10
-11.58254330708662
 20
-4.7256968503937
 10
-11.5893188976378
 20
-4.723283464566929
 10
-11.59575590551181
 20
-4.720177165354331
 10
-11.60184645669291
 20
-4.716377952755906
 10
-11.60759448818898
 20
-4.711893700787401
 10
-11.613
 20
-4.70671653543307
 10
-11.61792519685039
 20
-4.70103937007874
 10
-11.6221968503937
 20
-4.695114173228347
 10
-11.62581102362205
 20
-4.688937007874015
 10
-11.62876771653543
 20
-4.682511811023622
 10
-11.63107086614173
 20
-4.675838582677166
 10
-11.63271653543307
 20
-4.668913385826771
 10
-11.63370078740157
 20
-4.661740157480315
 10
-11.63403149606299
 20
-4.654318897637795
 10
-11.6336968503937
 20
-4.646822834645669
 10
-11.63270078740157
 20
-4.639633858267716
 10
-11.63103543307087
 20
-4.632751968503937
 10
-11.62870472440945
 20
-4.62617716535433
 10
-11.62570472440945
 20
-4.619905511811024
 10
-11.62204330708661
 20
-4.61394094488189
 10
-11.61771653543307
 20
-4.608283464566929
 10
-11.61272440944882
 20
-4.602933070866142
 10
-11.60718503937008
 20
-4.598
 10
-11.60134645669291
 20
-4.593724409448819
 10
-11.59522047244094
 20
-4.590102362204725
 10
-11.58879527559055
 20
-4.587137795275591
 10
-11.58207480314961
 20
-4.584830708661418
 10
-11.57505905511811
 20
-4.583181102362205
 10
-11.56774409448819
 20
-4.582192913385827
 10
-11.56013385826772
 20
-4.581862204724409
  0
LWPOLYLINE
  5
7B
330
1F
100
AcDbEntity
  8
Layer 1
 62
     7
370
     9
100
AcDbPolyline
 90
       65
 70
     1
 43
0.0
 10
-11.56013385826772
 20
-4.440066929133859
 10
-11.5539842519685
 20
-4.440326771653544
 10
-11.54807086614173
 20
-4.44109842519685
 10
-11.5423937007874
 20
-4.442385826771654
 10
-11.53694881889764
 20
-4.444188976377953
 10
-11.53173622047244
 20
-4.446503937007874
 10
-11.52675984251968
 20
-4.449330708661417
 10
-11.52201181102362
 20
-4.452669291338583
 10
-11.51749606299213
 20
-4.45651968503937
 10
-11.51329133858268
 20
-4.460854330708662
 10
-11.50964566929134
 20
-4.465433070866141
 10
-11.50655905511811
 20
-4.470259842519685
 10
-11.50403543307087
 20
-4.475338582677165
 10
-11.50207086614173
 20
-4.480661417322835
 10
-11.50066535433071
 20
-4.486236220472441
 10
-11.49982283464567
 20
-4.492062992125984
 10
-11.49954330708661
 20
-4.498137795275591
 10
-11.49982283464567
 20
-4.504074803149607
 10
-11.50066535433071
 20
-4.50982283464567
 10
-11.50207086614173
 20
-4.515374015748032
 10
-11.50403543307087
 20
-4.520736220472441
 10
-11.50655905511811
 20
-4.525901574803149
 10
-11.50964566929134
 20
-4.53088188976378
 10
-11.51329133858268
 20
-4.535669291338583
 10
-11.51749606299213
 20
-4.540263779527559
 10
-11.5219842519685
 20
-4.544358267716535
 10
-11.52670866141732
 20
-4.547905511811024
 10
-11.53167716535433
 20
-4.550905511811024
 10
-11.53688582677165
 20
-4.55336220472441
 10
-11.54233464566929
 20
-4.555271653543307
 10
-11.54802362204724
 20
-4.556637795275591
 10
-11.55395669291339
 20
-4.557456692913386
 10
-11.56013385826772
 20
-4.557728346456693
 10
-11.5663031496063
 20
-4.557456692913386
 10
-11.57222834645669
 20
-4.556637795275591
 10
-11.57791732283465
 20
-4.555271653543307
 10
-11.58336220472441
 20
-4.55336220472441
 10
-11.58856299212598
 20
-4.550905511811024
 10
-11.59352362204724
 20
-4.547905511811024
 10
-11.59824409448819
 20
-4.544358267716535
 10
-11.60272440944882
 20
-4.540263779527559
 10
-11.60693307086614
 20
-4.535669291338583
 10
-11.61058267716535
 20
-4.53088188976378
 10
-11.61366929133858
 20
-4.525901574803149
 10
-11.61620078740157
 20
-4.520736220472441
 10
-11.61816929133858
 20
-4.515374015748032
 10
-11.61957480314961
 20
-4.50982283464567
 10
-11.62041732283465
 20
-4.504074803149607
 10
-11.62070078740157
 20
-4.498137795275591
 10
-11.62041732283465
 20
-4.492062992125984
 10
-11.61957480314961
 20
-4.486236220472441
 10
-11.61816929133858
 20
-4.480661417322835
 10
-11.61620078740157
 20
-4.475338582677165
 10
-11.61366929133858
 20
-4.470259842519685
 10
-11.61058267716535
 20
-4.465433070866141
 10
-11.60693307086614
 20
-4.460854330708662
 10
-11.60272440944882
 20
-4.45651968503937
 10
-11.59821653543307
 20
-4.452669291338583
 10
-11.59347637795276
 20
-4.449330708661417
 10
-11.58850393700787
 20
-4.446503937007874
 10
-11.58329527559055
 20
-4.444188976377953
 10
-11.57785433070866
 20
-4.442385826771654
 10
-11.5721811023622
 20
-4.44109842519685
 10
-11.56627559055118
 20
-4.440326771653544
 10
-11.56013385826772
 20
-4.440066929133859
  0
LWPOLYLINE
  5
7C
330
1F
100
AcDbEntity
  8
Layer 1
 62
     7
370
     9
100
AcDbPolyline
 90
      121
 70
     1
 43
0.0
 10
-11.56013385826772
 20
-4.764748031496063
 10
-11.54837007874016
 20
-4.764303149606299
 10
-11.53707874015748
 20
-4.762968503937008
 10
-11.52626377952756
 20
-4.760744094488189
 10
-11.51592125984252
 20
-4.757625984251969
 10
-11.50605118110236
 20
-4.75361811023622
 10
-11.49665354330709
 20
-4.748720472440945
 10
-11.48772440944882
 20
-4.742929133858268
 10
-11.47927165354331
 20
-4.736248031496063
 10
-11.47546850393701
 20
-4.732751968503937
 10
-11.47186614173228
 20
-4.729082677165354
 10
-11.46847637795276
 20
-4.725236220472441
 10
-11.46529133858268
 20
-4.721212598425197
 10
-11.46231889763779
 20
-4.717015748031496
 10
-11.45955118110236
 20
-4.712641732283465
 10
-11.45699606299213
 20
-4.708090551181102
 10
-11.45464960629921
 20
-4.703362204724409
 10
-11.45254330708661
 20
-4.698464566929134
 10
-11.45071653543307
 20
-4.69338188976378
 10
-11.44916929133858
 20
-4.688122047244095
 10
-11.44790157480315
 20
-4.682685039370079
 10
-11.44691338582677
 20
-4.677074803149607
 10
-11.44620866141732
 20
-4.671283464566929
 10
-11.44578346456693
 20
-4.66532283464567
 10
-11.44564173228346
 20
-4.659192913385827
 10
-11.44587795275591
 20
-4.652972440944882
 10
-11.4465905511811
 20
-4.646767716535433
 10
-11.44777559055118
 20
-4.640578740157481
 10
-11.44943307086614
 20
-4.634405511811024
 10
-11.45156692913386
 20
-4.628244094488189
 10
-11.45416929133858
 20
-4.62209842519685
 10
-11.45724409448819
 20
-4.615968503937008
 10
-11.46079133858268
 20
-4.609854330708662
 10
-11.46477952755905
 20
-4.603897637795275
 10
-11.46917716535433
 20
-4.598220472440945
 10
-11.4739842519685
 20
-4.592826771653543
 10
-11.47920078740158
 20
-4.587716535433071
 10
-11.48483070866142
 20
-4.582885826771654
 10
-11.49086614173228
 20
-4.578334645669291
 10
-11.49731102362205
 20
-4.574062992125985
 10
-11.50416535433071
 20
-4.570070866141732
 10
-11.49442519685039
 20
-4.561366141732283
 10
-11.48598031496063
 20
-4.552476377952756
 10
-11.47883464566929
 20
-4.543401574803149
 10
-11.47298818897638
 20
-4.534145669291338
 10
-11.46843700787402
 20
-4.524708661417323
 10
-11.46518503937008
 20
-4.515090551181102
 10
-11.46323228346457
 20
-4.505291338582677
 10
-11.46258267716535
 20
-4.495311023622047
 10
-11.46302755905512
 20
-4.485448818897638
 10
-11.46436614173228
 20
-4.476047244094488
 10
-11.46659448818898
 20
-4.467102362204725
 10
-11.4697125984252
 20
-4.458622047244094
 10
-11.47372440944882
 20
-4.45059842519685
 10
-11.47862204724409
 20
-4.443035433070866
 10
-11.4844094488189
 20
-4.435933070866142
 10
-11.49108661417323
 20
-4.429287401574803
 10
-11.49814566929134
 20
-4.423503937007874
 10
-11.50565354330709
 20
-4.418492125984252
 10
-11.51361023622047
 20
-4.414255905511811
 10
-11.5220157480315
 20
-4.410787401574803
 10
-11.53087401574803
 20
-4.408094488188977
 10
-11.54017716535433
 20
-4.406169291338583
 10
-11.54992913385827
 20
-4.405015748031496
 10
-11.56013385826772
 20
-4.404629921259843
 10
-11.57033464566929
 20
-4.405015748031496
 10
-11.58008661417323
 20
-4.406169291338583
 10
-11.58938582677165
 20
-4.408094488188977
 10
-11.59824015748032
 20
-4.410787401574803
 10
-11.60664173228346
 20
-4.414255905511811
 10
-11.61459448818898
 20
-4.418492125984252
 10
-11.62210236220472
 20
-4.423503937007874
 10
-11.62916141732283
 20
-4.429287401574803
 10
-11.63584251968504
 20
-4.435929133858267
 10
-11.64163385826772
 20
-4.443023622047244
 10
-11.64653149606299
 20
-4.450566929133858
 10
-11.65053937007874
 20
-4.458562992125985
 10
-11.65365748031496
 20
-4.467011811023622
 10
-11.65588188976378
 20
-4.475905511811024
 10
-11.65721653543307
 20
-4.485248031496063
 10
-11.65766141732284
 20
-4.49503937007874
 10
-11.65701181102362
 20
-4.50509842519685
 10
-11.65505905511811
 20
-4.514956692913386
 10
-11.65180708661417
 20
-4.524625984251968
 10
-11.64725590551181
 20
-4.53409842519685
 10
-11.64140551181102
 20
-4.543377952755906
 10
-11.63425590551181
 20
-4.552464566929133
 10
-11.62580708661417
 20
-4.56136220472441
 10
-11.61605905511811
 20
-4.570070866141732
 10
-11.62291732283465
 20
-4.574062992125985
 10
-11.62936614173228
 20
-4.578334645669291
 10
-11.63540157480315
 20
-4.582885826771654
 10
-11.64103149606299
 20
-4.587716535433071
 10
-11.64624409448819
 20
-4.592826771653543
 10
-11.65105118110236
 20
-4.598220472440945
 10
-11.65544881889764
 20
-4.603897637795275
 10
-11.65943307086614
 20
-4.609854330708662
 10
-11.66299212598425
 20
-4.61598031496063
 10
-11.66607480314961
 20
-4.622141732283464
 10
-11.66868110236221
 20
-4.628346456692913
 10
-11.67081496062992
 20
-4.634586614173228
 10
-11.67247244094488
 20
-4.640866141732284
 10
-11.67365748031496
 20
-4.647188976377953
 10
-11.67436614173228
 20
-4.653551181102362
 10
-11.67460236220473
 20
-4.659952755905512
 10
-11.67407480314961
 20
-4.67142125984252
 10
-11.6725
 20
-4.682342519685039
 10
-11.66987007874016
 20
-4.692708661417323
 10
-11.66618897637795
 20
-4.702523622047244
 10
-11.66146062992126
 20
-4.711783464566929
 10
-11.65568110236221
 20
-4.720492125984252
 10
-11.64885039370079
 20
-4.728645669291339
 10
-11.64097244094488
 20
-4.736248031496063
 10
-11.63251968503937
 20
-4.742929133858268
 10
-11.6235905511811
 20
-4.748720472440945
 10
-11.6141968503937
 20
-4.75361811023622
 10
-11.60432677165354
 20
-4.757625984251969
 10
-11.59398818897638
 20
-4.760744094488189
 10
-11.58317322834646
 20
-4.762968503937008
 10
-11.57188976377953
 20
-4.764303149606299
 10
-11.56013385826772
 20
-4.764748031496063
  0
LWPOLYLINE
  5
7D
330
1F
100
AcDbEntity
  8
Layer 1
 62
     7
370
     9
100
AcDbPolyline
 90
       69
 70
     1
 43
0.0
 10
-11.29448818897638
 20
-4.600866141732284
 10
-11.30267322834646
 20
-4.600488188976378
 10
-11.31055511811024
 20
-4.599354330708661
 10
-11.31813385826772
 20
-4.597468503937008
 10
-11.3254094488189
 20
-4.594826771653543
 10
-11.33237795275591
 20
-4.591429133858267
 10
-11.33904724409449
 20
-4.587279527559055
 10
-11.3454094488189
 20
-4.582374015748032
 10
-11.35146850393701
 20
-4.576716535433071
 10
-11.35694094488189
 20
-4.570606299212598
 10
-11.36168503937008
 20
-4.564204724409449
 10
-11.36570078740158
 20
-4.557507874015748
 10
-11.3689842519685
 20
-4.550523622047244
 10
-11.37153937007874
 20
-4.543251968503937
 10
-11.37336220472441
 20
-4.535688976377953
 10
-11.37445669291339
 20
-4.527834645669292
 10
-11.37482283464567
 20
-4.519696850393701
 10
-11.37445275590551
 20
-4.511748031496063
 10
-11.37334645669291
 20
-4.504066929133859
 10
-11.3715
 20
-4.496657480314961
 10
-11.36891732283465
 20
-4.48951968503937
 10
-11.36559448818898
 20
-4.482657480314961
 10
-11.36153543307087
 20
-4.476066929133858
 10
-11.35673622047244
 20
-4.469751968503937
 10
-11.3511968503937
 20
-4.463712598425197
 10
-11.34525984251968
 20
-4.458299212598425
 10
-11.33898031496063
 20
-4.453602362204724
 10
-11.33236614173228
 20
-4.449625984251968
 10
-11.32541338582677
 20
-4.446370078740157
 10
-11.31812204724409
 20
-4.443834645669291
 10
-11.31049606299213
 20
-4.442023622047244
 10
-11.30253149606299
 20
-4.440937007874016
 10
-11.29423622047244
 20
-4.440574803149606
 10
-11.2860905511811
 20
-4.440948818897637
 10
-11.27822047244094
 20
-4.442070866141732
 10
-11.27062204724409
 20
-4.443937007874016
 10
-11.2633031496063
 20
-4.446555118110236
 10
-11.25625196850394
 20
-4.449917322834645
 10
-11.24947637795276
 20
-4.454031496062992
 10
-11.24297637795276
 20
-4.458889763779528
 10
-11.23674803149606
 20
-4.464496062992126
 10
-11.23109448818898
 20
-4.470547244094488
 10
-11.2261968503937
 20
-4.476893700787402
 10
-11.22204724409449
 20
-4.483543307086614
 10
-11.21865354330709
 20
-4.490488188976378
 10
-11.21601181102362
 20
-4.497728346456693
 10
-11.21412598425197
 20
-4.505267716535433
 10
-11.21299212598425
 20
-4.513102362204725
 10
-11.21261417322835
 20
-4.521236220472441
 10
-11.21299606299213
 20
-4.529137795275591
 10
-11.21414173228346
 20
-4.536783464566929
 10
-11.21604724409449
 20
-4.544169291338583
 10
-11.21871653543307
 20
-4.551299212598425
 10
-11.22214566929134
 20
-4.558173228346456
 10
-11.22633858267717
 20
-4.564791338582677
 10
-11.2312874015748
 20
-4.571157480314961
 10
-11.237
 20
-4.577263779527559
 10
-11.24275196850394
 20
-4.582366141732283
 10
-11.24899212598425
 20
-4.586940944881889
 10
-11.25571653543307
 20
-4.590976377952756
 10
-11.26292913385827
 20
-4.594456692913385
 10
-11.26667716535433
 20
-4.595956692913385
 10
-11.27048031496063
 20
-4.597255905511811
 10
-11.27433858267717
 20
-4.598358267716535
 10
-11.27825590551181
 20
-4.599259842519685
 10
-11.28223228346457
 20
-4.599960629921259
 10
-11.28625984251969
 20
-4.600464566929134
 10
-11.29034645669291
 20
-4.600763779527559
 10
-11.29448818897638
 20
-4.600866141732284
  0
LWPOLYLINE
  5
7E
330
1F
100
AcDbEntity
  8
Layer 1
 62
     7
370
     9
100
AcDbPolyline
 90
       69
 70
     1
 43
0.0
 10
-11.41125590551181
 20
-4.522271653543307
 10
-11.4106968503937
 20
-4.53463779527559
 10
-11.40901181102362
 20
-4.546444881889764
 10
-11.40620866141732
 20
-4.557688976377952
 10
-11.40227952755905
 20
-4.568374015748032
 10
-11.39722834645669
 20
-4.5785
 10
-11.39105511811024
 20
-4.588062992125984
 10
-11.38375590551181
 20
-4.597066929133859
 10
-11.37533070866142
 20
-4.605507874015748
 10
-11.36672047244094
 20
-4.61261811023622
 10
-11.35751181102362
 20
-4.618850393700788
 10
-11.3476968503937
 20
-4.624204724409449
 10
-11.33727952755905
 20
-4.628688976377953
 10
-11.32625984251968
 20
-4.632295275590551
 10
-11.31464173228346
 20
-4.635027559055118
 10
-11.30241732283465
 20
-4.63688188976378
 10
-11.28959448818898
 20
-4.637866141732284
 10
-11.27934251968504
 20
-4.631181102362205
 10
-11.38611023622047
 20
-4.759622047244094
 10
-11.33887401574803
 20
-4.759622047244094
 10
-11.20233858267717
 20
-4.594728346456693
 10
-11.19620472440945
 20
-4.586692913385827
 10
-11.1908937007874
 20
-4.578330708661417
 10
-11.18639763779528
 20
-4.56963779527559
 10
-11.18271653543307
 20
-4.560618110236221
 10
-11.17985826771653
 20
-4.551267716535433
 10
-11.17781496062992
 20
-4.541586614173228
 10
-11.1765905511811
 20
-4.531578740157481
 10
-11.17618110236221
 20
-4.521236220472441
 10
-11.17671653543307
 20
-4.509330708661417
 10
-11.17833070866142
 20
-4.49788188976378
 10
-11.1810157480315
 20
-4.486889763779527
 10
-11.18477165354331
 20
-4.476354330708661
 10
-11.1896062992126
 20
-4.466275590551181
 10
-11.19551181102362
 20
-4.456653543307087
 10
-11.20249212598425
 20
-4.447488188976378
 10
-11.21054724409449
 20
-4.438779527559055
 10
-11.21943307086614
 20
-4.430771653543307
 10
-11.22875196850394
 20
-4.423834645669292
 10
-11.2385
 20
-4.417964566929133
 10
-11.24868110236221
 20
-4.413161417322835
 10
-11.25929133858268
 20
-4.409429133858268
 10
-11.27033070866142
 20
-4.406763779527559
 10
-11.2818031496063
 20
-4.405161417322835
 10
-11.29370866141732
 20
-4.404629921259843
 10
-11.3057874015748
 20
-4.405161417322835
 10
-11.31738188976378
 20
-4.406748031496063
 10
-11.3285
 20
-4.40940157480315
 10
-11.33913779527559
 20
-4.413110236220472
 10
-11.34929527559055
 20
-4.417877952755905
 10
-11.35897244094488
 20
-4.423708661417323
 10
-11.36816929133858
 20
-4.43059842519685
 10
-11.37688976377953
 20
-4.438547244094488
 10
-11.38075590551181
 20
-4.442602362204725
 10
-11.38441732283465
 20
-4.446818897637796
 10
-11.38787007874016
 20
-4.451196850393701
 10
-11.39111811023622
 20
-4.455744094488189
 10
-11.39415748031496
 20
-4.460448818897638
 10
-11.39698818897638
 20
-4.465318897637795
 10
-11.39961811023622
 20
-4.470350393700787
 10
-11.40203937007874
 20
-4.475547244094488
 10
-11.4041968503937
 20
-4.480881889763779
 10
-11.40606692913386
 20
-4.48636220472441
 10
-11.40765354330709
 20
-4.491984251968504
 10
-11.40894881889764
 20
-4.497755905511811
 10
-11.40995669291339
 20
-4.503669291338583
 10
-11.41067716535433
 20
-4.509728346456693
 10
-11.41111023622047
 20
-4.515929133858267
 10
-11.41125590551181
 20
-4.522271653543307
  0
LWPOLYLINE
  5
7F
330
1F
100
AcDbEntity
  8
Layer 1
 62
     7
370
     9
100
AcDbPolyline
 90
      155
 70
     1
 43
0.0
 10
-10.83739763779528
 20
-4.758610236220473
 10
-10.80144881889764
 20
-4.758610236220473
 10
-10.80144881889764
 20
-4.61732283464567
 10
-10.80174409448819
 20
-4.607940944881889
 10
-10.80262204724409
 20
-4.598996062992126
 10
-10.8040905511811
 20
-4.590496062992126
 10
-10.80614566929134
 20
-4.58244094488189
 10
-10.80878346456693
 20
-4.574822834645669
 10
-10.81201181102362
 20
-4.567649606299213
 10
-10.81582677165354
 20
-4.560917322834646
 10
-10.82022440944882
 20
-4.554629921259843
 10
-10.82266535433071
 20
-4.551629921259843
 10
-10.82526377952756
 20
-4.548775590551181
 10
-10.8280157480315
 20
-4.546078740157481
 10
-10.83092125984252
 20
-4.543531496062992
 10
-10.83398031496063
 20
-4.541133858267717
 10
-10.83719291338583
 20
-4.538889763779528
 10
-10.84055905511811
 20
-4.536799212598425
 10
-10.84408267716536
 20
-4.534862204724409
 10
-10.8478188976378
 20
-4.53311811023622
 10
-10.85184251968504
 20
-4.531606299212599
 10
-10.85615354330709
 20
-4.530322834645669
 10
-10.86075196850394
 20
-4.529271653543307
 10
-10.86564173228346
 20
-4.528452755905512
 10
-10.87082283464567
 20
-4.527866141732283
 10
-10.87629133858268
 20
-4.527515748031496
 10
-10.88205511811024
 20
-4.527397637795276
 10
-10.88787007874016
 20
-4.52759842519685
 10
-10.89349606299213
 20
-4.528204724409449
 10
-10.89893700787402
 20
-4.529212598425197
 10
-10.90418897637795
 20
-4.530618110236221
 10
-10.90925590551181
 20
-4.532429133858268
 10
-10.91414173228346
 20
-4.534641732283465
 10
-10.91884251968504
 20
-4.537251968503937
 10
-10.92336220472441
 20
-4.540263779527559
 10
-10.92729133858268
 20
-4.543263779527559
 10
-10.93103937007874
 20
-4.546488188976378
 10
-10.93461023622047
 20
-4.549929133858268
 10
-10.93800393700787
 20
-4.553594488188977
 10
-10.94121653543307
 20
-4.557472440944882
 10
-10.94425196850394
 20
-4.561566929133858
 10
-10.94711417322835
 20
-4.565870078740158
 10
-10.94979527559055
 20
-4.570385826771654
 10
-10.95931102362205
 20
-4.554629921259843
 10
-10.96176377952756
 20
-4.551629921259843
 10
-10.96436614173228
 20
-4.548775590551181
 10
-10.96712204724409
 20
-4.546078740157481
 10
-10.97003149606299
 20
-4.543531496062992
 10
-10.9730905511811
 20
-4.541133858267717
 10
-10.9763031496063
 20
-4.538889763779528
 10
-10.97966141732283
 20
-4.536799212598425
 10
-10.98317322834646
 20
-4.534862204724409
 10
-10.9869094488189
 20
-4.53311811023622
 10
-10.99093307086614
 20
-4.531606299212599
 10
-10.99524803149606
 20
-4.530322834645669
 10
-10.99985039370079
 20
-4.529271653543307
 10
-11.00474409448819
 20
-4.528452755905512
 10
-11.00992519685039
 20
-4.527866141732283
 10
-11.01540157480315
 20
-4.527515748031496
 10
-11.02116535433071
 20
-4.527397637795276
 10
-11.02697244094488
 20
-4.52759842519685
 10
-11.03259842519685
 20
-4.528204724409449
 10
-11.03803543307087
 20
-4.529212598425197
 10
-11.04329133858268
 20
-4.530618110236221
 10
-11.04835826771654
 20
-4.532429133858268
 10
-11.05324803149606
 20
-4.534641732283465
 10
-11.05794881889764
 20
-4.537251968503937
 10
-11.06247244094488
 20
-4.540263779527559
 10
-11.06621653543307
 20
-4.543114173228346
 10
-11.06979921259843
 20
-4.546165354330709
 10
-11.07321653543307
 20
-4.549413385826772
 10
-11.07647244094488
 20
-4.552854330708661
 10
-11.07956692913386
 20
-4.556496062992126
 10
-11.0825
 20
-4.560330708661417
 10
-11.08527559055118
 20
-4.564366141732283
 10
-11.0878937007874
 20
-4.568594488188976
 10
-11.0878937007874
 20
-4.532562992125984
 10
-11.12379921259843
 20
-4.532562992125984
 10
-11.12379921259843
 20
-4.758610236220473
 10
-11.0878937007874
 20
-4.758610236220473
 10
-11.0878937007874
 20
-4.642909448818898
 10
-11.08705905511811
 20
-4.636169291338582
 10
-11.08596850393701
 20
-4.629692913385827
 10
-11.08461811023622
 20
-4.623476377952756
 10
-11.08300787401575
 20
-4.617523622047244
 10
-11.08114566929134
 20
-4.611822834645669
 10
-11.07902362204724
 20
-4.60638188976378
 10
-11.07664566929134
 20
-4.601188976377952
 10
-11.07401181102362
 20
-4.596248031496063
 10
-11.07187401574803
 20
-4.592736220472441
 10
-11.06955905511811
 20
-4.589381889763779
 10
-11.06706299212598
 20
-4.586188976377953
 10
-11.0643937007874
 20
-4.583153543307087
 10
-11.06154724409449
 20
-4.580279527559055
 10
-11.05852362204724
 20
-4.577566929133858
 10
-11.05532283464567
 20
-4.575011811023622
 10
-11.05194488188976
 20
-4.572622047244095
 10
-11.04845275590551
 20
-4.570448818897638
 10
-11.04489763779528
 20
-4.568570866141732
 10
-11.04127165354331
 20
-4.56698031496063
 10
-11.03758267716535
 20
-4.565685039370079
 10
-11.03383070866142
 20
-4.564677165354331
 10
-11.03000787401575
 20
-4.563956692913385
 10
-11.02612598425197
 20
-4.563523622047244
 10
-11.02217716535433
 20
-4.56338188976378
 10
-11.01474015748031
 20
-4.563685039370078
 10
-11.00832677165354
 20
-4.564590551181102
 10
-11.0055
 20
-4.565271653543307
 10
-11.00293307086614
 20
-4.566106299212598
 10
-11.00062204724409
 20
-4.567094488188976
 10
-10.99857086614173
 20
-4.568236220472441
 10
-10.99340157480315
 20
-4.572070866141733
 10
-10.98892125984252
 20
-4.576559055118111
 10
-10.98512598425197
 20
-4.581708661417323
 10
-10.98202362204724
 20
-4.58751968503937
 10
-10.97961023622047
 20
-4.593984251968504
 10
-10.97788582677165
 20
-4.601106299212598
 10
-10.97685039370079
 20
-4.608885826771654
 10
-10.97650393700787
 20
-4.61732283464567
 10
-10.97650393700787
 20
-4.758610236220473
 10
-10.94057874015748
 20
-4.758610236220473
 10
-10.94057874015748
 20
-4.61732283464567
 10
-10.94083070866142
 20
-4.608673228346457
 10
-10.93492519685039
 20
-4.596248031496063
 10
-10.9327874015748
 20
-4.592736220472441
 10
-10.93047244094488
 20
-4.589381889763779
 10
-10.92797637795276
 20
-4.586188976377953
 10
-10.9253031496063
 20
-4.583153543307087
 10
-10.92245275590551
 20
-4.580279527559055
 10
-10.91942519685039
 20
-4.577566929133858
 10
-10.91622047244094
 20
-4.575011811023622
 10
-10.91283464566929
 20
-4.572622047244095
 10
-10.90934645669291
 20
-4.570448818897638
 10
-10.9057874015748
 20
-4.568570866141732
 10
-10.90216535433071
 20
-4.56698031496063
 10
-10.89847637795276
 20
-4.565685039370079
 10
-10.89472047244094
 20
-4.564677165354331
 10
-10.89090157480315
 20
-4.563956692913385
 10
-10.88701968503937
 20
-4.563523622047244
 10
-10.88307086614173
 20
-4.56338188976378
 10
-10.87563779527559
 20
-4.563685039370078
 10
-10.86922834645669
 20
-4.564590551181102
 10
-10.86640551181102
 20
-4.565271653543307
 10
-10.86384251968504
 20
-4.566106299212598
 10
-10.86153543307087
 20
-4.567094488188976
 10
-10.8594842519685
 20
-4.568236220472441
 10
-10.85430708661417
 20
-4.572070866141733
 10
-10.84982283464567
 20
-4.576559055118111
 10
-10.84602362204724
 20
-4.581708661417323
 10
-10.84292125984252
 20
-4.58751968503937
 10
-10.84050393700787
 20
-4.593984251968504
 10
-10.83877952755905
 20
-4.601106299212598
 10
-10.83774409448819
 20
-4.608885826771654
 10
-10.83739763779528
 20
-4.61732283464567
 10
-10.83739763779528
 20
-4.758610236220473
  0
LWPOLYLINE
  5
80
330
1F
100
AcDbEntity
  8
Layer 1
 62
     7
370
     9
100
AcDbPolyline
 90
      155
 70
     1
 43
0.0
 10
-10.44574409448819
 20
-4.758610236220473
 10
-10.40981889763779
 20
-4.758610236220473
 10
-10.40981889763779
 20
-4.61732283464567
 10
-10.41011023622047
 20
-4.607940944881889
 10
-10.41098818897638
 20
-4.598996062992126
 10
-10.41245275590551
 20
-4.590496062992126
 10
-10.41450393700787
 20
-4.58244094488189
 10
-10.41714173228346
 20
-4.574822834645669
 10
-10.42036220472441
 20
-4.567649606299213
 10
-10.42417322834646
 20
-4.560917322834646
 10
-10.42857086614173
 20
-4.554629921259843
 10
-10.43101968503937
 20
-4.551629921259843
 10
-10.43362204724409
 20
-4.548775590551181
 10
-10.43637401574803
 20
-4.546078740157481
 10
-10.43927559055118
 20
-4.543531496062992
 10
-10.44233464566929
 20
-4.541133858267717
 10
-10.44554724409449
 20
-4.538889763779528
 10
-10.44891338582677
 20
-4.536799212598425
 10
-10.45243307086614
 20
-4.534862204724409
 10
-10.45616929133858
 20
-4.53311811023622
 10
-10.46019291338583
 20
-4.531606299212599
 10
-10.46450393700787
 20
-4.530322834645669
 10
-10.4691062992126
 20
-4.529271653543307
 10
-10.474
 20
-4.528452755905512
 10
-10.47917716535433
 20
-4.527866141732283
 10
-10.48464566929134
 20
-4.527515748031496
 10
-10.49040551181102
 20
-4.527397637795276
 10
-10.49622047244094
 20
-4.52759842519685
 10
-10.50185039370079
 20
-4.528204724409449
 10
-10.50729133858268
 20
-4.529212598425197
 10
-10.51254724409449
 20
-4.530618110236221
 10
-10.51761811023622
 20
-4.532429133858268
 10
-10.52250787401575
 20
-4.534641732283465
 10
-10.5272125984252
 20
-4.537251968503937
 10
-10.53173228346457
 20
-4.540263779527559
 10
-10.53565354330709
 20
-4.543263779527559
 10
-10.53939763779528
 20
-4.546488188976378
 10
-10.54296456692913
 20
-4.549929133858268
 10
-10.54635433070866
 20
-4.553594488188977
 10
-10.54956692913386
 20
-4.557472440944882
 10
-10.55260236220473
 20
-4.561566929133858
 10
-10.55546062992126
 20
-4.565870078740158
 10
-10.55814566929134
 20
-4.570385826771654
 10
-10.5676811023622
 20
-4.554629921259843
 10
-10.57012598425197
 20
-4.551629921259843
 10
-10.57272440944882
 20
-4.548775590551181
 10
-10.57547637795276
 20
-4.546078740157481
 10
-10.57838582677165
 20
-4.543531496062992
 10
-10.58144488188976
 20
-4.541133858267717
 10
-10.58465748031496
 20
-4.538889763779528
 10
-10.58802362204724
 20
-4.536799212598425
 10
-10.59153937007874
 20
-4.534862204724409
 10
-10.59527559055118
 20
-4.53311811023622
 10
-10.59929921259842
 20
-4.531606299212599
 10
-10.60361023622047
 20
-4.530322834645669
 10
-10.60820866141732
 20
-4.529271653543307
 10
-10.61309842519685
 20
-4.528452755905512
 10
-10.61827952755906
 20
-4.527866141732283
 10
-10.62374803149606
 20
-4.527515748031496
 10
-10.62951181102362
 20
-4.527397637795276
 10
-10.63532283464567
 20
-4.52759842519685
 10
-10.64094488188976
 20
-4.528204724409449
 10
-10.64638582677165
 20
-4.529212598425197
 10
-10.65163779527559
 20
-4.530618110236221
 10
-10.65670866141732
 20
-4.532429133858268
 10
-10.66159448818898
 20
-4.534641732283465
 10
-10.66629921259842
 20
-4.537251968503937
 10
-10.6708188976378
 20
-4.540263779527559
 10
-10.67456692913386
 20
-4.543114173228346
 10
-10.67814566929134
 20
-4.546165354330709
 10
-10.68156299212598
 20
-4.549413385826772
 10
-10.6848188976378
 20
-4.552854330708661
 10
-10.68791338582677
 20
-4.556496062992126
 10
-10.69084645669291
 20
-4.560330708661417
 10
-10.69362204724409
 20
-4.564366141732283
 10
-10.69624015748031
 20
-4.568594488188976
 10
-10.69624015748031
 20
-4.532562992125984
 10
-10.73214566929134
 20
-4.532562992125984
 10
-10.73214566929134
 20
-4.758610236220473
 10
-10.69624015748031
 20
-4.758610236220473
 10
-10.69624015748031
 20
-4.642909448818898
 10
-10.69540551181102
 20
-4.636169291338582
 10
-10.6943188976378
 20
-4.629692913385827
 10
-10.69296850393701
 20
-4.623476377952756
 10
-10.69136614173228
 20
-4.617523622047244
 10
-10.6895
 20
-4.611822834645669
 10
-10.68737795275591
 20
-4.60638188976378
 10
-10.685
 20
-4.601188976377952
 10
-10.68235826771654
 20
-4.596248031496063
 10
-10.68022834645669
 20
-4.592736220472441
 10
-10.67791338582677
 20
-4.589381889763779
 10
-10.67542125984252
 20
-4.586188976377953
 10
-10.67274803149606
 20
-4.583153543307087
 10
-10.66989763779528
 20
-4.580279527559055
 10
-10.66687401574803
 20
-4.577566929133858
 10
-10.66366929133858
 20
-4.575011811023622
 10
-10.66029133858268
 20
-4.572622047244095
 10
-10.6568031496063
 20
-4.570448818897638
 10
-10.65324409448819
 20
-4.568570866141732
 10
-10.64962204724409
 20
-4.56698031496063
 10
-10.64593307086614
 20
-4.565685039370079
 10
-10.64217716535433
 20
-4.564677165354331
 10
-10.63835826771654
 20
-4.563956692913385
 10
-10.63447637795276
 20
-4.563523622047244
 10
-10.63052755905512
 20
-4.56338188976378
 10
-10.62309448818898
 20
-4.563685039370078
 10
-10.6166811023622
 20
-4.564590551181102
 10
-10.61385826771654
 20
-4.565271653543307
 10
-10.61129133858268
 20
-4.566106299212598
 10
-10.60898031496063
 20
-4.567094488188976
 10
-10.60692125984252
 20
-4.568236220472441
 10
-10.60175196850394
 20
-4.572070866141733
 10
-10.59727165354331
 20
-4.576559055118111
 10
-10.59347637795276
 20
-4.581708661417323
 10
-10.59037401574803
 20
-4.58751968503937
 10
-10.58796062992126
 20
-4.593984251968504
 10
-10.58623622047244
 20
-4.601106299212598
 10
-10.58520078740158
 20
-4.608885826771654
 10
-10.58485433070866
 20
-4.61732283464567
 10
-10.58485433070866
 20
-4.758610236220473
 10
-10.54894881889764
 20
-4.758610236220473
 10
-10.54894881889764
 20
-4.61732283464567
 10
-10.5491811023622
 20
-4.608673228346457
 10
-10.54327165354331
 20
-4.596248031496063
 10
-10.54113385826772
 20
-4.592736220472441
 10
-10.5388188976378
 20
-4.589381889763779
 10
-10.53632283464567
 20
-4.586188976377953
 10
-10.53365354330709
 20
-4.583153543307087
 10
-10.53080708661417
 20
-4.580279527559055
 10
-10.52778346456693
 20
-4.577566929133858
 10
-10.52458267716535
 20
-4.575011811023622
 10
-10.52120472440945
 20
-4.572622047244095
 10
-10.51771653543307
 20
-4.570448818897638
 10
-10.51415748031496
 20
-4.568570866141732
 10
-10.51053149606299
 20
-4.56698031496063
 10
-10.50684251968504
 20
-4.565685039370079
 10
-10.50308661417323
 20
-4.564677165354331
 10
-10.49925984251968
 20
-4.563956692913385
 10
-10.49537401574803
 20
-4.563523622047244
 10
-10.49141732283465
 20
-4.56338188976378
 10
-10.4839842519685
 20
-4.563685039370078
 10
-10.47757480314961
 20
-4.564590551181102
 10
-10.47475196850394
 20
-4.565271653543307
 10
-10.47218897637795
 20
-4.566106299212598
 10
-10.46988188976378
 20
-4.567094488188976
 10
-10.46783070866142
 20
-4.568236220472441
 10
-10.46266141732283
 20
-4.572070866141733
 10
-10.45817716535433
 20
-4.576559055118111
 10
-10.45438188976378
 20
-4.581708661417323
 10
-10.45127559055118
 20
-4.58751968503937
 10
-10.44885433070866
 20
-4.593984251968504
 10
-10.44712598425197
 20
-4.601106299212598
 10
-10.4460905511811
 20
-4.608885826771654
 10
-10.44574409448819
 20
-4.61732283464567
 10
-10.44574409448819
 20
-4.758610236220473
  0
ENDSEC
  0
SECTION
  2
OBJECTS
  0
DICTIONARY
  5
C
330
0
100
AcDbDictionary
281
     1
  3
ACAD_DETAILVIEWSTYLE
350
88
  3
ACAD_GROUP
350
D
  3
ACAD_LAYOUT
350
1A
  3
ACAD_MATERIAL
350
43
  3
ACAD_MLEADERSTYLE
350
5B
  3
ACAD_MLINESTYLE
350
17
  3
ACAD_PLOTSETTINGS
350
19
  3
ACAD_PLOTSTYLENAME
350
E
  3
ACAD_SCALELIST
350
47
  3
ACAD_SECTIONVIEWSTYLE
350
89
  3
ACAD_TABLESTYLE
350
59
  3
ACAD_VISUALSTYLE
350
2A
  3
ACDB_RECOMPOSE_DATA
350
85
  3
AcDbVariableDictionary
350
81
  0
SUN
  5
5D
330
29
100
AcDbSun
 90
        1
290
     0
 63
     7
421
 16777215
 40
1.0
291
     1
 91
  2455826
 92
 54000000
292
     0
 70
     2
 71
   256
280
     1
  0
DICTIONARY
  5
88
102
{ACAD_REACTORS
330
C
102
}
330
C
100
AcDbDictionary
281
     1
  0
DICTIONARY
  5
D
102
{ACAD_REACTORS
330
C
102
}
330
C
100
AcDbDictionary
281
     1
  0
DICTIONARY
  5
1A
102
{ACAD_REACTORS
330
C
102
}
330
C
100
AcDbDictionary
281
     1
  3
Layout1
350
1E
  3
Layout2
350
26
  3
Model
350
22
  0
DICTIONARY
  5
43
102
{ACAD_REACTORS
330
C
102
}
330
C
100
AcDbDictionary
281
     1
  3
ByBlock
350
45
  3
ByLayer
350
44
  3
Global
350
46
  0
DICTIONARY
  5
5B
102
{ACAD_REACTORS
330
C
102
}
330
C
100
AcDbDictionary
281
     1
  3
Standard
350
5C
  0
DICTIONARY
  5
17
102
{ACAD_REACTORS
330
C
102
}
330
C
100
AcDbDictionary
281
     1
  3
Standard
350
18
  0
DICTIONARY
  5
19
102
{ACAD_REACTORS
330
C
102
}
330
C
100
AcDbDictionary
281
     1
  0
ACDBDICTIONARYWDFLT
  5
E
102
{ACAD_REACTORS
330
C
102
}
330
C
100
AcDbDictionary
281
     1
  3
Normal
350
F
100
AcDbDictionaryWithDefault
340
F
  0
DICTIONARY
  5
47
102
{ACAD_REACTORS
330
C
102
}
330
C
100
AcDbDictionary
281
     1
  3
A0
350
48
  3
A1
350
49
  3
A2
350
4A
  3
A3
350
4B
  3
A4
350
4C
  3
A5
350
4D
  3
A6
350
4E
  3
A7
350
4F
  3
A8
350
50
  3
A9
350
51
  3
B1
350
52
  3
B2
350
53
  3
B3
350
54
  3
B4
350
55
  3
B5
350
56
  3
B6
350
57
  3
B7
350
58
  0
DICTIONARY
  5
89
102
{ACAD_REACTORS
330
C
102
}
330
C
100
AcDbDictionary
281
     1
  0
DICTIONARY
  5
59
102
{ACAD_REACTORS
330
C
102
}
330
C
100
AcDbDictionary
281
     1
  3
Standard
350
5A
  0
DICTIONARY
  5
2A
102
{ACAD_REACTORS
330
C
102
}
330
C
100
AcDbDictionary
281
     1
  3
2dWireframe
350
2F
  3
Basic
350
32
  3
Brighten
350
36
  3
ColorChange
350
3A
  3
Conceptual
350
34
  3
Dim
350
35
  3
EdgeColorOff
350
3D
  3
Facepattern
350
39
  3
Flat
350
2B
  3
FlatWithEdges
350
2C
  3
Gouraud
350
2D
  3
GouraudWithEdges
350
2E
  3
Hidden
350
31
  3
JitterOff
350
3B
  3
Linepattern
350
38
  3
OverhangOff
350
3C
  3
Realistic
350
33
  3
Shaded
350
42
  3
Shaded with edges
350
41
  3
Shades of Gray
350
3E
  3
Sketchy
350
3F
  3
Thicken
350
37
  3
Wireframe
350
30
  3
X-Ray
350
40
  0
XRECORD
  5
85
102
{ACAD_REACTORS
330
C
102
}
330
C
100
AcDbXrecord
280
     1
 90
        1
330
5A
  0
DICTIONARY
  5
81
102
{ACAD_REACTORS
330
C
102
}
330
C
100
AcDbDictionary
281
     1
  3
CANNOSCALE
350
82
  3
CMLEADERSTYLE
350
87
  3
CTABLESTYLE
350
86
  0
LAYOUT
  5
1E
102
{ACAD_REACTORS
330
1A
102
}
330
1A
100
AcDbPlotSettings
  1

  2
none_device
  4

  6

 40
0.0
 41
0.0
 42
0.0
 43
0.0
 44
0.0
 45
0.0
 46
0.0
 47
0.0
 48
0.0
 49
0.0
140
0.0
141
0.0
142
1.0
143
1.0
 70
   688
 72
     0
 73
     0
 74
     5
  7

 75
    16
 76
     0
 77
     2
 78
   300
147
1.0
148
0.0
149
0.0
100
AcDbLayout
  1
Layout1
 70
     1
 71
     1
 10
0.0
 20
0.0
 11
12.0
 21
9.0
 12
0.0
 22
0.0
 32
0.0
 14
1.000000000000000E+20
 24
1.000000000000000E+20
 34
1.000000000000000E+20
 15
-1.000000000000000E+20
 25
-1.000000000000000E+20
 35
-1.000000000000000E+20
146
0.0
 13
0.0
 23
0.0
 33
0.0
 16
1.0
 26
0.0
 36
0.0
 17
0.0
 27
1.0
 37
0.0
 76
     0
330
1B
  0
LAYOUT
  5
26
102
{ACAD_REACTORS
330
1A
102
}
330
1A
100
AcDbPlotSettings
  1

  2
none_device
  4

  6

 40
0.0
 41
0.0
 42
0.0
 43
0.0
 44
0.0
 45
0.0
 46
0.0
 47
0.0
 48
0.0
 49
0.0
140
0.0
141
0.0
142
1.0
143
1.0
 70
   688
 72
     0
 73
     0
 74
     5
  7

 75
    16
 76
     0
 77
     2
 78
   300
147
1.0
148
0.0
149
0.0
100
AcDbLayout
  1
Layout2
 70
     1
 71
     2
 10
0.0
 20
0.0
 11
0.0
 21
0.0
 12
0.0
 22
0.0
 32
0.0
 14
0.0
 24
0.0
 34
0.0
 15
0.0
 25
0.0
 35
0.0
146
0.0
 13
0.0
 23
0.0
 33
0.0
 16
1.0
 26
0.0
 36
0.0
 17
0.0
 27
1.0
 37
0.0
 76
     0
330
23
  0
LAYOUT
  5
22
102
{ACAD_REACTORS
330
1A
102
}
330
1A
100
AcDbPlotSettings
  1

  2
none_device
  4
Letter_(8.50_x_11.00_Inches)
  6

 40
6.35
 41
6.35
 42
6.35000508
 43
6.35000508
 44
215.9
 45
279.4
 46
0.0
 47
0.0
 48
0.0
 49
0.0
140
0.0
141
0.0
142
1.0
143
1.0
 70
  1712
 72
     0
 73
     0
 74
     0
  7

 75
     0
 76
     0
 77
     2
 78
   300
147
1.0
148
0.0
149
0.0
100
AcDbLayout
  1
Model
 70
     1
 71
     0
 10
0.0
 20
0.0
 11
12.0
 21
9.0
 12
0.0
 22
0.0
 32
0.0
 14
-12.30377559055118
 24
-5.432578740157481
 34
0.0
 15
-4.922295275590551
 25
2.161866141732284
 35
0.0
146
0.0
 13
0.0
 23
0.0
 33
0.0
 16
1.0
 26
0.0
 36
0.0
 17
0.0
 27
1.0
 37
0.0
 76
     0
330
1F
331
29
  0
MATERIAL
  5
45
102
{ACAD_REACTORS
330
43
102
}
330
43
100
AcDbMaterial
  1
ByBlock
 72
     1
 94
      127
  0
MATERIAL
  5
44
102
{ACAD_REACTORS
330
43
102
}
330
43
100
AcDbMaterial
  1
ByLayer
 72
     1
 94
      127
  0
MATERIAL
  5
46
102
{ACAD_REACTORS
330
43
102
}
330
43
100
AcDbMaterial
  1
Global
 72
     1
 94
      127
  0
MLEADERSTYLE
  5
5C
102
{ACAD_REACTORS
330
5B
102
}
330
5B
100
AcDbMLeaderStyle
179
     2
170
     2
171
     1
172
     0
 90
        2
 40
0.0
 41
0.0
173
     1
 91
-1056964608
340
14
 92
       -2
290
     1
 42
0.09
291
     1
 43
0.36
  3
Standard
341
0
 44
0.18
300

342
11
174
     1
178
     6
175
     1
176
     0
 93
-1056964608
 45
0.18
292
     0
297
     0
 46
0.18
343
0
 94
-1056964608
 47
1.0
 49
1.0
140
1.0
293
     1
141
0.0
294
     1
177
     0
142
1.0
295
     0
296
     0
143
0.125
271
     0
272
     9
273
     9
298
     0
  0
MLINESTYLE
  5
18
102
{ACAD_REACTORS
330
17
102
}
330
17
100
AcDbMlineStyle
  2
Standard
 70
     0
  3

 62
   256
 51
90.0
 52
90.0
 71
     2
 49
0.5
 62
   256
  6
BYLAYER
 49
-0.5
 62
   256
  6
BYLAYER
  0
ACDBPLACEHOLDER
  5
F
102
{ACAD_REACTORS
330
E
102
}
330
E
  0
SCALE
  5
48
102
{ACAD_REACTORS
330
47
102
}
330
47
100
AcDbScale
 70
     0
300
1:1
140
1.0
141
1.0
290
     1
  0
SCALE
  5
49
102
{ACAD_REACTORS
330
47
102
}
330
47
100
AcDbScale
 70
     0
300
1/128" = 1'-0"
140
0.0078125
141
12.0
290
     0
  0
SCALE
  5
4A
102
{ACAD_REACTORS
330
47
102
}
330
47
100
AcDbScale
 70
     0
300
1/64" = 1'-0"
140
0.015625
141
12.0
290
     0
  0
SCALE
  5
4B
102
{ACAD_REACTORS
330
47
102
}
330
47
100
AcDbScale
 70
     0
300
1/32" = 1'-0"
140
0.03125
141
12.0
290
     0
  0
SCALE
  5
4C
102
{ACAD_REACTORS
330
47
102
}
330
47
100
AcDbScale
 70
     0
300
1/16" = 1'-0"
140
0.0625
141
12.0
290
     0
  0
SCALE
  5
4D
102
{ACAD_REACTORS
330
47
102
}
330
47
100
AcDbScale
 70
     0
300
3/32" = 1'-0"
140
0.09375
141
12.0
290
     0
  0
SCALE
  5
4E
102
{ACAD_REACTORS
330
47
102
}
330
47
100
AcDbScale
 70
     0
300
1/8" = 1'-0"
140
0.125
141
12.0
290
     0
  0
SCALE
  5
4F
102
{ACAD_REACTORS
330
47
102
}
330
47
100
AcDbScale
 70
     0
300
3/16" = 1'-0"
140
0.1875
141
12.0
290
     0
  0
SCALE
  5
50
102
{ACAD_REACTORS
330
47
102
}
330
47
100
AcDbScale
 70
     0
300
1/4" = 1'-0"
140
0.25
141
12.0
290
     0
  0
SCALE
  5
51
102
{ACAD_REACTORS
330
47
102
}
330
47
100
AcDbScale
 70
     0
300
3/8" = 1'-0"
140
0.375
141
12.0
290
     0
  0
SCALE
  5
52
102
{ACAD_REACTORS
330
47
102
}
330
47
100
AcDbScale
 70
     0
300
1/2" = 1'-0"
140
0.5
141
12.0
290
     0
  0
SCALE
  5
53
102
{ACAD_REACTORS
330
47
102
}
330
47
100
AcDbScale
 70
     0
300
3/4" = 1'-0"
140
0.75
141
12.0
290
     0
  0
SCALE
  5
54
102
{ACAD_REACTORS
330
47
102
}
330
47
100
AcDbScale
 70
     0
300
1" = 1'-0"
140
1.0
141
12.0
290
     0
  0
SCALE
  5
55
102
{ACAD_REACTORS
330
47
102
}
330
47
100
AcDbScale
 70
     0
300
1-1/2" = 1'-0"
140
1.5
141
12.0
290
     0
  0
SCALE
  5
56
102
{ACAD_REACTORS
330
47
102
}
330
47
100
AcDbScale
 70
     0
300
3" = 1'-0"
140
3.0
141
12.0
290
     0
  0
SCALE
  5
57
102
{ACAD_REACTORS
330
47
102
}
330
47
100
AcDbScale
 70
     0
300
6" = 1'-0"
140
6.0
141
12.0
290
     0
  0
SCALE
  5
58
102
{ACAD_REACTORS
330
47
102
}
330
47
100
AcDbScale
 70
     0
300
1'-0" = 1'-0"
140
12.0
141
12.0
290
     0
  0
TABLESTYLE
  5
5A
102
{ACAD_REACTORS
330
59
102
}
102
{ACAD_XDICTIONARY
360
83
102
}
330
59
100
AcDbTableStyle
  3
Standard
 70
     0
 71
     0
 40
0.06
 41
0.06
280
     0
281
     0
  7
Standard
140
0.18
170
     2
 62
     0
 63
   257
283
     0
 90
        4
 91
        0
  1

274
    -2
284
     1
 64
     0
275
    -2
285
     1
 65
     0
276
    -2
286
     1
 66
     0
277
    -2
287
     1
 67
     0
278
    -2
288
     1
 68
     0
279
    -2
289
     1
 69
     0
  7
Standard
140
0.25
170
     5
 62
     0
 63
   257
283
     0
 90
        4
 91
        0
  1

274
    -2
284
     1
 64
     0
275
    -2
285
     1
 65
     0
276
    -2
286
     1
 66
     0
277
    -2
287
     1
 67
     0
278
    -2
288
     1
 68
     0
279
    -2
289
     1
 69
     0
  7
Standard
140
0.18
170
     5
 62
     0
 63
   257
283
     0
 90
        4
 91
        0
  1

274
    -2
284
     1
 64
     0
275
    -2
285
     1
 65
     0
276
    -2
286
     1
 66
     0
277
    -2
287
     1
 67
     0
278
    -2
288
     1
 68
     0
279
    -2
289
     1
 69
     0
  0
VISUALSTYLE
  5
2F
102
{ACAD_REACTORS
330
2A
102
}
330
2A
100
AcDbVisualStyle
  2
2dWireframe
 70
     4
177
     3
291
     0
 70
    58
 90
        0
176
     1
 90
        2
176
     1
 90
        0
176
     1
 90
        0
176
     1
 40
0.6
176
     1
 40
30.0
176
     1
 62
     7
420
 16777215
176
     1
 90
        1
176
     1
 90
        4
176
     1
 62
     7
176
     1
 62
   257
176
     1
 90
        1
176
     1
 90
        1
176
     1
 40
1.0
176
     1
 90
        0
176
     1
 62
   257
176
     1
 40
1.0
176
     1
 90
        1
176
     1
 90
        6
176
     1
 90
        2
176
     1
 62
     7
176
     1
 90
        5
176
     1
 90
        0
176
     1
 90
        0
176
     1
290
     0
176
     1
 90
        1
176
     1
 40
0.0
176
     1
 90
        0
176
     1
290
     1
176
     1
290
     1
176
     1
290
     0
176
     1
290
     0
176
     1
290
     0
176
     1
290
     0
176
     1
290
     0
176
     1
290
     0
176
     1
290
     0
176
     1
 90
       50
176
     1
 40
0.0
176
     1
 40
1.0
176
     1
 90
        0
176
     1
 62
    18
420
        0
176
     1
 90
       50
176
     1
 90
        3
176
     1
 62
     5
420
      255
176
     1
290
     0
176
     1
 90
       50
176
     1
 90
       50
176
     1
 90
       50
176
     1
290
     0
176
     1
 90
       50
176
     1
 62
   256
176
     0
 40
1.0
176
     0
 90
        2
176
     1
  1
strokes_ogs.tif
176
     1
290
     0
176
     1
 40
1.0
176
     1
 40
1.0
176
     1
  0
VISUALSTYLE
  5
32
102
{ACAD_REACTORS
330
2A
102
}
330
2A
100
AcDbVisualStyle
  2
Basic
 70
     7
177
     3
291
     1
 70
    58
 90
        1
176
     1
 90
        0
176
     1
 90
        1
176
     1
 90
        0
176
     1
 40
0.6
176
     1
 40
30.0
176
     1
 62
     7
420
 16777215
176
     1
 90
        0
176
     1
 90
        4
176
     1
 62
     7
176
     1
 62
   257
176
     1
 90
        1
176
     1
 90
        1
176
     1
 40
1.0
176
     1
 90
        8
176
     1
 62
     7
176
     1
 40
1.0
176
     1
 90
        1
176
     1
 90
        6
176
     1
 90
        2
176
     1
 62
     7
176
     1
 90
        5
176
     1
 90
        0
176
     1
 90
        0
176
     1
290
     0
176
     1
 90
        1
176
     1
 40
0.0
176
     1
 90
        0
176
     1
290
     0
176
     1
290
     1
176
     1
290
     1
176
     1
290
     0
176
     1
290
     0
176
     1
290
     0
176
     1
290
     0
176
     1
290
     0
176
     1
290
     0
176
     1
 90
       50
176
     1
 40
0.0
176
     1
 40
1.0
176
     1
 90
        0
176
     1
 62
    18
420
        0
176
     1
 90
       50
176
     1
 90
        3
176
     1
 62
     5
420
      255
176
     1
290
     0
176
     1
 90
       50
176
     1
 90
       50
176
     1
 90
       50
176
     1
290
     0
176
     1
 90
       50
176
     1
 62
   256
176
     0
 40
1.0
176
     0
 90
        2
176
     1
  1
strokes_ogs.tif
176
     1
290
     0
176
     1
 40
1.0
176
     1
 40
1.0
176
     1
  0
VISUALSTYLE
  5
36
102
{ACAD_REACTORS
330
2A
102
}
330
2A
100
AcDbVisualStyle
  2
Brighten
 70
    12
177
     3
291
     1
 70
    58
 90
        2
176
     1
 90
        2
176
     1
 90
        0
176
     1
 90
        0
176
     1
 40
0.6
176
     1
 40
30.0
176
     1
 62
     7
420
 16777215
176
     1
 90
        1
176
     1
 90
        4
176
     1
 62
     7
176
     1
 62
   257
176
     1
 90
        1
176
     1
 90
        1
176
     1
 40
1.0
176
     1
 90
        8
176
     1
 62
     7
176
     1
 40
1.0
176
     1
 90
        1
176
     1
 90
        6
176
     1
 90
        2
176
     1
 62
     7
176
     1
 90
        5
176
     1
 90
        0
176
     1
 90
        0
176
     1
290
     0
176
     1
 90
        1
176
     1
 40
50.0
176
     1
 90
        0
176
     1
290
     0
176
     1
290
     1
176
     1
290
     1
176
     1
290
     0
176
     1
290
     0
176
     1
290
     0
176
     1
290
     0
176
     1
290
     0
176
     1
290
     0
176
     1
 90
       50
176
     1
 40
0.0
176
     1
 40
1.0
176
     1
 90
        0
176
     1
 62
    18
420
        0
176
     1
 90
       50
176
     1
 90
        3
176
     1
 62
     5
420
      255
176
     1
290
     0
176
     1
 90
       50
176
     1
 90
       50
176
     1
 90
       50
176
     1
290
     0
176
     1
 90
       50
176
     1
 62
   256
176
     0
 40
1.0
176
     0
 90
        2
176
     1
  1
strokes_ogs.tif
176
     1
290
     0
176
     1
 40
1.0
176
     1
 40
1.0
176
     1
  0
VISUALSTYLE
  5
3A
102
{ACAD_REACTORS
330
2A
102
}
330
2A
100
AcDbVisualStyle
  2
ColorChange
 70
    16
177
     3
291
     1
 70
    58
 90
        2
176
     1
 90
        2
176
     1
 90
        3
176
     1
 90
        0
176
     1
 40
0.6
176
     1
 40
30.0
176
     1
 62
     8
420
  8421504
176
     1
 90
        1
176
     1
 90
        4
176
     1
 62
     7
176
     1
 62
   257
176
     1
 90
        1
176
     1
 90
        1
176
     1
 40
1.0
176
     1
 90
        8
176
     1
 62
     8
420
  8421504
176
     1
 40
1.0
176
     1
 90
        1
176
     1
 90
        6
176
     1
 90
        2
176
     1
 62
     7
176
     1
 90
        5
176
     1
 90
        0
176
     1
 90
        0
176
     1
290
     0
176
     1
 90
        1
176
     1
 40
0.0
176
     1
 90
        0
176
     1
290
     0
176
     1
290
     1
176
     1
290
     1
176
     1
290
     0
176
     1
290
     0
176
     1
290
     0
176
     1
290
     0
176
     1
290
     0
176
     1
290
     0
176
     1
 90
       50
176
     1
 40
0.0
176
     1
 40
1.0
176
     1
 90
        0
176
     1
 62
    18
420
        0
176
     1
 90
       50
176
     1
 90
        3
176
     1
 62
     5
420
      255
176
     1
290
     0
176
     1
 90
       50
176
     1
 90
       50
176
     1
 90
       50
176
     1
290
     0
176
     1
 90
       50
176
     1
 62
   256
176
     0
 40
1.0
176
     0
 90
        2
176
     1
  1
strokes_ogs.tif
176
     1
290
     0
176
     1
 40
1.0
176
     1
 40
1.0
176
     1
  0
VISUALSTYLE
  5
34
102
{ACAD_REACTORS
330
2A
102
}
330
2A
100
AcDbVisualStyle
  2
Conceptual
 70
     9
177
     3
291
     0
 70
    58
 90
        3
176
     1
 90
        2
176
     1
 90
        0
176
     1
 90
        0
176
     1
 40
0.6
176
     1
 40
30.0
176
     1
 62
     7
420
 16777215
176
     1
 90
        2
176
     1
 90
        2
176
     1
 62
     7
176
     1
 62
   257
176
     1
 90
        1
176
     1
 90
        1
176
     1
 40
179.0
176
     1
 90
        8
176
     1
 62
     7
176
     1
 40
1.0
176
     1
 90
        1
176
     1
 90
        6
176
     1
 90
        2
176
     1
 62
     7
176
     1
 90
        3
176
     1
 90
        0
176
     1
 90
        0
176
     1
290
     0
176
     1
 90
        1
176
     1
 40
0.0
176
     1
 90
        0
176
     1
290
     0
176
     1
290
     1
176
     1
290
     1
176
     1
290
     0
176
     1
290
     0
176
     1
290
     0
176
     1
290
     0
176
     1
290
     0
176
     1
290
     0
176
     1
 90
       50
176
     1
 40
0.0
176
     1
 40
1.0
176
     1
 90
        0
176
     1
 62
    18
420
        0
176
     1
 90
       50
176
     1
 90
        3
176
     1
 62
     5
420
      255
176
     1
290
     0
176
     1
 90
       50
176
     1
 90
       50
176
     1
 90
       50
176
     1
290
     0
176
     1
 90
       50
176
     1
 62
   256
176
     0
 40
1.0
176
     0
 90
        2
176
     1
  1
strokes_ogs.tif
176
     1
290
     0
176
     1
 40
1.0
176
     1
 40
1.0
176
     1
  0
VISUALSTYLE
  5
35
102
{ACAD_REACTORS
330
2A
102
}
330
2A
100
AcDbVisualStyle
  2
Dim
 70
    11
177
     3
291
     1
 70
    58
 90
        2
176
     1
 90
        2
176
     1
 90
        0
176
     1
 90
        0
176
     1
 40
0.6
176
     1
 40
30.0
176
     1
 62
     7
420
 16777215
176
     1
 90
        1
176
     1
 90
        4
176
     1
 62
     7
176
     1
 62
   257
176
     1
 90
        1
176
     1
 90
        1
176
     1
 40
1.0
176
     1
 90
        8
176
     1
 62
     7
176
     1
 40
1.0
176
     1
 90
        1
176
     1
 90
        6
176
     1
 90
        2
176
     1
 62
     7
176
     1
 90
        5
176
     1
 90
        0
176
     1
 90
        0
176
     1
290
     0
176
     1
 90
        1
176
     1
 40
-50.0
176
     1
 90
        0
176
     1
290
     0
176
     1
290
     1
176
     1
290
     1
176
     1
290
     0
176
     1
290
     0
176
     1
290
     0
176
     1
290
     0
176
     1
290
     0
176
     1
290
     0
176
     1
 90
       50
176
     1
 40
0.0
176
     1
 40
1.0
176
     1
 90
        0
176
     1
 62
    18
420
        0
176
     1
 90
       50
176
     1
 90
        3
176
     1
 62
     5
420
      255
176
     1
290
     0
176
     1
 90
       50
176
     1
 90
       50
176
     1
 90
       50
176
     1
290
     0
176
     1
 90
       50
176
     1
 62
   256
176
     0
 40
1.0
176
     0
 90
        2
176
     1
  1
strokes_ogs.tif
176
     1
290
     0
176
     1
 40
1.0
176
     1
 40
1.0
176
     1
  0
VISUALSTYLE
  5
3D
102
{ACAD_REACTORS
330
2A
102
}
330
2A
100
AcDbVisualStyle
  2
EdgeColorOff
 70
    22
177
     3
291
     1
 70
    58
 90
        2
176
     0
 90
        2
176
     0
 90
        0
176
     0
 90
        0
176
     0
 40
0.6
176
     0
 40
30.0
176
     0
 62
     7
420
 16777215
176
     0
 90
        1
176
     0
 90
        4
176
     0
 62
     7
176
     0
 62
   257
176
     0
 90
        1
176
     0
 90
        1
176
     0
 40
1.0
176
     0
 90
        8
176
     2
 62
     7
176
     0
 40
1.0
176
     0
 90
        1
176
     0
 90
        6
176
     0
 90
        2
176
     0
 62
     7
176
     0
 90
        5
176
     0
 90
        0
176
     0
 90
        0
176
     0
290
     0
176
     0
 90
        1
176
     0
 40
0.0
176
     0
 90
        0
176
     0
290
     0
176
     0
290
     1
176
     0
290
     1
176
     0
290
     0
176
     0
290
     0
176
     0
290
     0
176
     0
290
     0
176
     0
290
     0
176
     0
290
     0
176
     0
 90
       50
176
     0
 40
0.0
176
     0
 40
1.0
176
     0
 90
        0
176
     0
 62
    18
420
        0
176
     0
 90
       50
176
     0
 90
        3
176
     0
 62
     5
420
      255
176
     0
290
     0
176
     0
 90
       50
176
     0
 90
       50
176
     0
 90
       50
176
     0
290
     0
176
     0
 90
       50
176
     0
 62
   256
176
     0
 40
1.0
176
     0
 90
        2
176
     0
  1
strokes_ogs.tif
176
     0
290
     0
176
     0
 40
1.0
176
     0
 40
1.0
176
     0
  0
VISUALSTYLE
  5
39
102
{ACAD_REACTORS
330
2A
102
}
330
2A
100
AcDbVisualStyle
  2
Facepattern
 70
    15
177
     3
291
     1
 70
    58
 90
        2
176
     1
 90
        2
176
     1
 90
        0
176
     1
 90
        0
176
     1
 40
0.6
176
     1
 40
30.0
176
     1
 62
     7
420
 16777215
176
     1
 90
        1
176
     1
 90
        4
176
     1
 62
     7
176
     1
 62
   257
176
     1
 90
        1
176
     1
 90
        1
176
     1
 40
1.0
176
     1
 90
        8
176
     1
 62
     7
176
     1
 40
1.0
176
     1
 90
        1
176
     1
 90
        6
176
     1
 90
        2
176
     1
 62
     7
176
     1
 90
        5
176
     1
 90
        0
176
     1
 90
        0
176
     1
290
     0
176
     1
 90
        1
176
     1
 40
0.0
176
     1
 90
        0
176
     1
290
     0
176
     1
290
     1
176
     1
290
     1
176
     1
290
     0
176
     1
290
     0
176
     1
290
     0
176
     1
290
     0
176
     1
290
     0
176
     1
290
     0
176
     1
 90
       50
176
     1
 40
0.0
176
     1
 40
1.0
176
     1
 90
        0
176
     1
 62
    18
420
        0
176
     1
 90
       50
176
     1
 90
        3
176
     1
 62
     5
420
      255
176
     1
290
     0
176
     1
 90
       50
176
     1
 90
       50
176
     1
 90
       50
176
     1
290
     0
176
     1
 90
       50
176
     1
 62
   256
176
     0
 40
1.0
176
     0
 90
        2
176
     1
  1
strokes_ogs.tif
176
     1
290
     0
176
     1
 40
1.0
176
     1
 40
1.0
176
     1
  0
VISUALSTYLE
  5
2B
102
{ACAD_REACTORS
330
2A
102
}
330
2A
100
AcDbVisualStyle
  2
Flat
 70
     0
177
     3
291
     1
 70
    58
 90
        2
176
     1
 90
        1
176
     1
 90
        1
176
     1
 90
        2
176
     1
 40
0.6
176
     1
 40
30.0
176
     1
 62
     7
420
 16777215
176
     1
 90
        0
176
     1
 90
        0
176
     1
 62
     7
176
     1
 62
   257
176
     1
 90
        1
176
     1
 90
        1
176
     1
 40
1.0
176
     1
 90
        8
176
     1
 62
     7
176
     1
 40
1.0
176
     1
 90
        1
176
     1
 90
        6
176
     1
 90
        2
176
     1
 62
     7
176
     1
 90
        5
176
     1
 90
        0
176
     1
 90
        0
176
     1
290
     0
176
     1
 90
       13
176
     1
 40
0.0
176
     1
 90
        0
176
     1
290
     0
176
     1
290
     1
176
     1
290
     1
176
     1
290
     0
176
     1
290
     0
176
     1
290
     0
176
     1
290
     0
176
     1
290
     0
176
     1
290
     0
176
     1
 90
       50
176
     1
 40
0.0
176
     1
 40
1.0
176
     1
 90
        0
176
     1
 62
    18
420
        0
176
     1
 90
       50
176
     1
 90
        3
176
     1
 62
     5
420
      255
176
     1
290
     0
176
     1
 90
       50
176
     1
 90
       50
176
     1
 90
       50
176
     1
290
     0
176
     1
 90
       50
176
     1
 62
   256
176
     0
 40
1.0
176
     0
 90
        2
176
     1
  1
strokes_ogs.tif
176
     1
290
     0
176
     1
 40
1.0
176
     1
 40
1.0
176
     1
  0
VISUALSTYLE
  5
2C
102
{ACAD_REACTORS
330
2A
102
}
330
2A
100
AcDbVisualStyle
  2
FlatWithEdges
 70
     1
177
     3
291
     1
 70
    58
 90
        2
176
     1
 90
        1
176
     1
 90
        1
176
     1
 90
        2
176
     1
 40
0.6
176
     1
 40
30.0
176
     1
 62
     7
420
 16777215
176
     1
 90
        1
176
     1
 90
        0
176
     1
 62
     7
176
     1
 62
   257
176
     1
 90
        1
176
     1
 90
        1
176
     1
 40
1.0
176
     1
 90
        0
176
     1
 62
   257
176
     1
 40
1.0
176
     1
 90
        1
176
     1
 90
        6
176
     1
 90
        2
176
     1
 62
     7
176
     1
 90
        5
176
     1
 90
        0
176
     1
 90
        0
176
     1
290
     0
176
     1
 90
       13
176
     1
 40
0.0
176
     1
 90
        0
176
     1
290
     0
176
     1
290
     1
176
     1
290
     1
176
     1
290
     0
176
     1
290
     0
176
     1
290
     0
176
     1
290
     0
176
     1
290
     0
176
     1
290
     0
176
     1
 90
       50
176
     1
 40
0.0
176
     1
 40
1.0
176
     1
 90
        0
176
     1
 62
    18
420
        0
176
     1
 90
       50
176
     1
 90
        3
176
     1
 62
     5
420
      255
176
     1
290
     0
176
     1
 90
       50
176
     1
 90
       50
176
     1
 90
       50
176
     1
290
     0
176
     1
 90
       50
176
     1
 62
   256
176
     0
 40
1.0
176
     0
 90
        2
176
     1
  1
strokes_ogs.tif
176
     1
290
     0
176
     1
 40
1.0
176
     1
 40
1.0
176
     1
  0
VISUALSTYLE
  5
2D
102
{ACAD_REACTORS
330
2A
102
}
330
2A
100
AcDbVisualStyle
  2
Gouraud
 70
     2
177
     3
291
     1
 70
    58
 90
        2
176
     1
 90
        2
176
     1
 90
        1
176
     1
 90
        2
176
     1
 40
0.6
176
     1
 40
30.0
176
     1
 62
     7
420
 16777215
176
     1
 90
        0
176
     1
 90
        0
176
     1
 62
     7
176
     1
 62
   257
176
     1
 90
        1
176
     1
 90
        1
176
     1
 40
1.0
176
     1
 90
        0
176
     1
 62
     7
176
     1
 40
1.0
176
     1
 90
        1
176
     1
 90
        6
176
     1
 90
        2
176
     1
 62
     7
176
     1
 90
        5
176
     1
 90
        0
176
     1
 90
        0
176
     1
290
     0
176
     1
 90
       13
176
     1
 40
0.0
176
     1
 90
        0
176
     1
290
     0
176
     1
290
     1
176
     1
290
     1
176
     1
290
     0
176
     1
290
     0
176
     1
290
     0
176
     1
290
     0
176
     1
290
     0
176
     1
290
     0
176
     1
 90
       50
176
     1
 40
0.0
176
     1
 40
1.0
176
     1
 90
        0
176
     1
 62
    18
420
        0
176
     1
 90
       50
176
     1
 90
        3
176
     1
 62
     5
420
      255
176
     1
290
     0
176
     1
 90
       50
176
     1
 90
       50
176
     1
 90
       50
176
     1
290
     0
176
     1
 90
       50
176
     1
 62
   256
176
     0
 40
1.0
176
     0
 90
        2
176
     1
  1
strokes_ogs.tif
176
     1
290
     0
176
     1
 40
1.0
176
     1
 40
1.0
176
     1
  0
VISUALSTYLE
  5
2E
102
{ACAD_REACTORS
330
2A
102
}
330
2A
100
AcDbVisualStyle
  2
GouraudWithEdges
 70
     3
177
     3
291
     1
 70
    58
 90
        2
176
     1
 90
        2
176
     1
 90
        1
176
     1
 90
        2
176
     1
 40
0.6
176
     1
 40
30.0
176
     1
 62
     7
420
 16777215
176
     1
 90
        1
176
     1
 90
        0
176
     1
 62
     7
176
     1
 62
   257
176
     1
 90
        1
176
     1
 90
        1
176
     1
 40
1.0
176
     1
 90
        0
176
     1
 62
   257
176
     1
 40
1.0
176
     1
 90
        1
176
     1
 90
        6
176
     1
 90
        2
176
     1
 62
     7
176
     1
 90
        5
176
     1
 90
        0
176
     1
 90
        0
176
     1
290
     0
176
     1
 90
       13
176
     1
 40
0.0
176
     1
 90
        0
176
     1
290
     0
176
     1
290
     1
176
     1
290
     1
176
     1
290
     0
176
     1
290
     0
176
     1
290
     0
176
     1
290
     0
176
     1
290
     0
176
     1
290
     0
176
     1
 90
       50
176
     1
 40
0.0
176
     1
 40
1.0
176
     1
 90
        0
176
     1
 62
    18
420
        0
176
     1
 90
       50
176
     1
 90
        3
176
     1
 62
     5
420
      255
176
     1
290
     0
176
     1
 90
       50
176
     1
 90
       50
176
     1
 90
       50
176
     1
290
     0
176
     1
 90
       50
176
     1
 62
   256
176
     0
 40
1.0
176
     0
 90
        2
176
     1
  1
strokes_ogs.tif
176
     1
290
     0
176
     1
 40
1.0
176
     1
 40
1.0
176
     1
  0
VISUALSTYLE
  5
31
102
{ACAD_REACTORS
330
2A
102
}
330
2A
100
AcDbVisualStyle
  2
Hidden
 70
     6
177
     3
291
     0
 70
    58
 90
        1
176
     1
 90
        2
176
     1
 90
        2
176
     1
 90
        0
176
     1
 40
0.6
176
     1
 40
30.0
176
     1
 62
     7
420
 16777215
176
     1
 90
        2
176
     1
 90
        2
176
     1
 62
     7
176
     1
 62
   257
176
     1
 90
        2
176
     1
 90
        1
176
     1
 40
40.0
176
     1
 90
        0
176
     1
 62
   257
176
     1
 40
1.0
176
     1
 90
        1
176
     1
 90
        6
176
     1
 90
        2
176
     1
 62
     7
176
     1
 90
        3
176
     1
 90
        0
176
     1
 90
        0
176
     1
290
     0
176
     1
 90
        1
176
     1
 40
0.0
176
     1
 90
        0
176
     1
290
     0
176
     1
290
     1
176
     1
290
     1
176
     1
290
     0
176
     1
290
     0
176
     1
290
     0
176
     1
290
     0
176
     1
290
     0
176
     1
290
     0
176
     1
 90
       50
176
     1
 40
0.0
176
     1
 40
1.0
176
     1
 90
        0
176
     1
 62
    18
420
        0
176
     1
 90
       50
176
     1
 90
        3
176
     1
 62
     5
420
      255
176
     1
290
     0
176
     1
 90
       50
176
     1
 90
       50
176
     1
 90
       50
176
     1
290
     0
176
     1
 90
       50
176
     1
 62
   256
176
     0
 40
1.0
176
     0
 90
        2
176
     1
  1
strokes_ogs.tif
176
     1
290
     0
176
     1
 40
1.0
176
     1
 40
1.0
176
     1
  0
VISUALSTYLE
  5
3B
102
{ACAD_REACTORS
330
2A
102
}
330
2A
100
AcDbVisualStyle
  2
JitterOff
 70
    20
177
     3
291
     1
 70
    58
 90
        2
176
     0
 90
        2
176
     0
 90
        0
176
     0
 90
        0
176
     0
 40
0.6
176
     0
 40
30.0
176
     0
 62
     7
420
 16777215
176
     0
 90
        1
176
     0
 90
        4
176
     0
 62
     7
176
     0
 62
   257
176
     0
 90
        1
176
     0
 90
        1
176
     0
 40
1.0
176
     0
 90
       10
176
     2
 62
     7
176
     0
 40
1.0
176
     0
 90
        1
176
     0
 90
        6
176
     0
 90
        2
176
     0
 62
     7
176
     0
 90
        5
176
     0
 90
        0
176
     0
 90
        0
176
     0
290
     0
176
     0
 90
        1
176
     0
 40
0.0
176
     0
 90
        0
176
     0
290
     0
176
     0
290
     1
176
     0
290
     1
176
     0
290
     0
176
     0
290
     0
176
     0
290
     0
176
     0
290
     0
176
     0
290
     0
176
     0
290
     0
176
     0
 90
       50
176
     0
 40
0.0
176
     0
 40
1.0
176
     0
 90
        0
176
     0
 62
    18
420
        0
176
     0
 90
       50
176
     0
 90
        3
176
     0
 62
     5
420
      255
176
     0
290
     0
176
     0
 90
       50
176
     0
 90
       50
176
     0
 90
       50
176
     0
290
     0
176
     0
 90
       50
176
     0
 62
   256
176
     0
 40
1.0
176
     0
 90
        2
176
     0
  1
strokes_ogs.tif
176
     0
290
     0
176
     0
 40
1.0
176
     0
 40
1.0
176
     0
  0
VISUALSTYLE
  5
38
102
{ACAD_REACTORS
330
2A
102
}
330
2A
100
AcDbVisualStyle
  2
Linepattern
 70
    14
177
     3
291
     1
 70
    58
 90
        2
176
     1
 90
        2
176
     1
 90
        0
176
     1
 90
        0
176
     1
 40
0.6
176
     1
 40
30.0
176
     1
 62
     7
420
 16777215
176
     1
 90
        1
176
     1
 90
        4
176
     1
 62
     7
176
     1
 62
   257
176
     1
 90
        7
176
     1
 90
        7
176
     1
 40
1.0
176
     1
 90
        8
176
     1
 62
     7
176
     1
 40
1.0
176
     1
 90
        1
176
     1
 90
        6
176
     1
 90
        2
176
     1
 62
     7
176
     1
 90
        5
176
     1
 90
        0
176
     1
 90
        0
176
     1
290
     0
176
     1
 90
        1
176
     1
 40
0.0
176
     1
 90
        0
176
     1
290
     0
176
     1
290
     1
176
     1
290
     1
176
     1
290
     0
176
     1
290
     0
176
     1
290
     0
176
     1
290
     0
176
     1
290
     0
176
     1
290
     0
176
     1
 90
       50
176
     1
 40
0.0
176
     1
 40
1.0
176
     1
 90
        0
176
     1
 62
    18
420
        0
176
     1
 90
       50
176
     1
 90
        3
176
     1
 62
     5
420
      255
176
     1
290
     0
176
     1
 90
       50
176
     1
 90
       50
176
     1
 90
       50
176
     1
290
     0
176
     1
 90
       50
176
     1
 62
   256
176
     0
 40
1.0
176
     0
 90
        2
176
     1
  1
strokes_ogs.tif
176
     1
290
     0
176
     1
 40
1.0
176
     1
 40
1.0
176
     1
  0
VISUALSTYLE
  5
3C
102
{ACAD_REACTORS
330
2A
102
}
330
2A
100
AcDbVisualStyle
  2
OverhangOff
 70
    21
177
     3
291
     1
 70
    58
 90
        2
176
     0
 90
        2
176
     0
 90
        0
176
     0
 90
        0
176
     0
 40
0.6
176
     0
 40
30.0
176
     0
 62
     7
420
 16777215
176
     0
 90
        1
176
     0
 90
        4
176
     0
 62
     7
176
     0
 62
   257
176
     0
 90
        1
176
     0
 90
        1
176
     0
 40
1.0
176
     0
 90
        9
176
     2
 62
     7
176
     0
 40
1.0
176
     0
 90
        1
176
     0
 90
        6
176
     0
 90
        2
176
     0
 62
     7
176
     0
 90
        5
176
     0
 90
        0
176
     0
 90
        0
176
     0
290
     0
176
     0
 90
        1
176
     0
 40
0.0
176
     0
 90
        0
176
     0
290
     0
176
     0
290
     1
176
     0
290
     1
176
     0
290
     0
176
     0
290
     0
176
     0
290
     0
176
     0
290
     0
176
     0
290
     0
176
     0
290
     0
176
     0
 90
       50
176
     0
 40
0.0
176
     0
 40
1.0
176
     0
 90
        0
176
     0
 62
    18
420
        0
176
     0
 90
       50
176
     0
 90
        3
176
     0
 62
     5
420
      255
176
     0
290
     0
176
     0
 90
       50
176
     0
 90
       50
176
     0
 90
       50
176
     0
290
     0
176
     0
 90
       50
176
     0
 62
   256
176
     0
 40
1.0
176
     0
 90
        2
176
     0
  1
strokes_ogs.tif
176
     0
290
     0
176
     0
 40
1.0
176
     0
 40
1.0
176
     0
  0
VISUALSTYLE
  5
33
102
{ACAD_REACTORS
330
2A
102
}
330
2A
100
AcDbVisualStyle
  2
Realistic
 70
     8
177
     3
291
     0
 70
    58
 90
        2
176
     1
 90
        3
176
     1
 90
        0
176
     1
 90
        2
176
     1
 40
0.6
176
     1
 40
30.0
176
     1
 62
     7
420
 16777215
176
     1
 90
        0
176
     1
 90
        0
176
     1
 62
     7
176
     1
 62
   257
176
     1
 90
        1
176
     1
 90
        1
176
     1
 40
1.0
176
     1
 90
        8
176
     1
 62
   257
176
     1
 40
1.0
176
     1
 90
        1
176
     1
 90
        6
176
     1
 90
        2
176
     1
 62
     7
176
     1
 90
        3
176
     1
 90
        0
176
     1
 90
        0
176
     1
290
     0
176
     1
 90
       13
176
     1
 40
0.0
176
     1
 90
        0
176
     1
290
     0
176
     1
290
     1
176
     1
290
     1
176
     1
290
     0
176
     1
290
     0
176
     1
290
     0
176
     1
290
     0
176
     1
290
     0
176
     1
290
     0
176
     1
 90
       50
176
     1
 40
0.0
176
     1
 40
1.0
176
     1
 90
        0
176
     1
 62
    18
420
        0
176
     1
 90
       50
176
     1
 90
        3
176
     1
 62
     5
420
      255
176
     1
290
     0
176
     1
 90
       50
176
     1
 90
       50
176
     1
 90
       50
176
     1
290
     0
176
     1
 90
       50
176
     1
 62
   256
176
     0
 40
1.0
176
     0
 90
        2
176
     1
  1
strokes_ogs.tif
176
     1
290
     0
176
     1
 40
1.0
176
     1
 40
1.0
176
     1
  0
VISUALSTYLE
  5
42
102
{ACAD_REACTORS
330
2A
102
}
330
2A
100
AcDbVisualStyle
  2
Shaded
 70
    27
177
     3
291
     0
 70
    58
 90
        2
176
     1
 90
        2
176
     1
 90
        1
176
     1
 90
        2
176
     1
 40
0.6
176
     1
 40
30.0
176
     1
 62
     7
420
 16777215
176
     1
 90
        0
176
     1
 90
        4
176
     1
 62
     7
176
     1
 62
   257
176
     1
 90
        1
176
     1
 90
        1
176
     1
 40
1.0
176
     1
 90
        8
176
     1
 62
   257
176
     1
 40
1.0
176
     1
 90
        1
176
     1
 90
        6
176
     1
 90
        2
176
     1
 62
     8
420
  7895160
176
     1
 90
        3
176
     1
 90
        0
176
     1
 90
        0
176
     1
290
     0
176
     1
 90
        5
176
     1
 40
0.0
176
     1
 90
        0
176
     1
290
     0
176
     1
290
     1
176
     1
290
     1
176
     1
290
     0
176
     1
290
     0
176
     1
290
     0
176
     1
290
     0
176
     1
290
     0
176
     1
290
     0
176
     1
 90
       50
176
     1
 40
0.0
176
     1
 40
1.0
176
     1
 90
        0
176
     1
 62
    18
420
        0
176
     1
 90
       50
176
     1
 90
        3
176
     1
 62
     5
420
      255
176
     1
290
     0
176
     1
 90
       50
176
     1
 90
       50
176
     1
 90
       50
176
     1
290
     0
176
     1
 90
       50
176
     1
 62
   256
176
     0
 40
1.0
176
     0
 90
        2
176
     1
  1
strokes_ogs.tif
176
     1
290
     0
176
     1
 40
1.0
176
     1
 40
1.0
176
     1
  0
VISUALSTYLE
  5
41
102
{ACAD_REACTORS
330
2A
102
}
330
2A
100
AcDbVisualStyle
  2
Shaded with edges
 70
    26
177
     3
291
     0
 70
    58
 90
        2
176
     1
 90
        2
176
     1
 90
        1
176
     1
 90
        2
176
     1
 40
0.6
176
     1
 40
30.0
176
     1
 62
     7
420
 16777215
176
     1
 90
        1
176
     1
 90
       10
176
     1
 62
     7
176
     1
 62
   257
176
     1
 90
        2
176
     1
 90
        1
176
     1
 40
1.0
176
     1
 90
        8
176
     1
 62
   257
176
     1
 40
1.0
176
     1
 90
        1
176
     1
 90
        6
176
     1
 90
        2
176
     1
 62
     7
176
     1
 90
        3
176
     1
 90
        0
176
     1
 90
        0
176
     1
290
     0
176
     1
 90
        5
176
     1
 40
0.0
176
     1
 90
        0
176
     1
290
     0
176
     1
290
     1
176
     1
290
     1
176
     1
290
     0
176
     1
290
     0
176
     1
290
     0
176
     1
290
     0
176
     1
290
     0
176
     1
290
     0
176
     1
 90
       50
176
     1
 40
0.0
176
     1
 40
1.0
176
     1
 90
        0
176
     1
 62
    18
420
        0
176
     1
 90
       50
176
     1
 90
        3
176
     1
 62
     5
420
      255
176
     1
290
     0
176
     1
 90
       50
176
     1
 90
       50
176
     1
 90
       50
176
     1
290
     0
176
     1
 90
       50
176
     1
 62
   256
176
     0
 40
1.0
176
     0
 90
        2
176
     1
  1
strokes_ogs.tif
176
     1
290
     0
176
     1
 40
1.0
176
     1
 40
1.0
176
     1
  0
VISUALSTYLE
  5
3E
102
{ACAD_REACTORS
330
2A
102
}
330
2A
100
AcDbVisualStyle
  2
Shades of Gray
 70
    23
177
     3
291
     0
 70
    58
 90
        2
176
     1
 90
        2
176
     1
 90
        3
176
     1
 90
        0
176
     1
 40
0.6
176
     1
 40
30.0
176
     1
 62
     7
420
 16777215
176
     1
 90
        2
176
     1
 90
        2
176
     1
 62
     7
176
     1
 62
     7
176
     1
 90
        1
176
     1
 90
        1
176
     1
 40
40.0
176
     1
 90
        8
176
     1
 62
     7
176
     1
 40
1.0
176
     1
 90
        1
176
     1
 90
        6
176
     1
 90
        2
176
     1
 62
     7
176
     1
 90
        3
176
     1
 90
        0
176
     1
 90
        0
176
     1
290
     0
176
     1
 90
        1
176
     1
 40
0.0
176
     1
 90
        0
176
     1
290
     0
176
     1
290
     1
176
     1
290
     1
176
     1
290
     0
176
     1
290
     0
176
     1
290
     0
176
     1
290
     0
176
     1
290
     0
176
     1
290
     0
176
     1
 90
       50
176
     1
 40
0.0
176
     1
 40
1.0
176
     1
 90
        0
176
     1
 62
    18
420
        0
176
     1
 90
       50
176
     1
 90
        3
176
     1
 62
     5
420
      255
176
     1
290
     0
176
     1
 90
       50
176
     1
 90
       50
176
     1
 90
       50
176
     1
290
     0
176
     1
 90
       50
176
     1
 62
   256
176
     0
 40
1.0
176
     0
 90
        2
176
     1
  1
strokes_ogs.tif
176
     1
290
     0
176
     1
 40
1.0
176
     1
 40
1.0
176
     1
  0
VISUALSTYLE
  5
3F
102
{ACAD_REACTORS
330
2A
102
}
330
2A
100
AcDbVisualStyle
  2
Sketchy
 70
    24
177
     3
291
     0
 70
    58
 90
        1
176
     1
 90
        2
176
     1
 90
        2
176
     1
 90
        0
176
     1
 40
0.6
176
     1
 40
30.0
176
     1
 62
     7
420
 16777215
176
     1
 90
        2
176
     1
 90
        2
176
     1
 62
     7
176
     1
 62
     7
176
     1
 90
        1
176
     1
 90
        1
176
     1
 40
40.0
176
     1
 90
       11
176
     1
 62
     7
176
     1
 40
1.0
176
     1
 90
        1
176
     1
 90
        6
176
     1
 90
        2
176
     1
 62
     7
176
     1
 90
        6
176
     1
 90
        0
176
     1
 90
        0
176
     1
290
     0
176
     1
 90
        1
176
     1
 40
0.0
176
     1
 90
        0
176
     1
290
     0
176
     1
290
     1
176
     1
290
     1
176
     1
290
     0
176
     1
290
     0
176
     1
290
     0
176
     1
290
     0
176
     1
290
     0
176
     1
290
     0
176
     1
 90
       50
176
     1
 40
0.0
176
     1
 40
1.0
176
     1
 90
        0
176
     1
 62
    18
420
        0
176
     1
 90
       50
176
     1
 90
        3
176
     1
 62
     5
420
      255
176
     1
290
     0
176
     1
 90
       50
176
     1
 90
       50
176
     1
 90
       50
176
     1
290
     0
176
     1
 90
       50
176
     1
 62
   256
176
     0
 40
1.0
176
     0
 90
        2
176
     1
  1
strokes_ogs.tif
176
     1
290
     0
176
     1
 40
1.0
176
     1
 40
1.0
176
     1
  0
VISUALSTYLE
  5
37
102
{ACAD_REACTORS
330
2A
102
}
330
2A
100
AcDbVisualStyle
  2
Thicken
 70
    13
177
     3
291
     1
 70
    58
 90
        2
176
     1
 90
        2
176
     1
 90
        0
176
     1
 90
        0
176
     1
 40
0.6
176
     1
 40
30.0
176
     1
 62
     7
420
 16777215
176
     1
 90
        1
176
     1
 90
        4
176
     1
 62
     7
176
     1
 62
   257
176
     1
 90
        1
176
     1
 90
        1
176
     1
 40
1.0
176
     1
 90
       12
176
     1
 62
     7
176
     1
 40
1.0
176
     1
 90
        1
176
     1
 90
        6
176
     1
 90
        2
176
     1
 62
     7
176
     1
 90
        5
176
     1
 90
        0
176
     1
 90
        0
176
     1
290
     0
176
     1
 90
        1
176
     1
 40
0.0
176
     1
 90
        0
176
     1
290
     0
176
     1
290
     1
176
     1
290
     1
176
     1
290
     0
176
     1
290
     0
176
     1
290
     0
176
     1
290
     0
176
     1
290
     0
176
     1
290
     0
176
     1
 90
       50
176
     1
 40
0.0
176
     1
 40
1.0
176
     1
 90
        0
176
     1
 62
    18
420
        0
176
     1
 90
       50
176
     1
 90
        3
176
     1
 62
     5
420
      255
176
     1
290
     0
176
     1
 90
       50
176
     1
 90
       50
176
     1
 90
       50
176
     1
290
     0
176
     1
 90
       50
176
     1
 62
   256
176
     0
 40
1.0
176
     0
 90
        2
176
     1
  1
strokes_ogs.tif
176
     1
290
     0
176
     1
 40
1.0
176
     1
 40
1.0
176
     1
  0
VISUALSTYLE
  5
30
102
{ACAD_REACTORS
330
2A
102
}
330
2A
100
AcDbVisualStyle
  2
Wireframe
 70
     5
177
     3
291
     0
 70
    58
 90
        0
176
     1
 90
        2
176
     1
 90
        0
176
     1
 90
        0
176
     1
 40
0.6
176
     1
 40
30.0
176
     1
 62
     7
420
 16777215
176
     1
 90
        1
176
     1
 90
        4
176
     1
 62
     7
176
     1
 62
   257
176
     1
 90
        1
176
     1
 90
        1
176
     1
 40
1.0
176
     1
 90
        0
176
     1
 62
   257
176
     1
 40
1.0
176
     1
 90
        1
176
     1
 90
        6
176
     1
 90
        2
176
     1
 62
     7
176
     1
 90
        3
176
     1
 90
        0
176
     1
 90
        0
176
     1
290
     0
176
     1
 90
        1
176
     1
 40
0.0
176
     1
 90
        0
176
     1
290
     0
176
     1
290
     1
176
     1
290
     1
176
     1
290
     0
176
     1
290
     0
176
     1
290
     0
176
     1
290
     0
176
     1
290
     0
176
     1
290
     0
176
     1
 90
       50
176
     1
 40
0.0
176
     1
 40
1.0
176
     1
 90
        0
176
     1
 62
    18
420
        0
176
     1
 90
       50
176
     1
 90
        3
176
     1
 62
     5
420
      255
176
     1
290
     0
176
     1
 90
       50
176
     1
 90
       50
176
     1
 90
       50
176
     1
290
     0
176
     1
 90
       50
176
     1
 62
   256
176
     0
 40
1.0
176
     0
 90
        2
176
     1
  1
strokes_ogs.tif
176
     1
290
     0
176
     1
 40
1.0
176
     1
 40
1.0
176
     1
  0
VISUALSTYLE
  5
40
102
{ACAD_REACTORS
330
2A
102
}
330
2A
100
AcDbVisualStyle
  2
X-Ray
 70
    25
177
     3
291
     0
 70
    58
 90
        2
176
     1
 90
        2
176
     1
 90
        1
176
     1
 90
        1
176
     1
 40
0.5
176
     1
 40
30.0
176
     1
 62
     7
420
 16777215
176
     1
 90
        1
176
     1
 90
        0
176
     1
 62
     7
176
     1
 62
   257
176
     1
 90
        1
176
     1
 90
        1
176
     1
 40
1.0
176
     1
 90
        8
176
     1
 62
     7
176
     1
 40
1.0
176
     1
 90
        1
176
     1
 90
        6
176
     1
 90
        2
176
     1
 62
     7
176
     1
 90
        3
176
     1
 90
        0
176
     1
 90
        0
176
     1
290
     0
176
     1
 90
       13
176
     1
 40
0.0
176
     1
 90
        0
176
     1
290
     0
176
     1
290
     1
176
     1
290
     1
176
     1
290
     0
176
     1
290
     0
176
     1
290
     0
176
     1
290
     0
176
     1
290
     0
176
     1
290
     0
176
     1
 90
       50
176
     1
 40
0.0
176
     1
 40
1.0
176
     1
 90
        0
176
     1
 62
    18
420
        0
176
     1
 90
       50
176
     1
 90
        3
176
     1
 62
     5
420
      255
176
     1
290
     0
176
     1
 90
       50
176
     1
 90
       50
176
     1
 90
       50
176
     1
290
     0
176
     1
 90
       50
176
     1
 62
   256
176
     0
 40
1.0
176
     0
 90
        2
176
     1
  1
strokes_ogs.tif
176
     1
290
     0
176
     1
 40
1.0
176
     1
 40
1.0
176
     1
  0
DICTIONARYVAR
  5
82
102
{ACAD_REACTORS
330
81
102
}
330
81
100
DictionaryVariables
280
     0
  1
1:1
  0
DICTIONARYVAR
  5
87
102
{ACAD_REACTORS
330
81
102
}
330
81
100
DictionaryVariables
280
     0
  1
Standard
  0
DICTIONARYVAR
  5
86
102
{ACAD_REACTORS
330
81
102
}
330
81
100
DictionaryVariables
280
     0
  1
Standard
  0
DICTIONARY
  5
83
330
5A
100
AcDbDictionary
280
     1
281
     1
  3
ACAD_ROUNDTRIP_2008_TABLESTYLE_CELLSTYLEMAP
360
84
  0
CELLSTYLEMAP
  5
84
102
{ACAD_REACTORS
330
83
102
}
330
83
100
AcDbCellStyleMap
 90
        3
300
CELLSTYLE
  1
TABLEFORMAT_BEGIN
 90
        5
170
     1
 91
        0
 92
    32768
 62
   257
 93
        1
300
CONTENTFORMAT
  1
CONTENTFORMAT_BEGIN
 90
        0
 91
        0
 92
        4
 93
        0
300

 40
0.0
140
1.0
 94
        5
 62
     0
340
11
144
0.25
309
CONTENTFORMAT_END
171
     1
301
MARGIN
  1
CELLMARGIN_BEGIN
 40
0.06
 40
0.06
 40
0.06
 40
0.06
 40
0.06
 40
0.06
309
CELLMARGIN_END
 94
        6
 95
        1
302
GRIDFORMAT
  1
GRIDFORMAT_BEGIN
 90
        0
 91
        1
 62
     0
 92
       -2
340
14
 93
        0
 40
0.045
309
GRIDFORMAT_END
 95
        2
302
GRIDFORMAT
  1
GRIDFORMAT_BEGIN
 90
        0
 91
        1
 62
     0
 92
       -2
340
14
 93
        0
 40
0.045
309
GRIDFORMAT_END
 95
        4
302
GRIDFORMAT
  1
GRIDFORMAT_BEGIN
 90
        0
 91
        1
 62
     0
 92
       -2
340
14
 93
        0
 40
0.045
309
GRIDFORMAT_END
 95
        8
302
GRIDFORMAT
  1
GRIDFORMAT_BEGIN
 90
        0
 91
        1
 62
     0
 92
       -2
340
14
 93
        0
 40
0.045
309
GRIDFORMAT_END
 95
       16
302
GRIDFORMAT
  1
GRIDFORMAT_BEGIN
 90
        0
 91
        1
 62
     0
 92
       -2
340
14
 93
        0
 40
0.045
309
GRIDFORMAT_END
 95
       32
302
GRIDFORMAT
  1
GRIDFORMAT_BEGIN
 90
        0
 91
        1
 62
     0
 92
       -2
340
14
 93
        0
 40
0.045
309
GRIDFORMAT_END
309
TABLEFORMAT_END
  1
CELLSTYLE_BEGIN
 90
        1
 91
        1
300
_TITLE
309
CELLSTYLE_END
300
CELLSTYLE
  1
TABLEFORMAT_BEGIN
 90
        5
170
     1
 91
        0
 92
        0
 62
   257
 93
        1
300
CONTENTFORMAT
  1
CONTENTFORMAT_BEGIN
 90
        0
 91
        0
 92
        4
 93
        0
300

 40
0.0
140
1.0
 94
        5
 62
     0
340
11
144
0.18
309
CONTENTFORMAT_END
171
     1
301
MARGIN
  1
CELLMARGIN_BEGIN
 40
0.06
 40
0.06
 40
0.06
 40
0.06
 40
0.06
 40
0.06
309
CELLMARGIN_END
 94
        6
 95
        1
302
GRIDFORMAT
  1
GRIDFORMAT_BEGIN
 90
        0
 91
        1
 62
     0
 92
       -2
340
14
 93
        0
 40
0.045
309
GRIDFORMAT_END
 95
        2
302
GRIDFORMAT
  1
GRIDFORMAT_BEGIN
 90
        0
 91
        1
 62
     0
 92
       -2
340
14
 93
        0
 40
0.045
309
GRIDFORMAT_END
 95
        4
302
GRIDFORMAT
  1
GRIDFORMAT_BEGIN
 90
        0
 91
        1
 62
     0
 92
       -2
340
14
 93
        0
 40
0.045
309
GRIDFORMAT_END
 95
        8
302
GRIDFORMAT
  1
GRIDFORMAT_BEGIN
 90
        0
 91
        1
 62
     0
 92
       -2
340
14
 93
        0
 40
0.045
309
GRIDFORMAT_END
 95
       16
302
GRIDFORMAT
  1
GRIDFORMAT_BEGIN
 90
        0
 91
        1
 62
     0
 92
       -2
340
14
 93
        0
 40
0.045
309
GRIDFORMAT_END
 95
       32
302
GRIDFORMAT
  1
GRIDFORMAT_BEGIN
 90
        0
 91
        1
 62
     0
 92
       -2
340
14
 93
        0
 40
0.045
309
GRIDFORMAT_END
309
TABLEFORMAT_END
  1
CELLSTYLE_BEGIN
 90
        2
 91
        1
300
_HEADER
309
CELLSTYLE_END
300
CELLSTYLE
  1
TABLEFORMAT_BEGIN
 90
        5
170
     1
 91
        0
 92
        0
 62
   257
 93
        1
300
CONTENTFORMAT
  1
CONTENTFORMAT_BEGIN
 90
        0
 91
        0
 92
        4
 93
        0
300

 40
0.0
140
1.0
 94
        2
 62
     0
340
11
144
0.18
309
CONTENTFORMAT_END
171
     1
301
MARGIN
  1
CELLMARGIN_BEGIN
 40
0.06
 40
0.06
 40
0.06
 40
0.06
 40
0.06
 40
0.06
309
CELLMARGIN_END
 94
        6
 95
        1
302
GRIDFORMAT
  1
GRIDFORMAT_BEGIN
 90
        0
 91
        1
 62
     0
 92
       -2
340
14
 93
        0
 40
0.045
309
GRIDFORMAT_END
 95
        2
302
GRIDFORMAT
  1
GRIDFORMAT_BEGIN
 90
        0
 91
        1
 62
     0
 92
       -2
340
14
 93
        0
 40
0.045
309
GRIDFORMAT_END
 95
        4
302
GRIDFORMAT
  1
GRIDFORMAT_BEGIN
 90
        0
 91
        1
 62
     0
 92
       -2
340
14
 93
        0
 40
0.045
309
GRIDFORMAT_END
 95
        8
302
GRIDFORMAT
  1
GRIDFORMAT_BEGIN
 90
        0
 91
        1
 62
     0
 92
       -2
340
14
 93
        0
 40
0.045
309
GRIDFORMAT_END
 95
       16
302
GRIDFORMAT
  1
GRIDFORMAT_BEGIN
 90
        0
 91
        1
 62
     0
 92
       -2
340
14
 93
        0
 40
0.045
309
GRIDFORMAT_END
 95
       32
302
GRIDFORMAT
  1
GRIDFORMAT_BEGIN
 90
        0
 91
        1
 62
     0
 92
       -2
340
14
 93
        0
 40
0.045
309
GRIDFORMAT_END
309
TABLEFORMAT_END
  1
CELLSTYLE_BEGIN
 90
        3
 91
        2
300
_DATA
309
CELLSTYLE_END
  0
ENDSEC
  0
EOF
