  0
SECTION
  2
HEADER
  9
$ACADVER
  1
AC1027
  9
$ACADMAINTVER
 70
   105
  9
$DWGCODEPAGE
  3
ANSI_1252
  9
$LASTSAVEDBY
  1
Office Desk
  9
$REQUIREDVERSIONS
160
                 0
  9
$INSBASE
 10
0.0
 20
0.0
 30
0.0
  9
$EXTMIN
 10
5.134374015748032
 20
-2.683169291338583
 30
0.0
  9
$EXTMAX
 10
10.0506968503937
 20
1.981637795275591
 30
0.0
  9
$LIMMIN
 10
0.0
 20
0.0
  9
$LIMMAX
 10
12.0
 20
9.0
  9
$ORTHOMODE
 70
     0
  9
$REGENMODE
 70
     1
  9
$FILLMODE
 70
     1
  9
$QTEXTMODE
 70
     0
  9
$MIRRTEXT
 70
     1
  9
$LTSCALE
 40
1.0
  9
$ATTMODE
 70
     1
  9
$TEXTSIZE
 40
0.2
  9
$TRACEWID
 40
0.05
  9
$TEXTSTYLE
  7
Standard
  9
$CLAYER
  8
0
  9
$CELTYPE
  6
ByLayer
  9
$CECOLOR
 62
   256
  9
$CELTSCALE
 40
1.0
  9
$DISPSILH
 70
     0
  9
$DIMSCALE
 40
1.0
  9
$DIMASZ
 40
0.18
  9
$DIMEXO
 40
0.0625
  9
$DIMDLI
 40
0.38
  9
$DIMRND
 40
0.0
  9
$DIMDLE
 40
0.0
  9
$DIMEXE
 40
0.18
  9
$DIMTP
 40
0.0
  9
$DIMTM
 40
0.0
  9
$DIMTXT
 40
0.18
  9
$DIMCEN
 40
0.09
  9
$DIMTSZ
 40
0.0
  9
$DIMTOL
 70
     0
  9
$DIMLIM
 70
     0
  9
$DIMTIH
 70
     1
  9
$DIMTOH
 70
     1
  9
$DIMSE1
 70
     0
  9
$DIMSE2
 70
     0
  9
$DIMTAD
 70
     0
  9
$DIMZIN
 70
     0
  9
$DIMBLK
  1

  9
$DIMASO
 70
     1
  9
$DIMSHO
 70
     1
  9
$DIMPOST
  1

  9
$DIMAPOST
  1

  9
$DIMALT
 70
     0
  9
$DIMALTD
 70
     2
  9
$DIMALTF
 40
25.4
  9
$DIMLFAC
 40
1.0
  9
$DIMTOFL
 70
     0
  9
$DIMTVP
 40
0.0
  9
$DIMTIX
 70
     0
  9
$DIMSOXD
 70
     0
  9
$DIMSAH
 70
     0
  9
$DIMBLK1
  1

  9
$DIMBLK2
  1

  9
$DIMSTYLE
  2
Standard
  9
$DIMCLRD
 70
     0
  9
$DIMCLRE
 70
     0
  9
$DIMCLRT
 70
     0
  9
$DIMTFAC
 40
1.0
  9
$DIMGAP
 40
0.09
  9
$DIMJUST
 70
     0
  9
$DIMSD1
 70
     0
  9
$DIMSD2
 70
     0
  9
$DIMTOLJ
 70
     1
  9
$DIMTZIN
 70
     0
  9
$DIMALTZ
 70
     0
  9
$DIMALTTZ
 70
     0
  9
$DIMUPT
 70
     0
  9
$DIMDEC
 70
     4
  9
$DIMTDEC
 70
     4
  9
$DIMALTU
 70
     2
  9
$DIMALTTD
 70
     2
  9
$DIMTXSTY
  7
Standard
  9
$DIMAUNIT
 70
     0
  9
$DIMADEC
 70
     0
  9
$DIMALTRND
 40
0.0
  9
$DIMAZIN
 70
     0
  9
$DIMDSEP
 70
    46
  9
$DIMATFIT
 70
     3
  9
$DIMFRAC
 70
     0
  9
$DIMLDRBLK
  1

  9
$DIMLUNIT
 70
     2
  9
$DIMLWD
 70
    -2
  9
$DIMLWE
 70
    -2
  9
$DIMTMOVE
 70
     0
  9
$DIMFXL
 40
1.0
  9
$DIMFXLON
 70
     0
  9
$DIMJOGANG
 40
0.7853981633974483
  9
$DIMTFILL
 70
     0
  9
$DIMTFILLCLR
 70
     0
  9
$DIMARCSYM
 70
     0
  9
$DIMLTYPE
  6

  9
$DIMLTEX1
  6

  9
$DIMLTEX2
  6

  9
$DIMTXTDIRECTION
 70
     0
  9
$LUNITS
 70
     2
  9
$LUPREC
 70
     4
  9
$SKETCHINC
 40
0.1
  9
$FILLETRAD
 40
0.0
  9
$AUNITS
 70
     0
  9
$AUPREC
 70
     0
  9
$MENU
  1
.
  9
$ELEVATION
 40
0.0
  9
$PELEVATION
 40
0.0
  9
$THICKNESS
 40
0.0
  9
$LIMCHECK
 70
     0
  9
$CHAMFERA
 40
0.0
  9
$CHAMFERB
 40
0.0
  9
$CHAMFERC
 40
0.0
  9
$CHAMFERD
 40
0.0
  9
$SKPOLY
 70
     0
  9
$TDCREATE
 40
2461028.625199329
  9
$TDUCREATE
 40
2461028.396032662
  9
$TDUPDATE
 40
2461028.62519941
  9
$TDUUPDATE
 40
2461028.396032743
  9
$TDINDWG
 40
0.0000000116
  9
$TDUSRTIMER
 40
0.0000000116
  9
$USRTIMER
 70
     1
  9
$ANGBASE
 50
0.0
  9
$ANGDIR
 70
     0
  9
$PDMODE
 70
     0
  9
$PDSIZE
 40
0.0
  9
$PLINEWID
 40
0.0
  9
$SPLFRAME
 70
     0
  9
$SPLINETYPE
 70
     6
  9
$SPLINESEGS
 70
     8
  9
$HANDSEED
  5
86
  9
$SURFTAB1
 70
     6
  9
$SURFTAB2
 70
     6
  9
$SURFTYPE
 70
     6
  9
$SURFU
 70
     6
  9
$SURFV
 70
     6
  9
$UCSBASE
  2

  9
$UCSNAME
  2

  9
$UCSORG
 10
0.0
 20
0.0
 30
0.0
  9
$UCSXDIR
 10
1.0
 20
0.0
 30
0.0
  9
$UCSYDIR
 10
0.0
 20
1.0
 30
0.0
  9
$UCSORTHOREF
  2

  9
$UCSORTHOVIEW
 70
     0
  9
$UCSORGTOP
 10
0.0
 20
0.0
 30
0.0
  9
$UCSORGBOTTOM
 10
0.0
 20
0.0
 30
0.0
  9
$UCSORGLEFT
 10
0.0
 20
0.0
 30
0.0
  9
$UCSORGRIGHT
 10
0.0
 20
0.0
 30
0.0
  9
$UCSORGFRONT
 10
0.0
 20
0.0
 30
0.0
  9
$UCSORGBACK
 10
0.0
 20
0.0
 30
0.0
  9
$PUCSBASE
  2

  9
$PUCSNAME
  2

  9
$PUCSORG
 10
0.0
 20
0.0
 30
0.0
  9
$PUCSXDIR
 10
1.0
 20
0.0
 30
0.0
  9
$PUCSYDIR
 10
0.0
 20
1.0
 30
0.0
  9
$PUCSORTHOREF
  2

  9
$PUCSORTHOVIEW
 70
     0
  9
$PUCSORGTOP
 10
0.0
 20
0.0
 30
0.0
  9
$PUCSORGBOTTOM
 10
0.0
 20
0.0
 30
0.0
  9
$PUCSORGLEFT
 10
0.0
 20
0.0
 30
0.0
  9
$PUCSORGRIGHT
 10
0.0
 20
0.0
 30
0.0
  9
$PUCSORGFRONT
 10
0.0
 20
0.0
 30
0.0
  9
$PUCSORGBACK
 10
0.0
 20
0.0
 30
0.0
  9
$USERI1
 70
     0
  9
$USERI2
 70
     0
  9
$USERI3
 70
     0
  9
$USERI4
 70
     0
  9
$USERI5
 70
     0
  9
$USERR1
 40
0.0
  9
$USERR2
 40
0.0
  9
$USERR3
 40
0.0
  9
$USERR4
 40
0.0
  9
$USERR5
 40
0.0
  9
$WORLDVIEW
 70
     1
  9
$SHADEDGE
 70
     3
  9
$SHADEDIF
 70
    70
  9
$TILEMODE
 70
     1
  9
$MAXACTVP
 70
    64
  9
$PINSBASE
 10
0.0
 20
0.0
 30
0.0
  9
$PLIMCHECK
 70
     0
  9
$PEXTMIN
 10
1.000000000000000E+20
 20
1.000000000000000E+20
 30
1.000000000000000E+20
  9
$PEXTMAX
 10
-1.000000000000000E+20
 20
-1.000000000000000E+20
 30
-1.000000000000000E+20
  9
$PLIMMIN
 10
0.0
 20
0.0
  9
$PLIMMAX
 10
12.0
 20
9.0
  9
$UNITMODE
 70
     0
  9
$VISRETAIN
 70
     1
  9
$PLINEGEN
 70
     0
  9
$PSLTSCALE
 70
     1
  9
$TREEDEPTH
 70
  3020
  9
$CMLSTYLE
  2
Standard
  9
$CMLJUST
 70
     0
  9
$CMLSCALE
 40
1.0
  9
$PROXYGRAPHICS
 70
     1
  9
$MEASUREMENT
 70
     0
  9
$CELWEIGHT
370
    -1
  9
$ENDCAPS
280
     0
  9
$JOINSTYLE
280
     0
  9
$LWDISPLAY
290
     0
  9
$INSUNITS
 70
     1
  9
$HYPERLINKBASE
  1

  9
$STYLESHEET
  1

  9
$XEDIT
290
     1
  9
$CEPSNTYPE
380
     0
  9
$PSTYLEMODE
290
     1
  9
$FINGERPRINTGUID
  2
{de5198d3-66ed-4189-8436-9c99df99a115}
  9
$VERSIONGUID
  2
{FAEB1C32-E019-11D5-929B-00C0DF256EC4}
  9
$EXTNAMES
290
     1
  9
$PSVPSCALE
 40
0.0
  9
$OLESTARTUP
290
     0
  9
$SORTENTS
280
   127
  9
$INDEXCTL
280
     0
  9
$HIDETEXT
280
     1
  9
$XCLIPFRAME
280
     2
  9
$HALOGAP
280
     0
  9
$OBSCOLOR
 70
   257
  9
$OBSLTYPE
280
     0
  9
$INTERSECTIONDISPLAY
280
     0
  9
$INTERSECTIONCOLOR
 70
   257
  9
$DIMASSOC
280
     2
  9
$PROJECTNAME
  1

  9
$CAMERADISPLAY
290
     0
  9
$LENSLENGTH
 40
50.0
  9
$CAMERAHEIGHT
 40
0.0
  9
$STEPSPERSEC
 40
2.0
  9
$STEPSIZE
 40
6.0
  9
$3DDWFPREC
 40
2.0
  9
$PSOLWIDTH
 40
0.25
  9
$PSOLHEIGHT
 40
4.0
  9
$LOFTANG1
 40
1.570796326794897
  9
$LOFTANG2
 40
1.570796326794897
  9
$LOFTMAG1
 40
0.0
  9
$LOFTMAG2
 40
0.0
  9
$LOFTPARAM
 70
     7
  9
$LOFTNORMALS
280
     1
  9
$LATITUDE
 40
37.795
  9
$LONGITUDE
 40
-122.394
  9
$NORTHDIRECTION
 40
0.0
  9
$TIMEZONE
 70
 -8000
  9
$LIGHTGLYPHDISPLAY
280
     1
  9
$TILEMODELIGHTSYNCH
280
     1
  9
$CMATERIAL
347
44
  9
$SOLIDHIST
280
     0
  9
$SHOWHIST
280
     1
  9
$DWFFRAME
280
     2
  9
$DGNFRAME
280
     2
  9
$REALWORLDSCALE
290
     1
  9
$INTERFERECOLOR
 62
   256
  9
$CSHADOW
280
     0
  9
$SHADOWPLANELOCATION
 40
0.0
  0
ENDSEC
  0
SECTION
  2
CLASSES
  0
CLASS
  1
ACDBDICTIONARYWDFLT
  2
AcDbDictionaryWithDefault
  3
ObjectDBX Classes
 90
        0
 91
        3
280
     0
281
     0
  0
CLASS
  1
VISUALSTYLE
  2
AcDbVisualStyle
  3
ObjectDBX Classes
 90
     4095
 91
        3
280
     0
281
     0
  0
CLASS
  1
MATERIAL
  2
AcDbMaterial
  3
ObjectDBX Classes
 90
     1153
 91
        3
280
     0
281
     0
  0
CLASS
  1
SCALE
  2
AcDbScale
  3
ObjectDBX Classes
 90
     1153
 91
        3
280
     0
281
     0
  0
CLASS
  1
TABLESTYLE
  2
AcDbTableStyle
  3
ObjectDBX Classes
 90
     4095
 91
        3
280
     0
281
     0
  0
CLASS
  1
MLEADERSTYLE
  2
AcDbMLeaderStyle
  3
ACDB_MLEADERSTYLE_CLASS
 90
     4095
 91
        3
280
     0
281
     0
  0
CLASS
  1
SUN
  2
AcDbSun
  3
SCENEOE
 90
     1153
 91
        3
280
     0
281
     0
  0
CLASS
  1
DICTIONARYVAR
  2
AcDbDictionaryVar
  3
ObjectDBX Classes
 90
        0
 91
        3
280
     0
281
     0
  0
CLASS
  1
CELLSTYLEMAP
  2
AcDbCellStyleMap
  3
ObjectDBX Classes
 90
     1152
 91
        3
280
     0
281
     0
  0
ENDSEC
  0
SECTION
  2
TABLES
  0
TABLE
  2
VPORT
  5
8
330
0
100
AcDbSymbolTable
 70
     1
  0
VPORT
  5
29
330
8
100
AcDbSymbolTableRecord
100
AcDbViewportTableRecord
  2
*Active
 70
     0
 10
0.0
 20
0.0
 11
1.0
 21
1.0
 12
10.42990654205607
 22
4.5
 13
0.0
 23
0.0
 14
0.5
 24
0.5
 15
0.5
 25
0.5
 16
0.0
 26
0.0
 36
1.0
 17
0.0
 27
0.0
 37
0.0
 40
9.0
 41
1.972972972850329
 42
50.0
 43
0.0
 44
0.0
 50
0.0
 51
0.0
 71
     0
 72
   100
 73
     1
 74
     3
 75
     0
 76
     0
 77
     0
 78
     0
281
     0
 65
     1
110
0.0
120
0.0
130
0.0
111
1.0
121
0.0
131
0.0
112
0.0
122
1.0
132
0.0
 79
     0
146
0.0
348
2F
 60
     3
 61
     5
292
     1
282
     1
141
0.0
142
0.0
 63
   250
361
5D
  0
ENDTAB
  0
TABLE
  2
LTYPE
  5
5
330
0
100
AcDbSymbolTable
 70
     1
  0
LTYPE
  5
14
330
5
100
AcDbSymbolTableRecord
100
AcDbLinetypeTableRecord
  2
ByBlock
 70
     0
  3

 72
    65
 73
     0
 40
0.0
  0
LTYPE
  5
15
330
5
100
AcDbSymbolTableRecord
100
AcDbLinetypeTableRecord
  2
ByLayer
 70
     0
  3

 72
    65
 73
     0
 40
0.0
  0
LTYPE
  5
16
330
5
100
AcDbSymbolTableRecord
100
AcDbLinetypeTableRecord
  2
Continuous
 70
     0
  3
Solid line
 72
    65
 73
     0
 40
0.0
  0
ENDTAB
  0
TABLE
  2
LAYER
  5
2
330
0
100
AcDbSymbolTable
 70
     2
  0
LAYER
  5
10
330
2
100
AcDbSymbolTableRecord
100
AcDbLayerTableRecord
  2
0
 70
     0
 62
     7
  6
Continuous
370
    -3
390
F
347
46
348
0
  0
LAYER
  5
5F
330
2
100
AcDbSymbolTableRecord
100
AcDbLayerTableRecord
  2
Layer 1
 70
     0
 62
     7
  6
Continuous
370
    -3
390
F
347
46
348
0
  0
ENDTAB
  0
TABLE
  2
STYLE
  5
3
330
0
100
AcDbSymbolTable
 70
     1
  0
STYLE
  5
11
330
3
100
AcDbSymbolTableRecord
100
AcDbTextStyleTableRecord
  2
Standard
 70
     0
 40
0.0
 41
1.0
 50
0.0
 71
     0
 42
0.2
  3
txt
  4

  0
ENDTAB
  0
TABLE
  2
VIEW
  5
6
330
0
100
AcDbSymbolTable
 70
     0
  0
ENDTAB
  0
TABLE
  2
UCS
  5
7
330
0
100
AcDbSymbolTable
 70
     0
  0
ENDTAB
  0
TABLE
  2
APPID
  5
9
330
0
100
AcDbSymbolTable
 70
     2
  0
APPID
  5
12
330
9
100
AcDbSymbolTableRecord
100
AcDbRegAppTableRecord
  2
ACAD
 70
     0
  0
APPID
  5
5E
330
9
100
AcDbSymbolTableRecord
100
AcDbRegAppTableRecord
  2
ODA
 70
     0
  0
ENDTAB
  0
TABLE
  2
DIMSTYLE
  5
A
330
0
100
AcDbSymbolTable
 70
     1
100
AcDbDimStyleTable
  0
DIMSTYLE
105
27
330
A
100
AcDbSymbolTableRecord
100
AcDbDimStyleTableRecord
  2
Standard
 70
     0
178
     0
340
11
  0
ENDTAB
  0
TABLE
  2
BLOCK_RECORD
  5
1
330
0
100
AcDbSymbolTable
 70
     1
  0
BLOCK_RECORD
  5
1F
330
1
100
AcDbSymbolTableRecord
100
AcDbBlockTableRecord
  2
*Model_Space
340
22
 70
     0
280
     1
281
     0
  0
BLOCK_RECORD
  5
1B
330
1
100
AcDbSymbolTableRecord
100
AcDbBlockTableRecord
  2
*Paper_Space
340
1E
 70
     0
280
     1
281
     0
  0
BLOCK_RECORD
  5
23
330
1
100
AcDbSymbolTableRecord
100
AcDbBlockTableRecord
  2
*Paper_Space0
340
26
 70
     0
280
     1
281
     0
  0
ENDTAB
  0
ENDSEC
  0
SECTION
  2
BLOCKS
  0
BLOCK
  5
20
330
1F
100
AcDbEntity
  8
0
100
AcDbBlockBegin
  2
*Model_Space
 70
     0
 10
0.0
 20
0.0
 30
0.0
  3
*Model_Space
  1

  0
ENDBLK
  5
21
330
1F
100
AcDbEntity
  8
0
100
AcDbBlockEnd
  0
BLOCK
  5
1C
330
1B
100
AcDbEntity
 67
     1
  8
0
100
AcDbBlockBegin
  2
*Paper_Space
 70
     0
 10
0.0
 20
0.0
 30
0.0
  3
*Paper_Space
  1

  0
ENDBLK
  5
1D
330
1B
100
AcDbEntity
 67
     1
  8
0
100
AcDbBlockEnd
  0
BLOCK
  5
24
330
23
100
AcDbEntity
  8
0
100
AcDbBlockBegin
  2
*Paper_Space0
 70
     0
 10
0.0
 20
0.0
 30
0.0
  3
*Paper_Space0
  1

  0
ENDBLK
  5
25
330
23
100
AcDbEntity
  8
0
100
AcDbBlockEnd
  0
ENDSEC
  0
SECTION
  2
ENTITIES
  0
LWPOLYLINE
  5
60
330
1F
100
AcDbEntity
  8
Layer 1
 62
   250
100
AcDbPolyline
 90
        5
 70
     1
 43
0.0
 10
5.134374015748032
 20
1.981637795275591
 10
10.0506968503937
 20
1.981637795275591
 10
10.0506968503937
 20
-2.683169291338583
 10
5.134374015748032
 20
-2.683169291338583
 10
5.134374015748032
 20
1.981637795275591
  0
LWPOLYLINE
  5
61
330
1F
100
AcDbEntity
  8
Layer 1
 62
     7
370
    13
100
AcDbPolyline
 90
       33
 70
     1
 43
0.0
 10
7.054354330708661
 20
1.705169291338583
 10
7.257996062992126
 20
1.699027559055118
 10
7.447677165354331
 20
1.681417322834646
 10
7.619338582677165
 20
1.653555118110236
 10
7.768905511811024
 20
1.616653543307087
 10
7.892318897637796
 20
1.571933070866142
 10
7.985503937007874
 20
1.520610236220473
 10
8.044397637795276
 20
1.463897637795275
 10
8.064933070866141
 20
1.40301968503937
 10
8.044397637795276
 20
1.342133858267716
 10
7.985503937007874
 20
1.285417322834646
 10
7.892318897637796
 20
1.234090551181102
 10
7.768905511811024
 20
1.189366141732283
 10
7.619338582677165
 20
1.152464566929134
 10
7.447677165354331
 20
1.12459842519685
 10
7.257996062992126
 20
1.106988188976378
 10
7.054354330708661
 20
1.100846456692913
 10
6.850708661417323
 20
1.106988188976378
 10
6.66101968503937
 20
1.12459842519685
 10
6.489354330708662
 20
1.152464566929134
 10
6.33978346456693
 20
1.189366141732283
 10
6.216374015748031
 20
1.234090551181102
 10
6.123185039370079
 20
1.285417322834646
 10
6.064291338582677
 20
1.342133858267716
 10
6.043755905511811
 20
1.40301968503937
 10
6.064291338582677
 20
1.463897637795275
 10
6.123185039370079
 20
1.520610236220473
 10
6.216374015748031
 20
1.571933070866142
 10
6.33978346456693
 20
1.616653543307087
 10
6.489354330708662
 20
1.653555118110236
 10
6.66101968503937
 20
1.681417322834646
 10
6.850708661417323
 20
1.699027559055118
 10
7.054354330708661
 20
1.705169291338583
  0
LWPOLYLINE
  5
62
330
1F
100
AcDbEntity
  8
Layer 1
 62
     7
370
    13
100
AcDbPolyline
 90
       33
 70
     1
 43
0.0
 10
7.054354330708661
 20
1.601992125984252
 10
7.237212598425197
 20
1.597948818897638
 10
7.407535433070866
 20
1.586354330708661
 10
7.561673228346456
 20
1.568007874015748
 10
7.695976377952756
 20
1.543708661417323
 10
7.806787401574804
 20
1.514259842519685
 10
7.89046062992126
 20
1.48046062992126
 10
7.943342519685039
 20
1.443114173228347
 10
7.961779527559055
 20
1.40301968503937
 10
7.943342519685039
 20
1.362917322834646
 10
7.89046062992126
 20
1.325562992125984
 10
7.806787401574804
 20
1.291759842519685
 10
7.695976377952756
 20
1.262307086614173
 10
7.561673228346456
 20
1.238007874015748
 10
7.407535433070866
 20
1.219657480314961
 10
7.237212598425197
 20
1.208062992125984
 10
7.054354330708661
 20
1.20401968503937
 10
6.871503937007874
 20
1.208062992125984
 10
6.701185039370078
 20
1.219657480314961
 10
6.547051181102362
 20
1.238007874015748
 10
6.412751968503937
 20
1.262307086614173
 10
6.30194094488189
 20
1.291759842519685
 10
6.218267716535433
 20
1.325562992125984
 10
6.165385826771653
 20
1.362917322834646
 10
6.146948818897638
 20
1.40301968503937
 10
6.165385826771653
 20
1.443114173228347
 10
6.218267716535433
 20
1.48046062992126
 10
6.30194094488189
 20
1.514259842519685
 10
6.412751968503937
 20
1.543708661417323
 10
6.547051181102362
 20
1.568007874015748
 10
6.701185039370078
 20
1.586354330708661
 10
6.871503937007874
 20
1.597948818897638
 10
7.054354330708661
 20
1.601992125984252
  0
LWPOLYLINE
  5
63
330
1F
100
AcDbEntity
  8
Layer 1
 62
     7
370
    13
100
AcDbPolyline
 90
       49
 70
     0
 43
0.0
 10
6.043755905511811
 20
1.402996062992126
 10
6.044417322834645
 20
1.376755905511811
 10
6.046204724409449
 20
1.304870078740157
 10
6.048803149606299
 20
1.197586614173228
 10
6.051917322834646
 20
1.065149606299213
 10
6.055228346456693
 20
0.9178070866141732
 10
6.05844094488189
 20
0.7658031496062992
 10
6.061244094488189
 20
0.6193897637795276
 10
6.063334645669292
 20
0.4888110236220473
 10
6.063988188976378
 20
0.4629330708661417
 10
6.065712598425197
 20
0.3940984251968504
 10
6.068149606299213
 20
0.295503937007874
 10
6.070940944881889
 20
0.1803464566929134
 10
6.073732283464567
 20
0.0618188976377953
 10
6.076169291338583
 20
-0.0468858267716535
 10
6.077893700787402
 20
-0.1325669291338583
 10
6.078547244094488
 20
-0.1820275590551181
 10
6.077720472440945
 20
-0.194492125984252
 10
6.079700787401575
 20
-0.2281929133858268
 10
6.09117716535433
 20
-0.2775787401574803
 10
6.118850393700788
 20
-0.3371102362204724
 10
6.169413385826772
 20
-0.4012322834645669
 10
6.249551181102362
 20
-0.4644015748031496
 10
6.365964566929134
 20
-0.5210748031496063
 10
6.525342519685039
 20
-0.5657007874015748
 10
6.555661417322835
 20
-0.5725787401574803
 10
6.640673228346457
 20
-0.5886574803149607
 10
6.771456692913386
 20
-0.6071102362204724
 10
6.939094488188976
 20
-0.6211102362204725
 10
7.134665354330709
 20
-0.6238307086614173
 10
7.349248031496063
 20
-0.6084370078740158
 10
7.573921259842519
 20
-0.5681102362204724
 10
7.799767716535433
 20
-0.4960157480314961
 10
7.809295275590551
 20
-0.4926732283464567
 10
7.834397637795275
 20
-0.4818346456692914
 10
7.869846456692914
 20
-0.462263779527559
 10
7.910417322834646
 20
-0.432744094488189
 10
7.950885826771653
 20
-0.3920433070866142
 10
7.986031496062992
 20
-0.3389370078740158
 10
8.010622047244095
 20
-0.2721968503937008
 10
8.019437007874016
 20
-0.1905984251968504
 10
8.020885826771654
 20
-0.1277322834645669
 10
8.024811023622048
 20
0.0391496062992126
 10
8.03057874015748
 20
0.2774685039370079
 10
8.03755905511811
 20
0.5546417322834646
 10
8.045110236220472
 20
0.8380984251968504
 10
8.052606299212599
 20
1.095255905511811
 10
8.059413385826772
 20
1.293535433070866
 10
8.064893700787401
 20
1.400358267716535
  0
LWPOLYLINE
  5
64
330
1F
100
AcDbEntity
  8
Layer 1
 62
     7
370
    13
100
AcDbPolyline
 90
        9
 70
     0
 43
0.0
 10
6.09253937007874
 20
-0.2943188976377953
 10
6.140283464566929
 20
-0.4651929133858267
 10
6.349429133858267
 20
-0.5894015748031496
 10
6.666602362204724
 20
-0.6659015748031496
 10
7.03842125984252
 20
-0.6936535433070866
 10
7.411515748031496
 20
-0.6716102362204724
 10
7.732515748031496
 20
-0.5987244094488189
 10
7.94803937007874
 20
-0.4739606299212599
 10
8.004712598425197
 20
-0.296267716535433
  0
LWPOLYLINE
  5
65
330
1F
100
AcDbEntity
  8
Layer 1
 62
     7
370
    13
100
AcDbPolyline
 90
       33
 70
     0
 43
0.0
 10
6.087826771653543
 20
-0.2777047244094488
 10
6.050263779527559
 20
-0.383996062992126
 10
6.07136220472441
 20
-0.4754330708661417
 10
6.136913385826771
 20
-0.5526653543307086
 10
6.232708661417323
 20
-0.6163346456692913
 10
6.344547244094488
 20
-0.6670826771653543
 10
6.458216535433071
 20
-0.7055551181102362
 10
6.559511811023622
 20
-0.7323937007874016
 10
6.634224409448819
 20
-0.748244094488189
 10
6.775377952755906
 20
-0.7691732283464567
 10
6.93003937007874
 20
-0.7818188976377953
 10
7.093421259842519
 20
-0.785267716535433
 10
7.260716535433071
 20
-0.7785944881889764
 10
7.427129921259843
 20
-0.7608779527559055
 10
7.587858267716536
 20
-0.7312007874015748
 10
7.738114173228347
 20
-0.6886377952755905
 10
7.873086614173229
 20
-0.6322755905511811
 10
7.89934251968504
 20
-0.6180433070866141
 10
7.924405511811024
 20
-0.6024330708661417
 10
7.948094488188977
 20
-0.5854488188976378
 10
7.970212598425197
 20
-0.5671062992125985
 10
7.990574803149606
 20
-0.5474094488188976
 10
8.008988188976378
 20
-0.5263661417322835
 10
8.025267716535433
 20
-0.5039842519685039
 10
8.039220472440945
 20
-0.4802755905511811
 10
8.052468503937009
 20
-0.4511889763779527
 10
8.061413385826771
 20
-0.4226417322834646
 10
8.06584251968504
 20
-0.3946771653543307
 10
8.065535433070867
 20
-0.3673346456692914
 10
8.060267716535433
 20
-0.3406456692913386
 10
8.049826771653544
 20
-0.3146574803149606
 10
8.033984251968503
 20
-0.2894094488188976
 10
8.012531496062993
 20
-0.2649330708661417
  0
LWPOLYLINE
  5
66
330
1F
100
AcDbEntity
  8
Layer 1
 62
     7
370
    13
100
AcDbPolyline
 90
       34
 70
     0
 43
0.0
 10
6.052527559055118
 20
-0.4200590551181103
 10
6.069570866141732
 20
-1.119834645669291
 10
6.069066929133858
 20
-1.183606299212598
 10
6.06642125984252
 20
-1.242779527559055
 10
6.064736220472441
 20
-1.297744094488189
 10
6.067125984251969
 20
-1.348885826771653
 10
6.076700787401575
 20
-1.39659842519685
 10
6.096570866141732
 20
-1.441267716535433
 10
6.129842519685039
 20
-1.483279527559055
 10
6.179629921259843
 20
-1.523027559055118
 10
6.241877952755906
 20
-1.559649606299213
 10
6.322153543307087
 20
-1.597393700787402
 10
6.42213779527559
 20
-1.633897637795276
 10
6.543511811023622
 20
-1.666799212598425
 10
6.687948818897638
 20
-1.693748031496063
 10
6.857129921259842
 20
-1.712385826771654
 10
7.052732283464567
 20
-1.720346456692913
 10
7.27644094488189
 20
-1.715279527559055
 10
7.300165354330709
 20
-1.712937007874016
 10
7.364291338582677
 20
-1.704937007874016
 10
7.458248031496063
 20
-1.689803149606299
 10
7.571456692913386
 20
-1.666066929133858
 10
7.693342519685039
 20
-1.632263779527559
 10
7.813334645669292
 20
-1.58692125984252
 10
7.920858267716535
 20
-1.528566929133858
 10
8.005342519685039
 20
-1.455740157480315
 10
8.041814960629921
 20
-1.379527559055118
 10
8.063748031496063
 20
-1.26305905511811
 10
8.074169291338583
 20
-1.118775590551181
 10
8.076118110236221
 20
-0.9591023622047244
 10
8.07261811023622
 20
-0.7964763779527559
 10
8.066708661417323
 20
-0.6433346456692913
 10
8.061417322834645
 20
-0.5121062992125984
 10
8.059775590551181
 20
-0.4152244094488189
  0
LWPOLYLINE
  5
67
330
1F
100
AcDbEntity
  8
Layer 1
 62
     7
370
    13
100
AcDbPolyline
 90
       17
 70
     0
 43
0.0
 10
6.066503937007874
 20
-1.259283464566929
 10
6.070003937007874
 20
-1.274216535433071
 10
6.086551181102362
 20
-1.31388188976378
 10
6.125212598425197
 20
-1.37055905511811
 10
6.195051181102362
 20
-1.43653937007874
 10
6.30513779527559
 20
-1.504114173228347
 10
6.46453937007874
 20
-1.565570866141732
 10
6.682322834645669
 20
-1.613196850393701
 10
6.967551181102362
 20
-1.639279527559055
 10
7.097984251968504
 20
-1.642716535433071
 10
7.251047244094488
 20
-1.637838582677165
 10
7.416413385826772
 20
-1.621389763779528
 10
7.583751968503937
 20
-1.590114173228346
 10
7.742728346456693
 20
-1.540744094488189
 10
7.88301968503937
 20
-1.47001968503937
 10
7.994291338582677
 20
-1.374688976377953
 10
8.066212598425198
 20
-1.251484251968504
  0
LWPOLYLINE
  5
68
330
1F
100
AcDbEntity
  8
Layer 1
 62
     7
370
    13
100
AcDbPolyline
 90
       33
 70
     0
 43
0.0
 10
6.070606299212598
 20
-1.162
 10
6.064425196850394
 20
-1.164712598425197
 10
6.048003937007874
 20
-1.173377952755906
 10
6.024503937007874
 20
-1.188787401574803
 10
5.997106299212598
 20
-1.211736220472441
 10
5.968976377952756
 20
-1.243015748031496
 10
5.943291338582677
 20
-1.28342125984252
 10
5.923216535433071
 20
-1.333740157480315
 10
5.911925196850394
 20
-1.394771653543307
 10
5.913629921259843
 20
-1.401196850393701
 10
5.92057874015748
 20
-1.419094488188976
 10
5.935523622047244
 20
-1.446409448818898
 10
5.961220472440945
 20
-1.481074803149606
 10
6.000425196850394
 20
-1.521027559055118
 10
6.055885826771654
 20
-1.564216535433071
 10
6.13036220472441
 20
-1.608570866141732
 10
6.226606299212598
 20
-1.652035433070866
 10
6.389248031496063
 20
-1.707374015748031
 10
6.561515748031496
 20
-1.750287401574803
 10
6.740814960629922
 20
-1.780582677165354
 10
6.924555118110236
 20
-1.79805905511811
 10
7.110133858267717
 20
-1.802523622047244
 10
7.294964566929134
 20
-1.793779527559055
 10
7.476448818897638
 20
-1.771625984251969
 10
7.651992125984252
 20
-1.735874015748031
 10
7.743795275590551
 20
-1.707429133858268
 10
7.85492125984252
 20
-1.661885826771654
 10
7.970027559055118
 20
-1.601555118110236
 10
8.073767716535434
 20
-1.528744094488189
 10
8.150803149606299
 20
-1.445767716535433
 10
8.185787401574803
 20
-1.354933070866142
 10
8.16338188976378
 20
-1.258551181102362
 10
8.06824409448819
 20
-1.158933070866142
  0
LWPOLYLINE
  5
69
330
1F
100
AcDbEntity
  8
Layer 1
 62
     7
370
    13
100
AcDbPolyline
 90
       33
 70
     0
 43
0.0
 10
5.911925196850394
 20
-1.394771653543307
 10
5.911259842519685
 20
-1.3995
 10
5.910248031496063
 20
-1.412740157480315
 10
5.910370078740158
 20
-1.433086614173228
 10
5.913114173228347
 20
-1.459133858267716
 10
5.919948818897637
 20
-1.489464566929134
 10
5.932366141732284
 20
-1.522677165354331
 10
5.951846456692913
 20
-1.557358267716535
 10
5.97986220472441
 20
-1.592102362204724
 10
5.990125984251969
 20
-1.603452755905512
 10
6.024047244094488
 20
-1.633606299212598
 10
6.086314960629921
 20
-1.676712598425197
 10
6.181629921259843
 20
-1.72692125984252
 10
6.314681102362205
 20
-1.778374015748031
 10
6.490165354330709
 20
-1.825228346456693
 10
6.712775590551181
 20
-1.861625984251968
 10
6.987208661417323
 20
-1.881720472440945
 10
7.022393700787402
 20
-1.882212598425197
 10
7.117803149606299
 20
-1.881047244094488
 10
7.258224409448819
 20
-1.874240157480315
 10
7.428440944881889
 20
-1.857830708661417
 10
7.613240157480315
 20
-1.827834645669291
 10
7.79740157480315
 20
-1.780287401574803
 10
7.965720472440945
 20
-1.711212598425197
 10
8.102972440944882
 20
-1.616633858267716
 10
8.133354330708661
 20
-1.58555905511811
 10
8.156944881889764
 20
-1.555086614173228
 10
8.174326771653543
 20
-1.524417322834646
 10
8.18607874015748
 20
-1.492755905511811
 10
8.192779527559056
 20
-1.459311023622047
 10
8.195011811023623
 20
-1.423287401574803
 10
8.193350393700788
 20
-1.383885826771654
 10
8.188377952755905
 20
-1.340318897637795
  0
LWPOLYLINE
  5
6A
330
1F
100
AcDbEntity
  8
Layer 1
 62
     7
370
    18
100
AcDbPolyline
 90
        4
 70
     1
 43
0.0
 10
8.503448818897638
 20
1.534125984251969
 10
8.488657480314961
 20
1.560988188976378
 10
8.473889763779528
 20
1.534114173228347
 10
8.503448818897638
 20
1.534125984251969
  0
LWPOLYLINE
  5
6B
330
1F
100
AcDbEntity
  8
Layer 1
 62
     7
370
    18
100
AcDbPolyline
 90
        4
 70
     1
 43
0.0
 10
8.504870078740158
 20
-1.70588188976378
 10
8.490102362204725
 20
-1.732755905511811
 10
8.475311023622048
 20
-1.705893700787402
 10
8.504870078740158
 20
-1.70588188976378
  0
LWPOLYLINE
  5
6C
330
1F
100
AcDbEntity
  8
Layer 1
 62
     7
370
    18
100
AcDbPolyline
 90
        2
 70
     0
 43
0.0
 10
8.48707874015748
 20
1.569944881889764
 10
8.488531496062992
 20
-1.741712598425197
  0
LWPOLYLINE
  5
6D
330
1F
100
AcDbEntity
  8
Layer 1
 62
     7
370
     9
100
AcDbPolyline
 90
        7
 70
     1
 43
0.0
 10
8.671732283464568
 20
-0.3568031496062992
 10
8.696492125984252
 20
-0.3568031496062992
 10
8.696492125984252
 20
-0.1132362204724409
 10
8.63705905511811
 20
-0.1195905511811024
 10
8.63705905511811
 20
-0.1411929133858268
 10
8.671732283464568
 20
-0.1411929133858268
 10
8.671732283464568
 20
-0.3568031496062992
  0
LWPOLYLINE
  5
6E
330
1F
100
AcDbEntity
  8
Layer 1
 62
     7
370
     9
100
AcDbPolyline
 90
       70
 70
     1
 43
0.0
 10
8.839212598425197
 20
-0.1440393700787402
 10
8.84329527559055
 20
-0.1468149606299212
 10
8.847102362204724
 20
-0.1499645669291338
 10
8.850633858267717
 20
-0.153492125984252
 10
8.853889763779527
 20
-0.1573937007874016
 10
8.856866141732283
 20
-0.1616732283464567
 10
8.859570866141732
 20
-0.1663267716535433
 10
8.861996062992127
 20
-0.1713582677165354
 10
8.86414566929134
 20
-0.1767637795275591
 10
8.866555118110236
 20
-0.1839448818897638
 10
8.86863779527559
 20
-0.1912322834645669
 10
8.870405511811024
 20
-0.1986220472440945
 10
8.871846456692914
 20
-0.2061141732283465
 10
8.872968503937008
 20
-0.2137125984251969
 10
8.873767716535433
 20
-0.2214173228346457
 10
8.874248031496062
 20
-0.2292244094488189
 10
8.874409448818898
 20
-0.2371338582677165
 10
8.873350393700788
 20
-0.2546653543307086
 10
8.872122047244094
 20
-0.2641811023622047
 10
8.870515748031496
 20
-0.2731692913385827
 10
8.86853937007874
 20
-0.2816377952755906
 10
8.866185039370079
 20
-0.2895787401574803
 10
8.863456692913386
 20
-0.296996062992126
 10
8.860350393700788
 20
-0.3038858267716535
 10
8.856870078740158
 20
-0.310251968503937
 10
8.853011811023622
 20
-0.3160866141732284
 10
8.849488188976379
 20
-0.3204803149606299
 10
8.845775590551181
 20
-0.3242913385826772
 10
8.841877952755906
 20
-0.3275157480314961
 10
8.837795275590551
 20
-0.3301574803149606
 10
8.83351968503937
 20
-0.3322086614173229
 10
8.829062992125984
 20
-0.3336771653543307
 10
8.824417322834647
 20
-0.3345551181102362
 10
8.819586614173229
 20
-0.3348503937007874
 10
8.814188976377952
 20
-0.3345590551181102
 10
8.809051181102362
 20
-0.3336889763779528
 10
8.804173228346457
 20
-0.3322362204724409
 10
8.799555118110236
 20
-0.3302047244094488
 10
8.795196850393701
 20
-0.3275944881889764
 10
8.79109842519685
 20
-0.3244015748031496
 10
8.787255905511811
 20
-0.3206299212598425
 10
8.78367716535433
 20
-0.3162755905511811
 10
8.780704724409448
 20
-0.3119763779527559
 10
8.778007874015747
 20
-0.3074133858267716
 10
8.77557874015748
 20
-0.3025905511811023
 10
8.773413385826771
 20
-0.297507874015748
 10
8.767220472440945
 20
-0.2760787401574803
 10
8.764224409448818
 20
-0.2548267716535433
 10
8.763338582677166
 20
-0.2311732283464567
 10
8.763582677165354
 20
-0.2240905511811024
 10
8.764307086614172
 20
-0.2162086614173228
 10
8.76551968503937
 20
-0.2075236220472441
 10
8.767220472440945
 20
-0.1980314960629921
 10
8.773251968503937
 20
-0.1766023622047244
 10
8.775338582677165
 20
-0.1714173228346457
 10
8.777708661417323
 20
-0.166503937007874
 10
8.780370078740157
 20
-0.1618543307086614
 10
8.783326771653543
 20
-0.1574724409448819
 10
8.78657874015748
 20
-0.1534409448818898
 10
8.790141732283464
 20
-0.1498228346456693
 10
8.794007874015747
 20
-0.1466259842519685
 10
8.798185039370079
 20
-0.1438503937007874
 10
8.802712598425197
 20
-0.1416062992125984
 10
8.807641732283464
 20
-0.139996062992126
 10
8.812968503937007
 20
-0.1390275590551181
 10
8.818700787401575
 20
-0.1387047244094488
 10
8.824425196850394
 20
-0.1390393700787401
 10
8.829751968503937
 20
-0.1400433070866142
 10
8.834681102362206
 20
-0.1417086614173228
 10
8.839212598425197
 20
-0.1440393700787402
  0
LWPOLYLINE
  5
6F
330
1F
100
AcDbEntity
  8
Layer 1
 62
     7
370
     9
100
AcDbPolyline
 90
       65
 70
     1
 43
0.0
 10
8.819937007874016
 20
-0.3599842519685039
 10
8.830259842519686
 20
-0.3593307086614173
 10
8.839929133858268
 20
-0.3573622047244094
 10
8.848937007874015
 20
-0.3540866141732283
 10
8.857291338582677
 20
-0.349496062992126
 10
8.864988188976378
 20
-0.3435984251968504
 10
8.872027559055118
 20
-0.3363858267716535
 10
8.878413385826772
 20
-0.3278661417322835
 10
8.88413779527559
 20
-0.3180314960629921
 10
8.88815748031496
 20
-0.3094527559055118
 10
8.891641732283464
 20
-0.3004015748031496
 10
8.894590551181102
 20
-0.2908700787401575
 10
8.897007874015747
 20
-0.2808622047244094
 10
8.898885826771654
 20
-0.2703818897637795
 10
8.900232283464566
 20
-0.2594212598425197
 10
8.90103937007874
 20
-0.2479881889763779
 10
8.901307086614173
 20
-0.2360748031496063
 10
8.90103937007874
 20
-0.2241653543307087
 10
8.900232283464566
 20
-0.2127322834645669
 10
8.898885826771654
 20
-0.2017716535433071
 10
8.897007874015747
 20
-0.1912874015748031
 10
8.894590551181102
 20
-0.1812795275590551
 10
8.891641732283464
 20
-0.171748031496063
 10
8.88815748031496
 20
-0.1626929133858268
 10
8.88413779527559
 20
-0.1541141732283464
 10
8.878413385826772
 20
-0.1442874015748032
 10
8.872027559055118
 20
-0.1357677165354331
 10
8.864988188976378
 20
-0.1285551181102362
 10
8.857291338582677
 20
-0.1226574803149606
 10
8.848937007874015
 20
-0.1180669291338583
 10
8.839929133858268
 20
-0.1147874015748031
 10
8.830259842519686
 20
-0.1128188976377953
 10
8.819937007874016
 20
-0.1121614173228346
 10
8.809610236220472
 20
-0.1128188976377953
 10
8.799944881889763
 20
-0.1147874015748031
 10
8.790933070866142
 20
-0.1180669291338583
 10
8.782578740157481
 20
-0.1226574803149606
 10
8.77488188976378
 20
-0.1285551181102362
 10
8.76784251968504
 20
-0.1357677165354331
 10
8.761456692913386
 20
-0.1442874015748032
 10
8.755732283464567
 20
-0.1541141732283464
 10
8.751712598425197
 20
-0.1626929133858268
 10
8.748228346456694
 20
-0.171748031496063
 10
8.745279527559054
 20
-0.1812795275590551
 10
8.742862204724409
 20
-0.1912874015748031
 10
8.740984251968504
 20
-0.2017716535433071
 10
8.739637795275591
 20
-0.2127322834645669
 10
8.738830708661418
 20
-0.2241653543307087
 10
8.738562992125985
 20
-0.2360748031496063
 10
8.738830708661418
 20
-0.2479881889763779
 10
8.739637795275591
 20
-0.2594212598425197
 10
8.740984251968504
 20
-0.2703818897637795
 10
8.742862204724409
 20
-0.2808622047244094
 10
8.745279527559054
 20
-0.2908700787401575
 10
8.748228346456694
 20
-0.3004015748031496
 10
8.751712598425197
 20
-0.3094527559055118
 10
8.755732283464567
 20
-0.3180314960629921
 10
8.761456692913386
 20
-0.3278661417322835
 10
8.76784251968504
 20
-0.3363858267716535
 10
8.77488188976378
 20
-0.3435984251968504
 10
8.782578740157481
 20
-0.349496062992126
 10
8.790933070866142
 20
-0.3540866141732283
 10
8.799944881889763
 20
-0.3573622047244094
 10
8.809610236220472
 20
-0.3593307086614173
 10
8.819937007874016
 20
-0.3599842519685039
  0
LWPOLYLINE
  5
70
330
1F
100
AcDbEntity
  8
Layer 1
 62
     7
370
     9
100
AcDbPolyline
 90
      116
 70
     1
 43
0.0
 10
8.982299212598425
 20
-0.2052716535433071
 10
8.998582677165354
 20
-0.1408425196850394
 10
9.08557874015748
 20
-0.1408425196850394
 10
9.08557874015748
 20
-0.1160590551181102
 10
8.979826771653544
 20
-0.1160590551181102
 10
8.952220472440946
 20
-0.2240354330708662
 10
8.979114173228346
 20
-0.2360748031496063
 10
8.983011811023623
 20
-0.2334173228346457
 10
8.987102362204725
 20
-0.2311141732283465
 10
8.991389763779528
 20
-0.2291692913385827
 10
8.995870078740158
 20
-0.2275787401574803
 10
9.000543307086614
 20
-0.2263385826771654
 10
9.005413385826772
 20
-0.2254566929133858
 10
9.010472440944882
 20
-0.2249251968503937
 10
9.015724409448818
 20
-0.224748031496063
 10
9.021011811023621
 20
-0.225007874015748
 10
9.02611811023622
 20
-0.2257874015748031
 10
9.031047244094488
 20
-0.2270866141732283
 10
9.035803149606298
 20
-0.2289055118110236
 10
9.040377952755906
 20
-0.231248031496063
 10
9.04477559055118
 20
-0.2341062992125984
 10
9.048996062992126
 20
-0.2374881889763779
 10
9.053043307086615
 20
-0.2413937007874016
 10
9.056858267716535
 20
-0.245744094488189
 10
9.060161417322835
 20
-0.250251968503937
 10
9.062956692913385
 20
-0.2549212598425197
 10
9.06524409448819
 20
-0.259751968503937
 10
9.067023622047245
 20
-0.264744094488189
 10
9.06829527559055
 20
-0.2698937007874016
 10
9.069055118110237
 20
-0.2752047244094488
 10
9.069311023622047
 20
-0.2806732283464567
 10
9.069051181102362
 20
-0.2863385826771653
 10
9.068271653543308
 20
-0.2917755905511811
 10
9.066972440944882
 20
-0.2969842519685039
 10
9.065153543307087
 20
-0.3019645669291339
 10
9.062814960629922
 20
-0.3067204724409449
 10
9.059956692913385
 20
-0.311248031496063
 10
9.05657874015748
 20
-0.3155472440944882
 10
9.052681102362206
 20
-0.3196181102362205
 10
9.048653543307086
 20
-0.3231496062992126
 10
9.044330708661418
 20
-0.3263031496062992
 10
9.039720472440944
 20
-0.3290826771653543
 10
9.034826771653544
 20
-0.331492125984252
 10
9.029492125984252
 20
-0.3334212598425197
 10
9.023590551181103
 20
-0.3348031496062992
 10
9.01711811023622
 20
-0.3356338582677165
 10
9.010066929133858
 20
-0.3359133858267717
 10
9.00640157480315
 20
-0.335759842519685
 10
9.002740157480314
 20
-0.3352913385826772
 10
8.999082677165354
 20
-0.3345157480314961
 10
8.995433070866142
 20
-0.3334330708661417
 10
8.991787401574802
 20
-0.3320354330708661
 10
8.988145669291338
 20
-0.3303346456692913
 10
8.984507874015748
 20
-0.3283188976377953
 10
8.980874015748032
 20
-0.326
 10
8.977385826771654
 20
-0.3234291338582677
 10
8.974161417322835
 20
-0.3206692913385827
 10
8.971200787401575
 20
-0.3177204724409449
 10
8.968503937007874
 20
-0.3145866141732284
 10
8.966070866141733
 20
-0.311259842519685
 10
8.963901574803149
 20
-0.307748031496063
 10
8.962
 20
-0.3040433070866142
 10
8.96036220472441
 20
-0.3001535433070866
 10
8.936314960629922
 20
-0.3079291338582677
 10
8.938677165354331
 20
-0.3137637795275591
 10
8.941429133858268
 20
-0.3193031496062992
 10
8.94457874015748
 20
-0.3245472440944882
 10
8.948118110236221
 20
-0.329496062992126
 10
8.952051181102362
 20
-0.3341496062992126
 10
8.956377952755906
 20
-0.338511811023622
 10
8.961094488188976
 20
-0.3425787401574803
 10
8.96620472440945
 20
-0.3463503937007874
 10
8.97163779527559
 20
-0.3497952755905512
 10
8.977192913385826
 20
-0.3527795275590551
 10
8.982866141732284
 20
-0.3553070866141732
 10
8.988665354330708
 20
-0.3573740157480315
 10
8.994586614173228
 20
-0.3589803149606299
 10
9.000629921259842
 20
-0.3601299212598425
 10
9.006791338582676
 20
-0.3608188976377953
 10
9.01307874015748
 20
-0.3610472440944882
 10
9.021452755905512
 20
-0.3606692913385827
 10
9.029503937007874
 20
-0.3595354330708662
 10
9.03723622047244
 20
-0.3576417322834646
 10
9.044649606299213
 20
-0.3549921259842519
 10
9.051740157480316
 20
-0.3515826771653544
 10
9.058511811023623
 20
-0.3474133858267717
 10
9.06496062992126
 20
-0.3424881889763779
 10
9.071086614173229
 20
-0.3367992125984252
 10
9.076641732283464
 20
-0.3306299212598425
 10
9.081456692913386
 20
-0.3241535433070866
 10
9.085527559055118
 20
-0.3173779527559055
 10
9.088862204724409
 20
-0.3102913385826772
 10
9.091452755905511
 20
-0.3029015748031496
 10
9.0933031496063
 20
-0.2952086614173228
 10
9.09441338582677
 20
-0.2872047244094488
 10
9.094783464566929
 20
-0.2788976377952756
 10
9.094417322834646
 20
-0.2706496062992126
 10
9.093322834645669
 20
-0.262748031496063
 10
9.091496062992126
 20
-0.2551929133858268
 10
9.088944881889764
 20
-0.2479842519685039
 10
9.08565748031496
 20
-0.2411220472440945
 10
9.081645669291339
 20
-0.2346102362204724
 10
9.076905511811024
 20
-0.2284448818897638
 10
9.071433070866142
 20
-0.2226259842519685
 10
9.065736220472441
 20
-0.2175866141732284
 10
9.059594488188976
 20
-0.2131062992125984
 10
9.053003937007874
 20
-0.2091811023622047
 10
9.045964566929134
 20
-0.2058070866141732
 10
9.038653543307086
 20
-0.2030905511811024
 10
9.031208661417322
 20
-0.2011535433070866
 10
9.023641732283465
 20
-0.199988188976378
 10
9.015972440944882
 20
-0.1996023622047244
 10
9.008031496062992
 20
-0.1999566929133858
 10
8.999775590551181
 20
-0.2010236220472441
 10
8.9911968503937
 20
-0.2027952755905512
 10
8.982299212598425
 20
-0.2052716535433071
  0
LWPOLYLINE
  5
71
330
1F
100
AcDbEntity
  8
Layer 1
 62
     7
370
     9
100
AcDbPolyline
 90
      123
 70
     1
 43
0.0
 10
9.337456692913387
 20
-0.3561062992125984
 10
9.36221653543307
 20
-0.3561062992125984
 10
9.36221653543307
 20
-0.2587362204724409
 10
9.362015748031496
 20
-0.2522716535433071
 10
9.361405511811023
 20
-0.2461102362204724
 10
9.360397637795275
 20
-0.240251968503937
 10
9.35898031496063
 20
-0.2346968503937008
 10
9.357161417322835
 20
-0.2294488188976378
 10
9.35494094488189
 20
-0.224503937007874
 10
9.352318897637796
 20
-0.2198661417322835
 10
9.349291338582677
 20
-0.2155314960629921
 10
9.345811023622048
 20
-0.2115
 10
9.341917322834645
 20
-0.2078818897637795
 10
9.337594488188977
 20
-0.2046850393700787
 10
9.332850393700788
 20
-0.2019133858267717
 10
9.330275590551182
 20
-0.2007125984251968
 10
9.3275
 20
-0.1996692913385827
 10
9.324527559055118
 20
-0.1987834645669291
 10
9.321354330708662
 20
-0.1980590551181102
 10
9.314417322834645
 20
-0.1970905511811024
 10
9.306681102362205
 20
-0.1967677165354331
 10
9.302673228346457
 20
-0.1969055118110236
 10
9.298791338582678
 20
-0.1973228346456693
 10
9.295043307086614
 20
-0.1980157480314961
 10
9.29142125984252
 20
-0.198988188976378
 10
9.287925196850393
 20
-0.2002362204724409
 10
9.284555118110235
 20
-0.201759842519685
 10
9.28131496062992
 20
-0.2035590551181102
 10
9.278200787401575
 20
-0.2056338582677165
 10
9.272917322834646
 20
-0.2099212598425197
 10
9.268118110236221
 20
-0.2148188976377953
 10
9.263811023622047
 20
-0.2203149606299213
 10
9.259984251968504
 20
-0.2263937007874016
 10
9.253425196850394
 20
-0.2155314960629921
 10
9.249948818897638
 20
-0.2115
 10
9.246051181102363
 20
-0.2078818897637795
 10
9.24172440944882
 20
-0.2046850393700787
 10
9.236984251968504
 20
-0.2019133858267717
 10
9.234409448818898
 20
-0.2007125984251968
 10
9.23163779527559
 20
-0.1996692913385827
 10
9.228665354330708
 20
-0.1987834645669291
 10
9.225496062992127
 20
-0.1980590551181102
 10
9.218555118110237
 20
-0.1970905511811024
 10
9.210814960629921
 20
-0.1967677165354331
 10
9.206811023622047
 20
-0.1969055118110236
 10
9.202937007874016
 20
-0.1973228346456693
 10
9.199188976377952
 20
-0.1980157480314961
 10
9.195566929133859
 20
-0.198988188976378
 10
9.192070866141732
 20
-0.2002362204724409
 10
9.18870472440945
 20
-0.201759842519685
 10
9.18546062992126
 20
-0.2035590551181102
 10
9.182346456692914
 20
-0.2056338582677165
 10
9.177299212598426
 20
-0.2097007874015748
 10
9.172700787401574
 20
-0.2143110236220472
 10
9.168547244094489
 20
-0.2194645669291339
 10
9.164830708661418
 20
-0.2251574803149606
 10
9.164830708661418
 20
-0.2003267716535433
 10
9.140070866141732
 20
-0.2003267716535433
 10
9.140070866141732
 20
-0.3561062992125984
 10
9.164830708661418
 20
-0.3561062992125984
 10
9.164830708661418
 20
-0.2763700787401575
 10
9.165405511811024
 20
-0.2717244094488189
 10
9.166153543307086
 20
-0.267259842519685
 10
9.167082677165354
 20
-0.2629763779527559
 10
9.168188976377953
 20
-0.2588740157480315
 10
9.169472440944881
 20
-0.2549488188976378
 10
9.170937007874016
 20
-0.2511968503937008
 10
9.172574803149606
 20
-0.2476181102362205
 10
9.174393700787402
 20
-0.2442125984251969
 10
9.177456692913387
 20
-0.2394803149606299
 10
9.18101968503937
 20
-0.2351889763779527
 10
9.185066929133859
 20
-0.2313385826771654
 10
9.189602362204724
 20
-0.2279330708661417
 10
9.192007874015747
 20
-0.2264370078740157
 10
9.19446062992126
 20
-0.2251417322834646
 10
9.196956692913385
 20
-0.2240472440944882
 10
9.1995
 20
-0.2231535433070866
 10
9.20208661417323
 20
-0.2224566929133858
 10
9.204716535433072
 20
-0.2219645669291339
 10
9.207393700787401
 20
-0.2216653543307087
 10
9.210114173228346
 20
-0.2215669291338583
 10
9.215236220472441
 20
-0.2217755905511811
 10
9.219657480314961
 20
-0.2223976377952756
 10
9.223374015748032
 20
-0.2234409448818898
 10
9.226385826771654
 20
-0.2249094488188976
 10
9.229948818897638
 20
-0.2275511811023622
 10
9.233035433070865
 20
-0.2306456692913386
 10
9.235649606299212
 20
-0.2341968503937008
 10
9.237787401574803
 20
-0.2381968503937008
 10
9.239448818897637
 20
-0.2426535433070866
 10
9.24063779527559
 20
-0.2475629921259843
 10
9.241354330708662
 20
-0.2529212598425197
 10
9.241590551181103
 20
-0.2587362204724409
 10
9.241590551181103
 20
-0.3561062992125984
 10
9.266334645669291
 20
-0.3561062992125984
 10
9.266334645669291
 20
-0.2587362204724409
 10
9.26617716535433
 20
-0.2527755905511811
 10
9.270248031496063
 20
-0.2442125984251969
 10
9.273314960629921
 20
-0.2394803149606299
 10
9.276874015748032
 20
-0.2351889763779527
 10
9.28092125984252
 20
-0.2313385826771654
 10
9.285452755905512
 20
-0.2279330708661417
 10
9.287858267716535
 20
-0.2264370078740157
 10
9.290311023622047
 20
-0.2251417322834646
 10
9.292807086614173
 20
-0.2240472440944882
 10
9.295350393700787
 20
-0.2231535433070866
 10
9.29794094488189
 20
-0.2224566929133858
 10
9.300574803149606
 20
-0.2219645669291339
 10
9.303255905511811
 20
-0.2216653543307087
 10
9.30598031496063
 20
-0.2215669291338583
 10
9.311102362204725
 20
-0.2217755905511811
 10
9.31551968503937
 20
-0.2223976377952756
 10
9.319232283464567
 20
-0.2234409448818898
 10
9.32223622047244
 20
-0.2249094488188976
 10
9.325799212598426
 20
-0.2275511811023622
 10
9.328889763779527
 20
-0.2306456692913386
 10
9.331503937007874
 20
-0.2341968503937008
 10
9.33364566929134
 20
-0.2381968503937008
 10
9.335311023622047
 20
-0.2426535433070866
 10
9.336503937007874
 20
-0.2475629921259843
 10
9.33721653543307
 20
-0.2529212598425197
 10
9.337456692913387
 20
-0.2587362204724409
 10
9.337456692913387
 20
-0.3561062992125984
  0
LWPOLYLINE
  5
72
330
1F
100
AcDbEntity
  8
Layer 1
 62
     7
370
     9
100
AcDbPolyline
 90
      123
 70
     1
 43
0.0
 10
9.607346456692913
 20
-0.3561062992125984
 10
9.632122047244094
 20
-0.3561062992125984
 10
9.632122047244094
 20
-0.2587362204724409
 10
9.63192125984252
 20
-0.2522716535433071
 10
9.631311023622047
 20
-0.2461102362204724
 10
9.630303149606299
 20
-0.240251968503937
 10
9.628885826771654
 20
-0.2346968503937008
 10
9.627066929133859
 20
-0.2294488188976378
 10
9.624846456692913
 20
-0.224503937007874
 10
9.622224409448819
 20
-0.2198661417322835
 10
9.6191968503937
 20
-0.2155314960629921
 10
9.615716535433071
 20
-0.2115
 10
9.611818897637795
 20
-0.2078818897637795
 10
9.607492125984251
 20
-0.2046850393700787
 10
9.602740157480316
 20
-0.2019133858267717
 10
9.600169291338583
 20
-0.2007125984251968
 10
9.597397637795275
 20
-0.1996692913385827
 10
9.594429133858268
 20
-0.1987834645669291
 10
9.591255905511812
 20
-0.1980590551181102
 10
9.584314960629921
 20
-0.1970905511811024
 10
9.576570866141733
 20
-0.1967677165354331
 10
9.572566929133858
 20
-0.1969055118110236
 10
9.568692913385826
 20
-0.1973228346456693
 10
9.564944881889764
 20
-0.1980157480314961
 10
9.561322834645669
 20
-0.198988188976378
 10
9.557826771653543
 20
-0.2002362204724409
 10
9.55446062992126
 20
-0.201759842519685
 10
9.55121653543307
 20
-0.2035590551181102
 10
9.548102362204725
 20
-0.2056338582677165
 10
9.542811023622047
 20
-0.2099212598425197
 10
9.538011811023622
 20
-0.2148188976377953
 10
9.533704724409448
 20
-0.2203149606299213
 10
9.529885826771654
 20
-0.2263937007874016
 10
9.523330708661417
 20
-0.2155314960629921
 10
9.519850393700787
 20
-0.2115
 10
9.515948818897638
 20
-0.2078818897637795
 10
9.51162598425197
 20
-0.2046850393700787
 10
9.506885826771654
 20
-0.2019133858267717
 10
9.504311023622048
 20
-0.2007125984251968
 10
9.50153937007874
 20
-0.1996692913385827
 10
9.498566929133858
 20
-0.1987834645669291
 10
9.495393700787401
 20
-0.1980590551181102
 10
9.488452755905511
 20
-0.1970905511811024
 10
9.480716535433071
 20
-0.1967677165354331
 10
9.476708661417323
 20
-0.1969055118110236
 10
9.472830708661418
 20
-0.1973228346456693
 10
9.46907874015748
 20
-0.1980157480314961
 10
9.465456692913385
 20
-0.198988188976378
 10
9.46196062992126
 20
-0.2002362204724409
 10
9.458594488188977
 20
-0.201759842519685
 10
9.455350393700787
 20
-0.2035590551181102
 10
9.452236220472441
 20
-0.2056338582677165
 10
9.4471968503937
 20
-0.2097007874015748
 10
9.442602362204724
 20
-0.2143110236220472
 10
9.438448818897637
 20
-0.2194645669291339
 10
9.434732283464568
 20
-0.2251574803149606
 10
9.434732283464568
 20
-0.2003267716535433
 10
9.409976377952756
 20
-0.2003267716535433
 10
9.409976377952756
 20
-0.3561062992125984
 10
9.434732283464568
 20
-0.3561062992125984
 10
9.434732283464568
 20
-0.2763700787401575
 10
9.435307086614173
 20
-0.2717244094488189
 10
9.43605905511811
 20
-0.267259842519685
 10
9.436988188976377
 20
-0.2629763779527559
 10
9.438090551181102
 20
-0.2588740157480315
 10
9.439374015748031
 20
-0.2549488188976378
 10
9.440834645669291
 20
-0.2511968503937008
 10
9.442468503937008
 20
-0.2476181102362205
 10
9.44428346456693
 20
-0.2442125984251969
 10
9.447354330708661
 20
-0.2394803149606299
 10
9.450917322834645
 20
-0.2351889763779527
 10
9.454968503937009
 20
-0.2313385826771654
 10
9.459507874015747
 20
-0.2279330708661417
 10
9.461913385826772
 20
-0.2264370078740157
 10
9.46436220472441
 20
-0.2251417322834646
 10
9.466858267716535
 20
-0.2240472440944882
 10
9.469397637795275
 20
-0.2231535433070866
 10
9.471984251968504
 20
-0.2224566929133858
 10
9.47461811023622
 20
-0.2219645669291339
 10
9.477295275590551
 20
-0.2216653543307087
 10
9.48001968503937
 20
-0.2215669291338583
 10
9.485141732283465
 20
-0.2217755905511811
 10
9.48955905511811
 20
-0.2223976377952756
 10
9.493271653543307
 20
-0.2234409448818898
 10
9.496275590551182
 20
-0.2249094488188976
 10
9.499838582677166
 20
-0.2275511811023622
 10
9.502929133858268
 20
-0.2306456692913386
 10
9.505543307086613
 20
-0.2341968503937008
 10
9.50768503937008
 20
-0.2381968503937008
 10
9.509350393700787
 20
-0.2426535433070866
 10
9.510543307086614
 20
-0.2475629921259843
 10
9.511255905511812
 20
-0.2529212598425197
 10
9.511496062992126
 20
-0.2587362204724409
 10
9.511496062992126
 20
-0.3561062992125984
 10
9.536240157480314
 20
-0.3561062992125984
 10
9.536240157480314
 20
-0.2587362204724409
 10
9.53607874015748
 20
-0.2527755905511811
 10
9.540149606299213
 20
-0.2442125984251969
 10
9.543220472440945
 20
-0.2394803149606299
 10
9.546779527559055
 20
-0.2351889763779527
 10
9.550826771653544
 20
-0.2313385826771654
 10
9.555358267716535
 20
-0.2279330708661417
 10
9.557763779527559
 20
-0.2264370078740157
 10
9.56021653543307
 20
-0.2251417322834646
 10
9.562712598425197
 20
-0.2240472440944882
 10
9.565255905511812
 20
-0.2231535433070866
 10
9.567842519685039
 20
-0.2224566929133858
 10
9.570472440944881
 20
-0.2219645669291339
 10
9.573149606299213
 20
-0.2216653543307087
 10
9.575870078740158
 20
-0.2215669291338583
 10
9.580996062992126
 20
-0.2217755905511811
 10
9.585417322834646
 20
-0.2223976377952756
 10
9.589133858267717
 20
-0.2234409448818898
 10
9.592141732283464
 20
-0.2249094488188976
 10
9.59570472440945
 20
-0.2275511811023622
 10
9.598791338582677
 20
-0.2306456692913386
 10
9.601405511811024
 20
-0.2341968503937008
 10
9.603543307086614
 20
-0.2381968503937008
 10
9.605204724409449
 20
-0.2426535433070866
 10
9.606393700787402
 20
-0.2475629921259843
 10
9.607110236220473
 20
-0.2529212598425197
 10
9.607346456692913
 20
-0.2587362204724409
 10
9.607346456692913
 20
-0.3561062992125984
  0
LWPOLYLINE
  5
73
330
1F
100
AcDbEntity
  8
Layer 1
 62
     7
370
    18
100
AcDbPolyline
 90
        4
 70
     1
 43
0.0
 10
8.35538188976378
 20
-2.096669291338582
 10
8.382240157480314
 20
-2.081874015748031
 10
8.355366141732283
 20
-2.067110236220473
 10
8.35538188976378
 20
-2.096669291338582
  0
LWPOLYLINE
  5
74
330
1F
100
AcDbEntity
  8
Layer 1
 62
     7
370
    18
100
AcDbPolyline
 90
        4
 70
     1
 43
0.0
 10
5.894933070866141
 20
-2.098082677165354
 10
5.868055118110236
 20
-2.083318897637795
 10
5.894917322834646
 20
-2.068523622047244
 10
5.894933070866141
 20
-2.098082677165354
  0
LWPOLYLINE
  5
75
330
1F
100
AcDbEntity
  8
Layer 1
 62
     7
370
    18
100
AcDbPolyline
 90
        2
 70
     0
 43
0.0
 10
8.391196850393701
 20
-2.080295275590551
 10
5.859102362204724
 20
-2.081748031496063
  0
LWPOLYLINE
  5
76
330
1F
100
AcDbEntity
  8
Layer 1
 62
     7
370
     9
100
AcDbPolyline
 90
       65
 70
     1
 43
0.0
 10
6.82461811023622
 20
-2.302637795275591
 10
6.829870078740157
 20
-2.302866141732284
 10
6.834917322834646
 20
-2.303547244094488
 10
6.839755905511811
 20
-2.304685039370079
 10
6.844393700787402
 20
-2.306271653543307
 10
6.848822834645669
 20
-2.308314960629921
 10
6.853051181102362
 20
-2.310811023622047
 10
6.857074803149606
 20
-2.313759842519685
 10
6.860893700787401
 20
-2.317157480314961
 10
6.864334645669292
 20
-2.320846456692913
 10
6.867314960629921
 20
-2.324744094488189
 10
6.869834645669291
 20
-2.328854330708662
 10
6.871897637795276
 20
-2.333173228346457
 10
6.8735
 20
-2.337704724409449
 10
6.874645669291339
 20
-2.342448818897638
 10
6.875334645669291
 20
-2.347405511811024
 10
6.875562992125984
 20
-2.352570866141732
 10
6.875338582677165
 20
-2.357685039370079
 10
6.87465748031496
 20
-2.362625984251968
 10
6.873527559055118
 20
-2.367397637795276
 10
6.871944881889764
 20
-2.372
 10
6.869905511811024
 20
-2.376429133858268
 10
6.867417322834646
 20
-2.380685039370079
 10
6.864476377952756
 20
-2.384767716535433
 10
6.861082677165355
 20
-2.388681102362205
 10
6.857354330708661
 20
-2.392248031496063
 10
6.853389763779528
 20
-2.395342519685039
 10
6.849192913385827
 20
-2.39796062992126
 10
6.844751968503937
 20
-2.400102362204724
 10
6.84007874015748
 20
-2.401767716535433
 10
6.835165354330709
 20
-2.40296062992126
 10
6.830011811023622
 20
-2.403673228346457
 10
6.82461811023622
 20
-2.403913385826772
 10
6.819236220472441
 20
-2.403673228346457
 10
6.814094488188976
 20
-2.40296062992126
 10
6.809188976377953
 20
-2.401767716535433
 10
6.80451968503937
 20
-2.400102362204724
 10
6.800086614173228
 20
-2.39796062992126
 10
6.795889763779527
 20
-2.395342519685039
 10
6.791929133858268
 20
-2.392248031496063
 10
6.788200787401575
 20
-2.388681102362205
 10
6.784803149606299
 20
-2.384767716535433
 10
6.781858267716536
 20
-2.380685039370079
 10
6.779366141732283
 20
-2.376429133858268
 10
6.777326771653543
 20
-2.372
 10
6.775740157480315
 20
-2.367397637795276
 10
6.774610236220473
 20
-2.362625984251968
 10
6.773929133858267
 20
-2.357685039370079
 10
6.773704724409449
 20
-2.352570866141732
 10
6.773933070866142
 20
-2.347405511811024
 10
6.774622047244095
 20
-2.342448818897638
 10
6.775767716535433
 20
-2.337704724409449
 10
6.777374015748031
 20
-2.333173228346457
 10
6.779437007874016
 20
-2.328854330708662
 10
6.78196062992126
 20
-2.324744094488189
 10
6.784944881889764
 20
-2.320846456692913
 10
6.788389763779527
 20
-2.317157480314961
 10
6.792204724409449
 20
-2.313759842519685
 10
6.796220472440945
 20
-2.310811023622047
 10
6.800444881889764
 20
-2.308314960629921
 10
6.804870078740158
 20
-2.306271653543307
 10
6.8095
 20
-2.304685039370079
 10
6.814334645669291
 20
-2.303547244094488
 10
6.819374015748031
 20
-2.302866141732284
 10
6.82461811023622
 20
-2.302637795275591
  0
LWPOLYLINE
  5
77
330
1F
100
AcDbEntity
  8
Layer 1
 62
     7
370
     9
100
AcDbPolyline
 90
       65
 70
     1
 43
0.0
 10
6.82461811023622
 20
-2.204917322834646
 10
6.828854330708661
 20
-2.205094488188976
 10
6.832929133858268
 20
-2.205629921259843
 10
6.83684251968504
 20
-2.206515748031496
 10
6.84059842519685
 20
-2.207759842519685
 10
6.844188976377953
 20
-2.209354330708662
 10
6.847618110236221
 20
-2.211303149606299
 10
6.850889763779527
 20
-2.213602362204724
 10
6.854
 20
-2.216255905511811
 10
6.856897637795275
 20
-2.219248031496063
 10
6.859413385826771
 20
-2.222405511811024
 10
6.861539370078741
 20
-2.225732283464567
 10
6.863279527559055
 20
-2.229232283464567
 10
6.864633858267717
 20
-2.23290157480315
 10
6.86559842519685
 20
-2.236740157480315
 10
6.866181102362205
 20
-2.240755905511811
 10
6.866374015748032
 20
-2.24494094488189
 10
6.866181102362205
 20
-2.249031496062992
 10
6.86559842519685
 20
-2.252992125984252
 10
6.864633858267717
 20
-2.256818897637795
 10
6.863279527559055
 20
-2.260511811023622
 10
6.861539370078741
 20
-2.264074803149606
 10
6.859413385826771
 20
-2.267503937007874
 10
6.856897637795275
 20
-2.270803149606299
 10
6.854
 20
-2.273968503937008
 10
6.850913385826772
 20
-2.276787401574803
 10
6.847661417322835
 20
-2.279232283464567
 10
6.844240157480315
 20
-2.281303149606299
 10
6.840649606299213
 20
-2.282996062992126
 10
6.836893700787401
 20
-2.284311023622047
 10
6.832972440944882
 20
-2.285251968503937
 10
6.828877952755906
 20
-2.285814960629921
 10
6.82461811023622
 20
-2.286003937007874
 10
6.820370078740157
 20
-2.285814960629921
 10
6.816291338582677
 20
-2.285251968503937
 10
6.812374015748031
 20
-2.284311023622047
 10
6.808622047244095
 20
-2.282996062992126
 10
6.805035433070866
 20
-2.281303149606299
 10
6.801614173228346
 20
-2.279232283464567
 10
6.798358267716536
 20
-2.276787401574803
 10
6.795267716535433
 20
-2.273968503937008
 10
6.792370078740158
 20
-2.270803149606299
 10
6.789858267716536
 20
-2.267503937007874
 10
6.787728346456693
 20
-2.264074803149606
 10
6.785988188976378
 20
-2.260511811023622
 10
6.784633858267717
 20
-2.256818897637795
 10
6.783669291338582
 20
-2.252992125984252
 10
6.783086614173229
 20
-2.249031496062992
 10
6.782893700787402
 20
-2.24494094488189
 10
6.783086614173229
 20
-2.240755905511811
 10
6.783669291338582
 20
-2.236740157480315
 10
6.784633858267717
 20
-2.23290157480315
 10
6.785988188976378
 20
-2.229232283464567
 10
6.787728346456693
 20
-2.225732283464567
 10
6.789858267716536
 20
-2.222405511811024
 10
6.792370078740158
 20
-2.219248031496063
 10
6.795267716535433
 20
-2.216255905511811
 10
6.798377952755906
 20
-2.213602362204724
 10
6.801649606299213
 20
-2.211303149606299
 10
6.80507874015748
 20
-2.209354330708662
 10
6.808669291338583
 20
-2.207759842519685
 10
6.812417322834646
 20
-2.206515748031496
 10
6.816322834645669
 20
-2.205629921259843
 10
6.820389763779527
 20
-2.205094488188976
 10
6.82461811023622
 20
-2.204917322834646
  0
LWPOLYLINE
  5
78
330
1F
100
AcDbEntity
  8
Layer 1
 62
     7
370
     9
100
AcDbPolyline
 90
      117
 70
     1
 43
0.0
 10
6.82461811023622
 20
-2.428685039370079
 10
6.832732283464567
 20
-2.428377952755906
 10
6.840515748031496
 20
-2.427456692913386
 10
6.847972440944882
 20
-2.425925196850394
 10
6.855102362204724
 20
-2.423775590551181
 10
6.861905511811024
 20
-2.421011811023622
 10
6.868381889763779
 20
-2.417633858267716
 10
6.874531496062992
 20
-2.413641732283465
 10
6.880358267716535
 20
-2.409031496062992
 10
6.885456692913386
 20
-2.40409842519685
 10
6.889988188976378
 20
-2.398677165354331
 10
6.89394094488189
 20
-2.392771653543307
 10
6.897311023622048
 20
-2.38638188976378
 10
6.898767716535433
 20
-2.383
 10
6.900027559055118
 20
-2.3795
 10
6.901094488188976
 20
-2.375874015748031
 10
6.901968503937008
 20
-2.372125984251968
 10
6.902645669291338
 20
-2.368259842519685
 10
6.903133858267717
 20
-2.364267716535433
 10
6.90342125984252
 20
-2.360161417322835
 10
6.90351968503937
 20
-2.355929133858268
 10
6.903354330708662
 20
-2.351641732283464
 10
6.902866141732283
 20
-2.347366141732283
 10
6.902051181102363
 20
-2.343102362204724
 10
6.900905511811024
 20
-2.338846456692913
 10
6.899437007874016
 20
-2.334602362204724
 10
6.897641732283464
 20
-2.330370078740157
 10
6.895523622047244
 20
-2.326149606299213
 10
6.89307874015748
 20
-2.32194094488189
 10
6.890330708661417
 20
-2.317830708661417
 10
6.887299212598426
 20
-2.313913385826772
 10
6.883988188976378
 20
-2.310196850393701
 10
6.880389763779528
 20
-2.306673228346457
 10
6.876511811023622
 20
-2.303342519685039
 10
6.872354330708661
 20
-2.300204724409449
 10
6.867913385826772
 20
-2.297259842519685
 10
6.863188976377953
 20
-2.294507874015748
 10
6.869905511811024
 20
-2.288511811023622
 10
6.875724409448819
 20
-2.282389763779527
 10
6.880649606299213
 20
-2.276141732283465
 10
6.884681102362205
 20
-2.269763779527559
 10
6.887814960629921
 20
-2.263259842519685
 10
6.890055118110237
 20
-2.256629921259842
 10
6.891397637795276
 20
-2.249874015748031
 10
6.891846456692913
 20
-2.242992125984252
 10
6.89153937007874
 20
-2.236200787401575
 10
6.89061811023622
 20
-2.229724409448819
 10
6.889082677165354
 20
-2.223562992125984
 10
6.886933070866141
 20
-2.217720472440945
 10
6.884173228346457
 20
-2.212192913385827
 10
6.880799212598426
 20
-2.20698031496063
 10
6.876811023622047
 20
-2.202082677165354
 10
6.872216535433071
 20
-2.197503937007874
 10
6.867350393700788
 20
-2.19351968503937
 10
6.862177165354331
 20
-2.190062992125984
 10
6.856688976377953
 20
-2.187141732283465
 10
6.850893700787402
 20
-2.184748031496063
 10
6.844787401574803
 20
-2.182889763779527
 10
6.838374015748031
 20
-2.18155905511811
 10
6.831649606299212
 20
-2.180763779527559
 10
6.82461811023622
 20
-2.180496062992126
 10
6.817590551181103
 20
-2.180763779527559
 10
6.810874015748031
 20
-2.18155905511811
 10
6.804464566929134
 20
-2.182889763779527
 10
6.798366141732283
 20
-2.184748031496063
 10
6.792570866141732
 20
-2.187141732283465
 10
6.787090551181103
 20
-2.190062992125984
 10
6.781917322834646
 20
-2.19351968503937
 10
6.777051181102363
 20
-2.197503937007874
 10
6.772448818897638
 20
-2.202082677165354
 10
6.768464566929134
 20
-2.206968503937008
 10
6.765090551181102
 20
-2.212169291338583
 10
6.762330708661417
 20
-2.217681102362205
 10
6.760181102362205
 20
-2.223496062992126
 10
6.758649606299213
 20
-2.229625984251968
 10
6.757728346456693
 20
-2.23605905511811
 10
6.75742125984252
 20
-2.242803149606299
 10
6.757870078740157
 20
-2.249736220472441
 10
6.759212598425197
 20
-2.256531496062992
 10
6.761456692913386
 20
-2.263196850393701
 10
6.764590551181103
 20
-2.269724409448819
 10
6.768622047244095
 20
-2.27611811023622
 10
6.773547244094488
 20
-2.28238188976378
 10
6.779366141732283
 20
-2.288511811023622
 10
6.78607874015748
 20
-2.294507874015748
 10
6.781354330708662
 20
-2.297259842519685
 10
6.776913385826772
 20
-2.300204724409449
 10
6.772755905511811
 20
-2.303342519685039
 10
6.768877952755905
 20
-2.306673228346457
 10
6.765279527559055
 20
-2.310196850393701
 10
6.761968503937008
 20
-2.313913385826772
 10
6.758937007874016
 20
-2.317830708661417
 10
6.756188976377953
 20
-2.32194094488189
 10
6.753740157480315
 20
-2.326157480314961
 10
6.751618110236221
 20
-2.33040157480315
 10
6.749822834645669
 20
-2.334673228346457
 10
6.748358267716536
 20
-2.338972440944882
 10
6.747216535433071
 20
-2.343303149606299
 10
6.74640157480315
 20
-2.347661417322835
 10
6.745909448818898
 20
-2.352047244094488
 10
6.745748031496063
 20
-2.356464566929134
 10
6.746110236220472
 20
-2.364366141732284
 10
6.747196850393701
 20
-2.371885826771654
 10
6.749007874015748
 20
-2.379027559055118
 10
6.751543307086614
 20
-2.385791338582677
 10
6.754803149606299
 20
-2.392173228346457
 10
6.758783464566929
 20
-2.398173228346457
 10
6.763484251968504
 20
-2.403791338582677
 10
6.768909448818897
 20
-2.409031496062992
 10
6.774740157480315
 20
-2.413641732283465
 10
6.780893700787401
 20
-2.417633858267716
 10
6.787374015748031
 20
-2.421011811023622
 10
6.794173228346457
 20
-2.423775590551181
 10
6.801299212598425
 20
-2.425925196850394
 10
6.808748031496063
 20
-2.427456692913386
 10
6.81651968503937
 20
-2.428377952755906
 10
6.82461811023622
 20
-2.428685039370079
  0
LWPOLYLINE
  5
79
330
1F
100
AcDbEntity
  8
Layer 1
 62
     7
370
     9
100
AcDbPolyline
 90
       65
 70
     1
 43
0.0
 10
7.007685039370079
 20
-2.315748031496063
 10
7.002047244094488
 20
-2.315488188976378
 10
6.996618110236221
 20
-2.314708661417323
 10
6.991397637795275
 20
-2.313405511811024
 10
6.986385826771653
 20
-2.311586614173228
 10
6.981582677165354
 20
-2.309244094488189
 10
6.976988188976378
 20
-2.30638188976378
 10
6.972606299212599
 20
-2.303003937007874
 10
6.968433070866141
 20
-2.299102362204724
 10
6.964657480314961
 20
-2.294889763779528
 10
6.961381889763779
 20
-2.290472440944882
 10
6.958614173228346
 20
-2.285862204724409
 10
6.956350393700787
 20
-2.281047244094488
 10
6.954586614173229
 20
-2.276035433070866
 10
6.953330708661417
 20
-2.270822834645669
 10
6.952574803149607
 20
-2.265409448818898
 10
6.95232283464567
 20
-2.259795275590551
 10
6.95257874015748
 20
-2.254318897637795
 10
6.953342519685039
 20
-2.249023622047244
 10
6.954614173228347
 20
-2.24392125984252
 10
6.956397637795275
 20
-2.239
 10
6.958688976377953
 20
-2.234271653543307
 10
6.961484251968504
 20
-2.229728346456693
 10
6.964791338582677
 20
-2.225377952755906
 10
6.968606299212598
 20
-2.221216535433071
 10
6.972704724409449
 20
-2.217484251968504
 10
6.977031496062992
 20
-2.214248031496063
 10
6.981594488188977
 20
-2.211511811023622
 10
6.986385826771653
 20
-2.209271653543307
 10
6.991413385826772
 20
-2.207527559055118
 10
6.996669291338582
 20
-2.206279527559055
 10
7.002157480314961
 20
-2.205531496062992
 10
7.007874015748031
 20
-2.205283464566929
 10
7.013484251968504
 20
-2.20553937007874
 10
7.018905511811024
 20
-2.206311023622047
 10
7.024137795275591
 20
-2.207598425196851
 10
7.029185039370079
 20
-2.209397637795276
 10
7.03403937007874
 20
-2.211712598425197
 10
7.038712598425197
 20
-2.214543307086614
 10
7.0431968503937
 20
-2.217889763779528
 10
7.047492125984252
 20
-2.221751968503937
 10
7.051385826771654
 20
-2.22592125984252
 10
7.054763779527559
 20
-2.230299212598425
 10
7.057622047244094
 20
-2.234877952755906
 10
7.059964566929134
 20
-2.239665354330709
 10
7.061783464566929
 20
-2.244657480314961
 10
7.063086614173228
 20
-2.249858267716535
 10
7.063866141732284
 20
-2.255259842519685
 10
7.064125984251969
 20
-2.260870078740158
 10
7.063862204724409
 20
-2.266314960629921
 10
7.063074803149607
 20
-2.271578740157481
 10
7.061759842519685
 20
-2.276669291338583
 10
7.059917322834646
 20
-2.281582677165354
 10
7.057551181102363
 20
-2.286314960629921
 10
7.054661417322834
 20
-2.290874015748031
 10
7.051244094488189
 20
-2.295259842519685
 10
7.047303149606299
 20
-2.299468503937008
 10
7.043338582677166
 20
-2.302992125984252
 10
7.03903937007874
 20
-2.306141732283465
 10
7.034405511811023
 20
-2.30892125984252
 10
7.029437007874016
 20
-2.311314960629921
 10
7.024240157480315
 20
-2.313251968503937
 10
7.018881889763779
 20
-2.314637795275591
 10
7.01336220472441
 20
-2.315468503937008
 10
7.007685039370079
 20
-2.315748031496063
  0
LWPOLYLINE
  5
7A
330
1F
100
AcDbEntity
  8
Layer 1
 62
     7
370
     9
100
AcDbPolyline
 90
       65
 70
     1
 43
0.0
 10
6.927232283464567
 20
-2.261570866141732
 10
6.927618110236221
 20
-2.270094488188976
 10
6.928779527559055
 20
-2.278228346456693
 10
6.930708661417323
 20
-2.28598031496063
 10
6.933417322834646
 20
-2.293342519685039
 10
6.936893700787402
 20
-2.300318897637795
 10
6.941145669291338
 20
-2.306909448818898
 10
6.946173228346456
 20
-2.313114173228346
 10
6.951976377952755
 20
-2.318933070866142
 10
6.957913385826772
 20
-2.323830708661417
 10
6.964263779527559
 20
-2.328125984251968
 10
6.971027559055118
 20
-2.331818897637795
 10
6.978208661417323
 20
-2.334905511811024
 10
6.985799212598425
 20
-2.337389763779528
 10
6.993807086614173
 20
-2.339275590551181
 10
7.002224409448819
 20
-2.340555118110236
 10
7.01105905511811
 20
-2.341232283464567
 10
7.018137795275591
 20
-2.336622047244095
 10
6.94455905511811
 20
-2.425137795275591
 10
6.97709842519685
 20
-2.425137795275591
 10
7.071188976377953
 20
-2.311503937007874
 10
7.075417322834646
 20
-2.305968503937008
 10
7.07907874015748
 20
-2.300204724409449
 10
7.082177165354331
 20
-2.294212598425197
 10
7.084712598425197
 20
-2.287996062992126
 10
7.086681102362204
 20
-2.281555118110236
 10
7.088090551181103
 20
-2.274885826771654
 10
7.088937007874016
 20
-2.267992125984252
 10
7.089216535433071
 20
-2.260870078740158
 10
7.088846456692913
 20
-2.252665354330709
 10
7.087736220472441
 20
-2.244771653543307
 10
7.085885826771653
 20
-2.237196850393701
 10
7.083295275590551
 20
-2.229933070866142
 10
7.079964566929134
 20
-2.222988188976378
 10
7.075897637795276
 20
-2.216358267716535
 10
7.071086614173228
 20
-2.210043307086614
 10
7.065535433070866
 20
-2.204047244094488
 10
7.059417322834646
 20
-2.198527559055118
 10
7.052996062992126
 20
-2.193744094488189
 10
7.046283464566929
 20
-2.189696850393701
 10
7.039267716535433
 20
-2.186385826771653
 10
7.031952755905512
 20
-2.183807086614173
 10
7.02434251968504
 20
-2.181968503937008
 10
7.016433070866142
 20
-2.180862204724409
 10
7.008224409448819
 20
-2.180496062992126
 10
6.999901574803149
 20
-2.180862204724409
 10
6.991909448818897
 20
-2.18196062992126
 10
6.984251968503937
 20
-2.183787401574803
 10
6.976925196850393
 20
-2.186346456692913
 10
6.969929133858268
 20
-2.189633858267717
 10
6.963259842519685
 20
-2.193653543307087
 10
6.956921259842519
 20
-2.198397637795276
 10
6.950913385826771
 20
-2.203874015748032
 10
6.945724409448819
 20
-2.20957874015748
 10
6.941102362204725
 20
-2.215728346456693
 10
6.937055118110236
 20
-2.222322834645669
 10
6.933582677165354
 20
-2.229370078740157
 10
6.932090551181102
 20
-2.233043307086614
 10
6.930799212598425
 20
-2.236822834645669
 10
6.929708661417322
 20
-2.240696850393701
 10
6.928814960629921
 20
-2.244673228346457
 10
6.928122047244094
 20
-2.248748031496063
 10
6.927625984251969
 20
-2.252925196850394
 10
6.927330708661417
 20
-2.257196850393701
 10
6.927232283464567
 20
-2.261570866141732
  0
LWPOLYLINE
  5
7B
330
1F
100
AcDbEntity
  8
Layer 1
 62
     7
370
     9
100
AcDbPolyline
 90
      123
 70
     1
 43
0.0
 10
7.322688976377953
 20
-2.42444094488189
 10
7.34746062992126
 20
-2.42444094488189
 10
7.34746062992126
 20
-2.327086614173228
 10
7.347259842519685
 20
-2.320618110236221
 10
7.346653543307086
 20
-2.314452755905512
 10
7.345641732283465
 20
-2.308590551181102
 10
7.344228346456693
 20
-2.303035433070866
 10
7.342409448818898
 20
-2.297787401574803
 10
7.340188976377953
 20
-2.292842519685039
 10
7.337566929133859
 20
-2.288204724409449
 10
7.33453937007874
 20
-2.283870078740157
 10
7.33105905511811
 20
-2.279834645669292
 10
7.327161417322834
 20
-2.276220472440945
 10
7.32284251968504
 20
-2.273023622047244
 10
7.318094488188977
 20
-2.270248031496063
 10
7.31551968503937
 20
-2.269047244094488
 10
7.312748031496063
 20
-2.268003937007874
 10
7.309775590551181
 20
-2.267118110236221
 10
7.306602362204725
 20
-2.266393700787402
 10
7.299661417322834
 20
-2.265425196850394
 10
7.291925196850394
 20
-2.265102362204725
 10
7.287917322834645
 20
-2.265240157480315
 10
7.28403937007874
 20
-2.265657480314961
 10
7.280287401574803
 20
-2.266350393700788
 10
7.276665354330708
 20
-2.267322834645669
 10
7.273169291338583
 20
-2.268570866141732
 10
7.269803149606299
 20
-2.270094488188976
 10
7.26655905511811
 20
-2.271893700787401
 10
7.263444881889764
 20
-2.273968503937008
 10
7.258161417322834
 20
-2.278263779527559
 10
7.253362204724409
 20
-2.283165354330709
 10
7.249051181102362
 20
-2.28865748031496
 10
7.245228346456693
 20
-2.294744094488189
 10
7.238673228346457
 20
-2.283870078740157
 10
7.235196850393701
 20
-2.279834645669292
 10
7.231295275590552
 20
-2.276220472440945
 10
7.226972440944881
 20
-2.273023622047244
 10
7.222228346456693
 20
-2.270248031496063
 10
7.219653543307087
 20
-2.269047244094488
 10
7.21688188976378
 20
-2.268003937007874
 10
7.213913385826771
 20
-2.267118110236221
 10
7.210744094488189
 20
-2.266393700787402
 10
7.2038031496063
 20
-2.265425196850394
 10
7.19605905511811
 20
-2.265102362204725
 10
7.192051181102363
 20
-2.265240157480315
 10
7.188177165354331
 20
-2.265657480314961
 10
7.184429133858267
 20
-2.266350393700788
 10
7.180807086614173
 20
-2.267322834645669
 10
7.177314960629921
 20
-2.268570866141732
 10
7.173948818897638
 20
-2.270094488188976
 10
7.170708661417323
 20
-2.271893700787401
 10
7.167594488188977
 20
-2.273968503937008
 10
7.162543307086614
 20
-2.278043307086614
 10
7.157944881889764
 20
-2.282653543307087
 10
7.153791338582677
 20
-2.287807086614173
 10
7.150074803149606
 20
-2.293507874015748
 10
7.150074803149606
 20
-2.268661417322835
 10
7.125314960629921
 20
-2.268661417322835
 10
7.125314960629921
 20
-2.42444094488189
 10
7.150074803149606
 20
-2.42444094488189
 10
7.150074803149606
 20
-2.344720472440945
 10
7.150649606299212
 20
-2.340070866141732
 10
7.15140157480315
 20
-2.335602362204725
 10
7.152326771653543
 20
-2.331318897637795
 10
7.153433070866142
 20
-2.327212598425197
 10
7.154716535433071
 20
-2.323283464566929
 10
7.156173228346456
 20
-2.319531496062992
 10
7.157811023622047
 20
-2.315956692913386
 10
7.159625984251969
 20
-2.312551181102362
 10
7.162696850393701
 20
-2.307818897637795
 10
7.166255905511811
 20
-2.303527559055118
 10
7.170307086614173
 20
-2.299681102362205
 10
7.174846456692913
 20
-2.296283464566929
 10
7.177251968503937
 20
-2.294787401574803
 10
7.179704724409449
 20
-2.293488188976378
 10
7.182200787401575
 20
-2.292393700787402
 10
7.184744094488189
 20
-2.291496062992126
 10
7.187330708661418
 20
-2.290799212598425
 10
7.189964566929134
 20
-2.290299212598425
 10
7.192641732283464
 20
-2.29
 10
7.195362204724409
 20
-2.289901574803149
 10
7.200484251968504
 20
-2.290110236220472
 10
7.20490157480315
 20
-2.290736220472441
 10
7.208610236220473
 20
-2.291783464566929
 10
7.211614173228346
 20
-2.293259842519685
 10
7.215181102362204
 20
-2.29590157480315
 10
7.218275590551182
 20
-2.298996062992126
 10
7.220889763779527
 20
-2.302543307086614
 10
7.223031496062992
 20
-2.306543307086614
 10
7.224696850393701
 20
-2.310996062992126
 10
7.225885826771654
 20
-2.315905511811024
 10
7.226602362204725
 20
-2.321267716535433
 10
7.226838582677165
 20
-2.327086614173228
 10
7.226838582677165
 20
-2.42444094488189
 10
7.251582677165354
 20
-2.42444094488189
 10
7.251582677165354
 20
-2.327086614173228
 10
7.25142125984252
 20
-2.321114173228346
 10
7.255492125984252
 20
-2.312551181102362
 10
7.258562992125984
 20
-2.307818897637795
 10
7.262122047244095
 20
-2.303527559055118
 10
7.266165354330709
 20
-2.299681102362205
 10
7.270700787401575
 20
-2.296283464566929
 10
7.273106299212598
 20
-2.294787401574803
 10
7.275555118110236
 20
-2.293488188976378
 10
7.278055118110236
 20
-2.292393700787402
 10
7.280598425196851
 20
-2.291496062992126
 10
7.283188976377953
 20
-2.290799212598425
 10
7.285822834645669
 20
-2.290299212598425
 10
7.288503937007874
 20
-2.29
 10
7.291228346456693
 20
-2.289901574803149
 10
7.296350393700787
 20
-2.290110236220472
 10
7.300767716535433
 20
-2.290736220472441
 10
7.304476377952756
 20
-2.291783464566929
 10
7.30748031496063
 20
-2.293259842519685
 10
7.311043307086615
 20
-2.29590157480315
 10
7.314133858267716
 20
-2.298996062992126
 10
7.316744094488189
 20
-2.302543307086614
 10
7.318885826771654
 20
-2.306543307086614
 10
7.320547244094488
 20
-2.310996062992126
 10
7.321736220472441
 20
-2.315905511811024
 10
7.322452755905512
 20
-2.321267716535433
 10
7.322688976377953
 20
-2.327086614173228
 10
7.322688976377953
 20
-2.42444094488189
  0
LWPOLYLINE
  5
7C
330
1F
100
AcDbEntity
  8
Layer 1
 62
     7
370
     9
100
AcDbPolyline
 90
      123
 70
     1
 43
0.0
 10
7.592594488188976
 20
-2.42444094488189
 10
7.617366141732283
 20
-2.42444094488189
 10
7.617366141732283
 20
-2.327086614173228
 10
7.617165354330709
 20
-2.320618110236221
 10
7.616555118110236
 20
-2.314452755905512
 10
7.615547244094488
 20
-2.308590551181102
 10
7.614129921259843
 20
-2.303035433070866
 10
7.612311023622047
 20
-2.297787401574803
 10
7.610090551181102
 20
-2.292842519685039
 10
7.607468503937008
 20
-2.288204724409449
 10
7.604440944881889
 20
-2.283870078740157
 10
7.60096062992126
 20
-2.279834645669292
 10
7.597062992125984
 20
-2.276220472440945
 10
7.592740157480315
 20
-2.273023622047244
 10
7.587984251968504
 20
-2.270248031496063
 10
7.585409448818898
 20
-2.269047244094488
 10
7.58263779527559
 20
-2.268003937007874
 10
7.579669291338583
 20
-2.267118110236221
 10
7.5765
 20
-2.266393700787402
 10
7.56955905511811
 20
-2.265425196850394
 10
7.561814960629921
 20
-2.265102362204725
 10
7.557811023622047
 20
-2.265240157480315
 10
7.553937007874016
 20
-2.265657480314961
 10
7.550188976377953
 20
-2.266350393700788
 10
7.546566929133858
 20
-2.267322834645669
 10
7.543074803149606
 20
-2.268570866141732
 10
7.539708661417323
 20
-2.270094488188976
 10
7.536464566929133
 20
-2.271893700787401
 10
7.533350393700787
 20
-2.273968503937008
 10
7.52805905511811
 20
-2.278263779527559
 10
7.523259842519685
 20
-2.283165354330709
 10
7.518952755905512
 20
-2.28865748031496
 10
7.515133858267717
 20
-2.294744094488189
 10
7.508574803149607
 20
-2.283870078740157
 10
7.505094488188976
 20
-2.279834645669292
 10
7.501192913385827
 20
-2.276220472440945
 10
7.496874015748031
 20
-2.273023622047244
 10
7.492133858267716
 20
-2.270248031496063
 10
7.48955905511811
 20
-2.269047244094488
 10
7.486783464566929
 20
-2.268003937007874
 10
7.483811023622048
 20
-2.267118110236221
 10
7.480641732283464
 20
-2.266393700787402
 10
7.473700787401575
 20
-2.265425196850394
 10
7.465964566929133
 20
-2.265102362204725
 10
7.461956692913386
 20
-2.265240157480315
 10
7.458078740157481
 20
-2.265657480314961
 10
7.454326771653544
 20
-2.266350393700788
 10
7.450704724409449
 20
-2.267322834645669
 10
7.447208661417323
 20
-2.268570866141732
 10
7.443842519685039
 20
-2.270094488188976
 10
7.440598425196851
 20
-2.271893700787401
 10
7.437484251968504
 20
-2.273968503937008
 10
7.43244094488189
 20
-2.278043307086614
 10
7.427846456692913
 20
-2.282653543307087
 10
7.423696850393701
 20
-2.287807086614173
 10
7.41998031496063
 20
-2.293507874015748
 10
7.41998031496063
 20
-2.268661417322835
 10
7.395220472440945
 20
-2.268661417322835
 10
7.395220472440945
 20
-2.42444094488189
 10
7.41998031496063
 20
-2.42444094488189
 10
7.41998031496063
 20
-2.344720472440945
 10
7.420555118110236
 20
-2.340070866141732
 10
7.421303149606299
 20
-2.335602362204725
 10
7.422232283464567
 20
-2.331318897637795
 10
7.423338582677165
 20
-2.327212598425197
 10
7.424618110236221
 20
-2.323283464566929
 10
7.426078740157481
 20
-2.319531496062992
 10
7.427716535433071
 20
-2.315956692913386
 10
7.429531496062992
 20
-2.312551181102362
 10
7.432598425196851
 20
-2.307818897637795
 10
7.436157480314961
 20
-2.303527559055118
 10
7.440204724409448
 20
-2.299681102362205
 10
7.444740157480315
 20
-2.296283464566929
 10
7.447145669291339
 20
-2.294787401574803
 10
7.449594488188977
 20
-2.293488188976378
 10
7.452094488188976
 20
-2.292393700787402
 10
7.45463779527559
 20
-2.291496062992126
 10
7.457228346456693
 20
-2.290799212598425
 10
7.459862204724409
 20
-2.290299212598425
 10
7.462543307086614
 20
-2.29
 10
7.465267716535433
 20
-2.289901574803149
 10
7.470389763779528
 20
-2.290110236220472
 10
7.474807086614173
 20
-2.290736220472441
 10
7.478515748031496
 20
-2.291783464566929
 10
7.48151968503937
 20
-2.293259842519685
 10
7.485082677165354
 20
-2.29590157480315
 10
7.488173228346457
 20
-2.298996062992126
 10
7.490787401574803
 20
-2.302543307086614
 10
7.492929133858268
 20
-2.306543307086614
 10
7.494594488188977
 20
-2.310996062992126
 10
7.495787401574803
 20
-2.315905511811024
 10
7.4965
 20
-2.321267716535433
 10
7.496740157480315
 20
-2.327086614173228
 10
7.496740157480315
 20
-2.42444094488189
 10
7.521488188976378
 20
-2.42444094488189
 10
7.521488188976378
 20
-2.327086614173228
 10
7.521326771653543
 20
-2.321114173228346
 10
7.525397637795275
 20
-2.312551181102362
 10
7.52846062992126
 20
-2.307818897637795
 10
7.53201968503937
 20
-2.303527559055118
 10
7.536066929133859
 20
-2.299681102362205
 10
7.540602362204725
 20
-2.296283464566929
 10
7.543007874015748
 20
-2.294787401574803
 10
7.545460629921259
 20
-2.293488188976378
 10
7.547956692913385
 20
-2.292393700787402
 10
7.5505
 20
-2.291496062992126
 10
7.553086614173228
 20
-2.290799212598425
 10
7.555720472440945
 20
-2.290299212598425
 10
7.558397637795276
 20
-2.29
 10
7.561118110236221
 20
-2.289901574803149
 10
7.566244094488189
 20
-2.290110236220472
 10
7.570665354330709
 20
-2.290736220472441
 10
7.57438188976378
 20
-2.291783464566929
 10
7.577385826771653
 20
-2.293259842519685
 10
7.580948818897638
 20
-2.29590157480315
 10
7.58403937007874
 20
-2.298996062992126
 10
7.586649606299213
 20
-2.302543307086614
 10
7.588791338582677
 20
-2.306543307086614
 10
7.590452755905511
 20
-2.310996062992126
 10
7.591641732283464
 20
-2.315905511811024
 10
7.592358267716535
 20
-2.321267716535433
 10
7.592594488188976
 20
-2.327086614173228
 10
7.592594488188976
 20
-2.42444094488189
  0
ENDSEC
  0
SECTION
  2
OBJECTS
  0
DICTIONARY
  5
C
330
0
100
AcDbDictionary
281
     1
  3
ACAD_DETAILVIEWSTYLE
350
84
  3
ACAD_GROUP
350
D
  3
ACAD_LAYOUT
350
1A
  3
ACAD_MATERIAL
350
43
  3
ACAD_MLEADERSTYLE
350
5B
  3
ACAD_MLINESTYLE
350
17
  3
ACAD_PLOTSETTINGS
350
19
  3
ACAD_PLOTSTYLENAME
350
E
  3
ACAD_SCALELIST
350
47
  3
ACAD_SECTIONVIEWSTYLE
350
85
  3
ACAD_TABLESTYLE
350
59
  3
ACAD_VISUALSTYLE
350
2A
  3
ACDB_RECOMPOSE_DATA
350
81
  3
AcDbVariableDictionary
350
7D
  0
SUN
  5
5D
330
29
100
AcDbSun
 90
        1
290
     0
 63
     7
421
 16777215
 40
1.0
291
     1
 91
  2455826
 92
 54000000
292
     0
 70
     2
 71
   256
280
     1
  0
DICTIONARY
  5
84
102
{ACAD_REACTORS
330
C
102
}
330
C
100
AcDbDictionary
281
     1
  0
DICTIONARY
  5
D
102
{ACAD_REACTORS
330
C
102
}
330
C
100
AcDbDictionary
281
     1
  0
DICTIONARY
  5
1A
102
{ACAD_REACTORS
330
C
102
}
330
C
100
AcDbDictionary
281
     1
  3
Layout1
350
1E
  3
Layout2
350
26
  3
Model
350
22
  0
DICTIONARY
  5
43
102
{ACAD_REACTORS
330
C
102
}
330
C
100
AcDbDictionary
281
     1
  3
ByBlock
350
45
  3
ByLayer
350
44
  3
Global
350
46
  0
DICTIONARY
  5
5B
102
{ACAD_REACTORS
330
C
102
}
330
C
100
AcDbDictionary
281
     1
  3
Standard
350
5C
  0
DICTIONARY
  5
17
102
{ACAD_REACTORS
330
C
102
}
330
C
100
AcDbDictionary
281
     1
  3
Standard
350
18
  0
DICTIONARY
  5
19
102
{ACAD_REACTORS
330
C
102
}
330
C
100
AcDbDictionary
281
     1
  0
ACDBDICTIONARYWDFLT
  5
E
102
{ACAD_REACTORS
330
C
102
}
330
C
100
AcDbDictionary
281
     1
  3
Normal
350
F
100
AcDbDictionaryWithDefault
340
F
  0
DICTIONARY
  5
47
102
{ACAD_REACTORS
330
C
102
}
330
C
100
AcDbDictionary
281
     1
  3
A0
350
48
  3
A1
350
49
  3
A2
350
4A
  3
A3
350
4B
  3
A4
350
4C
  3
A5
350
4D
  3
A6
350
4E
  3
A7
350
4F
  3
A8
350
50
  3
A9
350
51
  3
B1
350
52
  3
B2
350
53
  3
B3
350
54
  3
B4
350
55
  3
B5
350
56
  3
B6
350
57
  3
B7
350
58
  0
DICTIONARY
  5
85
102
{ACAD_REACTORS
330
C
102
}
330
C
100
AcDbDictionary
281
     1
  0
DICTIONARY
  5
59
102
{ACAD_REACTORS
330
C
102
}
330
C
100
AcDbDictionary
281
     1
  3
Standard
350
5A
  0
DICTIONARY
  5
2A
102
{ACAD_REACTORS
330
C
102
}
330
C
100
AcDbDictionary
281
     1
  3
2dWireframe
350
2F
  3
Basic
350
32
  3
Brighten
350
36
  3
ColorChange
350
3A
  3
Conceptual
350
34
  3
Dim
350
35
  3
EdgeColorOff
350
3D
  3
Facepattern
350
39
  3
Flat
350
2B
  3
FlatWithEdges
350
2C
  3
Gouraud
350
2D
  3
GouraudWithEdges
350
2E
  3
Hidden
350
31
  3
JitterOff
350
3B
  3
Linepattern
350
38
  3
OverhangOff
350
3C
  3
Realistic
350
33
  3
Shaded
350
42
  3
Shaded with edges
350
41
  3
Shades of Gray
350
3E
  3
Sketchy
350
3F
  3
Thicken
350
37
  3
Wireframe
350
30
  3
X-Ray
350
40
  0
XRECORD
  5
81
102
{ACAD_REACTORS
330
C
102
}
330
C
100
AcDbXrecord
280
     1
 90
        1
330
5A
  0
DICTIONARY
  5
7D
102
{ACAD_REACTORS
330
C
102
}
330
C
100
AcDbDictionary
281
     1
  3
CANNOSCALE
350
7E
  3
CMLEADERSTYLE
350
83
  3
CTABLESTYLE
350
82
  0
LAYOUT
  5
1E
102
{ACAD_REACTORS
330
1A
102
}
330
1A
100
AcDbPlotSettings
  1

  2
none_device
  4

  6

 40
0.0
 41
0.0
 42
0.0
 43
0.0
 44
0.0
 45
0.0
 46
0.0
 47
0.0
 48
0.0
 49
0.0
140
0.0
141
0.0
142
1.0
143
1.0
 70
   688
 72
     0
 73
     0
 74
     5
  7

 75
    16
 76
     0
 77
     2
 78
   300
147
1.0
148
0.0
149
0.0
100
AcDbLayout
  1
Layout1
 70
     1
 71
     1
 10
0.0
 20
0.0
 11
12.0
 21
9.0
 12
0.0
 22
0.0
 32
0.0
 14
1.000000000000000E+20
 24
1.000000000000000E+20
 34
1.000000000000000E+20
 15
-1.000000000000000E+20
 25
-1.000000000000000E+20
 35
-1.000000000000000E+20
146
0.0
 13
0.0
 23
0.0
 33
0.0
 16
1.0
 26
0.0
 36
0.0
 17
0.0
 27
1.0
 37
0.0
 76
     0
330
1B
  0
LAYOUT
  5
26
102
{ACAD_REACTORS
330
1A
102
}
330
1A
100
AcDbPlotSettings
  1

  2
none_device
  4

  6

 40
0.0
 41
0.0
 42
0.0
 43
0.0
 44
0.0
 45
0.0
 46
0.0
 47
0.0
 48
0.0
 49
0.0
140
0.0
141
0.0
142
1.0
143
1.0
 70
   688
 72
     0
 73
     0
 74
     5
  7

 75
    16
 76
     0
 77
     2
 78
   300
147
1.0
148
0.0
149
0.0
100
AcDbLayout
  1
Layout2
 70
     1
 71
     2
 10
0.0
 20
0.0
 11
0.0
 21
0.0
 12
0.0
 22
0.0
 32
0.0
 14
0.0
 24
0.0
 34
0.0
 15
0.0
 25
0.0
 35
0.0
146
0.0
 13
0.0
 23
0.0
 33
0.0
 16
1.0
 26
0.0
 36
0.0
 17
0.0
 27
1.0
 37
0.0
 76
     0
330
23
  0
LAYOUT
  5
22
102
{ACAD_REACTORS
330
1A
102
}
330
1A
100
AcDbPlotSettings
  1

  2
none_device
  4
Letter_(8.50_x_11.00_Inches)
  6

 40
6.35
 41
6.35
 42
6.35000508
 43
6.35000508
 44
215.9
 45
279.4
 46
0.0
 47
0.0
 48
0.0
 49
0.0
140
0.0
141
0.0
142
1.0
143
1.0
 70
  1712
 72
     0
 73
     0
 74
     0
  7

 75
     0
 76
     0
 77
     2
 78
   300
147
1.0
148
0.0
149
0.0
100
AcDbLayout
  1
Model
 70
     1
 71
     0
 10
0.0
 20
0.0
 11
12.0
 21
9.0
 12
0.0
 22
0.0
 32
0.0
 14
5.134374015748032
 24
-2.683169291338583
 34
0.0
 15
10.0506968503937
 25
1.981637795275591
 35
0.0
146
0.0
 13
0.0
 23
0.0
 33
0.0
 16
1.0
 26
0.0
 36
0.0
 17
0.0
 27
1.0
 37
0.0
 76
     0
330
1F
331
29
  0
MATERIAL
  5
45
102
{ACAD_REACTORS
330
43
102
}
330
43
100
AcDbMaterial
  1
ByBlock
 72
     1
 94
      127
  0
MATERIAL
  5
44
102
{ACAD_REACTORS
330
43
102
}
330
43
100
AcDbMaterial
  1
ByLayer
 72
     1
 94
      127
  0
MATERIAL
  5
46
102
{ACAD_REACTORS
330
43
102
}
330
43
100
AcDbMaterial
  1
Global
 72
     1
 94
      127
  0
MLEADERSTYLE
  5
5C
102
{ACAD_REACTORS
330
5B
102
}
330
5B
100
AcDbMLeaderStyle
179
     2
170
     2
171
     1
172
     0
 90
        2
 40
0.0
 41
0.0
173
     1
 91
-1056964608
340
14
 92
       -2
290
     1
 42
0.09
291
     1
 43
0.36
  3
Standard
341
0
 44
0.18
300

342
11
174
     1
178
     6
175
     1
176
     0
 93
-1056964608
 45
0.18
292
     0
297
     0
 46
0.18
343
0
 94
-1056964608
 47
1.0
 49
1.0
140
1.0
293
     1
141
0.0
294
     1
177
     0
142
1.0
295
     0
296
     0
143
0.125
271
     0
272
     9
273
     9
298
     0
  0
MLINESTYLE
  5
18
102
{ACAD_REACTORS
330
17
102
}
330
17
100
AcDbMlineStyle
  2
Standard
 70
     0
  3

 62
   256
 51
90.0
 52
90.0
 71
     2
 49
0.5
 62
   256
  6
BYLAYER
 49
-0.5
 62
   256
  6
BYLAYER
  0
ACDBPLACEHOLDER
  5
F
102
{ACAD_REACTORS
330
E
102
}
330
E
  0
SCALE
  5
48
102
{ACAD_REACTORS
330
47
102
}
330
47
100
AcDbScale
 70
     0
300
1:1
140
1.0
141
1.0
290
     1
  0
SCALE
  5
49
102
{ACAD_REACTORS
330
47
102
}
330
47
100
AcDbScale
 70
     0
300
1/128" = 1'-0"
140
0.0078125
141
12.0
290
     0
  0
SCALE
  5
4A
102
{ACAD_REACTORS
330
47
102
}
330
47
100
AcDbScale
 70
     0
300
1/64" = 1'-0"
140
0.015625
141
12.0
290
     0
  0
SCALE
  5
4B
102
{ACAD_REACTORS
330
47
102
}
330
47
100
AcDbScale
 70
     0
300
1/32" = 1'-0"
140
0.03125
141
12.0
290
     0
  0
SCALE
  5
4C
102
{ACAD_REACTORS
330
47
102
}
330
47
100
AcDbScale
 70
     0
300
1/16" = 1'-0"
140
0.0625
141
12.0
290
     0
  0
SCALE
  5
4D
102
{ACAD_REACTORS
330
47
102
}
330
47
100
AcDbScale
 70
     0
300
3/32" = 1'-0"
140
0.09375
141
12.0
290
     0
  0
SCALE
  5
4E
102
{ACAD_REACTORS
330
47
102
}
330
47
100
AcDbScale
 70
     0
300
1/8" = 1'-0"
140
0.125
141
12.0
290
     0
  0
SCALE
  5
4F
102
{ACAD_REACTORS
330
47
102
}
330
47
100
AcDbScale
 70
     0
300
3/16" = 1'-0"
140
0.1875
141
12.0
290
     0
  0
SCALE
  5
50
102
{ACAD_REACTORS
330
47
102
}
330
47
100
AcDbScale
 70
     0
300
1/4" = 1'-0"
140
0.25
141
12.0
290
     0
  0
SCALE
  5
51
102
{ACAD_REACTORS
330
47
102
}
330
47
100
AcDbScale
 70
     0
300
3/8" = 1'-0"
140
0.375
141
12.0
290
     0
  0
SCALE
  5
52
102
{ACAD_REACTORS
330
47
102
}
330
47
100
AcDbScale
 70
     0
300
1/2" = 1'-0"
140
0.5
141
12.0
290
     0
  0
SCALE
  5
53
102
{ACAD_REACTORS
330
47
102
}
330
47
100
AcDbScale
 70
     0
300
3/4" = 1'-0"
140
0.75
141
12.0
290
     0
  0
SCALE
  5
54
102
{ACAD_REACTORS
330
47
102
}
330
47
100
AcDbScale
 70
     0
300
1" = 1'-0"
140
1.0
141
12.0
290
     0
  0
SCALE
  5
55
102
{ACAD_REACTORS
330
47
102
}
330
47
100
AcDbScale
 70
     0
300
1-1/2" = 1'-0"
140
1.5
141
12.0
290
     0
  0
SCALE
  5
56
102
{ACAD_REACTORS
330
47
102
}
330
47
100
AcDbScale
 70
     0
300
3" = 1'-0"
140
3.0
141
12.0
290
     0
  0
SCALE
  5
57
102
{ACAD_REACTORS
330
47
102
}
330
47
100
AcDbScale
 70
     0
300
6" = 1'-0"
140
6.0
141
12.0
290
     0
  0
SCALE
  5
58
102
{ACAD_REACTORS
330
47
102
}
330
47
100
AcDbScale
 70
     0
300
1'-0" = 1'-0"
140
12.0
141
12.0
290
     0
  0
TABLESTYLE
  5
5A
102
{ACAD_REACTORS
330
59
102
}
102
{ACAD_XDICTIONARY
360
7F
102
}
330
59
100
AcDbTableStyle
  3
Standard
 70
     0
 71
     0
 40
0.06
 41
0.06
280
     0
281
     0
  7
Standard
140
0.18
170
     2
 62
     0
 63
   257
283
     0
 90
        4
 91
        0
  1

274
    -2
284
     1
 64
     0
275
    -2
285
     1
 65
     0
276
    -2
286
     1
 66
     0
277
    -2
287
     1
 67
     0
278
    -2
288
     1
 68
     0
279
    -2
289
     1
 69
     0
  7
Standard
140
0.25
170
     5
 62
     0
 63
   257
283
     0
 90
        4
 91
        0
  1

274
    -2
284
     1
 64
     0
275
    -2
285
     1
 65
     0
276
    -2
286
     1
 66
     0
277
    -2
287
     1
 67
     0
278
    -2
288
     1
 68
     0
279
    -2
289
     1
 69
     0
  7
Standard
140
0.18
170
     5
 62
     0
 63
   257
283
     0
 90
        4
 91
        0
  1

274
    -2
284
     1
 64
     0
275
    -2
285
     1
 65
     0
276
    -2
286
     1
 66
     0
277
    -2
287
     1
 67
     0
278
    -2
288
     1
 68
     0
279
    -2
289
     1
 69
     0
  0
VISUALSTYLE
  5
2F
102
{ACAD_REACTORS
330
2A
102
}
330
2A
100
AcDbVisualStyle
  2
2dWireframe
 70
     4
177
     3
291
     0
 70
    58
 90
        0
176
     1
 90
        2
176
     1
 90
        0
176
     1
 90
        0
176
     1
 40
0.6
176
     1
 40
30.0
176
     1
 62
     7
420
 16777215
176
     1
 90
        1
176
     1
 90
        4
176
     1
 62
     7
176
     1
 62
   257
176
     1
 90
        1
176
     1
 90
        1
176
     1
 40
1.0
176
     1
 90
        0
176
     1
 62
   257
176
     1
 40
1.0
176
     1
 90
        1
176
     1
 90
        6
176
     1
 90
        2
176
     1
 62
     7
176
     1
 90
        5
176
     1
 90
        0
176
     1
 90
        0
176
     1
290
     0
176
     1
 90
        1
176
     1
 40
0.0
176
     1
 90
        0
176
     1
290
     1
176
     1
290
     1
176
     1
290
     0
176
     1
290
     0
176
     1
290
     0
176
     1
290
     0
176
     1
290
     0
176
     1
290
     0
176
     1
290
     0
176
     1
 90
       50
176
     1
 40
0.0
176
     1
 40
1.0
176
     1
 90
        0
176
     1
 62
    18
420
        0
176
     1
 90
       50
176
     1
 90
        3
176
     1
 62
     5
420
      255
176
     1
290
     0
176
     1
 90
       50
176
     1
 90
       50
176
     1
 90
       50
176
     1
290
     0
176
     1
 90
       50
176
     1
 62
   256
176
     0
 40
1.0
176
     0
 90
        2
176
     1
  1
strokes_ogs.tif
176
     1
290
     0
176
     1
 40
1.0
176
     1
 40
1.0
176
     1
  0
VISUALSTYLE
  5
32
102
{ACAD_REACTORS
330
2A
102
}
330
2A
100
AcDbVisualStyle
  2
Basic
 70
     7
177
     3
291
     1
 70
    58
 90
        1
176
     1
 90
        0
176
     1
 90
        1
176
     1
 90
        0
176
     1
 40
0.6
176
     1
 40
30.0
176
     1
 62
     7
420
 16777215
176
     1
 90
        0
176
     1
 90
        4
176
     1
 62
     7
176
     1
 62
   257
176
     1
 90
        1
176
     1
 90
        1
176
     1
 40
1.0
176
     1
 90
        8
176
     1
 62
     7
176
     1
 40
1.0
176
     1
 90
        1
176
     1
 90
        6
176
     1
 90
        2
176
     1
 62
     7
176
     1
 90
        5
176
     1
 90
        0
176
     1
 90
        0
176
     1
290
     0
176
     1
 90
        1
176
     1
 40
0.0
176
     1
 90
        0
176
     1
290
     0
176
     1
290
     1
176
     1
290
     1
176
     1
290
     0
176
     1
290
     0
176
     1
290
     0
176
     1
290
     0
176
     1
290
     0
176
     1
290
     0
176
     1
 90
       50
176
     1
 40
0.0
176
     1
 40
1.0
176
     1
 90
        0
176
     1
 62
    18
420
        0
176
     1
 90
       50
176
     1
 90
        3
176
     1
 62
     5
420
      255
176
     1
290
     0
176
     1
 90
       50
176
     1
 90
       50
176
     1
 90
       50
176
     1
290
     0
176
     1
 90
       50
176
     1
 62
   256
176
     0
 40
1.0
176
     0
 90
        2
176
     1
  1
strokes_ogs.tif
176
     1
290
     0
176
     1
 40
1.0
176
     1
 40
1.0
176
     1
  0
VISUALSTYLE
  5
36
102
{ACAD_REACTORS
330
2A
102
}
330
2A
100
AcDbVisualStyle
  2
Brighten
 70
    12
177
     3
291
     1
 70
    58
 90
        2
176
     1
 90
        2
176
     1
 90
        0
176
     1
 90
        0
176
     1
 40
0.6
176
     1
 40
30.0
176
     1
 62
     7
420
 16777215
176
     1
 90
        1
176
     1
 90
        4
176
     1
 62
     7
176
     1
 62
   257
176
     1
 90
        1
176
     1
 90
        1
176
     1
 40
1.0
176
     1
 90
        8
176
     1
 62
     7
176
     1
 40
1.0
176
     1
 90
        1
176
     1
 90
        6
176
     1
 90
        2
176
     1
 62
     7
176
     1
 90
        5
176
     1
 90
        0
176
     1
 90
        0
176
     1
290
     0
176
     1
 90
        1
176
     1
 40
50.0
176
     1
 90
        0
176
     1
290
     0
176
     1
290
     1
176
     1
290
     1
176
     1
290
     0
176
     1
290
     0
176
     1
290
     0
176
     1
290
     0
176
     1
290
     0
176
     1
290
     0
176
     1
 90
       50
176
     1
 40
0.0
176
     1
 40
1.0
176
     1
 90
        0
176
     1
 62
    18
420
        0
176
     1
 90
       50
176
     1
 90
        3
176
     1
 62
     5
420
      255
176
     1
290
     0
176
     1
 90
       50
176
     1
 90
       50
176
     1
 90
       50
176
     1
290
     0
176
     1
 90
       50
176
     1
 62
   256
176
     0
 40
1.0
176
     0
 90
        2
176
     1
  1
strokes_ogs.tif
176
     1
290
     0
176
     1
 40
1.0
176
     1
 40
1.0
176
     1
  0
VISUALSTYLE
  5
3A
102
{ACAD_REACTORS
330
2A
102
}
330
2A
100
AcDbVisualStyle
  2
ColorChange
 70
    16
177
     3
291
     1
 70
    58
 90
        2
176
     1
 90
        2
176
     1
 90
        3
176
     1
 90
        0
176
     1
 40
0.6
176
     1
 40
30.0
176
     1
 62
     8
420
  8421504
176
     1
 90
        1
176
     1
 90
        4
176
     1
 62
     7
176
     1
 62
   257
176
     1
 90
        1
176
     1
 90
        1
176
     1
 40
1.0
176
     1
 90
        8
176
     1
 62
     8
420
  8421504
176
     1
 40
1.0
176
     1
 90
        1
176
     1
 90
        6
176
     1
 90
        2
176
     1
 62
     7
176
     1
 90
        5
176
     1
 90
        0
176
     1
 90
        0
176
     1
290
     0
176
     1
 90
        1
176
     1
 40
0.0
176
     1
 90
        0
176
     1
290
     0
176
     1
290
     1
176
     1
290
     1
176
     1
290
     0
176
     1
290
     0
176
     1
290
     0
176
     1
290
     0
176
     1
290
     0
176
     1
290
     0
176
     1
 90
       50
176
     1
 40
0.0
176
     1
 40
1.0
176
     1
 90
        0
176
     1
 62
    18
420
        0
176
     1
 90
       50
176
     1
 90
        3
176
     1
 62
     5
420
      255
176
     1
290
     0
176
     1
 90
       50
176
     1
 90
       50
176
     1
 90
       50
176
     1
290
     0
176
     1
 90
       50
176
     1
 62
   256
176
     0
 40
1.0
176
     0
 90
        2
176
     1
  1
strokes_ogs.tif
176
     1
290
     0
176
     1
 40
1.0
176
     1
 40
1.0
176
     1
  0
VISUALSTYLE
  5
34
102
{ACAD_REACTORS
330
2A
102
}
330
2A
100
AcDbVisualStyle
  2
Conceptual
 70
     9
177
     3
291
     0
 70
    58
 90
        3
176
     1
 90
        2
176
     1
 90
        0
176
     1
 90
        0
176
     1
 40
0.6
176
     1
 40
30.0
176
     1
 62
     7
420
 16777215
176
     1
 90
        2
176
     1
 90
        2
176
     1
 62
     7
176
     1
 62
   257
176
     1
 90
        1
176
     1
 90
        1
176
     1
 40
179.0
176
     1
 90
        8
176
     1
 62
     7
176
     1
 40
1.0
176
     1
 90
        1
176
     1
 90
        6
176
     1
 90
        2
176
     1
 62
     7
176
     1
 90
        3
176
     1
 90
        0
176
     1
 90
        0
176
     1
290
     0
176
     1
 90
        1
176
     1
 40
0.0
176
     1
 90
        0
176
     1
290
     0
176
     1
290
     1
176
     1
290
     1
176
     1
290
     0
176
     1
290
     0
176
     1
290
     0
176
     1
290
     0
176
     1
290
     0
176
     1
290
     0
176
     1
 90
       50
176
     1
 40
0.0
176
     1
 40
1.0
176
     1
 90
        0
176
     1
 62
    18
420
        0
176
     1
 90
       50
176
     1
 90
        3
176
     1
 62
     5
420
      255
176
     1
290
     0
176
     1
 90
       50
176
     1
 90
       50
176
     1
 90
       50
176
     1
290
     0
176
     1
 90
       50
176
     1
 62
   256
176
     0
 40
1.0
176
     0
 90
        2
176
     1
  1
strokes_ogs.tif
176
     1
290
     0
176
     1
 40
1.0
176
     1
 40
1.0
176
     1
  0
VISUALSTYLE
  5
35
102
{ACAD_REACTORS
330
2A
102
}
330
2A
100
AcDbVisualStyle
  2
Dim
 70
    11
177
     3
291
     1
 70
    58
 90
        2
176
     1
 90
        2
176
     1
 90
        0
176
     1
 90
        0
176
     1
 40
0.6
176
     1
 40
30.0
176
     1
 62
     7
420
 16777215
176
     1
 90
        1
176
     1
 90
        4
176
     1
 62
     7
176
     1
 62
   257
176
     1
 90
        1
176
     1
 90
        1
176
     1
 40
1.0
176
     1
 90
        8
176
     1
 62
     7
176
     1
 40
1.0
176
     1
 90
        1
176
     1
 90
        6
176
     1
 90
        2
176
     1
 62
     7
176
     1
 90
        5
176
     1
 90
        0
176
     1
 90
        0
176
     1
290
     0
176
     1
 90
        1
176
     1
 40
-50.0
176
     1
 90
        0
176
     1
290
     0
176
     1
290
     1
176
     1
290
     1
176
     1
290
     0
176
     1
290
     0
176
     1
290
     0
176
     1
290
     0
176
     1
290
     0
176
     1
290
     0
176
     1
 90
       50
176
     1
 40
0.0
176
     1
 40
1.0
176
     1
 90
        0
176
     1
 62
    18
420
        0
176
     1
 90
       50
176
     1
 90
        3
176
     1
 62
     5
420
      255
176
     1
290
     0
176
     1
 90
       50
176
     1
 90
       50
176
     1
 90
       50
176
     1
290
     0
176
     1
 90
       50
176
     1
 62
   256
176
     0
 40
1.0
176
     0
 90
        2
176
     1
  1
strokes_ogs.tif
176
     1
290
     0
176
     1
 40
1.0
176
     1
 40
1.0
176
     1
  0
VISUALSTYLE
  5
3D
102
{ACAD_REACTORS
330
2A
102
}
330
2A
100
AcDbVisualStyle
  2
EdgeColorOff
 70
    22
177
     3
291
     1
 70
    58
 90
        2
176
     0
 90
        2
176
     0
 90
        0
176
     0
 90
        0
176
     0
 40
0.6
176
     0
 40
30.0
176
     0
 62
     7
420
 16777215
176
     0
 90
        1
176
     0
 90
        4
176
     0
 62
     7
176
     0
 62
   257
176
     0
 90
        1
176
     0
 90
        1
176
     0
 40
1.0
176
     0
 90
        8
176
     2
 62
     7
176
     0
 40
1.0
176
     0
 90
        1
176
     0
 90
        6
176
     0
 90
        2
176
     0
 62
     7
176
     0
 90
        5
176
     0
 90
        0
176
     0
 90
        0
176
     0
290
     0
176
     0
 90
        1
176
     0
 40
0.0
176
     0
 90
        0
176
     0
290
     0
176
     0
290
     1
176
     0
290
     1
176
     0
290
     0
176
     0
290
     0
176
     0
290
     0
176
     0
290
     0
176
     0
290
     0
176
     0
290
     0
176
     0
 90
       50
176
     0
 40
0.0
176
     0
 40
1.0
176
     0
 90
        0
176
     0
 62
    18
420
        0
176
     0
 90
       50
176
     0
 90
        3
176
     0
 62
     5
420
      255
176
     0
290
     0
176
     0
 90
       50
176
     0
 90
       50
176
     0
 90
       50
176
     0
290
     0
176
     0
 90
       50
176
     0
 62
   256
176
     0
 40
1.0
176
     0
 90
        2
176
     0
  1
strokes_ogs.tif
176
     0
290
     0
176
     0
 40
1.0
176
     0
 40
1.0
176
     0
  0
VISUALSTYLE
  5
39
102
{ACAD_REACTORS
330
2A
102
}
330
2A
100
AcDbVisualStyle
  2
Facepattern
 70
    15
177
     3
291
     1
 70
    58
 90
        2
176
     1
 90
        2
176
     1
 90
        0
176
     1
 90
        0
176
     1
 40
0.6
176
     1
 40
30.0
176
     1
 62
     7
420
 16777215
176
     1
 90
        1
176
     1
 90
        4
176
     1
 62
     7
176
     1
 62
   257
176
     1
 90
        1
176
     1
 90
        1
176
     1
 40
1.0
176
     1
 90
        8
176
     1
 62
     7
176
     1
 40
1.0
176
     1
 90
        1
176
     1
 90
        6
176
     1
 90
        2
176
     1
 62
     7
176
     1
 90
        5
176
     1
 90
        0
176
     1
 90
        0
176
     1
290
     0
176
     1
 90
        1
176
     1
 40
0.0
176
     1
 90
        0
176
     1
290
     0
176
     1
290
     1
176
     1
290
     1
176
     1
290
     0
176
     1
290
     0
176
     1
290
     0
176
     1
290
     0
176
     1
290
     0
176
     1
290
     0
176
     1
 90
       50
176
     1
 40
0.0
176
     1
 40
1.0
176
     1
 90
        0
176
     1
 62
    18
420
        0
176
     1
 90
       50
176
     1
 90
        3
176
     1
 62
     5
420
      255
176
     1
290
     0
176
     1
 90
       50
176
     1
 90
       50
176
     1
 90
       50
176
     1
290
     0
176
     1
 90
       50
176
     1
 62
   256
176
     0
 40
1.0
176
     0
 90
        2
176
     1
  1
strokes_ogs.tif
176
     1
290
     0
176
     1
 40
1.0
176
     1
 40
1.0
176
     1
  0
VISUALSTYLE
  5
2B
102
{ACAD_REACTORS
330
2A
102
}
330
2A
100
AcDbVisualStyle
  2
Flat
 70
     0
177
     3
291
     1
 70
    58
 90
        2
176
     1
 90
        1
176
     1
 90
        1
176
     1
 90
        2
176
     1
 40
0.6
176
     1
 40
30.0
176
     1
 62
     7
420
 16777215
176
     1
 90
        0
176
     1
 90
        0
176
     1
 62
     7
176
     1
 62
   257
176
     1
 90
        1
176
     1
 90
        1
176
     1
 40
1.0
176
     1
 90
        8
176
     1
 62
     7
176
     1
 40
1.0
176
     1
 90
        1
176
     1
 90
        6
176
     1
 90
        2
176
     1
 62
     7
176
     1
 90
        5
176
     1
 90
        0
176
     1
 90
        0
176
     1
290
     0
176
     1
 90
       13
176
     1
 40
0.0
176
     1
 90
        0
176
     1
290
     0
176
     1
290
     1
176
     1
290
     1
176
     1
290
     0
176
     1
290
     0
176
     1
290
     0
176
     1
290
     0
176
     1
290
     0
176
     1
290
     0
176
     1
 90
       50
176
     1
 40
0.0
176
     1
 40
1.0
176
     1
 90
        0
176
     1
 62
    18
420
        0
176
     1
 90
       50
176
     1
 90
        3
176
     1
 62
     5
420
      255
176
     1
290
     0
176
     1
 90
       50
176
     1
 90
       50
176
     1
 90
       50
176
     1
290
     0
176
     1
 90
       50
176
     1
 62
   256
176
     0
 40
1.0
176
     0
 90
        2
176
     1
  1
strokes_ogs.tif
176
     1
290
     0
176
     1
 40
1.0
176
     1
 40
1.0
176
     1
  0
VISUALSTYLE
  5
2C
102
{ACAD_REACTORS
330
2A
102
}
330
2A
100
AcDbVisualStyle
  2
FlatWithEdges
 70
     1
177
     3
291
     1
 70
    58
 90
        2
176
     1
 90
        1
176
     1
 90
        1
176
     1
 90
        2
176
     1
 40
0.6
176
     1
 40
30.0
176
     1
 62
     7
420
 16777215
176
     1
 90
        1
176
     1
 90
        0
176
     1
 62
     7
176
     1
 62
   257
176
     1
 90
        1
176
     1
 90
        1
176
     1
 40
1.0
176
     1
 90
        0
176
     1
 62
   257
176
     1
 40
1.0
176
     1
 90
        1
176
     1
 90
        6
176
     1
 90
        2
176
     1
 62
     7
176
     1
 90
        5
176
     1
 90
        0
176
     1
 90
        0
176
     1
290
     0
176
     1
 90
       13
176
     1
 40
0.0
176
     1
 90
        0
176
     1
290
     0
176
     1
290
     1
176
     1
290
     1
176
     1
290
     0
176
     1
290
     0
176
     1
290
     0
176
     1
290
     0
176
     1
290
     0
176
     1
290
     0
176
     1
 90
       50
176
     1
 40
0.0
176
     1
 40
1.0
176
     1
 90
        0
176
     1
 62
    18
420
        0
176
     1
 90
       50
176
     1
 90
        3
176
     1
 62
     5
420
      255
176
     1
290
     0
176
     1
 90
       50
176
     1
 90
       50
176
     1
 90
       50
176
     1
290
     0
176
     1
 90
       50
176
     1
 62
   256
176
     0
 40
1.0
176
     0
 90
        2
176
     1
  1
strokes_ogs.tif
176
     1
290
     0
176
     1
 40
1.0
176
     1
 40
1.0
176
     1
  0
VISUALSTYLE
  5
2D
102
{ACAD_REACTORS
330
2A
102
}
330
2A
100
AcDbVisualStyle
  2
Gouraud
 70
     2
177
     3
291
     1
 70
    58
 90
        2
176
     1
 90
        2
176
     1
 90
        1
176
     1
 90
        2
176
     1
 40
0.6
176
     1
 40
30.0
176
     1
 62
     7
420
 16777215
176
     1
 90
        0
176
     1
 90
        0
176
     1
 62
     7
176
     1
 62
   257
176
     1
 90
        1
176
     1
 90
        1
176
     1
 40
1.0
176
     1
 90
        0
176
     1
 62
     7
176
     1
 40
1.0
176
     1
 90
        1
176
     1
 90
        6
176
     1
 90
        2
176
     1
 62
     7
176
     1
 90
        5
176
     1
 90
        0
176
     1
 90
        0
176
     1
290
     0
176
     1
 90
       13
176
     1
 40
0.0
176
     1
 90
        0
176
     1
290
     0
176
     1
290
     1
176
     1
290
     1
176
     1
290
     0
176
     1
290
     0
176
     1
290
     0
176
     1
290
     0
176
     1
290
     0
176
     1
290
     0
176
     1
 90
       50
176
     1
 40
0.0
176
     1
 40
1.0
176
     1
 90
        0
176
     1
 62
    18
420
        0
176
     1
 90
       50
176
     1
 90
        3
176
     1
 62
     5
420
      255
176
     1
290
     0
176
     1
 90
       50
176
     1
 90
       50
176
     1
 90
       50
176
     1
290
     0
176
     1
 90
       50
176
     1
 62
   256
176
     0
 40
1.0
176
     0
 90
        2
176
     1
  1
strokes_ogs.tif
176
     1
290
     0
176
     1
 40
1.0
176
     1
 40
1.0
176
     1
  0
VISUALSTYLE
  5
2E
102
{ACAD_REACTORS
330
2A
102
}
330
2A
100
AcDbVisualStyle
  2
GouraudWithEdges
 70
     3
177
     3
291
     1
 70
    58
 90
        2
176
     1
 90
        2
176
     1
 90
        1
176
     1
 90
        2
176
     1
 40
0.6
176
     1
 40
30.0
176
     1
 62
     7
420
 16777215
176
     1
 90
        1
176
     1
 90
        0
176
     1
 62
     7
176
     1
 62
   257
176
     1
 90
        1
176
     1
 90
        1
176
     1
 40
1.0
176
     1
 90
        0
176
     1
 62
   257
176
     1
 40
1.0
176
     1
 90
        1
176
     1
 90
        6
176
     1
 90
        2
176
     1
 62
     7
176
     1
 90
        5
176
     1
 90
        0
176
     1
 90
        0
176
     1
290
     0
176
     1
 90
       13
176
     1
 40
0.0
176
     1
 90
        0
176
     1
290
     0
176
     1
290
     1
176
     1
290
     1
176
     1
290
     0
176
     1
290
     0
176
     1
290
     0
176
     1
290
     0
176
     1
290
     0
176
     1
290
     0
176
     1
 90
       50
176
     1
 40
0.0
176
     1
 40
1.0
176
     1
 90
        0
176
     1
 62
    18
420
        0
176
     1
 90
       50
176
     1
 90
        3
176
     1
 62
     5
420
      255
176
     1
290
     0
176
     1
 90
       50
176
     1
 90
       50
176
     1
 90
       50
176
     1
290
     0
176
     1
 90
       50
176
     1
 62
   256
176
     0
 40
1.0
176
     0
 90
        2
176
     1
  1
strokes_ogs.tif
176
     1
290
     0
176
     1
 40
1.0
176
     1
 40
1.0
176
     1
  0
VISUALSTYLE
  5
31
102
{ACAD_REACTORS
330
2A
102
}
330
2A
100
AcDbVisualStyle
  2
Hidden
 70
     6
177
     3
291
     0
 70
    58
 90
        1
176
     1
 90
        2
176
     1
 90
        2
176
     1
 90
        0
176
     1
 40
0.6
176
     1
 40
30.0
176
     1
 62
     7
420
 16777215
176
     1
 90
        2
176
     1
 90
        2
176
     1
 62
     7
176
     1
 62
   257
176
     1
 90
        2
176
     1
 90
        1
176
     1
 40
40.0
176
     1
 90
        0
176
     1
 62
   257
176
     1
 40
1.0
176
     1
 90
        1
176
     1
 90
        6
176
     1
 90
        2
176
     1
 62
     7
176
     1
 90
        3
176
     1
 90
        0
176
     1
 90
        0
176
     1
290
     0
176
     1
 90
        1
176
     1
 40
0.0
176
     1
 90
        0
176
     1
290
     0
176
     1
290
     1
176
     1
290
     1
176
     1
290
     0
176
     1
290
     0
176
     1
290
     0
176
     1
290
     0
176
     1
290
     0
176
     1
290
     0
176
     1
 90
       50
176
     1
 40
0.0
176
     1
 40
1.0
176
     1
 90
        0
176
     1
 62
    18
420
        0
176
     1
 90
       50
176
     1
 90
        3
176
     1
 62
     5
420
      255
176
     1
290
     0
176
     1
 90
       50
176
     1
 90
       50
176
     1
 90
       50
176
     1
290
     0
176
     1
 90
       50
176
     1
 62
   256
176
     0
 40
1.0
176
     0
 90
        2
176
     1
  1
strokes_ogs.tif
176
     1
290
     0
176
     1
 40
1.0
176
     1
 40
1.0
176
     1
  0
VISUALSTYLE
  5
3B
102
{ACAD_REACTORS
330
2A
102
}
330
2A
100
AcDbVisualStyle
  2
JitterOff
 70
    20
177
     3
291
     1
 70
    58
 90
        2
176
     0
 90
        2
176
     0
 90
        0
176
     0
 90
        0
176
     0
 40
0.6
176
     0
 40
30.0
176
     0
 62
     7
420
 16777215
176
     0
 90
        1
176
     0
 90
        4
176
     0
 62
     7
176
     0
 62
   257
176
     0
 90
        1
176
     0
 90
        1
176
     0
 40
1.0
176
     0
 90
       10
176
     2
 62
     7
176
     0
 40
1.0
176
     0
 90
        1
176
     0
 90
        6
176
     0
 90
        2
176
     0
 62
     7
176
     0
 90
        5
176
     0
 90
        0
176
     0
 90
        0
176
     0
290
     0
176
     0
 90
        1
176
     0
 40
0.0
176
     0
 90
        0
176
     0
290
     0
176
     0
290
     1
176
     0
290
     1
176
     0
290
     0
176
     0
290
     0
176
     0
290
     0
176
     0
290
     0
176
     0
290
     0
176
     0
290
     0
176
     0
 90
       50
176
     0
 40
0.0
176
     0
 40
1.0
176
     0
 90
        0
176
     0
 62
    18
420
        0
176
     0
 90
       50
176
     0
 90
        3
176
     0
 62
     5
420
      255
176
     0
290
     0
176
     0
 90
       50
176
     0
 90
       50
176
     0
 90
       50
176
     0
290
     0
176
     0
 90
       50
176
     0
 62
   256
176
     0
 40
1.0
176
     0
 90
        2
176
     0
  1
strokes_ogs.tif
176
     0
290
     0
176
     0
 40
1.0
176
     0
 40
1.0
176
     0
  0
VISUALSTYLE
  5
38
102
{ACAD_REACTORS
330
2A
102
}
330
2A
100
AcDbVisualStyle
  2
Linepattern
 70
    14
177
     3
291
     1
 70
    58
 90
        2
176
     1
 90
        2
176
     1
 90
        0
176
     1
 90
        0
176
     1
 40
0.6
176
     1
 40
30.0
176
     1
 62
     7
420
 16777215
176
     1
 90
        1
176
     1
 90
        4
176
     1
 62
     7
176
     1
 62
   257
176
     1
 90
        7
176
     1
 90
        7
176
     1
 40
1.0
176
     1
 90
        8
176
     1
 62
     7
176
     1
 40
1.0
176
     1
 90
        1
176
     1
 90
        6
176
     1
 90
        2
176
     1
 62
     7
176
     1
 90
        5
176
     1
 90
        0
176
     1
 90
        0
176
     1
290
     0
176
     1
 90
        1
176
     1
 40
0.0
176
     1
 90
        0
176
     1
290
     0
176
     1
290
     1
176
     1
290
     1
176
     1
290
     0
176
     1
290
     0
176
     1
290
     0
176
     1
290
     0
176
     1
290
     0
176
     1
290
     0
176
     1
 90
       50
176
     1
 40
0.0
176
     1
 40
1.0
176
     1
 90
        0
176
     1
 62
    18
420
        0
176
     1
 90
       50
176
     1
 90
        3
176
     1
 62
     5
420
      255
176
     1
290
     0
176
     1
 90
       50
176
     1
 90
       50
176
     1
 90
       50
176
     1
290
     0
176
     1
 90
       50
176
     1
 62
   256
176
     0
 40
1.0
176
     0
 90
        2
176
     1
  1
strokes_ogs.tif
176
     1
290
     0
176
     1
 40
1.0
176
     1
 40
1.0
176
     1
  0
VISUALSTYLE
  5
3C
102
{ACAD_REACTORS
330
2A
102
}
330
2A
100
AcDbVisualStyle
  2
OverhangOff
 70
    21
177
     3
291
     1
 70
    58
 90
        2
176
     0
 90
        2
176
     0
 90
        0
176
     0
 90
        0
176
     0
 40
0.6
176
     0
 40
30.0
176
     0
 62
     7
420
 16777215
176
     0
 90
        1
176
     0
 90
        4
176
     0
 62
     7
176
     0
 62
   257
176
     0
 90
        1
176
     0
 90
        1
176
     0
 40
1.0
176
     0
 90
        9
176
     2
 62
     7
176
     0
 40
1.0
176
     0
 90
        1
176
     0
 90
        6
176
     0
 90
        2
176
     0
 62
     7
176
     0
 90
        5
176
     0
 90
        0
176
     0
 90
        0
176
     0
290
     0
176
     0
 90
        1
176
     0
 40
0.0
176
     0
 90
        0
176
     0
290
     0
176
     0
290
     1
176
     0
290
     1
176
     0
290
     0
176
     0
290
     0
176
     0
290
     0
176
     0
290
     0
176
     0
290
     0
176
     0
290
     0
176
     0
 90
       50
176
     0
 40
0.0
176
     0
 40
1.0
176
     0
 90
        0
176
     0
 62
    18
420
        0
176
     0
 90
       50
176
     0
 90
        3
176
     0
 62
     5
420
      255
176
     0
290
     0
176
     0
 90
       50
176
     0
 90
       50
176
     0
 90
       50
176
     0
290
     0
176
     0
 90
       50
176
     0
 62
   256
176
     0
 40
1.0
176
     0
 90
        2
176
     0
  1
strokes_ogs.tif
176
     0
290
     0
176
     0
 40
1.0
176
     0
 40
1.0
176
     0
  0
VISUALSTYLE
  5
33
102
{ACAD_REACTORS
330
2A
102
}
330
2A
100
AcDbVisualStyle
  2
Realistic
 70
     8
177
     3
291
     0
 70
    58
 90
        2
176
     1
 90
        3
176
     1
 90
        0
176
     1
 90
        2
176
     1
 40
0.6
176
     1
 40
30.0
176
     1
 62
     7
420
 16777215
176
     1
 90
        0
176
     1
 90
        0
176
     1
 62
     7
176
     1
 62
   257
176
     1
 90
        1
176
     1
 90
        1
176
     1
 40
1.0
176
     1
 90
        8
176
     1
 62
   257
176
     1
 40
1.0
176
     1
 90
        1
176
     1
 90
        6
176
     1
 90
        2
176
     1
 62
     7
176
     1
 90
        3
176
     1
 90
        0
176
     1
 90
        0
176
     1
290
     0
176
     1
 90
       13
176
     1
 40
0.0
176
     1
 90
        0
176
     1
290
     0
176
     1
290
     1
176
     1
290
     1
176
     1
290
     0
176
     1
290
     0
176
     1
290
     0
176
     1
290
     0
176
     1
290
     0
176
     1
290
     0
176
     1
 90
       50
176
     1
 40
0.0
176
     1
 40
1.0
176
     1
 90
        0
176
     1
 62
    18
420
        0
176
     1
 90
       50
176
     1
 90
        3
176
     1
 62
     5
420
      255
176
     1
290
     0
176
     1
 90
       50
176
     1
 90
       50
176
     1
 90
       50
176
     1
290
     0
176
     1
 90
       50
176
     1
 62
   256
176
     0
 40
1.0
176
     0
 90
        2
176
     1
  1
strokes_ogs.tif
176
     1
290
     0
176
     1
 40
1.0
176
     1
 40
1.0
176
     1
  0
VISUALSTYLE
  5
42
102
{ACAD_REACTORS
330
2A
102
}
330
2A
100
AcDbVisualStyle
  2
Shaded
 70
    27
177
     3
291
     0
 70
    58
 90
        2
176
     1
 90
        2
176
     1
 90
        1
176
     1
 90
        2
176
     1
 40
0.6
176
     1
 40
30.0
176
     1
 62
     7
420
 16777215
176
     1
 90
        0
176
     1
 90
        4
176
     1
 62
     7
176
     1
 62
   257
176
     1
 90
        1
176
     1
 90
        1
176
     1
 40
1.0
176
     1
 90
        8
176
     1
 62
   257
176
     1
 40
1.0
176
     1
 90
        1
176
     1
 90
        6
176
     1
 90
        2
176
     1
 62
     8
420
  7895160
176
     1
 90
        3
176
     1
 90
        0
176
     1
 90
        0
176
     1
290
     0
176
     1
 90
        5
176
     1
 40
0.0
176
     1
 90
        0
176
     1
290
     0
176
     1
290
     1
176
     1
290
     1
176
     1
290
     0
176
     1
290
     0
176
     1
290
     0
176
     1
290
     0
176
     1
290
     0
176
     1
290
     0
176
     1
 90
       50
176
     1
 40
0.0
176
     1
 40
1.0
176
     1
 90
        0
176
     1
 62
    18
420
        0
176
     1
 90
       50
176
     1
 90
        3
176
     1
 62
     5
420
      255
176
     1
290
     0
176
     1
 90
       50
176
     1
 90
       50
176
     1
 90
       50
176
     1
290
     0
176
     1
 90
       50
176
     1
 62
   256
176
     0
 40
1.0
176
     0
 90
        2
176
     1
  1
strokes_ogs.tif
176
     1
290
     0
176
     1
 40
1.0
176
     1
 40
1.0
176
     1
  0
VISUALSTYLE
  5
41
102
{ACAD_REACTORS
330
2A
102
}
330
2A
100
AcDbVisualStyle
  2
Shaded with edges
 70
    26
177
     3
291
     0
 70
    58
 90
        2
176
     1
 90
        2
176
     1
 90
        1
176
     1
 90
        2
176
     1
 40
0.6
176
     1
 40
30.0
176
     1
 62
     7
420
 16777215
176
     1
 90
        1
176
     1
 90
       10
176
     1
 62
     7
176
     1
 62
   257
176
     1
 90
        2
176
     1
 90
        1
176
     1
 40
1.0
176
     1
 90
        8
176
     1
 62
   257
176
     1
 40
1.0
176
     1
 90
        1
176
     1
 90
        6
176
     1
 90
        2
176
     1
 62
     7
176
     1
 90
        3
176
     1
 90
        0
176
     1
 90
        0
176
     1
290
     0
176
     1
 90
        5
176
     1
 40
0.0
176
     1
 90
        0
176
     1
290
     0
176
     1
290
     1
176
     1
290
     1
176
     1
290
     0
176
     1
290
     0
176
     1
290
     0
176
     1
290
     0
176
     1
290
     0
176
     1
290
     0
176
     1
 90
       50
176
     1
 40
0.0
176
     1
 40
1.0
176
     1
 90
        0
176
     1
 62
    18
420
        0
176
     1
 90
       50
176
     1
 90
        3
176
     1
 62
     5
420
      255
176
     1
290
     0
176
     1
 90
       50
176
     1
 90
       50
176
     1
 90
       50
176
     1
290
     0
176
     1
 90
       50
176
     1
 62
   256
176
     0
 40
1.0
176
     0
 90
        2
176
     1
  1
strokes_ogs.tif
176
     1
290
     0
176
     1
 40
1.0
176
     1
 40
1.0
176
     1
  0
VISUALSTYLE
  5
3E
102
{ACAD_REACTORS
330
2A
102
}
330
2A
100
AcDbVisualStyle
  2
Shades of Gray
 70
    23
177
     3
291
     0
 70
    58
 90
        2
176
     1
 90
        2
176
     1
 90
        3
176
     1
 90
        0
176
     1
 40
0.6
176
     1
 40
30.0
176
     1
 62
     7
420
 16777215
176
     1
 90
        2
176
     1
 90
        2
176
     1
 62
     7
176
     1
 62
     7
176
     1
 90
        1
176
     1
 90
        1
176
     1
 40
40.0
176
     1
 90
        8
176
     1
 62
     7
176
     1
 40
1.0
176
     1
 90
        1
176
     1
 90
        6
176
     1
 90
        2
176
     1
 62
     7
176
     1
 90
        3
176
     1
 90
        0
176
     1
 90
        0
176
     1
290
     0
176
     1
 90
        1
176
     1
 40
0.0
176
     1
 90
        0
176
     1
290
     0
176
     1
290
     1
176
     1
290
     1
176
     1
290
     0
176
     1
290
     0
176
     1
290
     0
176
     1
290
     0
176
     1
290
     0
176
     1
290
     0
176
     1
 90
       50
176
     1
 40
0.0
176
     1
 40
1.0
176
     1
 90
        0
176
     1
 62
    18
420
        0
176
     1
 90
       50
176
     1
 90
        3
176
     1
 62
     5
420
      255
176
     1
290
     0
176
     1
 90
       50
176
     1
 90
       50
176
     1
 90
       50
176
     1
290
     0
176
     1
 90
       50
176
     1
 62
   256
176
     0
 40
1.0
176
     0
 90
        2
176
     1
  1
strokes_ogs.tif
176
     1
290
     0
176
     1
 40
1.0
176
     1
 40
1.0
176
     1
  0
VISUALSTYLE
  5
3F
102
{ACAD_REACTORS
330
2A
102
}
330
2A
100
AcDbVisualStyle
  2
Sketchy
 70
    24
177
     3
291
     0
 70
    58
 90
        1
176
     1
 90
        2
176
     1
 90
        2
176
     1
 90
        0
176
     1
 40
0.6
176
     1
 40
30.0
176
     1
 62
     7
420
 16777215
176
     1
 90
        2
176
     1
 90
        2
176
     1
 62
     7
176
     1
 62
     7
176
     1
 90
        1
176
     1
 90
        1
176
     1
 40
40.0
176
     1
 90
       11
176
     1
 62
     7
176
     1
 40
1.0
176
     1
 90
        1
176
     1
 90
        6
176
     1
 90
        2
176
     1
 62
     7
176
     1
 90
        6
176
     1
 90
        0
176
     1
 90
        0
176
     1
290
     0
176
     1
 90
        1
176
     1
 40
0.0
176
     1
 90
        0
176
     1
290
     0
176
     1
290
     1
176
     1
290
     1
176
     1
290
     0
176
     1
290
     0
176
     1
290
     0
176
     1
290
     0
176
     1
290
     0
176
     1
290
     0
176
     1
 90
       50
176
     1
 40
0.0
176
     1
 40
1.0
176
     1
 90
        0
176
     1
 62
    18
420
        0
176
     1
 90
       50
176
     1
 90
        3
176
     1
 62
     5
420
      255
176
     1
290
     0
176
     1
 90
       50
176
     1
 90
       50
176
     1
 90
       50
176
     1
290
     0
176
     1
 90
       50
176
     1
 62
   256
176
     0
 40
1.0
176
     0
 90
        2
176
     1
  1
strokes_ogs.tif
176
     1
290
     0
176
     1
 40
1.0
176
     1
 40
1.0
176
     1
  0
VISUALSTYLE
  5
37
102
{ACAD_REACTORS
330
2A
102
}
330
2A
100
AcDbVisualStyle
  2
Thicken
 70
    13
177
     3
291
     1
 70
    58
 90
        2
176
     1
 90
        2
176
     1
 90
        0
176
     1
 90
        0
176
     1
 40
0.6
176
     1
 40
30.0
176
     1
 62
     7
420
 16777215
176
     1
 90
        1
176
     1
 90
        4
176
     1
 62
     7
176
     1
 62
   257
176
     1
 90
        1
176
     1
 90
        1
176
     1
 40
1.0
176
     1
 90
       12
176
     1
 62
     7
176
     1
 40
1.0
176
     1
 90
        1
176
     1
 90
        6
176
     1
 90
        2
176
     1
 62
     7
176
     1
 90
        5
176
     1
 90
        0
176
     1
 90
        0
176
     1
290
     0
176
     1
 90
        1
176
     1
 40
0.0
176
     1
 90
        0
176
     1
290
     0
176
     1
290
     1
176
     1
290
     1
176
     1
290
     0
176
     1
290
     0
176
     1
290
     0
176
     1
290
     0
176
     1
290
     0
176
     1
290
     0
176
     1
 90
       50
176
     1
 40
0.0
176
     1
 40
1.0
176
     1
 90
        0
176
     1
 62
    18
420
        0
176
     1
 90
       50
176
     1
 90
        3
176
     1
 62
     5
420
      255
176
     1
290
     0
176
     1
 90
       50
176
     1
 90
       50
176
     1
 90
       50
176
     1
290
     0
176
     1
 90
       50
176
     1
 62
   256
176
     0
 40
1.0
176
     0
 90
        2
176
     1
  1
strokes_ogs.tif
176
     1
290
     0
176
     1
 40
1.0
176
     1
 40
1.0
176
     1
  0
VISUALSTYLE
  5
30
102
{ACAD_REACTORS
330
2A
102
}
330
2A
100
AcDbVisualStyle
  2
Wireframe
 70
     5
177
     3
291
     0
 70
    58
 90
        0
176
     1
 90
        2
176
     1
 90
        0
176
     1
 90
        0
176
     1
 40
0.6
176
     1
 40
30.0
176
     1
 62
     7
420
 16777215
176
     1
 90
        1
176
     1
 90
        4
176
     1
 62
     7
176
     1
 62
   257
176
     1
 90
        1
176
     1
 90
        1
176
     1
 40
1.0
176
     1
 90
        0
176
     1
 62
   257
176
     1
 40
1.0
176
     1
 90
        1
176
     1
 90
        6
176
     1
 90
        2
176
     1
 62
     7
176
     1
 90
        3
176
     1
 90
        0
176
     1
 90
        0
176
     1
290
     0
176
     1
 90
        1
176
     1
 40
0.0
176
     1
 90
        0
176
     1
290
     0
176
     1
290
     1
176
     1
290
     1
176
     1
290
     0
176
     1
290
     0
176
     1
290
     0
176
     1
290
     0
176
     1
290
     0
176
     1
290
     0
176
     1
 90
       50
176
     1
 40
0.0
176
     1
 40
1.0
176
     1
 90
        0
176
     1
 62
    18
420
        0
176
     1
 90
       50
176
     1
 90
        3
176
     1
 62
     5
420
      255
176
     1
290
     0
176
     1
 90
       50
176
     1
 90
       50
176
     1
 90
       50
176
     1
290
     0
176
     1
 90
       50
176
     1
 62
   256
176
     0
 40
1.0
176
     0
 90
        2
176
     1
  1
strokes_ogs.tif
176
     1
290
     0
176
     1
 40
1.0
176
     1
 40
1.0
176
     1
  0
VISUALSTYLE
  5
40
102
{ACAD_REACTORS
330
2A
102
}
330
2A
100
AcDbVisualStyle
  2
X-Ray
 70
    25
177
     3
291
     0
 70
    58
 90
        2
176
     1
 90
        2
176
     1
 90
        1
176
     1
 90
        1
176
     1
 40
0.5
176
     1
 40
30.0
176
     1
 62
     7
420
 16777215
176
     1
 90
        1
176
     1
 90
        0
176
     1
 62
     7
176
     1
 62
   257
176
     1
 90
        1
176
     1
 90
        1
176
     1
 40
1.0
176
     1
 90
        8
176
     1
 62
     7
176
     1
 40
1.0
176
     1
 90
        1
176
     1
 90
        6
176
     1
 90
        2
176
     1
 62
     7
176
     1
 90
        3
176
     1
 90
        0
176
     1
 90
        0
176
     1
290
     0
176
     1
 90
       13
176
     1
 40
0.0
176
     1
 90
        0
176
     1
290
     0
176
     1
290
     1
176
     1
290
     1
176
     1
290
     0
176
     1
290
     0
176
     1
290
     0
176
     1
290
     0
176
     1
290
     0
176
     1
290
     0
176
     1
 90
       50
176
     1
 40
0.0
176
     1
 40
1.0
176
     1
 90
        0
176
     1
 62
    18
420
        0
176
     1
 90
       50
176
     1
 90
        3
176
     1
 62
     5
420
      255
176
     1
290
     0
176
     1
 90
       50
176
     1
 90
       50
176
     1
 90
       50
176
     1
290
     0
176
     1
 90
       50
176
     1
 62
   256
176
     0
 40
1.0
176
     0
 90
        2
176
     1
  1
strokes_ogs.tif
176
     1
290
     0
176
     1
 40
1.0
176
     1
 40
1.0
176
     1
  0
DICTIONARYVAR
  5
7E
102
{ACAD_REACTORS
330
7D
102
}
330
7D
100
DictionaryVariables
280
     0
  1
1:1
  0
DICTIONARYVAR
  5
83
102
{ACAD_REACTORS
330
7D
102
}
330
7D
100
DictionaryVariables
280
     0
  1
Standard
  0
DICTIONARYVAR
  5
82
102
{ACAD_REACTORS
330
7D
102
}
330
7D
100
DictionaryVariables
280
     0
  1
Standard
  0
DICTIONARY
  5
7F
330
5A
100
AcDbDictionary
280
     1
281
     1
  3
ACAD_ROUNDTRIP_2008_TABLESTYLE_CELLSTYLEMAP
360
80
  0
CELLSTYLEMAP
  5
80
102
{ACAD_REACTORS
330
7F
102
}
330
7F
100
AcDbCellStyleMap
 90
        3
300
CELLSTYLE
  1
TABLEFORMAT_BEGIN
 90
        5
170
     1
 91
        0
 92
    32768
 62
   257
 93
        1
300
CONTENTFORMAT
  1
CONTENTFORMAT_BEGIN
 90
        0
 91
        0
 92
        4
 93
        0
300

 40
0.0
140
1.0
 94
        5
 62
     0
340
11
144
0.25
309
CONTENTFORMAT_END
171
     1
301
MARGIN
  1
CELLMARGIN_BEGIN
 40
0.06
 40
0.06
 40
0.06
 40
0.06
 40
0.06
 40
0.06
309
CELLMARGIN_END
 94
        6
 95
        1
302
GRIDFORMAT
  1
GRIDFORMAT_BEGIN
 90
        0
 91
        1
 62
     0
 92
       -2
340
14
 93
        0
 40
0.045
309
GRIDFORMAT_END
 95
        2
302
GRIDFORMAT
  1
GRIDFORMAT_BEGIN
 90
        0
 91
        1
 62
     0
 92
       -2
340
14
 93
        0
 40
0.045
309
GRIDFORMAT_END
 95
        4
302
GRIDFORMAT
  1
GRIDFORMAT_BEGIN
 90
        0
 91
        1
 62
     0
 92
       -2
340
14
 93
        0
 40
0.045
309
GRIDFORMAT_END
 95
        8
302
GRIDFORMAT
  1
GRIDFORMAT_BEGIN
 90
        0
 91
        1
 62
     0
 92
       -2
340
14
 93
        0
 40
0.045
309
GRIDFORMAT_END
 95
       16
302
GRIDFORMAT
  1
GRIDFORMAT_BEGIN
 90
        0
 91
        1
 62
     0
 92
       -2
340
14
 93
        0
 40
0.045
309
GRIDFORMAT_END
 95
       32
302
GRIDFORMAT
  1
GRIDFORMAT_BEGIN
 90
        0
 91
        1
 62
     0
 92
       -2
340
14
 93
        0
 40
0.045
309
GRIDFORMAT_END
309
TABLEFORMAT_END
  1
CELLSTYLE_BEGIN
 90
        1
 91
        1
300
_TITLE
309
CELLSTYLE_END
300
CELLSTYLE
  1
TABLEFORMAT_BEGIN
 90
        5
170
     1
 91
        0
 92
        0
 62
   257
 93
        1
300
CONTENTFORMAT
  1
CONTENTFORMAT_BEGIN
 90
        0
 91
        0
 92
        4
 93
        0
300

 40
0.0
140
1.0
 94
        5
 62
     0
340
11
144
0.18
309
CONTENTFORMAT_END
171
     1
301
MARGIN
  1
CELLMARGIN_BEGIN
 40
0.06
 40
0.06
 40
0.06
 40
0.06
 40
0.06
 40
0.06
309
CELLMARGIN_END
 94
        6
 95
        1
302
GRIDFORMAT
  1
GRIDFORMAT_BEGIN
 90
        0
 91
        1
 62
     0
 92
       -2
340
14
 93
        0
 40
0.045
309
GRIDFORMAT_END
 95
        2
302
GRIDFORMAT
  1
GRIDFORMAT_BEGIN
 90
        0
 91
        1
 62
     0
 92
       -2
340
14
 93
        0
 40
0.045
309
GRIDFORMAT_END
 95
        4
302
GRIDFORMAT
  1
GRIDFORMAT_BEGIN
 90
        0
 91
        1
 62
     0
 92
       -2
340
14
 93
        0
 40
0.045
309
GRIDFORMAT_END
 95
        8
302
GRIDFORMAT
  1
GRIDFORMAT_BEGIN
 90
        0
 91
        1
 62
     0
 92
       -2
340
14
 93
        0
 40
0.045
309
GRIDFORMAT_END
 95
       16
302
GRIDFORMAT
  1
GRIDFORMAT_BEGIN
 90
        0
 91
        1
 62
     0
 92
       -2
340
14
 93
        0
 40
0.045
309
GRIDFORMAT_END
 95
       32
302
GRIDFORMAT
  1
GRIDFORMAT_BEGIN
 90
        0
 91
        1
 62
     0
 92
       -2
340
14
 93
        0
 40
0.045
309
GRIDFORMAT_END
309
TABLEFORMAT_END
  1
CELLSTYLE_BEGIN
 90
        2
 91
        1
300
_HEADER
309
CELLSTYLE_END
300
CELLSTYLE
  1
TABLEFORMAT_BEGIN
 90
        5
170
     1
 91
        0
 92
        0
 62
   257
 93
        1
300
CONTENTFORMAT
  1
CONTENTFORMAT_BEGIN
 90
        0
 91
        0
 92
        4
 93
        0
300

 40
0.0
140
1.0
 94
        2
 62
     0
340
11
144
0.18
309
CONTENTFORMAT_END
171
     1
301
MARGIN
  1
CELLMARGIN_BEGIN
 40
0.06
 40
0.06
 40
0.06
 40
0.06
 40
0.06
 40
0.06
309
CELLMARGIN_END
 94
        6
 95
        1
302
GRIDFORMAT
  1
GRIDFORMAT_BEGIN
 90
        0
 91
        1
 62
     0
 92
       -2
340
14
 93
        0
 40
0.045
309
GRIDFORMAT_END
 95
        2
302
GRIDFORMAT
  1
GRIDFORMAT_BEGIN
 90
        0
 91
        1
 62
     0
 92
       -2
340
14
 93
        0
 40
0.045
309
GRIDFORMAT_END
 95
        4
302
GRIDFORMAT
  1
GRIDFORMAT_BEGIN
 90
        0
 91
        1
 62
     0
 92
       -2
340
14
 93
        0
 40
0.045
309
GRIDFORMAT_END
 95
        8
302
GRIDFORMAT
  1
GRIDFORMAT_BEGIN
 90
        0
 91
        1
 62
     0
 92
       -2
340
14
 93
        0
 40
0.045
309
GRIDFORMAT_END
 95
       16
302
GRIDFORMAT
  1
GRIDFORMAT_BEGIN
 90
        0
 91
        1
 62
     0
 92
       -2
340
14
 93
        0
 40
0.045
309
GRIDFORMAT_END
 95
       32
302
GRIDFORMAT
  1
GRIDFORMAT_BEGIN
 90
        0
 91
        1
 62
     0
 92
       -2
340
14
 93
        0
 40
0.045
309
GRIDFORMAT_END
309
TABLEFORMAT_END
  1
CELLSTYLE_BEGIN
 90
        3
 91
        2
300
_DATA
309
CELLSTYLE_END
  0
ENDSEC
  0
EOF
