  0
SECTION
  2
HEADER
  9
$ACADVER
  1
AC1027
  9
$ACADMAINTVER
 70
   105
  9
$DWGCODEPAGE
  3
ANSI_1252
  9
$LASTSAVEDBY
  1
Office Desk
  9
$REQUIREDVERSIONS
160
                 0
  9
$INSBASE
 10
0.0
 20
0.0
 30
0.0
  9
$EXTMIN
 10
-10.24152362204724
 20
-0.7307204724409448
 30
0.0
  9
$EXTMAX
 10
-4.41903937007874
 20
5.855893700787401
 30
0.0
  9
$LIMMIN
 10
0.0
 20
0.0
  9
$LIMMAX
 10
12.0
 20
9.0
  9
$ORTHOMODE
 70
     0
  9
$REGENMODE
 70
     1
  9
$FILLMODE
 70
     1
  9
$QTEXTMODE
 70
     0
  9
$MIRRTEXT
 70
     1
  9
$LTSCALE
 40
1.0
  9
$ATTMODE
 70
     1
  9
$TEXTSIZE
 40
0.2
  9
$TRACEWID
 40
0.05
  9
$TEXTSTYLE
  7
Standard
  9
$CLAYER
  8
0
  9
$CELTYPE
  6
ByLayer
  9
$CECOLOR
 62
   256
  9
$CELTSCALE
 40
1.0
  9
$DISPSILH
 70
     0
  9
$DIMSCALE
 40
1.0
  9
$DIMASZ
 40
0.18
  9
$DIMEXO
 40
0.0625
  9
$DIMDLI
 40
0.38
  9
$DIMRND
 40
0.0
  9
$DIMDLE
 40
0.0
  9
$DIMEXE
 40
0.18
  9
$DIMTP
 40
0.0
  9
$DIMTM
 40
0.0
  9
$DIMTXT
 40
0.18
  9
$DIMCEN
 40
0.09
  9
$DIMTSZ
 40
0.0
  9
$DIMTOL
 70
     0
  9
$DIMLIM
 70
     0
  9
$DIMTIH
 70
     1
  9
$DIMTOH
 70
     1
  9
$DIMSE1
 70
     0
  9
$DIMSE2
 70
     0
  9
$DIMTAD
 70
     0
  9
$DIMZIN
 70
     0
  9
$DIMBLK
  1

  9
$DIMASO
 70
     1
  9
$DIMSHO
 70
     1
  9
$DIMPOST
  1

  9
$DIMAPOST
  1

  9
$DIMALT
 70
     0
  9
$DIMALTD
 70
     2
  9
$DIMALTF
 40
25.4
  9
$DIMLFAC
 40
1.0
  9
$DIMTOFL
 70
     0
  9
$DIMTVP
 40
0.0
  9
$DIMTIX
 70
     0
  9
$DIMSOXD
 70
     0
  9
$DIMSAH
 70
     0
  9
$DIMBLK1
  1

  9
$DIMBLK2
  1

  9
$DIMSTYLE
  2
Standard
  9
$DIMCLRD
 70
     0
  9
$DIMCLRE
 70
     0
  9
$DIMCLRT
 70
     0
  9
$DIMTFAC
 40
1.0
  9
$DIMGAP
 40
0.09
  9
$DIMJUST
 70
     0
  9
$DIMSD1
 70
     0
  9
$DIMSD2
 70
     0
  9
$DIMTOLJ
 70
     1
  9
$DIMTZIN
 70
     0
  9
$DIMALTZ
 70
     0
  9
$DIMALTTZ
 70
     0
  9
$DIMUPT
 70
     0
  9
$DIMDEC
 70
     4
  9
$DIMTDEC
 70
     4
  9
$DIMALTU
 70
     2
  9
$DIMALTTD
 70
     2
  9
$DIMTXSTY
  7
Standard
  9
$DIMAUNIT
 70
     0
  9
$DIMADEC
 70
     0
  9
$DIMALTRND
 40
0.0
  9
$DIMAZIN
 70
     0
  9
$DIMDSEP
 70
    46
  9
$DIMATFIT
 70
     3
  9
$DIMFRAC
 70
     0
  9
$DIMLDRBLK
  1

  9
$DIMLUNIT
 70
     2
  9
$DIMLWD
 70
    -2
  9
$DIMLWE
 70
    -2
  9
$DIMTMOVE
 70
     0
  9
$DIMFXL
 40
1.0
  9
$DIMFXLON
 70
     0
  9
$DIMJOGANG
 40
0.7853981633974483
  9
$DIMTFILL
 70
     0
  9
$DIMTFILLCLR
 70
     0
  9
$DIMARCSYM
 70
     0
  9
$DIMLTYPE
  6

  9
$DIMLTEX1
  6

  9
$DIMLTEX2
  6

  9
$DIMTXTDIRECTION
 70
     0
  9
$LUNITS
 70
     2
  9
$LUPREC
 70
     4
  9
$SKETCHINC
 40
0.1
  9
$FILLETRAD
 40
0.0
  9
$AUNITS
 70
     0
  9
$AUPREC
 70
     0
  9
$MENU
  1
.
  9
$ELEVATION
 40
0.0
  9
$PELEVATION
 40
0.0
  9
$THICKNESS
 40
0.0
  9
$LIMCHECK
 70
     0
  9
$CHAMFERA
 40
0.0
  9
$CHAMFERB
 40
0.0
  9
$CHAMFERC
 40
0.0
  9
$CHAMFERD
 40
0.0
  9
$SKPOLY
 70
     0
  9
$TDCREATE
 40
2461020.713624826
  9
$TDUCREATE
 40
2461020.48445816
  9
$TDUPDATE
 40
2461020.713624954
  9
$TDUUPDATE
 40
2461020.484458287
  9
$TDINDWG
 40
0.0000000116
  9
$TDUSRTIMER
 40
0.0000000116
  9
$USRTIMER
 70
     1
  9
$ANGBASE
 50
0.0
  9
$ANGDIR
 70
     0
  9
$PDMODE
 70
     0
  9
$PDSIZE
 40
0.0
  9
$PLINEWID
 40
0.0
  9
$SPLFRAME
 70
     0
  9
$SPLINETYPE
 70
     6
  9
$SPLINESEGS
 70
     8
  9
$HANDSEED
  5
8C
  9
$SURFTAB1
 70
     6
  9
$SURFTAB2
 70
     6
  9
$SURFTYPE
 70
     6
  9
$SURFU
 70
     6
  9
$SURFV
 70
     6
  9
$UCSBASE
  2

  9
$UCSNAME
  2

  9
$UCSORG
 10
0.0
 20
0.0
 30
0.0
  9
$UCSXDIR
 10
1.0
 20
0.0
 30
0.0
  9
$UCSYDIR
 10
0.0
 20
1.0
 30
0.0
  9
$UCSORTHOREF
  2

  9
$UCSORTHOVIEW
 70
     0
  9
$UCSORGTOP
 10
0.0
 20
0.0
 30
0.0
  9
$UCSORGBOTTOM
 10
0.0
 20
0.0
 30
0.0
  9
$UCSORGLEFT
 10
0.0
 20
0.0
 30
0.0
  9
$UCSORGRIGHT
 10
0.0
 20
0.0
 30
0.0
  9
$UCSORGFRONT
 10
0.0
 20
0.0
 30
0.0
  9
$UCSORGBACK
 10
0.0
 20
0.0
 30
0.0
  9
$PUCSBASE
  2

  9
$PUCSNAME
  2

  9
$PUCSORG
 10
0.0
 20
0.0
 30
0.0
  9
$PUCSXDIR
 10
1.0
 20
0.0
 30
0.0
  9
$PUCSYDIR
 10
0.0
 20
1.0
 30
0.0
  9
$PUCSORTHOREF
  2

  9
$PUCSORTHOVIEW
 70
     0
  9
$PUCSORGTOP
 10
0.0
 20
0.0
 30
0.0
  9
$PUCSORGBOTTOM
 10
0.0
 20
0.0
 30
0.0
  9
$PUCSORGLEFT
 10
0.0
 20
0.0
 30
0.0
  9
$PUCSORGRIGHT
 10
0.0
 20
0.0
 30
0.0
  9
$PUCSORGFRONT
 10
0.0
 20
0.0
 30
0.0
  9
$PUCSORGBACK
 10
0.0
 20
0.0
 30
0.0
  9
$USERI1
 70
     0
  9
$USERI2
 70
     0
  9
$USERI3
 70
     0
  9
$USERI4
 70
     0
  9
$USERI5
 70
     0
  9
$USERR1
 40
0.0
  9
$USERR2
 40
0.0
  9
$USERR3
 40
0.0
  9
$USERR4
 40
0.0
  9
$USERR5
 40
0.0
  9
$WORLDVIEW
 70
     1
  9
$SHADEDGE
 70
     3
  9
$SHADEDIF
 70
    70
  9
$TILEMODE
 70
     1
  9
$MAXACTVP
 70
    64
  9
$PINSBASE
 10
0.0
 20
0.0
 30
0.0
  9
$PLIMCHECK
 70
     0
  9
$PEXTMIN
 10
1.000000000000000E+20
 20
1.000000000000000E+20
 30
1.000000000000000E+20
  9
$PEXTMAX
 10
-1.000000000000000E+20
 20
-1.000000000000000E+20
 30
-1.000000000000000E+20
  9
$PLIMMIN
 10
0.0
 20
0.0
  9
$PLIMMAX
 10
12.0
 20
9.0
  9
$UNITMODE
 70
     0
  9
$VISRETAIN
 70
     1
  9
$PLINEGEN
 70
     0
  9
$PSLTSCALE
 70
     1
  9
$TREEDEPTH
 70
  3020
  9
$CMLSTYLE
  2
Standard
  9
$CMLJUST
 70
     0
  9
$CMLSCALE
 40
1.0
  9
$PROXYGRAPHICS
 70
     1
  9
$MEASUREMENT
 70
     0
  9
$CELWEIGHT
370
    -1
  9
$ENDCAPS
280
     0
  9
$JOINSTYLE
280
     0
  9
$LWDISPLAY
290
     0
  9
$INSUNITS
 70
     1
  9
$HYPERLINKBASE
  1

  9
$STYLESHEET
  1

  9
$XEDIT
290
     1
  9
$CEPSNTYPE
380
     0
  9
$PSTYLEMODE
290
     1
  9
$FINGERPRINTGUID
  2
{e775e1d9-fdf3-41fe-b9ee-0eed106bf2b4}
  9
$VERSIONGUID
  2
{FAEB1C32-E019-11D5-929B-00C0DF256EC4}
  9
$EXTNAMES
290
     1
  9
$PSVPSCALE
 40
0.0
  9
$OLESTARTUP
290
     0
  9
$SORTENTS
280
   127
  9
$INDEXCTL
280
     0
  9
$HIDETEXT
280
     1
  9
$XCLIPFRAME
280
     2
  9
$HALOGAP
280
     0
  9
$OBSCOLOR
 70
   257
  9
$OBSLTYPE
280
     0
  9
$INTERSECTIONDISPLAY
280
     0
  9
$INTERSECTIONCOLOR
 70
   257
  9
$DIMASSOC
280
     2
  9
$PROJECTNAME
  1

  9
$CAMERADISPLAY
290
     0
  9
$LENSLENGTH
 40
50.0
  9
$CAMERAHEIGHT
 40
0.0
  9
$STEPSPERSEC
 40
2.0
  9
$STEPSIZE
 40
6.0
  9
$3DDWFPREC
 40
2.0
  9
$PSOLWIDTH
 40
0.25
  9
$PSOLHEIGHT
 40
4.0
  9
$LOFTANG1
 40
1.570796326794897
  9
$LOFTANG2
 40
1.570796326794897
  9
$LOFTMAG1
 40
0.0
  9
$LOFTMAG2
 40
0.0
  9
$LOFTPARAM
 70
     7
  9
$LOFTNORMALS
280
     1
  9
$LATITUDE
 40
37.795
  9
$LONGITUDE
 40
-122.394
  9
$NORTHDIRECTION
 40
0.0
  9
$TIMEZONE
 70
 -8000
  9
$LIGHTGLYPHDISPLAY
280
     1
  9
$TILEMODELIGHTSYNCH
280
     1
  9
$CMATERIAL
347
44
  9
$SOLIDHIST
280
     0
  9
$SHOWHIST
280
     1
  9
$DWFFRAME
280
     2
  9
$DGNFRAME
280
     2
  9
$REALWORLDSCALE
290
     1
  9
$INTERFERECOLOR
 62
   256
  9
$CSHADOW
280
     0
  9
$SHADOWPLANELOCATION
 40
0.0
  0
ENDSEC
  0
SECTION
  2
CLASSES
  0
CLASS
  1
ACDBDICTIONARYWDFLT
  2
AcDbDictionaryWithDefault
  3
ObjectDBX Classes
 90
        0
 91
        3
280
     0
281
     0
  0
CLASS
  1
VISUALSTYLE
  2
AcDbVisualStyle
  3
ObjectDBX Classes
 90
     4095
 91
        3
280
     0
281
     0
  0
CLASS
  1
MATERIAL
  2
AcDbMaterial
  3
ObjectDBX Classes
 90
     1153
 91
        3
280
     0
281
     0
  0
CLASS
  1
SCALE
  2
AcDbScale
  3
ObjectDBX Classes
 90
     1153
 91
        3
280
     0
281
     0
  0
CLASS
  1
TABLESTYLE
  2
AcDbTableStyle
  3
ObjectDBX Classes
 90
     4095
 91
        3
280
     0
281
     0
  0
CLASS
  1
MLEADERSTYLE
  2
AcDbMLeaderStyle
  3
ACDB_MLEADERSTYLE_CLASS
 90
     4095
 91
        3
280
     0
281
     0
  0
CLASS
  1
SUN
  2
AcDbSun
  3
SCENEOE
 90
     1153
 91
        3
280
     0
281
     0
  0
CLASS
  1
DICTIONARYVAR
  2
AcDbDictionaryVar
  3
ObjectDBX Classes
 90
        0
 91
        3
280
     0
281
     0
  0
CLASS
  1
CELLSTYLEMAP
  2
AcDbCellStyleMap
  3
ObjectDBX Classes
 90
     1152
 91
        3
280
     0
281
     0
  0
ENDSEC
  0
SECTION
  2
TABLES
  0
TABLE
  2
VPORT
  5
8
330
0
100
AcDbSymbolTable
 70
     1
  0
VPORT
  5
29
330
8
100
AcDbSymbolTableRecord
100
AcDbViewportTableRecord
  2
*Active
 70
     0
 10
0.0
 20
0.0
 11
1.0
 21
1.0
 12
10.42990654205607
 22
4.5
 13
0.0
 23
0.0
 14
0.5
 24
0.5
 15
0.5
 25
0.5
 16
0.0
 26
0.0
 36
1.0
 17
0.0
 27
0.0
 37
0.0
 40
9.0
 41
1.972972972850329
 42
50.0
 43
0.0
 44
0.0
 50
0.0
 51
0.0
 71
     0
 72
   100
 73
     1
 74
     3
 75
     0
 76
     0
 77
     0
 78
     0
281
     0
 65
     1
110
0.0
120
0.0
130
0.0
111
1.0
121
0.0
131
0.0
112
0.0
122
1.0
132
0.0
 79
     0
146
0.0
348
2F
 60
     3
 61
     5
292
     1
282
     1
141
0.0
142
0.0
 63
   250
361
5D
  0
ENDTAB
  0
TABLE
  2
LTYPE
  5
5
330
0
100
AcDbSymbolTable
 70
     1
  0
LTYPE
  5
14
330
5
100
AcDbSymbolTableRecord
100
AcDbLinetypeTableRecord
  2
ByBlock
 70
     0
  3

 72
    65
 73
     0
 40
0.0
  0
LTYPE
  5
15
330
5
100
AcDbSymbolTableRecord
100
AcDbLinetypeTableRecord
  2
ByLayer
 70
     0
  3

 72
    65
 73
     0
 40
0.0
  0
LTYPE
  5
16
330
5
100
AcDbSymbolTableRecord
100
AcDbLinetypeTableRecord
  2
Continuous
 70
     0
  3
Solid line
 72
    65
 73
     0
 40
0.0
  0
ENDTAB
  0
TABLE
  2
LAYER
  5
2
330
0
100
AcDbSymbolTable
 70
     2
  0
LAYER
  5
10
330
2
100
AcDbSymbolTableRecord
100
AcDbLayerTableRecord
  2
0
 70
     0
 62
     7
  6
Continuous
370
    -3
390
F
347
46
348
0
  0
LAYER
  5
5F
330
2
100
AcDbSymbolTableRecord
100
AcDbLayerTableRecord
  2
Layer 1
 70
     0
 62
     7
  6
Continuous
370
    -3
390
F
347
46
348
0
  0
ENDTAB
  0
TABLE
  2
STYLE
  5
3
330
0
100
AcDbSymbolTable
 70
     1
  0
STYLE
  5
11
330
3
100
AcDbSymbolTableRecord
100
AcDbTextStyleTableRecord
  2
Standard
 70
     0
 40
0.0
 41
1.0
 50
0.0
 71
     0
 42
0.2
  3
txt
  4

  0
ENDTAB
  0
TABLE
  2
VIEW
  5
6
330
0
100
AcDbSymbolTable
 70
     0
  0
ENDTAB
  0
TABLE
  2
UCS
  5
7
330
0
100
AcDbSymbolTable
 70
     0
  0
ENDTAB
  0
TABLE
  2
APPID
  5
9
330
0
100
AcDbSymbolTable
 70
     2
  0
APPID
  5
12
330
9
100
AcDbSymbolTableRecord
100
AcDbRegAppTableRecord
  2
ACAD
 70
     0
  0
APPID
  5
5E
330
9
100
AcDbSymbolTableRecord
100
AcDbRegAppTableRecord
  2
ODA
 70
     0
  0
ENDTAB
  0
TABLE
  2
DIMSTYLE
  5
A
330
0
100
AcDbSymbolTable
 70
     1
100
AcDbDimStyleTable
  0
DIMSTYLE
105
27
330
A
100
AcDbSymbolTableRecord
100
AcDbDimStyleTableRecord
  2
Standard
 70
     0
178
     0
340
11
  0
ENDTAB
  0
TABLE
  2
BLOCK_RECORD
  5
1
330
0
100
AcDbSymbolTable
 70
     1
  0
BLOCK_RECORD
  5
1F
330
1
100
AcDbSymbolTableRecord
100
AcDbBlockTableRecord
  2
*Model_Space
340
22
 70
     0
280
     1
281
     0
  0
BLOCK_RECORD
  5
1B
330
1
100
AcDbSymbolTableRecord
100
AcDbBlockTableRecord
  2
*Paper_Space
340
1E
 70
     0
280
     1
281
     0
  0
BLOCK_RECORD
  5
23
330
1
100
AcDbSymbolTableRecord
100
AcDbBlockTableRecord
  2
*Paper_Space0
340
26
 70
     0
280
     1
281
     0
  0
ENDTAB
  0
ENDSEC
  0
SECTION
  2
BLOCKS
  0
BLOCK
  5
20
330
1F
100
AcDbEntity
  8
0
100
AcDbBlockBegin
  2
*Model_Space
 70
     0
 10
0.0
 20
0.0
 30
0.0
  3
*Model_Space
  1

  0
ENDBLK
  5
21
330
1F
100
AcDbEntity
  8
0
100
AcDbBlockEnd
  0
BLOCK
  5
1C
330
1B
100
AcDbEntity
 67
     1
  8
0
100
AcDbBlockBegin
  2
*Paper_Space
 70
     0
 10
0.0
 20
0.0
 30
0.0
  3
*Paper_Space
  1

  0
ENDBLK
  5
1D
330
1B
100
AcDbEntity
 67
     1
  8
0
100
AcDbBlockEnd
  0
BLOCK
  5
24
330
23
100
AcDbEntity
  8
0
100
AcDbBlockBegin
  2
*Paper_Space0
 70
     0
 10
0.0
 20
0.0
 30
0.0
  3
*Paper_Space0
  1

  0
ENDBLK
  5
25
330
23
100
AcDbEntity
  8
0
100
AcDbBlockEnd
  0
ENDSEC
  0
SECTION
  2
ENTITIES
  0
LWPOLYLINE
  5
60
330
1F
100
AcDbEntity
  8
Layer 1
 62
   250
370
     9
100
AcDbPolyline
 90
        5
 70
     1
 43
0.0
 10
-10.24002362204724
 20
-0.7292204724409449
 10
-4.420543307086614
 20
-0.7292204724409449
 10
-4.420543307086614
 20
5.854393700787401
 10
-10.24002362204724
 20
5.854393700787401
 10
-10.24002362204724
 20
-0.7292204724409449
  0
LWPOLYLINE
  5
61
330
1F
100
AcDbEntity
  8
Layer 1
 62
     7
370
    18
100
AcDbPolyline
 90
       33
 70
     1
 43
0.0
 10
-7.806149606299212
 20
5.197696850393701
 10
-7.804334645669291
 20
5.201094488188977
 10
-7.79763779527559
 20
5.210066929133858
 10
-7.784173228346456
 20
5.222775590551181
 10
-7.762066929133859
 20
5.237377952755906
 10
-7.729425196850394
 20
5.25203937007874
 10
-7.684374015748031
 20
5.264921259842519
 10
-7.625027559055118
 20
5.274188976377952
 10
-7.549507874015748
 20
5.278
 10
-7.539342519685039
 20
5.277944881889764
 10
-7.512366141732284
 20
5.2771968503937
 10
-7.473846456692914
 20
5.274893700787402
 10
-7.429051181102362
 20
5.270161417322835
 10
-7.383251968503937
 20
5.26213779527559
 10
-7.341720472440945
 20
5.249952755905512
 10
-7.309724409448819
 20
5.232736220472441
 10
-7.292535433070866
 20
5.209622047244094
 10
-7.293098425196851
 20
5.206952755905512
 10
-7.296661417322834
 20
5.199795275590551
 10
-7.30601968503937
 20
5.189413385826771
 10
-7.323976377952756
 20
5.177074803149607
 10
-7.353342519685039
 20
5.164047244094488
 10
-7.396909448818898
 20
5.151602362204724
 10
-7.457488188976378
 20
5.141
 10
-7.537874015748032
 20
5.133515748031496
 10
-7.547555118110236
 20
5.133602362204725
 10
-7.573456692913386
 20
5.134385826771654
 10
-7.610877952755906
 20
5.136649606299213
 10
-7.655118110236221
 20
5.141185039370079
 10
-7.701464566929134
 20
5.148771653543307
 10
-7.745224409448819
 20
5.160192913385827
 10
-7.781685039370079
 20
5.176240157480315
 10
-7.806149606299212
 20
5.197696850393701
  0
LWPOLYLINE
  5
62
330
1F
100
AcDbEntity
  8
Layer 1
 62
     7
370
    18
100
AcDbPolyline
 90
       26
 70
     0
 43
0.0
 10
-7.292535433070866
 20
5.209622047244094
 10
-7.291850393700788
 20
5.185586614173229
 10
-7.290051181102362
 20
5.12201968503937
 10
-7.28753937007874
 20
5.031728346456693
 10
-7.284708661417323
 20
4.927531496062993
 10
-7.281948818897638
 20
4.822240157480315
 10
-7.279661417322835
 20
4.728661417322835
 10
-7.278240157480315
 20
4.659606299212599
 10
-7.27807874015748
 20
4.627889763779527
 10
-7.27901968503937
 20
4.62503937007874
 10
-7.283259842519685
 20
4.617425196850394
 10
-7.292933070866142
 20
4.60644094488189
 10
-7.310169291338583
 20
4.593488188976378
 10
-7.33709842519685
 20
4.57996062992126
 10
-7.375854330708662
 20
4.567255905511811
 10
-7.428562992125984
 20
4.556771653543307
 10
-7.497358267716535
 20
4.549909448818898
 10
-7.51011811023622
 20
4.549582677165354
 10
-7.543877952755905
 20
4.549492125984252
 10
-7.591854330708661
 20
4.550968503937008
 10
-7.647259842519685
 20
4.555346456692914
 10
-7.703314960629921
 20
4.56396062992126
 10
-7.753232283464567
 20
4.57813779527559
 10
-7.790232283464567
 20
4.599216535433071
 10
-7.807527559055118
 20
4.628527559055118
 10
-7.806149606299212
 20
5.197696850393701
  0
LWPOLYLINE
  5
63
330
1F
100
AcDbEntity
  8
Layer 1
 62
     7
370
    18
100
AcDbPolyline
 90
       19
 70
     0
 43
0.0
 10
-7.759129921259842
 20
4.580543307086614
 10
-7.760437007874016
 20
4.40953937007874
 10
-7.760283464566929
 20
4.407279527559055
 10
-7.758181102362204
 20
4.40103937007874
 10
-7.751669291338582
 20
4.391629921259843
 10
-7.738283464566929
 20
4.379854330708661
 10
-7.71555905511811
 20
4.36651968503937
 10
-7.681035433070866
 20
4.352444881889764
 10
-7.632248031496063
 20
4.338425196850394
 10
-7.566736220472441
 20
4.325279527559055
 10
-7.559433070866142
 20
4.324862204724409
 10
-7.539578740157481
 20
4.324614173228347
 10
-7.510275590551181
 20
4.326055118110236
 10
-7.474614173228346
 20
4.330685039370079
 10
-7.435688976377953
 20
4.340027559055118
 10
-7.396594488188977
 20
4.355582677165354
 10
-7.360429133858267
 20
4.378870078740158
 10
-7.330279527559055
 20
4.411397637795275
 10
-7.338110236220473
 20
4.574503937007874
  0
LWPOLYLINE
  5
64
330
1F
100
AcDbEntity
  8
Layer 1
 62
     7
370
    18
100
AcDbPolyline
 90
       33
 70
     0
 43
0.0
 10
-7.331657480314961
 20
4.439866141732283
 10
-7.324515748031496
 20
4.438303149606299
 10
-7.305748031496063
 20
4.433661417322835
 10
-7.279334645669292
 20
4.425996062992126
 10
-7.249248031496063
 20
4.415374015748031
 10
-7.219476377952756
 20
4.401854330708662
 10
-7.193996062992126
 20
4.385496062992126
 10
-7.176783464566929
 20
4.366366141732284
 10
-7.17182283464567
 20
4.34451968503937
 10
-7.173976377952756
 20
4.341370078740158
 10
-7.181633858267716
 20
4.332964566929133
 10
-7.196602362204724
 20
4.320885826771653
 10
-7.220688976377953
 20
4.306704724409449
 10
-7.255688976377953
 20
4.291992125984252
 10
-7.303413385826771
 20
4.278330708661417
 10
-7.365665354330709
 20
4.267287401574803
 10
-7.444248031496063
 20
4.260444881889764
 10
-7.460645669291338
 20
4.259342519685039
 10
-7.5046968503937
 20
4.257448818897638
 10
-7.5686968503937
 20
4.256889763779528
 10
-7.64494094488189
 20
4.259791338582677
 10
-7.725712598425197
 20
4.268279527559055
 10
-7.803314960629922
 20
4.28448031496063
 10
-7.87003937007874
 20
4.310515748031496
 10
-7.918173228346457
 20
4.348511811023622
 10
-7.91911811023622
 20
4.351314960629921
 10
-7.920003937007874
 20
4.359007874015748
 10
-7.917905511811024
 20
4.370507874015748
 10
-7.909889763779527
 20
4.384740157480315
 10
-7.893035433070867
 20
4.400622047244094
 10
-7.864417322834646
 20
4.417074803149606
 10
-7.821102362204725
 20
4.433023622047244
 10
-7.760165354330709
 20
4.447385826771654
  0
LWPOLYLINE
  5
65
330
1F
100
AcDbEntity
  8
Layer 1
 62
     7
370
    18
100
AcDbPolyline
 90
       19
 70
     0
 43
0.0
 10
-7.918173228346457
 20
4.348511811023622
 10
-7.927948818897637
 20
3.7015
 10
-7.926972440944882
 20
3.697968503937008
 10
-7.921051181102362
 20
3.688476377952756
 10
-7.905704724409449
 20
3.674700787401575
 10
-7.876444881889764
 20
3.658299212598425
 10
-7.828791338582677
 20
3.64094094488189
 10
-7.758251968503937
 20
3.624295275590551
 10
-7.660350393700788
 20
3.610027559055118
 10
-7.530594488188976
 20
3.599803149606299
 10
-7.518374015748032
 20
3.600074803149606
 10
-7.485488188976378
 20
3.601685039370079
 10
-7.437582677165354
 20
3.605826771653543
 10
-7.380314960629922
 20
3.613688976377953
 10
-7.319334645669291
 20
3.626468503937008
 10
-7.260299212598425
 20
3.645350393700788
 10
-7.208858267716535
 20
3.671527559055118
 10
-7.170669291338583
 20
3.706196850393701
 10
-7.17182283464567
 20
4.34451968503937
  0
LWPOLYLINE
  5
66
330
1F
100
AcDbEntity
  8
Layer 1
 62
     7
370
    18
100
AcDbPolyline
 90
       49
 70
     0
 43
0.0
 10
-7.171149606299212
 20
3.968177165354331
 10
-7.142122047244094
 20
3.964736220472441
 10
-7.065437007874015
 20
3.953535433070866
 10
-6.956696850393701
 20
3.933248031496063
 10
-6.831492125984252
 20
3.902547244094488
 10
-6.705429133858268
 20
3.860110236220472
 10
-6.594102362204724
 20
3.804614173228346
 10
-6.513110236220473
 20
3.734736220472441
 10
-6.478051181102362
 20
3.649145669291339
 10
-6.476673228346456
 20
3.641937007874016
 10
-6.473870078740157
 20
3.62246062992126
 10
-6.471657480314961
 20
3.593956692913386
 10
-6.47203937007874
 20
3.559649606299212
 10
-6.477023622047244
 20
3.522779527559055
 10
-6.488622047244094
 20
3.48657874015748
 10
-6.508838582677165
 20
3.454279527559055
 10
-6.539681102362205
 20
3.429110236220473
 10
-6.553740157480315
 20
3.41955905511811
 10
-6.596767716535433
 20
3.394334645669292
 10
-6.670031496062992
 20
3.358594488188976
 10
-6.774803149606299
 20
3.31748031496063
 10
-6.912354330708661
 20
3.276149606299213
 10
-7.083956692913386
 20
3.239748031496063
 10
-7.29088188976378
 20
3.213429133858268
 10
-7.534397637795275
 20
3.202342519685039
 10
-7.570448818897638
 20
3.202240157480315
 10
-7.667748031496063
 20
3.204086614173228
 10
-7.810015748031496
 20
3.211118110236221
 10
-7.980976377952756
 20
3.226574803149606
 10
-8.164346456692913
 20
3.253685039370079
 10
-8.343846456692914
 20
3.295692913385827
 10
-8.503200787401575
 20
3.355830708661417
 10
-8.626125984251969
 20
3.437334645669291
 10
-8.628956692913386
 20
3.440885826771654
 10
-8.636031496062992
 20
3.451641732283464
 10
-8.645224409448819
 20
3.469740157480315
 10
-8.654405511811024
 20
3.495326771653543
 10
-8.661452755905511
 20
3.528547244094488
 10
-8.664236220472441
 20
3.569547244094488
 10
-8.660633858267717
 20
3.618464566929134
 10
-8.648515748031496
 20
3.675444881889764
 10
-8.643917322834646
 20
3.685700787401575
 10
-8.62632283464567
 20
3.713161417322834
 10
-8.590035433070867
 20
3.752874015748032
 10
-8.529366141732284
 20
3.799877952755906
 10
-8.438614173228347
 20
3.849216535433071
 10
-8.312086614173229
 20
3.895937007874016
 10
-8.144090551181103
 20
3.93507874015748
 10
-7.928929133858268
 20
3.961688976377953
  0
LWPOLYLINE
  5
67
330
1F
100
AcDbEntity
  8
Layer 1
 62
     7
370
    18
100
AcDbPolyline
 90
       25
 70
     0
 43
0.0
 10
-8.648515748031496
 20
3.675444881889764
 10
-8.648783464566929
 20
3.667818897637795
 10
-8.644976377952755
 20
3.646779527559055
 10
-8.630181102362204
 20
3.615086614173229
 10
-8.59748031496063
 20
3.575503937007874
 10
-8.539956692913385
 20
3.530787401574803
 10
-8.450692913385828
 20
3.483704724409449
 10
-8.322775590551181
 20
3.437011811023622
 10
-8.149291338582676
 20
3.393468503937008
 10
-8.11578346456693
 20
3.389181102362205
 10
-8.023003937007873
 20
3.379141732283465
 10
-7.882562992125984
 20
3.367602362204724
 10
-7.706086614173229
 20
3.358795275590551
 10
-7.505181102362204
 20
3.356972440944882
 10
-7.291464566929134
 20
3.366370078740157
 10
-7.076555118110236
 20
3.391232283464567
 10
-6.872066929133858
 20
3.435803149606299
 10
-6.857007874015748
 20
3.438358267716536
 10
-6.816944881889764
 20
3.446622047244094
 10
-6.759527559055118
 20
3.461484251968504
 10
-6.692425196850394
 20
3.483838582677165
 10
-6.623295275590551
 20
3.51457874015748
 10
-6.559791338582677
 20
3.554602362204724
 10
-6.509582677165354
 20
3.604799212598425
 10
-6.480322834645669
 20
3.666062992125984
  0
LWPOLYLINE
  5
68
330
1F
100
AcDbEntity
  8
Layer 1
 62
     7
370
    18
100
AcDbPolyline
 90
       33
 70
     0
 43
0.0
 10
-8.614200787401575
 20
3.426649606299212
 10
-8.614748031496063
 20
3.415055118110236
 10
-8.615842519685039
 20
3.384031496062992
 10
-8.616653543307086
 20
3.339200787401575
 10
-8.616358267716535
 20
3.286200787401575
 10
-8.614125984251968
 20
3.230649606299213
 10
-8.60913779527559
 20
3.178188976377953
 10
-8.600562992125985
 20
3.13444094488189
 10
-8.587574803149606
 20
3.105035433070866
 10
-8.582405511811023
 20
3.096929133858268
 10
-8.564708661417322
 20
3.074988188976378
 10
-8.531204724409449
 20
3.042763779527559
 10
-8.478622047244095
 20
3.003818897637795
 10
-8.403677165354331
 20
2.961704724409449
 10
-8.303094488188977
 20
2.91998031496063
 10
-8.173594488188977
 20
2.882208661417323
 10
-8.011901574803149
 20
2.851937007874016
 10
-7.96240157480315
 20
2.846011811023622
 10
-7.828948818897638
 20
2.834031496062992
 10
-7.63411811023622
 20
2.824681102362205
 10
-7.400476377952756
 20
2.826657480314961
 10
-7.150598425196851
 20
2.848645669291339
 10
-6.90705905511811
 20
2.899334645669291
 10
-6.692421259842519
 20
2.987425196850394
 10
-6.529267716535433
 20
3.121594488188976
 10
-6.528173228346457
 20
3.13201968503937
 10
-6.525311023622047
 20
3.160342519685039
 10
-6.521295275590552
 20
3.202125984251968
 10
-6.516759842519685
 20
3.252948818897638
 10
-6.512318897637796
 20
3.308374015748031
 10
-6.50859842519685
 20
3.363968503937008
 10
-6.506220472440945
 20
3.415307086614173
 10
-6.505811023622047
 20
3.457952755905512
  0
LWPOLYLINE
  5
69
330
1F
100
AcDbEntity
  8
Layer 1
 62
     7
370
    18
100
AcDbPolyline
 90
       67
 70
     0
 43
0.0
 10
-6.513763779527559
 20
3.289531496062992
 10
-6.506090551181102
 20
3.285854330708661
 10
-6.486070866141732
 20
3.274972440944882
 10
-6.458192913385827
 20
3.25711811023622
 10
-6.426944881889764
 20
3.232523622047244
 10
-6.396822834645669
 20
3.201425196850394
 10
-6.372311023622047
 20
3.164047244094488
 10
-6.357905511811023
 20
3.120625984251968
 10
-6.358094488188977
 20
3.071389763779528
 10
-6.357145669291339
 20
3.066204724409449
 10
-6.35598031496063
 20
3.051728346456693
 10
-6.357098425196851
 20
3.029594488188976
 10
-6.363007874015748
 20
3.001433070866142
 10
-6.376224409448819
 20
2.968874015748031
 10
-6.399251968503937
 20
2.93353937007874
 10
-6.434602362204725
 20
2.897066929133858
 10
-6.484779527559055
 20
2.86107874015748
 10
-6.495421259842519
 20
2.855192913385827
 10
-6.526271653543307
 20
2.83940157480315
 10
-6.575732283464567
 20
2.816492125984252
 10
-6.642192913385827
 20
2.789255905511811
 10
-6.724051181102362
 20
2.760488188976378
 10
-6.819700787401575
 20
2.732976377952756
 10
-6.92753937007874
 20
2.709515748031496
 10
-7.04596062992126
 20
2.692897637795276
 10
-7.075066929133858
 20
2.689307086614173
 10
-7.158244094488189
 20
2.680437007874016
 10
-7.289291338582677
 20
2.669149606299213
 10
-7.462003937007874
 20
2.658303149606299
 10
-7.670169291338583
 20
2.650751968503937
 10
-7.907586614173228
 20
2.649354330708662
 10
-8.168047244094488
 20
2.656972440944882
 10
-8.445346456692914
 20
2.67646062992126
 10
-8.481791338582678
 20
2.678318897637795
 10
-8.582334645669292
 20
2.686275590551181
 10
-8.733771653543307
 20
2.70390157480315
 10
-8.922905511811024
 20
2.734779527559055
 10
-9.136535433070867
 20
2.78248031496063
 10
-9.361472440944882
 20
2.85057874015748
 10
-9.584507874015747
 20
2.942649606299212
 10
-9.792448818897638
 20
3.062267716535433
 10
-9.798972440944882
 20
3.066929133858268
 10
-9.816433070866141
 20
3.079377952755905
 10
-9.84166535433071
 20
3.097311023622047
 10
-9.8715
 20
3.118425196850394
 10
-9.90276377952756
 20
3.140413385826772
 10
-9.932295275590551
 20
3.160976377952756
 10
-9.956925196850394
 20
3.177811023622047
 10
-9.973484251968504
 20
3.188610236220472
 10
-9.962330708661417
 20
3.267177165354331
 10
-8.894023622047245
 20
3.420866141732283
 10
-8.891937007874017
 20
3.420157480314961
 10
-8.886035433070866
 20
3.418023622047244
 10
-8.876854330708662
 20
3.414452755905512
 10
-8.864917322834646
 20
3.40942125984252
 10
-8.850767716535433
 20
3.40292125984252
 10
-8.834929133858267
 20
3.394937007874016
 10
-8.81794094488189
 20
3.385452755905512
 10
-8.800330708661418
 20
3.374448818897638
 10
-8.795043307086614
 20
3.372629921259843
 10
-8.78055905511811
 20
3.367996062992126
 10
-8.758948818897638
 20
3.361779527559055
 10
-8.732287401574803
 20
3.355208661417323
 10
-8.70264566929134
 20
3.349511811023622
 10
-8.672090551181102
 20
3.345929133858268
 10
-8.642700787401575
 20
3.345685039370079
 10
-8.61653937007874
 20
3.350011811023622
  0
LWPOLYLINE
  5
6A
330
1F
100
AcDbEntity
  8
Layer 1
 62
     7
370
    18
100
AcDbPolyline
 90
       33
 70
     0
 43
0.0
 10
-9.962330708661417
 20
3.267177165354331
 10
-9.951066929133859
 20
3.25803937007874
 10
-9.920259842519686
 20
3.233551181102362
 10
-9.874377952755905
 20
3.198098425196851
 10
-9.817897637795276
 20
3.156074803149606
 10
-9.75528346456693
 20
3.111858267716535
 10
-9.691015748031496
 20
3.069838582677165
 10
-9.62955905511811
 20
3.034409448818898
 10
-9.575389763779528
 20
3.009948818897638
 10
-9.550976377952756
 20
3.000547244094488
 10
-9.480267716535433
 20
2.97542125984252
 10
-9.367047244094488
 20
2.939181102362205
 10
-9.215110236220472
 20
2.896444881889764
 10
-9.028240157480315
 20
2.851826771653543
 10
-8.810228346456693
 20
2.809944881889764
 10
-8.564870078740157
 20
2.775409448818898
 10
-8.295944881889763
 20
2.752838582677165
 10
-8.248082677165355
 20
2.750291338582677
 10
-8.117035433070866
 20
2.745188976377953
 10
-7.921614173228346
 20
2.741334645669292
 10
-7.680633858267717
 20
2.742531496062992
 10
-7.41290157480315
 20
2.752586614173228
 10
-7.137232283464567
 20
2.775299212598425
 10
-6.87244094488189
 20
2.814472440944882
 10
-6.637334645669291
 20
2.873917322834646
 10
-6.626940944881889
 20
2.87757874015748
 10
-6.5991968503937
 20
2.888342519685039
 10
-6.559244094488189
 20
2.905862204724409
 10
-6.512236220472441
 20
2.929807086614173
 10
-6.463314960629921
 20
2.959834645669291
 10
-6.417625984251968
 20
2.995606299212598
 10
-6.380318897637795
 20
3.036779527559055
 10
-6.356543307086614
 20
3.083023622047244
  0
LWPOLYLINE
  5
6B
330
1F
100
AcDbEntity
  8
Layer 1
 62
     7
370
    18
100
AcDbPolyline
 90
       33
 70
     0
 43
0.0
 10
-8.845665354330709
 20
2.720968503937008
 10
-8.848649606299212
 20
2.703531496062992
 10
-8.858870078740157
 20
2.654724409448819
 10
-8.878236220472441
 20
2.579803149606299
 10
-8.908657480314961
 20
2.484023622047244
 10
-8.95203937007874
 20
2.372633858267716
 10
-9.010291338582677
 20
2.250897637795275
 10
-9.085326771653543
 20
2.124062992125984
 10
-9.179047244094487
 20
1.997385826771654
 10
-9.184295275590552
 20
1.993791338582677
 10
-9.199807086614173
 20
1.986066929133858
 10
-9.225240157480314
 20
1.978807086614173
 10
-9.260251968503937
 20
1.976618110236221
 10
-9.304492125984252
 20
1.984082677165354
 10
-9.35761811023622
 20
2.005807086614173
 10
-9.419283464566929
 20
2.046381889763779
 10
-9.48914566929134
 20
2.110405511811023
 10
-9.497799212598425
 20
2.117708661417323
 10
-9.521968503937007
 20
2.141106299212598
 10
-9.55898031496063
 20
2.182846456692913
 10
-9.606149606299212
 20
2.245157480314961
 10
-9.660799212598425
 20
2.330287401574803
 10
-9.720248031496062
 20
2.440468503937008
 10
-9.781814960629921
 20
2.577944881889764
 10
-9.84282283464567
 20
2.744956692913386
 10
-9.845692913385827
 20
2.755102362204724
 10
-9.8533031496063
 20
2.783354330708661
 10
-9.86415748031496
 20
2.826413385826771
 10
-9.87675590551181
 20
2.880996062992126
 10
-9.889606299212598
 20
2.943811023622047
 10
-9.90120472440945
 20
3.011570866141732
 10
-9.910062992125985
 20
3.08098031496063
 10
-9.91467716535433
 20
3.148751968503937
  0
LWPOLYLINE
  5
6C
330
1F
100
AcDbEntity
  8
Layer 1
 62
     7
370
    18
100
AcDbPolyline
 90
        9
 70
     0
 43
0.0
 10
-9.792448818897638
 20
3.062267716535433
 10
-9.790212598425196
 20
3.03307874015748
 10
-9.780822834645669
 20
2.952720472440945
 10
-9.760259842519686
 20
2.832
 10
-9.7245
 20
2.681736220472441
 10
-9.669527559055117
 20
2.512736220472441
 10
-9.591311023622048
 20
2.335814960629921
 10
-9.485838582677165
 20
2.161783464566929
 10
-9.349086614173228
 20
2.001448818897638
  0
LWPOLYLINE
  5
6D
330
1F
100
AcDbEntity
  8
Layer 1
 62
     7
370
    18
100
AcDbPolyline
 90
       27
 70
     0
 43
0.0
 10
-8.445346456692914
 20
2.67646062992126
 10
-8.390929133858268
 20
0.9917086614173228
 10
-8.39244094488189
 20
0.984496062992126
 10
-8.393641732283465
 20
0.9646023622047244
 10
-8.389511811023622
 20
0.9346653543307086
 10
-8.375043307086614
 20
0.8973031496062992
 10
-8.345220472440944
 20
0.8551496062992126
 10
-8.295027559055118
 20
0.8108307086614174
 10
-8.21946062992126
 20
0.7669685039370079
 10
-8.113496062992127
 20
0.7262007874015748
 10
-8.074169291338583
 20
0.7158228346456693
 10
-7.966393700787401
 20
0.6921023622047244
 10
-7.805476377952756
 20
0.6661574803149606
 10
-7.606736220472441
 20
0.6491102362204725
 10
-7.38548031496063
 20
0.6520826771653543
 10
-7.157015748031496
 20
0.6861929133858268
 10
-6.936661417322835
 20
0.7625629921259842
 10
-6.739720472440945
 20
0.8923149606299212
 10
-6.738196850393701
 20
0.902011811023622
 10
-6.734200787401575
 20
0.9331968503937008
 10
-6.728570866141732
 20
0.9890236220472441
 10
-6.722165354330708
 20
1.072645669291339
 10
-6.715830708661417
 20
1.187208661417323
 10
-6.710413385826771
 20
1.335866141732283
 10
-6.706771653543307
 20
1.521763779527559
 10
-6.705744094488189
 20
1.74805905511811
 10
-6.684956692913386
 20
2.773594488188976
  0
LWPOLYLINE
  5
6E
330
1F
100
AcDbEntity
  8
Layer 1
 62
     7
370
    18
100
AcDbPolyline
 90
       58
 70
     1
 43
0.0
 10
-7.33940157480315
 20
5.106566929133859
 10
-7.334708661417323
 20
5.105314960629921
 10
-7.321602362204724
 20
5.101696850393701
 10
-7.301535433070866
 20
5.09592125984252
 10
-7.27596062992126
 20
5.088185039370079
 10
-7.246326771653544
 20
5.078692913385827
 10
-7.214094488188977
 20
5.067657480314961
 10
-7.180716535433071
 20
5.055275590551181
 10
-7.147641732283464
 20
5.041751968503937
 10
-7.143027559055118
 20
5.039893700787402
 10
-7.130314960629922
 20
5.034267716535433
 10
-7.111181102362205
 20
5.024787401574804
 10
-7.087318897637795
 20
5.011366141732283
 10
-7.060405511811024
 20
4.993921259842519
 10
-7.032133858267716
 20
4.972366141732284
 10
-7.004181102362205
 20
4.94661811023622
 10
-6.978240157480315
 20
4.916594488188976
 10
-6.868314960629921
 20
4.777208661417323
 10
-6.871149606299213
 20
4.775531496062992
 10
-6.879720472440945
 20
4.771507874015748
 10
-6.894133858267717
 20
4.766645669291338
 10
-6.914488188976378
 20
4.762448818897638
 10
-6.940885826771654
 20
4.760433070866141
 10
-6.973433070866141
 20
4.762106299212598
 10
-7.012236220472441
 20
4.768972440944882
 10
-7.057389763779527
 20
4.782543307086614
 10
-7.059311023622048
 20
4.78546062992126
 10
-7.065015748031496
 20
4.793570866141732
 10
-7.07440157480315
 20
4.805909448818897
 10
-7.087374015748032
 20
4.82151968503937
 10
-7.103826771653543
 20
4.839437007874015
 10
-7.123673228346457
 20
4.858700787401575
 10
-7.146807086614174
 20
4.878350393700788
 10
-7.173129921259843
 20
4.897425196850394
 10
-7.179062992125984
 20
4.899649606299213
 10
-7.195244094488189
 20
4.90551968503937
 10
-7.219244094488189
 20
4.913846456692913
 10
-7.248633858267716
 20
4.923433070866142
 10
-7.280988188976378
 20
4.933082677165355
 10
-7.313877952755906
 20
4.94159842519685
 10
-7.344874015748031
 20
4.947783464566929
 10
-7.371551181102363
 20
4.950448818897637
 10
-7.374858267716536
 20
4.951354330708662
 10
-7.383429133858268
 20
4.954425196850393
 10
-7.395228346456693
 20
4.960192913385827
 10
-7.408232283464567
 20
4.969185039370079
 10
-7.420409448818898
 20
4.981933070866142
 10
-7.429728346456693
 20
4.998972440944882
 10
-7.434165354330709
 20
5.020826771653543
 10
-7.431685039370079
 20
5.048031496062992
 10
-7.431271653543307
 20
5.051188976377952
 10
-7.42944094488189
 20
5.059377952755906
 10
-7.425314960629922
 20
5.070677165354331
 10
-7.418011811023622
 20
5.083165354330709
 10
-7.406649606299212
 20
5.094921259842519
 10
-7.390350393700787
 20
5.10401968503937
 10
-7.368228346456693
 20
5.108543307086614
 10
-7.33940157480315
 20
5.106566929133859
  0
LWPOLYLINE
  5
6F
330
1F
100
AcDbEntity
  8
Layer 1
 62
     7
370
    18
100
AcDbPolyline
 90
        4
 70
     1
 43
0.0
 10
-6.093783464566929
 20
5.169948818897637
 10
-6.108566929133858
 20
5.196811023622047
 10
-6.123338582677166
 20
5.16994094488189
 10
-6.093783464566929
 20
5.169948818897637
  0
LWPOLYLINE
  5
70
330
1F
100
AcDbEntity
  8
Layer 1
 62
     7
370
    18
100
AcDbPolyline
 90
        4
 70
     1
 43
0.0
 10
-6.092598425196851
 20
0.8173740157480315
 10
-6.107370078740158
 20
0.7905
 10
-6.122153543307086
 20
0.8173661417322835
 10
-6.092598425196851
 20
0.8173740157480315
  0
LWPOLYLINE
  5
71
330
1F
100
AcDbEntity
  8
Layer 1
 62
     7
370
    18
100
AcDbPolyline
 90
        2
 70
     0
 43
0.0
 10
-6.110149606299212
 20
5.205767716535433
 10
-6.108944881889764
 20
0.7815472440944882
  0
LWPOLYLINE
  5
72
330
1F
100
AcDbEntity
  8
Layer 1
 62
     7
370
     9
100
AcDbPolyline
 90
        7
 70
     1
 43
0.0
 10
-5.914720472440945
 20
2.778011811023622
 10
-5.880448818897638
 20
2.778011811023622
 10
-5.880448818897638
 20
3.115228346456693
 10
-5.962716535433071
 20
3.106405511811023
 10
-5.962716535433071
 20
3.076511811023622
 10
-5.914720472440945
 20
3.076511811023622
 10
-5.914720472440945
 20
2.778011811023622
  0
LWPOLYLINE
  5
73
330
1F
100
AcDbEntity
  8
Layer 1
 62
     7
370
     9
100
AcDbPolyline
 90
        4
 70
     1
 43
0.0
 10
-5.651248031496063
 20
3.07405905511811
 10
-5.651248031496063
 20
2.881425196850394
 10
-5.778578740157481
 20
2.881425196850394
 10
-5.651248031496063
 20
3.07405905511811
  0
LWPOLYLINE
  5
74
330
1F
100
AcDbEntity
  8
Layer 1
 62
     7
370
     9
100
AcDbPolyline
 90
       11
 70
     1
 43
0.0
 10
-5.615492125984252
 20
2.84613779527559
 10
-5.573393700787402
 20
2.84613779527559
 10
-5.573393700787402
 20
2.881425196850394
 10
-5.615492125984252
 20
2.881425196850394
 10
-5.615984251968504
 20
3.111307086614173
 10
-5.663976377952756
 20
3.111307086614173
 10
-5.839303149606299
 20
2.84613779527559
 10
-5.651248031496063
 20
2.84613779527559
 10
-5.651248031496063
 20
2.778011811023622
 10
-5.615492125984252
 20
2.778011811023622
 10
-5.615492125984252
 20
2.84613779527559
  0
LWPOLYLINE
  5
75
330
1F
100
AcDbEntity
  8
Layer 1
 62
     7
370
     9
100
AcDbPolyline
 90
       84
 70
     1
 43
0.0
 10
-5.386555118110236
 20
3.072590551181102
 10
-5.38090157480315
 20
3.068744094488189
 10
-5.375629921259843
 20
3.064377952755906
 10
-5.370740157480315
 20
3.059492125984252
 10
-5.366232283464567
 20
3.054082677165354
 10
-5.362106299212599
 20
3.04815748031496
 10
-5.358362204724409
 20
3.041708661417323
 10
-5.355
 20
3.034740157480315
 10
-5.35201968503937
 20
3.027248031496063
 10
-5.348692913385827
 20
3.017311023622047
 10
-5.345807086614173
 20
3.007224409448819
 10
-5.343366141732283
 20
2.996996062992126
 10
-5.341370078740158
 20
2.986625984251968
 10
-5.339814960629921
 20
2.976106299212598
 10
-5.338708661417323
 20
2.965444881889764
 10
-5.33803937007874
 20
2.954633858267717
 10
-5.337818897637796
 20
2.943681102362205
 10
-5.339291338582677
 20
2.919413385826771
 10
-5.340988188976378
 20
2.906236220472441
 10
-5.343208661417322
 20
2.893787401574803
 10
-5.345948818897638
 20
2.882066929133858
 10
-5.349208661417323
 20
2.87107874015748
 10
-5.352988188976378
 20
2.860811023622047
 10
-5.357287401574803
 20
2.851271653543307
 10
-5.362110236220472
 20
2.84246062992126
 10
-5.367452755905512
 20
2.834374015748032
 10
-5.372326771653543
 20
2.828283464566929
 10
-5.37746062992126
 20
2.823007874015748
 10
-5.382854330708661
 20
2.818543307086614
 10
-5.388511811023622
 20
2.814889763779528
 10
-5.394425196850394
 20
2.812051181102362
 10
-5.400602362204724
 20
2.81001968503937
 10
-5.40703937007874
 20
2.808803149606299
 10
-5.413736220472441
 20
2.808397637795276
 10
-5.421208661417323
 20
2.808799212598425
 10
-5.42832283464567
 20
2.810003937007874
 10
-5.435074803149607
 20
2.812015748031496
 10
-5.441464566929134
 20
2.814826771653543
 10
-5.447496062992126
 20
2.818444881889764
 10
-5.453169291338583
 20
2.822866141732284
 10
-5.45848031496063
 20
2.828090551181103
 10
-5.463429133858268
 20
2.834122047244095
 10
-5.467535433070866
 20
2.840070866141732
 10
-5.471271653543307
 20
2.84638188976378
 10
-5.474641732283464
 20
2.853062992125984
 10
-5.477641732283464
 20
2.860110236220472
 10
-5.480291338582677
 20
2.867389763779527
 10
-5.482602362204724
 20
2.874755905511811
 10
-5.484574803149607
 20
2.882212598425197
 10
-5.486212598425197
 20
2.889767716535433
 10
-5.490374015748031
 20
2.919173228346457
 10
-5.491594488188976
 20
2.951929133858268
 10
-5.491259842519685
 20
2.961732283464567
 10
-5.490248031496063
 20
2.972649606299213
 10
-5.488566929133858
 20
2.984681102362205
 10
-5.486212598425197
 20
2.997842519685039
 10
-5.484590551181102
 20
3.005303149606299
 10
-5.482661417322834
 20
3.012728346456693
 10
-5.480425196850394
 20
3.020125984251969
 10
-5.477881889763779
 20
3.0275
 10
-5.474992125984252
 20
3.034661417322835
 10
-5.471700787401574
 20
3.04146062992126
 10
-5.468007874015748
 20
3.047893700787402
 10
-5.46392125984252
 20
3.053952755905512
 10
-5.459425196850393
 20
3.059551181102362
 10
-5.454503937007874
 20
3.064562992125984
 10
-5.449153543307086
 20
3.068992125984252
 10
-5.443370078740157
 20
3.072838582677165
 10
-5.440299212598426
 20
3.074503937007874
 10
-5.437090551181102
 20
3.075944881889764
 10
-5.433744094488189
 20
3.077165354330709
 10
-5.430263779527559
 20
3.078165354330709
 10
-5.426641732283464
 20
3.07894094488189
 10
-5.422885826771654
 20
3.079496062992126
 10
-5.418988188976378
 20
3.079830708661417
 10
-5.414956692913385
 20
3.07994094488189
 10
-5.410925196850394
 20
3.079826771653543
 10
-5.407027559055118
 20
3.07948031496063
 10
-5.403271653543307
 20
3.078909448818897
 10
-5.399653543307086
 20
3.078102362204724
 10
-5.396173228346457
 20
3.077070866141732
 10
-5.392826771653543
 20
3.075807086614173
 10
-5.389622047244094
 20
3.074314960629921
 10
-5.386555118110236
 20
3.072590551181102
  0
LWPOLYLINE
  5
76
330
1F
100
AcDbEntity
  8
Layer 1
 62
     7
370
     9
100
AcDbPolyline
 90
       65
 70
     1
 43
0.0
 10
-5.413248031496063
 20
2.773590551181103
 10
-5.398948818897638
 20
2.7745
 10
-5.38555905511811
 20
2.777224409448819
 10
-5.373082677165354
 20
2.781763779527559
 10
-5.361515748031496
 20
2.78811811023622
 10
-5.350858267716536
 20
2.796287401574803
 10
-5.341110236220472
 20
2.806267716535433
 10
-5.332275590551181
 20
2.818066929133858
 10
-5.324346456692913
 20
2.831673228346457
 10
-5.318787401574803
 20
2.843555118110236
 10
-5.313964566929134
 20
2.856094488188976
 10
-5.309885826771653
 20
2.869291338582677
 10
-5.306547244094488
 20
2.883145669291339
 10
-5.303948818897638
 20
2.897661417322835
 10
-5.302090551181102
 20
2.912830708661417
 10
-5.300976377952756
 20
2.928657480314961
 10
-5.300606299212599
 20
2.945137795275591
 10
-5.300976377952756
 20
2.961625984251969
 10
-5.302090551181102
 20
2.97746062992126
 10
-5.303948818897638
 20
2.992633858267717
 10
-5.306547244094488
 20
3.007149606299213
 10
-5.309885826771653
 20
3.021003937007874
 10
-5.313964566929134
 20
3.034200787401575
 10
-5.318787401574803
 20
3.046736220472441
 10
-5.324346456692913
 20
3.058614173228346
 10
-5.332275590551181
 20
3.072228346456693
 10
-5.341110236220472
 20
3.084027559055118
 10
-5.350858267716536
 20
3.094011811023622
 10
-5.361515748031496
 20
3.102185039370079
 10
-5.373082677165354
 20
3.10853937007874
 10
-5.38555905511811
 20
3.11307874015748
 10
-5.398948818897638
 20
3.115803149606299
 10
-5.413248031496063
 20
3.116712598425197
 10
-5.427543307086614
 20
3.115803149606299
 10
-5.440929133858268
 20
3.11307874015748
 10
-5.453405511811024
 20
3.10853937007874
 10
-5.464968503937008
 20
3.102185039370079
 10
-5.475625984251969
 20
3.094011811023622
 10
-5.485370078740157
 20
3.084027559055118
 10
-5.494200787401574
 20
3.072228346456693
 10
-5.502125984251968
 20
3.058614173228346
 10
-5.507692913385827
 20
3.046736220472441
 10
-5.51251968503937
 20
3.034200787401575
 10
-5.516602362204725
 20
3.021003937007874
 10
-5.51994094488189
 20
3.007149606299213
 10
-5.52253937007874
 20
2.992633858267717
 10
-5.524393700787401
 20
2.97746062992126
 10
-5.525507874015748
 20
2.961625984251969
 10
-5.525877952755906
 20
2.945137795275591
 10
-5.525507874015748
 20
2.928657480314961
 10
-5.524393700787401
 20
2.912830708661417
 10
-5.52253937007874
 20
2.897661417322835
 10
-5.51994094488189
 20
2.883145669291339
 10
-5.516602362204725
 20
2.869291338582677
 10
-5.51251968503937
 20
2.856094488188976
 10
-5.507692913385827
 20
2.843555118110236
 10
-5.502125984251968
 20
2.831673228346457
 10
-5.494200787401574
 20
2.818066929133858
 10
-5.485370078740157
 20
2.806267716535433
 10
-5.475625984251969
 20
2.796287401574803
 10
-5.464968503937008
 20
2.78811811023622
 10
-5.453405511811024
 20
2.781763779527559
 10
-5.440929133858268
 20
2.777224409448819
 10
-5.427543307086614
 20
2.7745
 10
-5.413248031496063
 20
2.773590551181103
  0
LWPOLYLINE
  5
77
330
1F
100
AcDbEntity
  8
Layer 1
 62
     7
370
     9
100
AcDbPolyline
 90
      155
 70
     1
 43
0.0
 10
-4.966129921259842
 20
2.778992125984252
 10
-4.931846456692913
 20
2.778992125984252
 10
-4.931846456692913
 20
2.913771653543307
 10
-4.932125984251969
 20
2.922724409448819
 10
-4.932964566929134
 20
2.931251968503937
 10
-4.934358267716536
 20
2.939358267716536
 10
-4.936311023622047
 20
2.947047244094488
 10
-4.938826771653543
 20
2.954311023622047
 10
-4.941897637795275
 20
2.961153543307087
 10
-4.945527559055118
 20
2.967574803149606
 10
-4.949716535433071
 20
2.973574803149606
 10
-4.952055118110236
 20
2.97644094488189
 10
-4.954535433070866
 20
2.979165354330709
 10
-4.957165354330709
 20
2.981744094488189
 10
-4.95994094488189
 20
2.984173228346457
 10
-4.962862204724409
 20
2.98646062992126
 10
-4.965925196850394
 20
2.988602362204724
 10
-4.969133858267717
 20
2.99059842519685
 10
-4.972488188976378
 20
2.992452755905512
 10
-4.976055118110236
 20
2.99411811023622
 10
-4.979897637795276
 20
2.99555905511811
 10
-4.984015748031496
 20
2.996779527559055
 10
-4.988409448818897
 20
2.997775590551181
 10
-4.99307874015748
 20
2.998551181102362
 10
-4.998023622047244
 20
2.999106299212599
 10
-5.003240157480315
 20
2.99944094488189
 10
-5.008732283464567
 20
2.999551181102362
 10
-5.014279527559055
 20
2.999358267716536
 10
-5.019645669291338
 20
2.998787401574803
 10
-5.024838582677165
 20
2.997830708661418
 10
-5.029850393700787
 20
2.996492125984252
 10
-5.034688976377953
 20
2.994767716535433
 10
-5.039354330708662
 20
2.992661417322835
 10
-5.04384251968504
 20
2.990173228346457
 10
-5.048157480314961
 20
2.987299212598425
 10
-5.051897637795276
 20
2.984437007874016
 10
-5.055468503937008
 20
2.981362204724409
 10
-5.058874015748032
 20
2.978074803149606
 10
-5.062110236220472
 20
2.97457874015748
 10
-5.06517716535433
 20
2.970874015748032
 10
-5.06807874015748
 20
2.966968503937008
 10
-5.070811023622047
 20
2.962854330708661
 10
-5.073377952755905
 20
2.95853937007874
 10
-5.08244094488189
 20
2.973574803149606
 10
-5.084775590551181
 20
2.97644094488189
 10
-5.087259842519685
 20
2.979165354330709
 10
-5.089885826771654
 20
2.981744094488189
 10
-5.092661417322835
 20
2.984173228346457
 10
-5.09557874015748
 20
2.98646062992126
 10
-5.098645669291338
 20
2.988602362204724
 10
-5.101854330708662
 20
2.99059842519685
 10
-5.105212598425197
 20
2.992452755905512
 10
-5.108779527559055
 20
2.99411811023622
 10
-5.11261811023622
 20
2.99555905511811
 10
-5.116736220472441
 20
2.996779527559055
 10
-5.121125984251968
 20
2.997775590551181
 10
-5.125795275590551
 20
2.998551181102362
 10
-5.130740157480315
 20
2.999106299212599
 10
-5.13596062992126
 20
2.99944094488189
 10
-5.141456692913386
 20
2.999551181102362
 10
-5.147
 20
2.999358267716536
 10
-5.152362204724409
 20
2.998787401574803
 10
-5.157555118110237
 20
2.997830708661418
 10
-5.162566929133858
 20
2.996492125984252
 10
-5.167405511811023
 20
2.994767716535433
 10
-5.172070866141732
 20
2.992661417322835
 10
-5.176555118110236
 20
2.990173228346457
 10
-5.180866141732284
 20
2.987299212598425
 10
-5.184433070866142
 20
2.984574803149606
 10
-5.187850393700788
 20
2.981665354330709
 10
-5.191110236220473
 20
2.978570866141732
 10
-5.194216535433071
 20
2.975287401574803
 10
-5.197169291338582
 20
2.971814960629921
 10
-5.199968503937008
 20
2.968153543307086
 10
-5.20261811023622
 20
2.964303149606299
 10
-5.205110236220473
 20
2.960259842519685
 10
-5.205110236220473
 20
2.994661417322835
 10
-5.239393700787401
 20
2.994661417322835
 10
-5.239393700787401
 20
2.778992125984252
 10
-5.205110236220473
 20
2.778992125984252
 10
-5.205110236220473
 20
2.889350393700787
 10
-5.204314960629921
 20
2.895783464566929
 10
-5.203275590551181
 20
2.901964566929134
 10
-5.201988188976378
 20
2.907893700787402
 10
-5.200456692913386
 20
2.91357874015748
 10
-5.198681102362205
 20
2.919015748031496
 10
-5.196661417322835
 20
2.924212598425197
 10
-5.194397637795276
 20
2.929165354330709
 10
-5.191889763779527
 20
2.933877952755906
 10
-5.189846456692913
 20
2.937232283464567
 10
-5.187633858267716
 20
2.940433070866142
 10
-5.185255905511811
 20
2.94348031496063
 10
-5.182704724409449
 20
2.946374015748031
 10
-5.179988188976378
 20
2.949118110236221
 10
-5.177102362204725
 20
2.951704724409449
 10
-5.174051181102362
 20
2.954141732283464
 10
-5.170826771653544
 20
2.95642125984252
 10
-5.167496062992126
 20
2.958488188976378
 10
-5.164102362204725
 20
2.960279527559055
 10
-5.160641732283465
 20
2.961799212598425
 10
-5.157122047244094
 20
2.96303937007874
 10
-5.153543307086614
 20
2.964003937007874
 10
-5.14990157480315
 20
2.964692913385827
 10
-5.146196850393701
 20
2.965106299212598
 10
-5.142437007874015
 20
2.965244094488189
 10
-5.135334645669292
 20
2.964952755905512
 10
-5.129208661417323
 20
2.964082677165354
 10
-5.126515748031496
 20
2.963429133858268
 10
-5.124066929133858
 20
2.962625984251968
 10
-5.121862204724409
 20
2.961677165354331
 10
-5.11990157480315
 20
2.960582677165355
 10
-5.114964566929133
 20
2.956933070866142
 10
-5.110685039370079
 20
2.952653543307087
 10
-5.107066929133858
 20
2.947744094488189
 10
-5.104102362204724
 20
2.942208661417323
 10
-5.101799212598425
 20
2.93603937007874
 10
-5.100153543307087
 20
2.929244094488189
 10
-5.099169291338582
 20
2.921822834645669
 10
-5.098838582677165
 20
2.913771653543307
 10
-5.098838582677165
 20
2.778992125984252
 10
-5.064555118110237
 20
2.778992125984252
 10
-5.064555118110237
 20
2.913771653543307
 10
-5.064807086614174
 20
2.922031496062992
 10
-5.059165354330709
 20
2.933877952755906
 10
-5.057122047244095
 20
2.937232283464567
 10
-5.054909448818898
 20
2.940433070866142
 10
-5.052531496062993
 20
2.94348031496063
 10
-5.049984251968504
 20
2.946374015748031
 10
-5.047267716535433
 20
2.949118110236221
 10
-5.044385826771654
 20
2.951704724409449
 10
-5.041334645669291
 20
2.954141732283464
 10
-5.038114173228347
 20
2.95642125984252
 10
-5.034775590551181
 20
2.958488188976378
 10
-5.031377952755905
 20
2.960279527559055
 10
-5.02792125984252
 20
2.961799212598425
 10
-5.024401574803149
 20
2.96303937007874
 10
-5.020822834645669
 20
2.964003937007874
 10
-5.017181102362205
 20
2.964692913385827
 10
-5.01348031496063
 20
2.965106299212598
 10
-5.009712598425197
 20
2.965244094488189
 10
-5.002610236220472
 20
2.964952755905512
 10
-4.996488188976378
 20
2.964082677165354
 10
-4.993795275590551
 20
2.963429133858268
 10
-4.991350393700787
 20
2.962625984251968
 10
-4.989149606299213
 20
2.961677165354331
 10
-4.987192913385827
 20
2.960582677165355
 10
-4.982255905511811
 20
2.956933070866142
 10
-4.977976377952756
 20
2.952653543307087
 10
-4.974354330708661
 20
2.947744094488189
 10
-4.971393700787401
 20
2.942208661417323
 10
-4.969090551181102
 20
2.93603937007874
 10
-4.967444881889763
 20
2.929244094488189
 10
-4.96646062992126
 20
2.921822834645669
 10
-4.966129921259842
 20
2.913771653543307
 10
-4.966129921259842
 20
2.778992125984252
  0
LWPOLYLINE
  5
78
330
1F
100
AcDbEntity
  8
Layer 1
 62
     7
370
     9
100
AcDbPolyline
 90
      155
 70
     1
 43
0.0
 10
-4.592464566929134
 20
2.778992125984252
 10
-4.558185039370079
 20
2.778992125984252
 10
-4.558185039370079
 20
2.913771653543307
 10
-4.558464566929134
 20
2.922724409448819
 10
-4.559303149606299
 20
2.931251968503937
 10
-4.5606968503937
 20
2.939358267716536
 10
-4.562649606299213
 20
2.947047244094488
 10
-4.565165354330708
 20
2.954311023622047
 10
-4.568236220472441
 20
2.961153543307087
 10
-4.571866141732284
 20
2.967574803149606
 10
-4.576055118110236
 20
2.973574803149606
 10
-4.578393700787402
 20
2.97644094488189
 10
-4.580874015748032
 20
2.979165354330709
 10
-4.583503937007874
 20
2.981744094488189
 10
-4.586279527559055
 20
2.984173228346457
 10
-4.589196850393701
 20
2.98646062992126
 10
-4.592259842519685
 20
2.988602362204724
 10
-4.595464566929134
 20
2.99059842519685
 10
-4.598814960629921
 20
2.992452755905512
 10
-4.602381889763779
 20
2.99411811023622
 10
-4.606224409448819
 20
2.99555905511811
 10
-4.610342519685039
 20
2.996779527559055
 10
-4.614736220472441
 20
2.997775590551181
 10
-4.61940157480315
 20
2.998551181102362
 10
-4.624346456692914
 20
2.999106299212599
 10
-4.629566929133858
 20
2.99944094488189
 10
-4.63505905511811
 20
2.999551181102362
 10
-4.640606299212599
 20
2.999358267716536
 10
-4.645972440944882
 20
2.998787401574803
 10
-4.651165354330709
 20
2.997830708661418
 10
-4.656181102362205
 20
2.996492125984252
 10
-4.661023622047244
 20
2.994767716535433
 10
-4.665688976377953
 20
2.992661417322835
 10
-4.670177165354331
 20
2.990173228346457
 10
-4.674492125984252
 20
2.987299212598425
 10
-4.678232283464567
 20
2.984437007874016
 10
-4.681803149606299
 20
2.981362204724409
 10
-4.685208661417323
 20
2.978074803149606
 10
-4.688444881889763
 20
2.97457874015748
 10
-4.691515748031496
 20
2.970874015748032
 10
-4.694417322834646
 20
2.966968503937008
 10
-4.697149606299212
 20
2.962854330708661
 10
-4.699716535433071
 20
2.95853937007874
 10
-4.708775590551181
 20
2.973574803149606
 10
-4.711114173228347
 20
2.97644094488189
 10
-4.713594488188976
 20
2.979165354330709
 10
-4.716224409448819
 20
2.981744094488189
 10
-4.719
 20
2.984173228346457
 10
-4.721917322834646
 20
2.98646062992126
 10
-4.72498031496063
 20
2.988602362204724
 10
-4.728192913385826
 20
2.99059842519685
 10
-4.731547244094489
 20
2.992452755905512
 10
-4.735110236220472
 20
2.99411811023622
 10
-4.738948818897637
 20
2.99555905511811
 10
-4.743062992125984
 20
2.996779527559055
 10
-4.747456692913386
 20
2.997775590551181
 10
-4.752122047244095
 20
2.998551181102362
 10
-4.757062992125984
 20
2.999106299212599
 10
-4.762283464566929
 20
2.99944094488189
 10
-4.767779527559055
 20
2.999551181102362
 10
-4.773322834645669
 20
2.999358267716536
 10
-4.778692913385827
 20
2.998787401574803
 10
-4.783881889763779
 20
2.997830708661418
 10
-4.78890157480315
 20
2.996492125984252
 10
-4.793740157480315
 20
2.994767716535433
 10
-4.798405511811024
 20
2.992661417322835
 10
-4.802893700787402
 20
2.990173228346457
 10
-4.807204724409448
 20
2.987299212598425
 10
-4.810771653543307
 20
2.984574803149606
 10
-4.814185039370079
 20
2.981665354330709
 10
-4.817444881889764
 20
2.978570866141732
 10
-4.820555118110236
 20
2.975287401574803
 10
-4.823507874015748
 20
2.971814960629921
 10
-4.826307086614174
 20
2.968153543307086
 10
-4.828952755905512
 20
2.964303149606299
 10
-4.831444881889764
 20
2.960259842519685
 10
-4.831444881889764
 20
2.994661417322835
 10
-4.865728346456692
 20
2.994661417322835
 10
-4.865728346456692
 20
2.778992125984252
 10
-4.831444881889764
 20
2.778992125984252
 10
-4.831444881889764
 20
2.889350393700787
 10
-4.830649606299213
 20
2.895783464566929
 10
-4.829610236220472
 20
2.901964566929134
 10
-4.828326771653543
 20
2.907893700787402
 10
-4.826795275590551
 20
2.91357874015748
 10
-4.82501968503937
 20
2.919015748031496
 10
-4.823
 20
2.924212598425197
 10
-4.820736220472441
 20
2.929165354330709
 10
-4.818224409448819
 20
2.933877952755906
 10
-4.816181102362204
 20
2.937232283464567
 10
-4.813968503937008
 20
2.940433070866142
 10
-4.811590551181102
 20
2.94348031496063
 10
-4.809043307086614
 20
2.946374015748031
 10
-4.806326771653543
 20
2.949118110236221
 10
-4.803440944881889
 20
2.951704724409449
 10
-4.800385826771653
 20
2.954141732283464
 10
-4.797161417322835
 20
2.95642125984252
 10
-4.793826771653543
 20
2.958488188976378
 10
-4.790429133858268
 20
2.960279527559055
 10
-4.786972440944882
 20
2.961799212598425
 10
-4.783452755905512
 20
2.96303937007874
 10
-4.779870078740157
 20
2.964003937007874
 10
-4.776224409448819
 20
2.964692913385827
 10
-4.772523622047244
 20
2.965106299212598
 10
-4.768759842519685
 20
2.965244094488189
 10
-4.761657480314961
 20
2.964952755905512
 10
-4.755535433070866
 20
2.964082677165354
 10
-4.752842519685039
 20
2.963429133858268
 10
-4.750393700787401
 20
2.962625984251968
 10
-4.748188976377953
 20
2.961677165354331
 10
-4.746228346456693
 20
2.960582677165355
 10
-4.741295275590551
 20
2.956933070866142
 10
-4.73701968503937
 20
2.952653543307087
 10
-4.73340157480315
 20
2.947744094488189
 10
-4.73044094488189
 20
2.942208661417323
 10
-4.728137795275591
 20
2.93603937007874
 10
-4.726492125984252
 20
2.929244094488189
 10
-4.725507874015748
 20
2.921822834645669
 10
-4.725177165354331
 20
2.913771653543307
 10
-4.725177165354331
 20
2.778992125984252
 10
-4.690893700787401
 20
2.778992125984252
 10
-4.690893700787401
 20
2.913771653543307
 10
-4.691145669291338
 20
2.922031496062992
 10
-4.685503937007874
 20
2.933877952755906
 10
-4.68346062992126
 20
2.937232283464567
 10
-4.681248031496063
 20
2.940433070866142
 10
-4.678870078740157
 20
2.94348031496063
 10
-4.676322834645669
 20
2.946374015748031
 10
-4.673606299212598
 20
2.949118110236221
 10
-4.670724409448819
 20
2.951704724409449
 10
-4.667673228346457
 20
2.954141732283464
 10
-4.664452755905512
 20
2.95642125984252
 10
-4.661114173228347
 20
2.958488188976378
 10
-4.657712598425197
 20
2.960279527559055
 10
-4.654255905511811
 20
2.961799212598425
 10
-4.650732283464567
 20
2.96303937007874
 10
-4.647149606299212
 20
2.964003937007874
 10
-4.643507874015748
 20
2.964692913385827
 10
-4.639803149606299
 20
2.965106299212598
 10
-4.63603937007874
 20
2.965244094488189
 10
-4.628937007874016
 20
2.964952755905512
 10
-4.622814960629921
 20
2.964082677165354
 10
-4.620122047244094
 20
2.963429133858268
 10
-4.617673228346456
 20
2.962625984251968
 10
-4.615472440944882
 20
2.961677165354331
 10
-4.613515748031496
 20
2.960582677165355
 10
-4.608578740157481
 20
2.956933070866142
 10
-4.6043031496063
 20
2.952653543307087
 10
-4.600685039370079
 20
2.947744094488189
 10
-4.597724409448819
 20
2.942208661417323
 10
-4.59542125984252
 20
2.93603937007874
 10
-4.593779527559055
 20
2.929244094488189
 10
-4.592791338582678
 20
2.921822834645669
 10
-4.592464566929134
 20
2.913771653543307
 10
-4.592464566929134
 20
2.778992125984252
  0
LWPOLYLINE
  5
79
330
1F
100
AcDbEntity
  8
Layer 1
 62
     7
370
    18
100
AcDbPolyline
 90
        4
 70
     1
 43
0.0
 10
-8.447551181102362
 20
0.5646614173228346
 10
-8.47678346456693
 20
0.5554094488188976
 10
-8.453318897637795
 20
0.5356732283464567
 10
-8.447551181102362
 20
0.5646614173228346
  0
LWPOLYLINE
  5
7A
330
1F
100
AcDbEntity
  8
Layer 1
 62
     7
370
    18
100
AcDbPolyline
 90
        4
 70
     1
 43
0.0
 10
-6.757417322834645
 20
0.2283425196850394
 10
-6.733948818897638
 20
0.2086023622047244
 10
-6.763185039370079
 20
0.1993503937007874
 10
-6.757417322834645
 20
0.2283425196850394
  0
LWPOLYLINE
  5
7B
330
1F
100
AcDbEntity
  8
Layer 1
 62
     7
370
    18
100
AcDbPolyline
 90
        2
 70
     0
 43
0.0
 10
-8.485877952755905
 20
0.5556141732283465
 10
-6.725476377952756
 20
0.2053110236220473
  0
LWPOLYLINE
  5
7C
330
1F
100
AcDbEntity
  8
Layer 1
 62
     7
370
     9
100
AcDbPolyline
 90
        7
 70
     1
 43
0.0
 10
-9.213814960629922
 20
-0.2293897637795276
 10
-9.179531496062992
 20
-0.2293897637795276
 10
-9.179531496062992
 20
0.1078385826771654
 10
-9.261811023622048
 20
0.099003937007874
 10
-9.261811023622048
 20
0.0691102362204724
 10
-9.213814960629922
 20
0.0691102362204724
 10
-9.213814960629922
 20
-0.2293897637795276
  0
LWPOLYLINE
  5
7D
330
1F
100
AcDbEntity
  8
Layer 1
 62
     7
370
     9
100
AcDbPolyline
 90
       84
 70
     1
 43
0.0
 10
-8.981937007874016
 20
0.0651889763779528
 10
-8.97628346456693
 20
0.0613464566929134
 10
-8.971011811023622
 20
0.0569842519685039
 10
-8.966122047244095
 20
0.0520984251968504
 10
-8.961614173228346
 20
0.0466929133858268
 10
-8.957488188976377
 20
0.0407637795275591
 10
-8.953744094488188
 20
0.0343110236220472
 10
-8.95038188976378
 20
0.0273425196850394
 10
-8.94740157480315
 20
0.0198464566929134
 10
-8.944074803149606
 20
0.0099133858267717
 10
-8.941188976377953
 20
-0.0001653543307087
 10
-8.938748031496063
 20
-0.0103937007874016
 10
-8.936751968503938
 20
-0.0207637795275591
 10
-8.935196850393702
 20
-0.0312834645669291
 10
-8.934090551181102
 20
-0.0419448818897638
 10
-8.93342125984252
 20
-0.052755905511811
 10
-8.933200787401574
 20
-0.0637086614173228
 10
-8.934673228346456
 20
-0.087988188976378
 10
-8.936370078740158
 20
-0.1011614173228347
 10
-8.938590551181102
 20
-0.1136062992125984
 10
-8.941330708661416
 20
-0.1253267716535433
 10
-8.944590551181102
 20
-0.1363188976377953
 10
-8.948370078740158
 20
-0.1465826771653543
 10
-8.952669291338582
 20
-0.1561220472440945
 10
-8.957492125984253
 20
-0.1649330708661417
 10
-8.962834645669291
 20
-0.1730157480314961
 10
-8.967708661417323
 20
-0.1791062992125984
 10
-8.97284251968504
 20
-0.1843818897637795
 10
-8.978236220472441
 20
-0.1888464566929134
 10
-8.983893700787402
 20
-0.192503937007874
 10
-8.989807086614173
 20
-0.1953464566929134
 10
-8.99598031496063
 20
-0.1973740157480315
 10
-9.002413385826772
 20
-0.1985944881889764
 10
-9.009106299212599
 20
-0.199
 10
-9.016578740157481
 20
-0.1985984251968504
 10
-9.023692913385826
 20
-0.1973897637795275
 10
-9.030444881889764
 20
-0.1953779527559055
 10
-9.036838582677165
 20
-0.1925629921259842
 10
-9.042870078740158
 20
-0.1889448818897638
 10
-9.048543307086614
 20
-0.1845236220472441
 10
-9.053858267716535
 20
-0.1792952755905512
 10
-9.058811023622047
 20
-0.1732637795275591
 10
-9.062917322834645
 20
-0.1673228346456693
 10
-9.066653543307087
 20
-0.1610118110236221
 10
-9.070023622047245
 20
-0.1543346456692913
 10
-9.073023622047245
 20
-0.1472913385826772
 10
-9.075673228346457
 20
-0.140011811023622
 10
-9.077984251968504
 20
-0.1326417322834646
 10
-9.079956692913386
 20
-0.1251811023622047
 10
-9.081594488188976
 20
-0.1176338582677165
 10
-9.08575590551181
 20
-0.0882244094488189
 10
-9.086976377952755
 20
-0.0554724409448819
 10
-9.086641732283464
 20
-0.0456692913385827
 10
-9.085629921259843
 20
-0.034751968503937
 10
-9.083948818897637
 20
-0.0227165354330709
 10
-9.081594488188976
 20
-0.0095590551181102
 10
-9.079972440944882
 20
-0.0020984251968504
 10
-9.078043307086615
 20
0.0053307086614173
 10
-9.075807086614173
 20
0.0127322834645669
 10
-9.07326377952756
 20
0.0200984251968504
 10
-9.070374015748031
 20
0.0272677165354331
 10
-9.067082677165354
 20
0.0340669291338583
 10
-9.063389763779528
 20
0.0405
 10
-9.059303149606299
 20
0.0465629921259843
 10
-9.054803149606299
 20
0.0521535433070866
 10
-9.049877952755905
 20
0.0571653543307087
 10
-9.044523622047244
 20
0.0615944881889764
 10
-9.038740157480316
 20
0.0654409448818898
 10
-9.035669291338582
 20
0.0671102362204724
 10
-9.03246062992126
 20
0.0685551181102362
 10
-9.029114173228347
 20
0.0697755905511811
 10
-9.025633858267717
 20
0.0707755905511811
 10
-9.022011811023622
 20
0.0715511811023622
 10
-9.018255905511811
 20
0.0721062992125984
 10
-9.014358267716535
 20
0.0724409448818898
 10
-9.010326771653544
 20
0.0725511811023622
 10
-9.006299212598424
 20
0.0724370078740157
 10
-9.002405511811023
 20
0.0720905511811024
 10
-8.998649606299212
 20
0.0715157480314961
 10
-8.995035433070866
 20
0.0707086614173228
 10
-8.991551181102363
 20
0.0696732283464567
 10
-8.988208661417323
 20
0.0684055118110236
 10
-8.985003937007875
 20
0.0669133858267717
 10
-8.981937007874016
 20
0.0651889763779528
  0
LWPOLYLINE
  5
7E
330
1F
100
AcDbEntity
  8
Layer 1
 62
     7
370
     9
100
AcDbPolyline
 90
       65
 70
     1
 43
0.0
 10
-9.008629921259843
 20
-0.2337992125984252
 10
-8.994330708661417
 20
-0.2328897637795276
 10
-8.98094094488189
 20
-0.2301692913385827
 10
-8.968464566929134
 20
-0.2256299212598425
 10
-8.956897637795276
 20
-0.2192755905511811
 10
-8.946240157480315
 20
-0.2111102362204725
 10
-8.936492125984252
 20
-0.2011259842519685
 10
-8.927657480314961
 20
-0.1893267716535433
 10
-8.919728346456694
 20
-0.1757165354330709
 10
-8.91416535433071
 20
-0.1638346456692913
 10
-8.909338582677165
 20
-0.1512952755905512
 10
-8.905259842519685
 20
-0.1380984251968504
 10
-8.901917322834645
 20
-0.124248031496063
 10
-8.899318897637796
 20
-0.1097362204724409
 10
-8.89746062992126
 20
-0.0945629921259842
 10
-8.896346456692914
 20
-0.0787362204724409
 10
-8.895976377952756
 20
-0.062251968503937
 10
-8.896346456692914
 20
-0.0457637795275591
 10
-8.89746062992126
 20
-0.0299330708661417
 10
-8.899318897637796
 20
-0.014759842519685
 10
-8.901917322834645
 20
-0.000248031496063
 10
-8.905259842519685
 20
0.0136062992125984
 10
-8.909338582677165
 20
0.0268031496062992
 10
-8.91416535433071
 20
0.0393385826771654
 10
-8.919728346456694
 20
0.0512165354330709
 10
-8.927657480314961
 20
0.0648307086614173
 10
-8.936492125984252
 20
0.0766338582677165
 10
-8.946240157480315
 20
0.0866181102362205
 10
-8.956897637795276
 20
0.0947874015748031
 10
-8.968464566929134
 20
0.1011417322834646
 10
-8.98094094488189
 20
0.1056811023622047
 10
-8.994330708661417
 20
0.1084015748031496
 10
-9.008629921259843
 20
0.1093110236220472
 10
-9.02292125984252
 20
0.1084015748031496
 10
-9.036307086614173
 20
0.1056811023622047
 10
-9.04878346456693
 20
0.1011417322834646
 10
-9.060346456692914
 20
0.0947874015748031
 10
-9.071003937007873
 20
0.0866181102362205
 10
-9.080748031496062
 20
0.0766338582677165
 10
-9.089582677165355
 20
0.0648307086614173
 10
-9.097507874015749
 20
0.0512165354330709
 10
-9.103074803149607
 20
0.0393385826771654
 10
-9.107901574803149
 20
0.0268031496062992
 10
-9.111984251968504
 20
0.0136062992125984
 10
-9.115322834645669
 20
-0.000248031496063
 10
-9.11792125984252
 20
-0.014759842519685
 10
-9.119775590551182
 20
-0.0299330708661417
 10
-9.120889763779527
 20
-0.0457637795275591
 10
-9.121259842519684
 20
-0.062251968503937
 10
-9.120889763779527
 20
-0.0787362204724409
 10
-9.119775590551182
 20
-0.0945629921259842
 10
-9.11792125984252
 20
-0.1097362204724409
 10
-9.115322834645669
 20
-0.124248031496063
 10
-9.111984251968504
 20
-0.1380984251968504
 10
-9.107901574803149
 20
-0.1512952755905512
 10
-9.103074803149607
 20
-0.1638346456692913
 10
-9.097507874015749
 20
-0.1757165354330709
 10
-9.089582677165355
 20
-0.1893267716535433
 10
-9.080748031496062
 20
-0.2011259842519685
 10
-9.071003937007873
 20
-0.2111102362204725
 10
-9.060346456692914
 20
-0.2192755905511811
 10
-9.04878346456693
 20
-0.2256299212598425
 10
-9.036307086614173
 20
-0.2301692913385827
 10
-9.02292125984252
 20
-0.2328897637795276
 10
-9.008629921259843
 20
-0.2337992125984252
  0
LWPOLYLINE
  5
7F
330
1F
100
AcDbEntity
  8
Layer 1
 62
     7
370
     9
100
AcDbPolyline
 90
       84
 70
     1
 43
0.0
 10
-8.707692913385827
 20
0.0651889763779528
 10
-8.70203937007874
 20
0.0613464566929134
 10
-8.696767716535433
 20
0.0569842519685039
 10
-8.691877952755906
 20
0.0520984251968504
 10
-8.687370078740157
 20
0.0466929133858268
 10
-8.683244094488188
 20
0.0407637795275591
 10
-8.6795
 20
0.0343110236220472
 10
-8.676141732283465
 20
0.0273425196850394
 10
-8.673161417322834
 20
0.0198464566929134
 10
-8.669830708661417
 20
0.0099133858267717
 10
-8.666948818897637
 20
-0.0001653543307087
 10
-8.664507874015747
 20
-0.0103937007874016
 10
-8.662507874015748
 20
-0.0207637795275591
 10
-8.660952755905512
 20
-0.0312834645669291
 10
-8.659846456692913
 20
-0.0419448818897638
 10
-8.65917716535433
 20
-0.052755905511811
 10
-8.658956692913385
 20
-0.0637086614173228
 10
-8.660429133858267
 20
-0.087988188976378
 10
-8.662129921259842
 20
-0.1011614173228347
 10
-8.664346456692913
 20
-0.1136062992125984
 10
-8.667086614173229
 20
-0.1253267716535433
 10
-8.670346456692913
 20
-0.1363188976377953
 10
-8.674125984251969
 20
-0.1465826771653543
 10
-8.678425196850394
 20
-0.1561220472440945
 10
-8.683248031496063
 20
-0.1649330708661417
 10
-8.688590551181102
 20
-0.1730157480314961
 10
-8.693464566929133
 20
-0.1791062992125984
 10
-8.69859842519685
 20
-0.1843818897637795
 10
-8.703996062992125
 20
-0.1888464566929134
 10
-8.709649606299212
 20
-0.192503937007874
 10
-8.715562992125983
 20
-0.1953464566929134
 10
-8.721740157480316
 20
-0.1973740157480315
 10
-8.728173228346456
 20
-0.1985944881889764
 10
-8.734866141732283
 20
-0.199
 10
-8.742338582677165
 20
-0.1985984251968504
 10
-8.749448818897637
 20
-0.1973897637795275
 10
-8.756204724409448
 20
-0.1953779527559055
 10
-8.762594488188977
 20
-0.1925629921259842
 10
-8.768629921259842
 20
-0.1889448818897638
 10
-8.774299212598425
 20
-0.1845236220472441
 10
-8.779614173228346
 20
-0.1792952755905512
 10
-8.784566929133858
 20
-0.1732637795275591
 10
-8.788673228346457
 20
-0.1673228346456693
 10
-8.792409448818898
 20
-0.1610118110236221
 10
-8.795783464566929
 20
-0.1543346456692913
 10
-8.79878346456693
 20
-0.1472913385826772
 10
-8.801429133858267
 20
-0.140011811023622
 10
-8.803740157480314
 20
-0.1326417322834646
 10
-8.80571653543307
 20
-0.1251811023622047
 10
-8.80735433070866
 20
-0.1176338582677165
 10
-8.811511811023623
 20
-0.0882244094488189
 10
-8.812732283464566
 20
-0.0554724409448819
 10
-8.812397637795275
 20
-0.0456692913385827
 10
-8.811385826771653
 20
-0.034751968503937
 10
-8.809704724409448
 20
-0.0227165354330709
 10
-8.80735433070866
 20
-0.0095590551181102
 10
-8.805732283464566
 20
-0.0020984251968504
 10
-8.8038031496063
 20
0.0053307086614173
 10
-8.801562992125984
 20
0.0127322834645669
 10
-8.79901968503937
 20
0.0200984251968504
 10
-8.796129921259842
 20
0.0272677165354331
 10
-8.792838582677165
 20
0.0340669291338583
 10
-8.789145669291338
 20
0.0405
 10
-8.78505905511811
 20
0.0465629921259843
 10
-8.780562992125985
 20
0.0521535433070866
 10
-8.77563779527559
 20
0.0571653543307087
 10
-8.77028346456693
 20
0.0615944881889764
 10
-8.7645
 20
0.0654409448818898
 10
-8.761429133858268
 20
0.0671102362204724
 10
-8.758216535433071
 20
0.0685551181102362
 10
-8.754874015748031
 20
0.0697755905511811
 10
-8.751389763779528
 20
0.0707755905511811
 10
-8.747767716535433
 20
0.0715511811023622
 10
-8.744011811023622
 20
0.0721062992125984
 10
-8.74011811023622
 20
0.0724409448818898
 10
-8.736082677165355
 20
0.0725511811023622
 10
-8.732051181102362
 20
0.0724370078740157
 10
-8.72815748031496
 20
0.0720905511811024
 10
-8.72440157480315
 20
0.0715157480314961
 10
-8.720787401574803
 20
0.0707086614173228
 10
-8.717307086614174
 20
0.0696732283464567
 10
-8.713964566929134
 20
0.0684055118110236
 10
-8.710759842519685
 20
0.0669133858267717
 10
-8.707692913385827
 20
0.0651889763779528
  0
LWPOLYLINE
  5
80
330
1F
100
AcDbEntity
  8
Layer 1
 62
     7
370
     9
100
AcDbPolyline
 90
       65
 70
     1
 43
0.0
 10
-8.734374015748031
 20
-0.2337992125984252
 10
-8.720078740157481
 20
-0.2328897637795276
 10
-8.706692913385826
 20
-0.2301692913385827
 10
-8.694216535433071
 20
-0.2256299212598425
 10
-8.682649606299213
 20
-0.2192755905511811
 10
-8.671996062992125
 20
-0.2111102362204725
 10
-8.662251968503938
 20
-0.2011259842519685
 10
-8.653413385826772
 20
-0.1893267716535433
 10
-8.645488188976378
 20
-0.1757165354330709
 10
-8.639925196850394
 20
-0.1638346456692913
 10
-8.635098425196851
 20
-0.1512952755905512
 10
-8.63101968503937
 20
-0.1380984251968504
 10
-8.627677165354331
 20
-0.124248031496063
 10
-8.62507874015748
 20
-0.1097362204724409
 10
-8.623220472440945
 20
-0.0945629921259842
 10
-8.622106299212598
 20
-0.0787362204724409
 10
-8.62173622047244
 20
-0.062251968503937
 10
-8.622106299212598
 20
-0.0457637795275591
 10
-8.623220472440945
 20
-0.0299330708661417
 10
-8.62507874015748
 20
-0.014759842519685
 10
-8.627677165354331
 20
-0.000248031496063
 10
-8.63101968503937
 20
0.0136062992125984
 10
-8.635098425196851
 20
0.0268031496062992
 10
-8.639925196850394
 20
0.0393385826771654
 10
-8.645488188976378
 20
0.0512165354330709
 10
-8.653413385826772
 20
0.0648307086614173
 10
-8.662251968503938
 20
0.0766338582677165
 10
-8.671996062992125
 20
0.0866181102362205
 10
-8.682649606299213
 20
0.0947874015748031
 10
-8.694216535433071
 20
0.1011417322834646
 10
-8.706692913385826
 20
0.1056811023622047
 10
-8.720078740157481
 20
0.1084015748031496
 10
-8.734374015748031
 20
0.1093110236220472
 10
-8.748673228346457
 20
0.1084015748031496
 10
-8.76205905511811
 20
0.1056811023622047
 10
-8.774535433070866
 20
0.1011417322834646
 10
-8.786102362204725
 20
0.0947874015748031
 10
-8.796759842519686
 20
0.0866181102362205
 10
-8.806503937007873
 20
0.0766338582677165
 10
-8.815338582677166
 20
0.0648307086614173
 10
-8.82326377952756
 20
0.0512165354330709
 10
-8.828830708661418
 20
0.0393385826771654
 10
-8.83365748031496
 20
0.0268031496062992
 10
-8.837740157480315
 20
0.0136062992125984
 10
-8.84107874015748
 20
-0.000248031496063
 10
-8.84367716535433
 20
-0.014759842519685
 10
-8.845531496062993
 20
-0.0299330708661417
 10
-8.84664566929134
 20
-0.0457637795275591
 10
-8.847015748031495
 20
-0.062251968503937
 10
-8.84664566929134
 20
-0.0787362204724409
 10
-8.845531496062993
 20
-0.0945629921259842
 10
-8.84367716535433
 20
-0.1097362204724409
 10
-8.84107874015748
 20
-0.124248031496063
 10
-8.837740157480315
 20
-0.1380984251968504
 10
-8.83365748031496
 20
-0.1512952755905512
 10
-8.828830708661418
 20
-0.1638346456692913
 10
-8.82326377952756
 20
-0.1757165354330709
 10
-8.815338582677166
 20
-0.1893267716535433
 10
-8.806503937007873
 20
-0.2011259842519685
 10
-8.796759842519686
 20
-0.2111102362204725
 10
-8.786102362204725
 20
-0.2192755905511811
 10
-8.774535433070866
 20
-0.2256299212598425
 10
-8.76205905511811
 20
-0.2301692913385827
 10
-8.748673228346457
 20
-0.2328897637795276
 10
-8.734374015748031
 20
-0.2337992125984252
  0
LWPOLYLINE
  5
81
330
1F
100
AcDbEntity
  8
Layer 1
 62
     7
370
     9
100
AcDbPolyline
 90
      155
 70
     1
 43
0.0
 10
-8.287267716535434
 20
-0.2284094488188976
 10
-8.252984251968504
 20
-0.2284094488188976
 10
-8.252984251968504
 20
-0.0936181102362205
 10
-8.25326377952756
 20
-0.0846653543307087
 10
-8.254102362204724
 20
-0.0761377952755905
 10
-8.255496062992126
 20
-0.0680314960629921
 10
-8.257448818897638
 20
-0.0603425196850394
 10
-8.259964566929133
 20
-0.0530787401574803
 10
-8.263035433070867
 20
-0.0462362204724409
 10
-8.266665354330708
 20
-0.0398149606299213
 10
-8.270854330708662
 20
-0.0338110236220472
 10
-8.273192913385827
 20
-0.0309488188976378
 10
-8.275677165354331
 20
-0.0282283464566929
 10
-8.278307086614173
 20
-0.0256535433070866
 10
-8.281082677165355
 20
-0.0232204724409449
 10
-8.284
 20
-0.0209330708661417
 10
-8.287066929133859
 20
-0.0187952755905512
 10
-8.29027559055118
 20
-0.0167992125984252
 10
-8.29362598425197
 20
-0.0149488188976378
 10
-8.297188976377953
 20
-0.0132834645669291
 10
-8.301031496062992
 20
-0.0118425196850394
 10
-8.305145669291338
 20
-0.0106220472440945
 10
-8.30953937007874
 20
-0.0096259842519685
 10
-8.314204724409448
 20
-0.0088503937007874
 10
-8.319149606299213
 20
-0.0082952755905512
 10
-8.324366141732284
 20
-0.0079606299212598
 10
-8.329858267716535
 20
-0.0078503937007874
 10
-8.335405511811024
 20
-0.0080433070866142
 10
-8.34077559055118
 20
-0.0086141732283465
 10
-8.345968503937009
 20
-0.0095708661417323
 10
-8.350984251968503
 20
-0.0109094488188976
 10
-8.355826771653543
 20
-0.0126299212598425
 10
-8.360492125984251
 20
-0.0147322834645669
 10
-8.36498031496063
 20
-0.0172204724409449
 10
-8.36929527559055
 20
-0.0200905511811024
 10
-8.373035433070866
 20
-0.0229566929133858
 10
-8.376606299212598
 20
-0.0260354330708661
 10
-8.380011811023621
 20
-0.0293188976377953
 10
-8.383248031496063
 20
-0.0328149606299213
 10
-8.386314960629921
 20
-0.0365157480314961
 10
-8.389216535433071
 20
-0.0404251968503937
 10
-8.391948818897637
 20
-0.0445354330708661
 10
-8.394515748031496
 20
-0.0488503937007874
 10
-8.40357874015748
 20
-0.0338110236220472
 10
-8.405913385826771
 20
-0.0309488188976378
 10
-8.408397637795275
 20
-0.0282283464566929
 10
-8.411023622047244
 20
-0.0256535433070866
 10
-8.413799212598425
 20
-0.0232204724409449
 10
-8.416716535433071
 20
-0.0209330708661417
 10
-8.41978346456693
 20
-0.0187952755905512
 10
-8.422992125984251
 20
-0.0167992125984252
 10
-8.426350393700787
 20
-0.0149488188976378
 10
-8.429917322834646
 20
-0.0132834645669291
 10
-8.433755905511811
 20
-0.0118425196850394
 10
-8.437870078740158
 20
-0.0106220472440945
 10
-8.442259842519684
 20
-0.0096259842519685
 10
-8.446925196850394
 20
-0.0088503937007874
 10
-8.451866141732284
 20
-0.0082952755905512
 10
-8.457086614173228
 20
-0.0079606299212598
 10
-8.462582677165354
 20
-0.0078503937007874
 10
-8.46812598425197
 20
-0.0080433070866142
 10
-8.473492125984253
 20
-0.0086141732283465
 10
-8.47868503937008
 20
-0.0095708661417323
 10
-8.483700787401574
 20
-0.0109094488188976
 10
-8.48853937007874
 20
-0.0126299212598425
 10
-8.493204724409448
 20
-0.0147322834645669
 10
-8.497692913385826
 20
-0.0172204724409449
 10
-8.502003937007874
 20
-0.0200905511811024
 10
-8.505570866141733
 20
-0.0228188976377953
 10
-8.508988188976378
 20
-0.0257283464566929
 10
-8.512248031496062
 20
-0.0288228346456693
 10
-8.51535433070866
 20
-0.0321062992125984
 10
-8.518307086614174
 20
-0.0355787401574803
 10
-8.5211062992126
 20
-0.0392362204724409
 10
-8.52375590551181
 20
-0.0430866141732283
 10
-8.526248031496063
 20
-0.0471299212598425
 10
-8.526248031496063
 20
-0.0127362204724409
 10
-8.560531496062993
 20
-0.0127362204724409
 10
-8.560531496062993
 20
-0.2284094488188976
 10
-8.526248031496063
 20
-0.2284094488188976
 10
-8.526248031496063
 20
-0.1180511811023622
 10
-8.525452755905512
 20
-0.1116181102362205
 10
-8.524413385826772
 20
-0.1054370078740157
 10
-8.523125984251969
 20
-0.099507874015748
 10
-8.521598425196851
 20
-0.0938228346456693
 10
-8.51982283464567
 20
-0.0883858267716535
 10
-8.517799212598424
 20
-0.0831889763779528
 10
-8.515535433070866
 20
-0.0782362204724409
 10
-8.513027559055118
 20
-0.0735236220472441
 10
-8.510984251968504
 20
-0.0701653543307087
 10
-8.508771653543308
 20
-0.0669645669291339
 10
-8.506393700787402
 20
-0.0639173228346457
 10
-8.503846456692914
 20
-0.0610196850393701
 10
-8.501129921259842
 20
-0.0582795275590551
 10
-8.49824409448819
 20
-0.0556889763779528
 10
-8.495188976377953
 20
-0.053251968503937
 10
-8.491964566929134
 20
-0.0509645669291339
 10
-8.488629921259843
 20
-0.0489015748031496
 10
-8.485232283464567
 20
-0.0471141732283465
 10
-8.481771653543307
 20
-0.0455984251968504
 10
-8.478251968503937
 20
-0.0443622047244095
 10
-8.474669291338582
 20
-0.0433976377952756
 10
-8.471027559055118
 20
-0.0427086614173228
 10
-8.46732283464567
 20
-0.0422952755905512
 10
-8.463562992125985
 20
-0.0421574803149606
 10
-8.45646062992126
 20
-0.0424448818897638
 10
-8.450334645669292
 20
-0.0433149606299213
 10
-8.447641732283465
 20
-0.0439685039370079
 10
-8.445192913385826
 20
-0.0447677165354331
 10
-8.442988188976377
 20
-0.0457125984251969
 10
-8.441027559055119
 20
-0.0468070866141732
 10
-8.436094488188976
 20
-0.0504606299212598
 10
-8.431818897637795
 20
-0.054744094488189
 10
-8.428200787401575
 20
-0.0596535433070866
 10
-8.425244094488189
 20
-0.0651929133858268
 10
-8.42294094488189
 20
-0.0713582677165354
 10
-8.421295275590552
 20
-0.0781496062992126
 10
-8.420311023622046
 20
-0.0855708661417323
 10
-8.41998031496063
 20
-0.0936181102362205
 10
-8.41998031496063
 20
-0.2284094488188976
 10
-8.385696850393701
 20
-0.2284094488188976
 10
-8.385696850393701
 20
-0.0936181102362205
 10
-8.385944881889763
 20
-0.0853700787401575
 10
-8.380303149606299
 20
-0.0735236220472441
 10
-8.378259842519686
 20
-0.0701653543307087
 10
-8.376047244094488
 20
-0.0669645669291339
 10
-8.373669291338583
 20
-0.0639173228346457
 10
-8.371122047244095
 20
-0.0610196850393701
 10
-8.368405511811023
 20
-0.0582795275590551
 10
-8.365523622047244
 20
-0.0556889763779528
 10
-8.362472440944883
 20
-0.053251968503937
 10
-8.359251968503937
 20
-0.0509645669291339
 10
-8.355913385826772
 20
-0.0489015748031496
 10
-8.352515748031497
 20
-0.0471141732283465
 10
-8.349055118110236
 20
-0.0455984251968504
 10
-8.345535433070866
 20
-0.0443622047244095
 10
-8.341952755905512
 20
-0.0433976377952756
 10
-8.338311023622047
 20
-0.0427086614173228
 10
-8.334606299212599
 20
-0.0422952755905512
 10
-8.330838582677165
 20
-0.0421574803149606
 10
-8.32373622047244
 20
-0.0424448818897638
 10
-8.31761811023622
 20
-0.0433149606299213
 10
-8.314925196850394
 20
-0.0439685039370079
 10
-8.312476377952756
 20
-0.0447677165354331
 10
-8.31027559055118
 20
-0.0457125984251969
 10
-8.308318897637795
 20
-0.0468070866141732
 10
-8.303385826771654
 20
-0.0504606299212598
 10
-8.299110236220473
 20
-0.054744094488189
 10
-8.295492125984252
 20
-0.0596535433070866
 10
-8.292531496062992
 20
-0.0651929133858268
 10
-8.290228346456693
 20
-0.0713582677165354
 10
-8.288582677165355
 20
-0.0781496062992126
 10
-8.287598425196851
 20
-0.0855708661417323
 10
-8.287267716535434
 20
-0.0936181102362205
 10
-8.287267716535434
 20
-0.2284094488188976
  0
LWPOLYLINE
  5
82
330
1F
100
AcDbEntity
  8
Layer 1
 62
     7
370
     9
100
AcDbPolyline
 90
      155
 70
     1
 43
0.0
 10
-7.913594488188976
 20
-0.2284094488188976
 10
-7.879311023622047
 20
-0.2284094488188976
 10
-7.879311023622047
 20
-0.0936181102362205
 10
-7.879590551181102
 20
-0.0846653543307087
 10
-7.880429133858268
 20
-0.0761377952755905
 10
-7.88182283464567
 20
-0.0680314960629921
 10
-7.883775590551181
 20
-0.0603425196850394
 10
-7.886291338582677
 20
-0.0530787401574803
 10
-7.889362204724409
 20
-0.0462362204724409
 10
-7.892992125984252
 20
-0.0398149606299213
 10
-7.897181102362205
 20
-0.0338110236220472
 10
-7.89951968503937
 20
-0.0309488188976378
 10
-7.902
 20
-0.0282283464566929
 10
-7.904629921259843
 20
-0.0256535433070866
 10
-7.907405511811024
 20
-0.0232204724409449
 10
-7.910326771653543
 20
-0.0209330708661417
 10
-7.913389763779527
 20
-0.0187952755905512
 10
-7.916598425196851
 20
-0.0167992125984252
 10
-7.919952755905512
 20
-0.0149488188976378
 10
-7.92351968503937
 20
-0.0132834645669291
 10
-7.927362204724409
 20
-0.0118425196850394
 10
-7.93148031496063
 20
-0.0106220472440945
 10
-7.935874015748031
 20
-0.0096259842519685
 10
-7.940543307086614
 20
-0.0088503937007874
 10
-7.945484251968504
 20
-0.0082952755905512
 10
-7.950704724409449
 20
-0.0079606299212598
 10
-7.956196850393701
 20
-0.0078503937007874
 10
-7.961744094488189
 20
-0.0080433070866142
 10
-7.967114173228347
 20
-0.0086141732283465
 10
-7.972307086614173
 20
-0.0095708661417323
 10
-7.977322834645669
 20
-0.0109094488188976
 10
-7.982161417322835
 20
-0.0126299212598425
 10
-7.986826771653543
 20
-0.0147322834645669
 10
-7.991318897637795
 20
-0.0172204724409449
 10
-7.995633858267716
 20
-0.0200905511811024
 10
-7.999370078740157
 20
-0.0229566929133858
 10
-8.002940944881889
 20
-0.0260354330708661
 10
-8.00634251968504
 20
-0.0293188976377953
 10
-8.00957874015748
 20
-0.0328149606299213
 10
-8.012645669291338
 20
-0.0365157480314961
 10
-8.015543307086615
 20
-0.0404251968503937
 10
-8.01827559055118
 20
-0.0445354330708661
 10
-8.02084251968504
 20
-0.0488503937007874
 10
-8.02990157480315
 20
-0.0338110236220472
 10
-8.032240157480315
 20
-0.0309488188976378
 10
-8.034720472440945
 20
-0.0282283464566929
 10
-8.037350393700788
 20
-0.0256535433070866
 10
-8.040125984251969
 20
-0.0232204724409449
 10
-8.043043307086615
 20
-0.0209330708661417
 10
-8.046110236220473
 20
-0.0187952755905512
 10
-8.049318897637795
 20
-0.0167992125984252
 10
-8.05267716535433
 20
-0.0149488188976378
 10
-8.05624409448819
 20
-0.0132834645669291
 10
-8.060082677165354
 20
-0.0118425196850394
 10
-8.064200787401575
 20
-0.0106220472440945
 10
-8.068590551181103
 20
-0.0096259842519685
 10
-8.073259842519684
 20
-0.0088503937007874
 10
-8.078200787401574
 20
-0.0082952755905512
 10
-8.08342125984252
 20
-0.0079606299212598
 10
-8.088917322834646
 20
-0.0078503937007874
 10
-8.09446062992126
 20
-0.0080433070866142
 10
-8.099830708661417
 20
-0.0086141732283465
 10
-8.10501968503937
 20
-0.0095708661417323
 10
-8.11003937007874
 20
-0.0109094488188976
 10
-8.114877952755906
 20
-0.0126299212598425
 10
-8.119543307086614
 20
-0.0147322834645669
 10
-8.124031496062992
 20
-0.0172204724409449
 10
-8.12834251968504
 20
-0.0200905511811024
 10
-8.131909448818897
 20
-0.0228188976377953
 10
-8.135326771653544
 20
-0.0257283464566929
 10
-8.138586614173228
 20
-0.0288228346456693
 10
-8.141692913385826
 20
-0.0321062992125984
 10
-8.14464566929134
 20
-0.0355787401574803
 10
-8.147444881889763
 20
-0.0392362204724409
 10
-8.150094488188977
 20
-0.0430866141732283
 10
-8.152586614173229
 20
-0.0471299212598425
 10
-8.152586614173229
 20
-0.0127362204724409
 10
-8.186858267716536
 20
-0.0127362204724409
 10
-8.186858267716536
 20
-0.2284094488188976
 10
-8.152586614173229
 20
-0.2284094488188976
 10
-8.152586614173229
 20
-0.1180511811023622
 10
-8.151791338582678
 20
-0.1116181102362205
 10
-8.150751968503936
 20
-0.1054370078740157
 10
-8.149464566929133
 20
-0.099507874015748
 10
-8.147933070866141
 20
-0.0938228346456693
 10
-8.14615748031496
 20
-0.0883858267716535
 10
-8.14413779527559
 20
-0.0831889763779528
 10
-8.141874015748032
 20
-0.0782362204724409
 10
-8.13936220472441
 20
-0.0735236220472441
 10
-8.137318897637796
 20
-0.0701653543307087
 10
-8.135110236220472
 20
-0.0669645669291339
 10
-8.132728346456693
 20
-0.0639173228346457
 10
-8.130181102362204
 20
-0.0610196850393701
 10
-8.127464566929135
 20
-0.0582795275590551
 10
-8.12457874015748
 20
-0.0556889763779528
 10
-8.121527559055117
 20
-0.053251968503937
 10
-8.1183031496063
 20
-0.0509645669291339
 10
-8.114968503937009
 20
-0.0489015748031496
 10
-8.111570866141733
 20
-0.0471141732283465
 10
-8.108110236220472
 20
-0.0455984251968504
 10
-8.104590551181102
 20
-0.0443622047244095
 10
-8.101007874015748
 20
-0.0433976377952756
 10
-8.09736220472441
 20
-0.0427086614173228
 10
-8.093661417322835
 20
-0.0422952755905512
 10
-8.089897637795275
 20
-0.0421574803149606
 10
-8.08279527559055
 20
-0.0424448818897638
 10
-8.076673228346456
 20
-0.0433149606299213
 10
-8.07398031496063
 20
-0.0439685039370079
 10
-8.071531496062992
 20
-0.0447677165354331
 10
-8.069326771653543
 20
-0.0457125984251969
 10
-8.067366141732283
 20
-0.0468070866141732
 10
-8.062429133858268
 20
-0.0504606299212598
 10
-8.058149606299212
 20
-0.054744094488189
 10
-8.054531496062992
 20
-0.0596535433070866
 10
-8.051566929133859
 20
-0.0651929133858268
 10
-8.049263779527559
 20
-0.0713582677165354
 10
-8.04761811023622
 20
-0.0781496062992126
 10
-8.046633858267716
 20
-0.0855708661417323
 10
-8.046303149606299
 20
-0.0936181102362205
 10
-8.046303149606299
 20
-0.2284094488188976
 10
-8.01201968503937
 20
-0.2284094488188976
 10
-8.01201968503937
 20
-0.0936181102362205
 10
-8.012271653543307
 20
-0.0853700787401575
 10
-8.006641732283464
 20
-0.0735236220472441
 10
-8.00459842519685
 20
-0.0701653543307087
 10
-8.002385826771654
 20
-0.0669645669291339
 10
-8.000007874015749
 20
-0.0639173228346457
 10
-7.99746062992126
 20
-0.0610196850393701
 10
-7.994744094488189
 20
-0.0582795275590551
 10
-7.991862204724409
 20
-0.0556889763779528
 10
-7.988811023622048
 20
-0.053251968503937
 10
-7.985590551181103
 20
-0.0509645669291339
 10
-7.982251968503937
 20
-0.0489015748031496
 10
-7.978854330708661
 20
-0.0471141732283465
 10
-7.975393700787402
 20
-0.0455984251968504
 10
-7.971874015748032
 20
-0.0443622047244095
 10
-7.968291338582677
 20
-0.0433976377952756
 10
-7.964649606299212
 20
-0.0427086614173228
 10
-7.960944881889763
 20
-0.0422952755905512
 10
-7.957177165354331
 20
-0.0421574803149606
 10
-7.950074803149606
 20
-0.0424448818897638
 10
-7.943952755905512
 20
-0.0433149606299213
 10
-7.941259842519685
 20
-0.0439685039370079
 10
-7.938814960629921
 20
-0.0447677165354331
 10
-7.936614173228347
 20
-0.0457125984251969
 10
-7.934657480314961
 20
-0.0468070866141732
 10
-7.929720472440945
 20
-0.0504606299212598
 10
-7.92544094488189
 20
-0.054744094488189
 10
-7.921818897637795
 20
-0.0596535433070866
 10
-7.918858267716535
 20
-0.0651929133858268
 10
-7.916555118110236
 20
-0.0713582677165354
 10
-7.914909448818897
 20
-0.0781496062992126
 10
-7.913925196850394
 20
-0.0855708661417323
 10
-7.913594488188976
 20
-0.0936181102362205
 10
-7.913594488188976
 20
-0.2284094488188976
  0
ENDSEC
  0
SECTION
  2
OBJECTS
  0
DICTIONARY
  5
C
330
0
100
AcDbDictionary
281
     1
  3
ACAD_DETAILVIEWSTYLE
350
8A
  3
ACAD_GROUP
350
D
  3
ACAD_LAYOUT
350
1A
  3
ACAD_MATERIAL
350
43
  3
ACAD_MLEADERSTYLE
350
5B
  3
ACAD_MLINESTYLE
350
17
  3
ACAD_PLOTSETTINGS
350
19
  3
ACAD_PLOTSTYLENAME
350
E
  3
ACAD_SCALELIST
350
47
  3
ACAD_SECTIONVIEWSTYLE
350
8B
  3
ACAD_TABLESTYLE
350
59
  3
ACAD_VISUALSTYLE
350
2A
  3
ACDB_RECOMPOSE_DATA
350
87
  3
AcDbVariableDictionary
350
83
  0
SUN
  5
5D
330
29
100
AcDbSun
 90
        1
290
     0
 63
     7
421
 16777215
 40
1.0
291
     1
 91
  2455826
 92
 54000000
292
     0
 70
     2
 71
   256
280
     1
  0
DICTIONARY
  5
8A
102
{ACAD_REACTORS
330
C
102
}
330
C
100
AcDbDictionary
281
     1
  0
DICTIONARY
  5
D
102
{ACAD_REACTORS
330
C
102
}
330
C
100
AcDbDictionary
281
     1
  0
DICTIONARY
  5
1A
102
{ACAD_REACTORS
330
C
102
}
330
C
100
AcDbDictionary
281
     1
  3
Layout1
350
1E
  3
Layout2
350
26
  3
Model
350
22
  0
DICTIONARY
  5
43
102
{ACAD_REACTORS
330
C
102
}
330
C
100
AcDbDictionary
281
     1
  3
ByBlock
350
45
  3
ByLayer
350
44
  3
Global
350
46
  0
DICTIONARY
  5
5B
102
{ACAD_REACTORS
330
C
102
}
330
C
100
AcDbDictionary
281
     1
  3
Standard
350
5C
  0
DICTIONARY
  5
17
102
{ACAD_REACTORS
330
C
102
}
330
C
100
AcDbDictionary
281
     1
  3
Standard
350
18
  0
DICTIONARY
  5
19
102
{ACAD_REACTORS
330
C
102
}
330
C
100
AcDbDictionary
281
     1
  0
ACDBDICTIONARYWDFLT
  5
E
102
{ACAD_REACTORS
330
C
102
}
330
C
100
AcDbDictionary
281
     1
  3
Normal
350
F
100
AcDbDictionaryWithDefault
340
F
  0
DICTIONARY
  5
47
102
{ACAD_REACTORS
330
C
102
}
330
C
100
AcDbDictionary
281
     1
  3
A0
350
48
  3
A1
350
49
  3
A2
350
4A
  3
A3
350
4B
  3
A4
350
4C
  3
A5
350
4D
  3
A6
350
4E
  3
A7
350
4F
  3
A8
350
50
  3
A9
350
51
  3
B1
350
52
  3
B2
350
53
  3
B3
350
54
  3
B4
350
55
  3
B5
350
56
  3
B6
350
57
  3
B7
350
58
  0
DICTIONARY
  5
8B
102
{ACAD_REACTORS
330
C
102
}
330
C
100
AcDbDictionary
281
     1
  0
DICTIONARY
  5
59
102
{ACAD_REACTORS
330
C
102
}
330
C
100
AcDbDictionary
281
     1
  3
Standard
350
5A
  0
DICTIONARY
  5
2A
102
{ACAD_REACTORS
330
C
102
}
330
C
100
AcDbDictionary
281
     1
  3
2dWireframe
350
2F
  3
Basic
350
32
  3
Brighten
350
36
  3
ColorChange
350
3A
  3
Conceptual
350
34
  3
Dim
350
35
  3
EdgeColorOff
350
3D
  3
Facepattern
350
39
  3
Flat
350
2B
  3
FlatWithEdges
350
2C
  3
Gouraud
350
2D
  3
GouraudWithEdges
350
2E
  3
Hidden
350
31
  3
JitterOff
350
3B
  3
Linepattern
350
38
  3
OverhangOff
350
3C
  3
Realistic
350
33
  3
Shaded
350
42
  3
Shaded with edges
350
41
  3
Shades of Gray
350
3E
  3
Sketchy
350
3F
  3
Thicken
350
37
  3
Wireframe
350
30
  3
X-Ray
350
40
  0
XRECORD
  5
87
102
{ACAD_REACTORS
330
C
102
}
330
C
100
AcDbXrecord
280
     1
 90
        1
330
5A
  0
DICTIONARY
  5
83
102
{ACAD_REACTORS
330
C
102
}
330
C
100
AcDbDictionary
281
     1
  3
CANNOSCALE
350
84
  3
CMLEADERSTYLE
350
89
  3
CTABLESTYLE
350
88
  0
LAYOUT
  5
1E
102
{ACAD_REACTORS
330
1A
102
}
330
1A
100
AcDbPlotSettings
  1

  2
none_device
  4

  6

 40
0.0
 41
0.0
 42
0.0
 43
0.0
 44
0.0
 45
0.0
 46
0.0
 47
0.0
 48
0.0
 49
0.0
140
0.0
141
0.0
142
1.0
143
1.0
 70
   688
 72
     0
 73
     0
 74
     5
  7

 75
    16
 76
     0
 77
     2
 78
   300
147
1.0
148
0.0
149
0.0
100
AcDbLayout
  1
Layout1
 70
     1
 71
     1
 10
0.0
 20
0.0
 11
12.0
 21
9.0
 12
0.0
 22
0.0
 32
0.0
 14
1.000000000000000E+20
 24
1.000000000000000E+20
 34
1.000000000000000E+20
 15
-1.000000000000000E+20
 25
-1.000000000000000E+20
 35
-1.000000000000000E+20
146
0.0
 13
0.0
 23
0.0
 33
0.0
 16
1.0
 26
0.0
 36
0.0
 17
0.0
 27
1.0
 37
0.0
 76
     0
330
1B
  0
LAYOUT
  5
26
102
{ACAD_REACTORS
330
1A
102
}
330
1A
100
AcDbPlotSettings
  1

  2
none_device
  4

  6

 40
0.0
 41
0.0
 42
0.0
 43
0.0
 44
0.0
 45
0.0
 46
0.0
 47
0.0
 48
0.0
 49
0.0
140
0.0
141
0.0
142
1.0
143
1.0
 70
   688
 72
     0
 73
     0
 74
     5
  7

 75
    16
 76
     0
 77
     2
 78
   300
147
1.0
148
0.0
149
0.0
100
AcDbLayout
  1
Layout2
 70
     1
 71
     2
 10
0.0
 20
0.0
 11
0.0
 21
0.0
 12
0.0
 22
0.0
 32
0.0
 14
0.0
 24
0.0
 34
0.0
 15
0.0
 25
0.0
 35
0.0
146
0.0
 13
0.0
 23
0.0
 33
0.0
 16
1.0
 26
0.0
 36
0.0
 17
0.0
 27
1.0
 37
0.0
 76
     0
330
23
  0
LAYOUT
  5
22
102
{ACAD_REACTORS
330
1A
102
}
330
1A
100
AcDbPlotSettings
  1

  2
none_device
  4
Letter_(8.50_x_11.00_Inches)
  6

 40
6.35
 41
6.35
 42
6.35000508
 43
6.35000508
 44
215.9
 45
279.4
 46
0.0
 47
0.0
 48
0.0
 49
0.0
140
0.0
141
0.0
142
1.0
143
1.0
 70
  1712
 72
     0
 73
     0
 74
     0
  7

 75
     0
 76
     0
 77
     2
 78
   300
147
1.0
148
0.0
149
0.0
100
AcDbLayout
  1
Model
 70
     1
 71
     0
 10
0.0
 20
0.0
 11
12.0
 21
9.0
 12
0.0
 22
0.0
 32
0.0
 14
-10.24152362204724
 24
-0.7307204724409448
 34
0.0
 15
-4.41903937007874
 25
5.855893700787401
 35
0.0
146
0.0
 13
0.0
 23
0.0
 33
0.0
 16
1.0
 26
0.0
 36
0.0
 17
0.0
 27
1.0
 37
0.0
 76
     0
330
1F
331
29
  0
MATERIAL
  5
45
102
{ACAD_REACTORS
330
43
102
}
330
43
100
AcDbMaterial
  1
ByBlock
 72
     1
 94
      127
  0
MATERIAL
  5
44
102
{ACAD_REACTORS
330
43
102
}
330
43
100
AcDbMaterial
  1
ByLayer
 72
     1
 94
      127
  0
MATERIAL
  5
46
102
{ACAD_REACTORS
330
43
102
}
330
43
100
AcDbMaterial
  1
Global
 72
     1
 94
      127
  0
MLEADERSTYLE
  5
5C
102
{ACAD_REACTORS
330
5B
102
}
330
5B
100
AcDbMLeaderStyle
179
     2
170
     2
171
     1
172
     0
 90
        2
 40
0.0
 41
0.0
173
     1
 91
-1056964608
340
14
 92
       -2
290
     1
 42
0.09
291
     1
 43
0.36
  3
Standard
341
0
 44
0.18
300

342
11
174
     1
178
     6
175
     1
176
     0
 93
-1056964608
 45
0.18
292
     0
297
     0
 46
0.18
343
0
 94
-1056964608
 47
1.0
 49
1.0
140
1.0
293
     1
141
0.0
294
     1
177
     0
142
1.0
295
     0
296
     0
143
0.125
271
     0
272
     9
273
     9
298
     0
  0
MLINESTYLE
  5
18
102
{ACAD_REACTORS
330
17
102
}
330
17
100
AcDbMlineStyle
  2
Standard
 70
     0
  3

 62
   256
 51
90.0
 52
90.0
 71
     2
 49
0.5
 62
   256
  6
BYLAYER
 49
-0.5
 62
   256
  6
BYLAYER
  0
ACDBPLACEHOLDER
  5
F
102
{ACAD_REACTORS
330
E
102
}
330
E
  0
SCALE
  5
48
102
{ACAD_REACTORS
330
47
102
}
330
47
100
AcDbScale
 70
     0
300
1:1
140
1.0
141
1.0
290
     1
  0
SCALE
  5
49
102
{ACAD_REACTORS
330
47
102
}
330
47
100
AcDbScale
 70
     0
300
1/128" = 1'-0"
140
0.0078125
141
12.0
290
     0
  0
SCALE
  5
4A
102
{ACAD_REACTORS
330
47
102
}
330
47
100
AcDbScale
 70
     0
300
1/64" = 1'-0"
140
0.015625
141
12.0
290
     0
  0
SCALE
  5
4B
102
{ACAD_REACTORS
330
47
102
}
330
47
100
AcDbScale
 70
     0
300
1/32" = 1'-0"
140
0.03125
141
12.0
290
     0
  0
SCALE
  5
4C
102
{ACAD_REACTORS
330
47
102
}
330
47
100
AcDbScale
 70
     0
300
1/16" = 1'-0"
140
0.0625
141
12.0
290
     0
  0
SCALE
  5
4D
102
{ACAD_REACTORS
330
47
102
}
330
47
100
AcDbScale
 70
     0
300
3/32" = 1'-0"
140
0.09375
141
12.0
290
     0
  0
SCALE
  5
4E
102
{ACAD_REACTORS
330
47
102
}
330
47
100
AcDbScale
 70
     0
300
1/8" = 1'-0"
140
0.125
141
12.0
290
     0
  0
SCALE
  5
4F
102
{ACAD_REACTORS
330
47
102
}
330
47
100
AcDbScale
 70
     0
300
3/16" = 1'-0"
140
0.1875
141
12.0
290
     0
  0
SCALE
  5
50
102
{ACAD_REACTORS
330
47
102
}
330
47
100
AcDbScale
 70
     0
300
1/4" = 1'-0"
140
0.25
141
12.0
290
     0
  0
SCALE
  5
51
102
{ACAD_REACTORS
330
47
102
}
330
47
100
AcDbScale
 70
     0
300
3/8" = 1'-0"
140
0.375
141
12.0
290
     0
  0
SCALE
  5
52
102
{ACAD_REACTORS
330
47
102
}
330
47
100
AcDbScale
 70
     0
300
1/2" = 1'-0"
140
0.5
141
12.0
290
     0
  0
SCALE
  5
53
102
{ACAD_REACTORS
330
47
102
}
330
47
100
AcDbScale
 70
     0
300
3/4" = 1'-0"
140
0.75
141
12.0
290
     0
  0
SCALE
  5
54
102
{ACAD_REACTORS
330
47
102
}
330
47
100
AcDbScale
 70
     0
300
1" = 1'-0"
140
1.0
141
12.0
290
     0
  0
SCALE
  5
55
102
{ACAD_REACTORS
330
47
102
}
330
47
100
AcDbScale
 70
     0
300
1-1/2" = 1'-0"
140
1.5
141
12.0
290
     0
  0
SCALE
  5
56
102
{ACAD_REACTORS
330
47
102
}
330
47
100
AcDbScale
 70
     0
300
3" = 1'-0"
140
3.0
141
12.0
290
     0
  0
SCALE
  5
57
102
{ACAD_REACTORS
330
47
102
}
330
47
100
AcDbScale
 70
     0
300
6" = 1'-0"
140
6.0
141
12.0
290
     0
  0
SCALE
  5
58
102
{ACAD_REACTORS
330
47
102
}
330
47
100
AcDbScale
 70
     0
300
1'-0" = 1'-0"
140
12.0
141
12.0
290
     0
  0
TABLESTYLE
  5
5A
102
{ACAD_REACTORS
330
59
102
}
102
{ACAD_XDICTIONARY
360
85
102
}
330
59
100
AcDbTableStyle
  3
Standard
 70
     0
 71
     0
 40
0.06
 41
0.06
280
     0
281
     0
  7
Standard
140
0.18
170
     2
 62
     0
 63
   257
283
     0
 90
        4
 91
        0
  1

274
    -2
284
     1
 64
     0
275
    -2
285
     1
 65
     0
276
    -2
286
     1
 66
     0
277
    -2
287
     1
 67
     0
278
    -2
288
     1
 68
     0
279
    -2
289
     1
 69
     0
  7
Standard
140
0.25
170
     5
 62
     0
 63
   257
283
     0
 90
        4
 91
        0
  1

274
    -2
284
     1
 64
     0
275
    -2
285
     1
 65
     0
276
    -2
286
     1
 66
     0
277
    -2
287
     1
 67
     0
278
    -2
288
     1
 68
     0
279
    -2
289
     1
 69
     0
  7
Standard
140
0.18
170
     5
 62
     0
 63
   257
283
     0
 90
        4
 91
        0
  1

274
    -2
284
     1
 64
     0
275
    -2
285
     1
 65
     0
276
    -2
286
     1
 66
     0
277
    -2
287
     1
 67
     0
278
    -2
288
     1
 68
     0
279
    -2
289
     1
 69
     0
  0
VISUALSTYLE
  5
2F
102
{ACAD_REACTORS
330
2A
102
}
330
2A
100
AcDbVisualStyle
  2
2dWireframe
 70
     4
177
     3
291
     0
 70
    58
 90
        0
176
     1
 90
        2
176
     1
 90
        0
176
     1
 90
        0
176
     1
 40
0.6
176
     1
 40
30.0
176
     1
 62
     7
420
 16777215
176
     1
 90
        1
176
     1
 90
        4
176
     1
 62
     7
176
     1
 62
   257
176
     1
 90
        1
176
     1
 90
        1
176
     1
 40
1.0
176
     1
 90
        0
176
     1
 62
   257
176
     1
 40
1.0
176
     1
 90
        1
176
     1
 90
        6
176
     1
 90
        2
176
     1
 62
     7
176
     1
 90
        5
176
     1
 90
        0
176
     1
 90
        0
176
     1
290
     0
176
     1
 90
        1
176
     1
 40
0.0
176
     1
 90
        0
176
     1
290
     1
176
     1
290
     1
176
     1
290
     0
176
     1
290
     0
176
     1
290
     0
176
     1
290
     0
176
     1
290
     0
176
     1
290
     0
176
     1
290
     0
176
     1
 90
       50
176
     1
 40
0.0
176
     1
 40
1.0
176
     1
 90
        0
176
     1
 62
    18
420
        0
176
     1
 90
       50
176
     1
 90
        3
176
     1
 62
     5
420
      255
176
     1
290
     0
176
     1
 90
       50
176
     1
 90
       50
176
     1
 90
       50
176
     1
290
     0
176
     1
 90
       50
176
     1
 62
   256
176
     0
 40
1.0
176
     0
 90
        2
176
     1
  1
strokes_ogs.tif
176
     1
290
     0
176
     1
 40
1.0
176
     1
 40
1.0
176
     1
  0
VISUALSTYLE
  5
32
102
{ACAD_REACTORS
330
2A
102
}
330
2A
100
AcDbVisualStyle
  2
Basic
 70
     7
177
     3
291
     1
 70
    58
 90
        1
176
     1
 90
        0
176
     1
 90
        1
176
     1
 90
        0
176
     1
 40
0.6
176
     1
 40
30.0
176
     1
 62
     7
420
 16777215
176
     1
 90
        0
176
     1
 90
        4
176
     1
 62
     7
176
     1
 62
   257
176
     1
 90
        1
176
     1
 90
        1
176
     1
 40
1.0
176
     1
 90
        8
176
     1
 62
     7
176
     1
 40
1.0
176
     1
 90
        1
176
     1
 90
        6
176
     1
 90
        2
176
     1
 62
     7
176
     1
 90
        5
176
     1
 90
        0
176
     1
 90
        0
176
     1
290
     0
176
     1
 90
        1
176
     1
 40
0.0
176
     1
 90
        0
176
     1
290
     0
176
     1
290
     1
176
     1
290
     1
176
     1
290
     0
176
     1
290
     0
176
     1
290
     0
176
     1
290
     0
176
     1
290
     0
176
     1
290
     0
176
     1
 90
       50
176
     1
 40
0.0
176
     1
 40
1.0
176
     1
 90
        0
176
     1
 62
    18
420
        0
176
     1
 90
       50
176
     1
 90
        3
176
     1
 62
     5
420
      255
176
     1
290
     0
176
     1
 90
       50
176
     1
 90
       50
176
     1
 90
       50
176
     1
290
     0
176
     1
 90
       50
176
     1
 62
   256
176
     0
 40
1.0
176
     0
 90
        2
176
     1
  1
strokes_ogs.tif
176
     1
290
     0
176
     1
 40
1.0
176
     1
 40
1.0
176
     1
  0
VISUALSTYLE
  5
36
102
{ACAD_REACTORS
330
2A
102
}
330
2A
100
AcDbVisualStyle
  2
Brighten
 70
    12
177
     3
291
     1
 70
    58
 90
        2
176
     1
 90
        2
176
     1
 90
        0
176
     1
 90
        0
176
     1
 40
0.6
176
     1
 40
30.0
176
     1
 62
     7
420
 16777215
176
     1
 90
        1
176
     1
 90
        4
176
     1
 62
     7
176
     1
 62
   257
176
     1
 90
        1
176
     1
 90
        1
176
     1
 40
1.0
176
     1
 90
        8
176
     1
 62
     7
176
     1
 40
1.0
176
     1
 90
        1
176
     1
 90
        6
176
     1
 90
        2
176
     1
 62
     7
176
     1
 90
        5
176
     1
 90
        0
176
     1
 90
        0
176
     1
290
     0
176
     1
 90
        1
176
     1
 40
50.0
176
     1
 90
        0
176
     1
290
     0
176
     1
290
     1
176
     1
290
     1
176
     1
290
     0
176
     1
290
     0
176
     1
290
     0
176
     1
290
     0
176
     1
290
     0
176
     1
290
     0
176
     1
 90
       50
176
     1
 40
0.0
176
     1
 40
1.0
176
     1
 90
        0
176
     1
 62
    18
420
        0
176
     1
 90
       50
176
     1
 90
        3
176
     1
 62
     5
420
      255
176
     1
290
     0
176
     1
 90
       50
176
     1
 90
       50
176
     1
 90
       50
176
     1
290
     0
176
     1
 90
       50
176
     1
 62
   256
176
     0
 40
1.0
176
     0
 90
        2
176
     1
  1
strokes_ogs.tif
176
     1
290
     0
176
     1
 40
1.0
176
     1
 40
1.0
176
     1
  0
VISUALSTYLE
  5
3A
102
{ACAD_REACTORS
330
2A
102
}
330
2A
100
AcDbVisualStyle
  2
ColorChange
 70
    16
177
     3
291
     1
 70
    58
 90
        2
176
     1
 90
        2
176
     1
 90
        3
176
     1
 90
        0
176
     1
 40
0.6
176
     1
 40
30.0
176
     1
 62
     8
420
  8421504
176
     1
 90
        1
176
     1
 90
        4
176
     1
 62
     7
176
     1
 62
   257
176
     1
 90
        1
176
     1
 90
        1
176
     1
 40
1.0
176
     1
 90
        8
176
     1
 62
     8
420
  8421504
176
     1
 40
1.0
176
     1
 90
        1
176
     1
 90
        6
176
     1
 90
        2
176
     1
 62
     7
176
     1
 90
        5
176
     1
 90
        0
176
     1
 90
        0
176
     1
290
     0
176
     1
 90
        1
176
     1
 40
0.0
176
     1
 90
        0
176
     1
290
     0
176
     1
290
     1
176
     1
290
     1
176
     1
290
     0
176
     1
290
     0
176
     1
290
     0
176
     1
290
     0
176
     1
290
     0
176
     1
290
     0
176
     1
 90
       50
176
     1
 40
0.0
176
     1
 40
1.0
176
     1
 90
        0
176
     1
 62
    18
420
        0
176
     1
 90
       50
176
     1
 90
        3
176
     1
 62
     5
420
      255
176
     1
290
     0
176
     1
 90
       50
176
     1
 90
       50
176
     1
 90
       50
176
     1
290
     0
176
     1
 90
       50
176
     1
 62
   256
176
     0
 40
1.0
176
     0
 90
        2
176
     1
  1
strokes_ogs.tif
176
     1
290
     0
176
     1
 40
1.0
176
     1
 40
1.0
176
     1
  0
VISUALSTYLE
  5
34
102
{ACAD_REACTORS
330
2A
102
}
330
2A
100
AcDbVisualStyle
  2
Conceptual
 70
     9
177
     3
291
     0
 70
    58
 90
        3
176
     1
 90
        2
176
     1
 90
        0
176
     1
 90
        0
176
     1
 40
0.6
176
     1
 40
30.0
176
     1
 62
     7
420
 16777215
176
     1
 90
        2
176
     1
 90
        2
176
     1
 62
     7
176
     1
 62
   257
176
     1
 90
        1
176
     1
 90
        1
176
     1
 40
179.0
176
     1
 90
        8
176
     1
 62
     7
176
     1
 40
1.0
176
     1
 90
        1
176
     1
 90
        6
176
     1
 90
        2
176
     1
 62
     7
176
     1
 90
        3
176
     1
 90
        0
176
     1
 90
        0
176
     1
290
     0
176
     1
 90
        1
176
     1
 40
0.0
176
     1
 90
        0
176
     1
290
     0
176
     1
290
     1
176
     1
290
     1
176
     1
290
     0
176
     1
290
     0
176
     1
290
     0
176
     1
290
     0
176
     1
290
     0
176
     1
290
     0
176
     1
 90
       50
176
     1
 40
0.0
176
     1
 40
1.0
176
     1
 90
        0
176
     1
 62
    18
420
        0
176
     1
 90
       50
176
     1
 90
        3
176
     1
 62
     5
420
      255
176
     1
290
     0
176
     1
 90
       50
176
     1
 90
       50
176
     1
 90
       50
176
     1
290
     0
176
     1
 90
       50
176
     1
 62
   256
176
     0
 40
1.0
176
     0
 90
        2
176
     1
  1
strokes_ogs.tif
176
     1
290
     0
176
     1
 40
1.0
176
     1
 40
1.0
176
     1
  0
VISUALSTYLE
  5
35
102
{ACAD_REACTORS
330
2A
102
}
330
2A
100
AcDbVisualStyle
  2
Dim
 70
    11
177
     3
291
     1
 70
    58
 90
        2
176
     1
 90
        2
176
     1
 90
        0
176
     1
 90
        0
176
     1
 40
0.6
176
     1
 40
30.0
176
     1
 62
     7
420
 16777215
176
     1
 90
        1
176
     1
 90
        4
176
     1
 62
     7
176
     1
 62
   257
176
     1
 90
        1
176
     1
 90
        1
176
     1
 40
1.0
176
     1
 90
        8
176
     1
 62
     7
176
     1
 40
1.0
176
     1
 90
        1
176
     1
 90
        6
176
     1
 90
        2
176
     1
 62
     7
176
     1
 90
        5
176
     1
 90
        0
176
     1
 90
        0
176
     1
290
     0
176
     1
 90
        1
176
     1
 40
-50.0
176
     1
 90
        0
176
     1
290
     0
176
     1
290
     1
176
     1
290
     1
176
     1
290
     0
176
     1
290
     0
176
     1
290
     0
176
     1
290
     0
176
     1
290
     0
176
     1
290
     0
176
     1
 90
       50
176
     1
 40
0.0
176
     1
 40
1.0
176
     1
 90
        0
176
     1
 62
    18
420
        0
176
     1
 90
       50
176
     1
 90
        3
176
     1
 62
     5
420
      255
176
     1
290
     0
176
     1
 90
       50
176
     1
 90
       50
176
     1
 90
       50
176
     1
290
     0
176
     1
 90
       50
176
     1
 62
   256
176
     0
 40
1.0
176
     0
 90
        2
176
     1
  1
strokes_ogs.tif
176
     1
290
     0
176
     1
 40
1.0
176
     1
 40
1.0
176
     1
  0
VISUALSTYLE
  5
3D
102
{ACAD_REACTORS
330
2A
102
}
330
2A
100
AcDbVisualStyle
  2
EdgeColorOff
 70
    22
177
     3
291
     1
 70
    58
 90
        2
176
     0
 90
        2
176
     0
 90
        0
176
     0
 90
        0
176
     0
 40
0.6
176
     0
 40
30.0
176
     0
 62
     7
420
 16777215
176
     0
 90
        1
176
     0
 90
        4
176
     0
 62
     7
176
     0
 62
   257
176
     0
 90
        1
176
     0
 90
        1
176
     0
 40
1.0
176
     0
 90
        8
176
     2
 62
     7
176
     0
 40
1.0
176
     0
 90
        1
176
     0
 90
        6
176
     0
 90
        2
176
     0
 62
     7
176
     0
 90
        5
176
     0
 90
        0
176
     0
 90
        0
176
     0
290
     0
176
     0
 90
        1
176
     0
 40
0.0
176
     0
 90
        0
176
     0
290
     0
176
     0
290
     1
176
     0
290
     1
176
     0
290
     0
176
     0
290
     0
176
     0
290
     0
176
     0
290
     0
176
     0
290
     0
176
     0
290
     0
176
     0
 90
       50
176
     0
 40
0.0
176
     0
 40
1.0
176
     0
 90
        0
176
     0
 62
    18
420
        0
176
     0
 90
       50
176
     0
 90
        3
176
     0
 62
     5
420
      255
176
     0
290
     0
176
     0
 90
       50
176
     0
 90
       50
176
     0
 90
       50
176
     0
290
     0
176
     0
 90
       50
176
     0
 62
   256
176
     0
 40
1.0
176
     0
 90
        2
176
     0
  1
strokes_ogs.tif
176
     0
290
     0
176
     0
 40
1.0
176
     0
 40
1.0
176
     0
  0
VISUALSTYLE
  5
39
102
{ACAD_REACTORS
330
2A
102
}
330
2A
100
AcDbVisualStyle
  2
Facepattern
 70
    15
177
     3
291
     1
 70
    58
 90
        2
176
     1
 90
        2
176
     1
 90
        0
176
     1
 90
        0
176
     1
 40
0.6
176
     1
 40
30.0
176
     1
 62
     7
420
 16777215
176
     1
 90
        1
176
     1
 90
        4
176
     1
 62
     7
176
     1
 62
   257
176
     1
 90
        1
176
     1
 90
        1
176
     1
 40
1.0
176
     1
 90
        8
176
     1
 62
     7
176
     1
 40
1.0
176
     1
 90
        1
176
     1
 90
        6
176
     1
 90
        2
176
     1
 62
     7
176
     1
 90
        5
176
     1
 90
        0
176
     1
 90
        0
176
     1
290
     0
176
     1
 90
        1
176
     1
 40
0.0
176
     1
 90
        0
176
     1
290
     0
176
     1
290
     1
176
     1
290
     1
176
     1
290
     0
176
     1
290
     0
176
     1
290
     0
176
     1
290
     0
176
     1
290
     0
176
     1
290
     0
176
     1
 90
       50
176
     1
 40
0.0
176
     1
 40
1.0
176
     1
 90
        0
176
     1
 62
    18
420
        0
176
     1
 90
       50
176
     1
 90
        3
176
     1
 62
     5
420
      255
176
     1
290
     0
176
     1
 90
       50
176
     1
 90
       50
176
     1
 90
       50
176
     1
290
     0
176
     1
 90
       50
176
     1
 62
   256
176
     0
 40
1.0
176
     0
 90
        2
176
     1
  1
strokes_ogs.tif
176
     1
290
     0
176
     1
 40
1.0
176
     1
 40
1.0
176
     1
  0
VISUALSTYLE
  5
2B
102
{ACAD_REACTORS
330
2A
102
}
330
2A
100
AcDbVisualStyle
  2
Flat
 70
     0
177
     3
291
     1
 70
    58
 90
        2
176
     1
 90
        1
176
     1
 90
        1
176
     1
 90
        2
176
     1
 40
0.6
176
     1
 40
30.0
176
     1
 62
     7
420
 16777215
176
     1
 90
        0
176
     1
 90
        0
176
     1
 62
     7
176
     1
 62
   257
176
     1
 90
        1
176
     1
 90
        1
176
     1
 40
1.0
176
     1
 90
        8
176
     1
 62
     7
176
     1
 40
1.0
176
     1
 90
        1
176
     1
 90
        6
176
     1
 90
        2
176
     1
 62
     7
176
     1
 90
        5
176
     1
 90
        0
176
     1
 90
        0
176
     1
290
     0
176
     1
 90
       13
176
     1
 40
0.0
176
     1
 90
        0
176
     1
290
     0
176
     1
290
     1
176
     1
290
     1
176
     1
290
     0
176
     1
290
     0
176
     1
290
     0
176
     1
290
     0
176
     1
290
     0
176
     1
290
     0
176
     1
 90
       50
176
     1
 40
0.0
176
     1
 40
1.0
176
     1
 90
        0
176
     1
 62
    18
420
        0
176
     1
 90
       50
176
     1
 90
        3
176
     1
 62
     5
420
      255
176
     1
290
     0
176
     1
 90
       50
176
     1
 90
       50
176
     1
 90
       50
176
     1
290
     0
176
     1
 90
       50
176
     1
 62
   256
176
     0
 40
1.0
176
     0
 90
        2
176
     1
  1
strokes_ogs.tif
176
     1
290
     0
176
     1
 40
1.0
176
     1
 40
1.0
176
     1
  0
VISUALSTYLE
  5
2C
102
{ACAD_REACTORS
330
2A
102
}
330
2A
100
AcDbVisualStyle
  2
FlatWithEdges
 70
     1
177
     3
291
     1
 70
    58
 90
        2
176
     1
 90
        1
176
     1
 90
        1
176
     1
 90
        2
176
     1
 40
0.6
176
     1
 40
30.0
176
     1
 62
     7
420
 16777215
176
     1
 90
        1
176
     1
 90
        0
176
     1
 62
     7
176
     1
 62
   257
176
     1
 90
        1
176
     1
 90
        1
176
     1
 40
1.0
176
     1
 90
        0
176
     1
 62
   257
176
     1
 40
1.0
176
     1
 90
        1
176
     1
 90
        6
176
     1
 90
        2
176
     1
 62
     7
176
     1
 90
        5
176
     1
 90
        0
176
     1
 90
        0
176
     1
290
     0
176
     1
 90
       13
176
     1
 40
0.0
176
     1
 90
        0
176
     1
290
     0
176
     1
290
     1
176
     1
290
     1
176
     1
290
     0
176
     1
290
     0
176
     1
290
     0
176
     1
290
     0
176
     1
290
     0
176
     1
290
     0
176
     1
 90
       50
176
     1
 40
0.0
176
     1
 40
1.0
176
     1
 90
        0
176
     1
 62
    18
420
        0
176
     1
 90
       50
176
     1
 90
        3
176
     1
 62
     5
420
      255
176
     1
290
     0
176
     1
 90
       50
176
     1
 90
       50
176
     1
 90
       50
176
     1
290
     0
176
     1
 90
       50
176
     1
 62
   256
176
     0
 40
1.0
176
     0
 90
        2
176
     1
  1
strokes_ogs.tif
176
     1
290
     0
176
     1
 40
1.0
176
     1
 40
1.0
176
     1
  0
VISUALSTYLE
  5
2D
102
{ACAD_REACTORS
330
2A
102
}
330
2A
100
AcDbVisualStyle
  2
Gouraud
 70
     2
177
     3
291
     1
 70
    58
 90
        2
176
     1
 90
        2
176
     1
 90
        1
176
     1
 90
        2
176
     1
 40
0.6
176
     1
 40
30.0
176
     1
 62
     7
420
 16777215
176
     1
 90
        0
176
     1
 90
        0
176
     1
 62
     7
176
     1
 62
   257
176
     1
 90
        1
176
     1
 90
        1
176
     1
 40
1.0
176
     1
 90
        0
176
     1
 62
     7
176
     1
 40
1.0
176
     1
 90
        1
176
     1
 90
        6
176
     1
 90
        2
176
     1
 62
     7
176
     1
 90
        5
176
     1
 90
        0
176
     1
 90
        0
176
     1
290
     0
176
     1
 90
       13
176
     1
 40
0.0
176
     1
 90
        0
176
     1
290
     0
176
     1
290
     1
176
     1
290
     1
176
     1
290
     0
176
     1
290
     0
176
     1
290
     0
176
     1
290
     0
176
     1
290
     0
176
     1
290
     0
176
     1
 90
       50
176
     1
 40
0.0
176
     1
 40
1.0
176
     1
 90
        0
176
     1
 62
    18
420
        0
176
     1
 90
       50
176
     1
 90
        3
176
     1
 62
     5
420
      255
176
     1
290
     0
176
     1
 90
       50
176
     1
 90
       50
176
     1
 90
       50
176
     1
290
     0
176
     1
 90
       50
176
     1
 62
   256
176
     0
 40
1.0
176
     0
 90
        2
176
     1
  1
strokes_ogs.tif
176
     1
290
     0
176
     1
 40
1.0
176
     1
 40
1.0
176
     1
  0
VISUALSTYLE
  5
2E
102
{ACAD_REACTORS
330
2A
102
}
330
2A
100
AcDbVisualStyle
  2
GouraudWithEdges
 70
     3
177
     3
291
     1
 70
    58
 90
        2
176
     1
 90
        2
176
     1
 90
        1
176
     1
 90
        2
176
     1
 40
0.6
176
     1
 40
30.0
176
     1
 62
     7
420
 16777215
176
     1
 90
        1
176
     1
 90
        0
176
     1
 62
     7
176
     1
 62
   257
176
     1
 90
        1
176
     1
 90
        1
176
     1
 40
1.0
176
     1
 90
        0
176
     1
 62
   257
176
     1
 40
1.0
176
     1
 90
        1
176
     1
 90
        6
176
     1
 90
        2
176
     1
 62
     7
176
     1
 90
        5
176
     1
 90
        0
176
     1
 90
        0
176
     1
290
     0
176
     1
 90
       13
176
     1
 40
0.0
176
     1
 90
        0
176
     1
290
     0
176
     1
290
     1
176
     1
290
     1
176
     1
290
     0
176
     1
290
     0
176
     1
290
     0
176
     1
290
     0
176
     1
290
     0
176
     1
290
     0
176
     1
 90
       50
176
     1
 40
0.0
176
     1
 40
1.0
176
     1
 90
        0
176
     1
 62
    18
420
        0
176
     1
 90
       50
176
     1
 90
        3
176
     1
 62
     5
420
      255
176
     1
290
     0
176
     1
 90
       50
176
     1
 90
       50
176
     1
 90
       50
176
     1
290
     0
176
     1
 90
       50
176
     1
 62
   256
176
     0
 40
1.0
176
     0
 90
        2
176
     1
  1
strokes_ogs.tif
176
     1
290
     0
176
     1
 40
1.0
176
     1
 40
1.0
176
     1
  0
VISUALSTYLE
  5
31
102
{ACAD_REACTORS
330
2A
102
}
330
2A
100
AcDbVisualStyle
  2
Hidden
 70
     6
177
     3
291
     0
 70
    58
 90
        1
176
     1
 90
        2
176
     1
 90
        2
176
     1
 90
        0
176
     1
 40
0.6
176
     1
 40
30.0
176
     1
 62
     7
420
 16777215
176
     1
 90
        2
176
     1
 90
        2
176
     1
 62
     7
176
     1
 62
   257
176
     1
 90
        2
176
     1
 90
        1
176
     1
 40
40.0
176
     1
 90
        0
176
     1
 62
   257
176
     1
 40
1.0
176
     1
 90
        1
176
     1
 90
        6
176
     1
 90
        2
176
     1
 62
     7
176
     1
 90
        3
176
     1
 90
        0
176
     1
 90
        0
176
     1
290
     0
176
     1
 90
        1
176
     1
 40
0.0
176
     1
 90
        0
176
     1
290
     0
176
     1
290
     1
176
     1
290
     1
176
     1
290
     0
176
     1
290
     0
176
     1
290
     0
176
     1
290
     0
176
     1
290
     0
176
     1
290
     0
176
     1
 90
       50
176
     1
 40
0.0
176
     1
 40
1.0
176
     1
 90
        0
176
     1
 62
    18
420
        0
176
     1
 90
       50
176
     1
 90
        3
176
     1
 62
     5
420
      255
176
     1
290
     0
176
     1
 90
       50
176
     1
 90
       50
176
     1
 90
       50
176
     1
290
     0
176
     1
 90
       50
176
     1
 62
   256
176
     0
 40
1.0
176
     0
 90
        2
176
     1
  1
strokes_ogs.tif
176
     1
290
     0
176
     1
 40
1.0
176
     1
 40
1.0
176
     1
  0
VISUALSTYLE
  5
3B
102
{ACAD_REACTORS
330
2A
102
}
330
2A
100
AcDbVisualStyle
  2
JitterOff
 70
    20
177
     3
291
     1
 70
    58
 90
        2
176
     0
 90
        2
176
     0
 90
        0
176
     0
 90
        0
176
     0
 40
0.6
176
     0
 40
30.0
176
     0
 62
     7
420
 16777215
176
     0
 90
        1
176
     0
 90
        4
176
     0
 62
     7
176
     0
 62
   257
176
     0
 90
        1
176
     0
 90
        1
176
     0
 40
1.0
176
     0
 90
       10
176
     2
 62
     7
176
     0
 40
1.0
176
     0
 90
        1
176
     0
 90
        6
176
     0
 90
        2
176
     0
 62
     7
176
     0
 90
        5
176
     0
 90
        0
176
     0
 90
        0
176
     0
290
     0
176
     0
 90
        1
176
     0
 40
0.0
176
     0
 90
        0
176
     0
290
     0
176
     0
290
     1
176
     0
290
     1
176
     0
290
     0
176
     0
290
     0
176
     0
290
     0
176
     0
290
     0
176
     0
290
     0
176
     0
290
     0
176
     0
 90
       50
176
     0
 40
0.0
176
     0
 40
1.0
176
     0
 90
        0
176
     0
 62
    18
420
        0
176
     0
 90
       50
176
     0
 90
        3
176
     0
 62
     5
420
      255
176
     0
290
     0
176
     0
 90
       50
176
     0
 90
       50
176
     0
 90
       50
176
     0
290
     0
176
     0
 90
       50
176
     0
 62
   256
176
     0
 40
1.0
176
     0
 90
        2
176
     0
  1
strokes_ogs.tif
176
     0
290
     0
176
     0
 40
1.0
176
     0
 40
1.0
176
     0
  0
VISUALSTYLE
  5
38
102
{ACAD_REACTORS
330
2A
102
}
330
2A
100
AcDbVisualStyle
  2
Linepattern
 70
    14
177
     3
291
     1
 70
    58
 90
        2
176
     1
 90
        2
176
     1
 90
        0
176
     1
 90
        0
176
     1
 40
0.6
176
     1
 40
30.0
176
     1
 62
     7
420
 16777215
176
     1
 90
        1
176
     1
 90
        4
176
     1
 62
     7
176
     1
 62
   257
176
     1
 90
        7
176
     1
 90
        7
176
     1
 40
1.0
176
     1
 90
        8
176
     1
 62
     7
176
     1
 40
1.0
176
     1
 90
        1
176
     1
 90
        6
176
     1
 90
        2
176
     1
 62
     7
176
     1
 90
        5
176
     1
 90
        0
176
     1
 90
        0
176
     1
290
     0
176
     1
 90
        1
176
     1
 40
0.0
176
     1
 90
        0
176
     1
290
     0
176
     1
290
     1
176
     1
290
     1
176
     1
290
     0
176
     1
290
     0
176
     1
290
     0
176
     1
290
     0
176
     1
290
     0
176
     1
290
     0
176
     1
 90
       50
176
     1
 40
0.0
176
     1
 40
1.0
176
     1
 90
        0
176
     1
 62
    18
420
        0
176
     1
 90
       50
176
     1
 90
        3
176
     1
 62
     5
420
      255
176
     1
290
     0
176
     1
 90
       50
176
     1
 90
       50
176
     1
 90
       50
176
     1
290
     0
176
     1
 90
       50
176
     1
 62
   256
176
     0
 40
1.0
176
     0
 90
        2
176
     1
  1
strokes_ogs.tif
176
     1
290
     0
176
     1
 40
1.0
176
     1
 40
1.0
176
     1
  0
VISUALSTYLE
  5
3C
102
{ACAD_REACTORS
330
2A
102
}
330
2A
100
AcDbVisualStyle
  2
OverhangOff
 70
    21
177
     3
291
     1
 70
    58
 90
        2
176
     0
 90
        2
176
     0
 90
        0
176
     0
 90
        0
176
     0
 40
0.6
176
     0
 40
30.0
176
     0
 62
     7
420
 16777215
176
     0
 90
        1
176
     0
 90
        4
176
     0
 62
     7
176
     0
 62
   257
176
     0
 90
        1
176
     0
 90
        1
176
     0
 40
1.0
176
     0
 90
        9
176
     2
 62
     7
176
     0
 40
1.0
176
     0
 90
        1
176
     0
 90
        6
176
     0
 90
        2
176
     0
 62
     7
176
     0
 90
        5
176
     0
 90
        0
176
     0
 90
        0
176
     0
290
     0
176
     0
 90
        1
176
     0
 40
0.0
176
     0
 90
        0
176
     0
290
     0
176
     0
290
     1
176
     0
290
     1
176
     0
290
     0
176
     0
290
     0
176
     0
290
     0
176
     0
290
     0
176
     0
290
     0
176
     0
290
     0
176
     0
 90
       50
176
     0
 40
0.0
176
     0
 40
1.0
176
     0
 90
        0
176
     0
 62
    18
420
        0
176
     0
 90
       50
176
     0
 90
        3
176
     0
 62
     5
420
      255
176
     0
290
     0
176
     0
 90
       50
176
     0
 90
       50
176
     0
 90
       50
176
     0
290
     0
176
     0
 90
       50
176
     0
 62
   256
176
     0
 40
1.0
176
     0
 90
        2
176
     0
  1
strokes_ogs.tif
176
     0
290
     0
176
     0
 40
1.0
176
     0
 40
1.0
176
     0
  0
VISUALSTYLE
  5
33
102
{ACAD_REACTORS
330
2A
102
}
330
2A
100
AcDbVisualStyle
  2
Realistic
 70
     8
177
     3
291
     0
 70
    58
 90
        2
176
     1
 90
        3
176
     1
 90
        0
176
     1
 90
        2
176
     1
 40
0.6
176
     1
 40
30.0
176
     1
 62
     7
420
 16777215
176
     1
 90
        0
176
     1
 90
        0
176
     1
 62
     7
176
     1
 62
   257
176
     1
 90
        1
176
     1
 90
        1
176
     1
 40
1.0
176
     1
 90
        8
176
     1
 62
   257
176
     1
 40
1.0
176
     1
 90
        1
176
     1
 90
        6
176
     1
 90
        2
176
     1
 62
     7
176
     1
 90
        3
176
     1
 90
        0
176
     1
 90
        0
176
     1
290
     0
176
     1
 90
       13
176
     1
 40
0.0
176
     1
 90
        0
176
     1
290
     0
176
     1
290
     1
176
     1
290
     1
176
     1
290
     0
176
     1
290
     0
176
     1
290
     0
176
     1
290
     0
176
     1
290
     0
176
     1
290
     0
176
     1
 90
       50
176
     1
 40
0.0
176
     1
 40
1.0
176
     1
 90
        0
176
     1
 62
    18
420
        0
176
     1
 90
       50
176
     1
 90
        3
176
     1
 62
     5
420
      255
176
     1
290
     0
176
     1
 90
       50
176
     1
 90
       50
176
     1
 90
       50
176
     1
290
     0
176
     1
 90
       50
176
     1
 62
   256
176
     0
 40
1.0
176
     0
 90
        2
176
     1
  1
strokes_ogs.tif
176
     1
290
     0
176
     1
 40
1.0
176
     1
 40
1.0
176
     1
  0
VISUALSTYLE
  5
42
102
{ACAD_REACTORS
330
2A
102
}
330
2A
100
AcDbVisualStyle
  2
Shaded
 70
    27
177
     3
291
     0
 70
    58
 90
        2
176
     1
 90
        2
176
     1
 90
        1
176
     1
 90
        2
176
     1
 40
0.6
176
     1
 40
30.0
176
     1
 62
     7
420
 16777215
176
     1
 90
        0
176
     1
 90
        4
176
     1
 62
     7
176
     1
 62
   257
176
     1
 90
        1
176
     1
 90
        1
176
     1
 40
1.0
176
     1
 90
        8
176
     1
 62
   257
176
     1
 40
1.0
176
     1
 90
        1
176
     1
 90
        6
176
     1
 90
        2
176
     1
 62
     8
420
  7895160
176
     1
 90
        3
176
     1
 90
        0
176
     1
 90
        0
176
     1
290
     0
176
     1
 90
        5
176
     1
 40
0.0
176
     1
 90
        0
176
     1
290
     0
176
     1
290
     1
176
     1
290
     1
176
     1
290
     0
176
     1
290
     0
176
     1
290
     0
176
     1
290
     0
176
     1
290
     0
176
     1
290
     0
176
     1
 90
       50
176
     1
 40
0.0
176
     1
 40
1.0
176
     1
 90
        0
176
     1
 62
    18
420
        0
176
     1
 90
       50
176
     1
 90
        3
176
     1
 62
     5
420
      255
176
     1
290
     0
176
     1
 90
       50
176
     1
 90
       50
176
     1
 90
       50
176
     1
290
     0
176
     1
 90
       50
176
     1
 62
   256
176
     0
 40
1.0
176
     0
 90
        2
176
     1
  1
strokes_ogs.tif
176
     1
290
     0
176
     1
 40
1.0
176
     1
 40
1.0
176
     1
  0
VISUALSTYLE
  5
41
102
{ACAD_REACTORS
330
2A
102
}
330
2A
100
AcDbVisualStyle
  2
Shaded with edges
 70
    26
177
     3
291
     0
 70
    58
 90
        2
176
     1
 90
        2
176
     1
 90
        1
176
     1
 90
        2
176
     1
 40
0.6
176
     1
 40
30.0
176
     1
 62
     7
420
 16777215
176
     1
 90
        1
176
     1
 90
       10
176
     1
 62
     7
176
     1
 62
   257
176
     1
 90
        2
176
     1
 90
        1
176
     1
 40
1.0
176
     1
 90
        8
176
     1
 62
   257
176
     1
 40
1.0
176
     1
 90
        1
176
     1
 90
        6
176
     1
 90
        2
176
     1
 62
     7
176
     1
 90
        3
176
     1
 90
        0
176
     1
 90
        0
176
     1
290
     0
176
     1
 90
        5
176
     1
 40
0.0
176
     1
 90
        0
176
     1
290
     0
176
     1
290
     1
176
     1
290
     1
176
     1
290
     0
176
     1
290
     0
176
     1
290
     0
176
     1
290
     0
176
     1
290
     0
176
     1
290
     0
176
     1
 90
       50
176
     1
 40
0.0
176
     1
 40
1.0
176
     1
 90
        0
176
     1
 62
    18
420
        0
176
     1
 90
       50
176
     1
 90
        3
176
     1
 62
     5
420
      255
176
     1
290
     0
176
     1
 90
       50
176
     1
 90
       50
176
     1
 90
       50
176
     1
290
     0
176
     1
 90
       50
176
     1
 62
   256
176
     0
 40
1.0
176
     0
 90
        2
176
     1
  1
strokes_ogs.tif
176
     1
290
     0
176
     1
 40
1.0
176
     1
 40
1.0
176
     1
  0
VISUALSTYLE
  5
3E
102
{ACAD_REACTORS
330
2A
102
}
330
2A
100
AcDbVisualStyle
  2
Shades of Gray
 70
    23
177
     3
291
     0
 70
    58
 90
        2
176
     1
 90
        2
176
     1
 90
        3
176
     1
 90
        0
176
     1
 40
0.6
176
     1
 40
30.0
176
     1
 62
     7
420
 16777215
176
     1
 90
        2
176
     1
 90
        2
176
     1
 62
     7
176
     1
 62
     7
176
     1
 90
        1
176
     1
 90
        1
176
     1
 40
40.0
176
     1
 90
        8
176
     1
 62
     7
176
     1
 40
1.0
176
     1
 90
        1
176
     1
 90
        6
176
     1
 90
        2
176
     1
 62
     7
176
     1
 90
        3
176
     1
 90
        0
176
     1
 90
        0
176
     1
290
     0
176
     1
 90
        1
176
     1
 40
0.0
176
     1
 90
        0
176
     1
290
     0
176
     1
290
     1
176
     1
290
     1
176
     1
290
     0
176
     1
290
     0
176
     1
290
     0
176
     1
290
     0
176
     1
290
     0
176
     1
290
     0
176
     1
 90
       50
176
     1
 40
0.0
176
     1
 40
1.0
176
     1
 90
        0
176
     1
 62
    18
420
        0
176
     1
 90
       50
176
     1
 90
        3
176
     1
 62
     5
420
      255
176
     1
290
     0
176
     1
 90
       50
176
     1
 90
       50
176
     1
 90
       50
176
     1
290
     0
176
     1
 90
       50
176
     1
 62
   256
176
     0
 40
1.0
176
     0
 90
        2
176
     1
  1
strokes_ogs.tif
176
     1
290
     0
176
     1
 40
1.0
176
     1
 40
1.0
176
     1
  0
VISUALSTYLE
  5
3F
102
{ACAD_REACTORS
330
2A
102
}
330
2A
100
AcDbVisualStyle
  2
Sketchy
 70
    24
177
     3
291
     0
 70
    58
 90
        1
176
     1
 90
        2
176
     1
 90
        2
176
     1
 90
        0
176
     1
 40
0.6
176
     1
 40
30.0
176
     1
 62
     7
420
 16777215
176
     1
 90
        2
176
     1
 90
        2
176
     1
 62
     7
176
     1
 62
     7
176
     1
 90
        1
176
     1
 90
        1
176
     1
 40
40.0
176
     1
 90
       11
176
     1
 62
     7
176
     1
 40
1.0
176
     1
 90
        1
176
     1
 90
        6
176
     1
 90
        2
176
     1
 62
     7
176
     1
 90
        6
176
     1
 90
        0
176
     1
 90
        0
176
     1
290
     0
176
     1
 90
        1
176
     1
 40
0.0
176
     1
 90
        0
176
     1
290
     0
176
     1
290
     1
176
     1
290
     1
176
     1
290
     0
176
     1
290
     0
176
     1
290
     0
176
     1
290
     0
176
     1
290
     0
176
     1
290
     0
176
     1
 90
       50
176
     1
 40
0.0
176
     1
 40
1.0
176
     1
 90
        0
176
     1
 62
    18
420
        0
176
     1
 90
       50
176
     1
 90
        3
176
     1
 62
     5
420
      255
176
     1
290
     0
176
     1
 90
       50
176
     1
 90
       50
176
     1
 90
       50
176
     1
290
     0
176
     1
 90
       50
176
     1
 62
   256
176
     0
 40
1.0
176
     0
 90
        2
176
     1
  1
strokes_ogs.tif
176
     1
290
     0
176
     1
 40
1.0
176
     1
 40
1.0
176
     1
  0
VISUALSTYLE
  5
37
102
{ACAD_REACTORS
330
2A
102
}
330
2A
100
AcDbVisualStyle
  2
Thicken
 70
    13
177
     3
291
     1
 70
    58
 90
        2
176
     1
 90
        2
176
     1
 90
        0
176
     1
 90
        0
176
     1
 40
0.6
176
     1
 40
30.0
176
     1
 62
     7
420
 16777215
176
     1
 90
        1
176
     1
 90
        4
176
     1
 62
     7
176
     1
 62
   257
176
     1
 90
        1
176
     1
 90
        1
176
     1
 40
1.0
176
     1
 90
       12
176
     1
 62
     7
176
     1
 40
1.0
176
     1
 90
        1
176
     1
 90
        6
176
     1
 90
        2
176
     1
 62
     7
176
     1
 90
        5
176
     1
 90
        0
176
     1
 90
        0
176
     1
290
     0
176
     1
 90
        1
176
     1
 40
0.0
176
     1
 90
        0
176
     1
290
     0
176
     1
290
     1
176
     1
290
     1
176
     1
290
     0
176
     1
290
     0
176
     1
290
     0
176
     1
290
     0
176
     1
290
     0
176
     1
290
     0
176
     1
 90
       50
176
     1
 40
0.0
176
     1
 40
1.0
176
     1
 90
        0
176
     1
 62
    18
420
        0
176
     1
 90
       50
176
     1
 90
        3
176
     1
 62
     5
420
      255
176
     1
290
     0
176
     1
 90
       50
176
     1
 90
       50
176
     1
 90
       50
176
     1
290
     0
176
     1
 90
       50
176
     1
 62
   256
176
     0
 40
1.0
176
     0
 90
        2
176
     1
  1
strokes_ogs.tif
176
     1
290
     0
176
     1
 40
1.0
176
     1
 40
1.0
176
     1
  0
VISUALSTYLE
  5
30
102
{ACAD_REACTORS
330
2A
102
}
330
2A
100
AcDbVisualStyle
  2
Wireframe
 70
     5
177
     3
291
     0
 70
    58
 90
        0
176
     1
 90
        2
176
     1
 90
        0
176
     1
 90
        0
176
     1
 40
0.6
176
     1
 40
30.0
176
     1
 62
     7
420
 16777215
176
     1
 90
        1
176
     1
 90
        4
176
     1
 62
     7
176
     1
 62
   257
176
     1
 90
        1
176
     1
 90
        1
176
     1
 40
1.0
176
     1
 90
        0
176
     1
 62
   257
176
     1
 40
1.0
176
     1
 90
        1
176
     1
 90
        6
176
     1
 90
        2
176
     1
 62
     7
176
     1
 90
        3
176
     1
 90
        0
176
     1
 90
        0
176
     1
290
     0
176
     1
 90
        1
176
     1
 40
0.0
176
     1
 90
        0
176
     1
290
     0
176
     1
290
     1
176
     1
290
     1
176
     1
290
     0
176
     1
290
     0
176
     1
290
     0
176
     1
290
     0
176
     1
290
     0
176
     1
290
     0
176
     1
 90
       50
176
     1
 40
0.0
176
     1
 40
1.0
176
     1
 90
        0
176
     1
 62
    18
420
        0
176
     1
 90
       50
176
     1
 90
        3
176
     1
 62
     5
420
      255
176
     1
290
     0
176
     1
 90
       50
176
     1
 90
       50
176
     1
 90
       50
176
     1
290
     0
176
     1
 90
       50
176
     1
 62
   256
176
     0
 40
1.0
176
     0
 90
        2
176
     1
  1
strokes_ogs.tif
176
     1
290
     0
176
     1
 40
1.0
176
     1
 40
1.0
176
     1
  0
VISUALSTYLE
  5
40
102
{ACAD_REACTORS
330
2A
102
}
330
2A
100
AcDbVisualStyle
  2
X-Ray
 70
    25
177
     3
291
     0
 70
    58
 90
        2
176
     1
 90
        2
176
     1
 90
        1
176
     1
 90
        1
176
     1
 40
0.5
176
     1
 40
30.0
176
     1
 62
     7
420
 16777215
176
     1
 90
        1
176
     1
 90
        0
176
     1
 62
     7
176
     1
 62
   257
176
     1
 90
        1
176
     1
 90
        1
176
     1
 40
1.0
176
     1
 90
        8
176
     1
 62
     7
176
     1
 40
1.0
176
     1
 90
        1
176
     1
 90
        6
176
     1
 90
        2
176
     1
 62
     7
176
     1
 90
        3
176
     1
 90
        0
176
     1
 90
        0
176
     1
290
     0
176
     1
 90
       13
176
     1
 40
0.0
176
     1
 90
        0
176
     1
290
     0
176
     1
290
     1
176
     1
290
     1
176
     1
290
     0
176
     1
290
     0
176
     1
290
     0
176
     1
290
     0
176
     1
290
     0
176
     1
290
     0
176
     1
 90
       50
176
     1
 40
0.0
176
     1
 40
1.0
176
     1
 90
        0
176
     1
 62
    18
420
        0
176
     1
 90
       50
176
     1
 90
        3
176
     1
 62
     5
420
      255
176
     1
290
     0
176
     1
 90
       50
176
     1
 90
       50
176
     1
 90
       50
176
     1
290
     0
176
     1
 90
       50
176
     1
 62
   256
176
     0
 40
1.0
176
     0
 90
        2
176
     1
  1
strokes_ogs.tif
176
     1
290
     0
176
     1
 40
1.0
176
     1
 40
1.0
176
     1
  0
DICTIONARYVAR
  5
84
102
{ACAD_REACTORS
330
83
102
}
330
83
100
DictionaryVariables
280
     0
  1
1:1
  0
DICTIONARYVAR
  5
89
102
{ACAD_REACTORS
330
83
102
}
330
83
100
DictionaryVariables
280
     0
  1
Standard
  0
DICTIONARYVAR
  5
88
102
{ACAD_REACTORS
330
83
102
}
330
83
100
DictionaryVariables
280
     0
  1
Standard
  0
DICTIONARY
  5
85
330
5A
100
AcDbDictionary
280
     1
281
     1
  3
ACAD_ROUNDTRIP_2008_TABLESTYLE_CELLSTYLEMAP
360
86
  0
CELLSTYLEMAP
  5
86
102
{ACAD_REACTORS
330
85
102
}
330
85
100
AcDbCellStyleMap
 90
        3
300
CELLSTYLE
  1
TABLEFORMAT_BEGIN
 90
        5
170
     1
 91
        0
 92
    32768
 62
   257
 93
        1
300
CONTENTFORMAT
  1
CONTENTFORMAT_BEGIN
 90
        0
 91
        0
 92
        4
 93
        0
300

 40
0.0
140
1.0
 94
        5
 62
     0
340
11
144
0.25
309
CONTENTFORMAT_END
171
     1
301
MARGIN
  1
CELLMARGIN_BEGIN
 40
0.06
 40
0.06
 40
0.06
 40
0.06
 40
0.06
 40
0.06
309
CELLMARGIN_END
 94
        6
 95
        1
302
GRIDFORMAT
  1
GRIDFORMAT_BEGIN
 90
        0
 91
        1
 62
     0
 92
       -2
340
14
 93
        0
 40
0.045
309
GRIDFORMAT_END
 95
        2
302
GRIDFORMAT
  1
GRIDFORMAT_BEGIN
 90
        0
 91
        1
 62
     0
 92
       -2
340
14
 93
        0
 40
0.045
309
GRIDFORMAT_END
 95
        4
302
GRIDFORMAT
  1
GRIDFORMAT_BEGIN
 90
        0
 91
        1
 62
     0
 92
       -2
340
14
 93
        0
 40
0.045
309
GRIDFORMAT_END
 95
        8
302
GRIDFORMAT
  1
GRIDFORMAT_BEGIN
 90
        0
 91
        1
 62
     0
 92
       -2
340
14
 93
        0
 40
0.045
309
GRIDFORMAT_END
 95
       16
302
GRIDFORMAT
  1
GRIDFORMAT_BEGIN
 90
        0
 91
        1
 62
     0
 92
       -2
340
14
 93
        0
 40
0.045
309
GRIDFORMAT_END
 95
       32
302
GRIDFORMAT
  1
GRIDFORMAT_BEGIN
 90
        0
 91
        1
 62
     0
 92
       -2
340
14
 93
        0
 40
0.045
309
GRIDFORMAT_END
309
TABLEFORMAT_END
  1
CELLSTYLE_BEGIN
 90
        1
 91
        1
300
_TITLE
309
CELLSTYLE_END
300
CELLSTYLE
  1
TABLEFORMAT_BEGIN
 90
        5
170
     1
 91
        0
 92
        0
 62
   257
 93
        1
300
CONTENTFORMAT
  1
CONTENTFORMAT_BEGIN
 90
        0
 91
        0
 92
        4
 93
        0
300

 40
0.0
140
1.0
 94
        5
 62
     0
340
11
144
0.18
309
CONTENTFORMAT_END
171
     1
301
MARGIN
  1
CELLMARGIN_BEGIN
 40
0.06
 40
0.06
 40
0.06
 40
0.06
 40
0.06
 40
0.06
309
CELLMARGIN_END
 94
        6
 95
        1
302
GRIDFORMAT
  1
GRIDFORMAT_BEGIN
 90
        0
 91
        1
 62
     0
 92
       -2
340
14
 93
        0
 40
0.045
309
GRIDFORMAT_END
 95
        2
302
GRIDFORMAT
  1
GRIDFORMAT_BEGIN
 90
        0
 91
        1
 62
     0
 92
       -2
340
14
 93
        0
 40
0.045
309
GRIDFORMAT_END
 95
        4
302
GRIDFORMAT
  1
GRIDFORMAT_BEGIN
 90
        0
 91
        1
 62
     0
 92
       -2
340
14
 93
        0
 40
0.045
309
GRIDFORMAT_END
 95
        8
302
GRIDFORMAT
  1
GRIDFORMAT_BEGIN
 90
        0
 91
        1
 62
     0
 92
       -2
340
14
 93
        0
 40
0.045
309
GRIDFORMAT_END
 95
       16
302
GRIDFORMAT
  1
GRIDFORMAT_BEGIN
 90
        0
 91
        1
 62
     0
 92
       -2
340
14
 93
        0
 40
0.045
309
GRIDFORMAT_END
 95
       32
302
GRIDFORMAT
  1
GRIDFORMAT_BEGIN
 90
        0
 91
        1
 62
     0
 92
       -2
340
14
 93
        0
 40
0.045
309
GRIDFORMAT_END
309
TABLEFORMAT_END
  1
CELLSTYLE_BEGIN
 90
        2
 91
        1
300
_HEADER
309
CELLSTYLE_END
300
CELLSTYLE
  1
TABLEFORMAT_BEGIN
 90
        5
170
     1
 91
        0
 92
        0
 62
   257
 93
        1
300
CONTENTFORMAT
  1
CONTENTFORMAT_BEGIN
 90
        0
 91
        0
 92
        4
 93
        0
300

 40
0.0
140
1.0
 94
        2
 62
     0
340
11
144
0.18
309
CONTENTFORMAT_END
171
     1
301
MARGIN
  1
CELLMARGIN_BEGIN
 40
0.06
 40
0.06
 40
0.06
 40
0.06
 40
0.06
 40
0.06
309
CELLMARGIN_END
 94
        6
 95
        1
302
GRIDFORMAT
  1
GRIDFORMAT_BEGIN
 90
        0
 91
        1
 62
     0
 92
       -2
340
14
 93
        0
 40
0.045
309
GRIDFORMAT_END
 95
        2
302
GRIDFORMAT
  1
GRIDFORMAT_BEGIN
 90
        0
 91
        1
 62
     0
 92
       -2
340
14
 93
        0
 40
0.045
309
GRIDFORMAT_END
 95
        4
302
GRIDFORMAT
  1
GRIDFORMAT_BEGIN
 90
        0
 91
        1
 62
     0
 92
       -2
340
14
 93
        0
 40
0.045
309
GRIDFORMAT_END
 95
        8
302
GRIDFORMAT
  1
GRIDFORMAT_BEGIN
 90
        0
 91
        1
 62
     0
 92
       -2
340
14
 93
        0
 40
0.045
309
GRIDFORMAT_END
 95
       16
302
GRIDFORMAT
  1
GRIDFORMAT_BEGIN
 90
        0
 91
        1
 62
     0
 92
       -2
340
14
 93
        0
 40
0.045
309
GRIDFORMAT_END
 95
       32
302
GRIDFORMAT
  1
GRIDFORMAT_BEGIN
 90
        0
 91
        1
 62
     0
 92
       -2
340
14
 93
        0
 40
0.045
309
GRIDFORMAT_END
309
TABLEFORMAT_END
  1
CELLSTYLE_BEGIN
 90
        3
 91
        2
300
_DATA
309
CELLSTYLE_END
  0
ENDSEC
  0
EOF
