  0
SECTION
  2
HEADER
  9
$ACADVER
  1
AC1027
  9
$ACADMAINTVER
 70
   105
  9
$DWGCODEPAGE
  3
ANSI_1252
  9
$LASTSAVEDBY
  1
Office Desk
  9
$REQUIREDVERSIONS
160
                 0
  9
$INSBASE
 10
0.0
 20
0.0
 30
0.0
  9
$EXTMIN
 10
-16.79037007874016
 20
1.054858267716535
 30
0.0
  9
$EXTMAX
 10
-10.96788582677165
 20
4.582275590551181
 30
0.0
  9
$LIMMIN
 10
0.0
 20
0.0
  9
$LIMMAX
 10
12.0
 20
9.0
  9
$ORTHOMODE
 70
     0
  9
$REGENMODE
 70
     1
  9
$FILLMODE
 70
     1
  9
$QTEXTMODE
 70
     0
  9
$MIRRTEXT
 70
     1
  9
$LTSCALE
 40
1.0
  9
$ATTMODE
 70
     1
  9
$TEXTSIZE
 40
0.2
  9
$TRACEWID
 40
0.05
  9
$TEXTSTYLE
  7
Standard
  9
$CLAYER
  8
0
  9
$CELTYPE
  6
ByLayer
  9
$CECOLOR
 62
   256
  9
$CELTSCALE
 40
1.0
  9
$DISPSILH
 70
     0
  9
$DIMSCALE
 40
1.0
  9
$DIMASZ
 40
0.18
  9
$DIMEXO
 40
0.0625
  9
$DIMDLI
 40
0.38
  9
$DIMRND
 40
0.0
  9
$DIMDLE
 40
0.0
  9
$DIMEXE
 40
0.18
  9
$DIMTP
 40
0.0
  9
$DIMTM
 40
0.0
  9
$DIMTXT
 40
0.18
  9
$DIMCEN
 40
0.09
  9
$DIMTSZ
 40
0.0
  9
$DIMTOL
 70
     0
  9
$DIMLIM
 70
     0
  9
$DIMTIH
 70
     1
  9
$DIMTOH
 70
     1
  9
$DIMSE1
 70
     0
  9
$DIMSE2
 70
     0
  9
$DIMTAD
 70
     0
  9
$DIMZIN
 70
     0
  9
$DIMBLK
  1

  9
$DIMASO
 70
     1
  9
$DIMSHO
 70
     1
  9
$DIMPOST
  1

  9
$DIMAPOST
  1

  9
$DIMALT
 70
     0
  9
$DIMALTD
 70
     2
  9
$DIMALTF
 40
25.4
  9
$DIMLFAC
 40
1.0
  9
$DIMTOFL
 70
     0
  9
$DIMTVP
 40
0.0
  9
$DIMTIX
 70
     0
  9
$DIMSOXD
 70
     0
  9
$DIMSAH
 70
     0
  9
$DIMBLK1
  1

  9
$DIMBLK2
  1

  9
$DIMSTYLE
  2
Standard
  9
$DIMCLRD
 70
     0
  9
$DIMCLRE
 70
     0
  9
$DIMCLRT
 70
     0
  9
$DIMTFAC
 40
1.0
  9
$DIMGAP
 40
0.09
  9
$DIMJUST
 70
     0
  9
$DIMSD1
 70
     0
  9
$DIMSD2
 70
     0
  9
$DIMTOLJ
 70
     1
  9
$DIMTZIN
 70
     0
  9
$DIMALTZ
 70
     0
  9
$DIMALTTZ
 70
     0
  9
$DIMUPT
 70
     0
  9
$DIMDEC
 70
     4
  9
$DIMTDEC
 70
     4
  9
$DIMALTU
 70
     2
  9
$DIMALTTD
 70
     2
  9
$DIMTXSTY
  7
Standard
  9
$DIMAUNIT
 70
     0
  9
$DIMADEC
 70
     0
  9
$DIMALTRND
 40
0.0
  9
$DIMAZIN
 70
     0
  9
$DIMDSEP
 70
    46
  9
$DIMATFIT
 70
     3
  9
$DIMFRAC
 70
     0
  9
$DIMLDRBLK
  1

  9
$DIMLUNIT
 70
     2
  9
$DIMLWD
 70
    -2
  9
$DIMLWE
 70
    -2
  9
$DIMTMOVE
 70
     0
  9
$DIMFXL
 40
1.0
  9
$DIMFXLON
 70
     0
  9
$DIMJOGANG
 40
0.7853981633974483
  9
$DIMTFILL
 70
     0
  9
$DIMTFILLCLR
 70
     0
  9
$DIMARCSYM
 70
     0
  9
$DIMLTYPE
  6

  9
$DIMLTEX1
  6

  9
$DIMLTEX2
  6

  9
$DIMTXTDIRECTION
 70
     0
  9
$LUNITS
 70
     2
  9
$LUPREC
 70
     4
  9
$SKETCHINC
 40
0.1
  9
$FILLETRAD
 40
0.0
  9
$AUNITS
 70
     0
  9
$AUPREC
 70
     0
  9
$MENU
  1
.
  9
$ELEVATION
 40
0.0
  9
$PELEVATION
 40
0.0
  9
$THICKNESS
 40
0.0
  9
$LIMCHECK
 70
     0
  9
$CHAMFERA
 40
0.0
  9
$CHAMFERB
 40
0.0
  9
$CHAMFERC
 40
0.0
  9
$CHAMFERD
 40
0.0
  9
$SKPOLY
 70
     0
  9
$TDCREATE
 40
2461020.717170926
  9
$TDUCREATE
 40
2461020.48800426
  9
$TDUPDATE
 40
2461020.717170938
  9
$TDUUPDATE
 40
2461020.488004271
  9
$TDINDWG
 40
0.0000000116
  9
$TDUSRTIMER
 40
0.0000000116
  9
$USRTIMER
 70
     1
  9
$ANGBASE
 50
0.0
  9
$ANGDIR
 70
     0
  9
$PDMODE
 70
     0
  9
$PDSIZE
 40
0.0
  9
$PLINEWID
 40
0.0
  9
$SPLFRAME
 70
     0
  9
$SPLINETYPE
 70
     6
  9
$SPLINESEGS
 70
     8
  9
$HANDSEED
  5
8C
  9
$SURFTAB1
 70
     6
  9
$SURFTAB2
 70
     6
  9
$SURFTYPE
 70
     6
  9
$SURFU
 70
     6
  9
$SURFV
 70
     6
  9
$UCSBASE
  2

  9
$UCSNAME
  2

  9
$UCSORG
 10
0.0
 20
0.0
 30
0.0
  9
$UCSXDIR
 10
1.0
 20
0.0
 30
0.0
  9
$UCSYDIR
 10
0.0
 20
1.0
 30
0.0
  9
$UCSORTHOREF
  2

  9
$UCSORTHOVIEW
 70
     0
  9
$UCSORGTOP
 10
0.0
 20
0.0
 30
0.0
  9
$UCSORGBOTTOM
 10
0.0
 20
0.0
 30
0.0
  9
$UCSORGLEFT
 10
0.0
 20
0.0
 30
0.0
  9
$UCSORGRIGHT
 10
0.0
 20
0.0
 30
0.0
  9
$UCSORGFRONT
 10
0.0
 20
0.0
 30
0.0
  9
$UCSORGBACK
 10
0.0
 20
0.0
 30
0.0
  9
$PUCSBASE
  2

  9
$PUCSNAME
  2

  9
$PUCSORG
 10
0.0
 20
0.0
 30
0.0
  9
$PUCSXDIR
 10
1.0
 20
0.0
 30
0.0
  9
$PUCSYDIR
 10
0.0
 20
1.0
 30
0.0
  9
$PUCSORTHOREF
  2

  9
$PUCSORTHOVIEW
 70
     0
  9
$PUCSORGTOP
 10
0.0
 20
0.0
 30
0.0
  9
$PUCSORGBOTTOM
 10
0.0
 20
0.0
 30
0.0
  9
$PUCSORGLEFT
 10
0.0
 20
0.0
 30
0.0
  9
$PUCSORGRIGHT
 10
0.0
 20
0.0
 30
0.0
  9
$PUCSORGFRONT
 10
0.0
 20
0.0
 30
0.0
  9
$PUCSORGBACK
 10
0.0
 20
0.0
 30
0.0
  9
$USERI1
 70
     0
  9
$USERI2
 70
     0
  9
$USERI3
 70
     0
  9
$USERI4
 70
     0
  9
$USERI5
 70
     0
  9
$USERR1
 40
0.0
  9
$USERR2
 40
0.0
  9
$USERR3
 40
0.0
  9
$USERR4
 40
0.0
  9
$USERR5
 40
0.0
  9
$WORLDVIEW
 70
     1
  9
$SHADEDGE
 70
     3
  9
$SHADEDIF
 70
    70
  9
$TILEMODE
 70
     1
  9
$MAXACTVP
 70
    64
  9
$PINSBASE
 10
0.0
 20
0.0
 30
0.0
  9
$PLIMCHECK
 70
     0
  9
$PEXTMIN
 10
1.000000000000000E+20
 20
1.000000000000000E+20
 30
1.000000000000000E+20
  9
$PEXTMAX
 10
-1.000000000000000E+20
 20
-1.000000000000000E+20
 30
-1.000000000000000E+20
  9
$PLIMMIN
 10
0.0
 20
0.0
  9
$PLIMMAX
 10
12.0
 20
9.0
  9
$UNITMODE
 70
     0
  9
$VISRETAIN
 70
     1
  9
$PLINEGEN
 70
     0
  9
$PSLTSCALE
 70
     1
  9
$TREEDEPTH
 70
  3020
  9
$CMLSTYLE
  2
Standard
  9
$CMLJUST
 70
     0
  9
$CMLSCALE
 40
1.0
  9
$PROXYGRAPHICS
 70
     1
  9
$MEASUREMENT
 70
     0
  9
$CELWEIGHT
370
    -1
  9
$ENDCAPS
280
     0
  9
$JOINSTYLE
280
     0
  9
$LWDISPLAY
290
     0
  9
$INSUNITS
 70
     1
  9
$HYPERLINKBASE
  1

  9
$STYLESHEET
  1

  9
$XEDIT
290
     1
  9
$CEPSNTYPE
380
     0
  9
$PSTYLEMODE
290
     1
  9
$FINGERPRINTGUID
  2
{2689d167-0f0b-46c4-9827-087b0fb9ac3a}
  9
$VERSIONGUID
  2
{FAEB1C32-E019-11D5-929B-00C0DF256EC4}
  9
$EXTNAMES
290
     1
  9
$PSVPSCALE
 40
0.0
  9
$OLESTARTUP
290
     0
  9
$SORTENTS
280
   127
  9
$INDEXCTL
280
     0
  9
$HIDETEXT
280
     1
  9
$XCLIPFRAME
280
     2
  9
$HALOGAP
280
     0
  9
$OBSCOLOR
 70
   257
  9
$OBSLTYPE
280
     0
  9
$INTERSECTIONDISPLAY
280
     0
  9
$INTERSECTIONCOLOR
 70
   257
  9
$DIMASSOC
280
     2
  9
$PROJECTNAME
  1

  9
$CAMERADISPLAY
290
     0
  9
$LENSLENGTH
 40
50.0
  9
$CAMERAHEIGHT
 40
0.0
  9
$STEPSPERSEC
 40
2.0
  9
$STEPSIZE
 40
6.0
  9
$3DDWFPREC
 40
2.0
  9
$PSOLWIDTH
 40
0.25
  9
$PSOLHEIGHT
 40
4.0
  9
$LOFTANG1
 40
1.570796326794897
  9
$LOFTANG2
 40
1.570796326794897
  9
$LOFTMAG1
 40
0.0
  9
$LOFTMAG2
 40
0.0
  9
$LOFTPARAM
 70
     7
  9
$LOFTNORMALS
280
     1
  9
$LATITUDE
 40
37.795
  9
$LONGITUDE
 40
-122.394
  9
$NORTHDIRECTION
 40
0.0
  9
$TIMEZONE
 70
 -8000
  9
$LIGHTGLYPHDISPLAY
280
     1
  9
$TILEMODELIGHTSYNCH
280
     1
  9
$CMATERIAL
347
44
  9
$SOLIDHIST
280
     0
  9
$SHOWHIST
280
     1
  9
$DWFFRAME
280
     2
  9
$DGNFRAME
280
     2
  9
$REALWORLDSCALE
290
     1
  9
$INTERFERECOLOR
 62
   256
  9
$CSHADOW
280
     0
  9
$SHADOWPLANELOCATION
 40
0.0
  0
ENDSEC
  0
SECTION
  2
CLASSES
  0
CLASS
  1
ACDBDICTIONARYWDFLT
  2
AcDbDictionaryWithDefault
  3
ObjectDBX Classes
 90
        0
 91
        3
280
     0
281
     0
  0
CLASS
  1
VISUALSTYLE
  2
AcDbVisualStyle
  3
ObjectDBX Classes
 90
     4095
 91
        3
280
     0
281
     0
  0
CLASS
  1
MATERIAL
  2
AcDbMaterial
  3
ObjectDBX Classes
 90
     1153
 91
        3
280
     0
281
     0
  0
CLASS
  1
SCALE
  2
AcDbScale
  3
ObjectDBX Classes
 90
     1153
 91
        3
280
     0
281
     0
  0
CLASS
  1
TABLESTYLE
  2
AcDbTableStyle
  3
ObjectDBX Classes
 90
     4095
 91
        3
280
     0
281
     0
  0
CLASS
  1
MLEADERSTYLE
  2
AcDbMLeaderStyle
  3
ACDB_MLEADERSTYLE_CLASS
 90
     4095
 91
        3
280
     0
281
     0
  0
CLASS
  1
SUN
  2
AcDbSun
  3
SCENEOE
 90
     1153
 91
        3
280
     0
281
     0
  0
CLASS
  1
DICTIONARYVAR
  2
AcDbDictionaryVar
  3
ObjectDBX Classes
 90
        0
 91
        3
280
     0
281
     0
  0
CLASS
  1
CELLSTYLEMAP
  2
AcDbCellStyleMap
  3
ObjectDBX Classes
 90
     1152
 91
        3
280
     0
281
     0
  0
ENDSEC
  0
SECTION
  2
TABLES
  0
TABLE
  2
VPORT
  5
8
330
0
100
AcDbSymbolTable
 70
     1
  0
VPORT
  5
29
330
8
100
AcDbSymbolTableRecord
100
AcDbViewportTableRecord
  2
*Active
 70
     0
 10
0.0
 20
0.0
 11
1.0
 21
1.0
 12
10.42990654205607
 22
4.5
 13
0.0
 23
0.0
 14
0.5
 24
0.5
 15
0.5
 25
0.5
 16
0.0
 26
0.0
 36
1.0
 17
0.0
 27
0.0
 37
0.0
 40
9.0
 41
1.972972972850329
 42
50.0
 43
0.0
 44
0.0
 50
0.0
 51
0.0
 71
     0
 72
   100
 73
     1
 74
     3
 75
     0
 76
     0
 77
     0
 78
     0
281
     0
 65
     1
110
0.0
120
0.0
130
0.0
111
1.0
121
0.0
131
0.0
112
0.0
122
1.0
132
0.0
 79
     0
146
0.0
348
2F
 60
     3
 61
     5
292
     1
282
     1
141
0.0
142
0.0
 63
   250
361
5D
  0
ENDTAB
  0
TABLE
  2
LTYPE
  5
5
330
0
100
AcDbSymbolTable
 70
     1
  0
LTYPE
  5
14
330
5
100
AcDbSymbolTableRecord
100
AcDbLinetypeTableRecord
  2
ByBlock
 70
     0
  3

 72
    65
 73
     0
 40
0.0
  0
LTYPE
  5
15
330
5
100
AcDbSymbolTableRecord
100
AcDbLinetypeTableRecord
  2
ByLayer
 70
     0
  3

 72
    65
 73
     0
 40
0.0
  0
LTYPE
  5
16
330
5
100
AcDbSymbolTableRecord
100
AcDbLinetypeTableRecord
  2
Continuous
 70
     0
  3
Solid line
 72
    65
 73
     0
 40
0.0
  0
ENDTAB
  0
TABLE
  2
LAYER
  5
2
330
0
100
AcDbSymbolTable
 70
     2
  0
LAYER
  5
10
330
2
100
AcDbSymbolTableRecord
100
AcDbLayerTableRecord
  2
0
 70
     0
 62
     7
  6
Continuous
370
    -3
390
F
347
46
348
0
  0
LAYER
  5
5F
330
2
100
AcDbSymbolTableRecord
100
AcDbLayerTableRecord
  2
Layer 1
 70
     0
 62
     7
  6
Continuous
370
    -3
390
F
347
46
348
0
  0
ENDTAB
  0
TABLE
  2
STYLE
  5
3
330
0
100
AcDbSymbolTable
 70
     1
  0
STYLE
  5
11
330
3
100
AcDbSymbolTableRecord
100
AcDbTextStyleTableRecord
  2
Standard
 70
     0
 40
0.0
 41
1.0
 50
0.0
 71
     0
 42
0.2
  3
txt
  4

  0
ENDTAB
  0
TABLE
  2
VIEW
  5
6
330
0
100
AcDbSymbolTable
 70
     0
  0
ENDTAB
  0
TABLE
  2
UCS
  5
7
330
0
100
AcDbSymbolTable
 70
     0
  0
ENDTAB
  0
TABLE
  2
APPID
  5
9
330
0
100
AcDbSymbolTable
 70
     2
  0
APPID
  5
12
330
9
100
AcDbSymbolTableRecord
100
AcDbRegAppTableRecord
  2
ACAD
 70
     0
  0
APPID
  5
5E
330
9
100
AcDbSymbolTableRecord
100
AcDbRegAppTableRecord
  2
ODA
 70
     0
  0
ENDTAB
  0
TABLE
  2
DIMSTYLE
  5
A
330
0
100
AcDbSymbolTable
 70
     1
100
AcDbDimStyleTable
  0
DIMSTYLE
105
27
330
A
100
AcDbSymbolTableRecord
100
AcDbDimStyleTableRecord
  2
Standard
 70
     0
178
     0
340
11
  0
ENDTAB
  0
TABLE
  2
BLOCK_RECORD
  5
1
330
0
100
AcDbSymbolTable
 70
     1
  0
BLOCK_RECORD
  5
1F
330
1
100
AcDbSymbolTableRecord
100
AcDbBlockTableRecord
  2
*Model_Space
340
22
 70
     0
280
     1
281
     0
  0
BLOCK_RECORD
  5
1B
330
1
100
AcDbSymbolTableRecord
100
AcDbBlockTableRecord
  2
*Paper_Space
340
1E
 70
     0
280
     1
281
     0
  0
BLOCK_RECORD
  5
23
330
1
100
AcDbSymbolTableRecord
100
AcDbBlockTableRecord
  2
*Paper_Space0
340
26
 70
     0
280
     1
281
     0
  0
ENDTAB
  0
ENDSEC
  0
SECTION
  2
BLOCKS
  0
BLOCK
  5
20
330
1F
100
AcDbEntity
  8
0
100
AcDbBlockBegin
  2
*Model_Space
 70
     0
 10
0.0
 20
0.0
 30
0.0
  3
*Model_Space
  1

  0
ENDBLK
  5
21
330
1F
100
AcDbEntity
  8
0
100
AcDbBlockEnd
  0
BLOCK
  5
1C
330
1B
100
AcDbEntity
 67
     1
  8
0
100
AcDbBlockBegin
  2
*Paper_Space
 70
     0
 10
0.0
 20
0.0
 30
0.0
  3
*Paper_Space
  1

  0
ENDBLK
  5
1D
330
1B
100
AcDbEntity
 67
     1
  8
0
100
AcDbBlockEnd
  0
BLOCK
  5
24
330
23
100
AcDbEntity
  8
0
100
AcDbBlockBegin
  2
*Paper_Space0
 70
     0
 10
0.0
 20
0.0
 30
0.0
  3
*Paper_Space0
  1

  0
ENDBLK
  5
25
330
23
100
AcDbEntity
  8
0
100
AcDbBlockEnd
  0
ENDSEC
  0
SECTION
  2
ENTITIES
  0
LWPOLYLINE
  5
60
330
1F
100
AcDbEntity
  8
Layer 1
 62
   250
370
     9
100
AcDbPolyline
 90
        5
 70
     1
 43
0.0
 10
-16.78887007874016
 20
1.056358267716536
 10
-10.96938976377953
 20
1.056358267716536
 10
-10.96938976377953
 20
4.580775590551181
 10
-16.78887007874016
 20
4.580775590551181
 10
-16.78887007874016
 20
1.056358267716536
  0
LWPOLYLINE
  5
61
330
1F
100
AcDbEntity
  8
Layer 1
 62
     7
370
    18
100
AcDbPolyline
 90
       73
 70
     1
 43
0.0
 10
-14.46680708661417
 20
2.851606299212599
 10
-14.4688031496063
 20
2.855429133858268
 10
-14.47347244094488
 20
2.866271653543307
 10
-14.4788188976378
 20
2.883185039370079
 10
-14.48285433070866
 20
2.905224409448819
 10
-14.48359448818898
 20
2.931437007874016
 10
-14.47904330708661
 20
2.960885826771654
 10
-14.46722047244094
 20
2.99261811023622
 10
-14.44612992125984
 20
3.025688976377953
 10
-14.4383937007874
 20
3.035775590551181
 10
-14.41062598425197
 20
3.062610236220472
 10
-14.35599212598425
 20
3.10107874015748
 10
-14.26765354330709
 20
3.146051181102362
 10
-14.13876771653543
 20
3.192397637795275
 10
-13.9625
 20
3.235003937007874
 10
-13.73201181102362
 20
3.268736220472441
 10
-13.44046850393701
 20
3.288472440944882
 10
-13.40295669291338
 20
3.289035433070866
 10
-13.30060236220472
 20
3.28901968503937
 10
-13.14868503937008
 20
3.285866141732284
 10
-12.96248031496063
 20
3.277015748031496
 10
-12.75725984251969
 20
3.259905511811024
 10
-12.54831102362205
 20
3.23198031496063
 10
-12.35089763779528
 20
3.190677165354331
 10
-12.18030708661417
 20
3.13344094488189
 10
-12.16991338582677
 20
3.129696850393701
 10
-12.14211417322835
 20
3.118535433070866
 10
-12.10196456692913
 20
3.100062992125984
 10
-12.05453149606299
 20
3.074385826771654
 10
-12.0048779527559
 20
3.041606299212599
 10
-11.95806692913386
 20
3.001834645669291
 10
-11.91916141732283
 20
2.955177165354331
 10
-11.89322440944882
 20
2.901740157480315
 10
-11.88805118110236
 20
2.881720472440945
 10
-11.88585826771654
 20
2.864271653543307
 10
-11.88640157480315
 20
2.848669291338583
 10
-11.88944488188976
 20
2.834192913385827
 10
-11.89474409448819
 20
2.820106299212598
 10
-11.90206692913386
 20
2.805685039370079
 10
-11.91116929133858
 20
2.790208661417323
 10
-11.92181496062992
 20
2.772948818897638
 10
-11.93512598425197
 20
2.751929133858268
 10
-11.95044881889764
 20
2.729035433070866
 10
-11.96776377952756
 20
2.704653543307086
 10
-11.98703937007874
 20
2.679181102362205
 10
-12.00825984251968
 20
2.653011811023622
 10
-12.0313937007874
 20
2.626531496062992
 10
-12.05641732283465
 20
2.600141732283464
 10
-12.08331102362205
 20
2.574232283464567
 10
-12.09685039370079
 20
2.56336220472441
 10
-12.13765748031496
 20
2.534425196850394
 10
-12.20599212598425
 20
2.492944881889764
 10
-12.30212992125984
 20
2.444437007874016
 10
-12.42633858267716
 20
2.394425196850394
 10
-12.57888976377953
 20
2.348429133858268
 10
-12.76005511811024
 20
2.31196062992126
 10
-12.97009842519685
 20
2.290547244094488
 10
-13.00567716535433
 20
2.290350393700787
 10
-13.10257480314961
 20
2.291814960629921
 10
-13.24603543307087
 20
2.298015748031496
 10
-13.42129527559055
 20
2.312031496062992
 10
-13.61359842519685
 20
2.336944881889764
 10
-13.80818897637795
 20
2.375826771653543
 10
-13.9903031496063
 20
2.431763779527559
 10
-14.14518897637795
 20
2.507826771653543
 10
-14.15484251968504
 20
2.514515748031496
 10
-14.18115748031496
 20
2.533830708661417
 10
-14.22016535433071
 20
2.564637795275591
 10
-14.26790551181102
 20
2.605814960629921
 10
-14.32040551181102
 20
2.656232283464567
 10
-14.37370078740157
 20
2.714751968503937
 10
-14.42382283464567
 20
2.780255905511811
 10
-14.46680708661417
 20
2.851606299212599
  0
LWPOLYLINE
  5
62
330
1F
100
AcDbEntity
  8
Layer 1
 62
     7
370
    18
100
AcDbPolyline
 90
       41
 70
     1
 43
0.0
 10
-12.97651968503937
 20
3.237362204724409
 10
-12.94053149606299
 20
3.235236220472441
 10
-12.84461417322835
 20
3.227188976377953
 10
-12.70684251968504
 20
3.210704724409449
 10
-12.54528346456693
 20
3.183275590551181
 10
-12.37800787401575
 20
3.142393700787402
 10
-12.22308661417323
 20
3.085543307086614
 10
-12.09859448818898
 20
3.010220472440945
 10
-12.02260236220472
 20
2.913909448818897
 10
-12.02033464566929
 20
2.905177165354331
 10
-12.01888976377953
 20
2.881409448818898
 10
-12.02632283464567
 20
2.846244094488189
 10
-12.05066929133858
 20
2.803322834645669
 10
-12.0999842519685
 20
2.756283464566929
 10
-12.18230708661417
 20
2.708767716535433
 10
-12.30568897637795
 20
2.664417322834645
 10
-12.47817322834646
 20
2.626870078740157
 10
-12.53009448818898
 20
2.621003937007874
 10
-12.67177165354331
 20
2.60805905511811
 10
-12.88207086614173
 20
2.595011811023622
 10
-13.13987401574803
 20
2.58884251968504
 10
-13.42403937007874
 20
2.596527559055118
 10
-13.71344881889764
 20
2.625051181102362
 10
-13.98696456692913
 20
2.681385826771653
 10
-14.22346456692913
 20
2.772515748031496
 10
-14.31334251968504
 20
2.852590551181102
 10
-14.33901181102362
 20
2.926326771653543
 10
-14.3141062992126
 20
2.992956692913386
 10
-14.25225196850394
 20
3.051720472440945
 10
-14.16707874015748
 20
3.101842519685039
 10
-14.07221653543307
 20
3.14255905511811
 10
-13.98129133858268
 20
3.173102362204725
 10
-13.90793307086614
 20
3.192708661417323
 10
-13.8278188976378
 20
3.209366141732283
 10
-13.73807874015748
 20
3.224051181102362
 10
-13.63833464566929
 20
3.236173228346457
 10
-13.52821653543307
 20
3.245129921259843
 10
-13.40735039370079
 20
3.250322834645669
 10
-13.27535826771654
 20
3.251161417322835
 10
-13.13187401574803
 20
3.24703937007874
 10
-12.97651968503937
 20
3.237362204724409
  0
LWPOLYLINE
  5
63
330
1F
100
AcDbEntity
  8
Layer 1
 62
     7
370
    18
100
AcDbPolyline
 90
       17
 70
     0
 43
0.0
 10
-14.45581102362205
 20
2.831267716535433
 10
-14.44844094488189
 20
2.82098031496063
 10
-14.41937401574803
 20
2.793192913385827
 10
-14.35817322834646
 20
2.752523622047244
 10
-14.25440551181102
 20
2.703586614173228
 10
-14.09763779527559
 20
2.651003937007874
 10
-13.87742913385827
 20
2.599389763779528
 10
-13.58335039370079
 20
2.553362204724409
 10
-13.20496456692913
 20
2.517535433070866
 10
-13.16477165354331
 20
2.517173228346457
 10
-13.0556968503937
 20
2.518570866141732
 10
-12.8950157480315
 20
2.525464566929134
 10
-12.69999212598425
 20
2.541582677165354
 10
-12.4878937007874
 20
2.570661417322835
 10
-12.2759842519685
 20
2.616425196850394
 10
-12.08153543307087
 20
2.682610236220472
 10
-11.92181496062992
 20
2.772948818897638
  0
LWPOLYLINE
  5
64
330
1F
100
AcDbEntity
  8
Layer 1
 62
     7
370
    18
100
AcDbPolyline
 90
        9
 70
     0
 43
0.0
 10
-13.81432283464567
 20
2.641669291338583
 10
-13.70852755905512
 20
2.725409448818898
 10
-13.55009842519685
 20
2.783452755905512
 10
-13.35706692913386
 20
2.816362204724409
 10
-13.14747244094488
 20
2.824708661417323
 10
-12.93933858267716
 20
2.80905905511811
 10
-12.75070078740158
 20
2.76998031496063
 10
-12.59958661417323
 20
2.708043307086614
 10
-12.50403543307087
 20
2.623818897637795
  0
LWPOLYLINE
  5
65
330
1F
100
AcDbEntity
  8
Layer 1
 62
     7
370
    18
100
AcDbPolyline
 90
       35
 70
     0
 43
0.0
 10
-12.08331102362205
 20
2.574232283464567
 10
-12.08082283464567
 20
2.568244094488189
 10
-12.0764094488189
 20
2.551622047244094
 10
-12.07466535433071
 20
2.526374015748031
 10
-12.08017322834646
 20
2.494523622047244
 10
-12.09752755905512
 20
2.45807874015748
 10
-12.13131102362205
 20
2.419051181102362
 10
-12.18611417322835
 20
2.379456692913386
 10
-12.26652755905512
 20
2.341311023622047
 10
-12.27514173228346
 20
2.337622047244095
 10
-12.30145669291339
 20
2.32761811023622
 10
-12.34617322834646
 20
2.312885826771653
 10
-12.41000393700787
 20
2.29501968503937
 10
-12.49364566929134
 20
2.275610236220472
 10
-12.59780708661417
 20
2.256248031496063
 10
-12.72318897637795
 20
2.238523622047244
 10
-12.87050393700787
 20
2.224031496062992
 10
-12.91766535433071
 20
2.22255905511811
 10
-13.04715748031496
 20
2.220283464566929
 10
-13.2409842519685
 20
2.220409448818898
 10
-13.48114960629921
 20
2.226141732283465
 10
-13.74966535433071
 20
2.240681102362205
 10
-14.02853543307087
 20
2.267244094488189
 10
-14.29976771653543
 20
2.309023622047244
 10
-14.54536614173228
 20
2.369232283464567
 10
-14.55775196850394
 20
2.37246062992126
 10
-14.59241338582677
 20
2.382110236220472
 10
-14.6456062992126
 20
2.398122047244094
 10
-14.71359842519685
 20
2.420444881889764
 10
-14.79264173228346
 20
2.449011811023622
 10
-14.879
 20
2.483775590551181
 10
-14.96893307086614
 20
2.524677165354331
 10
-15.05869291338583
 20
2.571657480314961
 10
-15.3061062992126
 20
2.751799212598425
 10
-14.46680708661417
 20
2.851606299212599
  0
LWPOLYLINE
  5
66
330
1F
100
AcDbEntity
  8
Layer 1
 62
     7
370
    18
100
AcDbPolyline
 90
       35
 70
     0
 43
0.0
 10
-12.07694488188976
 20
2.507212598425197
 10
-12.07664173228346
 20
2.503283464566929
 10
-12.07641338582677
 20
2.492271653543307
 10
-12.07729527559055
 20
2.475350393700787
 10
-12.0803031496063
 20
2.453681102362205
 10
-12.08646850393701
 20
2.428437007874016
 10
-12.09682283464567
 20
2.400783464566929
 10
-12.11238582677165
 20
2.371889763779528
 10
-12.13418503937008
 20
2.34292125984252
 10
-12.13859448818898
 20
2.338917322834646
 10
-12.15307086614173
 20
2.327771653543307
 10
-12.17948818897638
 20
2.310767716535433
 10
-12.21970866141732
 20
2.289200787401575
 10
-12.27561023622047
 20
2.264354330708661
 10
-12.34905905511811
 20
2.237523622047244
 10
-12.44192913385827
 20
2.209996062992126
 10
-12.55608661417323
 20
2.183062992125984
 10
-12.59276771653543
 20
2.177885826771654
 10
-12.69760236220472
 20
2.165787401574803
 10
-12.8627874015748
 20
2.151909448818897
 10
-13.0805157480315
 20
2.141393700787402
 10
-13.34298818897638
 20
2.139389763779528
 10
-13.6423937007874
 20
2.151043307086614
 10
-13.97093307086614
 20
2.181492125984252
 10
-14.32079527559055
 20
2.23588188976378
 10
-14.34457480314961
 20
2.240074803149606
 10
-14.40968897637795
 20
2.253110236220472
 10
-14.50681496062992
 20
2.275681102362205
 10
-14.62661417322835
 20
2.308484251968504
 10
-14.75976377952756
 20
2.352200787401575
 10
-14.89692913385827
 20
2.407535433070866
 10
-15.02878346456693
 20
2.475165354330709
 10
-15.14599606299213
 20
2.555795275590551
 10
-15.3061062992126
 20
2.677897637795275
 10
-15.3061062992126
 20
2.751799212598425
  0
LWPOLYLINE
  5
67
330
1F
100
AcDbEntity
  8
Layer 1
 62
     7
370
    18
100
AcDbPolyline
 90
       17
 70
     0
 43
0.0
 10
-12.54687007874016
 20
2.185007874015748
 10
-12.54933464566929
 20
2.177952755905512
 10
-12.55899606299213
 20
2.159062992125984
 10
-12.57926377952756
 20
2.131740157480315
 10
-12.61353149606299
 20
2.099389763779528
 10
-12.66520866141732
 20
2.06542125984252
 10
-12.73770078740158
 20
2.033244094488189
 10
-12.83440551181102
 20
2.006255905511811
 10
-12.95872834645669
 20
1.987870078740158
 10
-12.98911023622047
 20
1.98553937007874
 10
-13.07064173228346
 20
1.981433070866142
 10
-13.1889094488189
 20
1.979866141732283
 10
-13.32948818897638
 20
1.985161417322835
 10
-13.47796456692913
 20
2.001641732283465
 10
-13.61991732283465
 20
2.033622047244095
 10
-13.74092519685039
 20
2.085429133858268
 10
-13.82657480314961
 20
2.161377952755906
  0
LWPOLYLINE
  5
68
330
1F
100
AcDbEntity
  8
Layer 1
 62
     7
370
    18
100
AcDbPolyline
 90
       41
 70
     0
 43
0.0
 10
-14.32079527559055
 20
2.23588188976378
 10
-14.32102362204724
 20
2.230704724409449
 10
-14.32322440944882
 20
2.214043307086614
 10
-14.32967322834646
 20
2.184204724409449
 10
-14.34264566929134
 20
2.139492125984252
 10
-14.36441732283465
 20
2.078208661417323
 10
-14.39725984251968
 20
1.998665354330709
 10
-14.44344881889764
 20
1.899165354330709
 10
-14.50525984251968
 20
1.778015748031496
 10
-14.50846456692913
 20
1.772492125984252
 10
-14.5172125984252
 20
1.757661417322835
 10
-14.5301968503937
 20
1.736129921259842
 10
-14.5461220472441
 20
1.7105
 10
-14.5636811023622
 20
1.683377952755905
 10
-14.58157480314961
 20
1.657370078740158
 10
-14.5985
 20
1.635082677165354
 10
-14.61315354330709
 20
1.619122047244095
 10
-14.61812598425197
 20
1.615397637795276
 10
-14.63256692913386
 20
1.60694094488189
 10
-14.65578346456693
 20
1.597822834645669
 10
-14.68707480314961
 20
1.592125984251969
 10
-14.72572834645669
 20
1.59392125984252
 10
-14.77105511811024
 20
1.607287401574803
 10
-14.82234645669291
 20
1.636295275590551
 10
-14.87890157480315
 20
1.685023622047244
 10
-14.88790157480315
 20
1.694366141732284
 10
-14.91238188976378
 20
1.721543307086614
 10
-14.94856299212598
 20
1.765279527559055
 10
-14.99266141732283
 20
1.824303149606299
 10
-15.0408937007874
 20
1.897326771653543
 10
-15.08948031496063
 20
1.983086614173228
 10
-15.13463779527559
 20
2.080299212598425
 10
-15.17258661417323
 20
2.187692913385827
 10
-15.17666535433071
 20
2.201433070866142
 10
-15.18735433070866
 20
2.238866141732283
 10
-15.20231102362205
 20
2.294299212598425
 10
-15.2192125984252
 20
2.362047244094488
 10
-15.23571653543307
 20
2.43642125984252
 10
-15.24949606299213
 20
2.511728346456693
 10
-15.25822047244094
 20
2.582283464566929
 10
-15.25955118110236
 20
2.642397637795276
  0
LWPOLYLINE
  5
69
330
1F
100
AcDbEntity
  8
Layer 1
 62
     7
370
    18
100
AcDbPolyline
 90
        4
 70
     1
 43
0.0
 10
-13.34601968503937
 20
1.330338582677165
 10
-13.36279133858268
 20
1.304669291338583
 10
-13.33212992125984
 20
1.304248031496063
 10
-13.34601968503937
 20
1.330338582677165
  0
LWPOLYLINE
  5
6A
330
1F
100
AcDbEntity
  8
Layer 1
 62
     7
370
    18
100
AcDbPolyline
 90
        4
 70
     1
 43
0.0
 10
-11.59727165354331
 20
2.261212598425197
 10
-11.56661417322835
 20
2.260791338582677
 10
-11.58338582677165
 20
2.235122047244094
 10
-11.59727165354331
 20
2.261212598425197
  0
LWPOLYLINE
  5
6B
330
1F
100
AcDbEntity
  8
Layer 1
 62
     7
370
    18
100
AcDbPolyline
 90
        2
 70
     0
 43
0.0
 10
-13.36995669291339
 20
1.299070866141732
 10
-11.55796850393701
 20
2.263610236220472
  0
LWPOLYLINE
  5
6C
330
1F
100
AcDbEntity
  8
Layer 1
 62
     7
370
     9
100
AcDbPolyline
 90
        7
 70
     1
 43
0.0
 10
-12.44864566929134
 20
1.492535433070866
 10
-12.42989763779527
 20
1.492535433070866
 10
-12.42989763779527
 20
1.677023622047244
 10
-12.47489763779527
 20
1.672192913385827
 10
-12.47489763779527
 20
1.655838582677165
 10
-12.44864566929134
 20
1.655838582677165
 10
-12.44864566929134
 20
1.492535433070866
  0
LWPOLYLINE
  5
6D
330
1F
100
AcDbEntity
  8
Layer 1
 62
     7
370
     9
100
AcDbPolyline
 90
        7
 70
     1
 43
0.0
 10
-12.37175590551181
 20
1.492535433070866
 10
-12.35300393700787
 20
1.492535433070866
 10
-12.35300393700787
 20
1.677023622047244
 10
-12.39800787401575
 20
1.672192913385827
 10
-12.39800787401575
 20
1.655838582677165
 10
-12.37175590551181
 20
1.655838582677165
 10
-12.37175590551181
 20
1.492535433070866
  0
LWPOLYLINE
  5
6E
330
1F
100
AcDbEntity
  8
Layer 1
 62
     7
370
     9
100
AcDbPolyline
 90
       87
 70
     1
 43
0.0
 10
-12.31763779527559
 20
1.492535433070866
 10
-12.1893031496063
 20
1.492535433070866
 10
-12.1893031496063
 20
1.511307086614173
 10
-12.27235826771654
 20
1.511307086614173
 10
-12.20885826771654
 20
1.574318897637795
 10
-12.20471653543307
 20
1.578858267716535
 10
-12.20112598425197
 20
1.583622047244094
 10
-12.19808661417323
 20
1.588610236220472
 10
-12.19560236220472
 20
1.593830708661417
 10
-12.19366929133858
 20
1.599271653543307
 10
-12.19229133858268
 20
1.604944881889764
 10
-12.19146062992126
 20
1.610838582677165
 10
-12.19118503937008
 20
1.616964566929134
 10
-12.19146850393701
 20
1.623220472440945
 10
-12.19231496062992
 20
1.629228346456693
 10
-12.19372834645669
 20
1.634984251968504
 10
-12.19570472440945
 20
1.640492125984252
 10
-12.19824803149606
 20
1.645748031496063
 10
-12.20135433070866
 20
1.650748031496063
 10
-12.20502362204724
 20
1.6555
 10
-12.20925984251969
 20
1.66
 10
-12.21397244094488
 20
1.664177165354331
 10
-12.21888976377953
 20
1.667799212598425
 10
-12.22401968503937
 20
1.670866141732283
 10
-12.22935826771653
 20
1.673374015748031
 10
-12.23490551181102
 20
1.675322834645669
 10
-12.24066141732284
 20
1.676716535433071
 10
-12.24662598425197
 20
1.677551181102362
 10
-12.2528031496063
 20
1.677830708661417
 10
-12.2592125984252
 20
1.677535433070866
 10
-12.26538582677165
 20
1.676657480314961
 10
-12.27132283464567
 20
1.675188976377953
 10
-12.2770157480315
 20
1.673137795275591
 10
-12.28247244094488
 20
1.670496062992126
 10
-12.28768897637795
 20
1.667267716535433
 10
-12.29266929133858
 20
1.663456692913386
 10
-12.29740551181102
 20
1.659055118110236
 10
-12.30162598425197
 20
1.654322834645669
 10
-12.30525196850394
 20
1.649346456692913
 10
-12.30827559055118
 20
1.644118110236221
 10
-12.31070078740157
 20
1.638645669291338
 10
-12.31252755905512
 20
1.63292125984252
 10
-12.31375984251969
 20
1.626952755905512
 10
-12.31438976377953
 20
1.620736220472441
 10
-12.31442125984252
 20
1.614275590551181
 10
-12.2953937007874
 20
1.614275590551181
 10
-12.29555511811024
 20
1.618464566929134
 10
-12.29526377952756
 20
1.62255905511811
 10
-12.29451968503937
 20
1.62655905511811
 10
-12.29332283464567
 20
1.63046062992126
 10
-12.29167322834646
 20
1.634267716535433
 10
-12.28957086614173
 20
1.63798031496063
 10
-12.28701968503937
 20
1.641594488188976
 10
-12.2840157480315
 20
1.645110236220472
 10
-12.2808031496063
 20
1.648251968503937
 10
-12.27741732283465
 20
1.65098031496063
 10
-12.27387007874016
 20
1.653283464566929
 10
-12.27014960629921
 20
1.655173228346457
 10
-12.26626377952756
 20
1.656637795275591
 10
-12.26220866141732
 20
1.657688976377953
 10
-12.25798818897638
 20
1.658318897637795
 10
-12.25360236220472
 20
1.658527559055118
 10
-12.24929921259842
 20
1.658338582677165
 10
-12.24515748031496
 20
1.657771653543307
 10
-12.24117716535433
 20
1.656826771653543
 10
-12.23736220472441
 20
1.655507874015748
 10
-12.23370866141732
 20
1.653807086614173
 10
-12.23022047244094
 20
1.651736220472441
 10
-12.2268937007874
 20
1.649283464566929
 10
-12.22373228346457
 20
1.646456692913386
 10
-12.22081102362205
 20
1.643330708661417
 10
-12.21827952755905
 20
1.640055118110236
 10
-12.21613779527559
 20
1.636625984251969
 10
-12.21438582677165
 20
1.633051181102362
 10
-12.21302362204724
 20
1.629318897637795
 10
-12.21205118110236
 20
1.62544094488189
 10
-12.21146456692913
 20
1.621413385826772
 10
-12.21127165354331
 20
1.617232283464567
 10
-12.21146062992126
 20
1.612952755905512
 10
-12.21202362204724
 20
1.608846456692913
 10
-12.21296456692913
 20
1.604905511811024
 10
-12.21428346456693
 20
1.601133858267717
 10
-12.21598031496063
 20
1.597531496062992
 10
-12.21805118110236
 20
1.59409842519685
 10
-12.2205
 20
1.590830708661417
 10
-12.22332677165354
 20
1.587732283464567
 10
-12.31763779527559
 20
1.492535433070866
  0
LWPOLYLINE
  5
6F
330
1F
100
AcDbEntity
  8
Layer 1
 62
     7
370
     9
100
AcDbPolyline
 90
      107
 70
     1
 43
0.0
 10
-12.00015354330709
 20
1.493070866141732
 10
-11.9813937007874
 20
1.493070866141732
 10
-11.9813937007874
 20
1.566814960629921
 10
-11.98154724409449
 20
1.571708661417323
 10
-11.98200393700787
 20
1.576374015748031
 10
-11.98277165354331
 20
1.580811023622047
 10
-11.98384251968504
 20
1.585015748031496
 10
-11.98521653543307
 20
1.588988188976378
 10
-11.98689763779528
 20
1.592732283464567
 10
-11.98888582677165
 20
1.596248031496063
 10
-11.99117716535433
 20
1.599531496062992
 10
-11.99381496062992
 20
1.602590551181102
 10
-11.99676771653543
 20
1.605330708661417
 10
-12.00003937007874
 20
1.607751968503937
 10
-12.00362992125984
 20
1.609854330708661
 10
-12.00768503937008
 20
1.611551181102362
 10
-12.01234251968504
 20
1.612763779527559
 10
-12.01759842519685
 20
1.613492125984252
 10
-12.02345669291339
 20
1.613736220472441
 10
-12.02648818897638
 20
1.613629921259843
 10
-12.02942519685039
 20
1.613318897637795
 10
-12.03226771653543
 20
1.612795275590551
 10
-12.03501181102362
 20
1.612062992125984
 10
-12.03765748031496
 20
1.611122047244095
 10
-12.04020866141732
 20
1.609972440944882
 10
-12.04266535433071
 20
1.608610236220472
 10
-12.04502755905512
 20
1.607043307086614
 10
-12.04902755905512
 20
1.603787401574803
 10
-12.05266141732283
 20
1.60007874015748
 10
-12.05592519685039
 20
1.595913385826772
 10
-12.05882283464567
 20
1.591303149606299
 10
-12.06378346456693
 20
1.599531496062992
 10
-12.06642125984252
 20
1.602590551181102
 10
-12.06937401574803
 20
1.605330708661417
 10
-12.07264960629921
 20
1.607751968503937
 10
-12.07624015748032
 20
1.609854330708661
 10
-12.08029133858268
 20
1.611551181102362
 10
-12.08494881889764
 20
1.612763779527559
 10
-12.09020472440945
 20
1.613492125984252
 10
-12.09607086614173
 20
1.613736220472441
 10
-12.09910236220473
 20
1.613629921259843
 10
-12.10203937007874
 20
1.613318897637795
 10
-12.10487795275591
 20
1.612795275590551
 10
-12.10762204724409
 20
1.612062992125984
 10
-12.11026771653543
 20
1.611122047244095
 10
-12.1128188976378
 20
1.609972440944882
 10
-12.11527559055118
 20
1.608610236220472
 10
-12.11763385826772
 20
1.607043307086614
 10
-12.12145275590551
 20
1.603952755905512
 10
-12.12493307086614
 20
1.60046062992126
 10
-12.12808267716535
 20
1.59655905511811
 10
-12.1308937007874
 20
1.592240157480315
 10
-12.1308937007874
 20
1.61105905511811
 10
-12.14964960629921
 20
1.61105905511811
 10
-12.14964960629921
 20
1.493070866141732
 10
-12.1308937007874
 20
1.493070866141732
 10
-12.1308937007874
 20
1.553448818897638
 10
-12.12988976377953
 20
1.560350393700787
 10
-12.12834645669291
 20
1.566704724409449
 10
-12.12627165354331
 20
1.57251968503937
 10
-12.12366141732283
 20
1.577811023622047
 10
-12.12133070866142
 20
1.581393700787401
 10
-12.11863385826772
 20
1.584645669291339
 10
-12.11556692913386
 20
1.587562992125984
 10
-12.11213385826772
 20
1.590141732283465
 10
-12.10845669291339
 20
1.592251968503937
 10
-12.10464173228346
 20
1.593759842519685
 10
-12.10068897637795
 20
1.594661417322835
 10
-12.09660236220472
 20
1.594964566929134
 10
-12.09271653543307
 20
1.594807086614173
 10
-12.08937007874016
 20
1.594330708661417
 10
-12.08655511811024
 20
1.593535433070866
 10
-12.08427952755905
 20
1.59242125984252
 10
-12.08157874015748
 20
1.590425196850394
 10
-12.07924015748032
 20
1.588082677165354
 10
-12.07725984251969
 20
1.585397637795276
 10
-12.07563779527559
 20
1.582370078740158
 10
-12.07437795275591
 20
1.578996062992126
 10
-12.07348031496063
 20
1.575279527559055
 10
-12.07294094488189
 20
1.571220472440945
 10
-12.07275984251969
 20
1.566814960629921
 10
-12.07275984251969
 20
1.493070866141732
 10
-12.054
 20
1.493070866141732
 10
-12.054
 20
1.566814960629921
 10
-12.05413385826772
 20
1.571330708661417
 10
-12.05105511811024
 20
1.577811023622047
 10
-12.04872834645669
 20
1.581393700787401
 10
-12.04603149606299
 20
1.584645669291339
 10
-12.04296850393701
 20
1.587562992125984
 10
-12.03953543307087
 20
1.590141732283465
 10
-12.03584645669291
 20
1.592251968503937
 10
-12.03203149606299
 20
1.593759842519685
 10
-12.02807874015748
 20
1.594661417322835
 10
-12.02399606299213
 20
1.594964566929134
 10
-12.02011023622047
 20
1.594807086614173
 10
-12.01675984251968
 20
1.594330708661417
 10
-12.01394881889764
 20
1.593535433070866
 10
-12.01166929133858
 20
1.59242125984252
 10
-12.00896850393701
 20
1.590425196850394
 10
-12.00662992125984
 20
1.588082677165354
 10
-12.00465354330709
 20
1.585397637795276
 10
-12.00303149606299
 20
1.582370078740158
 10
-12.00177165354331
 20
1.578996062992126
 10
-12.00087401574803
 20
1.575279527559055
 10
-12.00033464566929
 20
1.571220472440945
 10
-12.00015354330709
 20
1.566814960629921
 10
-12.00015354330709
 20
1.493070866141732
  0
LWPOLYLINE
  5
70
330
1F
100
AcDbEntity
  8
Layer 1
 62
     7
370
     9
100
AcDbPolyline
 90
      107
 70
     1
 43
0.0
 10
-11.79572440944882
 20
1.493070866141732
 10
-11.77696456692913
 20
1.493070866141732
 10
-11.77696456692913
 20
1.566814960629921
 10
-11.77711811023622
 20
1.571708661417323
 10
-11.77757480314961
 20
1.576374015748031
 10
-11.77834251968504
 20
1.580811023622047
 10
-11.77941338582677
 20
1.585015748031496
 10
-11.7807874015748
 20
1.588988188976378
 10
-11.78246850393701
 20
1.592732283464567
 10
-11.78445669291339
 20
1.596248031496063
 10
-11.78674803149606
 20
1.599531496062992
 10
-11.78938582677165
 20
1.602590551181102
 10
-11.79233858267717
 20
1.605330708661417
 10
-11.79561417322835
 20
1.607751968503937
 10
-11.79920472440945
 20
1.609854330708661
 10
-11.80325984251968
 20
1.611551181102362
 10
-11.80791732283465
 20
1.612763779527559
 10
-11.81317322834646
 20
1.613492125984252
 10
-11.81903543307087
 20
1.613736220472441
 10
-11.82206692913386
 20
1.613629921259843
 10
-11.82500393700787
 20
1.613318897637795
 10
-11.82784251968504
 20
1.612795275590551
 10
-11.83058661417323
 20
1.612062992125984
 10
-11.83323228346457
 20
1.611122047244095
 10
-11.83578346456693
 20
1.609972440944882
 10
-11.83824015748032
 20
1.608610236220472
 10
-11.84059842519685
 20
1.607043307086614
 10
-11.84459842519685
 20
1.603787401574803
 10
-11.84823228346457
 20
1.60007874015748
 10
-11.85149606299213
 20
1.595913385826772
 10
-11.8543937007874
 20
1.591303149606299
 10
-11.85935433070866
 20
1.599531496062992
 10
-11.86199212598425
 20
1.602590551181102
 10
-11.86494488188976
 20
1.605330708661417
 10
-11.86822047244094
 20
1.607751968503937
 10
-11.87181102362205
 20
1.609854330708661
 10
-11.87586220472441
 20
1.611551181102362
 10
-11.88051968503937
 20
1.612763779527559
 10
-11.88577559055118
 20
1.613492125984252
 10
-11.89164173228346
 20
1.613736220472441
 10
-11.89467322834646
 20
1.613629921259843
 10
-11.89761023622047
 20
1.613318897637795
 10
-11.90045275590551
 20
1.612795275590551
 10
-11.9031968503937
 20
1.612062992125984
 10
-11.90584645669291
 20
1.611122047244095
 10
-11.90839763779528
 20
1.609972440944882
 10
-11.91085433070866
 20
1.608610236220472
 10
-11.9132125984252
 20
1.607043307086614
 10
-11.91702755905512
 20
1.603952755905512
 10
-11.92051181102362
 20
1.60046062992126
 10
-11.92365748031496
 20
1.59655905511811
 10
-11.92646456692913
 20
1.592240157480315
 10
-11.92646456692913
 20
1.61105905511811
 10
-11.94522047244094
 20
1.61105905511811
 10
-11.94522047244094
 20
1.493070866141732
 10
-11.92646456692913
 20
1.493070866141732
 10
-11.92646456692913
 20
1.553448818897638
 10
-11.92546062992126
 20
1.560350393700787
 10
-11.92392125984252
 20
1.566704724409449
 10
-11.92185039370079
 20
1.57251968503937
 10
-11.91924015748032
 20
1.577811023622047
 10
-11.9169094488189
 20
1.581393700787401
 10
-11.9142125984252
 20
1.584645669291339
 10
-11.91114566929134
 20
1.587562992125984
 10
-11.9077125984252
 20
1.590141732283465
 10
-11.90402755905512
 20
1.592251968503937
 10
-11.9002125984252
 20
1.593759842519685
 10
-11.89625984251968
 20
1.594661417322835
 10
-11.89217322834646
 20
1.594964566929134
 10
-11.8882874015748
 20
1.594807086614173
 10
-11.88494094488189
 20
1.594330708661417
 10
-11.88212598425197
 20
1.593535433070866
 10
-11.87985039370079
 20
1.59242125984252
 10
-11.87714960629921
 20
1.590425196850394
 10
-11.87481102362205
 20
1.588082677165354
 10
-11.87283070866142
 20
1.585397637795276
 10
-11.87120866141732
 20
1.582370078740158
 10
-11.86994881889764
 20
1.578996062992126
 10
-11.86905118110236
 20
1.575279527559055
 10
-11.86851181102362
 20
1.571220472440945
 10
-11.86833070866142
 20
1.566814960629921
 10
-11.86833070866142
 20
1.493070866141732
 10
-11.84957480314961
 20
1.493070866141732
 10
-11.84957480314961
 20
1.566814960629921
 10
-11.84970472440945
 20
1.571330708661417
 10
-11.84662598425197
 20
1.577811023622047
 10
-11.84429921259843
 20
1.581393700787401
 10
-11.84160236220472
 20
1.584645669291339
 10
-11.83853937007874
 20
1.587562992125984
 10
-11.8351062992126
 20
1.590141732283465
 10
-11.83142519685039
 20
1.592251968503937
 10
-11.8276062992126
 20
1.593759842519685
 10
-11.82365748031496
 20
1.594661417322835
 10
-11.81957480314961
 20
1.594964566929134
 10
-11.81568503937008
 20
1.594807086614173
 10
-11.81233464566929
 20
1.594330708661417
 10
-11.80951968503937
 20
1.593535433070866
 10
-11.80724015748032
 20
1.59242125984252
 10
-11.80453937007874
 20
1.590425196850394
 10
-11.80220078740157
 20
1.588082677165354
 10
-11.80022440944882
 20
1.585397637795276
 10
-11.79860236220472
 20
1.582370078740158
 10
-11.79734251968504
 20
1.578996062992126
 10
-11.79644488188976
 20
1.575279527559055
 10
-11.79590551181102
 20
1.571220472440945
 10
-11.79572440944882
 20
1.566814960629921
 10
-11.79572440944882
 20
1.493070866141732
  0
LWPOLYLINE
  5
71
330
1F
100
AcDbEntity
  8
Layer 1
 62
     7
370
    18
100
AcDbPolyline
 90
        4
 70
     1
 43
0.0
 10
-15.58810236220472
 20
2.779846456692913
 10
-15.60290551181102
 20
2.806700787401575
 10
-15.61766141732283
 20
2.779818897637795
 10
-15.58810236220472
 20
2.779846456692913
  0
LWPOLYLINE
  5
72
330
1F
100
AcDbEntity
  8
Layer 1
 62
     7
370
    18
100
AcDbPolyline
 90
        4
 70
     1
 43
0.0
 10
-15.58702362204724
 20
1.610657480314961
 10
-15.60177952755905
 20
1.583779527559055
 10
-15.61658267716535
 20
1.610629921259843
 10
-15.58702362204724
 20
1.610657480314961
  0
LWPOLYLINE
  5
73
330
1F
100
AcDbEntity
  8
Layer 1
 62
     7
370
    18
100
AcDbPolyline
 90
        2
 70
     0
 43
0.0
 10
-15.60449212598425
 20
2.815657480314961
 10
-15.60335039370079
 20
1.574822834645669
  0
LWPOLYLINE
  5
74
330
1F
100
AcDbEntity
  8
Layer 1
 62
     7
370
     9
100
AcDbPolyline
 90
        7
 70
     1
 43
0.0
 10
-16.31213385826772
 20
2.108877952755905
 10
-16.23202362204724
 20
2.290425196850394
 10
-16.34642519685039
 20
2.290425196850394
 10
-16.34642519685039
 20
2.271649606299213
 10
-16.26122440944882
 20
2.271649606299213
 10
-16.33302755905512
 20
2.108877952755905
 10
-16.31213385826772
 20
2.108877952755905
  0
LWPOLYLINE
  5
75
330
1F
100
AcDbEntity
  8
Layer 1
 62
     7
370
     9
100
AcDbPolyline
 90
       64
 70
     1
 43
0.0
 10
-16.13275196850394
 20
2.27003937007874
 10
-16.12966141732284
 20
2.267937007874016
 10
-16.12677559055118
 20
2.265547244094488
 10
-16.12410236220472
 20
2.262874015748031
 10
-16.12163779527559
 20
2.259917322834646
 10
-16.11938188976378
 20
2.256673228346457
 10
-16.11733464566929
 20
2.253145669291339
 10
-16.1155
 20
2.249334645669292
 10
-16.11387007874016
 20
2.245236220472441
 10
-16.11204724409449
 20
2.239803149606299
 10
-16.11046850393701
 20
2.234287401574803
 10
-16.10913385826772
 20
2.228688976377953
 10
-16.10804330708661
 20
2.223015748031496
 10
-16.10719291338583
 20
2.217259842519685
 10
-16.10658267716535
 20
2.211425196850394
 10
-16.10622047244095
 20
2.205511811023622
 10
-16.10609842519685
 20
2.19951968503937
 10
-16.10690551181102
 20
2.186236220472441
 10
-16.10783464566929
 20
2.179031496062992
 10
-16.10904724409449
 20
2.172220472440945
 10
-16.11054724409449
 20
2.165811023622047
 10
-16.11233070866142
 20
2.159795275590551
 10
-16.11439763779527
 20
2.154181102362205
 10
-16.11674803149606
 20
2.14896062992126
 10
-16.11938582677165
 20
2.14413779527559
 10
-16.12230708661417
 20
2.139712598425197
 10
-16.12497637795276
 20
2.136385826771654
 10
-16.1277874015748
 20
2.1335
 10
-16.13073622047244
 20
2.13105905511811
 10
-16.13383070866142
 20
2.129062992125984
 10
-16.13706299212598
 20
2.127507874015748
 10
-16.14044094488189
 20
2.126397637795276
 10
-16.14396062992126
 20
2.125728346456693
 10
-16.14762598425197
 20
2.125507874015748
 10
-16.1517125984252
 20
2.125728346456693
 10
-16.1556062992126
 20
2.126385826771653
 10
-16.15929921259843
 20
2.127488188976378
 10
-16.16279921259843
 20
2.129027559055118
 10
-16.16609842519685
 20
2.131007874015748
 10
-16.16920472440945
 20
2.133425196850394
 10
-16.17211417322835
 20
2.136283464566929
 10
-16.17482283464567
 20
2.139582677165354
 10
-16.1825905511811
 20
2.153795275590551
 10
-16.18728346456693
 20
2.17001968503937
 10
-16.18955511811023
 20
2.186106299212598
 10
-16.19022440944882
 20
2.204027559055118
 10
-16.19003937007874
 20
2.209389763779527
 10
-16.18949212598425
 20
2.215362204724409
 10
-16.18857086614173
 20
2.221944881889764
 10
-16.18728346456693
 20
2.229145669291339
 10
-16.18272047244094
 20
2.245370078740157
 10
-16.1750905511811
 20
2.259850393700787
 10
-16.17262992125984
 20
2.262909448818898
 10
-16.16992913385827
 20
2.265649606299212
 10
-16.167
 20
2.268070866141732
 10
-16.16383464566929
 20
2.270177165354331
 10
-16.16040157480315
 20
2.271874015748032
 10
-16.15666929133858
 20
2.273090551181102
 10
-16.15263385826772
 20
2.273818897637795
 10
-16.14829133858268
 20
2.274062992125984
 10
-16.14395669291338
 20
2.273811023622047
 10
-16.13992125984252
 20
2.273055118110236
 10
-16.13618503937008
 20
2.271799212598425
 10
-16.13275196850394
 20
2.27003937007874
  0
LWPOLYLINE
  5
76
330
1F
100
AcDbEntity
  8
Layer 1
 62
     7
370
     9
100
AcDbPolyline
 90
       65
 70
     1
 43
0.0
 10
-16.14735433070866
 20
2.106468503937008
 10
-16.13953543307086
 20
2.106964566929134
 10
-16.13221653543307
 20
2.108452755905512
 10
-16.12538976377953
 20
2.110937007874016
 10
-16.11906299212598
 20
2.114409448818898
 10
-16.11323622047244
 20
2.118877952755906
 10
-16.10790157480315
 20
2.124338582677165
 10
-16.10306692913386
 20
2.130791338582677
 10
-16.09872834645669
 20
2.138240157480315
 10
-16.09568503937008
 20
2.144740157480315
 10
-16.09304330708661
 20
2.151602362204724
 10
-16.09081102362205
 20
2.158822834645669
 10
-16.0889842519685
 20
2.16640157480315
 10
-16.08756299212599
 20
2.174342519685039
 10
-16.08654724409449
 20
2.182641732283464
 10
-16.08594094488189
 20
2.191303149606299
 10
-16.08573622047244
 20
2.200326771653543
 10
-16.08594094488189
 20
2.209346456692913
 10
-16.08654724409449
 20
2.218003937007874
 10
-16.08756299212599
 20
2.226303149606299
 10
-16.0889842519685
 20
2.234240157480315
 10
-16.09081102362205
 20
2.241818897637795
 10
-16.09304330708661
 20
2.24903937007874
 10
-16.09568503937008
 20
2.255897637795276
 10
-16.09872834645669
 20
2.262397637795276
 10
-16.10306692913386
 20
2.269846456692914
 10
-16.10790157480315
 20
2.276299212598425
 10
-16.11323622047244
 20
2.281759842519685
 10
-16.11906299212598
 20
2.286228346456693
 10
-16.12538976377953
 20
2.289704724409449
 10
-16.13221653543307
 20
2.292188976377953
 10
-16.13953543307086
 20
2.293677165354331
 10
-16.14735433070866
 20
2.294173228346457
 10
-16.15517716535433
 20
2.293677165354331
 10
-16.1625
 20
2.292188976377953
 10
-16.16933070866142
 20
2.289704724409449
 10
-16.17565748031496
 20
2.286228346456693
 10
-16.18148818897638
 20
2.281759842519685
 10
-16.18682283464567
 20
2.276299212598425
 10
-16.19165748031496
 20
2.269846456692914
 10
-16.19599212598425
 20
2.262397637795276
 10
-16.19903543307086
 20
2.255897637795276
 10
-16.20167716535433
 20
2.24903937007874
 10
-16.2039094488189
 20
2.241818897637795
 10
-16.20573622047244
 20
2.234240157480315
 10
-16.20715748031496
 20
2.226303149606299
 10
-16.20817322834646
 20
2.218003937007874
 10
-16.20877952755906
 20
2.209346456692913
 10
-16.20898425196851
 20
2.200326771653543
 10
-16.20877952755906
 20
2.191303149606299
 10
-16.20817322834646
 20
2.182641732283464
 10
-16.20715748031496
 20
2.174342519685039
 10
-16.20573622047244
 20
2.16640157480315
 10
-16.2039094488189
 20
2.158822834645669
 10
-16.20167716535433
 20
2.151602362204724
 10
-16.19903543307086
 20
2.144740157480315
 10
-16.19599212598425
 20
2.138240157480315
 10
-16.19165748031496
 20
2.130791338582677
 10
-16.18682283464567
 20
2.124338582677165
 10
-16.18148818897638
 20
2.118877952755906
 10
-16.17565748031496
 20
2.114409448818898
 10
-16.16933070866142
 20
2.110937007874016
 10
-16.1625
 20
2.108452755905512
 10
-16.15517716535433
 20
2.106964566929134
 10
-16.14735433070866
 20
2.106468503937008
  0
LWPOLYLINE
  5
77
330
1F
100
AcDbEntity
  8
Layer 1
 62
     7
370
     9
100
AcDbPolyline
 90
      107
 70
     1
 43
0.0
 10
-15.90274409448819
 20
2.109413385826772
 10
-15.88398818897638
 20
2.109413385826772
 10
-15.88398818897638
 20
2.183157480314961
 10
-15.88414173228346
 20
2.188051181102362
 10
-15.88459842519685
 20
2.192716535433071
 10
-15.88536614173228
 20
2.197153543307087
 10
-15.88643700787402
 20
2.201358267716536
 10
-15.88781102362205
 20
2.205330708661417
 10
-15.88949212598425
 20
2.209074803149606
 10
-15.89148031496063
 20
2.212590551181102
 10
-15.89377165354331
 20
2.215874015748032
 10
-15.89640551181102
 20
2.218933070866142
 10
-15.89936220472441
 20
2.221673228346457
 10
-15.90263385826772
 20
2.224094488188976
 10
-15.90622440944882
 20
2.226196850393701
 10
-15.91027952755906
 20
2.227897637795276
 10
-15.91493700787402
 20
2.229110236220472
 10
-15.9201968503937
 20
2.22984251968504
 10
-15.92605905511811
 20
2.230086614173228
 10
-15.9290905511811
 20
2.22998031496063
 10
-15.93202755905512
 20
2.229665354330709
 10
-15.93486614173228
 20
2.229141732283464
 10
-15.93761023622047
 20
2.228409448818898
 10
-15.94025590551181
 20
2.227464566929134
 10
-15.94280708661417
 20
2.226314960629921
 10
-15.94525984251968
 20
2.224952755905512
 10
-15.94761811023622
 20
2.223385826771654
 10
-15.9516220472441
 20
2.220129921259843
 10
-15.95525590551181
 20
2.216421259842519
 10
-15.95851968503937
 20
2.212255905511811
 10
-15.96141732283465
 20
2.207645669291339
 10
-15.96637795275591
 20
2.215874015748032
 10
-15.96901181102362
 20
2.218933070866142
 10
-15.97196850393701
 20
2.221673228346457
 10
-15.97524015748031
 20
2.224094488188976
 10
-15.97883070866142
 20
2.226196850393701
 10
-15.98288582677165
 20
2.227897637795276
 10
-15.98754330708661
 20
2.229110236220472
 10
-15.99279921259843
 20
2.22984251968504
 10
-15.99866535433071
 20
2.230086614173228
 10
-16.0016968503937
 20
2.22998031496063
 10
-16.00463385826772
 20
2.229665354330709
 10
-16.00747637795276
 20
2.229141732283464
 10
-16.01021653543307
 20
2.228409448818898
 10
-16.01286614173228
 20
2.227464566929134
 10
-16.01541732283465
 20
2.226314960629921
 10
-16.01787401574803
 20
2.224952755905512
 10
-16.02023228346457
 20
2.223385826771654
 10
-16.02405118110236
 20
2.220299212598425
 10
-16.02753543307087
 20
2.216807086614173
 10
-16.03068110236221
 20
2.212905511811023
 10
-16.03349212598425
 20
2.208582677165354
 10
-16.03349212598425
 20
2.227401574803149
 10
-16.05224409448819
 20
2.227401574803149
 10
-16.05224409448819
 20
2.109413385826772
 10
-16.03349212598425
 20
2.109413385826772
 10
-16.03349212598425
 20
2.169799212598425
 10
-16.03248818897638
 20
2.176692913385827
 10
-16.03094881889764
 20
2.183047244094488
 10
-16.02887007874016
 20
2.188862204724409
 10
-16.02625984251969
 20
2.194153543307086
 10
-16.02393307086614
 20
2.197736220472441
 10
-16.02123622047244
 20
2.200988188976378
 10
-16.01816929133858
 20
2.203905511811024
 10
-16.01473622047244
 20
2.206484251968504
 10
-16.01105118110236
 20
2.20859842519685
 10
-16.00723622047244
 20
2.210110236220472
 10
-16.00328346456693
 20
2.211011811023622
 10
-15.99919291338583
 20
2.211314960629921
 10
-15.99531102362205
 20
2.211157480314961
 10
-15.99196062992126
 20
2.210677165354331
 10
-15.98914960629921
 20
2.209881889763779
 10
-15.98687007874016
 20
2.208763779527559
 10
-15.98416929133858
 20
2.206767716535433
 10
-15.98183070866142
 20
2.204425196850394
 10
-15.97985433070866
 20
2.201740157480315
 10
-15.97823228346457
 20
2.198712598425197
 10
-15.97697244094488
 20
2.195338582677165
 10
-15.97607480314961
 20
2.191622047244095
 10
-15.97553543307087
 20
2.187562992125984
 10
-15.97535433070866
 20
2.183157480314961
 10
-15.97535433070866
 20
2.109413385826772
 10
-15.95659448818898
 20
2.109413385826772
 10
-15.95659448818898
 20
2.183157480314961
 10
-15.95672440944882
 20
2.187673228346457
 10
-15.95364566929134
 20
2.194153543307086
 10
-15.9513188976378
 20
2.197736220472441
 10
-15.94862598425197
 20
2.200988188976378
 10
-15.94556299212598
 20
2.203905511811024
 10
-15.94213779527559
 20
2.206484251968504
 10
-15.93844881889764
 20
2.20859842519685
 10
-15.93462992125984
 20
2.210110236220472
 10
-15.93067716535433
 20
2.211011811023622
 10
-15.92659448818898
 20
2.211314960629921
 10
-15.92270472440945
 20
2.211157480314961
 10
-15.91935433070866
 20
2.210677165354331
 10
-15.91654330708661
 20
2.209881889763779
 10
-15.91426377952756
 20
2.208763779527559
 10
-15.91156299212598
 20
2.206767716535433
 10
-15.90922440944882
 20
2.204425196850394
 10
-15.90724409448819
 20
2.201740157480315
 10
-15.90562598425197
 20
2.198712598425197
 10
-15.90436614173228
 20
2.195338582677165
 10
-15.90346456692913
 20
2.191622047244095
 10
-15.90292519685039
 20
2.187562992125984
 10
-15.90274409448819
 20
2.183157480314961
 10
-15.90274409448819
 20
2.109413385826772
  0
LWPOLYLINE
  5
78
330
1F
100
AcDbEntity
  8
Layer 1
 62
     7
370
     9
100
AcDbPolyline
 90
      107
 70
     1
 43
0.0
 10
-15.6983188976378
 20
2.109413385826772
 10
-15.67955905511811
 20
2.109413385826772
 10
-15.67955905511811
 20
2.183157480314961
 10
-15.6797125984252
 20
2.188051181102362
 10
-15.68016929133858
 20
2.192716535433071
 10
-15.68093700787402
 20
2.197153543307087
 10
-15.68200787401575
 20
2.201358267716536
 10
-15.68338188976378
 20
2.205330708661417
 10
-15.68506299212598
 20
2.209074803149606
 10
-15.68705118110236
 20
2.212590551181102
 10
-15.68934251968504
 20
2.215874015748032
 10
-15.69197637795276
 20
2.218933070866142
 10
-15.69493307086614
 20
2.221673228346457
 10
-15.69820472440945
 20
2.224094488188976
 10
-15.70179527559055
 20
2.226196850393701
 10
-15.70585039370079
 20
2.227897637795276
 10
-15.71050787401575
 20
2.229110236220472
 10
-15.71576771653543
 20
2.22984251968504
 10
-15.72162992125984
 20
2.230086614173228
 10
-15.72466141732284
 20
2.22998031496063
 10
-15.72759842519685
 20
2.229665354330709
 10
-15.73043700787402
 20
2.229141732283464
 10
-15.7331811023622
 20
2.228409448818898
 10
-15.73583070866142
 20
2.227464566929134
 10
-15.73838188976378
 20
2.226314960629921
 10
-15.74083858267717
 20
2.224952755905512
 10
-15.7431968503937
 20
2.223385826771654
 10
-15.74720078740157
 20
2.220129921259843
 10
-15.75083464566929
 20
2.216421259842519
 10
-15.75409842519685
 20
2.212255905511811
 10
-15.75699606299213
 20
2.207645669291339
 10
-15.76195669291338
 20
2.215874015748032
 10
-15.76458661417323
 20
2.218933070866142
 10
-15.76753937007874
 20
2.221673228346457
 10
-15.77081102362205
 20
2.224094488188976
 10
-15.77440157480315
 20
2.226196850393701
 10
-15.77845669291339
 20
2.227897637795276
 10
-15.78311417322835
 20
2.229110236220472
 10
-15.78837007874016
 20
2.22984251968504
 10
-15.79423622047244
 20
2.230086614173228
 10
-15.79726771653543
 20
2.22998031496063
 10
-15.80020472440945
 20
2.229665354330709
 10
-15.80304724409449
 20
2.229141732283464
 10
-15.8057874015748
 20
2.228409448818898
 10
-15.80843700787402
 20
2.227464566929134
 10
-15.81098818897638
 20
2.226314960629921
 10
-15.81344488188976
 20
2.224952755905512
 10
-15.8158031496063
 20
2.223385826771654
 10
-15.81962204724409
 20
2.220299212598425
 10
-15.8231062992126
 20
2.216807086614173
 10
-15.82625196850394
 20
2.212905511811023
 10
-15.82906299212598
 20
2.208582677165354
 10
-15.82906299212598
 20
2.227401574803149
 10
-15.84782283464567
 20
2.227401574803149
 10
-15.84782283464567
 20
2.109413385826772
 10
-15.82906299212598
 20
2.109413385826772
 10
-15.82906299212598
 20
2.169799212598425
 10
-15.82805905511811
 20
2.176692913385827
 10
-15.82651968503937
 20
2.183047244094488
 10
-15.82444094488189
 20
2.188862204724409
 10
-15.82183070866142
 20
2.194153543307086
 10
-15.81950393700787
 20
2.197736220472441
 10
-15.81680708661417
 20
2.200988188976378
 10
-15.81374015748031
 20
2.203905511811024
 10
-15.81030708661417
 20
2.206484251968504
 10
-15.80662204724409
 20
2.20859842519685
 10
-15.80280708661417
 20
2.210110236220472
 10
-15.79885433070866
 20
2.211011811023622
 10
-15.79476377952756
 20
2.211314960629921
 10
-15.79088188976378
 20
2.211157480314961
 10
-15.78753149606299
 20
2.210677165354331
 10
-15.78472047244095
 20
2.209881889763779
 10
-15.78244094488189
 20
2.208763779527559
 10
-15.77974015748032
 20
2.206767716535433
 10
-15.77740157480315
 20
2.204425196850394
 10
-15.77542519685039
 20
2.201740157480315
 10
-15.7738031496063
 20
2.198712598425197
 10
-15.77254330708661
 20
2.195338582677165
 10
-15.77164566929134
 20
2.191622047244095
 10
-15.7711062992126
 20
2.187562992125984
 10
-15.77092519685039
 20
2.183157480314961
 10
-15.77092519685039
 20
2.109413385826772
 10
-15.75217322834646
 20
2.109413385826772
 10
-15.75217322834646
 20
2.183157480314961
 10
-15.7523031496063
 20
2.187673228346457
 10
-15.74922440944882
 20
2.194153543307086
 10
-15.74689763779527
 20
2.197736220472441
 10
-15.74420472440945
 20
2.200988188976378
 10
-15.74113779527559
 20
2.203905511811024
 10
-15.73770866141732
 20
2.206484251968504
 10
-15.73401968503937
 20
2.20859842519685
 10
-15.73020078740158
 20
2.210110236220472
 10
-15.72624803149606
 20
2.211011811023622
 10
-15.72216535433071
 20
2.211314960629921
 10
-15.71827559055118
 20
2.211157480314961
 10
-15.71492519685039
 20
2.210677165354331
 10
-15.71211417322835
 20
2.209881889763779
 10
-15.70983464566929
 20
2.208763779527559
 10
-15.70713385826772
 20
2.206767716535433
 10
-15.70479527559055
 20
2.204425196850394
 10
-15.7028188976378
 20
2.201740157480315
 10
-15.7011968503937
 20
2.198712598425197
 10
-15.69993700787402
 20
2.195338582677165
 10
-15.69903937007874
 20
2.191622047244095
 10
-15.6985
 20
2.187562992125984
 10
-15.6983188976378
 20
2.183157480314961
 10
-15.6983188976378
 20
2.109413385826772
  0
LWPOLYLINE
  5
79
330
1F
100
AcDbEntity
  8
Layer 1
 62
     7
370
    18
100
AcDbPolyline
 90
        4
 70
     1
 43
0.0
 10
-11.36561811023622
 20
2.896614173228346
 10
-11.33502755905512
 20
2.894523622047244
 10
-11.34964173228346
 20
2.92148031496063
 10
-11.36561811023622
 20
2.896614173228346
  0
LWPOLYLINE
  5
7A
330
1F
100
AcDbEntity
  8
Layer 1
 62
     7
370
    18
100
AcDbPolyline
 90
        4
 70
     1
 43
0.0
 10
-13.11685826771654
 20
4.021846456692914
 10
-13.13147244094488
 20
4.048803149606299
 10
-13.10088188976378
 20
4.046712598425197
 10
-13.11685826771654
 20
4.021846456692914
  0
LWPOLYLINE
  5
7B
330
1F
100
AcDbEntity
  8
Layer 1
 62
     7
370
    18
100
AcDbPolyline
 90
        2
 70
     0
 43
0.0
 10
-11.32664173228346
 20
2.891011811023622
 10
-13.13815748031496
 20
4.054972440944882
  0
LWPOLYLINE
  5
7C
330
1F
100
AcDbEntity
  8
Layer 1
 62
     7
370
     9
100
AcDbPolyline
 90
        7
 70
     1
 43
0.0
 10
-12.24361023622047
 20
3.621338582677165
 10
-12.22486220472441
 20
3.621338582677165
 10
-12.22486220472441
 20
3.805818897637795
 10
-12.26986220472441
 20
3.801
 10
-12.26986220472441
 20
3.784645669291339
 10
-12.24361023622047
 20
3.784645669291339
 10
-12.24361023622047
 20
3.621338582677165
  0
LWPOLYLINE
  5
7D
330
1F
100
AcDbEntity
  8
Layer 1
 62
     7
370
     9
100
AcDbPolyline
 90
       64
 70
     1
 43
0.0
 10
-12.11674803149606
 20
3.782492125984252
 10
-12.11365354330709
 20
3.780389763779528
 10
-12.11077165354331
 20
3.778
 10
-12.10809448818898
 20
3.775326771653543
 10
-12.10562992125984
 20
3.772370078740158
 10
-12.10337401574803
 20
3.769129921259843
 10
-12.10132677165354
 20
3.765602362204724
 10
-12.09948818897638
 20
3.761787401574803
 10
-12.09786220472441
 20
3.757692913385827
 10
-12.09603937007874
 20
3.752255905511811
 10
-12.09446062992126
 20
3.746740157480315
 10
-12.09312598425197
 20
3.741145669291339
 10
-12.09203149606299
 20
3.735472440944882
 10
-12.0911811023622
 20
3.729716535433071
 10
-12.09057480314961
 20
3.72388188976378
 10
-12.0902125984252
 20
3.717968503937008
 10
-12.0900905511811
 20
3.711976377952756
 10
-12.09089763779528
 20
3.698692913385827
 10
-12.09182677165354
 20
3.691488188976378
 10
-12.09303937007874
 20
3.684677165354331
 10
-12.09453543307087
 20
3.678267716535433
 10
-12.0963188976378
 20
3.672251968503937
 10
-12.09838976377953
 20
3.66663779527559
 10
-12.10074015748032
 20
3.66142125984252
 10
-12.10337795275591
 20
3.65659842519685
 10
-12.10629921259843
 20
3.652177165354331
 10
-12.10896850393701
 20
3.648846456692914
 10
-12.11177559055118
 20
3.645956692913386
 10
-12.11472834645669
 20
3.643515748031496
 10
-12.11782283464567
 20
3.641515748031496
 10
-12.12105905511811
 20
3.639964566929134
 10
-12.12443700787402
 20
3.638854330708662
 10
-12.12796062992126
 20
3.638185039370079
 10
-12.13162204724409
 20
3.637964566929134
 10
-12.1357125984252
 20
3.638185039370079
 10
-12.13960236220472
 20
3.638842519685039
 10
-12.14329921259842
 20
3.639944881889764
 10
-12.14679527559055
 20
3.641484251968504
 10
-12.15009842519685
 20
3.643464566929134
 10
-12.15320078740158
 20
3.645885826771654
 10
-12.15611023622047
 20
3.648744094488189
 10
-12.1588188976378
 20
3.652047244094488
 10
-12.1665905511811
 20
3.666251968503937
 10
-12.17127952755905
 20
3.682476377952756
 10
-12.17355511811024
 20
3.698562992125984
 10
-12.17422047244095
 20
3.716484251968504
 10
-12.17403937007874
 20
3.721850393700787
 10
-12.17348818897638
 20
3.727822834645669
 10
-12.17257086614173
 20
3.734405511811024
 10
-12.17127952755905
 20
3.741606299212598
 10
-12.16672047244094
 20
3.757822834645669
 10
-12.15908661417323
 20
3.772303149606299
 10
-12.15662598425197
 20
3.775366141732283
 10
-12.15392913385827
 20
3.778106299212598
 10
-12.15099606299213
 20
3.780531496062992
 10
-12.14783070866142
 20
3.782633858267717
 10
-12.14439763779528
 20
3.784330708661417
 10
-12.14066535433071
 20
3.785543307086614
 10
-12.13662992125984
 20
3.786271653543307
 10
-12.13229133858268
 20
3.786515748031496
 10
-12.12795275590551
 20
3.786263779527559
 10
-12.12391732283464
 20
3.785507874015748
 10
-12.1201811023622
 20
3.784251968503937
 10
-12.11674803149606
 20
3.782492125984252
  0
LWPOLYLINE
  5
7E
330
1F
100
AcDbEntity
  8
Layer 1
 62
     7
370
     9
100
AcDbPolyline
 90
       65
 70
     1
 43
0.0
 10
-12.13135433070866
 20
3.61892125984252
 10
-12.12353149606299
 20
3.619417322834646
 10
-12.11620866141732
 20
3.620905511811024
 10
-12.10938188976378
 20
3.623389763779528
 10
-12.10305511811024
 20
3.626866141732283
 10
-12.09722440944882
 20
3.631334645669291
 10
-12.0918937007874
 20
3.636795275590551
 10
-12.08706299212598
 20
3.643251968503937
 10
-12.08272834645669
 20
3.650700787401575
 10
-12.07968503937008
 20
3.657196850393701
 10
-12.07704330708661
 20
3.664055118110236
 10
-12.07481102362205
 20
3.671275590551181
 10
-12.0729842519685
 20
3.678854330708662
 10
-12.07156299212599
 20
3.686795275590551
 10
-12.07054724409449
 20
3.69509842519685
 10
-12.06994094488189
 20
3.703759842519685
 10
-12.06973622047244
 20
3.712783464566929
 10
-12.06994094488189
 20
3.721803149606299
 10
-12.07054724409449
 20
3.73046062992126
 10
-12.07156299212599
 20
3.738759842519685
 10
-12.0729842519685
 20
3.746696850393701
 10
-12.07481102362205
 20
3.754275590551181
 10
-12.07704330708661
 20
3.761496062992126
 10
-12.07968503937008
 20
3.768354330708661
 10
-12.08272834645669
 20
3.774854330708661
 10
-12.08706299212598
 20
3.782303149606299
 10
-12.0918937007874
 20
3.788755905511811
 10
-12.09722440944882
 20
3.794216535433071
 10
-12.10305511811024
 20
3.798685039370079
 10
-12.10938188976378
 20
3.80215748031496
 10
-12.11620866141732
 20
3.804641732283465
 10
-12.12353149606299
 20
3.806129921259843
 10
-12.13135433070866
 20
3.806625984251968
 10
-12.13917716535433
 20
3.806129921259843
 10
-12.1465
 20
3.804641732283465
 10
-12.15332677165354
 20
3.80215748031496
 10
-12.15965748031496
 20
3.798685039370079
 10
-12.1654842519685
 20
3.794216535433071
 10
-12.17081496062992
 20
3.788755905511811
 10
-12.17564960629921
 20
3.782303149606299
 10
-12.17998031496063
 20
3.774854330708661
 10
-12.18302362204724
 20
3.768354330708661
 10
-12.18566535433071
 20
3.761496062992126
 10
-12.18789763779528
 20
3.754275590551181
 10
-12.18972440944882
 20
3.746696850393701
 10
-12.19114566929134
 20
3.738759842519685
 10
-12.19216141732283
 20
3.73046062992126
 10
-12.19276771653543
 20
3.721803149606299
 10
-12.19297244094488
 20
3.712783464566929
 10
-12.19276771653543
 20
3.703759842519685
 10
-12.19216141732283
 20
3.69509842519685
 10
-12.19114566929134
 20
3.686795275590551
 10
-12.18972440944882
 20
3.678854330708662
 10
-12.18789763779528
 20
3.671275590551181
 10
-12.18566535433071
 20
3.664055118110236
 10
-12.18302362204724
 20
3.657196850393701
 10
-12.17998031496063
 20
3.650700787401575
 10
-12.17564960629921
 20
3.643251968503937
 10
-12.17081496062992
 20
3.636795275590551
 10
-12.1654842519685
 20
3.631334645669291
 10
-12.15965748031496
 20
3.626866141732283
 10
-12.15332677165354
 20
3.623389763779528
 10
-12.1465
 20
3.620905511811024
 10
-12.13917716535433
 20
3.619417322834646
 10
-12.13135433070866
 20
3.61892125984252
  0
LWPOLYLINE
  5
7F
330
1F
100
AcDbEntity
  8
Layer 1
 62
     7
370
     9
100
AcDbPolyline
 90
       64
 70
     1
 43
0.0
 10
-11.9667125984252
 20
3.782492125984252
 10
-11.96361811023622
 20
3.780389763779528
 10
-11.96073622047244
 20
3.778
 10
-11.95805905511811
 20
3.775326771653543
 10
-11.95559448818898
 20
3.772370078740158
 10
-11.95333858267717
 20
3.769129921259843
 10
-11.95129133858268
 20
3.765602362204724
 10
-11.94945275590551
 20
3.761787401574803
 10
-11.94782677165354
 20
3.757692913385827
 10
-11.94600393700787
 20
3.752255905511811
 10
-11.94442519685039
 20
3.746740157480315
 10
-11.9430905511811
 20
3.741145669291339
 10
-11.94199606299213
 20
3.735472440944882
 10
-11.94114566929134
 20
3.729716535433071
 10
-11.94053937007874
 20
3.72388188976378
 10
-11.94017716535433
 20
3.717968503937008
 10
-11.94005511811024
 20
3.711976377952756
 10
-11.94086220472441
 20
3.698692913385827
 10
-11.94179133858268
 20
3.691488188976378
 10
-11.94300393700787
 20
3.684677165354331
 10
-11.9445
 20
3.678267716535433
 10
-11.94628346456693
 20
3.672251968503937
 10
-11.94835433070866
 20
3.66663779527559
 10
-11.95070472440945
 20
3.66142125984252
 10
-11.95334251968504
 20
3.65659842519685
 10
-11.95626377952756
 20
3.652177165354331
 10
-11.95893307086614
 20
3.648846456692914
 10
-11.96174015748032
 20
3.645956692913386
 10
-11.96469291338583
 20
3.643515748031496
 10
-11.9677874015748
 20
3.641515748031496
 10
-11.97102362204724
 20
3.639964566929134
 10
-11.97440157480315
 20
3.638854330708662
 10
-11.97792519685039
 20
3.638185039370079
 10
-11.98158661417323
 20
3.637964566929134
 10
-11.98567322834646
 20
3.638185039370079
 10
-11.98956299212598
 20
3.638842519685039
 10
-11.99325590551181
 20
3.639944881889764
 10
-11.99675196850394
 20
3.641484251968504
 10
-12.00005511811024
 20
3.643464566929134
 10
-12.00315748031496
 20
3.645885826771654
 10
-12.00606692913386
 20
3.648744094488189
 10
-12.00877559055118
 20
3.652047244094488
 10
-12.01654724409449
 20
3.666251968503937
 10
-12.02124015748032
 20
3.682476377952756
 10
-12.02351181102362
 20
3.698562992125984
 10
-12.02417716535433
 20
3.716484251968504
 10
-12.02399606299213
 20
3.721850393700787
 10
-12.02344488188976
 20
3.727822834645669
 10
-12.02252755905512
 20
3.734405511811024
 10
-12.02124015748032
 20
3.741606299212598
 10
-12.01667716535433
 20
3.757822834645669
 10
-12.00904330708661
 20
3.772303149606299
 10
-12.00658267716535
 20
3.775366141732283
 10
-12.00388582677165
 20
3.778106299212598
 10
-12.00095275590551
 20
3.780531496062992
 10
-11.9977874015748
 20
3.782633858267717
 10
-11.99435826771654
 20
3.784330708661417
 10
-11.99062598425197
 20
3.785543307086614
 10
-11.98659448818898
 20
3.786271653543307
 10
-11.98225590551181
 20
3.786515748031496
 10
-11.97792125984252
 20
3.786263779527559
 10
-11.97388188976378
 20
3.785507874015748
 10
-11.97014566929134
 20
3.784251968503937
 10
-11.9667125984252
 20
3.782492125984252
  0
LWPOLYLINE
  5
80
330
1F
100
AcDbEntity
  8
Layer 1
 62
     7
370
     9
100
AcDbPolyline
 90
       65
 70
     1
 43
0.0
 10
-11.9813188976378
 20
3.61892125984252
 10
-11.97349606299213
 20
3.619417322834646
 10
-11.96617322834646
 20
3.620905511811024
 10
-11.95934645669291
 20
3.623389763779528
 10
-11.95301968503937
 20
3.626866141732283
 10
-11.94718897637795
 20
3.631334645669291
 10
-11.94185826771654
 20
3.636795275590551
 10
-11.93702362204724
 20
3.643251968503937
 10
-11.93268503937008
 20
3.650700787401575
 10
-11.92964173228346
 20
3.657196850393701
 10
-11.927
 20
3.664055118110236
 10
-11.92476771653543
 20
3.671275590551181
 10
-11.92294094488189
 20
3.678854330708662
 10
-11.92151968503937
 20
3.686795275590551
 10
-11.92050393700787
 20
3.69509842519685
 10
-11.91989763779528
 20
3.703759842519685
 10
-11.91969291338583
 20
3.712783464566929
 10
-11.91989763779528
 20
3.721803149606299
 10
-11.92050393700787
 20
3.73046062992126
 10
-11.92151968503937
 20
3.738759842519685
 10
-11.92294094488189
 20
3.746696850393701
 10
-11.92476771653543
 20
3.754275590551181
 10
-11.927
 20
3.761496062992126
 10
-11.92964173228346
 20
3.768354330708661
 10
-11.93268503937008
 20
3.774854330708661
 10
-11.93702362204724
 20
3.782303149606299
 10
-11.94185826771654
 20
3.788755905511811
 10
-11.94718897637795
 20
3.794216535433071
 10
-11.95301968503937
 20
3.798685039370079
 10
-11.95934645669291
 20
3.80215748031496
 10
-11.96617322834646
 20
3.804641732283465
 10
-11.97349606299213
 20
3.806129921259843
 10
-11.9813188976378
 20
3.806625984251968
 10
-11.98913779527559
 20
3.806129921259843
 10
-11.99646062992126
 20
3.804641732283465
 10
-12.0032874015748
 20
3.80215748031496
 10
-12.00961417322835
 20
3.798685039370079
 10
-12.01544488188976
 20
3.794216535433071
 10
-12.02077559055118
 20
3.788755905511811
 10
-12.02561023622047
 20
3.782303149606299
 10
-12.02994488188976
 20
3.774854330708661
 10
-12.03298818897638
 20
3.768354330708661
 10
-12.03562992125984
 20
3.761496062992126
 10
-12.03786220472441
 20
3.754275590551181
 10
-12.03968897637795
 20
3.746696850393701
 10
-12.04111023622047
 20
3.738759842519685
 10
-12.04212598425197
 20
3.73046062992126
 10
-12.04273228346457
 20
3.721803149606299
 10
-12.04293700787402
 20
3.712783464566929
 10
-12.04273228346457
 20
3.703759842519685
 10
-12.04212598425197
 20
3.69509842519685
 10
-12.04111023622047
 20
3.686795275590551
 10
-12.03968897637795
 20
3.678854330708662
 10
-12.03786220472441
 20
3.671275590551181
 10
-12.03562992125984
 20
3.664055118110236
 10
-12.03298818897638
 20
3.657196850393701
 10
-12.02994488188976
 20
3.650700787401575
 10
-12.02561023622047
 20
3.643251968503937
 10
-12.02077559055118
 20
3.636795275590551
 10
-12.01544488188976
 20
3.631334645669291
 10
-12.00961417322835
 20
3.626866141732283
 10
-12.0032874015748
 20
3.623389763779528
 10
-11.99646062992126
 20
3.620905511811024
 10
-11.98913779527559
 20
3.619417322834646
 10
-11.9813188976378
 20
3.61892125984252
  0
LWPOLYLINE
  5
81
330
1F
100
AcDbEntity
  8
Layer 1
 62
     7
370
     9
100
AcDbPolyline
 90
      107
 70
     1
 43
0.0
 10
-11.73670078740157
 20
3.621877952755905
 10
-11.71794094488189
 20
3.621877952755905
 10
-11.71794094488189
 20
3.695614173228346
 10
-11.71809448818898
 20
3.700507874015748
 10
-11.71855118110236
 20
3.705173228346457
 10
-11.71931889763779
 20
3.709606299212598
 10
-11.72038976377953
 20
3.713811023622047
 10
-11.72176377952756
 20
3.717787401574803
 10
-11.72344488188976
 20
3.721531496062992
 10
-11.72543307086614
 20
3.725047244094488
 10
-11.72772440944882
 20
3.728330708661417
 10
-11.73036220472441
 20
3.731389763779528
 10
-11.73331496062992
 20
3.734129921259842
 10
-11.7365905511811
 20
3.736551181102362
 10
-11.74018110236221
 20
3.738649606299213
 10
-11.74423622047244
 20
3.740354330708661
 10
-11.7488937007874
 20
3.741570866141732
 10
-11.75414960629921
 20
3.742299212598425
 10
-11.76001181102362
 20
3.742543307086614
 10
-11.76304330708661
 20
3.742437007874016
 10
-11.76598031496063
 20
3.742125984251969
 10
-11.76882283464567
 20
3.74159842519685
 10
-11.77156692913386
 20
3.740866141732283
 10
-11.7742125984252
 20
3.739925196850394
 10
-11.77676377952756
 20
3.738771653543307
 10
-11.77922047244095
 20
3.737409448818898
 10
-11.78158267716536
 20
3.735838582677165
 10
-11.78558267716535
 20
3.732586614173228
 10
-11.78921653543307
 20
3.728877952755906
 10
-11.79248031496063
 20
3.724712598425197
 10
-11.79537795275591
 20
3.720106299212599
 10
-11.80033858267717
 20
3.728330708661417
 10
-11.80297637795276
 20
3.731389763779528
 10
-11.80592913385827
 20
3.734129921259842
 10
-11.80920078740158
 20
3.736551181102362
 10
-11.8127874015748
 20
3.738649606299213
 10
-11.81683858267717
 20
3.740354330708661
 10
-11.82149606299213
 20
3.741570866141732
 10
-11.82675196850394
 20
3.742299212598425
 10
-11.83261811023622
 20
3.742543307086614
 10
-11.83564960629921
 20
3.742437007874016
 10
-11.83858661417323
 20
3.742125984251969
 10
-11.84142913385827
 20
3.74159842519685
 10
-11.84417322834646
 20
3.740866141732283
 10
-11.84682283464567
 20
3.739925196850394
 10
-11.84937401574803
 20
3.738771653543307
 10
-11.85183070866142
 20
3.737409448818898
 10
-11.85418897637795
 20
3.735838582677165
 10
-11.85800787401575
 20
3.732751968503937
 10
-11.86148818897638
 20
3.729263779527559
 10
-11.86463779527559
 20
3.725362204724409
 10
-11.86744881889764
 20
3.721043307086614
 10
-11.86744881889764
 20
3.739854330708662
 10
-11.88620472440945
 20
3.739854330708662
 10
-11.88620472440945
 20
3.621877952755905
 10
-11.86744881889764
 20
3.621877952755905
 10
-11.86744881889764
 20
3.682251968503937
 10
-11.86644488188976
 20
3.689149606299213
 10
-11.86490157480315
 20
3.695503937007874
 10
-11.86282677165354
 20
3.701322834645669
 10
-11.86021653543307
 20
3.706610236220472
 10
-11.85788582677165
 20
3.710196850393701
 10
-11.85518897637795
 20
3.713444881889764
 10
-11.85212204724409
 20
3.71636220472441
 10
-11.84868897637795
 20
3.71894094488189
 10
-11.84500393700787
 20
3.721055118110236
 10
-11.84118897637795
 20
3.722562992125984
 10
-11.83723622047244
 20
3.723468503937008
 10
-11.83314960629921
 20
3.723767716535433
 10
-11.82926377952756
 20
3.723610236220472
 10
-11.82591732283464
 20
3.723133858267717
 10
-11.82310236220472
 20
3.722342519685039
 10
-11.82082677165354
 20
3.721228346456693
 10
-11.81812598425197
 20
3.719228346456693
 10
-11.8157874015748
 20
3.716885826771653
 10
-11.81380708661417
 20
3.714196850393701
 10
-11.81218503937008
 20
3.711169291338583
 10
-11.81092519685039
 20
3.707795275590551
 10
-11.81002755905512
 20
3.70407874015748
 10
-11.80948818897638
 20
3.700015748031496
 10
-11.80930708661417
 20
3.695614173228346
 10
-11.80930708661417
 20
3.621877952755905
 10
-11.79055511811024
 20
3.621877952755905
 10
-11.79055511811024
 20
3.695614173228346
 10
-11.79068897637795
 20
3.700133858267717
 10
-11.78761023622047
 20
3.706610236220472
 10
-11.78528346456693
 20
3.710196850393701
 10
-11.78258661417323
 20
3.713444881889764
 10
-11.77952362204724
 20
3.71636220472441
 10
-11.7760905511811
 20
3.71894094488189
 10
-11.77240157480315
 20
3.721055118110236
 10
-11.76858661417323
 20
3.722562992125984
 10
-11.76463385826772
 20
3.723468503937008
 10
-11.76055118110236
 20
3.723767716535433
 10
-11.75666141732284
 20
3.723610236220472
 10
-11.75331102362205
 20
3.723133858267717
 10
-11.75049606299213
 20
3.722342519685039
 10
-11.74821653543307
 20
3.721228346456693
 10
-11.7455157480315
 20
3.719228346456693
 10
-11.74317716535433
 20
3.716885826771653
 10
-11.74120078740157
 20
3.714196850393701
 10
-11.73957874015748
 20
3.711169291338583
 10
-11.73831889763779
 20
3.707795275590551
 10
-11.73742125984252
 20
3.70407874015748
 10
-11.73688188976378
 20
3.700015748031496
 10
-11.73670078740157
 20
3.695614173228346
 10
-11.73670078740157
 20
3.621877952755905
  0
LWPOLYLINE
  5
82
330
1F
100
AcDbEntity
  8
Layer 1
 62
     7
370
     9
100
AcDbPolyline
 90
      107
 70
     1
 43
0.0
 10
-11.53227952755906
 20
3.621877952755905
 10
-11.51351968503937
 20
3.621877952755905
 10
-11.51351968503937
 20
3.695614173228346
 10
-11.51367322834646
 20
3.700507874015748
 10
-11.51412992125984
 20
3.705173228346457
 10
-11.51489763779528
 20
3.709606299212598
 10
-11.51596850393701
 20
3.713811023622047
 10
-11.51734251968504
 20
3.717787401574803
 10
-11.51902362204724
 20
3.721531496062992
 10
-11.52101181102362
 20
3.725047244094488
 10
-11.5233031496063
 20
3.728330708661417
 10
-11.52594094488189
 20
3.731389763779528
 10
-11.5288937007874
 20
3.734129921259842
 10
-11.53216535433071
 20
3.736551181102362
 10
-11.53575196850394
 20
3.738649606299213
 10
-11.53980708661417
 20
3.740354330708661
 10
-11.54446456692913
 20
3.741570866141732
 10
-11.54972047244095
 20
3.742299212598425
 10
-11.55558267716535
 20
3.742543307086614
 10
-11.55861417322835
 20
3.742437007874016
 10
-11.56155118110236
 20
3.742125984251969
 10
-11.5643937007874
 20
3.74159842519685
 10
-11.56713779527559
 20
3.740866141732283
 10
-11.5697874015748
 20
3.739925196850394
 10
-11.57233858267717
 20
3.738771653543307
 10
-11.57479527559055
 20
3.737409448818898
 10
-11.57715354330709
 20
3.735838582677165
 10
-11.58115354330709
 20
3.732586614173228
 10
-11.5847874015748
 20
3.728877952755906
 10
-11.58805118110236
 20
3.724712598425197
 10
-11.59094881889764
 20
3.720106299212599
 10
-11.5959094488189
 20
3.728330708661417
 10
-11.59854724409449
 20
3.731389763779528
 10
-11.6015
 20
3.734129921259842
 10
-11.60477559055118
 20
3.736551181102362
 10
-11.60836614173228
 20
3.738649606299213
 10
-11.61241732283465
 20
3.740354330708661
 10
-11.61707480314961
 20
3.741570866141732
 10
-11.62233070866142
 20
3.742299212598425
 10
-11.62818897637795
 20
3.742543307086614
 10
-11.63122047244094
 20
3.742437007874016
 10
-11.63415748031496
 20
3.742125984251969
 10
-11.637
 20
3.74159842519685
 10
-11.63974409448819
 20
3.740866141732283
 10
-11.6423937007874
 20
3.739925196850394
 10
-11.64494488188976
 20
3.738771653543307
 10
-11.64740157480315
 20
3.737409448818898
 10
-11.64975984251969
 20
3.735838582677165
 10
-11.65357874015748
 20
3.732751968503937
 10
-11.65705905511811
 20
3.729263779527559
 10
-11.66020866141732
 20
3.725362204724409
 10
-11.66301968503937
 20
3.721043307086614
 10
-11.66301968503937
 20
3.739854330708662
 10
-11.68177559055118
 20
3.739854330708662
 10
-11.68177559055118
 20
3.621877952755905
 10
-11.66301968503937
 20
3.621877952755905
 10
-11.66301968503937
 20
3.682251968503937
 10
-11.6620157480315
 20
3.689149606299213
 10
-11.66047244094488
 20
3.695503937007874
 10
-11.65839763779528
 20
3.701322834645669
 10
-11.6557874015748
 20
3.706610236220472
 10
-11.65345669291339
 20
3.710196850393701
 10
-11.65075984251968
 20
3.713444881889764
 10
-11.64769291338583
 20
3.71636220472441
 10
-11.64425984251968
 20
3.71894094488189
 10
-11.64057874015748
 20
3.721055118110236
 10
-11.63676377952756
 20
3.722562992125984
 10
-11.63281102362205
 20
3.723468503937008
 10
-11.62872047244094
 20
3.723767716535433
 10
-11.62484251968504
 20
3.723610236220472
 10
-11.62149606299213
 20
3.723133858267717
 10
-11.6186811023622
 20
3.722342519685039
 10
-11.61640551181102
 20
3.721228346456693
 10
-11.61370472440945
 20
3.719228346456693
 10
-11.61136614173228
 20
3.716885826771653
 10
-11.60938582677165
 20
3.714196850393701
 10
-11.60776377952756
 20
3.711169291338583
 10
-11.60650393700787
 20
3.707795275590551
 10
-11.6056062992126
 20
3.70407874015748
 10
-11.60506692913386
 20
3.700015748031496
 10
-11.60488582677165
 20
3.695614173228346
 10
-11.60488582677165
 20
3.621877952755905
 10
-11.58612992125984
 20
3.621877952755905
 10
-11.58612992125984
 20
3.695614173228346
 10
-11.58625984251968
 20
3.700133858267717
 10
-11.58318110236221
 20
3.706610236220472
 10
-11.58085433070866
 20
3.710196850393701
 10
-11.57815748031496
 20
3.713444881889764
 10
-11.57509448818898
 20
3.71636220472441
 10
-11.57166141732283
 20
3.71894094488189
 10
-11.56797244094488
 20
3.721055118110236
 10
-11.56415748031496
 20
3.722562992125984
 10
-11.56020472440945
 20
3.723468503937008
 10
-11.5561220472441
 20
3.723767716535433
 10
-11.55223228346457
 20
3.723610236220472
 10
-11.54888188976378
 20
3.723133858267717
 10
-11.54606692913386
 20
3.722342519685039
 10
-11.54379133858268
 20
3.721228346456693
 10
-11.5410905511811
 20
3.719228346456693
 10
-11.53875196850394
 20
3.716885826771653
 10
-11.53677165354331
 20
3.714196850393701
 10
-11.53515354330709
 20
3.711169291338583
 10
-11.53389763779528
 20
3.707795275590551
 10
-11.533
 20
3.70407874015748
 10
-11.53246062992126
 20
3.700015748031496
 10
-11.53227952755906
 20
3.695614173228346
 10
-11.53227952755906
 20
3.621877952755905
  0
ENDSEC
  0
SECTION
  2
OBJECTS
  0
DICTIONARY
  5
C
330
0
100
AcDbDictionary
281
     1
  3
ACAD_DETAILVIEWSTYLE
350
8A
  3
ACAD_GROUP
350
D
  3
ACAD_LAYOUT
350
1A
  3
ACAD_MATERIAL
350
43
  3
ACAD_MLEADERSTYLE
350
5B
  3
ACAD_MLINESTYLE
350
17
  3
ACAD_PLOTSETTINGS
350
19
  3
ACAD_PLOTSTYLENAME
350
E
  3
ACAD_SCALELIST
350
47
  3
ACAD_SECTIONVIEWSTYLE
350
8B
  3
ACAD_TABLESTYLE
350
59
  3
ACAD_VISUALSTYLE
350
2A
  3
ACDB_RECOMPOSE_DATA
350
87
  3
AcDbVariableDictionary
350
83
  0
SUN
  5
5D
330
29
100
AcDbSun
 90
        1
290
     0
 63
     7
421
 16777215
 40
1.0
291
     1
 91
  2455826
 92
 54000000
292
     0
 70
     2
 71
   256
280
     1
  0
DICTIONARY
  5
8A
102
{ACAD_REACTORS
330
C
102
}
330
C
100
AcDbDictionary
281
     1
  0
DICTIONARY
  5
D
102
{ACAD_REACTORS
330
C
102
}
330
C
100
AcDbDictionary
281
     1
  0
DICTIONARY
  5
1A
102
{ACAD_REACTORS
330
C
102
}
330
C
100
AcDbDictionary
281
     1
  3
Layout1
350
1E
  3
Layout2
350
26
  3
Model
350
22
  0
DICTIONARY
  5
43
102
{ACAD_REACTORS
330
C
102
}
330
C
100
AcDbDictionary
281
     1
  3
ByBlock
350
45
  3
ByLayer
350
44
  3
Global
350
46
  0
DICTIONARY
  5
5B
102
{ACAD_REACTORS
330
C
102
}
330
C
100
AcDbDictionary
281
     1
  3
Standard
350
5C
  0
DICTIONARY
  5
17
102
{ACAD_REACTORS
330
C
102
}
330
C
100
AcDbDictionary
281
     1
  3
Standard
350
18
  0
DICTIONARY
  5
19
102
{ACAD_REACTORS
330
C
102
}
330
C
100
AcDbDictionary
281
     1
  0
ACDBDICTIONARYWDFLT
  5
E
102
{ACAD_REACTORS
330
C
102
}
330
C
100
AcDbDictionary
281
     1
  3
Normal
350
F
100
AcDbDictionaryWithDefault
340
F
  0
DICTIONARY
  5
47
102
{ACAD_REACTORS
330
C
102
}
330
C
100
AcDbDictionary
281
     1
  3
A0
350
48
  3
A1
350
49
  3
A2
350
4A
  3
A3
350
4B
  3
A4
350
4C
  3
A5
350
4D
  3
A6
350
4E
  3
A7
350
4F
  3
A8
350
50
  3
A9
350
51
  3
B1
350
52
  3
B2
350
53
  3
B3
350
54
  3
B4
350
55
  3
B5
350
56
  3
B6
350
57
  3
B7
350
58
  0
DICTIONARY
  5
8B
102
{ACAD_REACTORS
330
C
102
}
330
C
100
AcDbDictionary
281
     1
  0
DICTIONARY
  5
59
102
{ACAD_REACTORS
330
C
102
}
330
C
100
AcDbDictionary
281
     1
  3
Standard
350
5A
  0
DICTIONARY
  5
2A
102
{ACAD_REACTORS
330
C
102
}
330
C
100
AcDbDictionary
281
     1
  3
2dWireframe
350
2F
  3
Basic
350
32
  3
Brighten
350
36
  3
ColorChange
350
3A
  3
Conceptual
350
34
  3
Dim
350
35
  3
EdgeColorOff
350
3D
  3
Facepattern
350
39
  3
Flat
350
2B
  3
FlatWithEdges
350
2C
  3
Gouraud
350
2D
  3
GouraudWithEdges
350
2E
  3
Hidden
350
31
  3
JitterOff
350
3B
  3
Linepattern
350
38
  3
OverhangOff
350
3C
  3
Realistic
350
33
  3
Shaded
350
42
  3
Shaded with edges
350
41
  3
Shades of Gray
350
3E
  3
Sketchy
350
3F
  3
Thicken
350
37
  3
Wireframe
350
30
  3
X-Ray
350
40
  0
XRECORD
  5
87
102
{ACAD_REACTORS
330
C
102
}
330
C
100
AcDbXrecord
280
     1
 90
        1
330
5A
  0
DICTIONARY
  5
83
102
{ACAD_REACTORS
330
C
102
}
330
C
100
AcDbDictionary
281
     1
  3
CANNOSCALE
350
84
  3
CMLEADERSTYLE
350
89
  3
CTABLESTYLE
350
88
  0
LAYOUT
  5
1E
102
{ACAD_REACTORS
330
1A
102
}
330
1A
100
AcDbPlotSettings
  1

  2
none_device
  4

  6

 40
0.0
 41
0.0
 42
0.0
 43
0.0
 44
0.0
 45
0.0
 46
0.0
 47
0.0
 48
0.0
 49
0.0
140
0.0
141
0.0
142
1.0
143
1.0
 70
   688
 72
     0
 73
     0
 74
     5
  7

 75
    16
 76
     0
 77
     2
 78
   300
147
1.0
148
0.0
149
0.0
100
AcDbLayout
  1
Layout1
 70
     1
 71
     1
 10
0.0
 20
0.0
 11
12.0
 21
9.0
 12
0.0
 22
0.0
 32
0.0
 14
1.000000000000000E+20
 24
1.000000000000000E+20
 34
1.000000000000000E+20
 15
-1.000000000000000E+20
 25
-1.000000000000000E+20
 35
-1.000000000000000E+20
146
0.0
 13
0.0
 23
0.0
 33
0.0
 16
1.0
 26
0.0
 36
0.0
 17
0.0
 27
1.0
 37
0.0
 76
     0
330
1B
  0
LAYOUT
  5
26
102
{ACAD_REACTORS
330
1A
102
}
330
1A
100
AcDbPlotSettings
  1

  2
none_device
  4

  6

 40
0.0
 41
0.0
 42
0.0
 43
0.0
 44
0.0
 45
0.0
 46
0.0
 47
0.0
 48
0.0
 49
0.0
140
0.0
141
0.0
142
1.0
143
1.0
 70
   688
 72
     0
 73
     0
 74
     5
  7

 75
    16
 76
     0
 77
     2
 78
   300
147
1.0
148
0.0
149
0.0
100
AcDbLayout
  1
Layout2
 70
     1
 71
     2
 10
0.0
 20
0.0
 11
0.0
 21
0.0
 12
0.0
 22
0.0
 32
0.0
 14
0.0
 24
0.0
 34
0.0
 15
0.0
 25
0.0
 35
0.0
146
0.0
 13
0.0
 23
0.0
 33
0.0
 16
1.0
 26
0.0
 36
0.0
 17
0.0
 27
1.0
 37
0.0
 76
     0
330
23
  0
LAYOUT
  5
22
102
{ACAD_REACTORS
330
1A
102
}
330
1A
100
AcDbPlotSettings
  1

  2
none_device
  4
Letter_(8.50_x_11.00_Inches)
  6

 40
6.35
 41
6.35
 42
6.35000508
 43
6.35000508
 44
215.9
 45
279.4
 46
0.0
 47
0.0
 48
0.0
 49
0.0
140
0.0
141
0.0
142
1.0
143
1.0
 70
  1712
 72
     0
 73
     0
 74
     0
  7

 75
     0
 76
     0
 77
     2
 78
   300
147
1.0
148
0.0
149
0.0
100
AcDbLayout
  1
Model
 70
     1
 71
     0
 10
0.0
 20
0.0
 11
12.0
 21
9.0
 12
0.0
 22
0.0
 32
0.0
 14
-16.79037007874016
 24
1.054858267716535
 34
0.0
 15
-10.96788582677165
 25
4.582275590551181
 35
0.0
146
0.0
 13
0.0
 23
0.0
 33
0.0
 16
1.0
 26
0.0
 36
0.0
 17
0.0
 27
1.0
 37
0.0
 76
     0
330
1F
331
29
  0
MATERIAL
  5
45
102
{ACAD_REACTORS
330
43
102
}
330
43
100
AcDbMaterial
  1
ByBlock
 72
     1
 94
      127
  0
MATERIAL
  5
44
102
{ACAD_REACTORS
330
43
102
}
330
43
100
AcDbMaterial
  1
ByLayer
 72
     1
 94
      127
  0
MATERIAL
  5
46
102
{ACAD_REACTORS
330
43
102
}
330
43
100
AcDbMaterial
  1
Global
 72
     1
 94
      127
  0
MLEADERSTYLE
  5
5C
102
{ACAD_REACTORS
330
5B
102
}
330
5B
100
AcDbMLeaderStyle
179
     2
170
     2
171
     1
172
     0
 90
        2
 40
0.0
 41
0.0
173
     1
 91
-1056964608
340
14
 92
       -2
290
     1
 42
0.09
291
     1
 43
0.36
  3
Standard
341
0
 44
0.18
300

342
11
174
     1
178
     6
175
     1
176
     0
 93
-1056964608
 45
0.18
292
     0
297
     0
 46
0.18
343
0
 94
-1056964608
 47
1.0
 49
1.0
140
1.0
293
     1
141
0.0
294
     1
177
     0
142
1.0
295
     0
296
     0
143
0.125
271
     0
272
     9
273
     9
298
     0
  0
MLINESTYLE
  5
18
102
{ACAD_REACTORS
330
17
102
}
330
17
100
AcDbMlineStyle
  2
Standard
 70
     0
  3

 62
   256
 51
90.0
 52
90.0
 71
     2
 49
0.5
 62
   256
  6
BYLAYER
 49
-0.5
 62
   256
  6
BYLAYER
  0
ACDBPLACEHOLDER
  5
F
102
{ACAD_REACTORS
330
E
102
}
330
E
  0
SCALE
  5
48
102
{ACAD_REACTORS
330
47
102
}
330
47
100
AcDbScale
 70
     0
300
1:1
140
1.0
141
1.0
290
     1
  0
SCALE
  5
49
102
{ACAD_REACTORS
330
47
102
}
330
47
100
AcDbScale
 70
     0
300
1/128" = 1'-0"
140
0.0078125
141
12.0
290
     0
  0
SCALE
  5
4A
102
{ACAD_REACTORS
330
47
102
}
330
47
100
AcDbScale
 70
     0
300
1/64" = 1'-0"
140
0.015625
141
12.0
290
     0
  0
SCALE
  5
4B
102
{ACAD_REACTORS
330
47
102
}
330
47
100
AcDbScale
 70
     0
300
1/32" = 1'-0"
140
0.03125
141
12.0
290
     0
  0
SCALE
  5
4C
102
{ACAD_REACTORS
330
47
102
}
330
47
100
AcDbScale
 70
     0
300
1/16" = 1'-0"
140
0.0625
141
12.0
290
     0
  0
SCALE
  5
4D
102
{ACAD_REACTORS
330
47
102
}
330
47
100
AcDbScale
 70
     0
300
3/32" = 1'-0"
140
0.09375
141
12.0
290
     0
  0
SCALE
  5
4E
102
{ACAD_REACTORS
330
47
102
}
330
47
100
AcDbScale
 70
     0
300
1/8" = 1'-0"
140
0.125
141
12.0
290
     0
  0
SCALE
  5
4F
102
{ACAD_REACTORS
330
47
102
}
330
47
100
AcDbScale
 70
     0
300
3/16" = 1'-0"
140
0.1875
141
12.0
290
     0
  0
SCALE
  5
50
102
{ACAD_REACTORS
330
47
102
}
330
47
100
AcDbScale
 70
     0
300
1/4" = 1'-0"
140
0.25
141
12.0
290
     0
  0
SCALE
  5
51
102
{ACAD_REACTORS
330
47
102
}
330
47
100
AcDbScale
 70
     0
300
3/8" = 1'-0"
140
0.375
141
12.0
290
     0
  0
SCALE
  5
52
102
{ACAD_REACTORS
330
47
102
}
330
47
100
AcDbScale
 70
     0
300
1/2" = 1'-0"
140
0.5
141
12.0
290
     0
  0
SCALE
  5
53
102
{ACAD_REACTORS
330
47
102
}
330
47
100
AcDbScale
 70
     0
300
3/4" = 1'-0"
140
0.75
141
12.0
290
     0
  0
SCALE
  5
54
102
{ACAD_REACTORS
330
47
102
}
330
47
100
AcDbScale
 70
     0
300
1" = 1'-0"
140
1.0
141
12.0
290
     0
  0
SCALE
  5
55
102
{ACAD_REACTORS
330
47
102
}
330
47
100
AcDbScale
 70
     0
300
1-1/2" = 1'-0"
140
1.5
141
12.0
290
     0
  0
SCALE
  5
56
102
{ACAD_REACTORS
330
47
102
}
330
47
100
AcDbScale
 70
     0
300
3" = 1'-0"
140
3.0
141
12.0
290
     0
  0
SCALE
  5
57
102
{ACAD_REACTORS
330
47
102
}
330
47
100
AcDbScale
 70
     0
300
6" = 1'-0"
140
6.0
141
12.0
290
     0
  0
SCALE
  5
58
102
{ACAD_REACTORS
330
47
102
}
330
47
100
AcDbScale
 70
     0
300
1'-0" = 1'-0"
140
12.0
141
12.0
290
     0
  0
TABLESTYLE
  5
5A
102
{ACAD_REACTORS
330
59
102
}
102
{ACAD_XDICTIONARY
360
85
102
}
330
59
100
AcDbTableStyle
  3
Standard
 70
     0
 71
     0
 40
0.06
 41
0.06
280
     0
281
     0
  7
Standard
140
0.18
170
     2
 62
     0
 63
   257
283
     0
 90
        4
 91
        0
  1

274
    -2
284
     1
 64
     0
275
    -2
285
     1
 65
     0
276
    -2
286
     1
 66
     0
277
    -2
287
     1
 67
     0
278
    -2
288
     1
 68
     0
279
    -2
289
     1
 69
     0
  7
Standard
140
0.25
170
     5
 62
     0
 63
   257
283
     0
 90
        4
 91
        0
  1

274
    -2
284
     1
 64
     0
275
    -2
285
     1
 65
     0
276
    -2
286
     1
 66
     0
277
    -2
287
     1
 67
     0
278
    -2
288
     1
 68
     0
279
    -2
289
     1
 69
     0
  7
Standard
140
0.18
170
     5
 62
     0
 63
   257
283
     0
 90
        4
 91
        0
  1

274
    -2
284
     1
 64
     0
275
    -2
285
     1
 65
     0
276
    -2
286
     1
 66
     0
277
    -2
287
     1
 67
     0
278
    -2
288
     1
 68
     0
279
    -2
289
     1
 69
     0
  0
VISUALSTYLE
  5
2F
102
{ACAD_REACTORS
330
2A
102
}
330
2A
100
AcDbVisualStyle
  2
2dWireframe
 70
     4
177
     3
291
     0
 70
    58
 90
        0
176
     1
 90
        2
176
     1
 90
        0
176
     1
 90
        0
176
     1
 40
0.6
176
     1
 40
30.0
176
     1
 62
     7
420
 16777215
176
     1
 90
        1
176
     1
 90
        4
176
     1
 62
     7
176
     1
 62
   257
176
     1
 90
        1
176
     1
 90
        1
176
     1
 40
1.0
176
     1
 90
        0
176
     1
 62
   257
176
     1
 40
1.0
176
     1
 90
        1
176
     1
 90
        6
176
     1
 90
        2
176
     1
 62
     7
176
     1
 90
        5
176
     1
 90
        0
176
     1
 90
        0
176
     1
290
     0
176
     1
 90
        1
176
     1
 40
0.0
176
     1
 90
        0
176
     1
290
     1
176
     1
290
     1
176
     1
290
     0
176
     1
290
     0
176
     1
290
     0
176
     1
290
     0
176
     1
290
     0
176
     1
290
     0
176
     1
290
     0
176
     1
 90
       50
176
     1
 40
0.0
176
     1
 40
1.0
176
     1
 90
        0
176
     1
 62
    18
420
        0
176
     1
 90
       50
176
     1
 90
        3
176
     1
 62
     5
420
      255
176
     1
290
     0
176
     1
 90
       50
176
     1
 90
       50
176
     1
 90
       50
176
     1
290
     0
176
     1
 90
       50
176
     1
 62
   256
176
     0
 40
1.0
176
     0
 90
        2
176
     1
  1
strokes_ogs.tif
176
     1
290
     0
176
     1
 40
1.0
176
     1
 40
1.0
176
     1
  0
VISUALSTYLE
  5
32
102
{ACAD_REACTORS
330
2A
102
}
330
2A
100
AcDbVisualStyle
  2
Basic
 70
     7
177
     3
291
     1
 70
    58
 90
        1
176
     1
 90
        0
176
     1
 90
        1
176
     1
 90
        0
176
     1
 40
0.6
176
     1
 40
30.0
176
     1
 62
     7
420
 16777215
176
     1
 90
        0
176
     1
 90
        4
176
     1
 62
     7
176
     1
 62
   257
176
     1
 90
        1
176
     1
 90
        1
176
     1
 40
1.0
176
     1
 90
        8
176
     1
 62
     7
176
     1
 40
1.0
176
     1
 90
        1
176
     1
 90
        6
176
     1
 90
        2
176
     1
 62
     7
176
     1
 90
        5
176
     1
 90
        0
176
     1
 90
        0
176
     1
290
     0
176
     1
 90
        1
176
     1
 40
0.0
176
     1
 90
        0
176
     1
290
     0
176
     1
290
     1
176
     1
290
     1
176
     1
290
     0
176
     1
290
     0
176
     1
290
     0
176
     1
290
     0
176
     1
290
     0
176
     1
290
     0
176
     1
 90
       50
176
     1
 40
0.0
176
     1
 40
1.0
176
     1
 90
        0
176
     1
 62
    18
420
        0
176
     1
 90
       50
176
     1
 90
        3
176
     1
 62
     5
420
      255
176
     1
290
     0
176
     1
 90
       50
176
     1
 90
       50
176
     1
 90
       50
176
     1
290
     0
176
     1
 90
       50
176
     1
 62
   256
176
     0
 40
1.0
176
     0
 90
        2
176
     1
  1
strokes_ogs.tif
176
     1
290
     0
176
     1
 40
1.0
176
     1
 40
1.0
176
     1
  0
VISUALSTYLE
  5
36
102
{ACAD_REACTORS
330
2A
102
}
330
2A
100
AcDbVisualStyle
  2
Brighten
 70
    12
177
     3
291
     1
 70
    58
 90
        2
176
     1
 90
        2
176
     1
 90
        0
176
     1
 90
        0
176
     1
 40
0.6
176
     1
 40
30.0
176
     1
 62
     7
420
 16777215
176
     1
 90
        1
176
     1
 90
        4
176
     1
 62
     7
176
     1
 62
   257
176
     1
 90
        1
176
     1
 90
        1
176
     1
 40
1.0
176
     1
 90
        8
176
     1
 62
     7
176
     1
 40
1.0
176
     1
 90
        1
176
     1
 90
        6
176
     1
 90
        2
176
     1
 62
     7
176
     1
 90
        5
176
     1
 90
        0
176
     1
 90
        0
176
     1
290
     0
176
     1
 90
        1
176
     1
 40
50.0
176
     1
 90
        0
176
     1
290
     0
176
     1
290
     1
176
     1
290
     1
176
     1
290
     0
176
     1
290
     0
176
     1
290
     0
176
     1
290
     0
176
     1
290
     0
176
     1
290
     0
176
     1
 90
       50
176
     1
 40
0.0
176
     1
 40
1.0
176
     1
 90
        0
176
     1
 62
    18
420
        0
176
     1
 90
       50
176
     1
 90
        3
176
     1
 62
     5
420
      255
176
     1
290
     0
176
     1
 90
       50
176
     1
 90
       50
176
     1
 90
       50
176
     1
290
     0
176
     1
 90
       50
176
     1
 62
   256
176
     0
 40
1.0
176
     0
 90
        2
176
     1
  1
strokes_ogs.tif
176
     1
290
     0
176
     1
 40
1.0
176
     1
 40
1.0
176
     1
  0
VISUALSTYLE
  5
3A
102
{ACAD_REACTORS
330
2A
102
}
330
2A
100
AcDbVisualStyle
  2
ColorChange
 70
    16
177
     3
291
     1
 70
    58
 90
        2
176
     1
 90
        2
176
     1
 90
        3
176
     1
 90
        0
176
     1
 40
0.6
176
     1
 40
30.0
176
     1
 62
     8
420
  8421504
176
     1
 90
        1
176
     1
 90
        4
176
     1
 62
     7
176
     1
 62
   257
176
     1
 90
        1
176
     1
 90
        1
176
     1
 40
1.0
176
     1
 90
        8
176
     1
 62
     8
420
  8421504
176
     1
 40
1.0
176
     1
 90
        1
176
     1
 90
        6
176
     1
 90
        2
176
     1
 62
     7
176
     1
 90
        5
176
     1
 90
        0
176
     1
 90
        0
176
     1
290
     0
176
     1
 90
        1
176
     1
 40
0.0
176
     1
 90
        0
176
     1
290
     0
176
     1
290
     1
176
     1
290
     1
176
     1
290
     0
176
     1
290
     0
176
     1
290
     0
176
     1
290
     0
176
     1
290
     0
176
     1
290
     0
176
     1
 90
       50
176
     1
 40
0.0
176
     1
 40
1.0
176
     1
 90
        0
176
     1
 62
    18
420
        0
176
     1
 90
       50
176
     1
 90
        3
176
     1
 62
     5
420
      255
176
     1
290
     0
176
     1
 90
       50
176
     1
 90
       50
176
     1
 90
       50
176
     1
290
     0
176
     1
 90
       50
176
     1
 62
   256
176
     0
 40
1.0
176
     0
 90
        2
176
     1
  1
strokes_ogs.tif
176
     1
290
     0
176
     1
 40
1.0
176
     1
 40
1.0
176
     1
  0
VISUALSTYLE
  5
34
102
{ACAD_REACTORS
330
2A
102
}
330
2A
100
AcDbVisualStyle
  2
Conceptual
 70
     9
177
     3
291
     0
 70
    58
 90
        3
176
     1
 90
        2
176
     1
 90
        0
176
     1
 90
        0
176
     1
 40
0.6
176
     1
 40
30.0
176
     1
 62
     7
420
 16777215
176
     1
 90
        2
176
     1
 90
        2
176
     1
 62
     7
176
     1
 62
   257
176
     1
 90
        1
176
     1
 90
        1
176
     1
 40
179.0
176
     1
 90
        8
176
     1
 62
     7
176
     1
 40
1.0
176
     1
 90
        1
176
     1
 90
        6
176
     1
 90
        2
176
     1
 62
     7
176
     1
 90
        3
176
     1
 90
        0
176
     1
 90
        0
176
     1
290
     0
176
     1
 90
        1
176
     1
 40
0.0
176
     1
 90
        0
176
     1
290
     0
176
     1
290
     1
176
     1
290
     1
176
     1
290
     0
176
     1
290
     0
176
     1
290
     0
176
     1
290
     0
176
     1
290
     0
176
     1
290
     0
176
     1
 90
       50
176
     1
 40
0.0
176
     1
 40
1.0
176
     1
 90
        0
176
     1
 62
    18
420
        0
176
     1
 90
       50
176
     1
 90
        3
176
     1
 62
     5
420
      255
176
     1
290
     0
176
     1
 90
       50
176
     1
 90
       50
176
     1
 90
       50
176
     1
290
     0
176
     1
 90
       50
176
     1
 62
   256
176
     0
 40
1.0
176
     0
 90
        2
176
     1
  1
strokes_ogs.tif
176
     1
290
     0
176
     1
 40
1.0
176
     1
 40
1.0
176
     1
  0
VISUALSTYLE
  5
35
102
{ACAD_REACTORS
330
2A
102
}
330
2A
100
AcDbVisualStyle
  2
Dim
 70
    11
177
     3
291
     1
 70
    58
 90
        2
176
     1
 90
        2
176
     1
 90
        0
176
     1
 90
        0
176
     1
 40
0.6
176
     1
 40
30.0
176
     1
 62
     7
420
 16777215
176
     1
 90
        1
176
     1
 90
        4
176
     1
 62
     7
176
     1
 62
   257
176
     1
 90
        1
176
     1
 90
        1
176
     1
 40
1.0
176
     1
 90
        8
176
     1
 62
     7
176
     1
 40
1.0
176
     1
 90
        1
176
     1
 90
        6
176
     1
 90
        2
176
     1
 62
     7
176
     1
 90
        5
176
     1
 90
        0
176
     1
 90
        0
176
     1
290
     0
176
     1
 90
        1
176
     1
 40
-50.0
176
     1
 90
        0
176
     1
290
     0
176
     1
290
     1
176
     1
290
     1
176
     1
290
     0
176
     1
290
     0
176
     1
290
     0
176
     1
290
     0
176
     1
290
     0
176
     1
290
     0
176
     1
 90
       50
176
     1
 40
0.0
176
     1
 40
1.0
176
     1
 90
        0
176
     1
 62
    18
420
        0
176
     1
 90
       50
176
     1
 90
        3
176
     1
 62
     5
420
      255
176
     1
290
     0
176
     1
 90
       50
176
     1
 90
       50
176
     1
 90
       50
176
     1
290
     0
176
     1
 90
       50
176
     1
 62
   256
176
     0
 40
1.0
176
     0
 90
        2
176
     1
  1
strokes_ogs.tif
176
     1
290
     0
176
     1
 40
1.0
176
     1
 40
1.0
176
     1
  0
VISUALSTYLE
  5
3D
102
{ACAD_REACTORS
330
2A
102
}
330
2A
100
AcDbVisualStyle
  2
EdgeColorOff
 70
    22
177
     3
291
     1
 70
    58
 90
        2
176
     0
 90
        2
176
     0
 90
        0
176
     0
 90
        0
176
     0
 40
0.6
176
     0
 40
30.0
176
     0
 62
     7
420
 16777215
176
     0
 90
        1
176
     0
 90
        4
176
     0
 62
     7
176
     0
 62
   257
176
     0
 90
        1
176
     0
 90
        1
176
     0
 40
1.0
176
     0
 90
        8
176
     2
 62
     7
176
     0
 40
1.0
176
     0
 90
        1
176
     0
 90
        6
176
     0
 90
        2
176
     0
 62
     7
176
     0
 90
        5
176
     0
 90
        0
176
     0
 90
        0
176
     0
290
     0
176
     0
 90
        1
176
     0
 40
0.0
176
     0
 90
        0
176
     0
290
     0
176
     0
290
     1
176
     0
290
     1
176
     0
290
     0
176
     0
290
     0
176
     0
290
     0
176
     0
290
     0
176
     0
290
     0
176
     0
290
     0
176
     0
 90
       50
176
     0
 40
0.0
176
     0
 40
1.0
176
     0
 90
        0
176
     0
 62
    18
420
        0
176
     0
 90
       50
176
     0
 90
        3
176
     0
 62
     5
420
      255
176
     0
290
     0
176
     0
 90
       50
176
     0
 90
       50
176
     0
 90
       50
176
     0
290
     0
176
     0
 90
       50
176
     0
 62
   256
176
     0
 40
1.0
176
     0
 90
        2
176
     0
  1
strokes_ogs.tif
176
     0
290
     0
176
     0
 40
1.0
176
     0
 40
1.0
176
     0
  0
VISUALSTYLE
  5
39
102
{ACAD_REACTORS
330
2A
102
}
330
2A
100
AcDbVisualStyle
  2
Facepattern
 70
    15
177
     3
291
     1
 70
    58
 90
        2
176
     1
 90
        2
176
     1
 90
        0
176
     1
 90
        0
176
     1
 40
0.6
176
     1
 40
30.0
176
     1
 62
     7
420
 16777215
176
     1
 90
        1
176
     1
 90
        4
176
     1
 62
     7
176
     1
 62
   257
176
     1
 90
        1
176
     1
 90
        1
176
     1
 40
1.0
176
     1
 90
        8
176
     1
 62
     7
176
     1
 40
1.0
176
     1
 90
        1
176
     1
 90
        6
176
     1
 90
        2
176
     1
 62
     7
176
     1
 90
        5
176
     1
 90
        0
176
     1
 90
        0
176
     1
290
     0
176
     1
 90
        1
176
     1
 40
0.0
176
     1
 90
        0
176
     1
290
     0
176
     1
290
     1
176
     1
290
     1
176
     1
290
     0
176
     1
290
     0
176
     1
290
     0
176
     1
290
     0
176
     1
290
     0
176
     1
290
     0
176
     1
 90
       50
176
     1
 40
0.0
176
     1
 40
1.0
176
     1
 90
        0
176
     1
 62
    18
420
        0
176
     1
 90
       50
176
     1
 90
        3
176
     1
 62
     5
420
      255
176
     1
290
     0
176
     1
 90
       50
176
     1
 90
       50
176
     1
 90
       50
176
     1
290
     0
176
     1
 90
       50
176
     1
 62
   256
176
     0
 40
1.0
176
     0
 90
        2
176
     1
  1
strokes_ogs.tif
176
     1
290
     0
176
     1
 40
1.0
176
     1
 40
1.0
176
     1
  0
VISUALSTYLE
  5
2B
102
{ACAD_REACTORS
330
2A
102
}
330
2A
100
AcDbVisualStyle
  2
Flat
 70
     0
177
     3
291
     1
 70
    58
 90
        2
176
     1
 90
        1
176
     1
 90
        1
176
     1
 90
        2
176
     1
 40
0.6
176
     1
 40
30.0
176
     1
 62
     7
420
 16777215
176
     1
 90
        0
176
     1
 90
        0
176
     1
 62
     7
176
     1
 62
   257
176
     1
 90
        1
176
     1
 90
        1
176
     1
 40
1.0
176
     1
 90
        8
176
     1
 62
     7
176
     1
 40
1.0
176
     1
 90
        1
176
     1
 90
        6
176
     1
 90
        2
176
     1
 62
     7
176
     1
 90
        5
176
     1
 90
        0
176
     1
 90
        0
176
     1
290
     0
176
     1
 90
       13
176
     1
 40
0.0
176
     1
 90
        0
176
     1
290
     0
176
     1
290
     1
176
     1
290
     1
176
     1
290
     0
176
     1
290
     0
176
     1
290
     0
176
     1
290
     0
176
     1
290
     0
176
     1
290
     0
176
     1
 90
       50
176
     1
 40
0.0
176
     1
 40
1.0
176
     1
 90
        0
176
     1
 62
    18
420
        0
176
     1
 90
       50
176
     1
 90
        3
176
     1
 62
     5
420
      255
176
     1
290
     0
176
     1
 90
       50
176
     1
 90
       50
176
     1
 90
       50
176
     1
290
     0
176
     1
 90
       50
176
     1
 62
   256
176
     0
 40
1.0
176
     0
 90
        2
176
     1
  1
strokes_ogs.tif
176
     1
290
     0
176
     1
 40
1.0
176
     1
 40
1.0
176
     1
  0
VISUALSTYLE
  5
2C
102
{ACAD_REACTORS
330
2A
102
}
330
2A
100
AcDbVisualStyle
  2
FlatWithEdges
 70
     1
177
     3
291
     1
 70
    58
 90
        2
176
     1
 90
        1
176
     1
 90
        1
176
     1
 90
        2
176
     1
 40
0.6
176
     1
 40
30.0
176
     1
 62
     7
420
 16777215
176
     1
 90
        1
176
     1
 90
        0
176
     1
 62
     7
176
     1
 62
   257
176
     1
 90
        1
176
     1
 90
        1
176
     1
 40
1.0
176
     1
 90
        0
176
     1
 62
   257
176
     1
 40
1.0
176
     1
 90
        1
176
     1
 90
        6
176
     1
 90
        2
176
     1
 62
     7
176
     1
 90
        5
176
     1
 90
        0
176
     1
 90
        0
176
     1
290
     0
176
     1
 90
       13
176
     1
 40
0.0
176
     1
 90
        0
176
     1
290
     0
176
     1
290
     1
176
     1
290
     1
176
     1
290
     0
176
     1
290
     0
176
     1
290
     0
176
     1
290
     0
176
     1
290
     0
176
     1
290
     0
176
     1
 90
       50
176
     1
 40
0.0
176
     1
 40
1.0
176
     1
 90
        0
176
     1
 62
    18
420
        0
176
     1
 90
       50
176
     1
 90
        3
176
     1
 62
     5
420
      255
176
     1
290
     0
176
     1
 90
       50
176
     1
 90
       50
176
     1
 90
       50
176
     1
290
     0
176
     1
 90
       50
176
     1
 62
   256
176
     0
 40
1.0
176
     0
 90
        2
176
     1
  1
strokes_ogs.tif
176
     1
290
     0
176
     1
 40
1.0
176
     1
 40
1.0
176
     1
  0
VISUALSTYLE
  5
2D
102
{ACAD_REACTORS
330
2A
102
}
330
2A
100
AcDbVisualStyle
  2
Gouraud
 70
     2
177
     3
291
     1
 70
    58
 90
        2
176
     1
 90
        2
176
     1
 90
        1
176
     1
 90
        2
176
     1
 40
0.6
176
     1
 40
30.0
176
     1
 62
     7
420
 16777215
176
     1
 90
        0
176
     1
 90
        0
176
     1
 62
     7
176
     1
 62
   257
176
     1
 90
        1
176
     1
 90
        1
176
     1
 40
1.0
176
     1
 90
        0
176
     1
 62
     7
176
     1
 40
1.0
176
     1
 90
        1
176
     1
 90
        6
176
     1
 90
        2
176
     1
 62
     7
176
     1
 90
        5
176
     1
 90
        0
176
     1
 90
        0
176
     1
290
     0
176
     1
 90
       13
176
     1
 40
0.0
176
     1
 90
        0
176
     1
290
     0
176
     1
290
     1
176
     1
290
     1
176
     1
290
     0
176
     1
290
     0
176
     1
290
     0
176
     1
290
     0
176
     1
290
     0
176
     1
290
     0
176
     1
 90
       50
176
     1
 40
0.0
176
     1
 40
1.0
176
     1
 90
        0
176
     1
 62
    18
420
        0
176
     1
 90
       50
176
     1
 90
        3
176
     1
 62
     5
420
      255
176
     1
290
     0
176
     1
 90
       50
176
     1
 90
       50
176
     1
 90
       50
176
     1
290
     0
176
     1
 90
       50
176
     1
 62
   256
176
     0
 40
1.0
176
     0
 90
        2
176
     1
  1
strokes_ogs.tif
176
     1
290
     0
176
     1
 40
1.0
176
     1
 40
1.0
176
     1
  0
VISUALSTYLE
  5
2E
102
{ACAD_REACTORS
330
2A
102
}
330
2A
100
AcDbVisualStyle
  2
GouraudWithEdges
 70
     3
177
     3
291
     1
 70
    58
 90
        2
176
     1
 90
        2
176
     1
 90
        1
176
     1
 90
        2
176
     1
 40
0.6
176
     1
 40
30.0
176
     1
 62
     7
420
 16777215
176
     1
 90
        1
176
     1
 90
        0
176
     1
 62
     7
176
     1
 62
   257
176
     1
 90
        1
176
     1
 90
        1
176
     1
 40
1.0
176
     1
 90
        0
176
     1
 62
   257
176
     1
 40
1.0
176
     1
 90
        1
176
     1
 90
        6
176
     1
 90
        2
176
     1
 62
     7
176
     1
 90
        5
176
     1
 90
        0
176
     1
 90
        0
176
     1
290
     0
176
     1
 90
       13
176
     1
 40
0.0
176
     1
 90
        0
176
     1
290
     0
176
     1
290
     1
176
     1
290
     1
176
     1
290
     0
176
     1
290
     0
176
     1
290
     0
176
     1
290
     0
176
     1
290
     0
176
     1
290
     0
176
     1
 90
       50
176
     1
 40
0.0
176
     1
 40
1.0
176
     1
 90
        0
176
     1
 62
    18
420
        0
176
     1
 90
       50
176
     1
 90
        3
176
     1
 62
     5
420
      255
176
     1
290
     0
176
     1
 90
       50
176
     1
 90
       50
176
     1
 90
       50
176
     1
290
     0
176
     1
 90
       50
176
     1
 62
   256
176
     0
 40
1.0
176
     0
 90
        2
176
     1
  1
strokes_ogs.tif
176
     1
290
     0
176
     1
 40
1.0
176
     1
 40
1.0
176
     1
  0
VISUALSTYLE
  5
31
102
{ACAD_REACTORS
330
2A
102
}
330
2A
100
AcDbVisualStyle
  2
Hidden
 70
     6
177
     3
291
     0
 70
    58
 90
        1
176
     1
 90
        2
176
     1
 90
        2
176
     1
 90
        0
176
     1
 40
0.6
176
     1
 40
30.0
176
     1
 62
     7
420
 16777215
176
     1
 90
        2
176
     1
 90
        2
176
     1
 62
     7
176
     1
 62
   257
176
     1
 90
        2
176
     1
 90
        1
176
     1
 40
40.0
176
     1
 90
        0
176
     1
 62
   257
176
     1
 40
1.0
176
     1
 90
        1
176
     1
 90
        6
176
     1
 90
        2
176
     1
 62
     7
176
     1
 90
        3
176
     1
 90
        0
176
     1
 90
        0
176
     1
290
     0
176
     1
 90
        1
176
     1
 40
0.0
176
     1
 90
        0
176
     1
290
     0
176
     1
290
     1
176
     1
290
     1
176
     1
290
     0
176
     1
290
     0
176
     1
290
     0
176
     1
290
     0
176
     1
290
     0
176
     1
290
     0
176
     1
 90
       50
176
     1
 40
0.0
176
     1
 40
1.0
176
     1
 90
        0
176
     1
 62
    18
420
        0
176
     1
 90
       50
176
     1
 90
        3
176
     1
 62
     5
420
      255
176
     1
290
     0
176
     1
 90
       50
176
     1
 90
       50
176
     1
 90
       50
176
     1
290
     0
176
     1
 90
       50
176
     1
 62
   256
176
     0
 40
1.0
176
     0
 90
        2
176
     1
  1
strokes_ogs.tif
176
     1
290
     0
176
     1
 40
1.0
176
     1
 40
1.0
176
     1
  0
VISUALSTYLE
  5
3B
102
{ACAD_REACTORS
330
2A
102
}
330
2A
100
AcDbVisualStyle
  2
JitterOff
 70
    20
177
     3
291
     1
 70
    58
 90
        2
176
     0
 90
        2
176
     0
 90
        0
176
     0
 90
        0
176
     0
 40
0.6
176
     0
 40
30.0
176
     0
 62
     7
420
 16777215
176
     0
 90
        1
176
     0
 90
        4
176
     0
 62
     7
176
     0
 62
   257
176
     0
 90
        1
176
     0
 90
        1
176
     0
 40
1.0
176
     0
 90
       10
176
     2
 62
     7
176
     0
 40
1.0
176
     0
 90
        1
176
     0
 90
        6
176
     0
 90
        2
176
     0
 62
     7
176
     0
 90
        5
176
     0
 90
        0
176
     0
 90
        0
176
     0
290
     0
176
     0
 90
        1
176
     0
 40
0.0
176
     0
 90
        0
176
     0
290
     0
176
     0
290
     1
176
     0
290
     1
176
     0
290
     0
176
     0
290
     0
176
     0
290
     0
176
     0
290
     0
176
     0
290
     0
176
     0
290
     0
176
     0
 90
       50
176
     0
 40
0.0
176
     0
 40
1.0
176
     0
 90
        0
176
     0
 62
    18
420
        0
176
     0
 90
       50
176
     0
 90
        3
176
     0
 62
     5
420
      255
176
     0
290
     0
176
     0
 90
       50
176
     0
 90
       50
176
     0
 90
       50
176
     0
290
     0
176
     0
 90
       50
176
     0
 62
   256
176
     0
 40
1.0
176
     0
 90
        2
176
     0
  1
strokes_ogs.tif
176
     0
290
     0
176
     0
 40
1.0
176
     0
 40
1.0
176
     0
  0
VISUALSTYLE
  5
38
102
{ACAD_REACTORS
330
2A
102
}
330
2A
100
AcDbVisualStyle
  2
Linepattern
 70
    14
177
     3
291
     1
 70
    58
 90
        2
176
     1
 90
        2
176
     1
 90
        0
176
     1
 90
        0
176
     1
 40
0.6
176
     1
 40
30.0
176
     1
 62
     7
420
 16777215
176
     1
 90
        1
176
     1
 90
        4
176
     1
 62
     7
176
     1
 62
   257
176
     1
 90
        7
176
     1
 90
        7
176
     1
 40
1.0
176
     1
 90
        8
176
     1
 62
     7
176
     1
 40
1.0
176
     1
 90
        1
176
     1
 90
        6
176
     1
 90
        2
176
     1
 62
     7
176
     1
 90
        5
176
     1
 90
        0
176
     1
 90
        0
176
     1
290
     0
176
     1
 90
        1
176
     1
 40
0.0
176
     1
 90
        0
176
     1
290
     0
176
     1
290
     1
176
     1
290
     1
176
     1
290
     0
176
     1
290
     0
176
     1
290
     0
176
     1
290
     0
176
     1
290
     0
176
     1
290
     0
176
     1
 90
       50
176
     1
 40
0.0
176
     1
 40
1.0
176
     1
 90
        0
176
     1
 62
    18
420
        0
176
     1
 90
       50
176
     1
 90
        3
176
     1
 62
     5
420
      255
176
     1
290
     0
176
     1
 90
       50
176
     1
 90
       50
176
     1
 90
       50
176
     1
290
     0
176
     1
 90
       50
176
     1
 62
   256
176
     0
 40
1.0
176
     0
 90
        2
176
     1
  1
strokes_ogs.tif
176
     1
290
     0
176
     1
 40
1.0
176
     1
 40
1.0
176
     1
  0
VISUALSTYLE
  5
3C
102
{ACAD_REACTORS
330
2A
102
}
330
2A
100
AcDbVisualStyle
  2
OverhangOff
 70
    21
177
     3
291
     1
 70
    58
 90
        2
176
     0
 90
        2
176
     0
 90
        0
176
     0
 90
        0
176
     0
 40
0.6
176
     0
 40
30.0
176
     0
 62
     7
420
 16777215
176
     0
 90
        1
176
     0
 90
        4
176
     0
 62
     7
176
     0
 62
   257
176
     0
 90
        1
176
     0
 90
        1
176
     0
 40
1.0
176
     0
 90
        9
176
     2
 62
     7
176
     0
 40
1.0
176
     0
 90
        1
176
     0
 90
        6
176
     0
 90
        2
176
     0
 62
     7
176
     0
 90
        5
176
     0
 90
        0
176
     0
 90
        0
176
     0
290
     0
176
     0
 90
        1
176
     0
 40
0.0
176
     0
 90
        0
176
     0
290
     0
176
     0
290
     1
176
     0
290
     1
176
     0
290
     0
176
     0
290
     0
176
     0
290
     0
176
     0
290
     0
176
     0
290
     0
176
     0
290
     0
176
     0
 90
       50
176
     0
 40
0.0
176
     0
 40
1.0
176
     0
 90
        0
176
     0
 62
    18
420
        0
176
     0
 90
       50
176
     0
 90
        3
176
     0
 62
     5
420
      255
176
     0
290
     0
176
     0
 90
       50
176
     0
 90
       50
176
     0
 90
       50
176
     0
290
     0
176
     0
 90
       50
176
     0
 62
   256
176
     0
 40
1.0
176
     0
 90
        2
176
     0
  1
strokes_ogs.tif
176
     0
290
     0
176
     0
 40
1.0
176
     0
 40
1.0
176
     0
  0
VISUALSTYLE
  5
33
102
{ACAD_REACTORS
330
2A
102
}
330
2A
100
AcDbVisualStyle
  2
Realistic
 70
     8
177
     3
291
     0
 70
    58
 90
        2
176
     1
 90
        3
176
     1
 90
        0
176
     1
 90
        2
176
     1
 40
0.6
176
     1
 40
30.0
176
     1
 62
     7
420
 16777215
176
     1
 90
        0
176
     1
 90
        0
176
     1
 62
     7
176
     1
 62
   257
176
     1
 90
        1
176
     1
 90
        1
176
     1
 40
1.0
176
     1
 90
        8
176
     1
 62
   257
176
     1
 40
1.0
176
     1
 90
        1
176
     1
 90
        6
176
     1
 90
        2
176
     1
 62
     7
176
     1
 90
        3
176
     1
 90
        0
176
     1
 90
        0
176
     1
290
     0
176
     1
 90
       13
176
     1
 40
0.0
176
     1
 90
        0
176
     1
290
     0
176
     1
290
     1
176
     1
290
     1
176
     1
290
     0
176
     1
290
     0
176
     1
290
     0
176
     1
290
     0
176
     1
290
     0
176
     1
290
     0
176
     1
 90
       50
176
     1
 40
0.0
176
     1
 40
1.0
176
     1
 90
        0
176
     1
 62
    18
420
        0
176
     1
 90
       50
176
     1
 90
        3
176
     1
 62
     5
420
      255
176
     1
290
     0
176
     1
 90
       50
176
     1
 90
       50
176
     1
 90
       50
176
     1
290
     0
176
     1
 90
       50
176
     1
 62
   256
176
     0
 40
1.0
176
     0
 90
        2
176
     1
  1
strokes_ogs.tif
176
     1
290
     0
176
     1
 40
1.0
176
     1
 40
1.0
176
     1
  0
VISUALSTYLE
  5
42
102
{ACAD_REACTORS
330
2A
102
}
330
2A
100
AcDbVisualStyle
  2
Shaded
 70
    27
177
     3
291
     0
 70
    58
 90
        2
176
     1
 90
        2
176
     1
 90
        1
176
     1
 90
        2
176
     1
 40
0.6
176
     1
 40
30.0
176
     1
 62
     7
420
 16777215
176
     1
 90
        0
176
     1
 90
        4
176
     1
 62
     7
176
     1
 62
   257
176
     1
 90
        1
176
     1
 90
        1
176
     1
 40
1.0
176
     1
 90
        8
176
     1
 62
   257
176
     1
 40
1.0
176
     1
 90
        1
176
     1
 90
        6
176
     1
 90
        2
176
     1
 62
     8
420
  7895160
176
     1
 90
        3
176
     1
 90
        0
176
     1
 90
        0
176
     1
290
     0
176
     1
 90
        5
176
     1
 40
0.0
176
     1
 90
        0
176
     1
290
     0
176
     1
290
     1
176
     1
290
     1
176
     1
290
     0
176
     1
290
     0
176
     1
290
     0
176
     1
290
     0
176
     1
290
     0
176
     1
290
     0
176
     1
 90
       50
176
     1
 40
0.0
176
     1
 40
1.0
176
     1
 90
        0
176
     1
 62
    18
420
        0
176
     1
 90
       50
176
     1
 90
        3
176
     1
 62
     5
420
      255
176
     1
290
     0
176
     1
 90
       50
176
     1
 90
       50
176
     1
 90
       50
176
     1
290
     0
176
     1
 90
       50
176
     1
 62
   256
176
     0
 40
1.0
176
     0
 90
        2
176
     1
  1
strokes_ogs.tif
176
     1
290
     0
176
     1
 40
1.0
176
     1
 40
1.0
176
     1
  0
VISUALSTYLE
  5
41
102
{ACAD_REACTORS
330
2A
102
}
330
2A
100
AcDbVisualStyle
  2
Shaded with edges
 70
    26
177
     3
291
     0
 70
    58
 90
        2
176
     1
 90
        2
176
     1
 90
        1
176
     1
 90
        2
176
     1
 40
0.6
176
     1
 40
30.0
176
     1
 62
     7
420
 16777215
176
     1
 90
        1
176
     1
 90
       10
176
     1
 62
     7
176
     1
 62
   257
176
     1
 90
        2
176
     1
 90
        1
176
     1
 40
1.0
176
     1
 90
        8
176
     1
 62
   257
176
     1
 40
1.0
176
     1
 90
        1
176
     1
 90
        6
176
     1
 90
        2
176
     1
 62
     7
176
     1
 90
        3
176
     1
 90
        0
176
     1
 90
        0
176
     1
290
     0
176
     1
 90
        5
176
     1
 40
0.0
176
     1
 90
        0
176
     1
290
     0
176
     1
290
     1
176
     1
290
     1
176
     1
290
     0
176
     1
290
     0
176
     1
290
     0
176
     1
290
     0
176
     1
290
     0
176
     1
290
     0
176
     1
 90
       50
176
     1
 40
0.0
176
     1
 40
1.0
176
     1
 90
        0
176
     1
 62
    18
420
        0
176
     1
 90
       50
176
     1
 90
        3
176
     1
 62
     5
420
      255
176
     1
290
     0
176
     1
 90
       50
176
     1
 90
       50
176
     1
 90
       50
176
     1
290
     0
176
     1
 90
       50
176
     1
 62
   256
176
     0
 40
1.0
176
     0
 90
        2
176
     1
  1
strokes_ogs.tif
176
     1
290
     0
176
     1
 40
1.0
176
     1
 40
1.0
176
     1
  0
VISUALSTYLE
  5
3E
102
{ACAD_REACTORS
330
2A
102
}
330
2A
100
AcDbVisualStyle
  2
Shades of Gray
 70
    23
177
     3
291
     0
 70
    58
 90
        2
176
     1
 90
        2
176
     1
 90
        3
176
     1
 90
        0
176
     1
 40
0.6
176
     1
 40
30.0
176
     1
 62
     7
420
 16777215
176
     1
 90
        2
176
     1
 90
        2
176
     1
 62
     7
176
     1
 62
     7
176
     1
 90
        1
176
     1
 90
        1
176
     1
 40
40.0
176
     1
 90
        8
176
     1
 62
     7
176
     1
 40
1.0
176
     1
 90
        1
176
     1
 90
        6
176
     1
 90
        2
176
     1
 62
     7
176
     1
 90
        3
176
     1
 90
        0
176
     1
 90
        0
176
     1
290
     0
176
     1
 90
        1
176
     1
 40
0.0
176
     1
 90
        0
176
     1
290
     0
176
     1
290
     1
176
     1
290
     1
176
     1
290
     0
176
     1
290
     0
176
     1
290
     0
176
     1
290
     0
176
     1
290
     0
176
     1
290
     0
176
     1
 90
       50
176
     1
 40
0.0
176
     1
 40
1.0
176
     1
 90
        0
176
     1
 62
    18
420
        0
176
     1
 90
       50
176
     1
 90
        3
176
     1
 62
     5
420
      255
176
     1
290
     0
176
     1
 90
       50
176
     1
 90
       50
176
     1
 90
       50
176
     1
290
     0
176
     1
 90
       50
176
     1
 62
   256
176
     0
 40
1.0
176
     0
 90
        2
176
     1
  1
strokes_ogs.tif
176
     1
290
     0
176
     1
 40
1.0
176
     1
 40
1.0
176
     1
  0
VISUALSTYLE
  5
3F
102
{ACAD_REACTORS
330
2A
102
}
330
2A
100
AcDbVisualStyle
  2
Sketchy
 70
    24
177
     3
291
     0
 70
    58
 90
        1
176
     1
 90
        2
176
     1
 90
        2
176
     1
 90
        0
176
     1
 40
0.6
176
     1
 40
30.0
176
     1
 62
     7
420
 16777215
176
     1
 90
        2
176
     1
 90
        2
176
     1
 62
     7
176
     1
 62
     7
176
     1
 90
        1
176
     1
 90
        1
176
     1
 40
40.0
176
     1
 90
       11
176
     1
 62
     7
176
     1
 40
1.0
176
     1
 90
        1
176
     1
 90
        6
176
     1
 90
        2
176
     1
 62
     7
176
     1
 90
        6
176
     1
 90
        0
176
     1
 90
        0
176
     1
290
     0
176
     1
 90
        1
176
     1
 40
0.0
176
     1
 90
        0
176
     1
290
     0
176
     1
290
     1
176
     1
290
     1
176
     1
290
     0
176
     1
290
     0
176
     1
290
     0
176
     1
290
     0
176
     1
290
     0
176
     1
290
     0
176
     1
 90
       50
176
     1
 40
0.0
176
     1
 40
1.0
176
     1
 90
        0
176
     1
 62
    18
420
        0
176
     1
 90
       50
176
     1
 90
        3
176
     1
 62
     5
420
      255
176
     1
290
     0
176
     1
 90
       50
176
     1
 90
       50
176
     1
 90
       50
176
     1
290
     0
176
     1
 90
       50
176
     1
 62
   256
176
     0
 40
1.0
176
     0
 90
        2
176
     1
  1
strokes_ogs.tif
176
     1
290
     0
176
     1
 40
1.0
176
     1
 40
1.0
176
     1
  0
VISUALSTYLE
  5
37
102
{ACAD_REACTORS
330
2A
102
}
330
2A
100
AcDbVisualStyle
  2
Thicken
 70
    13
177
     3
291
     1
 70
    58
 90
        2
176
     1
 90
        2
176
     1
 90
        0
176
     1
 90
        0
176
     1
 40
0.6
176
     1
 40
30.0
176
     1
 62
     7
420
 16777215
176
     1
 90
        1
176
     1
 90
        4
176
     1
 62
     7
176
     1
 62
   257
176
     1
 90
        1
176
     1
 90
        1
176
     1
 40
1.0
176
     1
 90
       12
176
     1
 62
     7
176
     1
 40
1.0
176
     1
 90
        1
176
     1
 90
        6
176
     1
 90
        2
176
     1
 62
     7
176
     1
 90
        5
176
     1
 90
        0
176
     1
 90
        0
176
     1
290
     0
176
     1
 90
        1
176
     1
 40
0.0
176
     1
 90
        0
176
     1
290
     0
176
     1
290
     1
176
     1
290
     1
176
     1
290
     0
176
     1
290
     0
176
     1
290
     0
176
     1
290
     0
176
     1
290
     0
176
     1
290
     0
176
     1
 90
       50
176
     1
 40
0.0
176
     1
 40
1.0
176
     1
 90
        0
176
     1
 62
    18
420
        0
176
     1
 90
       50
176
     1
 90
        3
176
     1
 62
     5
420
      255
176
     1
290
     0
176
     1
 90
       50
176
     1
 90
       50
176
     1
 90
       50
176
     1
290
     0
176
     1
 90
       50
176
     1
 62
   256
176
     0
 40
1.0
176
     0
 90
        2
176
     1
  1
strokes_ogs.tif
176
     1
290
     0
176
     1
 40
1.0
176
     1
 40
1.0
176
     1
  0
VISUALSTYLE
  5
30
102
{ACAD_REACTORS
330
2A
102
}
330
2A
100
AcDbVisualStyle
  2
Wireframe
 70
     5
177
     3
291
     0
 70
    58
 90
        0
176
     1
 90
        2
176
     1
 90
        0
176
     1
 90
        0
176
     1
 40
0.6
176
     1
 40
30.0
176
     1
 62
     7
420
 16777215
176
     1
 90
        1
176
     1
 90
        4
176
     1
 62
     7
176
     1
 62
   257
176
     1
 90
        1
176
     1
 90
        1
176
     1
 40
1.0
176
     1
 90
        0
176
     1
 62
   257
176
     1
 40
1.0
176
     1
 90
        1
176
     1
 90
        6
176
     1
 90
        2
176
     1
 62
     7
176
     1
 90
        3
176
     1
 90
        0
176
     1
 90
        0
176
     1
290
     0
176
     1
 90
        1
176
     1
 40
0.0
176
     1
 90
        0
176
     1
290
     0
176
     1
290
     1
176
     1
290
     1
176
     1
290
     0
176
     1
290
     0
176
     1
290
     0
176
     1
290
     0
176
     1
290
     0
176
     1
290
     0
176
     1
 90
       50
176
     1
 40
0.0
176
     1
 40
1.0
176
     1
 90
        0
176
     1
 62
    18
420
        0
176
     1
 90
       50
176
     1
 90
        3
176
     1
 62
     5
420
      255
176
     1
290
     0
176
     1
 90
       50
176
     1
 90
       50
176
     1
 90
       50
176
     1
290
     0
176
     1
 90
       50
176
     1
 62
   256
176
     0
 40
1.0
176
     0
 90
        2
176
     1
  1
strokes_ogs.tif
176
     1
290
     0
176
     1
 40
1.0
176
     1
 40
1.0
176
     1
  0
VISUALSTYLE
  5
40
102
{ACAD_REACTORS
330
2A
102
}
330
2A
100
AcDbVisualStyle
  2
X-Ray
 70
    25
177
     3
291
     0
 70
    58
 90
        2
176
     1
 90
        2
176
     1
 90
        1
176
     1
 90
        1
176
     1
 40
0.5
176
     1
 40
30.0
176
     1
 62
     7
420
 16777215
176
     1
 90
        1
176
     1
 90
        0
176
     1
 62
     7
176
     1
 62
   257
176
     1
 90
        1
176
     1
 90
        1
176
     1
 40
1.0
176
     1
 90
        8
176
     1
 62
     7
176
     1
 40
1.0
176
     1
 90
        1
176
     1
 90
        6
176
     1
 90
        2
176
     1
 62
     7
176
     1
 90
        3
176
     1
 90
        0
176
     1
 90
        0
176
     1
290
     0
176
     1
 90
       13
176
     1
 40
0.0
176
     1
 90
        0
176
     1
290
     0
176
     1
290
     1
176
     1
290
     1
176
     1
290
     0
176
     1
290
     0
176
     1
290
     0
176
     1
290
     0
176
     1
290
     0
176
     1
290
     0
176
     1
 90
       50
176
     1
 40
0.0
176
     1
 40
1.0
176
     1
 90
        0
176
     1
 62
    18
420
        0
176
     1
 90
       50
176
     1
 90
        3
176
     1
 62
     5
420
      255
176
     1
290
     0
176
     1
 90
       50
176
     1
 90
       50
176
     1
 90
       50
176
     1
290
     0
176
     1
 90
       50
176
     1
 62
   256
176
     0
 40
1.0
176
     0
 90
        2
176
     1
  1
strokes_ogs.tif
176
     1
290
     0
176
     1
 40
1.0
176
     1
 40
1.0
176
     1
  0
DICTIONARYVAR
  5
84
102
{ACAD_REACTORS
330
83
102
}
330
83
100
DictionaryVariables
280
     0
  1
1:1
  0
DICTIONARYVAR
  5
89
102
{ACAD_REACTORS
330
83
102
}
330
83
100
DictionaryVariables
280
     0
  1
Standard
  0
DICTIONARYVAR
  5
88
102
{ACAD_REACTORS
330
83
102
}
330
83
100
DictionaryVariables
280
     0
  1
Standard
  0
DICTIONARY
  5
85
330
5A
100
AcDbDictionary
280
     1
281
     1
  3
ACAD_ROUNDTRIP_2008_TABLESTYLE_CELLSTYLEMAP
360
86
  0
CELLSTYLEMAP
  5
86
102
{ACAD_REACTORS
330
85
102
}
330
85
100
AcDbCellStyleMap
 90
        3
300
CELLSTYLE
  1
TABLEFORMAT_BEGIN
 90
        5
170
     1
 91
        0
 92
    32768
 62
   257
 93
        1
300
CONTENTFORMAT
  1
CONTENTFORMAT_BEGIN
 90
        0
 91
        0
 92
        4
 93
        0
300

 40
0.0
140
1.0
 94
        5
 62
     0
340
11
144
0.25
309
CONTENTFORMAT_END
171
     1
301
MARGIN
  1
CELLMARGIN_BEGIN
 40
0.06
 40
0.06
 40
0.06
 40
0.06
 40
0.06
 40
0.06
309
CELLMARGIN_END
 94
        6
 95
        1
302
GRIDFORMAT
  1
GRIDFORMAT_BEGIN
 90
        0
 91
        1
 62
     0
 92
       -2
340
14
 93
        0
 40
0.045
309
GRIDFORMAT_END
 95
        2
302
GRIDFORMAT
  1
GRIDFORMAT_BEGIN
 90
        0
 91
        1
 62
     0
 92
       -2
340
14
 93
        0
 40
0.045
309
GRIDFORMAT_END
 95
        4
302
GRIDFORMAT
  1
GRIDFORMAT_BEGIN
 90
        0
 91
        1
 62
     0
 92
       -2
340
14
 93
        0
 40
0.045
309
GRIDFORMAT_END
 95
        8
302
GRIDFORMAT
  1
GRIDFORMAT_BEGIN
 90
        0
 91
        1
 62
     0
 92
       -2
340
14
 93
        0
 40
0.045
309
GRIDFORMAT_END
 95
       16
302
GRIDFORMAT
  1
GRIDFORMAT_BEGIN
 90
        0
 91
        1
 62
     0
 92
       -2
340
14
 93
        0
 40
0.045
309
GRIDFORMAT_END
 95
       32
302
GRIDFORMAT
  1
GRIDFORMAT_BEGIN
 90
        0
 91
        1
 62
     0
 92
       -2
340
14
 93
        0
 40
0.045
309
GRIDFORMAT_END
309
TABLEFORMAT_END
  1
CELLSTYLE_BEGIN
 90
        1
 91
        1
300
_TITLE
309
CELLSTYLE_END
300
CELLSTYLE
  1
TABLEFORMAT_BEGIN
 90
        5
170
     1
 91
        0
 92
        0
 62
   257
 93
        1
300
CONTENTFORMAT
  1
CONTENTFORMAT_BEGIN
 90
        0
 91
        0
 92
        4
 93
        0
300

 40
0.0
140
1.0
 94
        5
 62
     0
340
11
144
0.18
309
CONTENTFORMAT_END
171
     1
301
MARGIN
  1
CELLMARGIN_BEGIN
 40
0.06
 40
0.06
 40
0.06
 40
0.06
 40
0.06
 40
0.06
309
CELLMARGIN_END
 94
        6
 95
        1
302
GRIDFORMAT
  1
GRIDFORMAT_BEGIN
 90
        0
 91
        1
 62
     0
 92
       -2
340
14
 93
        0
 40
0.045
309
GRIDFORMAT_END
 95
        2
302
GRIDFORMAT
  1
GRIDFORMAT_BEGIN
 90
        0
 91
        1
 62
     0
 92
       -2
340
14
 93
        0
 40
0.045
309
GRIDFORMAT_END
 95
        4
302
GRIDFORMAT
  1
GRIDFORMAT_BEGIN
 90
        0
 91
        1
 62
     0
 92
       -2
340
14
 93
        0
 40
0.045
309
GRIDFORMAT_END
 95
        8
302
GRIDFORMAT
  1
GRIDFORMAT_BEGIN
 90
        0
 91
        1
 62
     0
 92
       -2
340
14
 93
        0
 40
0.045
309
GRIDFORMAT_END
 95
       16
302
GRIDFORMAT
  1
GRIDFORMAT_BEGIN
 90
        0
 91
        1
 62
     0
 92
       -2
340
14
 93
        0
 40
0.045
309
GRIDFORMAT_END
 95
       32
302
GRIDFORMAT
  1
GRIDFORMAT_BEGIN
 90
        0
 91
        1
 62
     0
 92
       -2
340
14
 93
        0
 40
0.045
309
GRIDFORMAT_END
309
TABLEFORMAT_END
  1
CELLSTYLE_BEGIN
 90
        2
 91
        1
300
_HEADER
309
CELLSTYLE_END
300
CELLSTYLE
  1
TABLEFORMAT_BEGIN
 90
        5
170
     1
 91
        0
 92
        0
 62
   257
 93
        1
300
CONTENTFORMAT
  1
CONTENTFORMAT_BEGIN
 90
        0
 91
        0
 92
        4
 93
        0
300

 40
0.0
140
1.0
 94
        2
 62
     0
340
11
144
0.18
309
CONTENTFORMAT_END
171
     1
301
MARGIN
  1
CELLMARGIN_BEGIN
 40
0.06
 40
0.06
 40
0.06
 40
0.06
 40
0.06
 40
0.06
309
CELLMARGIN_END
 94
        6
 95
        1
302
GRIDFORMAT
  1
GRIDFORMAT_BEGIN
 90
        0
 91
        1
 62
     0
 92
       -2
340
14
 93
        0
 40
0.045
309
GRIDFORMAT_END
 95
        2
302
GRIDFORMAT
  1
GRIDFORMAT_BEGIN
 90
        0
 91
        1
 62
     0
 92
       -2
340
14
 93
        0
 40
0.045
309
GRIDFORMAT_END
 95
        4
302
GRIDFORMAT
  1
GRIDFORMAT_BEGIN
 90
        0
 91
        1
 62
     0
 92
       -2
340
14
 93
        0
 40
0.045
309
GRIDFORMAT_END
 95
        8
302
GRIDFORMAT
  1
GRIDFORMAT_BEGIN
 90
        0
 91
        1
 62
     0
 92
       -2
340
14
 93
        0
 40
0.045
309
GRIDFORMAT_END
 95
       16
302
GRIDFORMAT
  1
GRIDFORMAT_BEGIN
 90
        0
 91
        1
 62
     0
 92
       -2
340
14
 93
        0
 40
0.045
309
GRIDFORMAT_END
 95
       32
302
GRIDFORMAT
  1
GRIDFORMAT_BEGIN
 90
        0
 91
        1
 62
     0
 92
       -2
340
14
 93
        0
 40
0.045
309
GRIDFORMAT_END
309
TABLEFORMAT_END
  1
CELLSTYLE_BEGIN
 90
        3
 91
        2
300
_DATA
309
CELLSTYLE_END
  0
ENDSEC
  0
EOF
