  0
SECTION
  2
HEADER
  9
$ACADVER
  1
AC1027
  9
$ACADMAINTVER
 70
   105
  9
$DWGCODEPAGE
  3
ANSI_1252
  9
$LASTSAVEDBY
  1
Office Desk
  9
$REQUIREDVERSIONS
160
                 0
  9
$INSBASE
 10
0.0
 20
0.0
 30
0.0
  9
$EXTMIN
 10
-21.20801181102362
 20
-6.477188976377953
 30
0.0
  9
$EXTMAX
 10
-10.25065354330709
 20
-1.030767716535433
 30
0.0
  9
$LIMMIN
 10
0.0
 20
0.0
  9
$LIMMAX
 10
12.0
 20
9.0
  9
$ORTHOMODE
 70
     0
  9
$REGENMODE
 70
     1
  9
$FILLMODE
 70
     1
  9
$QTEXTMODE
 70
     0
  9
$MIRRTEXT
 70
     1
  9
$LTSCALE
 40
1.0
  9
$ATTMODE
 70
     1
  9
$TEXTSIZE
 40
0.2
  9
$TRACEWID
 40
0.05
  9
$TEXTSTYLE
  7
Standard
  9
$CLAYER
  8
0
  9
$CELTYPE
  6
ByLayer
  9
$CECOLOR
 62
   256
  9
$CELTSCALE
 40
1.0
  9
$DISPSILH
 70
     0
  9
$DIMSCALE
 40
1.0
  9
$DIMASZ
 40
0.18
  9
$DIMEXO
 40
0.0625
  9
$DIMDLI
 40
0.38
  9
$DIMRND
 40
0.0
  9
$DIMDLE
 40
0.0
  9
$DIMEXE
 40
0.18
  9
$DIMTP
 40
0.0
  9
$DIMTM
 40
0.0
  9
$DIMTXT
 40
0.18
  9
$DIMCEN
 40
0.09
  9
$DIMTSZ
 40
0.0
  9
$DIMTOL
 70
     0
  9
$DIMLIM
 70
     0
  9
$DIMTIH
 70
     1
  9
$DIMTOH
 70
     1
  9
$DIMSE1
 70
     0
  9
$DIMSE2
 70
     0
  9
$DIMTAD
 70
     0
  9
$DIMZIN
 70
     0
  9
$DIMBLK
  1

  9
$DIMASO
 70
     1
  9
$DIMSHO
 70
     1
  9
$DIMPOST
  1

  9
$DIMAPOST
  1

  9
$DIMALT
 70
     0
  9
$DIMALTD
 70
     2
  9
$DIMALTF
 40
25.4
  9
$DIMLFAC
 40
1.0
  9
$DIMTOFL
 70
     0
  9
$DIMTVP
 40
0.0
  9
$DIMTIX
 70
     0
  9
$DIMSOXD
 70
     0
  9
$DIMSAH
 70
     0
  9
$DIMBLK1
  1

  9
$DIMBLK2
  1

  9
$DIMSTYLE
  2
Standard
  9
$DIMCLRD
 70
     0
  9
$DIMCLRE
 70
     0
  9
$DIMCLRT
 70
     0
  9
$DIMTFAC
 40
1.0
  9
$DIMGAP
 40
0.09
  9
$DIMJUST
 70
     0
  9
$DIMSD1
 70
     0
  9
$DIMSD2
 70
     0
  9
$DIMTOLJ
 70
     1
  9
$DIMTZIN
 70
     0
  9
$DIMALTZ
 70
     0
  9
$DIMALTTZ
 70
     0
  9
$DIMUPT
 70
     0
  9
$DIMDEC
 70
     4
  9
$DIMTDEC
 70
     4
  9
$DIMALTU
 70
     2
  9
$DIMALTTD
 70
     2
  9
$DIMTXSTY
  7
Standard
  9
$DIMAUNIT
 70
     0
  9
$DIMADEC
 70
     0
  9
$DIMALTRND
 40
0.0
  9
$DIMAZIN
 70
     0
  9
$DIMDSEP
 70
    46
  9
$DIMATFIT
 70
     3
  9
$DIMFRAC
 70
     0
  9
$DIMLDRBLK
  1

  9
$DIMLUNIT
 70
     2
  9
$DIMLWD
 70
    -2
  9
$DIMLWE
 70
    -2
  9
$DIMTMOVE
 70
     0
  9
$DIMFXL
 40
1.0
  9
$DIMFXLON
 70
     0
  9
$DIMJOGANG
 40
0.7853981633974483
  9
$DIMTFILL
 70
     0
  9
$DIMTFILLCLR
 70
     0
  9
$DIMARCSYM
 70
     0
  9
$DIMLTYPE
  6

  9
$DIMLTEX1
  6

  9
$DIMLTEX2
  6

  9
$DIMTXTDIRECTION
 70
     0
  9
$LUNITS
 70
     2
  9
$LUPREC
 70
     4
  9
$SKETCHINC
 40
0.1
  9
$FILLETRAD
 40
0.0
  9
$AUNITS
 70
     0
  9
$AUPREC
 70
     0
  9
$MENU
  1
.
  9
$ELEVATION
 40
0.0
  9
$PELEVATION
 40
0.0
  9
$THICKNESS
 40
0.0
  9
$LIMCHECK
 70
     0
  9
$CHAMFERA
 40
0.0
  9
$CHAMFERB
 40
0.0
  9
$CHAMFERC
 40
0.0
  9
$CHAMFERD
 40
0.0
  9
$SKPOLY
 70
     0
  9
$TDCREATE
 40
2461020.730978889
  9
$TDUCREATE
 40
2461020.501812223
  9
$TDUPDATE
 40
2461020.730979028
  9
$TDUUPDATE
 40
2461020.501812361
  9
$TDINDWG
 40
0.0000000116
  9
$TDUSRTIMER
 40
0.0000000116
  9
$USRTIMER
 70
     1
  9
$ANGBASE
 50
0.0
  9
$ANGDIR
 70
     0
  9
$PDMODE
 70
     0
  9
$PDSIZE
 40
0.0
  9
$PLINEWID
 40
0.0
  9
$SPLFRAME
 70
     0
  9
$SPLINETYPE
 70
     6
  9
$SPLINESEGS
 70
     8
  9
$HANDSEED
  5
83
  9
$SURFTAB1
 70
     6
  9
$SURFTAB2
 70
     6
  9
$SURFTYPE
 70
     6
  9
$SURFU
 70
     6
  9
$SURFV
 70
     6
  9
$UCSBASE
  2

  9
$UCSNAME
  2

  9
$UCSORG
 10
0.0
 20
0.0
 30
0.0
  9
$UCSXDIR
 10
1.0
 20
0.0
 30
0.0
  9
$UCSYDIR
 10
0.0
 20
1.0
 30
0.0
  9
$UCSORTHOREF
  2

  9
$UCSORTHOVIEW
 70
     0
  9
$UCSORGTOP
 10
0.0
 20
0.0
 30
0.0
  9
$UCSORGBOTTOM
 10
0.0
 20
0.0
 30
0.0
  9
$UCSORGLEFT
 10
0.0
 20
0.0
 30
0.0
  9
$UCSORGRIGHT
 10
0.0
 20
0.0
 30
0.0
  9
$UCSORGFRONT
 10
0.0
 20
0.0
 30
0.0
  9
$UCSORGBACK
 10
0.0
 20
0.0
 30
0.0
  9
$PUCSBASE
  2

  9
$PUCSNAME
  2

  9
$PUCSORG
 10
0.0
 20
0.0
 30
0.0
  9
$PUCSXDIR
 10
1.0
 20
0.0
 30
0.0
  9
$PUCSYDIR
 10
0.0
 20
1.0
 30
0.0
  9
$PUCSORTHOREF
  2

  9
$PUCSORTHOVIEW
 70
     0
  9
$PUCSORGTOP
 10
0.0
 20
0.0
 30
0.0
  9
$PUCSORGBOTTOM
 10
0.0
 20
0.0
 30
0.0
  9
$PUCSORGLEFT
 10
0.0
 20
0.0
 30
0.0
  9
$PUCSORGRIGHT
 10
0.0
 20
0.0
 30
0.0
  9
$PUCSORGFRONT
 10
0.0
 20
0.0
 30
0.0
  9
$PUCSORGBACK
 10
0.0
 20
0.0
 30
0.0
  9
$USERI1
 70
     0
  9
$USERI2
 70
     0
  9
$USERI3
 70
     0
  9
$USERI4
 70
     0
  9
$USERI5
 70
     0
  9
$USERR1
 40
0.0
  9
$USERR2
 40
0.0
  9
$USERR3
 40
0.0
  9
$USERR4
 40
0.0
  9
$USERR5
 40
0.0
  9
$WORLDVIEW
 70
     1
  9
$SHADEDGE
 70
     3
  9
$SHADEDIF
 70
    70
  9
$TILEMODE
 70
     1
  9
$MAXACTVP
 70
    64
  9
$PINSBASE
 10
0.0
 20
0.0
 30
0.0
  9
$PLIMCHECK
 70
     0
  9
$PEXTMIN
 10
1.000000000000000E+20
 20
1.000000000000000E+20
 30
1.000000000000000E+20
  9
$PEXTMAX
 10
-1.000000000000000E+20
 20
-1.000000000000000E+20
 30
-1.000000000000000E+20
  9
$PLIMMIN
 10
0.0
 20
0.0
  9
$PLIMMAX
 10
12.0
 20
9.0
  9
$UNITMODE
 70
     0
  9
$VISRETAIN
 70
     1
  9
$PLINEGEN
 70
     0
  9
$PSLTSCALE
 70
     1
  9
$TREEDEPTH
 70
  3020
  9
$CMLSTYLE
  2
Standard
  9
$CMLJUST
 70
     0
  9
$CMLSCALE
 40
1.0
  9
$PROXYGRAPHICS
 70
     1
  9
$MEASUREMENT
 70
     0
  9
$CELWEIGHT
370
    -1
  9
$ENDCAPS
280
     0
  9
$JOINSTYLE
280
     0
  9
$LWDISPLAY
290
     0
  9
$INSUNITS
 70
     1
  9
$HYPERLINKBASE
  1

  9
$STYLESHEET
  1

  9
$XEDIT
290
     1
  9
$CEPSNTYPE
380
     0
  9
$PSTYLEMODE
290
     1
  9
$FINGERPRINTGUID
  2
{ab988359-041b-4b5a-8296-5cdc01e74813}
  9
$VERSIONGUID
  2
{FAEB1C32-E019-11D5-929B-00C0DF256EC4}
  9
$EXTNAMES
290
     1
  9
$PSVPSCALE
 40
0.0
  9
$OLESTARTUP
290
     0
  9
$SORTENTS
280
   127
  9
$INDEXCTL
280
     0
  9
$HIDETEXT
280
     1
  9
$XCLIPFRAME
280
     2
  9
$HALOGAP
280
     0
  9
$OBSCOLOR
 70
   257
  9
$OBSLTYPE
280
     0
  9
$INTERSECTIONDISPLAY
280
     0
  9
$INTERSECTIONCOLOR
 70
   257
  9
$DIMASSOC
280
     2
  9
$PROJECTNAME
  1

  9
$CAMERADISPLAY
290
     0
  9
$LENSLENGTH
 40
50.0
  9
$CAMERAHEIGHT
 40
0.0
  9
$STEPSPERSEC
 40
2.0
  9
$STEPSIZE
 40
6.0
  9
$3DDWFPREC
 40
2.0
  9
$PSOLWIDTH
 40
0.25
  9
$PSOLHEIGHT
 40
4.0
  9
$LOFTANG1
 40
1.570796326794897
  9
$LOFTANG2
 40
1.570796326794897
  9
$LOFTMAG1
 40
0.0
  9
$LOFTMAG2
 40
0.0
  9
$LOFTPARAM
 70
     7
  9
$LOFTNORMALS
280
     1
  9
$LATITUDE
 40
37.795
  9
$LONGITUDE
 40
-122.394
  9
$NORTHDIRECTION
 40
0.0
  9
$TIMEZONE
 70
 -8000
  9
$LIGHTGLYPHDISPLAY
280
     1
  9
$TILEMODELIGHTSYNCH
280
     1
  9
$CMATERIAL
347
44
  9
$SOLIDHIST
280
     0
  9
$SHOWHIST
280
     1
  9
$DWFFRAME
280
     2
  9
$DGNFRAME
280
     2
  9
$REALWORLDSCALE
290
     1
  9
$INTERFERECOLOR
 62
   256
  9
$CSHADOW
280
     0
  9
$SHADOWPLANELOCATION
 40
0.0
  0
ENDSEC
  0
SECTION
  2
CLASSES
  0
CLASS
  1
ACDBDICTIONARYWDFLT
  2
AcDbDictionaryWithDefault
  3
ObjectDBX Classes
 90
        0
 91
        3
280
     0
281
     0
  0
CLASS
  1
VISUALSTYLE
  2
AcDbVisualStyle
  3
ObjectDBX Classes
 90
     4095
 91
        3
280
     0
281
     0
  0
CLASS
  1
MATERIAL
  2
AcDbMaterial
  3
ObjectDBX Classes
 90
     1153
 91
        3
280
     0
281
     0
  0
CLASS
  1
SCALE
  2
AcDbScale
  3
ObjectDBX Classes
 90
     1153
 91
        3
280
     0
281
     0
  0
CLASS
  1
TABLESTYLE
  2
AcDbTableStyle
  3
ObjectDBX Classes
 90
     4095
 91
        3
280
     0
281
     0
  0
CLASS
  1
MLEADERSTYLE
  2
AcDbMLeaderStyle
  3
ACDB_MLEADERSTYLE_CLASS
 90
     4095
 91
        3
280
     0
281
     0
  0
CLASS
  1
SUN
  2
AcDbSun
  3
SCENEOE
 90
     1153
 91
        3
280
     0
281
     0
  0
CLASS
  1
DICTIONARYVAR
  2
AcDbDictionaryVar
  3
ObjectDBX Classes
 90
        0
 91
        3
280
     0
281
     0
  0
CLASS
  1
CELLSTYLEMAP
  2
AcDbCellStyleMap
  3
ObjectDBX Classes
 90
     1152
 91
        3
280
     0
281
     0
  0
ENDSEC
  0
SECTION
  2
TABLES
  0
TABLE
  2
VPORT
  5
8
330
0
100
AcDbSymbolTable
 70
     1
  0
VPORT
  5
29
330
8
100
AcDbSymbolTableRecord
100
AcDbViewportTableRecord
  2
*Active
 70
     0
 10
0.0
 20
0.0
 11
1.0
 21
1.0
 12
10.42990654205607
 22
4.5
 13
0.0
 23
0.0
 14
0.5
 24
0.5
 15
0.5
 25
0.5
 16
0.0
 26
0.0
 36
1.0
 17
0.0
 27
0.0
 37
0.0
 40
9.0
 41
1.972972972850329
 42
50.0
 43
0.0
 44
0.0
 50
0.0
 51
0.0
 71
     0
 72
   100
 73
     1
 74
     3
 75
     0
 76
     0
 77
     0
 78
     0
281
     0
 65
     1
110
0.0
120
0.0
130
0.0
111
1.0
121
0.0
131
0.0
112
0.0
122
1.0
132
0.0
 79
     0
146
0.0
348
2F
 60
     3
 61
     5
292
     1
282
     1
141
0.0
142
0.0
 63
   250
361
5D
  0
ENDTAB
  0
TABLE
  2
LTYPE
  5
5
330
0
100
AcDbSymbolTable
 70
     1
  0
LTYPE
  5
14
330
5
100
AcDbSymbolTableRecord
100
AcDbLinetypeTableRecord
  2
ByBlock
 70
     0
  3

 72
    65
 73
     0
 40
0.0
  0
LTYPE
  5
15
330
5
100
AcDbSymbolTableRecord
100
AcDbLinetypeTableRecord
  2
ByLayer
 70
     0
  3

 72
    65
 73
     0
 40
0.0
  0
LTYPE
  5
16
330
5
100
AcDbSymbolTableRecord
100
AcDbLinetypeTableRecord
  2
Continuous
 70
     0
  3
Solid line
 72
    65
 73
     0
 40
0.0
  0
ENDTAB
  0
TABLE
  2
LAYER
  5
2
330
0
100
AcDbSymbolTable
 70
     2
  0
LAYER
  5
10
330
2
100
AcDbSymbolTableRecord
100
AcDbLayerTableRecord
  2
0
 70
     0
 62
     7
  6
Continuous
370
    -3
390
F
347
46
348
0
  0
LAYER
  5
5F
330
2
100
AcDbSymbolTableRecord
100
AcDbLayerTableRecord
  2
Layer 1
 70
     0
 62
     7
  6
Continuous
370
    -3
390
F
347
46
348
0
  0
ENDTAB
  0
TABLE
  2
STYLE
  5
3
330
0
100
AcDbSymbolTable
 70
     1
  0
STYLE
  5
11
330
3
100
AcDbSymbolTableRecord
100
AcDbTextStyleTableRecord
  2
Standard
 70
     0
 40
0.0
 41
1.0
 50
0.0
 71
     0
 42
0.2
  3
txt
  4

  0
ENDTAB
  0
TABLE
  2
VIEW
  5
6
330
0
100
AcDbSymbolTable
 70
     0
  0
ENDTAB
  0
TABLE
  2
UCS
  5
7
330
0
100
AcDbSymbolTable
 70
     0
  0
ENDTAB
  0
TABLE
  2
APPID
  5
9
330
0
100
AcDbSymbolTable
 70
     2
  0
APPID
  5
12
330
9
100
AcDbSymbolTableRecord
100
AcDbRegAppTableRecord
  2
ACAD
 70
     0
  0
APPID
  5
5E
330
9
100
AcDbSymbolTableRecord
100
AcDbRegAppTableRecord
  2
ODA
 70
     0
  0
ENDTAB
  0
TABLE
  2
DIMSTYLE
  5
A
330
0
100
AcDbSymbolTable
 70
     1
100
AcDbDimStyleTable
  0
DIMSTYLE
105
27
330
A
100
AcDbSymbolTableRecord
100
AcDbDimStyleTableRecord
  2
Standard
 70
     0
178
     0
340
11
  0
ENDTAB
  0
TABLE
  2
BLOCK_RECORD
  5
1
330
0
100
AcDbSymbolTable
 70
     1
  0
BLOCK_RECORD
  5
1F
330
1
100
AcDbSymbolTableRecord
100
AcDbBlockTableRecord
  2
*Model_Space
340
22
 70
     0
280
     1
281
     0
  0
BLOCK_RECORD
  5
1B
330
1
100
AcDbSymbolTableRecord
100
AcDbBlockTableRecord
  2
*Paper_Space
340
1E
 70
     0
280
     1
281
     0
  0
BLOCK_RECORD
  5
23
330
1
100
AcDbSymbolTableRecord
100
AcDbBlockTableRecord
  2
*Paper_Space0
340
26
 70
     0
280
     1
281
     0
  0
ENDTAB
  0
ENDSEC
  0
SECTION
  2
BLOCKS
  0
BLOCK
  5
20
330
1F
100
AcDbEntity
  8
0
100
AcDbBlockBegin
  2
*Model_Space
 70
     0
 10
0.0
 20
0.0
 30
0.0
  3
*Model_Space
  1

  0
ENDBLK
  5
21
330
1F
100
AcDbEntity
  8
0
100
AcDbBlockEnd
  0
BLOCK
  5
1C
330
1B
100
AcDbEntity
 67
     1
  8
0
100
AcDbBlockBegin
  2
*Paper_Space
 70
     0
 10
0.0
 20
0.0
 30
0.0
  3
*Paper_Space
  1

  0
ENDBLK
  5
1D
330
1B
100
AcDbEntity
 67
     1
  8
0
100
AcDbBlockEnd
  0
BLOCK
  5
24
330
23
100
AcDbEntity
  8
0
100
AcDbBlockBegin
  2
*Paper_Space0
 70
     0
 10
0.0
 20
0.0
 30
0.0
  3
*Paper_Space0
  1

  0
ENDBLK
  5
25
330
23
100
AcDbEntity
  8
0
100
AcDbBlockEnd
  0
ENDSEC
  0
SECTION
  2
ENTITIES
  0
LWPOLYLINE
  5
60
330
1F
100
AcDbEntity
  8
Layer 1
 62
   250
370
     9
100
AcDbPolyline
 90
        5
 70
     1
 43
0.0
 10
-21.20651181102362
 20
-6.475685039370079
 10
-10.25215748031496
 20
-6.475685039370079
 10
-10.25215748031496
 20
-1.032267716535433
 10
-21.20651181102362
 20
-1.032267716535433
 10
-21.20651181102362
 20
-6.475685039370079
  0
LWPOLYLINE
  5
61
330
1F
100
AcDbEntity
  8
Layer 1
 62
     7
370
    20
100
AcDbPolyline
 90
       33
 70
     1
 43
0.0
 10
-11.27225590551181
 20
-2.165751968503937
 10
-11.23233464566929
 20
-2.168574803149606
 10
-11.19515354330709
 20
-2.173917322834646
 10
-11.1615
 20
-2.18148031496063
 10
-11.13217716535433
 20
-2.190948818897638
 10
-11.1079842519685
 20
-2.202023622047244
 10
-11.0897125984252
 20
-2.214397637795276
 10
-11.07816929133858
 20
-2.227759842519685
 10
-11.07414173228346
 20
-2.241807086614173
 10
-11.07816929133858
 20
-2.255574803149606
 10
-11.0897125984252
 20
-2.268122047244094
 10
-11.1079842519685
 20
-2.279196850393701
 10
-11.13217716535433
 20
-2.288551181102362
 10
-11.1615
 20
-2.295933070866142
 10
-11.19515354330709
 20
-2.301102362204724
 10
-11.23233464566929
 20
-2.303799212598425
 10
-11.27225590551181
 20
-2.303783464566929
 10
-11.31217322834646
 20
-2.30096062992126
 10
-11.34935433070866
 20
-2.29561811023622
 10
-11.38300393700787
 20
-2.288055118110236
 10
-11.4123188976378
 20
-2.278582677165354
 10
-11.43650787401575
 20
-2.267507874015748
 10
-11.45477559055118
 20
-2.255137795275591
 10
-11.46631889763779
 20
-2.241775590551181
 10
-11.47034251968504
 20
-2.227728346456693
 10
-11.46631889763779
 20
-2.213968503937008
 10
-11.45477559055118
 20
-2.201425196850394
 10
-11.43650787401575
 20
-2.190354330708661
 10
-11.4123188976378
 20
-2.181003937007874
 10
-11.38300393700787
 20
-2.17361811023622
 10
-11.34935433070866
 20
-2.168444881889764
 10
-11.31217322834646
 20
-2.165744094488189
 10
-11.27225590551181
 20
-2.165751968503937
  0
LWPOLYLINE
  5
62
330
1F
100
AcDbEntity
  8
Layer 1
 62
     7
370
    20
100
AcDbPolyline
 90
       93
 70
     1
 43
0.0
 10
-18.99831889763779
 20
-2.537976377952756
 10
-17.41312204724409
 20
-2.339377952755906
 10
-17.39220472440945
 20
-2.365216535433071
 10
-17.32331496062992
 20
-2.433740157480315
 10
-17.19722834645669
 20
-2.531452755905512
 10
-17.00473622047244
 20
-2.644870078740158
 10
-16.73661811023622
 20
-2.760492125984252
 10
-16.38365748031496
 20
-2.864834645669291
 10
-15.93664173228346
 20
-2.94440157480315
 10
-15.38635433070866
 20
-2.985700787401575
 10
-15.35312598425197
 20
-2.985149606299212
 10
-15.25726771653543
 20
-2.982543307086614
 10
-15.10453543307087
 20
-2.976468503937008
 10
-14.90067716535433
 20
-2.9655
 10
-14.65144488188976
 20
-2.948224409448819
 10
-14.36258661417323
 20
-2.923212598425197
 10
-14.03985433070866
 20
-2.889051181102362
 10
-13.689
 20
-2.844314960629921
 10
-13.60537795275591
 20
-2.834031496062992
 10
-13.38268503937008
 20
-2.806681102362205
 10
-13.06317716535433
 20
-2.767531496062992
 10
-12.68911023622047
 20
-2.72184251968504
 10
-12.30274409448819
 20
-2.674866141732283
 10
-11.94633858267717
 20
-2.631870078740158
 10
-11.66214173228346
 20
-2.598110236220473
 10
-11.49242125984252
 20
-2.578850393700788
 10
-11.47120078740157
 20
-2.576964566929134
 10
-11.41471653543307
 20
-2.573625984251969
 10
-11.33372047244094
 20
-2.572318897637795
 10
-11.23897244094488
 20
-2.576523622047244
 10
-11.14123228346457
 20
-2.589724409448819
 10
-11.05125196850394
 20
-2.615397637795275
 10
-10.97979527559055
 20
-2.657027559055118
 10
-10.93761811023622
 20
-2.718098425196851
 10
-10.93567716535433
 20
-2.725783464566929
 10
-10.93249606299213
 20
-2.746448818897638
 10
-10.93203543307087
 20
-2.776503937007874
 10
-10.93824803149606
 20
-2.812358267716535
 10
-10.95509448818898
 20
-2.85042125984252
 10
-10.98653543307087
 20
-2.887102362204724
 10
-11.03652755905512
 20
-2.918811023622047
 10
-11.10903149606299
 20
-2.94196062992126
 10
-13.21983070866142
 20
-3.19105905511811
 10
-13.2948937007874
 20
-3.20009842519685
 10
-13.49607480314961
 20
-3.224240157480315
 10
-13.78737795275591
 20
-3.259035433070866
 10
-14.1328031496063
 20
-3.300023622047244
 10
-14.49634645669291
 20
-3.342748031496063
 10
-14.84200787401575
 20
-3.382751968503937
 10
-15.1337874015748
 20
-3.415582677165354
 10
-15.33568503937008
 20
-3.436779527559055
 10
-15.39392519685039
 20
-3.438586614173228
 10
-15.55388582677165
 20
-3.441775590551181
 10
-15.79342125984252
 20
-3.442988188976378
 10
-16.09038976377953
 20
-3.438877952755905
 10
-16.42265354330709
 20
-3.426086614173228
 10
-16.76806692913386
 20
-3.401267716535433
 10
-17.1044842519685
 20
-3.361062992125984
 10
-17.40976771653543
 20
-3.302125984251969
 10
-17.41890551181102
 20
-3.334507874015748
 10
-17.44600393700787
 20
-3.422649606299212
 10
-17.4905905511811
 20
-3.553035433070866
 10
-17.5521968503937
 20
-3.712161417322835
 10
-17.63033858267717
 20
-3.886515748031496
 10
-17.72455118110236
 20
-4.062582677165354
 10
-17.83436220472441
 20
-4.226858267716535
 10
-17.95929527559055
 20
-4.365830708661417
 10
-17.96774409448819
 20
-4.36840157480315
 10
-17.99127559055118
 20
-4.37346062992126
 10
-18.02717716535433
 20
-4.37701968503937
 10
-18.07272834645669
 20
-4.375098425196851
 10
-18.12520866141732
 20
-4.363704724409449
 10
-18.18190551181102
 20
-4.33886220472441
 10
-18.24009448818898
 20
-4.296582677165354
 10
-18.29706692913386
 20
-4.232877952755906
 10
-18.31205905511811
 20
-4.219818897637795
 10
-18.35312598425197
 20
-4.179858267716535
 10
-18.41438582677165
 20
-4.111807086614173
 10
-18.48997244094488
 20
-4.014492125984252
 10
-18.57400393700787
 20
-3.886720472440945
 10
-18.66061811023622
 20
-3.727311023622047
 10
-18.74393307086614
 20
-3.535086614173228
 10
-18.81807480314961
 20
-3.308862204724409
 10
-18.82194881889764
 20
-3.293669291338583
 10
-18.83211023622047
 20
-3.251688976377953
 10
-18.84635433070866
 20
-3.188334645669291
 10
-18.8624842519685
 20
-3.109
 10
-18.8783031496063
 20
-3.019090551181102
 10
-18.89160236220473
 20
-2.924015748031496
 10
-18.90018897637795
 20
-2.829177165354331
 10
-18.90186220472441
 20
-2.73998031496063
 10
-18.99617716535433
 20
-2.662929133858268
 10
-18.99831889763779
 20
-2.537976377952756
  0
LWPOLYLINE
  5
63
330
1F
100
AcDbEntity
  8
Layer 1
 62
     7
370
    20
100
AcDbPolyline
 90
        9
 70
     0
 43
0.0
 10
-18.90186220472441
 20
-2.73998031496063
 10
-18.88132283464567
 20
-2.756334645669291
 10
-18.81811811023622
 20
-2.801066929133858
 10
-18.70987007874016
 20
-2.867692913385827
 10
-18.55420078740157
 20
-2.949724409448819
 10
-18.34873228346457
 20
-3.040673228346457
 10
-18.0910905511811
 20
-3.134047244094488
 10
-17.7788937007874
 20
-3.223362204724409
 10
-17.40976771653543
 20
-3.302125984251969
  0
LWPOLYLINE
  5
64
330
1F
100
AcDbEntity
  8
Layer 1
 62
     7
370
    20
100
AcDbPolyline
 90
        9
 70
     0
 43
0.0
 10
-18.72971653543307
 20
-2.856177165354331
 10
-18.72856299212598
 20
-2.888858267716536
 10
-18.72188582677165
 20
-2.980370078740158
 10
-18.70485039370079
 20
-3.120909448818898
 10
-18.67263779527559
 20
-3.300681102362205
 10
-18.62041732283464
 20
-3.509874015748032
 10
-18.54335433070866
 20
-3.738700787401575
 10
-18.43662992125984
 20
-3.977350393700787
 10
-18.29541338582677
 20
-4.216027559055118
  0
LWPOLYLINE
  5
65
330
1F
100
AcDbEntity
  8
Layer 1
 62
     7
370
    20
100
AcDbPolyline
 90
       49
 70
     0
 43
0.0
 10
-18.99831889763779
 20
-2.537976377952756
 10
-18.98292913385827
 20
-2.55361811023622
 10
-18.93519291338583
 20
-2.59651968503937
 10
-18.85276377952756
 20
-2.660649606299212
 10
-18.73329527559055
 20
-2.739964566929134
 10
-18.57443700787401
 20
-2.828429133858268
 10
-18.37384645669291
 20
-2.920011811023622
 10
-18.12916929133858
 20
-3.008677165354331
 10
-17.83806299212598
 20
-3.08838188976378
 10
-17.79633070866142
 20
-3.097818897637795
 10
-17.6790905511811
 20
-3.122858267716536
 10
-17.49827952755906
 20
-3.158586614173228
 10
-17.26582677165354
 20
-3.20009842519685
 10
-16.99366929133858
 20
-3.242472440944882
 10
-16.69374803149606
 20
-3.280803149606299
 10
-16.37798818897638
 20
-3.310181102362205
 10
-16.05833070866142
 20
-3.325688976377953
 10
-16.03111811023622
 20
-3.326437007874016
 10
-15.95311417322835
 20
-3.32757874015748
 10
-15.82977165354331
 20
-3.327456692913386
 10
-15.66655118110236
 20
-3.324417322834646
 10
-15.46890551181102
 20
-3.316803149606299
 10
-15.2422874015748
 20
-3.302956692913386
 10
-14.99215354330709
 20
-3.281224409448819
 10
-14.72396062992126
 20
-3.249948818897638
 10
-14.64843700787402
 20
-3.240984251968504
 10
-14.44653149606299
 20
-3.217027559055118
 10
-14.15525590551181
 20
-3.182503937007874
 10
-13.81161023622047
 20
-3.141822834645669
 10
-13.45260236220472
 20
-3.099405511811024
 10
-13.11524015748032
 20
-3.059669291338583
 10
-12.83653149606299
 20
-3.027031496062992
 10
-12.65347637795276
 20
-3.005905511811024
 10
-12.5969842519685
 20
-2.999157480314961
 10
-12.4459842519685
 20
-2.981070866141732
 10
-12.22818110236221
 20
-2.954889763779528
 10
-11.9712874015748
 20
-2.923854330708661
 10
-11.70300787401575
 20
-2.891208661417323
 10
-11.45105118110236
 20
-2.860196850393701
 10
-11.24312598425197
 20
-2.83405905511811
 10
-11.10694094488189
 20
-2.816035433070866
 10
-11.08352362204724
 20
-2.812582677165354
 10
-11.05718897637795
 20
-2.80786220472441
 10
-11.02970472440945
 20
-2.801307086614173
 10
-11.00283858267717
 20
-2.792350393700787
 10
-10.97834645669291
 20
-2.780425196850394
 10
-10.958
 20
-2.764964566929134
 10
-10.94355905511811
 20
-2.745397637795276
 10
-10.93679133858268
 20
-2.721161417322834
  0
LWPOLYLINE
  5
66
330
1F
100
AcDbEntity
  8
Layer 1
 62
     7
370
    20
100
AcDbPolyline
 90
       34
 70
     1
 43
0.0
 10
-11.0808031496063
 20
-2.265972440944882
 10
-11.08117716535433
 20
-2.282503937007874
 10
-11.08236614173228
 20
-2.326531496062992
 10
-11.0844842519685
 20
-2.389704724409449
 10
-11.08762992125984
 20
-2.463669291338582
 10
-11.09191338582677
 20
-2.54007874015748
 10
-11.09744094488189
 20
-2.610574803149606
 10
-11.10432283464567
 20
-2.666814960629921
 10
-11.11265748031496
 20
-2.700444881889764
 10
-11.11472440944882
 20
-2.703799212598425
 10
-11.12238976377953
 20
-2.712318897637795
 10
-11.13785826771653
 20
-2.723673228346457
 10
-11.16333070866142
 20
-2.73553937007874
 10
-11.2010157480315
 20
-2.745590551181103
 10
-11.25311417322835
 20
-2.751507874015748
 10
-11.32182677165354
 20
-2.750964566929134
 10
-11.40936220472441
 20
-2.741633858267717
 10
-11.41256692913386
 20
-2.741074803149606
 10
-11.42114960629921
 20
-2.73905905511811
 10
-11.43355118110236
 20
-2.735070866141732
 10
-11.44821653543307
 20
-2.728594488188977
 10
-11.46359448818898
 20
-2.719118110236221
 10
-11.47812992125984
 20
-2.706122047244095
 10
-11.49026771653543
 20
-2.689094488188976
 10
-11.49845275590551
 20
-2.667523622047244
 10
-11.4703937007874
 20
-2.251870078740157
 10
-11.46259842519685
 20
-2.250889763779528
 10
-11.43791732283464
 20
-2.259850393700787
 10
-11.39894881889764
 20
-2.274169291338583
 10
-11.34829527559055
 20
-2.289275590551181
 10
-11.28855511811024
 20
-2.300586614173228
 10
-11.22232677165354
 20
-2.303523622047244
 10
-11.15220866141732
 20
-2.293511811023622
 10
-11.0808031496063
 20
-2.265972440944882
  0
LWPOLYLINE
  5
67
330
1F
100
AcDbEntity
  8
Layer 1
 62
     7
370
    18
100
AcDbPolyline
 90
        4
 70
     1
 43
0.0
 10
-18.11582677165354
 20
-5.017814960629921
 10
-18.13984645669291
 20
-5.036877952755906
 10
-18.11088582677165
 20
-5.046956692913386
 10
-18.11582677165354
 20
-5.017814960629921
  0
LWPOLYLINE
  5
68
330
1F
100
AcDbEntity
  8
Layer 1
 62
     7
370
    18
100
AcDbPolyline
 90
        4
 70
     1
 43
0.0
 10
-10.56633070866142
 20
-3.737374015748031
 10
-10.53737007874016
 20
-3.747452755905512
 10
-10.56138976377953
 20
-3.766515748031496
 10
-10.56633070866142
 20
-3.737374015748031
  0
LWPOLYLINE
  5
69
330
1F
100
AcDbEntity
  8
Layer 1
 62
     7
370
    18
100
AcDbPolyline
 90
        2
 70
     0
 43
0.0
 10
-18.14841338582677
 20
-5.039933070866142
 10
-10.52827952755906
 20
-3.747511811023622
  0
LWPOLYLINE
  5
6A
330
1F
100
AcDbEntity
  8
Layer 1
 62
     7
370
     9
100
AcDbPolyline
 90
       87
 70
     1
 43
0.0
 10
-14.56785826771654
 20
-5.309704724409449
 10
-14.29234645669291
 20
-5.309704724409449
 10
-14.29234645669291
 20
-5.268492125984252
 10
-14.47064566929134
 20
-5.268492125984252
 10
-14.33433464566929
 20
-5.130102362204725
 10
-14.32543700787402
 20
-5.120137795275591
 10
-14.31772834645669
 20
-5.109677165354331
 10
-14.31120472440945
 20
-5.098720472440945
 10
-14.30586220472441
 20
-5.087271653543307
 10
-14.30170866141732
 20
-5.075322834645669
 10
-14.29874409448819
 20
-5.062874015748031
 10
-14.29696456692913
 20
-5.049929133858268
 10
-14.29637007874016
 20
-5.036488188976378
 10
-14.29697637795276
 20
-5.022740157480315
 10
-14.29879527559055
 20
-5.009543307086614
 10
-14.30183070866142
 20
-4.996901574803149
 10
-14.30607480314961
 20
-4.984811023622047
 10
-14.31153543307087
 20
-4.973275590551181
 10
-14.31820472440945
 20
-4.962287401574804
 10
-14.3260905511811
 20
-4.951850393700788
 10
-14.33518897637795
 20
-4.941964566929133
 10
-14.3453031496063
 20
-4.932791338582677
 10
-14.35587007874016
 20
-4.924842519685039
 10
-14.36688188976378
 20
-4.918114173228346
 10
-14.37834251968504
 20
-4.912614173228347
 10
-14.39025196850394
 20
-4.908330708661417
 10
-14.40261023622047
 20
-4.905275590551181
 10
-14.41542125984252
 20
-4.90344094488189
 10
-14.42867716535433
 20
-4.902830708661417
 10
-14.44244094488189
 20
-4.903472440944882
 10
-14.45569291338583
 20
-4.905405511811024
 10
-14.46842913385827
 20
-4.908622047244094
 10
-14.48065748031496
 20
-4.913129921259842
 10
-14.49237007874016
 20
-4.91892125984252
 10
-14.50357480314961
 20
-4.926
 10
-14.51426771653543
 20
-4.934370078740158
 10
-14.52445275590551
 20
-4.944023622047244
 10
-14.5335157480315
 20
-4.95442125984252
 10
-14.54129133858268
 20
-4.965358267716535
 10
-14.54778346456693
 20
-4.976838582677165
 10
-14.55299212598425
 20
-4.988858267716536
 10
-14.5569094488189
 20
-5.001425196850394
 10
-14.55954724409449
 20
-5.014531496062992
 10
-14.56089763779528
 20
-5.028181102362205
 10
-14.56096456692913
 20
-5.042374015748032
 10
-14.52013385826772
 20
-5.042374015748032
 10
-14.52047244094488
 20
-5.033169291338583
 10
-14.51983858267717
 20
-5.024177165354331
 10
-14.51824015748032
 20
-5.015397637795275
 10
-14.51566929133858
 20
-5.006826771653543
 10
-14.51212598425197
 20
-4.998468503937008
 10
-14.50761811023622
 20
-4.990318897637795
 10
-14.50213779527559
 20
-4.982381889763779
 10
-14.49568503937008
 20
-4.974653543307086
 10
-14.48877952755906
 20
-4.967755905511811
 10
-14.4815157480315
 20
-4.961779527559055
 10
-14.4738937007874
 20
-4.956720472440945
 10
-14.46591338582677
 20
-4.952582677165354
 10
-14.45757086614173
 20
-4.949366141732283
 10
-14.44887007874016
 20
-4.947066929133858
 10
-14.43981102362205
 20
-4.945688976377952
 10
-14.43038976377953
 20
-4.945228346456693
 10
-14.42114566929134
 20
-4.945641732283464
 10
-14.41225196850394
 20
-4.946881889763779
 10
-14.40370866141732
 20
-4.948948818897637
 10
-14.39551968503937
 20
-4.951846456692913
 10
-14.38767716535433
 20
-4.955570866141732
 10
-14.38018503937008
 20
-4.960125984251968
 10
-14.37304330708661
 20
-4.965507874015748
 10
-14.36624803149606
 20
-4.971720472440945
 10
-14.3599842519685
 20
-4.97857874015748
 10
-14.35455118110236
 20
-4.985771653543307
 10
-14.34995669291339
 20
-4.993299212598425
 10
-14.3461968503937
 20
-5.001153543307087
 10
-14.34327165354331
 20
-5.009342519685039
 10
-14.3411811023622
 20
-5.017862204724409
 10
-14.33992519685039
 20
-5.026712598425197
 10
-14.33950787401575
 20
-5.035893700787401
 10
-14.33991338582677
 20
-5.045279527559055
 10
-14.34112598425197
 20
-5.054299212598425
 10
-14.34314566929134
 20
-5.062944881889764
 10
-14.34597637795276
 20
-5.071228346456693
 10
-14.34961417322835
 20
-5.079137795275591
 10
-14.35406299212598
 20
-5.086681102362204
 10
-14.35932283464567
 20
-5.093858267716535
 10
-14.36538976377953
 20
-5.100661417322835
 10
-14.56785826771654
 20
-5.309704724409449
  0
LWPOLYLINE
  5
6B
330
1F
100
AcDbEntity
  8
Layer 1
 62
     7
370
     9
100
AcDbPolyline
 90
       87
 70
     1
 43
0.0
 10
-14.21411023622047
 20
-5.309704724409449
 10
-13.93858267716536
 20
-5.309704724409449
 10
-13.93858267716536
 20
-5.268492125984252
 10
-14.11690157480315
 20
-5.268492125984252
 10
-13.98057086614173
 20
-5.130102362204725
 10
-13.97167716535433
 20
-5.120137795275591
 10
-13.96396850393701
 20
-5.109677165354331
 10
-13.95744488188976
 20
-5.098720472440945
 10
-13.9521062992126
 20
-5.087271653543307
 10
-13.94795669291339
 20
-5.075322834645669
 10
-13.94499212598425
 20
-5.062874015748031
 10
-13.94321653543307
 20
-5.049929133858268
 10
-13.94262204724409
 20
-5.036488188976378
 10
-13.94322834645669
 20
-5.022740157480315
 10
-13.94504724409449
 20
-5.009543307086614
 10
-13.94808267716535
 20
-4.996901574803149
 10
-13.95232677165354
 20
-4.984811023622047
 10
-13.9577874015748
 20
-4.973275590551181
 10
-13.96446062992126
 20
-4.962287401574804
 10
-13.97234645669291
 20
-4.951850393700788
 10
-13.98144488188976
 20
-4.941964566929133
 10
-13.99155511811024
 20
-4.932791338582677
 10
-14.00211417322835
 20
-4.924842519685039
 10
-14.01312204724409
 20
-4.918114173228346
 10
-14.02458267716535
 20
-4.912614173228347
 10
-14.03648818897638
 20
-4.908330708661417
 10
-14.04884645669291
 20
-4.905275590551181
 10
-14.06165748031496
 20
-4.90344094488189
 10
-14.07491338582677
 20
-4.902830708661417
 10
-14.08867716535433
 20
-4.903472440944882
 10
-14.10192913385827
 20
-4.905405511811024
 10
-14.11466929133858
 20
-4.908622047244094
 10
-14.12690157480315
 20
-4.913129921259842
 10
-14.13861417322835
 20
-4.91892125984252
 10
-14.14981889763779
 20
-4.926
 10
-14.16051181102362
 20
-4.934370078740158
 10
-14.17068897637795
 20
-4.944023622047244
 10
-14.17975196850394
 20
-4.95442125984252
 10
-14.18752755905512
 20
-4.965358267716535
 10
-14.19401968503937
 20
-4.976838582677165
 10
-14.19922834645669
 20
-4.988858267716536
 10
-14.20314960629921
 20
-5.001425196850394
 10
-14.20578346456693
 20
-5.014531496062992
 10
-14.20713779527559
 20
-5.028181102362205
 10
-14.20720472440945
 20
-5.042374015748032
 10
-14.16637007874016
 20
-5.042374015748032
 10
-14.1667125984252
 20
-5.033169291338583
 10
-14.16608267716535
 20
-5.024177165354331
 10
-14.1644842519685
 20
-5.015397637795275
 10
-14.16191338582677
 20
-5.006826771653543
 10
-14.15837007874016
 20
-4.998468503937008
 10
-14.15385826771653
 20
-4.990318897637795
 10
-14.14837795275591
 20
-4.982381889763779
 10
-14.14192519685039
 20
-4.974653543307086
 10
-14.13502362204724
 20
-4.967755905511811
 10
-14.12776377952756
 20
-4.961779527559055
 10
-14.12014173228346
 20
-4.956720472440945
 10
-14.11215748031496
 20
-4.952582677165354
 10
-14.1038188976378
 20
-4.949366141732283
 10
-14.09511811023622
 20
-4.947066929133858
 10
-14.08605905511811
 20
-4.945688976377952
 10
-14.07664566929134
 20
-4.945228346456693
 10
-14.06739763779528
 20
-4.945641732283464
 10
-14.05850393700787
 20
-4.946881889763779
 10
-14.04996062992126
 20
-4.948948818897637
 10
-14.04176771653543
 20
-4.951846456692913
 10
-14.03392519685039
 20
-4.955570866141732
 10
-14.02643307086614
 20
-4.960125984251968
 10
-14.01929527559055
 20
-4.965507874015748
 10
-14.01250393700787
 20
-4.971720472440945
 10
-14.00623228346457
 20
-4.97857874015748
 10
-14.00079921259842
 20
-4.985771653543307
 10
-13.99620472440945
 20
-4.993299212598425
 10
-13.99244488188976
 20
-5.001153543307087
 10
-13.98951968503937
 20
-5.009342519685039
 10
-13.98743307086614
 20
-5.017862204724409
 10
-13.9861811023622
 20
-5.026712598425197
 10
-13.98576377952756
 20
-5.035893700787401
 10
-13.98616929133858
 20
-5.045279527559055
 10
-13.98738188976378
 20
-5.054299212598425
 10
-13.98940157480315
 20
-5.062944881889764
 10
-13.99223228346457
 20
-5.071228346456693
 10
-13.99587007874016
 20
-5.079137795275591
 10
-14.0003188976378
 20
-5.086681102362204
 10
-14.00557874015748
 20
-5.093858267716535
 10
-14.01164566929134
 20
-5.100661417322835
 10
-14.21411023622047
 20
-5.309704724409449
  0
LWPOLYLINE
  5
6C
330
1F
100
AcDbEntity
  8
Layer 1
 62
     7
370
     9
100
AcDbPolyline
 90
       88
 70
     1
 43
0.0
 10
-13.70418897637795
 20
-4.955811023622047
 10
-13.69754724409449
 20
-4.960433070866141
 10
-13.69135039370079
 20
-4.965677165354331
 10
-13.6856062992126
 20
-4.971547244094488
 10
-13.68031496062992
 20
-4.978043307086614
 10
-13.67546850393701
 20
-4.985165354330709
 10
-13.67107480314961
 20
-4.992913385826772
 10
-13.66712992125984
 20
-5.001287401574803
 10
-13.66363385826772
 20
-5.010291338582677
 10
-13.65972834645669
 20
-5.022224409448819
 10
-13.65633858267717
 20
-5.034334645669292
 10
-13.65347244094488
 20
-5.046622047244094
 10
-13.65112598425197
 20
-5.059082677165354
 10
-13.6493031496063
 20
-5.071720472440945
 10
-13.64799606299213
 20
-5.084531496062992
 10
-13.6472125984252
 20
-5.097511811023622
 10
-13.64695275590551
 20
-5.110669291338582
 10
-13.64868503937008
 20
-5.139830708661417
 10
-13.65067716535433
 20
-5.155657480314961
 10
-13.65328346456693
 20
-5.170610236220472
 10
-13.6565
 20
-5.184688976377953
 10
-13.66033070866142
 20
-5.197893700787402
 10
-13.66476771653543
 20
-5.210220472440945
 10
-13.66981889763779
 20
-5.221677165354331
 10
-13.67548031496063
 20
-5.232259842519685
 10
-13.68175196850394
 20
-5.241968503937008
 10
-13.68747637795276
 20
-5.249287401574803
 10
-13.69350393700787
 20
-5.255633858267717
 10
-13.69983858267716
 20
-5.261
 10
-13.70648031496063
 20
-5.265389763779527
 10
-13.71342913385827
 20
-5.268803149606299
 10
-13.72068503937008
 20
-5.271244094488189
 10
-13.72824803149606
 20
-5.272704724409449
 10
-13.73611811023622
 20
-5.273192913385826
 10
-13.74488976377953
 20
-5.272708661417322
 10
-13.75324015748031
 20
-5.271259842519685
 10
-13.76117322834646
 20
-5.268842519685039
 10
-13.7686811023622
 20
-5.265456692913386
 10
-13.77577165354331
 20
-5.261106299212599
 10
-13.78243700787402
 20
-5.255791338582677
 10
-13.78868503937008
 20
-5.249511811023622
 10
-13.79450787401575
 20
-5.242267716535433
 10
-13.79931496062992
 20
-5.235133858267717
 10
-13.80369291338583
 20
-5.227562992125984
 10
-13.80764566929134
 20
-5.219543307086614
 10
-13.81117322834646
 20
-5.211078740157481
 10
-13.81428346456693
 20
-5.202334645669291
 10
-13.817
 20
-5.19348031496063
 10
-13.8193188976378
 20
-5.184515748031497
 10
-13.82122834645669
 20
-5.175437007874016
 10
-13.82614173228346
 20
-5.140125984251968
 10
-13.82757480314961
 20
-5.100759842519685
 10
-13.82717716535433
 20
-5.088984251968504
 10
-13.82599212598425
 20
-5.075870078740158
 10
-13.82400787401575
 20
-5.061413385826771
 10
-13.82122834645669
 20
-5.045602362204725
 10
-13.81933464566929
 20
-5.036645669291339
 10
-13.81707480314961
 20
-5.027724409448819
 10
-13.81444881889764
 20
-5.018842519685039
 10
-13.81147244094488
 20
-5.009996062992126
 10
-13.80807086614173
 20
-5.001377952755906
 10
-13.80420472440945
 20
-4.993204724409448
 10
-13.79987007874016
 20
-4.985472440944882
 10
-13.79506692913386
 20
-4.978181102362205
 10
-13.79248818897638
 20
-4.974736220472441
 10
-13.78978346456693
 20
-4.971468503937007
 10
-13.78694881889764
 20
-4.968370078740158
 10
-13.78399212598425
 20
-4.965448818897638
 10
-13.7809094488189
 20
-4.962704724409448
 10
-13.7776968503937
 20
-4.960129921259843
 10
-13.77436220472441
 20
-4.957736220472441
 10
-13.77090157480315
 20
-4.955515748031496
 10
-13.76729527559055
 20
-4.953515748031496
 10
-13.76353149606299
 20
-4.951783464566929
 10
-13.7596062992126
 20
-4.950318897637795
 10
-13.75551968503937
 20
-4.949122047244095
 10
-13.75127165354331
 20
-4.948188976377953
 10
-13.74686220472441
 20
-4.947523622047244
 10
-13.7422874015748
 20
-4.947125984251969
 10
-13.73755511811024
 20
-4.946992125984252
 10
-13.73281496062992
 20
-4.947129921259842
 10
-13.72823622047244
 20
-4.947543307086614
 10
-13.72382283464567
 20
-4.948232283464567
 10
-13.71957480314961
 20
-4.949192913385827
 10
-13.7154842519685
 20
-4.950433070866142
 10
-13.71155905511811
 20
-4.951948818897637
 10
-13.70779133858268
 20
-4.953744094488189
 10
-13.70418897637795
 20
-4.955811023622047
  0
LWPOLYLINE
  5
6D
330
1F
100
AcDbEntity
  8
Layer 1
 62
     7
370
     9
100
AcDbPolyline
 90
       65
 70
     1
 43
0.0
 10
-13.73552362204724
 20
-5.314996062992126
 10
-13.71873622047244
 20
-5.313905511811024
 10
-13.7030157480315
 20
-5.310633858267717
 10
-13.68836614173228
 20
-5.305185039370079
 10
-13.67478346456693
 20
-5.297555118110236
 10
-13.66226771653543
 20
-5.287744094488189
 10
-13.65081889763779
 20
-5.275751968503937
 10
-13.64043700787402
 20
-5.261582677165355
 10
-13.63112598425197
 20
-5.245232283464567
 10
-13.6245905511811
 20
-5.23096062992126
 10
-13.61892519685039
 20
-5.215897637795275
 10
-13.61412992125984
 20
-5.200043307086614
 10
-13.61020866141732
 20
-5.183397637795276
 10
-13.60715748031496
 20
-5.16596062992126
 10
-13.60498031496063
 20
-5.147736220472441
 10
-13.60367322834646
 20
-5.128716535433071
 10
-13.60323622047244
 20
-5.108905511811024
 10
-13.60367322834646
 20
-5.08909842519685
 10
-13.60498031496063
 20
-5.070082677165354
 10
-13.60715748031496
 20
-5.051858267716535
 10
-13.61020866141732
 20
-5.034425196850393
 10
-13.61412992125984
 20
-5.017779527559055
 10
-13.61892519685039
 20
-5.001929133858268
 10
-13.6245905511811
 20
-4.986866141732284
 10
-13.63112598425197
 20
-4.972590551181102
 10
-13.64043700787402
 20
-4.956244094488189
 10
-13.65081889763779
 20
-4.942074803149606
 10
-13.66226771653543
 20
-4.930082677165355
 10
-13.67478346456693
 20
-4.920271653543307
 10
-13.68836614173228
 20
-4.912641732283465
 10
-13.7030157480315
 20
-4.907192913385827
 10
-13.71873622047244
 20
-4.903921259842519
 10
-13.73552362204724
 20
-4.902830708661417
 10
-13.7523188976378
 20
-4.903921259842519
 10
-13.76804330708661
 20
-4.907192913385827
 10
-13.78270078740158
 20
-4.912641732283465
 10
-13.7962874015748
 20
-4.920271653543307
 10
-13.8088031496063
 20
-4.930082677165355
 10
-13.82024803149606
 20
-4.942074803149606
 10
-13.83062204724409
 20
-4.956244094488189
 10
-13.83992519685039
 20
-4.972590551181102
 10
-13.84646850393701
 20
-4.986866141732284
 10
-13.85213779527559
 20
-5.001929133858268
 10
-13.85693307086614
 20
-5.017779527559055
 10
-13.86085826771654
 20
-5.034425196850393
 10
-13.8639094488189
 20
-5.051858267716535
 10
-13.86608661417323
 20
-5.070082677165354
 10
-13.8673937007874
 20
-5.08909842519685
 10
-13.86783070866142
 20
-5.108905511811024
 10
-13.8673937007874
 20
-5.128716535433071
 10
-13.86608661417323
 20
-5.147736220472441
 10
-13.8639094488189
 20
-5.16596062992126
 10
-13.86085826771654
 20
-5.183397637795276
 10
-13.85693307086614
 20
-5.200043307086614
 10
-13.85213779527559
 20
-5.215897637795275
 10
-13.84646850393701
 20
-5.23096062992126
 10
-13.83992519685039
 20
-5.245232283464567
 10
-13.83062204724409
 20
-5.261582677165355
 10
-13.82024803149606
 20
-5.275751968503937
 10
-13.8088031496063
 20
-5.287744094488189
 10
-13.7962874015748
 20
-5.297555118110236
 10
-13.78270078740158
 20
-5.305185039370079
 10
-13.76804330708661
 20
-5.310633858267717
 10
-13.7523188976378
 20
-5.313905511811024
 10
-13.73552362204724
 20
-5.314996062992126
  0
LWPOLYLINE
  5
6E
330
1F
100
AcDbEntity
  8
Layer 1
 62
     7
370
     9
100
AcDbPolyline
 90
      159
 70
     1
 43
0.0
 10
-13.21037007874016
 20
-5.308535433070866
 10
-13.17011417322835
 20
-5.308535433070866
 10
-13.17011417322835
 20
-5.146590551181102
 10
-13.17044094488189
 20
-5.135842519685039
 10
-13.17142519685039
 20
-5.125602362204725
 10
-13.17306299212598
 20
-5.11586220472441
 10
-13.17535826771654
 20
-5.106629921259842
 10
-13.17831102362205
 20
-5.097901574803149
 10
-13.18191732283465
 20
-5.089681102362205
 10
-13.18618110236221
 20
-5.081968503937007
 10
-13.19110236220472
 20
-5.074763779527559
 10
-13.19384645669291
 20
-5.071314960629921
 10
-13.19675984251968
 20
-5.068043307086614
 10
-13.19984645669291
 20
-5.064948818897638
 10
-13.2031062992126
 20
-5.062027559055118
 10
-13.20653543307087
 20
-5.05928346456693
 10
-13.21013779527559
 20
-5.056712598425197
 10
-13.2139094488189
 20
-5.054318897637796
 10
-13.21785433070866
 20
-5.05209842519685
 10
-13.22203937007874
 20
-5.050094488188976
 10
-13.22655118110236
 20
-5.048354330708661
 10
-13.23138582677165
 20
-5.046885826771653
 10
-13.23654330708661
 20
-5.045681102362205
 10
-13.24202362204724
 20
-5.044744094488189
 10
-13.24782677165354
 20
-5.04407874015748
 10
-13.25395275590551
 20
-5.043677165354331
 10
-13.26040157480315
 20
-5.043543307086614
 10
-13.26691732283465
 20
-5.043771653543307
 10
-13.27322440944882
 20
-5.044464566929133
 10
-13.27932283464567
 20
-5.045614173228347
 10
-13.2852125984252
 20
-5.047228346456693
 10
-13.29089763779528
 20
-5.049299212598426
 10
-13.29637401574803
 20
-5.051834645669292
 10
-13.30164173228346
 20
-5.054826771653543
 10
-13.30670866141732
 20
-5.058279527559055
 10
-13.3111062992126
 20
-5.061716535433071
 10
-13.3153031496063
 20
-5.065409448818897
 10
-13.31930708661417
 20
-5.069358267716535
 10
-13.32311023622047
 20
-5.073555118110236
 10
-13.32671653543307
 20
-5.078
 10
-13.33012598425197
 20
-5.082692913385827
 10
-13.33333464566929
 20
-5.087625984251969
 10
-13.33634645669291
 20
-5.092799212598425
 10
-13.34698031496063
 20
-5.074763779527559
 10
-13.34972440944882
 20
-5.071314960629921
 10
-13.35263779527559
 20
-5.068043307086614
 10
-13.35572440944882
 20
-5.064948818897638
 10
-13.3589842519685
 20
-5.062027559055118
 10
-13.36241338582677
 20
-5.05928346456693
 10
-13.36601181102362
 20
-5.056712598425197
 10
-13.36977952755906
 20
-5.054318897637796
 10
-13.37372047244095
 20
-5.05209842519685
 10
-13.37791338582677
 20
-5.050094488188976
 10
-13.38242519685039
 20
-5.048354330708661
 10
-13.38725984251968
 20
-5.046885826771653
 10
-13.39241732283465
 20
-5.045681102362205
 10
-13.39790157480315
 20
-5.044744094488189
 10
-13.40370866141732
 20
-5.04407874015748
 10
-13.40984251968504
 20
-5.043677165354331
 10
-13.41629921259842
 20
-5.043543307086614
 10
-13.42280708661417
 20
-5.043771653543307
 10
-13.4291062992126
 20
-5.044464566929133
 10
-13.43520472440945
 20
-5.045614173228347
 10
-13.44109448818898
 20
-5.047228346456693
 10
-13.44678346456693
 20
-5.049299212598426
 10
-13.45225984251969
 20
-5.051834645669292
 10
-13.45753543307087
 20
-5.054826771653543
 10
-13.46260236220473
 20
-5.058279527559055
 10
-13.46679133858268
 20
-5.061551181102362
 10
-13.47079921259843
 20
-5.065043307086614
 10
-13.47462992125984
 20
-5.068763779527559
 10
-13.47827952755905
 20
-5.072704724409449
 10
-13.48174803149606
 20
-5.076877952755906
 10
-13.48503937007874
 20
-5.081275590551181
 10
-13.48814566929134
 20
-5.08590157480315
 10
-13.49107480314961
 20
-5.090755905511811
 10
-13.49107480314961
 20
-5.049429133858268
 10
-13.53133070866142
 20
-5.049429133858268
 10
-13.53133070866142
 20
-5.308535433070866
 10
-13.49107480314961
 20
-5.308535433070866
 10
-13.49107480314961
 20
-5.175933070866142
 10
-13.49013779527559
 20
-5.168208661417323
 10
-13.48891732283465
 20
-5.160787401574803
 10
-13.48740551181102
 20
-5.153665354330709
 10
-13.48561023622047
 20
-5.146838582677165
 10
-13.48352362204724
 20
-5.140307086614174
 10
-13.48114960629921
 20
-5.134070866141732
 10
-13.47849212598425
 20
-5.128118110236221
 10
-13.47554330708661
 20
-5.122456692913386
 10
-13.47314173228346
 20
-5.118425196850394
 10
-13.47054330708661
 20
-5.11457874015748
 10
-13.46774803149606
 20
-5.110913385826771
 10
-13.46475590551181
 20
-5.107437007874016
 10
-13.46156692913386
 20
-5.104141732283464
 10
-13.45817716535433
 20
-5.101031496062992
 10
-13.45458661417323
 20
-5.098110236220473
 10
-13.45079921259843
 20
-5.095370078740157
 10
-13.44688188976378
 20
-5.092885826771654
 10
-13.4428937007874
 20
-5.090732283464567
 10
-13.43883464566929
 20
-5.088909448818898
 10
-13.43470078740157
 20
-5.08742125984252
 10
-13.43049606299213
 20
-5.086259842519685
 10
-13.42621653543307
 20
-5.085433070866141
 10
-13.42186220472441
 20
-5.084937007874016
 10
-13.41743700787402
 20
-5.084771653543307
 10
-13.41312204724409
 20
-5.084858267716536
 10
-13.40909842519685
 20
-5.085122047244094
 10
-13.40535826771653
 20
-5.08555905511811
 10
-13.4019094488189
 20
-5.086169291338583
 10
-13.39874409448819
 20
-5.086952755905512
 10
-13.39586614173228
 20
-5.087913385826772
 10
-13.39327952755906
 20
-5.089047244094488
 10
-13.39097637795276
 20
-5.090358267716535
 10
-13.38518110236221
 20
-5.094748031496063
 10
-13.38015748031496
 20
-5.099889763779528
 10
-13.37590551181102
 20
-5.105787401574803
 10
-13.37242519685039
 20
-5.112440944881889
 10
-13.36971653543307
 20
-5.119846456692914
 10
-13.36778346456693
 20
-5.128007874015748
 10
-13.36662204724409
 20
-5.13692125984252
 10
-13.36623622047244
 20
-5.146590551181102
 10
-13.36623622047244
 20
-5.308535433070866
 10
-13.32598031496063
 20
-5.308535433070866
 10
-13.32598031496063
 20
-5.146590551181102
 10
-13.32627559055118
 20
-5.136681102362204
 10
-13.31964960629921
 20
-5.122456692913386
 10
-13.31725590551181
 20
-5.118425196850394
 10
-13.31466141732284
 20
-5.11457874015748
 10
-13.31186614173228
 20
-5.110913385826771
 10
-13.30887401574803
 20
-5.107437007874016
 10
-13.3056811023622
 20
-5.104141732283464
 10
-13.30229133858268
 20
-5.101031496062992
 10
-13.29870472440945
 20
-5.098110236220473
 10
-13.29492125984252
 20
-5.095370078740157
 10
-13.29100393700787
 20
-5.092885826771654
 10
-13.28701181102362
 20
-5.090732283464567
 10
-13.28294881889764
 20
-5.088909448818898
 10
-13.27881496062992
 20
-5.08742125984252
 10
-13.27461023622047
 20
-5.086259842519685
 10
-13.27033464566929
 20
-5.085433070866141
 10
-13.26598818897638
 20
-5.084937007874016
 10
-13.26157480314961
 20
-5.084771653543307
 10
-13.25725590551181
 20
-5.084858267716536
 10
-13.25322834645669
 20
-5.085122047244094
 10
-13.24948818897638
 20
-5.08555905511811
 10
-13.24603543307087
 20
-5.086169291338583
 10
-13.24287401574803
 20
-5.086952755905512
 10
-13.24
 20
-5.087913385826772
 10
-13.23741338582677
 20
-5.089047244094488
 10
-13.23511417322835
 20
-5.090358267716535
 10
-13.22931496062992
 20
-5.094748031496063
 10
-13.2242874015748
 20
-5.099889763779528
 10
-13.22003543307087
 20
-5.105787401574803
 10
-13.21655511811024
 20
-5.112440944881889
 10
-13.21385039370079
 20
-5.119846456692914
 10
-13.21191732283465
 20
-5.128007874015748
 10
-13.21075590551181
 20
-5.13692125984252
 10
-13.21037007874016
 20
-5.146590551181102
 10
-13.21037007874016
 20
-5.308535433070866
  0
LWPOLYLINE
  5
6F
330
1F
100
AcDbEntity
  8
Layer 1
 62
     7
370
     9
100
AcDbPolyline
 90
      159
 70
     1
 43
0.0
 10
-12.7715
 20
-5.308535433070866
 10
-12.73122440944882
 20
-5.308535433070866
 10
-12.73122440944882
 20
-5.146590551181102
 10
-12.73155118110236
 20
-5.135842519685039
 10
-12.73253937007874
 20
-5.125602362204725
 10
-12.73417716535433
 20
-5.11586220472441
 10
-12.73647637795276
 20
-5.106629921259842
 10
-12.73942913385827
 20
-5.097901574803149
 10
-12.74303543307087
 20
-5.089681102362205
 10
-12.74729527559055
 20
-5.081968503937007
 10
-12.7522125984252
 20
-5.074763779527559
 10
-12.75495669291339
 20
-5.071314960629921
 10
-12.75787401574803
 20
-5.068043307086614
 10
-12.76096062992126
 20
-5.064948818897638
 10
-12.76422047244094
 20
-5.062027559055118
 10
-12.76765354330709
 20
-5.05928346456693
 10
-12.77125196850394
 20
-5.056712598425197
 10
-12.77502362204724
 20
-5.054318897637796
 10
-12.77896456692913
 20
-5.05209842519685
 10
-12.78315354330709
 20
-5.050094488188976
 10
-12.78766535433071
 20
-5.048354330708661
 10
-12.7925
 20
-5.046885826771653
 10
-12.79766141732283
 20
-5.045681102362205
 10
-12.80314566929134
 20
-5.044744094488189
 10
-12.80895275590551
 20
-5.04407874015748
 10
-12.81507874015748
 20
-5.043677165354331
 10
-12.82152755905512
 20
-5.043543307086614
 10
-12.82804330708661
 20
-5.043771653543307
 10
-12.83435039370079
 20
-5.044464566929133
 10
-12.84044881889764
 20
-5.045614173228347
 10
-12.84633858267716
 20
-5.047228346456693
 10
-12.85202362204724
 20
-5.049299212598426
 10
-12.8575
 20
-5.051834645669292
 10
-12.86276771653543
 20
-5.054826771653543
 10
-12.86783464566929
 20
-5.058279527559055
 10
-12.87222834645669
 20
-5.061716535433071
 10
-12.87642913385827
 20
-5.065409448818897
 10
-12.88042913385827
 20
-5.069358267716535
 10
-12.88423228346457
 20
-5.073555118110236
 10
-12.88783858267717
 20
-5.078
 10
-12.89124803149606
 20
-5.082692913385827
 10
-12.89446062992126
 20
-5.087625984251969
 10
-12.89747637795276
 20
-5.092799212598425
 10
-12.9081062992126
 20
-5.074763779527559
 10
-12.91085039370079
 20
-5.071314960629921
 10
-12.91376771653543
 20
-5.068043307086614
 10
-12.91685433070866
 20
-5.064948818897638
 10
-12.92011023622047
 20
-5.062027559055118
 10
-12.92353937007874
 20
-5.05928346456693
 10
-12.92713779527559
 20
-5.056712598425197
 10
-12.93090551181102
 20
-5.054318897637796
 10
-12.93484645669291
 20
-5.05209842519685
 10
-12.93903937007874
 20
-5.050094488188976
 10
-12.94355118110236
 20
-5.048354330708661
 10
-12.94838582677165
 20
-5.046885826771653
 10
-12.95354724409449
 20
-5.045681102362205
 10
-12.95902755905512
 20
-5.044744094488189
 10
-12.96483464566929
 20
-5.04407874015748
 10
-12.97096850393701
 20
-5.043677165354331
 10
-12.97742519685039
 20
-5.043543307086614
 10
-12.98393307086614
 20
-5.043771653543307
 10
-12.99023228346457
 20
-5.044464566929133
 10
-12.99633070866142
 20
-5.045614173228347
 10
-13.00222047244094
 20
-5.047228346456693
 10
-13.00790551181102
 20
-5.049299212598426
 10
-13.01338188976378
 20
-5.051834645669292
 10
-13.01865354330709
 20
-5.054826771653543
 10
-13.02371653543307
 20
-5.058279527559055
 10
-13.02790551181102
 20
-5.061551181102362
 10
-13.03191338582677
 20
-5.065043307086614
 10
-13.03574015748032
 20
-5.068763779527559
 10
-13.0393937007874
 20
-5.072704724409449
 10
-13.04286220472441
 20
-5.076877952755906
 10
-13.04615354330709
 20
-5.081275590551181
 10
-13.04926771653543
 20
-5.08590157480315
 10
-13.05220078740157
 20
-5.090755905511811
 10
-13.05220078740157
 20
-5.049429133858268
 10
-13.09245669291339
 20
-5.049429133858268
 10
-13.09245669291339
 20
-5.308535433070866
 10
-13.05220078740157
 20
-5.308535433070866
 10
-13.05220078740157
 20
-5.175933070866142
 10
-13.05126377952756
 20
-5.168208661417323
 10
-13.05004330708661
 20
-5.160787401574803
 10
-13.04853149606299
 20
-5.153665354330709
 10
-13.04673228346457
 20
-5.146838582677165
 10
-13.04464566929134
 20
-5.140307086614174
 10
-13.04227165354331
 20
-5.134070866141732
 10
-13.0396062992126
 20
-5.128118110236221
 10
-13.03665354330709
 20
-5.122456692913386
 10
-13.03425590551181
 20
-5.118425196850394
 10
-13.03166141732283
 20
-5.11457874015748
 10
-13.02886614173228
 20
-5.110913385826771
 10
-13.02587401574803
 20
-5.107437007874016
 10
-13.02268503937008
 20
-5.104141732283464
 10
-13.01929527559055
 20
-5.101031496062992
 10
-13.0157125984252
 20
-5.098110236220473
 10
-13.01192913385827
 20
-5.095370078740157
 10
-13.00801181102362
 20
-5.092885826771654
 10
-13.00401968503937
 20
-5.090732283464567
 10
-12.99995669291339
 20
-5.088909448818898
 10
-12.9958188976378
 20
-5.08742125984252
 10
-12.99161417322835
 20
-5.086259842519685
 10
-12.98733464566929
 20
-5.085433070866141
 10
-12.9829842519685
 20
-5.084937007874016
 10
-12.97856299212599
 20
-5.084771653543307
 10
-12.97424409448819
 20
-5.084858267716536
 10
-12.97021653543307
 20
-5.085122047244094
 10
-12.96648031496063
 20
-5.08555905511811
 10
-12.96302755905512
 20
-5.086169291338583
 10
-12.95986614173228
 20
-5.086952755905512
 10
-12.95699212598425
 20
-5.087913385826772
 10
-12.95440551181102
 20
-5.089047244094488
 10
-12.9521062992126
 20
-5.090358267716535
 10
-12.94631102362205
 20
-5.094748031496063
 10
-12.9412874015748
 20
-5.099889763779528
 10
-12.93703149606299
 20
-5.105787401574803
 10
-12.93355118110236
 20
-5.112440944881889
 10
-12.93084645669291
 20
-5.119846456692914
 10
-12.9289094488189
 20
-5.128007874015748
 10
-12.92774803149606
 20
-5.13692125984252
 10
-12.92736220472441
 20
-5.146590551181102
 10
-12.92736220472441
 20
-5.308535433070866
 10
-12.8871062992126
 20
-5.308535433070866
 10
-12.8871062992126
 20
-5.146590551181102
 10
-12.88740157480315
 20
-5.136681102362204
 10
-12.88077559055118
 20
-5.122456692913386
 10
-12.8783779527559
 20
-5.118425196850394
 10
-12.87577952755906
 20
-5.11457874015748
 10
-12.8729842519685
 20
-5.110913385826771
 10
-12.86999606299213
 20
-5.107437007874016
 10
-12.8668031496063
 20
-5.104141732283464
 10
-12.86341732283465
 20
-5.101031496062992
 10
-12.85983070866142
 20
-5.098110236220473
 10
-12.85604724409449
 20
-5.095370078740157
 10
-12.85212992125984
 20
-5.092885826771654
 10
-12.84813779527559
 20
-5.090732283464567
 10
-12.84407480314961
 20
-5.088909448818898
 10
-12.83994094488189
 20
-5.08742125984252
 10
-12.83573228346457
 20
-5.086259842519685
 10
-12.83145669291339
 20
-5.085433070866141
 10
-12.8271062992126
 20
-5.084937007874016
 10
-12.82268503937008
 20
-5.084771653543307
 10
-12.81837007874016
 20
-5.084858267716536
 10
-12.81434645669291
 20
-5.085122047244094
 10
-12.8106062992126
 20
-5.08555905511811
 10
-12.80715748031496
 20
-5.086169291338583
 10
-12.80399212598425
 20
-5.086952755905512
 10
-12.80111417322835
 20
-5.087913385826772
 10
-12.79852755905512
 20
-5.089047244094488
 10
-12.79622440944882
 20
-5.090358267716535
 10
-12.79042913385827
 20
-5.094748031496063
 10
-12.78540551181102
 20
-5.099889763779528
 10
-12.78115748031496
 20
-5.105787401574803
 10
-12.77768110236221
 20
-5.112440944881889
 10
-12.77497637795276
 20
-5.119846456692914
 10
-12.77304330708661
 20
-5.128007874015748
 10
-12.77188582677165
 20
-5.13692125984252
 10
-12.7715
 20
-5.146590551181102
 10
-12.7715
 20
-5.308535433070866
  0
LWPOLYLINE
  5
70
330
1F
100
AcDbEntity
  8
Layer 1
 62
     7
370
    18
100
AcDbPolyline
 90
        4
 70
     1
 43
0.0
 10
-18.61455905511811
 20
-4.877259842519685
 10
-18.58583070866142
 20
-4.88798031496063
 10
-18.59215748031496
 20
-4.857976377952756
 10
-18.61455905511811
 20
-4.877259842519685
  0
LWPOLYLINE
  5
71
330
1F
100
AcDbEntity
  8
Layer 1
 62
     7
370
    18
100
AcDbPolyline
 90
        4
 70
     1
 43
0.0
 10
-20.18517716535433
 20
-3.052610236220473
 10
-20.19150393700787
 20
-3.022606299212598
 10
-20.16277559055118
 20
-3.033326771653543
 10
-20.18517716535433
 20
-3.052610236220473
  0
LWPOLYLINE
  5
72
330
1F
100
AcDbEntity
  8
Layer 1
 62
     7
370
    18
100
AcDbPolyline
 90
        2
 70
     0
 43
0.0
 10
-18.57879527559055
 20
-4.893740157480315
 10
-20.19615354330709
 20
-3.014791338582677
  0
LWPOLYLINE
  5
73
330
1F
100
AcDbEntity
  8
Layer 1
 62
     7
370
     9
100
AcDbPolyline
 90
       65
 70
     1
 43
0.0
 10
-20.78278346456693
 20
-4.246751968503937
 10
-20.77425196850394
 20
-4.247122047244095
 10
-20.76605511811024
 20
-4.248228346456693
 10
-20.75818503937008
 20
-4.250070866141733
 10
-20.75065354330709
 20
-4.252653543307087
 10
-20.74344881889764
 20
-4.255972440944882
 10
-20.73657874015748
 20
-4.260027559055118
 10
-20.73003937007874
 20
-4.26482283464567
 10
-20.72383464566929
 20
-4.270358267716535
 10
-20.71823622047244
 20
-4.276354330708662
 10
-20.71338582677165
 20
-4.282692913385826
 10
-20.70927952755905
 20
-4.289374015748032
 10
-20.70592125984252
 20
-4.296393700787402
 10
-20.70330708661417
 20
-4.303759842519685
 10
-20.70144094488189
 20
-4.311464566929134
 10
-20.70032283464567
 20
-4.319515748031496
 10
-20.69994881889764
 20
-4.327905511811023
 10
-20.7003188976378
 20
-4.336224409448818
 10
-20.70142125984252
 20
-4.344263779527559
 10
-20.70326377952756
 20
-4.352023622047244
 10
-20.70584645669291
 20
-4.359507874015748
 10
-20.70916141732284
 20
-4.366708661417323
 10
-20.71321653543307
 20
-4.373633858267716
 10
-20.71800787401575
 20
-4.380275590551181
 10
-20.72353543307086
 20
-4.386641732283465
 10
-20.7295905511811
 20
-4.392444881889764
 10
-20.73603149606299
 20
-4.397472440944882
 10
-20.74285826771654
 20
-4.401724409448819
 10
-20.75007086614173
 20
-4.405204724409449
 10
-20.75766929133858
 20
-4.407909448818898
 10
-20.76565354330709
 20
-4.409838582677166
 10
-20.77402362204725
 20
-4.411
 10
-20.78278346456693
 20
-4.411385826771654
 10
-20.79154724409449
 20
-4.411
 10
-20.79992125984252
 20
-4.409838582677166
 10
-20.8079094488189
 20
-4.407909448818898
 10
-20.81551181102362
 20
-4.405204724409449
 10
-20.82272440944882
 20
-4.401724409448819
 10
-20.82955118110236
 20
-4.397472440944882
 10
-20.83599212598425
 20
-4.392444881889764
 10
-20.84204724409449
 20
-4.386641732283465
 10
-20.84757086614173
 20
-4.380275590551181
 10
-20.85235826771654
 20
-4.373633858267716
 10
-20.8564094488189
 20
-4.366708661417323
 10
-20.85972440944882
 20
-4.359507874015748
 10
-20.8623031496063
 20
-4.352023622047244
 10
-20.86414566929134
 20
-4.344263779527559
 10
-20.86524803149606
 20
-4.336224409448818
 10
-20.86561811023622
 20
-4.327905511811023
 10
-20.86524409448819
 20
-4.319515748031496
 10
-20.86412598425197
 20
-4.311464566929134
 10
-20.86226377952756
 20
-4.303759842519685
 10
-20.85965354330709
 20
-4.296393700787402
 10
-20.85629921259843
 20
-4.289374015748032
 10
-20.8521968503937
 20
-4.282692913385826
 10
-20.84734645669291
 20
-4.276354330708662
 10
-20.84174803149606
 20
-4.270358267716535
 10
-20.83554330708661
 20
-4.26482283464567
 10
-20.82900393700787
 20
-4.260027559055118
 10
-20.82213385826772
 20
-4.255972440944882
 10
-20.81492913385827
 20
-4.252653543307087
 10
-20.8073937007874
 20
-4.250070866141733
 10
-20.79952362204724
 20
-4.248228346456693
 10
-20.79131889763779
 20
-4.247122047244095
 10
-20.78278346456693
 20
-4.246751968503937
  0
LWPOLYLINE
  5
74
330
1F
100
AcDbEntity
  8
Layer 1
 62
     7
370
     9
100
AcDbPolyline
 90
       65
 70
     1
 43
0.0
 10
-20.78278346456693
 20
-4.087858267716536
 10
-20.77590551181102
 20
-4.088145669291339
 10
-20.7692874015748
 20
-4.089007874015748
 10
-20.76292913385827
 20
-4.090444881889764
 10
-20.75683070866142
 20
-4.09246062992126
 10
-20.75099212598425
 20
-4.095047244094488
 10
-20.74541732283464
 20
-4.098212598425197
 10
-20.74009842519685
 20
-4.101952755905512
 10
-20.73504330708661
 20
-4.106271653543307
 10
-20.73032677165354
 20
-4.111125984251968
 10
-20.72624015748032
 20
-4.116255905511811
 10
-20.72277952755906
 20
-4.121669291338582
 10
-20.71994881889764
 20
-4.127358267716535
 10
-20.71774803149606
 20
-4.13332283464567
 10
-20.71617716535433
 20
-4.139570866141733
 10
-20.71523228346457
 20
-4.14609842519685
 10
-20.71491732283464
 20
-4.152905511811023
 10
-20.71523228346457
 20
-4.159562992125984
 10
-20.71617716535433
 20
-4.166
 10
-20.71774803149606
 20
-4.172224409448819
 10
-20.71994881889764
 20
-4.178236220472441
 10
-20.72277952755906
 20
-4.184027559055118
 10
-20.72624015748032
 20
-4.189602362204725
 10
-20.73032677165354
 20
-4.19496062992126
 10
-20.73504330708661
 20
-4.200102362204724
 10
-20.74006692913386
 20
-4.204692913385827
 10
-20.74536220472441
 20
-4.208669291338583
 10
-20.75092519685039
 20
-4.212035433070866
 10
-20.75675590551181
 20
-4.214791338582677
 10
-20.76285826771653
 20
-4.216933070866141
 10
-20.76922834645669
 20
-4.218460629921259
 10
-20.77587007874016
 20
-4.219377952755906
 10
-20.78278346456693
 20
-4.219685039370079
 10
-20.7896968503937
 20
-4.219377952755906
 10
-20.79633858267717
 20
-4.218460629921259
 10
-20.8027125984252
 20
-4.216933070866141
 10
-20.8088188976378
 20
-4.214791338582677
 10
-20.81465354330709
 20
-4.212035433070866
 10
-20.82022047244094
 20
-4.208669291338583
 10
-20.8255157480315
 20
-4.204692913385827
 10
-20.83053937007874
 20
-4.200102362204724
 10
-20.83525590551181
 20
-4.19496062992126
 10
-20.83934645669291
 20
-4.189602362204725
 10
-20.8428031496063
 20
-4.184027559055118
 10
-20.84563779527559
 20
-4.178236220472441
 10
-20.84783858267717
 20
-4.172224409448819
 10
-20.8494094488189
 20
-4.166
 10
-20.85035433070866
 20
-4.159562992125984
 10
-20.85066929133858
 20
-4.152905511811023
 10
-20.85035433070866
 20
-4.14609842519685
 10
-20.8494094488189
 20
-4.139570866141733
 10
-20.84783858267717
 20
-4.13332283464567
 10
-20.84563779527559
 20
-4.127358267716535
 10
-20.8428031496063
 20
-4.121669291338582
 10
-20.83934645669291
 20
-4.116255905511811
 10
-20.83525590551181
 20
-4.111125984251968
 10
-20.83053937007874
 20
-4.106271653543307
 10
-20.82548031496063
 20
-4.101952755905512
 10
-20.82016535433071
 20
-4.098212598425197
 10
-20.81458267716535
 20
-4.095047244094488
 10
-20.80874409448819
 20
-4.09246062992126
 10
-20.80264566929134
 20
-4.090444881889764
 10
-20.79628346456693
 20
-4.089007874015748
 10
-20.78966535433071
 20
-4.088145669291339
 10
-20.78278346456693
 20
-4.087858267716536
  0
LWPOLYLINE
  5
75
330
1F
100
AcDbEntity
  8
Layer 1
 62
     7
370
     9
100
AcDbPolyline
 90
      121
 70
     1
 43
0.0
 10
-20.78278346456693
 20
-4.451692913385827
 10
-20.76960236220473
 20
-4.451192913385826
 10
-20.75695275590551
 20
-4.449696850393701
 10
-20.74483070866142
 20
-4.447200787401575
 10
-20.73324409448819
 20
-4.443704724409449
 10
-20.7221811023622
 20
-4.439212598425197
 10
-20.71165354330709
 20
-4.433720472440945
 10
-20.70165354330708
 20
-4.427232283464567
 10
-20.69218503937008
 20
-4.419744094488189
 10
-20.68791732283465
 20
-4.415830708661417
 10
-20.68388582677165
 20
-4.411720472440945
 10
-20.68008661417323
 20
-4.407409448818898
 10
-20.67651968503937
 20
-4.402905511811023
 10
-20.67318503937008
 20
-4.398200787401575
 10
-20.67008661417323
 20
-4.393299212598425
 10
-20.66722047244095
 20
-4.388200787401574
 10
-20.66458661417323
 20
-4.382901574803149
 10
-20.66222834645669
 20
-4.37740157480315
 10
-20.66018503937008
 20
-4.371700787401575
 10
-20.65845669291339
 20
-4.365807086614173
 10
-20.65704330708661
 20
-4.359720472440945
 10
-20.65594488188976
 20
-4.353433070866142
 10
-20.65515748031496
 20
-4.346952755905511
 10
-20.65468897637795
 20
-4.340271653543307
 10
-20.65453149606299
 20
-4.333397637795276
 10
-20.65479527559055
 20
-4.326425196850393
 10
-20.6555905511811
 20
-4.319472440944882
 10
-20.65691732283464
 20
-4.312535433070866
 10
-20.65877165354331
 20
-4.30561811023622
 10
-20.66115748031496
 20
-4.298716535433071
 10
-20.66407480314961
 20
-4.291834645669291
 10
-20.66751968503937
 20
-4.284968503937008
 10
-20.67149606299213
 20
-4.278122047244095
 10
-20.67596062992126
 20
-4.27144094488189
 10
-20.68088582677165
 20
-4.265074803149607
 10
-20.68627165354331
 20
-4.259023622047244
 10
-20.69211417322835
 20
-4.253287401574803
 10
-20.69842125984252
 20
-4.247866141732284
 10
-20.70518503937008
 20
-4.242759842519685
 10
-20.7124094488189
 20
-4.237972440944882
 10
-20.7200905511811
 20
-4.2335
 10
-20.70916929133858
 20
-4.223755905511811
 10
-20.69970472440945
 20
-4.213807086614173
 10
-20.6916968503937
 20
-4.203645669291339
 10
-20.68514960629921
 20
-4.193275590551181
 10
-20.68005511811024
 20
-4.182700787401575
 10
-20.67641732283465
 20
-4.171921259842519
 10
-20.67423622047244
 20
-4.160933070866141
 10
-20.67350787401575
 20
-4.149740157480315
 10
-20.67400787401575
 20
-4.138700787401575
 10
-20.6755
 20
-4.128173228346457
 10
-20.67799212598425
 20
-4.11815748031496
 10
-20.6814842519685
 20
-4.108653543307087
 10
-20.68597244094488
 20
-4.099661417322834
 10
-20.69145669291338
 20
-4.091181102362205
 10
-20.69794094488189
 20
-4.083220472440945
 10
-20.70542125984252
 20
-4.075771653543307
 10
-20.71333070866142
 20
-4.069291338582677
 10
-20.72174409448819
 20
-4.06367716535433
 10
-20.73066141732284
 20
-4.058925196850394
 10
-20.74007874015748
 20
-4.05503937007874
 10
-20.75
 20
-4.052015748031496
 10
-20.7604251968504
 20
-4.049858267716536
 10
-20.77135039370079
 20
-4.048562992125984
 10
-20.78278346456693
 20
-4.048129921259843
 10
-20.79422047244094
 20
-4.048562992125984
 10
-20.80515354330709
 20
-4.049858267716536
 10
-20.81558267716536
 20
-4.052015748031496
 10
-20.82550393700787
 20
-4.05503937007874
 10
-20.83492519685039
 20
-4.058925196850394
 10
-20.84383858267717
 20
-4.06367716535433
 10
-20.85225196850394
 20
-4.069291338582677
 10
-20.86016141732284
 20
-4.075771653543307
 10
-20.86763779527559
 20
-4.083216535433071
 10
-20.87412204724409
 20
-4.091165354330709
 10
-20.8796062992126
 20
-4.099618110236221
 10
-20.88409448818897
 20
-4.108578740157481
 10
-20.88758661417323
 20
-4.118043307086614
 10
-20.89008267716535
 20
-4.128011811023622
 10
-20.89157874015748
 20
-4.138484251968504
 10
-20.89207874015748
 20
-4.14946062992126
 10
-20.89135039370079
 20
-4.160716535433071
 10
-20.88916535433071
 20
-4.171759842519685
 10
-20.88552362204724
 20
-4.182590551181103
 10
-20.88042519685039
 20
-4.193204724409449
 10
-20.87387401574803
 20
-4.203602362204724
 10
-20.86586614173228
 20
-4.213787401574804
 10
-20.85640551181102
 20
-4.223751968503937
 10
-20.84549212598425
 20
-4.2335
 10
-20.85317322834646
 20
-4.237972440944882
 10
-20.8603937007874
 20
-4.242759842519685
 10
-20.86715354330709
 20
-4.247866141732284
 10
-20.87345669291339
 20
-4.253287401574803
 10
-20.87929921259843
 20
-4.259023622047244
 10
-20.88468503937008
 20
-4.265074803149607
 10
-20.88961417322835
 20
-4.27144094488189
 10
-20.89408661417323
 20
-4.278122047244095
 10
-20.89806299212598
 20
-4.28498031496063
 10
-20.90150787401575
 20
-4.291885826771654
 10
-20.90442519685039
 20
-4.298834645669292
 10
-20.90681102362205
 20
-4.305830708661417
 10
-20.90866535433071
 20
-4.312870078740158
 10
-20.90999212598425
 20
-4.319952755905512
 10
-20.9107874015748
 20
-4.327082677165355
 10
-20.91105118110236
 20
-4.334255905511811
 10
-20.91046062992126
 20
-4.347114173228347
 10
-20.9086968503937
 20
-4.359350393700788
 10
-20.90575196850394
 20
-4.370968503937008
 10
-20.90162992125984
 20
-4.381964566929134
 10
-20.89633464566929
 20
-4.392338582677166
 10
-20.88985826771654
 20
-4.402094488188976
 10
-20.88220866141732
 20
-4.411232283464567
 10
-20.87338188976378
 20
-4.419744094488189
 10
-20.86391732283465
 20
-4.427232283464567
 10
-20.85392125984252
 20
-4.433720472440945
 10
-20.8433937007874
 20
-4.439212598425197
 10
-20.83233464566929
 20
-4.443704724409449
 10
-20.82074409448819
 20
-4.447200787401575
 10
-20.80862204724409
 20
-4.449696850393701
 10
-20.79596850393701
 20
-4.451192913385826
 10
-20.78278346456693
 20
-4.451692913385827
  0
LWPOLYLINE
  5
76
330
1F
100
AcDbEntity
  8
Layer 1
 62
     7
370
     9
100
AcDbPolyline
 90
       88
 70
     1
 43
0.0
 10
-20.43911023622047
 20
-4.099956692913386
 10
-20.43246850393701
 20
-4.104468503937007
 10
-20.42627559055118
 20
-4.109590551181102
 10
-20.42053149606299
 20
-4.115326771653543
 10
-20.41523622047244
 20
-4.121677165354331
 10
-20.4103937007874
 20
-4.128637795275591
 10
-20.406
 20
-4.136208661417323
 10
-20.40205511811024
 20
-4.144389763779528
 10
-20.39855905511811
 20
-4.153185039370078
 10
-20.39464566929134
 20
-4.164862204724409
 10
-20.39125590551181
 20
-4.176704724409449
 10
-20.38838976377953
 20
-4.188716535433071
 10
-20.38604330708661
 20
-4.20090157480315
 10
-20.38422047244094
 20
-4.213255905511811
 10
-20.38291732283465
 20
-4.225783464566929
 10
-20.38213385826772
 20
-4.23848031496063
 10
-20.38187401574803
 20
-4.251350393700787
 10
-20.3836062992126
 20
-4.279854330708662
 10
-20.38559842519685
 20
-4.295326771653543
 10
-20.38820472440945
 20
-4.309944881889764
 10
-20.39142125984252
 20
-4.323712598425197
 10
-20.39525196850394
 20
-4.336625984251969
 10
-20.39968897637795
 20
-4.348685039370078
 10
-20.40474015748032
 20
-4.359889763779528
 10
-20.41040157480315
 20
-4.370240157480315
 10
-20.41667322834646
 20
-4.379736220472441
 10
-20.42240157480315
 20
-4.386885826771653
 10
-20.42843307086614
 20
-4.393082677165355
 10
-20.43477165354331
 20
-4.398326771653544
 10
-20.44141732283465
 20
-4.402614173228346
 10
-20.44836220472441
 20
-4.405948818897638
 10
-20.45561811023622
 20
-4.408326771653543
 10
-20.46317716535433
 20
-4.409755905511811
 10
-20.47103937007874
 20
-4.410232283464567
 10
-20.47981102362205
 20
-4.409759842519685
 10
-20.48816141732284
 20
-4.408346456692914
 10
-20.49609448818898
 20
-4.405988188976378
 10
-20.50360236220472
 20
-4.402685039370079
 10
-20.51068897637795
 20
-4.398437007874016
 10
-20.51735433070866
 20
-4.393244094488189
 10
-20.52359448818898
 20
-4.387102362204724
 10
-20.52941338582677
 20
-4.380015748031496
 10
-20.53422834645669
 20
-4.373035433070866
 10
-20.53861417322835
 20
-4.365625984251968
 10
-20.54256692913386
 20
-4.357779527559055
 10
-20.54609448818898
 20
-4.349503937007874
 10
-20.54920078740157
 20
-4.340964566929133
 10
-20.55191732283464
 20
-4.332311023622047
 10
-20.55424015748032
 20
-4.323551181102363
 10
-20.55616929133858
 20
-4.314685039370079
 10
-20.56104724409449
 20
-4.280133858267717
 10
-20.56248031496063
 20
-4.24165748031496
 10
-20.56208661417323
 20
-4.230149606299213
 10
-20.5609094488189
 20
-4.217330708661417
 10
-20.55893700787401
 20
-4.203196850393701
 10
-20.55616929133858
 20
-4.187736220472441
 10
-20.55425590551181
 20
-4.178976377952756
 10
-20.55198818897638
 20
-4.170255905511811
 10
-20.54935826771653
 20
-4.161562992125984
 10
-20.54637401574803
 20
-4.152905511811023
 10
-20.54298031496063
 20
-4.144488188976378
 10
-20.53911811023622
 20
-4.136503937007874
 10
-20.5347874015748
 20
-4.128948818897638
 10
-20.52998818897638
 20
-4.121830708661418
 10
-20.5274094488189
 20
-4.118456692913385
 10
-20.52470472440945
 20
-4.115251968503937
 10
-20.52187007874016
 20
-4.112224409448819
 10
-20.51891338582677
 20
-4.109366141732283
 10
-20.51583070866142
 20
-4.106681102362205
 10
-20.51261811023622
 20
-4.104169291338582
 10
-20.50928346456693
 20
-4.101830708661417
 10
-20.50582283464567
 20
-4.099661417322834
 10
-20.50221653543307
 20
-4.097700787401575
 10
-20.49845275590551
 20
-4.096003937007874
 10
-20.49452755905512
 20
-4.094566929133858
 10
-20.49044094488189
 20
-4.093393700787401
 10
-20.48619291338583
 20
-4.092476377952756
 10
-20.48178346456693
 20
-4.091826771653543
 10
-20.47720866141732
 20
-4.091433070866142
 10
-20.47247637795276
 20
-4.091303149606299
 10
-20.46774015748031
 20
-4.091437007874016
 10
-20.46316535433071
 20
-4.09184251968504
 10
-20.45875196850394
 20
-4.09251968503937
 10
-20.4545
 20
-4.093464566929134
 10
-20.4504094488189
 20
-4.094681102362205
 10
-20.4464842519685
 20
-4.096169291338582
 10
-20.44271653543307
 20
-4.097929133858267
 10
-20.43911023622047
 20
-4.099956692913386
  0
LWPOLYLINE
  5
77
330
1F
100
AcDbEntity
  8
Layer 1
 62
     7
370
     9
100
AcDbPolyline
 90
       65
 70
     1
 43
0.0
 10
-20.47046456692913
 20
-4.451114173228347
 10
-20.45366929133858
 20
-4.450047244094488
 10
-20.43794881889764
 20
-4.446850393700787
 10
-20.42329133858268
 20
-4.441523622047244
 10
-20.40970866141732
 20
-4.434062992125984
 10
-20.39718897637795
 20
-4.424472440944882
 10
-20.38574015748031
 20
-4.412748031496063
 10
-20.37536220472441
 20
-4.398889763779527
 10
-20.36605118110236
 20
-4.382901574803149
 10
-20.35951181102362
 20
-4.368944881889764
 10
-20.35384645669291
 20
-4.354216535433071
 10
-20.34905118110236
 20
-4.338716535433071
 10
-20.34512992125984
 20
-4.322444881889764
 10
-20.34207874015748
 20
-4.305397637795275
 10
-20.33990157480315
 20
-4.28757874015748
 10
-20.33859448818898
 20
-4.268988188976378
 10
-20.33815748031496
 20
-4.249622047244094
 10
-20.33859448818898
 20
-4.230251968503937
 10
-20.33990157480315
 20
-4.211657480314961
 10
-20.34207874015748
 20
-4.193838582677166
 10
-20.34512992125984
 20
-4.176795275590552
 10
-20.34905118110236
 20
-4.160523622047244
 10
-20.35384645669291
 20
-4.145023622047244
 10
-20.35951181102362
 20
-4.130299212598425
 10
-20.36605118110236
 20
-4.116342519685039
 10
-20.37536220472441
 20
-4.100354330708662
 10
-20.38574015748031
 20
-4.086496062992126
 10
-20.39718897637795
 20
-4.074771653543307
 10
-20.40970866141732
 20
-4.065181102362205
 10
-20.42329133858268
 20
-4.057720472440945
 10
-20.43794881889764
 20
-4.052393700787402
 10
-20.45366929133858
 20
-4.049196850393701
 10
-20.47046456692913
 20
-4.048129921259843
 10
-20.48725196850394
 20
-4.049196850393701
 10
-20.50297244094488
 20
-4.052393700787402
 10
-20.51762598425197
 20
-4.057720472440945
 10
-20.5312125984252
 20
-4.065181102362205
 10
-20.54372834645669
 20
-4.074771653543307
 10
-20.55517716535433
 20
-4.086496062992126
 10
-20.56555511811024
 20
-4.100354330708662
 10
-20.57486220472441
 20
-4.116342519685039
 10
-20.58139763779528
 20
-4.130299212598425
 10
-20.58706299212598
 20
-4.145023622047244
 10
-20.59185826771654
 20
-4.160523622047244
 10
-20.59577952755906
 20
-4.176795275590552
 10
-20.59883070866142
 20
-4.193838582677166
 10
-20.60100787401575
 20
-4.211657480314961
 10
-20.60231496062992
 20
-4.230251968503937
 10
-20.60275196850394
 20
-4.249622047244094
 10
-20.60231496062992
 20
-4.268988188976378
 10
-20.60100787401575
 20
-4.28757874015748
 10
-20.59883070866142
 20
-4.305397637795275
 10
-20.59577952755906
 20
-4.322444881889764
 10
-20.59185826771654
 20
-4.338716535433071
 10
-20.58706299212598
 20
-4.354216535433071
 10
-20.58139763779528
 20
-4.368944881889764
 10
-20.57486220472441
 20
-4.382901574803149
 10
-20.56555511811024
 20
-4.398889763779527
 10
-20.55517716535433
 20
-4.412748031496063
 10
-20.54372834645669
 20
-4.424472440944882
 10
-20.5312125984252
 20
-4.434062992125984
 10
-20.51762598425197
 20
-4.441523622047244
 10
-20.50297244094488
 20
-4.446850393700787
 10
-20.48725196850394
 20
-4.450047244094488
 10
-20.47046456692913
 20
-4.451114173228347
  0
LWPOLYLINE
  5
78
330
1F
100
AcDbEntity
  8
Layer 1
 62
     7
370
     9
100
AcDbPolyline
 90
      155
 70
     1
 43
0.0
 10
-19.94529133858268
 20
-4.444783464566929
 10
-19.90501968503937
 20
-4.444783464566929
 10
-19.90501968503937
 20
-4.286464566929133
 10
-19.90534645669291
 20
-4.275956692913386
 10
-19.90633464566929
 20
-4.26594094488189
 10
-19.90797637795276
 20
-4.25642125984252
 10
-19.91027165354331
 20
-4.247393700787401
 10
-19.91322834645669
 20
-4.238862204724409
 10
-19.91683858267717
 20
-4.230822834645669
 10
-19.92110236220472
 20
-4.223275590551181
 10
-19.92602362204724
 20
-4.216224409448819
 10
-19.92876771653543
 20
-4.212858267716536
 10
-19.93168110236221
 20
-4.209661417322835
 10
-19.93476771653543
 20
-4.206633858267717
 10
-19.93802362204724
 20
-4.203779527559055
 10
-19.94145275590551
 20
-4.201094488188977
 10
-19.94505118110236
 20
-4.198578740157481
 10
-19.9488188976378
 20
-4.196236220472441
 10
-19.95275984251969
 20
-4.194066929133858
 10
-19.95695275590551
 20
-4.192114173228346
 10
-19.96146850393701
 20
-4.19042125984252
 10
-19.9663031496063
 20
-4.188988188976378
 10
-19.97146456692913
 20
-4.187814960629921
 10
-19.97694881889764
 20
-4.18690157480315
 10
-19.98275590551181
 20
-4.186251968503937
 10
-19.98888582677165
 20
-4.185858267716536
 10
-19.99533858267716
 20
-4.185728346456693
 10
-20.00185039370079
 20
-4.185952755905512
 10
-20.00815354330709
 20
-4.186625984251968
 10
-20.01425196850394
 20
-4.187751968503937
 10
-20.02014566929134
 20
-4.18932283464567
 10
-20.02583070866142
 20
-4.191346456692913
 10
-20.03130708661417
 20
-4.193814960629921
 10
-20.03657874015748
 20
-4.196736220472441
 10
-20.04164566929134
 20
-4.200102362204724
 10
-20.04603937007874
 20
-4.203472440944882
 10
-20.05024015748031
 20
-4.207086614173228
 10
-20.05423622047244
 20
-4.210948818897638
 10
-20.05803937007874
 20
-4.215055118110236
 10
-20.06164173228347
 20
-4.219405511811024
 10
-20.06505118110236
 20
-4.223996062992126
 10
-20.06825590551181
 20
-4.228826771653543
 10
-20.07126771653543
 20
-4.233893700787402
 10
-20.08191732283465
 20
-4.216224409448819
 10
-20.08466141732283
 20
-4.212858267716536
 10
-20.08757480314961
 20
-4.209661417322835
 10
-20.09065748031496
 20
-4.206633858267717
 10
-20.09391338582677
 20
-4.203779527559055
 10
-20.09733858267716
 20
-4.201094488188977
 10
-20.10093700787402
 20
-4.198578740157481
 10
-20.10470472440945
 20
-4.196236220472441
 10
-20.10864173228347
 20
-4.194066929133858
 10
-20.11283464566929
 20
-4.192114173228346
 10
-20.11734645669291
 20
-4.19042125984252
 10
-20.12218110236221
 20
-4.188988188976378
 10
-20.12734251968504
 20
-4.187814960629921
 10
-20.13282283464567
 20
-4.18690157480315
 10
-20.13862992125984
 20
-4.186251968503937
 10
-20.14476377952756
 20
-4.185858267716536
 10
-20.15122047244094
 20
-4.185728346456693
 10
-20.15773228346457
 20
-4.185952755905512
 10
-20.16403543307086
 20
-4.186625984251968
 10
-20.17013385826772
 20
-4.187751968503937
 10
-20.17602362204724
 20
-4.18932283464567
 10
-20.18170866141732
 20
-4.191346456692913
 10
-20.18718503937008
 20
-4.193814960629921
 10
-20.19246062992126
 20
-4.196736220472441
 10
-20.19752755905512
 20
-4.200102362204724
 10
-20.20171653543307
 20
-4.203311023622048
 10
-20.20572440944882
 20
-4.206736220472441
 10
-20.20955118110236
 20
-4.210374015748031
 10
-20.21320078740158
 20
-4.214232283464567
 10
-20.21666929133858
 20
-4.218307086614173
 10
-20.21996062992126
 20
-4.222606299212599
 10
-20.22306692913386
 20
-4.227129921259842
 10
-20.22599606299213
 20
-4.23188188976378
 10
-20.22599606299213
 20
-4.19148031496063
 10
-20.26626771653543
 20
-4.19148031496063
 10
-20.26626771653543
 20
-4.444783464566929
 10
-20.22599606299213
 20
-4.444783464566929
 10
-20.22599606299213
 20
-4.315165354330708
 10
-20.22505905511811
 20
-4.307610236220472
 10
-20.22383858267716
 20
-4.300350393700787
 10
-20.22232677165354
 20
-4.293381889763779
 10
-20.22053149606299
 20
-4.286704724409449
 10
-20.21844488188976
 20
-4.280314960629921
 10
-20.21607086614173
 20
-4.274212598425197
 10
-20.21341338582677
 20
-4.268393700787402
 10
-20.21046456692913
 20
-4.262858267716536
 10
-20.20806692913386
 20
-4.25892125984252
 10
-20.20546850393701
 20
-4.255165354330709
 10
-20.20267322834646
 20
-4.251586614173228
 10
-20.19967716535433
 20
-4.248188976377953
 10
-20.1964842519685
 20
-4.244968503937008
 10
-20.19309448818898
 20
-4.241925196850394
 10
-20.18950787401575
 20
-4.239066929133858
 10
-20.18572440944882
 20
-4.236385826771653
 10
-20.18180708661417
 20
-4.233956692913385
 10
-20.17781496062992
 20
-4.231854330708662
 10
-20.17375590551181
 20
-4.230074803149606
 10
-20.16962204724409
 20
-4.22861811023622
 10
-20.16541732283465
 20
-4.227484251968504
 10
-20.16113779527559
 20
-4.226677165354331
 10
-20.15678346456693
 20
-4.226192913385827
 10
-20.15235826771654
 20
-4.226031496062992
 10
-20.14401968503937
 20
-4.226370078740158
 10
-20.13683070866142
 20
-4.227393700787402
 10
-20.13366535433071
 20
-4.228161417322835
 10
-20.13079133858268
 20
-4.229098425196851
 10
-20.12820078740157
 20
-4.230208661417323
 10
-20.12590157480315
 20
-4.231488188976378
 10
-20.1201062992126
 20
-4.235775590551181
 10
-20.11508267716535
 20
-4.240803149606299
 10
-20.11083070866142
 20
-4.246570866141732
 10
-20.10735433070866
 20
-4.253074803149606
 10
-20.10464960629921
 20
-4.260314960629922
 10
-20.10271653543307
 20
-4.268295275590551
 10
-20.10155905511811
 20
-4.277011811023622
 10
-20.10117322834646
 20
-4.286464566929133
 10
-20.10117322834646
 20
-4.444783464566929
 10
-20.06091732283464
 20
-4.444783464566929
 10
-20.06091732283464
 20
-4.286464566929133
 10
-20.0611968503937
 20
-4.276771653543307
 10
-20.05458661417323
 20
-4.262858267716536
 10
-20.05218897637795
 20
-4.25892125984252
 10
-20.0495905511811
 20
-4.255165354330709
 10
-20.04679527559055
 20
-4.251586614173228
 10
-20.04380708661417
 20
-4.248188976377953
 10
-20.04061417322835
 20
-4.244968503937008
 10
-20.03722834645669
 20
-4.241925196850394
 10
-20.03364173228346
 20
-4.239066929133858
 10
-20.02985826771653
 20
-4.236385826771653
 10
-20.02593700787402
 20
-4.233956692913385
 10
-20.02194488188976
 20
-4.231854330708662
 10
-20.01788188976378
 20
-4.230074803149606
 10
-20.01374803149606
 20
-4.22861811023622
 10
-20.00954330708661
 20
-4.227484251968504
 10
-20.00526377952756
 20
-4.226677165354331
 10
-20.00091732283465
 20
-4.226192913385827
 10
-19.99649606299213
 20
-4.226031496062992
 10
-19.98814566929134
 20
-4.226370078740158
 10
-19.98094881889764
 20
-4.227393700787402
 10
-19.9777874015748
 20
-4.228161417322835
 10
-19.9749094488189
 20
-4.229098425196851
 10
-19.97231889763779
 20
-4.230208661417323
 10
-19.97001968503937
 20
-4.231488188976378
 10
-19.96422440944882
 20
-4.235775590551181
 10
-19.95920078740157
 20
-4.240803149606299
 10
-19.95495275590551
 20
-4.246570866141732
 10
-19.95147244094488
 20
-4.253074803149606
 10
-19.94876771653543
 20
-4.260314960629922
 10
-19.94683858267717
 20
-4.268295275590551
 10
-19.94567716535433
 20
-4.277011811023622
 10
-19.94529133858268
 20
-4.286464566929133
 10
-19.94529133858268
 20
-4.444783464566929
  0
LWPOLYLINE
  5
79
330
1F
100
AcDbEntity
  8
Layer 1
 62
     7
370
     9
100
AcDbPolyline
 90
      155
 70
     1
 43
0.0
 10
-19.50640157480315
 20
-4.444783464566929
 10
-19.46614566929134
 20
-4.444783464566929
 10
-19.46614566929134
 20
-4.286464566929133
 10
-19.46647244094488
 20
-4.275956692913386
 10
-19.46746062992126
 20
-4.26594094488189
 10
-19.46910236220473
 20
-4.25642125984252
 10
-19.47139763779527
 20
-4.247393700787401
 10
-19.47435433070866
 20
-4.238862204724409
 10
-19.47796456692913
 20
-4.230822834645669
 10
-19.48222834645669
 20
-4.223275590551181
 10
-19.48714960629921
 20
-4.216224409448819
 10
-19.4898937007874
 20
-4.212858267716536
 10
-19.49280708661417
 20
-4.209661417322835
 10
-19.49588976377953
 20
-4.206633858267717
 10
-19.49914173228347
 20
-4.203779527559055
 10
-19.50256692913386
 20
-4.201094488188977
 10
-19.50616535433071
 20
-4.198578740157481
 10
-19.50993307086614
 20
-4.196236220472441
 10
-19.51387007874016
 20
-4.194066929133858
 10
-19.51806299212598
 20
-4.192114173228346
 10
-19.52257874015748
 20
-4.19042125984252
 10
-19.52741338582677
 20
-4.188988188976378
 10
-19.53257480314961
 20
-4.187814960629921
 10
-19.53805905511811
 20
-4.18690157480315
 10
-19.54386614173228
 20
-4.186251968503937
 10
-19.55
 20
-4.185858267716536
 10
-19.55645275590551
 20
-4.185728346456693
 10
-19.56296456692913
 20
-4.185952755905512
 10
-19.56926771653543
 20
-4.186625984251968
 10
-19.57536614173228
 20
-4.187751968503937
 10
-19.58125590551181
 20
-4.18932283464567
 10
-19.58694094488189
 20
-4.191346456692913
 10
-19.59241732283465
 20
-4.193814960629921
 10
-19.59768897637795
 20
-4.196736220472441
 10
-19.60275590551181
 20
-4.200102362204724
 10
-19.60714960629921
 20
-4.203472440944882
 10
-19.61135039370079
 20
-4.207086614173228
 10
-19.61534645669291
 20
-4.210948818897638
 10
-19.61914960629921
 20
-4.215055118110236
 10
-19.62275196850394
 20
-4.219405511811024
 10
-19.62616141732283
 20
-4.223996062992126
 10
-19.62936614173228
 20
-4.228826771653543
 10
-19.63237795275591
 20
-4.233893700787402
 10
-19.64302755905512
 20
-4.216224409448819
 10
-19.64577165354331
 20
-4.212858267716536
 10
-19.64868897637795
 20
-4.209661417322835
 10
-19.65177559055118
 20
-4.206633858267717
 10
-19.65503149606299
 20
-4.203779527559055
 10
-19.65846062992126
 20
-4.201094488188977
 10
-19.66205905511811
 20
-4.198578740157481
 10
-19.66582677165354
 20
-4.196236220472441
 10
-19.66976771653543
 20
-4.194066929133858
 10
-19.67396062992126
 20
-4.192114173228346
 10
-19.67847244094488
 20
-4.19042125984252
 10
-19.68330708661417
 20
-4.188988188976378
 10
-19.68846456692913
 20
-4.187814960629921
 10
-19.69394488188976
 20
-4.18690157480315
 10
-19.69975196850394
 20
-4.186251968503937
 10
-19.70587795275591
 20
-4.185858267716536
 10
-19.71233070866142
 20
-4.185728346456693
 10
-19.71884251968504
 20
-4.185952755905512
 10
-19.72514566929134
 20
-4.186625984251968
 10
-19.73124409448819
 20
-4.187751968503937
 10
-19.73713385826772
 20
-4.18932283464567
 10
-19.7428188976378
 20
-4.191346456692913
 10
-19.74829527559055
 20
-4.193814960629921
 10
-19.75357086614173
 20
-4.196736220472441
 10
-19.75863779527559
 20
-4.200102362204724
 10
-19.76282677165354
 20
-4.203311023622048
 10
-19.76683464566929
 20
-4.206736220472441
 10
-19.77066141732283
 20
-4.210374015748031
 10
-19.77431102362205
 20
-4.214232283464567
 10
-19.77777952755905
 20
-4.218307086614173
 10
-19.78107086614173
 20
-4.222606299212599
 10
-19.78417716535433
 20
-4.227129921259842
 10
-19.7871062992126
 20
-4.23188188976378
 10
-19.7871062992126
 20
-4.19148031496063
 10
-19.82737795275591
 20
-4.19148031496063
 10
-19.82737795275591
 20
-4.444783464566929
 10
-19.7871062992126
 20
-4.444783464566929
 10
-19.7871062992126
 20
-4.315165354330708
 10
-19.78616929133858
 20
-4.307610236220472
 10
-19.78494881889764
 20
-4.300350393700787
 10
-19.78343700787402
 20
-4.293381889763779
 10
-19.78164173228346
 20
-4.286704724409449
 10
-19.77955511811023
 20
-4.280314960629921
 10
-19.77718110236221
 20
-4.274212598425197
 10
-19.77452362204724
 20
-4.268393700787402
 10
-19.7715748031496
 20
-4.262858267716536
 10
-19.76917716535433
 20
-4.25892125984252
 10
-19.76657874015748
 20
-4.255165354330709
 10
-19.76378346456693
 20
-4.251586614173228
 10
-19.7607874015748
 20
-4.248188976377953
 10
-19.75759448818897
 20
-4.244968503937008
 10
-19.75420472440945
 20
-4.241925196850394
 10
-19.75061811023622
 20
-4.239066929133858
 10
-19.74683464566929
 20
-4.236385826771653
 10
-19.74291732283465
 20
-4.233956692913385
 10
-19.73892519685039
 20
-4.231854330708662
 10
-19.73486614173228
 20
-4.230074803149606
 10
-19.73073228346457
 20
-4.22861811023622
 10
-19.72652755905512
 20
-4.227484251968504
 10
-19.72224803149606
 20
-4.226677165354331
 10
-19.7178937007874
 20
-4.226192913385827
 10
-19.71346850393701
 20
-4.226031496062992
 10
-19.70512992125984
 20
-4.226370078740158
 10
-19.69794881889764
 20
-4.227393700787402
 10
-19.6947874015748
 20
-4.228161417322835
 10
-19.69191338582677
 20
-4.229098425196851
 10
-19.68932677165354
 20
-4.230208661417323
 10
-19.68702755905512
 20
-4.231488188976378
 10
-19.68123228346457
 20
-4.235775590551181
 10
-19.67620866141732
 20
-4.240803149606299
 10
-19.67196062992126
 20
-4.246570866141732
 10
-19.66848031496063
 20
-4.253074803149606
 10
-19.66577559055118
 20
-4.260314960629922
 10
-19.66384645669291
 20
-4.268295275590551
 10
-19.66268503937008
 20
-4.277011811023622
 10
-19.66229921259843
 20
-4.286464566929133
 10
-19.66229921259843
 20
-4.444783464566929
 10
-19.62202755905512
 20
-4.444783464566929
 10
-19.62202755905512
 20
-4.286464566929133
 10
-19.62230708661417
 20
-4.276771653543307
 10
-19.6156968503937
 20
-4.262858267716536
 10
-19.61329921259842
 20
-4.25892125984252
 10
-19.61070078740158
 20
-4.255165354330709
 10
-19.60790551181102
 20
-4.251586614173228
 10
-19.60491732283464
 20
-4.248188976377953
 10
-19.60172440944882
 20
-4.244968503937008
 10
-19.59833858267717
 20
-4.241925196850394
 10
-19.59475196850394
 20
-4.239066929133858
 10
-19.59096850393701
 20
-4.236385826771653
 10
-19.58704724409449
 20
-4.233956692913385
 10
-19.58305511811024
 20
-4.231854330708662
 10
-19.57899212598425
 20
-4.230074803149606
 10
-19.57485826771654
 20
-4.22861811023622
 10
-19.57065354330709
 20
-4.227484251968504
 10
-19.56637401574803
 20
-4.226677165354331
 10
-19.56202755905512
 20
-4.226192913385827
 10
-19.5576062992126
 20
-4.226031496062992
 10
-19.54925590551181
 20
-4.226370078740158
 10
-19.54206299212598
 20
-4.227393700787402
 10
-19.53889763779528
 20
-4.228161417322835
 10
-19.53601968503937
 20
-4.229098425196851
 10
-19.53342913385827
 20
-4.230208661417323
 10
-19.53112992125984
 20
-4.231488188976378
 10
-19.52533464566929
 20
-4.235775590551181
 10
-19.52031102362205
 20
-4.240803149606299
 10
-19.51606299212598
 20
-4.246570866141732
 10
-19.51258267716535
 20
-4.253074803149606
 10
-19.5098779527559
 20
-4.260314960629922
 10
-19.50794881889764
 20
-4.268295275590551
 10
-19.5067874015748
 20
-4.277011811023622
 10
-19.50640157480315
 20
-4.286464566929133
 10
-19.50640157480315
 20
-4.444783464566929
  0
ENDSEC
  0
SECTION
  2
OBJECTS
  0
DICTIONARY
  5
C
330
0
100
AcDbDictionary
281
     1
  3
ACAD_DETAILVIEWSTYLE
350
81
  3
ACAD_GROUP
350
D
  3
ACAD_LAYOUT
350
1A
  3
ACAD_MATERIAL
350
43
  3
ACAD_MLEADERSTYLE
350
5B
  3
ACAD_MLINESTYLE
350
17
  3
ACAD_PLOTSETTINGS
350
19
  3
ACAD_PLOTSTYLENAME
350
E
  3
ACAD_SCALELIST
350
47
  3
ACAD_SECTIONVIEWSTYLE
350
82
  3
ACAD_TABLESTYLE
350
59
  3
ACAD_VISUALSTYLE
350
2A
  3
ACDB_RECOMPOSE_DATA
350
7E
  3
AcDbVariableDictionary
350
7A
  0
SUN
  5
5D
330
29
100
AcDbSun
 90
        1
290
     0
 63
     7
421
 16777215
 40
1.0
291
     1
 91
  2455826
 92
 54000000
292
     0
 70
     2
 71
   256
280
     1
  0
DICTIONARY
  5
81
102
{ACAD_REACTORS
330
C
102
}
330
C
100
AcDbDictionary
281
     1
  0
DICTIONARY
  5
D
102
{ACAD_REACTORS
330
C
102
}
330
C
100
AcDbDictionary
281
     1
  0
DICTIONARY
  5
1A
102
{ACAD_REACTORS
330
C
102
}
330
C
100
AcDbDictionary
281
     1
  3
Layout1
350
1E
  3
Layout2
350
26
  3
Model
350
22
  0
DICTIONARY
  5
43
102
{ACAD_REACTORS
330
C
102
}
330
C
100
AcDbDictionary
281
     1
  3
ByBlock
350
45
  3
ByLayer
350
44
  3
Global
350
46
  0
DICTIONARY
  5
5B
102
{ACAD_REACTORS
330
C
102
}
330
C
100
AcDbDictionary
281
     1
  3
Standard
350
5C
  0
DICTIONARY
  5
17
102
{ACAD_REACTORS
330
C
102
}
330
C
100
AcDbDictionary
281
     1
  3
Standard
350
18
  0
DICTIONARY
  5
19
102
{ACAD_REACTORS
330
C
102
}
330
C
100
AcDbDictionary
281
     1
  0
ACDBDICTIONARYWDFLT
  5
E
102
{ACAD_REACTORS
330
C
102
}
330
C
100
AcDbDictionary
281
     1
  3
Normal
350
F
100
AcDbDictionaryWithDefault
340
F
  0
DICTIONARY
  5
47
102
{ACAD_REACTORS
330
C
102
}
330
C
100
AcDbDictionary
281
     1
  3
A0
350
48
  3
A1
350
49
  3
A2
350
4A
  3
A3
350
4B
  3
A4
350
4C
  3
A5
350
4D
  3
A6
350
4E
  3
A7
350
4F
  3
A8
350
50
  3
A9
350
51
  3
B1
350
52
  3
B2
350
53
  3
B3
350
54
  3
B4
350
55
  3
B5
350
56
  3
B6
350
57
  3
B7
350
58
  0
DICTIONARY
  5
82
102
{ACAD_REACTORS
330
C
102
}
330
C
100
AcDbDictionary
281
     1
  0
DICTIONARY
  5
59
102
{ACAD_REACTORS
330
C
102
}
330
C
100
AcDbDictionary
281
     1
  3
Standard
350
5A
  0
DICTIONARY
  5
2A
102
{ACAD_REACTORS
330
C
102
}
330
C
100
AcDbDictionary
281
     1
  3
2dWireframe
350
2F
  3
Basic
350
32
  3
Brighten
350
36
  3
ColorChange
350
3A
  3
Conceptual
350
34
  3
Dim
350
35
  3
EdgeColorOff
350
3D
  3
Facepattern
350
39
  3
Flat
350
2B
  3
FlatWithEdges
350
2C
  3
Gouraud
350
2D
  3
GouraudWithEdges
350
2E
  3
Hidden
350
31
  3
JitterOff
350
3B
  3
Linepattern
350
38
  3
OverhangOff
350
3C
  3
Realistic
350
33
  3
Shaded
350
42
  3
Shaded with edges
350
41
  3
Shades of Gray
350
3E
  3
Sketchy
350
3F
  3
Thicken
350
37
  3
Wireframe
350
30
  3
X-Ray
350
40
  0
XRECORD
  5
7E
102
{ACAD_REACTORS
330
C
102
}
330
C
100
AcDbXrecord
280
     1
 90
        1
330
5A
  0
DICTIONARY
  5
7A
102
{ACAD_REACTORS
330
C
102
}
330
C
100
AcDbDictionary
281
     1
  3
CANNOSCALE
350
7B
  3
CMLEADERSTYLE
350
80
  3
CTABLESTYLE
350
7F
  0
LAYOUT
  5
1E
102
{ACAD_REACTORS
330
1A
102
}
330
1A
100
AcDbPlotSettings
  1

  2
none_device
  4

  6

 40
0.0
 41
0.0
 42
0.0
 43
0.0
 44
0.0
 45
0.0
 46
0.0
 47
0.0
 48
0.0
 49
0.0
140
0.0
141
0.0
142
1.0
143
1.0
 70
   688
 72
     0
 73
     0
 74
     5
  7

 75
    16
 76
     0
 77
     2
 78
   300
147
1.0
148
0.0
149
0.0
100
AcDbLayout
  1
Layout1
 70
     1
 71
     1
 10
0.0
 20
0.0
 11
12.0
 21
9.0
 12
0.0
 22
0.0
 32
0.0
 14
1.000000000000000E+20
 24
1.000000000000000E+20
 34
1.000000000000000E+20
 15
-1.000000000000000E+20
 25
-1.000000000000000E+20
 35
-1.000000000000000E+20
146
0.0
 13
0.0
 23
0.0
 33
0.0
 16
1.0
 26
0.0
 36
0.0
 17
0.0
 27
1.0
 37
0.0
 76
     0
330
1B
  0
LAYOUT
  5
26
102
{ACAD_REACTORS
330
1A
102
}
330
1A
100
AcDbPlotSettings
  1

  2
none_device
  4

  6

 40
0.0
 41
0.0
 42
0.0
 43
0.0
 44
0.0
 45
0.0
 46
0.0
 47
0.0
 48
0.0
 49
0.0
140
0.0
141
0.0
142
1.0
143
1.0
 70
   688
 72
     0
 73
     0
 74
     5
  7

 75
    16
 76
     0
 77
     2
 78
   300
147
1.0
148
0.0
149
0.0
100
AcDbLayout
  1
Layout2
 70
     1
 71
     2
 10
0.0
 20
0.0
 11
0.0
 21
0.0
 12
0.0
 22
0.0
 32
0.0
 14
0.0
 24
0.0
 34
0.0
 15
0.0
 25
0.0
 35
0.0
146
0.0
 13
0.0
 23
0.0
 33
0.0
 16
1.0
 26
0.0
 36
0.0
 17
0.0
 27
1.0
 37
0.0
 76
     0
330
23
  0
LAYOUT
  5
22
102
{ACAD_REACTORS
330
1A
102
}
330
1A
100
AcDbPlotSettings
  1

  2
none_device
  4
Letter_(8.50_x_11.00_Inches)
  6

 40
6.35
 41
6.35
 42
6.35000508
 43
6.35000508
 44
215.9
 45
279.4
 46
0.0
 47
0.0
 48
0.0
 49
0.0
140
0.0
141
0.0
142
1.0
143
1.0
 70
  1712
 72
     0
 73
     0
 74
     0
  7

 75
     0
 76
     0
 77
     2
 78
   300
147
1.0
148
0.0
149
0.0
100
AcDbLayout
  1
Model
 70
     1
 71
     0
 10
0.0
 20
0.0
 11
12.0
 21
9.0
 12
0.0
 22
0.0
 32
0.0
 14
-21.20801181102362
 24
-6.477188976377953
 34
0.0
 15
-10.25065354330709
 25
-1.030767716535433
 35
0.0
146
0.0
 13
0.0
 23
0.0
 33
0.0
 16
1.0
 26
0.0
 36
0.0
 17
0.0
 27
1.0
 37
0.0
 76
     0
330
1F
331
29
  0
MATERIAL
  5
45
102
{ACAD_REACTORS
330
43
102
}
330
43
100
AcDbMaterial
  1
ByBlock
 72
     1
 94
      127
  0
MATERIAL
  5
44
102
{ACAD_REACTORS
330
43
102
}
330
43
100
AcDbMaterial
  1
ByLayer
 72
     1
 94
      127
  0
MATERIAL
  5
46
102
{ACAD_REACTORS
330
43
102
}
330
43
100
AcDbMaterial
  1
Global
 72
     1
 94
      127
  0
MLEADERSTYLE
  5
5C
102
{ACAD_REACTORS
330
5B
102
}
330
5B
100
AcDbMLeaderStyle
179
     2
170
     2
171
     1
172
     0
 90
        2
 40
0.0
 41
0.0
173
     1
 91
-1056964608
340
14
 92
       -2
290
     1
 42
0.09
291
     1
 43
0.36
  3
Standard
341
0
 44
0.18
300

342
11
174
     1
178
     6
175
     1
176
     0
 93
-1056964608
 45
0.18
292
     0
297
     0
 46
0.18
343
0
 94
-1056964608
 47
1.0
 49
1.0
140
1.0
293
     1
141
0.0
294
     1
177
     0
142
1.0
295
     0
296
     0
143
0.125
271
     0
272
     9
273
     9
298
     0
  0
MLINESTYLE
  5
18
102
{ACAD_REACTORS
330
17
102
}
330
17
100
AcDbMlineStyle
  2
Standard
 70
     0
  3

 62
   256
 51
90.0
 52
90.0
 71
     2
 49
0.5
 62
   256
  6
BYLAYER
 49
-0.5
 62
   256
  6
BYLAYER
  0
ACDBPLACEHOLDER
  5
F
102
{ACAD_REACTORS
330
E
102
}
330
E
  0
SCALE
  5
48
102
{ACAD_REACTORS
330
47
102
}
330
47
100
AcDbScale
 70
     0
300
1:1
140
1.0
141
1.0
290
     1
  0
SCALE
  5
49
102
{ACAD_REACTORS
330
47
102
}
330
47
100
AcDbScale
 70
     0
300
1/128" = 1'-0"
140
0.0078125
141
12.0
290
     0
  0
SCALE
  5
4A
102
{ACAD_REACTORS
330
47
102
}
330
47
100
AcDbScale
 70
     0
300
1/64" = 1'-0"
140
0.015625
141
12.0
290
     0
  0
SCALE
  5
4B
102
{ACAD_REACTORS
330
47
102
}
330
47
100
AcDbScale
 70
     0
300
1/32" = 1'-0"
140
0.03125
141
12.0
290
     0
  0
SCALE
  5
4C
102
{ACAD_REACTORS
330
47
102
}
330
47
100
AcDbScale
 70
     0
300
1/16" = 1'-0"
140
0.0625
141
12.0
290
     0
  0
SCALE
  5
4D
102
{ACAD_REACTORS
330
47
102
}
330
47
100
AcDbScale
 70
     0
300
3/32" = 1'-0"
140
0.09375
141
12.0
290
     0
  0
SCALE
  5
4E
102
{ACAD_REACTORS
330
47
102
}
330
47
100
AcDbScale
 70
     0
300
1/8" = 1'-0"
140
0.125
141
12.0
290
     0
  0
SCALE
  5
4F
102
{ACAD_REACTORS
330
47
102
}
330
47
100
AcDbScale
 70
     0
300
3/16" = 1'-0"
140
0.1875
141
12.0
290
     0
  0
SCALE
  5
50
102
{ACAD_REACTORS
330
47
102
}
330
47
100
AcDbScale
 70
     0
300
1/4" = 1'-0"
140
0.25
141
12.0
290
     0
  0
SCALE
  5
51
102
{ACAD_REACTORS
330
47
102
}
330
47
100
AcDbScale
 70
     0
300
3/8" = 1'-0"
140
0.375
141
12.0
290
     0
  0
SCALE
  5
52
102
{ACAD_REACTORS
330
47
102
}
330
47
100
AcDbScale
 70
     0
300
1/2" = 1'-0"
140
0.5
141
12.0
290
     0
  0
SCALE
  5
53
102
{ACAD_REACTORS
330
47
102
}
330
47
100
AcDbScale
 70
     0
300
3/4" = 1'-0"
140
0.75
141
12.0
290
     0
  0
SCALE
  5
54
102
{ACAD_REACTORS
330
47
102
}
330
47
100
AcDbScale
 70
     0
300
1" = 1'-0"
140
1.0
141
12.0
290
     0
  0
SCALE
  5
55
102
{ACAD_REACTORS
330
47
102
}
330
47
100
AcDbScale
 70
     0
300
1-1/2" = 1'-0"
140
1.5
141
12.0
290
     0
  0
SCALE
  5
56
102
{ACAD_REACTORS
330
47
102
}
330
47
100
AcDbScale
 70
     0
300
3" = 1'-0"
140
3.0
141
12.0
290
     0
  0
SCALE
  5
57
102
{ACAD_REACTORS
330
47
102
}
330
47
100
AcDbScale
 70
     0
300
6" = 1'-0"
140
6.0
141
12.0
290
     0
  0
SCALE
  5
58
102
{ACAD_REACTORS
330
47
102
}
330
47
100
AcDbScale
 70
     0
300
1'-0" = 1'-0"
140
12.0
141
12.0
290
     0
  0
TABLESTYLE
  5
5A
102
{ACAD_REACTORS
330
59
102
}
102
{ACAD_XDICTIONARY
360
7C
102
}
330
59
100
AcDbTableStyle
  3
Standard
 70
     0
 71
     0
 40
0.06
 41
0.06
280
     0
281
     0
  7
Standard
140
0.18
170
     2
 62
     0
 63
   257
283
     0
 90
        4
 91
        0
  1

274
    -2
284
     1
 64
     0
275
    -2
285
     1
 65
     0
276
    -2
286
     1
 66
     0
277
    -2
287
     1
 67
     0
278
    -2
288
     1
 68
     0
279
    -2
289
     1
 69
     0
  7
Standard
140
0.25
170
     5
 62
     0
 63
   257
283
     0
 90
        4
 91
        0
  1

274
    -2
284
     1
 64
     0
275
    -2
285
     1
 65
     0
276
    -2
286
     1
 66
     0
277
    -2
287
     1
 67
     0
278
    -2
288
     1
 68
     0
279
    -2
289
     1
 69
     0
  7
Standard
140
0.18
170
     5
 62
     0
 63
   257
283
     0
 90
        4
 91
        0
  1

274
    -2
284
     1
 64
     0
275
    -2
285
     1
 65
     0
276
    -2
286
     1
 66
     0
277
    -2
287
     1
 67
     0
278
    -2
288
     1
 68
     0
279
    -2
289
     1
 69
     0
  0
VISUALSTYLE
  5
2F
102
{ACAD_REACTORS
330
2A
102
}
330
2A
100
AcDbVisualStyle
  2
2dWireframe
 70
     4
177
     3
291
     0
 70
    58
 90
        0
176
     1
 90
        2
176
     1
 90
        0
176
     1
 90
        0
176
     1
 40
0.6
176
     1
 40
30.0
176
     1
 62
     7
420
 16777215
176
     1
 90
        1
176
     1
 90
        4
176
     1
 62
     7
176
     1
 62
   257
176
     1
 90
        1
176
     1
 90
        1
176
     1
 40
1.0
176
     1
 90
        0
176
     1
 62
   257
176
     1
 40
1.0
176
     1
 90
        1
176
     1
 90
        6
176
     1
 90
        2
176
     1
 62
     7
176
     1
 90
        5
176
     1
 90
        0
176
     1
 90
        0
176
     1
290
     0
176
     1
 90
        1
176
     1
 40
0.0
176
     1
 90
        0
176
     1
290
     1
176
     1
290
     1
176
     1
290
     0
176
     1
290
     0
176
     1
290
     0
176
     1
290
     0
176
     1
290
     0
176
     1
290
     0
176
     1
290
     0
176
     1
 90
       50
176
     1
 40
0.0
176
     1
 40
1.0
176
     1
 90
        0
176
     1
 62
    18
420
        0
176
     1
 90
       50
176
     1
 90
        3
176
     1
 62
     5
420
      255
176
     1
290
     0
176
     1
 90
       50
176
     1
 90
       50
176
     1
 90
       50
176
     1
290
     0
176
     1
 90
       50
176
     1
 62
   256
176
     0
 40
1.0
176
     0
 90
        2
176
     1
  1
strokes_ogs.tif
176
     1
290
     0
176
     1
 40
1.0
176
     1
 40
1.0
176
     1
  0
VISUALSTYLE
  5
32
102
{ACAD_REACTORS
330
2A
102
}
330
2A
100
AcDbVisualStyle
  2
Basic
 70
     7
177
     3
291
     1
 70
    58
 90
        1
176
     1
 90
        0
176
     1
 90
        1
176
     1
 90
        0
176
     1
 40
0.6
176
     1
 40
30.0
176
     1
 62
     7
420
 16777215
176
     1
 90
        0
176
     1
 90
        4
176
     1
 62
     7
176
     1
 62
   257
176
     1
 90
        1
176
     1
 90
        1
176
     1
 40
1.0
176
     1
 90
        8
176
     1
 62
     7
176
     1
 40
1.0
176
     1
 90
        1
176
     1
 90
        6
176
     1
 90
        2
176
     1
 62
     7
176
     1
 90
        5
176
     1
 90
        0
176
     1
 90
        0
176
     1
290
     0
176
     1
 90
        1
176
     1
 40
0.0
176
     1
 90
        0
176
     1
290
     0
176
     1
290
     1
176
     1
290
     1
176
     1
290
     0
176
     1
290
     0
176
     1
290
     0
176
     1
290
     0
176
     1
290
     0
176
     1
290
     0
176
     1
 90
       50
176
     1
 40
0.0
176
     1
 40
1.0
176
     1
 90
        0
176
     1
 62
    18
420
        0
176
     1
 90
       50
176
     1
 90
        3
176
     1
 62
     5
420
      255
176
     1
290
     0
176
     1
 90
       50
176
     1
 90
       50
176
     1
 90
       50
176
     1
290
     0
176
     1
 90
       50
176
     1
 62
   256
176
     0
 40
1.0
176
     0
 90
        2
176
     1
  1
strokes_ogs.tif
176
     1
290
     0
176
     1
 40
1.0
176
     1
 40
1.0
176
     1
  0
VISUALSTYLE
  5
36
102
{ACAD_REACTORS
330
2A
102
}
330
2A
100
AcDbVisualStyle
  2
Brighten
 70
    12
177
     3
291
     1
 70
    58
 90
        2
176
     1
 90
        2
176
     1
 90
        0
176
     1
 90
        0
176
     1
 40
0.6
176
     1
 40
30.0
176
     1
 62
     7
420
 16777215
176
     1
 90
        1
176
     1
 90
        4
176
     1
 62
     7
176
     1
 62
   257
176
     1
 90
        1
176
     1
 90
        1
176
     1
 40
1.0
176
     1
 90
        8
176
     1
 62
     7
176
     1
 40
1.0
176
     1
 90
        1
176
     1
 90
        6
176
     1
 90
        2
176
     1
 62
     7
176
     1
 90
        5
176
     1
 90
        0
176
     1
 90
        0
176
     1
290
     0
176
     1
 90
        1
176
     1
 40
50.0
176
     1
 90
        0
176
     1
290
     0
176
     1
290
     1
176
     1
290
     1
176
     1
290
     0
176
     1
290
     0
176
     1
290
     0
176
     1
290
     0
176
     1
290
     0
176
     1
290
     0
176
     1
 90
       50
176
     1
 40
0.0
176
     1
 40
1.0
176
     1
 90
        0
176
     1
 62
    18
420
        0
176
     1
 90
       50
176
     1
 90
        3
176
     1
 62
     5
420
      255
176
     1
290
     0
176
     1
 90
       50
176
     1
 90
       50
176
     1
 90
       50
176
     1
290
     0
176
     1
 90
       50
176
     1
 62
   256
176
     0
 40
1.0
176
     0
 90
        2
176
     1
  1
strokes_ogs.tif
176
     1
290
     0
176
     1
 40
1.0
176
     1
 40
1.0
176
     1
  0
VISUALSTYLE
  5
3A
102
{ACAD_REACTORS
330
2A
102
}
330
2A
100
AcDbVisualStyle
  2
ColorChange
 70
    16
177
     3
291
     1
 70
    58
 90
        2
176
     1
 90
        2
176
     1
 90
        3
176
     1
 90
        0
176
     1
 40
0.6
176
     1
 40
30.0
176
     1
 62
     8
420
  8421504
176
     1
 90
        1
176
     1
 90
        4
176
     1
 62
     7
176
     1
 62
   257
176
     1
 90
        1
176
     1
 90
        1
176
     1
 40
1.0
176
     1
 90
        8
176
     1
 62
     8
420
  8421504
176
     1
 40
1.0
176
     1
 90
        1
176
     1
 90
        6
176
     1
 90
        2
176
     1
 62
     7
176
     1
 90
        5
176
     1
 90
        0
176
     1
 90
        0
176
     1
290
     0
176
     1
 90
        1
176
     1
 40
0.0
176
     1
 90
        0
176
     1
290
     0
176
     1
290
     1
176
     1
290
     1
176
     1
290
     0
176
     1
290
     0
176
     1
290
     0
176
     1
290
     0
176
     1
290
     0
176
     1
290
     0
176
     1
 90
       50
176
     1
 40
0.0
176
     1
 40
1.0
176
     1
 90
        0
176
     1
 62
    18
420
        0
176
     1
 90
       50
176
     1
 90
        3
176
     1
 62
     5
420
      255
176
     1
290
     0
176
     1
 90
       50
176
     1
 90
       50
176
     1
 90
       50
176
     1
290
     0
176
     1
 90
       50
176
     1
 62
   256
176
     0
 40
1.0
176
     0
 90
        2
176
     1
  1
strokes_ogs.tif
176
     1
290
     0
176
     1
 40
1.0
176
     1
 40
1.0
176
     1
  0
VISUALSTYLE
  5
34
102
{ACAD_REACTORS
330
2A
102
}
330
2A
100
AcDbVisualStyle
  2
Conceptual
 70
     9
177
     3
291
     0
 70
    58
 90
        3
176
     1
 90
        2
176
     1
 90
        0
176
     1
 90
        0
176
     1
 40
0.6
176
     1
 40
30.0
176
     1
 62
     7
420
 16777215
176
     1
 90
        2
176
     1
 90
        2
176
     1
 62
     7
176
     1
 62
   257
176
     1
 90
        1
176
     1
 90
        1
176
     1
 40
179.0
176
     1
 90
        8
176
     1
 62
     7
176
     1
 40
1.0
176
     1
 90
        1
176
     1
 90
        6
176
     1
 90
        2
176
     1
 62
     7
176
     1
 90
        3
176
     1
 90
        0
176
     1
 90
        0
176
     1
290
     0
176
     1
 90
        1
176
     1
 40
0.0
176
     1
 90
        0
176
     1
290
     0
176
     1
290
     1
176
     1
290
     1
176
     1
290
     0
176
     1
290
     0
176
     1
290
     0
176
     1
290
     0
176
     1
290
     0
176
     1
290
     0
176
     1
 90
       50
176
     1
 40
0.0
176
     1
 40
1.0
176
     1
 90
        0
176
     1
 62
    18
420
        0
176
     1
 90
       50
176
     1
 90
        3
176
     1
 62
     5
420
      255
176
     1
290
     0
176
     1
 90
       50
176
     1
 90
       50
176
     1
 90
       50
176
     1
290
     0
176
     1
 90
       50
176
     1
 62
   256
176
     0
 40
1.0
176
     0
 90
        2
176
     1
  1
strokes_ogs.tif
176
     1
290
     0
176
     1
 40
1.0
176
     1
 40
1.0
176
     1
  0
VISUALSTYLE
  5
35
102
{ACAD_REACTORS
330
2A
102
}
330
2A
100
AcDbVisualStyle
  2
Dim
 70
    11
177
     3
291
     1
 70
    58
 90
        2
176
     1
 90
        2
176
     1
 90
        0
176
     1
 90
        0
176
     1
 40
0.6
176
     1
 40
30.0
176
     1
 62
     7
420
 16777215
176
     1
 90
        1
176
     1
 90
        4
176
     1
 62
     7
176
     1
 62
   257
176
     1
 90
        1
176
     1
 90
        1
176
     1
 40
1.0
176
     1
 90
        8
176
     1
 62
     7
176
     1
 40
1.0
176
     1
 90
        1
176
     1
 90
        6
176
     1
 90
        2
176
     1
 62
     7
176
     1
 90
        5
176
     1
 90
        0
176
     1
 90
        0
176
     1
290
     0
176
     1
 90
        1
176
     1
 40
-50.0
176
     1
 90
        0
176
     1
290
     0
176
     1
290
     1
176
     1
290
     1
176
     1
290
     0
176
     1
290
     0
176
     1
290
     0
176
     1
290
     0
176
     1
290
     0
176
     1
290
     0
176
     1
 90
       50
176
     1
 40
0.0
176
     1
 40
1.0
176
     1
 90
        0
176
     1
 62
    18
420
        0
176
     1
 90
       50
176
     1
 90
        3
176
     1
 62
     5
420
      255
176
     1
290
     0
176
     1
 90
       50
176
     1
 90
       50
176
     1
 90
       50
176
     1
290
     0
176
     1
 90
       50
176
     1
 62
   256
176
     0
 40
1.0
176
     0
 90
        2
176
     1
  1
strokes_ogs.tif
176
     1
290
     0
176
     1
 40
1.0
176
     1
 40
1.0
176
     1
  0
VISUALSTYLE
  5
3D
102
{ACAD_REACTORS
330
2A
102
}
330
2A
100
AcDbVisualStyle
  2
EdgeColorOff
 70
    22
177
     3
291
     1
 70
    58
 90
        2
176
     0
 90
        2
176
     0
 90
        0
176
     0
 90
        0
176
     0
 40
0.6
176
     0
 40
30.0
176
     0
 62
     7
420
 16777215
176
     0
 90
        1
176
     0
 90
        4
176
     0
 62
     7
176
     0
 62
   257
176
     0
 90
        1
176
     0
 90
        1
176
     0
 40
1.0
176
     0
 90
        8
176
     2
 62
     7
176
     0
 40
1.0
176
     0
 90
        1
176
     0
 90
        6
176
     0
 90
        2
176
     0
 62
     7
176
     0
 90
        5
176
     0
 90
        0
176
     0
 90
        0
176
     0
290
     0
176
     0
 90
        1
176
     0
 40
0.0
176
     0
 90
        0
176
     0
290
     0
176
     0
290
     1
176
     0
290
     1
176
     0
290
     0
176
     0
290
     0
176
     0
290
     0
176
     0
290
     0
176
     0
290
     0
176
     0
290
     0
176
     0
 90
       50
176
     0
 40
0.0
176
     0
 40
1.0
176
     0
 90
        0
176
     0
 62
    18
420
        0
176
     0
 90
       50
176
     0
 90
        3
176
     0
 62
     5
420
      255
176
     0
290
     0
176
     0
 90
       50
176
     0
 90
       50
176
     0
 90
       50
176
     0
290
     0
176
     0
 90
       50
176
     0
 62
   256
176
     0
 40
1.0
176
     0
 90
        2
176
     0
  1
strokes_ogs.tif
176
     0
290
     0
176
     0
 40
1.0
176
     0
 40
1.0
176
     0
  0
VISUALSTYLE
  5
39
102
{ACAD_REACTORS
330
2A
102
}
330
2A
100
AcDbVisualStyle
  2
Facepattern
 70
    15
177
     3
291
     1
 70
    58
 90
        2
176
     1
 90
        2
176
     1
 90
        0
176
     1
 90
        0
176
     1
 40
0.6
176
     1
 40
30.0
176
     1
 62
     7
420
 16777215
176
     1
 90
        1
176
     1
 90
        4
176
     1
 62
     7
176
     1
 62
   257
176
     1
 90
        1
176
     1
 90
        1
176
     1
 40
1.0
176
     1
 90
        8
176
     1
 62
     7
176
     1
 40
1.0
176
     1
 90
        1
176
     1
 90
        6
176
     1
 90
        2
176
     1
 62
     7
176
     1
 90
        5
176
     1
 90
        0
176
     1
 90
        0
176
     1
290
     0
176
     1
 90
        1
176
     1
 40
0.0
176
     1
 90
        0
176
     1
290
     0
176
     1
290
     1
176
     1
290
     1
176
     1
290
     0
176
     1
290
     0
176
     1
290
     0
176
     1
290
     0
176
     1
290
     0
176
     1
290
     0
176
     1
 90
       50
176
     1
 40
0.0
176
     1
 40
1.0
176
     1
 90
        0
176
     1
 62
    18
420
        0
176
     1
 90
       50
176
     1
 90
        3
176
     1
 62
     5
420
      255
176
     1
290
     0
176
     1
 90
       50
176
     1
 90
       50
176
     1
 90
       50
176
     1
290
     0
176
     1
 90
       50
176
     1
 62
   256
176
     0
 40
1.0
176
     0
 90
        2
176
     1
  1
strokes_ogs.tif
176
     1
290
     0
176
     1
 40
1.0
176
     1
 40
1.0
176
     1
  0
VISUALSTYLE
  5
2B
102
{ACAD_REACTORS
330
2A
102
}
330
2A
100
AcDbVisualStyle
  2
Flat
 70
     0
177
     3
291
     1
 70
    58
 90
        2
176
     1
 90
        1
176
     1
 90
        1
176
     1
 90
        2
176
     1
 40
0.6
176
     1
 40
30.0
176
     1
 62
     7
420
 16777215
176
     1
 90
        0
176
     1
 90
        0
176
     1
 62
     7
176
     1
 62
   257
176
     1
 90
        1
176
     1
 90
        1
176
     1
 40
1.0
176
     1
 90
        8
176
     1
 62
     7
176
     1
 40
1.0
176
     1
 90
        1
176
     1
 90
        6
176
     1
 90
        2
176
     1
 62
     7
176
     1
 90
        5
176
     1
 90
        0
176
     1
 90
        0
176
     1
290
     0
176
     1
 90
       13
176
     1
 40
0.0
176
     1
 90
        0
176
     1
290
     0
176
     1
290
     1
176
     1
290
     1
176
     1
290
     0
176
     1
290
     0
176
     1
290
     0
176
     1
290
     0
176
     1
290
     0
176
     1
290
     0
176
     1
 90
       50
176
     1
 40
0.0
176
     1
 40
1.0
176
     1
 90
        0
176
     1
 62
    18
420
        0
176
     1
 90
       50
176
     1
 90
        3
176
     1
 62
     5
420
      255
176
     1
290
     0
176
     1
 90
       50
176
     1
 90
       50
176
     1
 90
       50
176
     1
290
     0
176
     1
 90
       50
176
     1
 62
   256
176
     0
 40
1.0
176
     0
 90
        2
176
     1
  1
strokes_ogs.tif
176
     1
290
     0
176
     1
 40
1.0
176
     1
 40
1.0
176
     1
  0
VISUALSTYLE
  5
2C
102
{ACAD_REACTORS
330
2A
102
}
330
2A
100
AcDbVisualStyle
  2
FlatWithEdges
 70
     1
177
     3
291
     1
 70
    58
 90
        2
176
     1
 90
        1
176
     1
 90
        1
176
     1
 90
        2
176
     1
 40
0.6
176
     1
 40
30.0
176
     1
 62
     7
420
 16777215
176
     1
 90
        1
176
     1
 90
        0
176
     1
 62
     7
176
     1
 62
   257
176
     1
 90
        1
176
     1
 90
        1
176
     1
 40
1.0
176
     1
 90
        0
176
     1
 62
   257
176
     1
 40
1.0
176
     1
 90
        1
176
     1
 90
        6
176
     1
 90
        2
176
     1
 62
     7
176
     1
 90
        5
176
     1
 90
        0
176
     1
 90
        0
176
     1
290
     0
176
     1
 90
       13
176
     1
 40
0.0
176
     1
 90
        0
176
     1
290
     0
176
     1
290
     1
176
     1
290
     1
176
     1
290
     0
176
     1
290
     0
176
     1
290
     0
176
     1
290
     0
176
     1
290
     0
176
     1
290
     0
176
     1
 90
       50
176
     1
 40
0.0
176
     1
 40
1.0
176
     1
 90
        0
176
     1
 62
    18
420
        0
176
     1
 90
       50
176
     1
 90
        3
176
     1
 62
     5
420
      255
176
     1
290
     0
176
     1
 90
       50
176
     1
 90
       50
176
     1
 90
       50
176
     1
290
     0
176
     1
 90
       50
176
     1
 62
   256
176
     0
 40
1.0
176
     0
 90
        2
176
     1
  1
strokes_ogs.tif
176
     1
290
     0
176
     1
 40
1.0
176
     1
 40
1.0
176
     1
  0
VISUALSTYLE
  5
2D
102
{ACAD_REACTORS
330
2A
102
}
330
2A
100
AcDbVisualStyle
  2
Gouraud
 70
     2
177
     3
291
     1
 70
    58
 90
        2
176
     1
 90
        2
176
     1
 90
        1
176
     1
 90
        2
176
     1
 40
0.6
176
     1
 40
30.0
176
     1
 62
     7
420
 16777215
176
     1
 90
        0
176
     1
 90
        0
176
     1
 62
     7
176
     1
 62
   257
176
     1
 90
        1
176
     1
 90
        1
176
     1
 40
1.0
176
     1
 90
        0
176
     1
 62
     7
176
     1
 40
1.0
176
     1
 90
        1
176
     1
 90
        6
176
     1
 90
        2
176
     1
 62
     7
176
     1
 90
        5
176
     1
 90
        0
176
     1
 90
        0
176
     1
290
     0
176
     1
 90
       13
176
     1
 40
0.0
176
     1
 90
        0
176
     1
290
     0
176
     1
290
     1
176
     1
290
     1
176
     1
290
     0
176
     1
290
     0
176
     1
290
     0
176
     1
290
     0
176
     1
290
     0
176
     1
290
     0
176
     1
 90
       50
176
     1
 40
0.0
176
     1
 40
1.0
176
     1
 90
        0
176
     1
 62
    18
420
        0
176
     1
 90
       50
176
     1
 90
        3
176
     1
 62
     5
420
      255
176
     1
290
     0
176
     1
 90
       50
176
     1
 90
       50
176
     1
 90
       50
176
     1
290
     0
176
     1
 90
       50
176
     1
 62
   256
176
     0
 40
1.0
176
     0
 90
        2
176
     1
  1
strokes_ogs.tif
176
     1
290
     0
176
     1
 40
1.0
176
     1
 40
1.0
176
     1
  0
VISUALSTYLE
  5
2E
102
{ACAD_REACTORS
330
2A
102
}
330
2A
100
AcDbVisualStyle
  2
GouraudWithEdges
 70
     3
177
     3
291
     1
 70
    58
 90
        2
176
     1
 90
        2
176
     1
 90
        1
176
     1
 90
        2
176
     1
 40
0.6
176
     1
 40
30.0
176
     1
 62
     7
420
 16777215
176
     1
 90
        1
176
     1
 90
        0
176
     1
 62
     7
176
     1
 62
   257
176
     1
 90
        1
176
     1
 90
        1
176
     1
 40
1.0
176
     1
 90
        0
176
     1
 62
   257
176
     1
 40
1.0
176
     1
 90
        1
176
     1
 90
        6
176
     1
 90
        2
176
     1
 62
     7
176
     1
 90
        5
176
     1
 90
        0
176
     1
 90
        0
176
     1
290
     0
176
     1
 90
       13
176
     1
 40
0.0
176
     1
 90
        0
176
     1
290
     0
176
     1
290
     1
176
     1
290
     1
176
     1
290
     0
176
     1
290
     0
176
     1
290
     0
176
     1
290
     0
176
     1
290
     0
176
     1
290
     0
176
     1
 90
       50
176
     1
 40
0.0
176
     1
 40
1.0
176
     1
 90
        0
176
     1
 62
    18
420
        0
176
     1
 90
       50
176
     1
 90
        3
176
     1
 62
     5
420
      255
176
     1
290
     0
176
     1
 90
       50
176
     1
 90
       50
176
     1
 90
       50
176
     1
290
     0
176
     1
 90
       50
176
     1
 62
   256
176
     0
 40
1.0
176
     0
 90
        2
176
     1
  1
strokes_ogs.tif
176
     1
290
     0
176
     1
 40
1.0
176
     1
 40
1.0
176
     1
  0
VISUALSTYLE
  5
31
102
{ACAD_REACTORS
330
2A
102
}
330
2A
100
AcDbVisualStyle
  2
Hidden
 70
     6
177
     3
291
     0
 70
    58
 90
        1
176
     1
 90
        2
176
     1
 90
        2
176
     1
 90
        0
176
     1
 40
0.6
176
     1
 40
30.0
176
     1
 62
     7
420
 16777215
176
     1
 90
        2
176
     1
 90
        2
176
     1
 62
     7
176
     1
 62
   257
176
     1
 90
        2
176
     1
 90
        1
176
     1
 40
40.0
176
     1
 90
        0
176
     1
 62
   257
176
     1
 40
1.0
176
     1
 90
        1
176
     1
 90
        6
176
     1
 90
        2
176
     1
 62
     7
176
     1
 90
        3
176
     1
 90
        0
176
     1
 90
        0
176
     1
290
     0
176
     1
 90
        1
176
     1
 40
0.0
176
     1
 90
        0
176
     1
290
     0
176
     1
290
     1
176
     1
290
     1
176
     1
290
     0
176
     1
290
     0
176
     1
290
     0
176
     1
290
     0
176
     1
290
     0
176
     1
290
     0
176
     1
 90
       50
176
     1
 40
0.0
176
     1
 40
1.0
176
     1
 90
        0
176
     1
 62
    18
420
        0
176
     1
 90
       50
176
     1
 90
        3
176
     1
 62
     5
420
      255
176
     1
290
     0
176
     1
 90
       50
176
     1
 90
       50
176
     1
 90
       50
176
     1
290
     0
176
     1
 90
       50
176
     1
 62
   256
176
     0
 40
1.0
176
     0
 90
        2
176
     1
  1
strokes_ogs.tif
176
     1
290
     0
176
     1
 40
1.0
176
     1
 40
1.0
176
     1
  0
VISUALSTYLE
  5
3B
102
{ACAD_REACTORS
330
2A
102
}
330
2A
100
AcDbVisualStyle
  2
JitterOff
 70
    20
177
     3
291
     1
 70
    58
 90
        2
176
     0
 90
        2
176
     0
 90
        0
176
     0
 90
        0
176
     0
 40
0.6
176
     0
 40
30.0
176
     0
 62
     7
420
 16777215
176
     0
 90
        1
176
     0
 90
        4
176
     0
 62
     7
176
     0
 62
   257
176
     0
 90
        1
176
     0
 90
        1
176
     0
 40
1.0
176
     0
 90
       10
176
     2
 62
     7
176
     0
 40
1.0
176
     0
 90
        1
176
     0
 90
        6
176
     0
 90
        2
176
     0
 62
     7
176
     0
 90
        5
176
     0
 90
        0
176
     0
 90
        0
176
     0
290
     0
176
     0
 90
        1
176
     0
 40
0.0
176
     0
 90
        0
176
     0
290
     0
176
     0
290
     1
176
     0
290
     1
176
     0
290
     0
176
     0
290
     0
176
     0
290
     0
176
     0
290
     0
176
     0
290
     0
176
     0
290
     0
176
     0
 90
       50
176
     0
 40
0.0
176
     0
 40
1.0
176
     0
 90
        0
176
     0
 62
    18
420
        0
176
     0
 90
       50
176
     0
 90
        3
176
     0
 62
     5
420
      255
176
     0
290
     0
176
     0
 90
       50
176
     0
 90
       50
176
     0
 90
       50
176
     0
290
     0
176
     0
 90
       50
176
     0
 62
   256
176
     0
 40
1.0
176
     0
 90
        2
176
     0
  1
strokes_ogs.tif
176
     0
290
     0
176
     0
 40
1.0
176
     0
 40
1.0
176
     0
  0
VISUALSTYLE
  5
38
102
{ACAD_REACTORS
330
2A
102
}
330
2A
100
AcDbVisualStyle
  2
Linepattern
 70
    14
177
     3
291
     1
 70
    58
 90
        2
176
     1
 90
        2
176
     1
 90
        0
176
     1
 90
        0
176
     1
 40
0.6
176
     1
 40
30.0
176
     1
 62
     7
420
 16777215
176
     1
 90
        1
176
     1
 90
        4
176
     1
 62
     7
176
     1
 62
   257
176
     1
 90
        7
176
     1
 90
        7
176
     1
 40
1.0
176
     1
 90
        8
176
     1
 62
     7
176
     1
 40
1.0
176
     1
 90
        1
176
     1
 90
        6
176
     1
 90
        2
176
     1
 62
     7
176
     1
 90
        5
176
     1
 90
        0
176
     1
 90
        0
176
     1
290
     0
176
     1
 90
        1
176
     1
 40
0.0
176
     1
 90
        0
176
     1
290
     0
176
     1
290
     1
176
     1
290
     1
176
     1
290
     0
176
     1
290
     0
176
     1
290
     0
176
     1
290
     0
176
     1
290
     0
176
     1
290
     0
176
     1
 90
       50
176
     1
 40
0.0
176
     1
 40
1.0
176
     1
 90
        0
176
     1
 62
    18
420
        0
176
     1
 90
       50
176
     1
 90
        3
176
     1
 62
     5
420
      255
176
     1
290
     0
176
     1
 90
       50
176
     1
 90
       50
176
     1
 90
       50
176
     1
290
     0
176
     1
 90
       50
176
     1
 62
   256
176
     0
 40
1.0
176
     0
 90
        2
176
     1
  1
strokes_ogs.tif
176
     1
290
     0
176
     1
 40
1.0
176
     1
 40
1.0
176
     1
  0
VISUALSTYLE
  5
3C
102
{ACAD_REACTORS
330
2A
102
}
330
2A
100
AcDbVisualStyle
  2
OverhangOff
 70
    21
177
     3
291
     1
 70
    58
 90
        2
176
     0
 90
        2
176
     0
 90
        0
176
     0
 90
        0
176
     0
 40
0.6
176
     0
 40
30.0
176
     0
 62
     7
420
 16777215
176
     0
 90
        1
176
     0
 90
        4
176
     0
 62
     7
176
     0
 62
   257
176
     0
 90
        1
176
     0
 90
        1
176
     0
 40
1.0
176
     0
 90
        9
176
     2
 62
     7
176
     0
 40
1.0
176
     0
 90
        1
176
     0
 90
        6
176
     0
 90
        2
176
     0
 62
     7
176
     0
 90
        5
176
     0
 90
        0
176
     0
 90
        0
176
     0
290
     0
176
     0
 90
        1
176
     0
 40
0.0
176
     0
 90
        0
176
     0
290
     0
176
     0
290
     1
176
     0
290
     1
176
     0
290
     0
176
     0
290
     0
176
     0
290
     0
176
     0
290
     0
176
     0
290
     0
176
     0
290
     0
176
     0
 90
       50
176
     0
 40
0.0
176
     0
 40
1.0
176
     0
 90
        0
176
     0
 62
    18
420
        0
176
     0
 90
       50
176
     0
 90
        3
176
     0
 62
     5
420
      255
176
     0
290
     0
176
     0
 90
       50
176
     0
 90
       50
176
     0
 90
       50
176
     0
290
     0
176
     0
 90
       50
176
     0
 62
   256
176
     0
 40
1.0
176
     0
 90
        2
176
     0
  1
strokes_ogs.tif
176
     0
290
     0
176
     0
 40
1.0
176
     0
 40
1.0
176
     0
  0
VISUALSTYLE
  5
33
102
{ACAD_REACTORS
330
2A
102
}
330
2A
100
AcDbVisualStyle
  2
Realistic
 70
     8
177
     3
291
     0
 70
    58
 90
        2
176
     1
 90
        3
176
     1
 90
        0
176
     1
 90
        2
176
     1
 40
0.6
176
     1
 40
30.0
176
     1
 62
     7
420
 16777215
176
     1
 90
        0
176
     1
 90
        0
176
     1
 62
     7
176
     1
 62
   257
176
     1
 90
        1
176
     1
 90
        1
176
     1
 40
1.0
176
     1
 90
        8
176
     1
 62
   257
176
     1
 40
1.0
176
     1
 90
        1
176
     1
 90
        6
176
     1
 90
        2
176
     1
 62
     7
176
     1
 90
        3
176
     1
 90
        0
176
     1
 90
        0
176
     1
290
     0
176
     1
 90
       13
176
     1
 40
0.0
176
     1
 90
        0
176
     1
290
     0
176
     1
290
     1
176
     1
290
     1
176
     1
290
     0
176
     1
290
     0
176
     1
290
     0
176
     1
290
     0
176
     1
290
     0
176
     1
290
     0
176
     1
 90
       50
176
     1
 40
0.0
176
     1
 40
1.0
176
     1
 90
        0
176
     1
 62
    18
420
        0
176
     1
 90
       50
176
     1
 90
        3
176
     1
 62
     5
420
      255
176
     1
290
     0
176
     1
 90
       50
176
     1
 90
       50
176
     1
 90
       50
176
     1
290
     0
176
     1
 90
       50
176
     1
 62
   256
176
     0
 40
1.0
176
     0
 90
        2
176
     1
  1
strokes_ogs.tif
176
     1
290
     0
176
     1
 40
1.0
176
     1
 40
1.0
176
     1
  0
VISUALSTYLE
  5
42
102
{ACAD_REACTORS
330
2A
102
}
330
2A
100
AcDbVisualStyle
  2
Shaded
 70
    27
177
     3
291
     0
 70
    58
 90
        2
176
     1
 90
        2
176
     1
 90
        1
176
     1
 90
        2
176
     1
 40
0.6
176
     1
 40
30.0
176
     1
 62
     7
420
 16777215
176
     1
 90
        0
176
     1
 90
        4
176
     1
 62
     7
176
     1
 62
   257
176
     1
 90
        1
176
     1
 90
        1
176
     1
 40
1.0
176
     1
 90
        8
176
     1
 62
   257
176
     1
 40
1.0
176
     1
 90
        1
176
     1
 90
        6
176
     1
 90
        2
176
     1
 62
     8
420
  7895160
176
     1
 90
        3
176
     1
 90
        0
176
     1
 90
        0
176
     1
290
     0
176
     1
 90
        5
176
     1
 40
0.0
176
     1
 90
        0
176
     1
290
     0
176
     1
290
     1
176
     1
290
     1
176
     1
290
     0
176
     1
290
     0
176
     1
290
     0
176
     1
290
     0
176
     1
290
     0
176
     1
290
     0
176
     1
 90
       50
176
     1
 40
0.0
176
     1
 40
1.0
176
     1
 90
        0
176
     1
 62
    18
420
        0
176
     1
 90
       50
176
     1
 90
        3
176
     1
 62
     5
420
      255
176
     1
290
     0
176
     1
 90
       50
176
     1
 90
       50
176
     1
 90
       50
176
     1
290
     0
176
     1
 90
       50
176
     1
 62
   256
176
     0
 40
1.0
176
     0
 90
        2
176
     1
  1
strokes_ogs.tif
176
     1
290
     0
176
     1
 40
1.0
176
     1
 40
1.0
176
     1
  0
VISUALSTYLE
  5
41
102
{ACAD_REACTORS
330
2A
102
}
330
2A
100
AcDbVisualStyle
  2
Shaded with edges
 70
    26
177
     3
291
     0
 70
    58
 90
        2
176
     1
 90
        2
176
     1
 90
        1
176
     1
 90
        2
176
     1
 40
0.6
176
     1
 40
30.0
176
     1
 62
     7
420
 16777215
176
     1
 90
        1
176
     1
 90
       10
176
     1
 62
     7
176
     1
 62
   257
176
     1
 90
        2
176
     1
 90
        1
176
     1
 40
1.0
176
     1
 90
        8
176
     1
 62
   257
176
     1
 40
1.0
176
     1
 90
        1
176
     1
 90
        6
176
     1
 90
        2
176
     1
 62
     7
176
     1
 90
        3
176
     1
 90
        0
176
     1
 90
        0
176
     1
290
     0
176
     1
 90
        5
176
     1
 40
0.0
176
     1
 90
        0
176
     1
290
     0
176
     1
290
     1
176
     1
290
     1
176
     1
290
     0
176
     1
290
     0
176
     1
290
     0
176
     1
290
     0
176
     1
290
     0
176
     1
290
     0
176
     1
 90
       50
176
     1
 40
0.0
176
     1
 40
1.0
176
     1
 90
        0
176
     1
 62
    18
420
        0
176
     1
 90
       50
176
     1
 90
        3
176
     1
 62
     5
420
      255
176
     1
290
     0
176
     1
 90
       50
176
     1
 90
       50
176
     1
 90
       50
176
     1
290
     0
176
     1
 90
       50
176
     1
 62
   256
176
     0
 40
1.0
176
     0
 90
        2
176
     1
  1
strokes_ogs.tif
176
     1
290
     0
176
     1
 40
1.0
176
     1
 40
1.0
176
     1
  0
VISUALSTYLE
  5
3E
102
{ACAD_REACTORS
330
2A
102
}
330
2A
100
AcDbVisualStyle
  2
Shades of Gray
 70
    23
177
     3
291
     0
 70
    58
 90
        2
176
     1
 90
        2
176
     1
 90
        3
176
     1
 90
        0
176
     1
 40
0.6
176
     1
 40
30.0
176
     1
 62
     7
420
 16777215
176
     1
 90
        2
176
     1
 90
        2
176
     1
 62
     7
176
     1
 62
     7
176
     1
 90
        1
176
     1
 90
        1
176
     1
 40
40.0
176
     1
 90
        8
176
     1
 62
     7
176
     1
 40
1.0
176
     1
 90
        1
176
     1
 90
        6
176
     1
 90
        2
176
     1
 62
     7
176
     1
 90
        3
176
     1
 90
        0
176
     1
 90
        0
176
     1
290
     0
176
     1
 90
        1
176
     1
 40
0.0
176
     1
 90
        0
176
     1
290
     0
176
     1
290
     1
176
     1
290
     1
176
     1
290
     0
176
     1
290
     0
176
     1
290
     0
176
     1
290
     0
176
     1
290
     0
176
     1
290
     0
176
     1
 90
       50
176
     1
 40
0.0
176
     1
 40
1.0
176
     1
 90
        0
176
     1
 62
    18
420
        0
176
     1
 90
       50
176
     1
 90
        3
176
     1
 62
     5
420
      255
176
     1
290
     0
176
     1
 90
       50
176
     1
 90
       50
176
     1
 90
       50
176
     1
290
     0
176
     1
 90
       50
176
     1
 62
   256
176
     0
 40
1.0
176
     0
 90
        2
176
     1
  1
strokes_ogs.tif
176
     1
290
     0
176
     1
 40
1.0
176
     1
 40
1.0
176
     1
  0
VISUALSTYLE
  5
3F
102
{ACAD_REACTORS
330
2A
102
}
330
2A
100
AcDbVisualStyle
  2
Sketchy
 70
    24
177
     3
291
     0
 70
    58
 90
        1
176
     1
 90
        2
176
     1
 90
        2
176
     1
 90
        0
176
     1
 40
0.6
176
     1
 40
30.0
176
     1
 62
     7
420
 16777215
176
     1
 90
        2
176
     1
 90
        2
176
     1
 62
     7
176
     1
 62
     7
176
     1
 90
        1
176
     1
 90
        1
176
     1
 40
40.0
176
     1
 90
       11
176
     1
 62
     7
176
     1
 40
1.0
176
     1
 90
        1
176
     1
 90
        6
176
     1
 90
        2
176
     1
 62
     7
176
     1
 90
        6
176
     1
 90
        0
176
     1
 90
        0
176
     1
290
     0
176
     1
 90
        1
176
     1
 40
0.0
176
     1
 90
        0
176
     1
290
     0
176
     1
290
     1
176
     1
290
     1
176
     1
290
     0
176
     1
290
     0
176
     1
290
     0
176
     1
290
     0
176
     1
290
     0
176
     1
290
     0
176
     1
 90
       50
176
     1
 40
0.0
176
     1
 40
1.0
176
     1
 90
        0
176
     1
 62
    18
420
        0
176
     1
 90
       50
176
     1
 90
        3
176
     1
 62
     5
420
      255
176
     1
290
     0
176
     1
 90
       50
176
     1
 90
       50
176
     1
 90
       50
176
     1
290
     0
176
     1
 90
       50
176
     1
 62
   256
176
     0
 40
1.0
176
     0
 90
        2
176
     1
  1
strokes_ogs.tif
176
     1
290
     0
176
     1
 40
1.0
176
     1
 40
1.0
176
     1
  0
VISUALSTYLE
  5
37
102
{ACAD_REACTORS
330
2A
102
}
330
2A
100
AcDbVisualStyle
  2
Thicken
 70
    13
177
     3
291
     1
 70
    58
 90
        2
176
     1
 90
        2
176
     1
 90
        0
176
     1
 90
        0
176
     1
 40
0.6
176
     1
 40
30.0
176
     1
 62
     7
420
 16777215
176
     1
 90
        1
176
     1
 90
        4
176
     1
 62
     7
176
     1
 62
   257
176
     1
 90
        1
176
     1
 90
        1
176
     1
 40
1.0
176
     1
 90
       12
176
     1
 62
     7
176
     1
 40
1.0
176
     1
 90
        1
176
     1
 90
        6
176
     1
 90
        2
176
     1
 62
     7
176
     1
 90
        5
176
     1
 90
        0
176
     1
 90
        0
176
     1
290
     0
176
     1
 90
        1
176
     1
 40
0.0
176
     1
 90
        0
176
     1
290
     0
176
     1
290
     1
176
     1
290
     1
176
     1
290
     0
176
     1
290
     0
176
     1
290
     0
176
     1
290
     0
176
     1
290
     0
176
     1
290
     0
176
     1
 90
       50
176
     1
 40
0.0
176
     1
 40
1.0
176
     1
 90
        0
176
     1
 62
    18
420
        0
176
     1
 90
       50
176
     1
 90
        3
176
     1
 62
     5
420
      255
176
     1
290
     0
176
     1
 90
       50
176
     1
 90
       50
176
     1
 90
       50
176
     1
290
     0
176
     1
 90
       50
176
     1
 62
   256
176
     0
 40
1.0
176
     0
 90
        2
176
     1
  1
strokes_ogs.tif
176
     1
290
     0
176
     1
 40
1.0
176
     1
 40
1.0
176
     1
  0
VISUALSTYLE
  5
30
102
{ACAD_REACTORS
330
2A
102
}
330
2A
100
AcDbVisualStyle
  2
Wireframe
 70
     5
177
     3
291
     0
 70
    58
 90
        0
176
     1
 90
        2
176
     1
 90
        0
176
     1
 90
        0
176
     1
 40
0.6
176
     1
 40
30.0
176
     1
 62
     7
420
 16777215
176
     1
 90
        1
176
     1
 90
        4
176
     1
 62
     7
176
     1
 62
   257
176
     1
 90
        1
176
     1
 90
        1
176
     1
 40
1.0
176
     1
 90
        0
176
     1
 62
   257
176
     1
 40
1.0
176
     1
 90
        1
176
     1
 90
        6
176
     1
 90
        2
176
     1
 62
     7
176
     1
 90
        3
176
     1
 90
        0
176
     1
 90
        0
176
     1
290
     0
176
     1
 90
        1
176
     1
 40
0.0
176
     1
 90
        0
176
     1
290
     0
176
     1
290
     1
176
     1
290
     1
176
     1
290
     0
176
     1
290
     0
176
     1
290
     0
176
     1
290
     0
176
     1
290
     0
176
     1
290
     0
176
     1
 90
       50
176
     1
 40
0.0
176
     1
 40
1.0
176
     1
 90
        0
176
     1
 62
    18
420
        0
176
     1
 90
       50
176
     1
 90
        3
176
     1
 62
     5
420
      255
176
     1
290
     0
176
     1
 90
       50
176
     1
 90
       50
176
     1
 90
       50
176
     1
290
     0
176
     1
 90
       50
176
     1
 62
   256
176
     0
 40
1.0
176
     0
 90
        2
176
     1
  1
strokes_ogs.tif
176
     1
290
     0
176
     1
 40
1.0
176
     1
 40
1.0
176
     1
  0
VISUALSTYLE
  5
40
102
{ACAD_REACTORS
330
2A
102
}
330
2A
100
AcDbVisualStyle
  2
X-Ray
 70
    25
177
     3
291
     0
 70
    58
 90
        2
176
     1
 90
        2
176
     1
 90
        1
176
     1
 90
        1
176
     1
 40
0.5
176
     1
 40
30.0
176
     1
 62
     7
420
 16777215
176
     1
 90
        1
176
     1
 90
        0
176
     1
 62
     7
176
     1
 62
   257
176
     1
 90
        1
176
     1
 90
        1
176
     1
 40
1.0
176
     1
 90
        8
176
     1
 62
     7
176
     1
 40
1.0
176
     1
 90
        1
176
     1
 90
        6
176
     1
 90
        2
176
     1
 62
     7
176
     1
 90
        3
176
     1
 90
        0
176
     1
 90
        0
176
     1
290
     0
176
     1
 90
       13
176
     1
 40
0.0
176
     1
 90
        0
176
     1
290
     0
176
     1
290
     1
176
     1
290
     1
176
     1
290
     0
176
     1
290
     0
176
     1
290
     0
176
     1
290
     0
176
     1
290
     0
176
     1
290
     0
176
     1
 90
       50
176
     1
 40
0.0
176
     1
 40
1.0
176
     1
 90
        0
176
     1
 62
    18
420
        0
176
     1
 90
       50
176
     1
 90
        3
176
     1
 62
     5
420
      255
176
     1
290
     0
176
     1
 90
       50
176
     1
 90
       50
176
     1
 90
       50
176
     1
290
     0
176
     1
 90
       50
176
     1
 62
   256
176
     0
 40
1.0
176
     0
 90
        2
176
     1
  1
strokes_ogs.tif
176
     1
290
     0
176
     1
 40
1.0
176
     1
 40
1.0
176
     1
  0
DICTIONARYVAR
  5
7B
102
{ACAD_REACTORS
330
7A
102
}
330
7A
100
DictionaryVariables
280
     0
  1
1:1
  0
DICTIONARYVAR
  5
80
102
{ACAD_REACTORS
330
7A
102
}
330
7A
100
DictionaryVariables
280
     0
  1
Standard
  0
DICTIONARYVAR
  5
7F
102
{ACAD_REACTORS
330
7A
102
}
330
7A
100
DictionaryVariables
280
     0
  1
Standard
  0
DICTIONARY
  5
7C
330
5A
100
AcDbDictionary
280
     1
281
     1
  3
ACAD_ROUNDTRIP_2008_TABLESTYLE_CELLSTYLEMAP
360
7D
  0
CELLSTYLEMAP
  5
7D
102
{ACAD_REACTORS
330
7C
102
}
330
7C
100
AcDbCellStyleMap
 90
        3
300
CELLSTYLE
  1
TABLEFORMAT_BEGIN
 90
        5
170
     1
 91
        0
 92
    32768
 62
   257
 93
        1
300
CONTENTFORMAT
  1
CONTENTFORMAT_BEGIN
 90
        0
 91
        0
 92
        4
 93
        0
300

 40
0.0
140
1.0
 94
        5
 62
     0
340
11
144
0.25
309
CONTENTFORMAT_END
171
     1
301
MARGIN
  1
CELLMARGIN_BEGIN
 40
0.06
 40
0.06
 40
0.06
 40
0.06
 40
0.06
 40
0.06
309
CELLMARGIN_END
 94
        6
 95
        1
302
GRIDFORMAT
  1
GRIDFORMAT_BEGIN
 90
        0
 91
        1
 62
     0
 92
       -2
340
14
 93
        0
 40
0.045
309
GRIDFORMAT_END
 95
        2
302
GRIDFORMAT
  1
GRIDFORMAT_BEGIN
 90
        0
 91
        1
 62
     0
 92
       -2
340
14
 93
        0
 40
0.045
309
GRIDFORMAT_END
 95
        4
302
GRIDFORMAT
  1
GRIDFORMAT_BEGIN
 90
        0
 91
        1
 62
     0
 92
       -2
340
14
 93
        0
 40
0.045
309
GRIDFORMAT_END
 95
        8
302
GRIDFORMAT
  1
GRIDFORMAT_BEGIN
 90
        0
 91
        1
 62
     0
 92
       -2
340
14
 93
        0
 40
0.045
309
GRIDFORMAT_END
 95
       16
302
GRIDFORMAT
  1
GRIDFORMAT_BEGIN
 90
        0
 91
        1
 62
     0
 92
       -2
340
14
 93
        0
 40
0.045
309
GRIDFORMAT_END
 95
       32
302
GRIDFORMAT
  1
GRIDFORMAT_BEGIN
 90
        0
 91
        1
 62
     0
 92
       -2
340
14
 93
        0
 40
0.045
309
GRIDFORMAT_END
309
TABLEFORMAT_END
  1
CELLSTYLE_BEGIN
 90
        1
 91
        1
300
_TITLE
309
CELLSTYLE_END
300
CELLSTYLE
  1
TABLEFORMAT_BEGIN
 90
        5
170
     1
 91
        0
 92
        0
 62
   257
 93
        1
300
CONTENTFORMAT
  1
CONTENTFORMAT_BEGIN
 90
        0
 91
        0
 92
        4
 93
        0
300

 40
0.0
140
1.0
 94
        5
 62
     0
340
11
144
0.18
309
CONTENTFORMAT_END
171
     1
301
MARGIN
  1
CELLMARGIN_BEGIN
 40
0.06
 40
0.06
 40
0.06
 40
0.06
 40
0.06
 40
0.06
309
CELLMARGIN_END
 94
        6
 95
        1
302
GRIDFORMAT
  1
GRIDFORMAT_BEGIN
 90
        0
 91
        1
 62
     0
 92
       -2
340
14
 93
        0
 40
0.045
309
GRIDFORMAT_END
 95
        2
302
GRIDFORMAT
  1
GRIDFORMAT_BEGIN
 90
        0
 91
        1
 62
     0
 92
       -2
340
14
 93
        0
 40
0.045
309
GRIDFORMAT_END
 95
        4
302
GRIDFORMAT
  1
GRIDFORMAT_BEGIN
 90
        0
 91
        1
 62
     0
 92
       -2
340
14
 93
        0
 40
0.045
309
GRIDFORMAT_END
 95
        8
302
GRIDFORMAT
  1
GRIDFORMAT_BEGIN
 90
        0
 91
        1
 62
     0
 92
       -2
340
14
 93
        0
 40
0.045
309
GRIDFORMAT_END
 95
       16
302
GRIDFORMAT
  1
GRIDFORMAT_BEGIN
 90
        0
 91
        1
 62
     0
 92
       -2
340
14
 93
        0
 40
0.045
309
GRIDFORMAT_END
 95
       32
302
GRIDFORMAT
  1
GRIDFORMAT_BEGIN
 90
        0
 91
        1
 62
     0
 92
       -2
340
14
 93
        0
 40
0.045
309
GRIDFORMAT_END
309
TABLEFORMAT_END
  1
CELLSTYLE_BEGIN
 90
        2
 91
        1
300
_HEADER
309
CELLSTYLE_END
300
CELLSTYLE
  1
TABLEFORMAT_BEGIN
 90
        5
170
     1
 91
        0
 92
        0
 62
   257
 93
        1
300
CONTENTFORMAT
  1
CONTENTFORMAT_BEGIN
 90
        0
 91
        0
 92
        4
 93
        0
300

 40
0.0
140
1.0
 94
        2
 62
     0
340
11
144
0.18
309
CONTENTFORMAT_END
171
     1
301
MARGIN
  1
CELLMARGIN_BEGIN
 40
0.06
 40
0.06
 40
0.06
 40
0.06
 40
0.06
 40
0.06
309
CELLMARGIN_END
 94
        6
 95
        1
302
GRIDFORMAT
  1
GRIDFORMAT_BEGIN
 90
        0
 91
        1
 62
     0
 92
       -2
340
14
 93
        0
 40
0.045
309
GRIDFORMAT_END
 95
        2
302
GRIDFORMAT
  1
GRIDFORMAT_BEGIN
 90
        0
 91
        1
 62
     0
 92
       -2
340
14
 93
        0
 40
0.045
309
GRIDFORMAT_END
 95
        4
302
GRIDFORMAT
  1
GRIDFORMAT_BEGIN
 90
        0
 91
        1
 62
     0
 92
       -2
340
14
 93
        0
 40
0.045
309
GRIDFORMAT_END
 95
        8
302
GRIDFORMAT
  1
GRIDFORMAT_BEGIN
 90
        0
 91
        1
 62
     0
 92
       -2
340
14
 93
        0
 40
0.045
309
GRIDFORMAT_END
 95
       16
302
GRIDFORMAT
  1
GRIDFORMAT_BEGIN
 90
        0
 91
        1
 62
     0
 92
       -2
340
14
 93
        0
 40
0.045
309
GRIDFORMAT_END
 95
       32
302
GRIDFORMAT
  1
GRIDFORMAT_BEGIN
 90
        0
 91
        1
 62
     0
 92
       -2
340
14
 93
        0
 40
0.045
309
GRIDFORMAT_END
309
TABLEFORMAT_END
  1
CELLSTYLE_BEGIN
 90
        3
 91
        2
300
_DATA
309
CELLSTYLE_END
  0
ENDSEC
  0
EOF
