  0
SECTION
  2
HEADER
  9
$ACADVER
  1
AC1027
  9
$ACADMAINTVER
 70
   105
  9
$DWGCODEPAGE
  3
ANSI_1252
  9
$LASTSAVEDBY
  1
Office Desk
  9
$REQUIREDVERSIONS
160
                 0
  9
$INSBASE
 10
0.0
 20
0.0
 30
0.0
  9
$EXTMIN
 10
-30.36099606299213
 20
-6.196704724409448
 30
0.0
  9
$EXTMAX
 10
-22.73392125984252
 20
0.9380472440944881
 30
0.0
  9
$LIMMIN
 10
0.0
 20
0.0
  9
$LIMMAX
 10
12.0
 20
9.0
  9
$ORTHOMODE
 70
     0
  9
$REGENMODE
 70
     1
  9
$FILLMODE
 70
     1
  9
$QTEXTMODE
 70
     0
  9
$MIRRTEXT
 70
     1
  9
$LTSCALE
 40
1.0
  9
$ATTMODE
 70
     1
  9
$TEXTSIZE
 40
0.2
  9
$TRACEWID
 40
0.05
  9
$TEXTSTYLE
  7
Standard
  9
$CLAYER
  8
0
  9
$CELTYPE
  6
ByLayer
  9
$CECOLOR
 62
   256
  9
$CELTSCALE
 40
1.0
  9
$DISPSILH
 70
     0
  9
$DIMSCALE
 40
1.0
  9
$DIMASZ
 40
0.18
  9
$DIMEXO
 40
0.0625
  9
$DIMDLI
 40
0.38
  9
$DIMRND
 40
0.0
  9
$DIMDLE
 40
0.0
  9
$DIMEXE
 40
0.18
  9
$DIMTP
 40
0.0
  9
$DIMTM
 40
0.0
  9
$DIMTXT
 40
0.18
  9
$DIMCEN
 40
0.09
  9
$DIMTSZ
 40
0.0
  9
$DIMTOL
 70
     0
  9
$DIMLIM
 70
     0
  9
$DIMTIH
 70
     1
  9
$DIMTOH
 70
     1
  9
$DIMSE1
 70
     0
  9
$DIMSE2
 70
     0
  9
$DIMTAD
 70
     0
  9
$DIMZIN
 70
     0
  9
$DIMBLK
  1

  9
$DIMASO
 70
     1
  9
$DIMSHO
 70
     1
  9
$DIMPOST
  1

  9
$DIMAPOST
  1

  9
$DIMALT
 70
     0
  9
$DIMALTD
 70
     2
  9
$DIMALTF
 40
25.4
  9
$DIMLFAC
 40
1.0
  9
$DIMTOFL
 70
     0
  9
$DIMTVP
 40
0.0
  9
$DIMTIX
 70
     0
  9
$DIMSOXD
 70
     0
  9
$DIMSAH
 70
     0
  9
$DIMBLK1
  1

  9
$DIMBLK2
  1

  9
$DIMSTYLE
  2
Standard
  9
$DIMCLRD
 70
     0
  9
$DIMCLRE
 70
     0
  9
$DIMCLRT
 70
     0
  9
$DIMTFAC
 40
1.0
  9
$DIMGAP
 40
0.09
  9
$DIMJUST
 70
     0
  9
$DIMSD1
 70
     0
  9
$DIMSD2
 70
     0
  9
$DIMTOLJ
 70
     1
  9
$DIMTZIN
 70
     0
  9
$DIMALTZ
 70
     0
  9
$DIMALTTZ
 70
     0
  9
$DIMUPT
 70
     0
  9
$DIMDEC
 70
     4
  9
$DIMTDEC
 70
     4
  9
$DIMALTU
 70
     2
  9
$DIMALTTD
 70
     2
  9
$DIMTXSTY
  7
Standard
  9
$DIMAUNIT
 70
     0
  9
$DIMADEC
 70
     0
  9
$DIMALTRND
 40
0.0
  9
$DIMAZIN
 70
     0
  9
$DIMDSEP
 70
    46
  9
$DIMATFIT
 70
     3
  9
$DIMFRAC
 70
     0
  9
$DIMLDRBLK
  1

  9
$DIMLUNIT
 70
     2
  9
$DIMLWD
 70
    -2
  9
$DIMLWE
 70
    -2
  9
$DIMTMOVE
 70
     0
  9
$DIMFXL
 40
1.0
  9
$DIMFXLON
 70
     0
  9
$DIMJOGANG
 40
0.7853981633974483
  9
$DIMTFILL
 70
     0
  9
$DIMTFILLCLR
 70
     0
  9
$DIMARCSYM
 70
     0
  9
$DIMLTYPE
  6

  9
$DIMLTEX1
  6

  9
$DIMLTEX2
  6

  9
$DIMTXTDIRECTION
 70
     0
  9
$LUNITS
 70
     2
  9
$LUPREC
 70
     4
  9
$SKETCHINC
 40
0.1
  9
$FILLETRAD
 40
0.0
  9
$AUNITS
 70
     0
  9
$AUPREC
 70
     0
  9
$MENU
  1
.
  9
$ELEVATION
 40
0.0
  9
$PELEVATION
 40
0.0
  9
$THICKNESS
 40
0.0
  9
$LIMCHECK
 70
     0
  9
$CHAMFERA
 40
0.0
  9
$CHAMFERB
 40
0.0
  9
$CHAMFERC
 40
0.0
  9
$CHAMFERD
 40
0.0
  9
$SKPOLY
 70
     0
  9
$TDCREATE
 40
2461028.607605024
  9
$TDUCREATE
 40
2461028.378438357
  9
$TDUPDATE
 40
2461028.607605024
  9
$TDUUPDATE
 40
2461028.378438357
  9
$TDINDWG
 40
0.0000000116
  9
$TDUSRTIMER
 40
0.0000000116
  9
$USRTIMER
 70
     1
  9
$ANGBASE
 50
0.0
  9
$ANGDIR
 70
     0
  9
$PDMODE
 70
     0
  9
$PDSIZE
 40
0.0
  9
$PLINEWID
 40
0.0
  9
$SPLFRAME
 70
     0
  9
$SPLINETYPE
 70
     6
  9
$SPLINESEGS
 70
     8
  9
$HANDSEED
  5
84
  9
$SURFTAB1
 70
     6
  9
$SURFTAB2
 70
     6
  9
$SURFTYPE
 70
     6
  9
$SURFU
 70
     6
  9
$SURFV
 70
     6
  9
$UCSBASE
  2

  9
$UCSNAME
  2

  9
$UCSORG
 10
0.0
 20
0.0
 30
0.0
  9
$UCSXDIR
 10
1.0
 20
0.0
 30
0.0
  9
$UCSYDIR
 10
0.0
 20
1.0
 30
0.0
  9
$UCSORTHOREF
  2

  9
$UCSORTHOVIEW
 70
     0
  9
$UCSORGTOP
 10
0.0
 20
0.0
 30
0.0
  9
$UCSORGBOTTOM
 10
0.0
 20
0.0
 30
0.0
  9
$UCSORGLEFT
 10
0.0
 20
0.0
 30
0.0
  9
$UCSORGRIGHT
 10
0.0
 20
0.0
 30
0.0
  9
$UCSORGFRONT
 10
0.0
 20
0.0
 30
0.0
  9
$UCSORGBACK
 10
0.0
 20
0.0
 30
0.0
  9
$PUCSBASE
  2

  9
$PUCSNAME
  2

  9
$PUCSORG
 10
0.0
 20
0.0
 30
0.0
  9
$PUCSXDIR
 10
1.0
 20
0.0
 30
0.0
  9
$PUCSYDIR
 10
0.0
 20
1.0
 30
0.0
  9
$PUCSORTHOREF
  2

  9
$PUCSORTHOVIEW
 70
     0
  9
$PUCSORGTOP
 10
0.0
 20
0.0
 30
0.0
  9
$PUCSORGBOTTOM
 10
0.0
 20
0.0
 30
0.0
  9
$PUCSORGLEFT
 10
0.0
 20
0.0
 30
0.0
  9
$PUCSORGRIGHT
 10
0.0
 20
0.0
 30
0.0
  9
$PUCSORGFRONT
 10
0.0
 20
0.0
 30
0.0
  9
$PUCSORGBACK
 10
0.0
 20
0.0
 30
0.0
  9
$USERI1
 70
     0
  9
$USERI2
 70
     0
  9
$USERI3
 70
     0
  9
$USERI4
 70
     0
  9
$USERI5
 70
     0
  9
$USERR1
 40
0.0
  9
$USERR2
 40
0.0
  9
$USERR3
 40
0.0
  9
$USERR4
 40
0.0
  9
$USERR5
 40
0.0
  9
$WORLDVIEW
 70
     1
  9
$SHADEDGE
 70
     3
  9
$SHADEDIF
 70
    70
  9
$TILEMODE
 70
     1
  9
$MAXACTVP
 70
    64
  9
$PINSBASE
 10
0.0
 20
0.0
 30
0.0
  9
$PLIMCHECK
 70
     0
  9
$PEXTMIN
 10
1.000000000000000E+20
 20
1.000000000000000E+20
 30
1.000000000000000E+20
  9
$PEXTMAX
 10
-1.000000000000000E+20
 20
-1.000000000000000E+20
 30
-1.000000000000000E+20
  9
$PLIMMIN
 10
0.0
 20
0.0
  9
$PLIMMAX
 10
12.0
 20
9.0
  9
$UNITMODE
 70
     0
  9
$VISRETAIN
 70
     1
  9
$PLINEGEN
 70
     0
  9
$PSLTSCALE
 70
     1
  9
$TREEDEPTH
 70
  3020
  9
$CMLSTYLE
  2
Standard
  9
$CMLJUST
 70
     0
  9
$CMLSCALE
 40
1.0
  9
$PROXYGRAPHICS
 70
     1
  9
$MEASUREMENT
 70
     0
  9
$CELWEIGHT
370
    -1
  9
$ENDCAPS
280
     0
  9
$JOINSTYLE
280
     0
  9
$LWDISPLAY
290
     0
  9
$INSUNITS
 70
     1
  9
$HYPERLINKBASE
  1

  9
$STYLESHEET
  1

  9
$XEDIT
290
     1
  9
$CEPSNTYPE
380
     0
  9
$PSTYLEMODE
290
     1
  9
$FINGERPRINTGUID
  2
{15d94aca-ffcb-49b5-b04b-6c658ec42e79}
  9
$VERSIONGUID
  2
{FAEB1C32-E019-11D5-929B-00C0DF256EC4}
  9
$EXTNAMES
290
     1
  9
$PSVPSCALE
 40
0.0
  9
$OLESTARTUP
290
     0
  9
$SORTENTS
280
   127
  9
$INDEXCTL
280
     0
  9
$HIDETEXT
280
     1
  9
$XCLIPFRAME
280
     2
  9
$HALOGAP
280
     0
  9
$OBSCOLOR
 70
   257
  9
$OBSLTYPE
280
     0
  9
$INTERSECTIONDISPLAY
280
     0
  9
$INTERSECTIONCOLOR
 70
   257
  9
$DIMASSOC
280
     2
  9
$PROJECTNAME
  1

  9
$CAMERADISPLAY
290
     0
  9
$LENSLENGTH
 40
50.0
  9
$CAMERAHEIGHT
 40
0.0
  9
$STEPSPERSEC
 40
2.0
  9
$STEPSIZE
 40
6.0
  9
$3DDWFPREC
 40
2.0
  9
$PSOLWIDTH
 40
0.25
  9
$PSOLHEIGHT
 40
4.0
  9
$LOFTANG1
 40
1.570796326794897
  9
$LOFTANG2
 40
1.570796326794897
  9
$LOFTMAG1
 40
0.0
  9
$LOFTMAG2
 40
0.0
  9
$LOFTPARAM
 70
     7
  9
$LOFTNORMALS
280
     1
  9
$LATITUDE
 40
37.795
  9
$LONGITUDE
 40
-122.394
  9
$NORTHDIRECTION
 40
0.0
  9
$TIMEZONE
 70
 -8000
  9
$LIGHTGLYPHDISPLAY
280
     1
  9
$TILEMODELIGHTSYNCH
280
     1
  9
$CMATERIAL
347
44
  9
$SOLIDHIST
280
     0
  9
$SHOWHIST
280
     1
  9
$DWFFRAME
280
     2
  9
$DGNFRAME
280
     2
  9
$REALWORLDSCALE
290
     1
  9
$INTERFERECOLOR
 62
   256
  9
$CSHADOW
280
     0
  9
$SHADOWPLANELOCATION
 40
0.0
  0
ENDSEC
  0
SECTION
  2
CLASSES
  0
CLASS
  1
ACDBDICTIONARYWDFLT
  2
AcDbDictionaryWithDefault
  3
ObjectDBX Classes
 90
        0
 91
        3
280
     0
281
     0
  0
CLASS
  1
VISUALSTYLE
  2
AcDbVisualStyle
  3
ObjectDBX Classes
 90
     4095
 91
        3
280
     0
281
     0
  0
CLASS
  1
MATERIAL
  2
AcDbMaterial
  3
ObjectDBX Classes
 90
     1153
 91
        3
280
     0
281
     0
  0
CLASS
  1
SCALE
  2
AcDbScale
  3
ObjectDBX Classes
 90
     1153
 91
        3
280
     0
281
     0
  0
CLASS
  1
TABLESTYLE
  2
AcDbTableStyle
  3
ObjectDBX Classes
 90
     4095
 91
        3
280
     0
281
     0
  0
CLASS
  1
MLEADERSTYLE
  2
AcDbMLeaderStyle
  3
ACDB_MLEADERSTYLE_CLASS
 90
     4095
 91
        3
280
     0
281
     0
  0
CLASS
  1
SUN
  2
AcDbSun
  3
SCENEOE
 90
     1153
 91
        3
280
     0
281
     0
  0
CLASS
  1
DICTIONARYVAR
  2
AcDbDictionaryVar
  3
ObjectDBX Classes
 90
        0
 91
        3
280
     0
281
     0
  0
CLASS
  1
CELLSTYLEMAP
  2
AcDbCellStyleMap
  3
ObjectDBX Classes
 90
     1152
 91
        3
280
     0
281
     0
  0
ENDSEC
  0
SECTION
  2
TABLES
  0
TABLE
  2
VPORT
  5
8
330
0
100
AcDbSymbolTable
 70
     1
  0
VPORT
  5
29
330
8
100
AcDbSymbolTableRecord
100
AcDbViewportTableRecord
  2
*Active
 70
     0
 10
0.0
 20
0.0
 11
1.0
 21
1.0
 12
10.42990654205607
 22
4.5
 13
0.0
 23
0.0
 14
0.5
 24
0.5
 15
0.5
 25
0.5
 16
0.0
 26
0.0
 36
1.0
 17
0.0
 27
0.0
 37
0.0
 40
9.0
 41
1.972972972850329
 42
50.0
 43
0.0
 44
0.0
 50
0.0
 51
0.0
 71
     0
 72
   100
 73
     1
 74
     3
 75
     0
 76
     0
 77
     0
 78
     0
281
     0
 65
     1
110
0.0
120
0.0
130
0.0
111
1.0
121
0.0
131
0.0
112
0.0
122
1.0
132
0.0
 79
     0
146
0.0
348
2F
 60
     3
 61
     5
292
     1
282
     1
141
0.0
142
0.0
 63
   250
361
5D
  0
ENDTAB
  0
TABLE
  2
LTYPE
  5
5
330
0
100
AcDbSymbolTable
 70
     1
  0
LTYPE
  5
14
330
5
100
AcDbSymbolTableRecord
100
AcDbLinetypeTableRecord
  2
ByBlock
 70
     0
  3

 72
    65
 73
     0
 40
0.0
  0
LTYPE
  5
15
330
5
100
AcDbSymbolTableRecord
100
AcDbLinetypeTableRecord
  2
ByLayer
 70
     0
  3

 72
    65
 73
     0
 40
0.0
  0
LTYPE
  5
16
330
5
100
AcDbSymbolTableRecord
100
AcDbLinetypeTableRecord
  2
Continuous
 70
     0
  3
Solid line
 72
    65
 73
     0
 40
0.0
  0
ENDTAB
  0
TABLE
  2
LAYER
  5
2
330
0
100
AcDbSymbolTable
 70
     2
  0
LAYER
  5
10
330
2
100
AcDbSymbolTableRecord
100
AcDbLayerTableRecord
  2
0
 70
     0
 62
     7
  6
Continuous
370
    -3
390
F
347
46
348
0
  0
LAYER
  5
60
330
2
100
AcDbSymbolTableRecord
100
AcDbLayerTableRecord
  2
Layer 1
 70
     0
 62
     7
  6
Continuous
370
    -3
390
F
347
46
348
0
  0
ENDTAB
  0
TABLE
  2
STYLE
  5
3
330
0
100
AcDbSymbolTable
 70
     1
  0
STYLE
  5
11
330
3
100
AcDbSymbolTableRecord
100
AcDbTextStyleTableRecord
  2
Standard
 70
     0
 40
0.0
 41
1.0
 50
0.0
 71
     0
 42
0.2
  3
txt
  4

  0
ENDTAB
  0
TABLE
  2
VIEW
  5
6
330
0
100
AcDbSymbolTable
 70
     0
  0
ENDTAB
  0
TABLE
  2
UCS
  5
7
330
0
100
AcDbSymbolTable
 70
     0
  0
ENDTAB
  0
TABLE
  2
APPID
  5
9
330
0
100
AcDbSymbolTable
 70
     2
  0
APPID
  5
12
330
9
100
AcDbSymbolTableRecord
100
AcDbRegAppTableRecord
  2
ACAD
 70
     0
  0
APPID
  5
5E
330
9
100
AcDbSymbolTableRecord
100
AcDbRegAppTableRecord
  2
ODA
 70
     0
  0
ENDTAB
  0
TABLE
  2
DIMSTYLE
  5
A
330
0
100
AcDbSymbolTable
 70
     1
100
AcDbDimStyleTable
  0
DIMSTYLE
105
27
330
A
100
AcDbSymbolTableRecord
100
AcDbDimStyleTableRecord
  2
Standard
 70
     0
178
     0
340
11
  0
ENDTAB
  0
TABLE
  2
BLOCK_RECORD
  5
1
330
0
100
AcDbSymbolTable
 70
     1
  0
BLOCK_RECORD
  5
1F
330
1
100
AcDbSymbolTableRecord
100
AcDbBlockTableRecord
  2
*Model_Space
340
22
 70
     0
280
     1
281
     0
  0
BLOCK_RECORD
  5
1B
330
1
100
AcDbSymbolTableRecord
100
AcDbBlockTableRecord
  2
*Paper_Space
340
1E
 70
     0
280
     1
281
     0
  0
BLOCK_RECORD
  5
23
330
1
100
AcDbSymbolTableRecord
100
AcDbBlockTableRecord
  2
*Paper_Space0
340
26
 70
     0
280
     1
281
     0
  0
ENDTAB
  0
ENDSEC
  0
SECTION
  2
BLOCKS
  0
BLOCK
  5
20
330
1F
100
AcDbEntity
  8
0
100
AcDbBlockBegin
  2
*Model_Space
 70
     0
 10
0.0
 20
0.0
 30
0.0
  3
*Model_Space
  1

  0
ENDBLK
  5
21
330
1F
100
AcDbEntity
  8
0
100
AcDbBlockEnd
  0
BLOCK
  5
1C
330
1B
100
AcDbEntity
 67
     1
  8
0
100
AcDbBlockBegin
  2
*Paper_Space
 70
     0
 10
0.0
 20
0.0
 30
0.0
  3
*Paper_Space
  1

  0
ENDBLK
  5
1D
330
1B
100
AcDbEntity
 67
     1
  8
0
100
AcDbBlockEnd
  0
BLOCK
  5
24
330
23
100
AcDbEntity
  8
0
100
AcDbBlockBegin
  2
*Paper_Space0
 70
     0
 10
0.0
 20
0.0
 30
0.0
  3
*Paper_Space0
  1

  0
ENDBLK
  5
25
330
23
100
AcDbEntity
  8
0
100
AcDbBlockEnd
  0
ENDSEC
  0
SECTION
  2
ENTITIES
  0
LWPOLYLINE
  5
5F
330
1F
100
AcDbEntity
  8
0
 62
   250
370
    18
100
AcDbPolyline
 90
        5
 70
     1
 43
0.0
 10
-30.35752362204724
 20
-6.193228346456693
 10
-22.73739763779528
 20
-6.193228346456693
 10
-22.73739763779528
 20
0.9345748031496063
 10
-30.35752362204724
 20
0.9345748031496063
 10
-30.35752362204724
 20
-6.193228346456693
  0
LWPOLYLINE
  5
61
330
1F
100
AcDbEntity
  8
Layer 1
 62
     7
370
    13
100
AcDbPolyline
 90
       33
 70
     1
 43
0.0
 10
-26.36993307086614
 20
-0.7284448818897638
 10
-26.10866141732284
 20
-0.7362874015748031
 10
-25.8653031496063
 20
-0.7587834645669291
 10
-25.64505511811024
 20
-0.7943740157480315
 10
-25.45316535433071
 20
-0.84151968503937
 10
-25.29483464566929
 20
-0.8986496062992126
 10
-25.17526377952756
 20
-0.9642165354330708
 10
-25.0997125984252
 20
-1.036669291338583
 10
-25.07336220472441
 20
-1.114448818897638
 10
-25.0997125984252
 20
-1.192224409448819
 10
-25.17526377952756
 20
-1.264665354330709
 10
-25.29483464566929
 20
-1.330232283464567
 10
-25.45316535433071
 20
-1.387350393700787
 10
-25.64505511811024
 20
-1.434492125984252
 10
-25.8653031496063
 20
-1.470086614173228
 10
-26.10866141732284
 20
-1.49257874015748
 10
-26.36993307086614
 20
-1.500425196850394
 10
-26.63120078740157
 20
-1.49257874015748
 10
-26.87456299212598
 20
-1.470086614173228
 10
-27.09480708661417
 20
-1.434492125984252
 10
-27.2866968503937
 20
-1.387350393700787
 10
-27.44502755905512
 20
-1.330232283464567
 10
-27.56459842519685
 20
-1.264665354330709
 10
-27.64015354330709
 20
-1.192224409448819
 10
-27.6665
 20
-1.114448818897638
 10
-27.64015354330709
 20
-1.036669291338583
 10
-27.56459842519685
 20
-0.9642165354330708
 10
-27.44502755905512
 20
-0.8986496062992126
 10
-27.2866968503937
 20
-0.84151968503937
 10
-27.09480708661417
 20
-0.7943740157480315
 10
-26.87456299212598
 20
-0.7587834645669291
 10
-26.63120078740157
 20
-0.7362874015748031
 10
-26.36993307086614
 20
-0.7284448818897638
  0
LWPOLYLINE
  5
62
330
1F
100
AcDbEntity
  8
Layer 1
 62
     7
370
    13
100
AcDbPolyline
 90
       33
 70
     1
 43
0.0
 10
-26.36993307086614
 20
-0.8208464566929133
 10
-26.1420157480315
 20
-0.8269370078740157
 10
-25.92970866141732
 20
-0.8443897637795276
 10
-25.7375905511811
 20
-0.8720196850393701
 10
-25.57018897637795
 20
-0.9085944881889764
 10
-25.43206299212599
 20
-0.9529370078740157
 10
-25.32775984251969
 20
-1.003811023622047
 10
-25.26184251968504
 20
-1.060027559055118
 10
-25.23886614173228
 20
-1.120377952755905
 10
-25.26184251968504
 20
-1.180744094488189
 10
-25.32775984251969
 20
-1.236968503937008
 10
-25.43206299212599
 20
-1.287858267716535
 10
-25.57018897637795
 20
-1.332185039370079
 10
-25.7375905511811
 20
-1.368775590551181
 10
-25.92970866141732
 20
-1.396393700787402
 10
-26.1420157480315
 20
-1.413846456692913
 10
-26.36993307086614
 20
-1.419937007874016
 10
-26.59785826771654
 20
-1.413846456692913
 10
-26.81016535433071
 20
-1.396393700787402
 10
-27.0022874015748
 20
-1.368775590551181
 10
-27.16970078740157
 20
-1.332185039370079
 10
-27.30781496062992
 20
-1.287858267716535
 10
-27.41211811023622
 20
-1.236968503937008
 10
-27.47803543307086
 20
-1.180744094488189
 10
-27.50101181102362
 20
-1.120377952755905
 10
-27.47803543307086
 20
-1.060027559055118
 10
-27.41211811023622
 20
-1.003811023622047
 10
-27.30781496062992
 20
-0.9529370078740157
 10
-27.16970078740157
 20
-0.9085944881889764
 10
-27.0022874015748
 20
-0.8720196850393701
 10
-26.81016535433071
 20
-0.8443897637795276
 10
-26.59785826771654
 20
-0.8269370078740157
 10
-26.36993307086614
 20
-0.8208464566929133
  0
LWPOLYLINE
  5
63
330
1F
100
AcDbEntity
  8
Layer 1
 62
     7
370
    13
100
AcDbPolyline
 90
       26
 70
     0
 43
0.0
 10
-25.09541338582677
 20
-1.185661417322835
 10
-25.09562992125984
 20
-1.206389763779528
 10
-25.09643700787402
 20
-1.261822834645669
 10
-25.09803937007874
 20
-1.341917322834646
 10
-25.1006968503937
 20
-1.436555118110236
 10
-25.1045905511811
 20
-1.535681102362205
 10
-25.10996850393701
 20
-1.629200787401575
 10
-25.11705511811024
 20
-1.707031496062992
 10
-25.12607480314961
 20
-1.759094488188976
 10
-25.13213779527559
 20
-1.771775590551181
 10
-25.15556299212598
 20
-1.805696850393701
 10
-25.20420078740158
 20
-1.854661417322835
 10
-25.28592913385827
 20
-1.912476377952756
 10
-25.40859842519685
 20
-1.972948818897638
 10
-25.58006692913386
 20
-2.029893700787401
 10
-25.8081968503937
 20
-2.077102362204724
 10
-26.10085826771654
 20
-2.108397637795276
 10
-26.15549606299212
 20
-2.110649606299213
 10
-26.30211417322835
 20
-2.11240157480315
 10
-26.51475984251968
 20
-2.106185039370079
 10
-26.76747244094488
 20
-2.0845
 10
-27.03429527559055
 20
-2.039866141732284
 10
-27.28927165354331
 20
-1.964795275590551
 10
-27.50644488188976
 20
-1.851803149606299
 10
-27.65987007874016
 20
-1.693389763779528
 10
-27.66391338582677
 20
-1.139003937007874
  0
LWPOLYLINE
  5
64
330
1F
100
AcDbEntity
  8
Layer 1
 62
     7
370
    13
100
AcDbPolyline
 90
       79
 70
     0
 43
0.0
 10
-25.10637007874016
 20
-1.57059842519685
 10
-25.0966811023622
 20
-1.575314960629921
 10
-25.07153149606299
 20
-1.589830708661417
 10
-25.03682677165354
 20
-1.614657480314961
 10
-24.99845669291339
 20
-1.650291338582677
 10
-24.96233858267717
 20
-1.697259842519685
 10
-24.93434645669291
 20
-1.756074803149606
 10
-24.92038188976378
 20
-1.827259842519685
 10
-24.92633858267716
 20
-1.911330708661417
 10
-24.92904724409449
 20
-1.922330708661417
 10
-24.94246062992126
 20
-1.952248031496063
 10
-24.97445275590551
 20
-1.996507874015748
 10
-25.03291732283465
 20
-2.05053937007874
 10
-25.12576377952756
 20
-2.109744094488189
 10
-25.26088582677165
 20
-2.169543307086614
 10
-25.44615748031496
 20
-2.225354330708662
 10
-25.68949212598425
 20
-2.272590551181102
 10
-25.72974803149606
 20
-2.276594488188977
 10
-25.84329527559055
 20
-2.286228346456693
 10
-26.01933464566929
 20
-2.297874015748032
 10
-26.24704724409449
 20
-2.307929133858268
 10
-26.51564960629921
 20
-2.312818897637795
 10
-26.8143031496063
 20
-2.308925196850394
 10
-27.13220472440945
 20
-2.29265748031496
 10
-27.45857086614173
 20
-2.26042125984252
 10
-27.47753543307087
 20
-2.257952755905512
 10
-27.52783070866142
 20
-2.251271653543307
 10
-27.59958661417323
 20
-2.241527559055118
 10
-27.68290157480315
 20
-2.229814960629921
 10
-27.76788976377953
 20
-2.217267716535433
 10
-27.84466929133858
 20
-2.205003937007874
 10
-27.90335039370079
 20
-2.194137795275591
 10
-27.93403543307087
 20
-2.185795275590551
 10
-27.94022440944882
 20
-2.207696850393701
 10
-27.9586062992126
 20
-2.268062992125984
 10
-27.9889842519685
 20
-2.358897637795276
 10
-28.03111417322835
 20
-2.472204724409449
 10
-28.08476771653543
 20
-2.600007874015748
 10
-28.1497125984252
 20
-2.734295275590551
 10
-28.22575196850394
 20
-2.867074803149606
 10
-28.31262598425197
 20
-2.99036220472441
 10
-28.31942125984252
 20
-2.996834645669291
 10
-28.33870472440945
 20
-3.012425196850394
 10
-28.3689094488189
 20
-3.03144094488189
 10
-28.40839763779528
 20
-3.048196850393701
 10
-28.45556692913386
 20
-3.056968503937008
 10
-28.50881496062992
 20
-3.052051181102362
 10
-28.56653937007874
 20
-3.027763779527559
 10
-28.62713385826772
 20
-2.978397637795275
 10
-28.64937007874016
 20
-2.962452755905512
 10
-28.70856299212598
 20
-2.911590551181102
 10
-28.79346850393701
 20
-2.821185039370079
 10
-28.89283858267716
 20
-2.686681102362205
 10
-28.99542519685039
 20
-2.503468503937008
 10
-29.0899842519685
 20
-2.266972440944882
 10
-29.16524015748032
 20
-1.97259842519685
 10
-29.20997244094488
 20
-1.615775590551181
 10
-29.2754842519685
 20
-1.590208661417323
 10
-29.28295275590551
 20
-1.481244094488189
 10
-29.22770866141732
 20
-1.474629921259843
 10
-29.08161417322835
 20
-1.457173228346457
 10
-28.87414566929134
 20
-1.432429133858268
 10
-28.63477559055118
 20
-1.40398031496063
 10
-28.39293700787401
 20
-1.375393700787402
 10
-28.17813779527559
 20
-1.350248031496063
 10
-28.01981889763779
 20
-1.332090551181102
 10
-27.94746062992126
 20
-1.324503937007874
 10
-27.93790551181102
 20
-1.326484251968504
 10
-27.91507480314961
 20
-1.334492125984252
 10
-27.90144881889764
 20
-1.341716535433071
 10
-27.88778346456693
 20
-1.351594488188976
 10
-27.87520866141732
 20
-1.36451968503937
 10
-27.8648188976378
 20
-1.380866141732283
 10
-27.84705511811024
 20
-1.388763779527559
 10
-27.80100393700787
 20
-1.405409448818898
 10
-27.77074803149606
 20
-1.413712598425197
 10
-27.7374842519685
 20
-1.420232283464567
 10
-27.70256692913386
 20
-1.423657480314961
 10
-27.66733464566929
 20
-1.422661417322835
  0
LWPOLYLINE
  5
65
330
1F
100
AcDbEntity
  8
Layer 1
 62
     7
370
    13
100
AcDbPolyline
 90
       33
 70
     0
 43
0.0
 10
-29.28295275590551
 20
-1.481244094488189
 10
-29.26542913385827
 20
-1.496204724409449
 10
-29.21685826771654
 20
-1.536287401574803
 10
-29.14319291338583
 20
-1.594279527559055
 10
-29.05042913385827
 20
-1.662972440944882
 10
-28.94452362204724
 20
-1.735169291338583
 10
-28.83146062992126
 20
-1.803661417322835
 10
-28.71720078740157
 20
-1.861236220472441
 10
-28.60774015748031
 20
-1.900696850393701
 10
-28.58020472440945
 20
-1.909889763779528
 10
-28.50288582677165
 20
-1.9345
 10
-28.38373228346457
 20
-1.970051181102362
 10
-28.23064566929134
 20
-2.012086614173228
 10
-28.05157086614173
 20
-2.05615748031496
 10
-27.85444094488189
 20
-2.097803149606299
 10
-27.64717322834646
 20
-2.132547244094488
 10
-27.43770866141732
 20
-2.155944881889764
 10
-27.37854330708661
 20
-2.161255905511811
 10
-27.21701968503937
 20
-2.173787401574803
 10
-26.97711023622047
 20
-2.188452755905512
 10
-26.68276771653543
 20
-2.200165354330708
 10
-26.35797637795276
 20
-2.203830708661418
 10
-26.02667716535433
 20
-2.194354330708661
 10
-25.71284645669291
 20
-2.166645669291339
 10
-25.44045669291339
 20
-2.115633858267716
 10
-25.41981102362205
 20
-2.11103937007874
 10
-25.36505118110236
 20
-2.097090551181102
 10
-25.28695275590551
 20
-2.07351968503937
 10
-25.19627559055118
 20
-2.040055118110236
 10
-25.10379527559055
 20
-1.996456692913386
 10
-25.02026377952756
 20
-1.942437007874016
 10
-24.95644881889764
 20
-1.877759842519685
 10
-24.92313385826772
 20
-1.802153543307087
  0
LWPOLYLINE
  5
66
330
1F
100
AcDbEntity
  8
Layer 1
 62
     7
370
    13
100
AcDbPolyline
 90
       17
 70
     0
 43
0.0
 10
-27.93403543307087
 20
-2.185795275590551
 10
-28.23087401574803
 20
-2.12057874015748
 10
-28.47651181102362
 20
-2.04896062992126
 10
-28.67453149606299
 20
-1.975606299212598
 10
-28.82852362204724
 20
-1.905145669291339
 10
-28.94205511811024
 20
-1.842259842519685
 10
-29.01871653543307
 20
-1.791574803149606
 10
-29.06208661417323
 20
-1.757744094488189
 10
-29.07575196850394
 20
-1.74544094488189
 10
-29.07145275590551
 20
-1.779267716535433
 10
-29.05713779527559
 20
-1.872354330708661
 10
-29.03062992125984
 20
-2.012086614173228
 10
-28.98976771653543
 20
-2.185889763779528
 10
-28.9323937007874
 20
-2.381165354330709
 10
-28.85634251968504
 20
-2.585303149606299
 10
-28.75945275590551
 20
-2.785712598425197
 10
-28.63957086614173
 20
-2.969799212598425
  0
LWPOLYLINE
  5
67
330
1F
100
AcDbEntity
  8
Layer 1
 62
     7
370
    13
100
AcDbPolyline
 90
       18
 70
     0
 43
0.0
 10
-27.45857086614173
 20
-2.26042125984252
 10
-27.45837007874016
 20
-2.343212598425197
 10
-27.45779133858268
 20
-2.561893700787401
 10
-27.45687401574803
 20
-2.87198031496063
 10
-27.45563385826772
 20
-3.228952755905512
 10
-27.45412598425197
 20
-3.588295275590551
 10
-27.45235826771654
 20
-3.905511811023622
 10
-27.45038976377953
 20
-4.136094488188976
 10
-27.44823622047244
 20
-4.235531496062992
 10
-27.35393307086614
 20
-4.442633858267716
 10
-27.11935039370079
 20
-4.58940157480315
 10
-26.79136614173228
 20
-4.677114173228347
 10
-26.41685826771653
 20
-4.70701968503937
 10
-26.04271653543307
 20
-4.68040157480315
 10
-25.71581102362205
 20
-4.598527559055118
 10
-25.48303149606299
 20
-4.462661417322835
 10
-25.39125196850394
 20
-4.274074803149606
 10
-25.32488976377953
 20
-2.191429133858268
  0
LWPOLYLINE
  5
68
330
1F
100
AcDbEntity
  8
Layer 1
 62
     7
370
    18
100
AcDbPolyline
 90
        4
 70
     1
 43
0.0
 10
-24.53047244094488
 20
-0.9786929133858268
 10
-24.58109448818898
 20
-0.8867362204724409
 10
-24.63165748031496
 20
-0.978732283464567
 10
-24.53047244094488
 20
-0.9786929133858268
  0
LWPOLYLINE
  5
69
330
1F
100
AcDbEntity
  8
Layer 1
 62
     7
370
    18
100
AcDbPolyline
 90
        4
 70
     1
 43
0.0
 10
-24.52920472440945
 20
-4.517570866141733
 10
-24.57977165354331
 20
-4.609562992125984
 10
-24.6303937007874
 20
-4.517610236220473
 10
-24.52920472440945
 20
-4.517570866141733
  0
LWPOLYLINE
  5
6A
330
1F
100
AcDbEntity
  8
Layer 1
 62
     7
370
    18
100
AcDbPolyline
 90
        2
 70
     0
 43
0.0
 10
-24.58649606299213
 20
-0.8560748031496063
 10
-24.58514960629921
 20
-4.640224409448819
  0
LWPOLYLINE
  5
6B
330
1F
100
AcDbEntity
  8
Layer 1
 62
     7
370
     9
100
AcDbPolyline
 90
        7
 70
     1
 43
0.0
 10
-24.18029133858268
 20
-2.959055118110236
 10
-24.15674803149606
 20
-2.959055118110236
 10
-24.15674803149606
 20
-2.727464566929134
 10
-24.21327165354331
 20
-2.733515748031496
 10
-24.21327165354331
 20
-2.75403937007874
 10
-24.18029133858268
 20
-2.75403937007874
 10
-24.18029133858268
 20
-2.959055118110236
  0
LWPOLYLINE
  5
6C
330
1F
100
AcDbEntity
  8
Layer 1
 62
     7
370
     9
100
AcDbPolyline
 90
        7
 70
     1
 43
0.0
 10
-24.08376771653543
 20
-2.959055118110236
 10
-24.06022440944882
 20
-2.959055118110236
 10
-24.06022440944882
 20
-2.727464566929134
 10
-24.11673228346457
 20
-2.733515748031496
 10
-24.11673228346457
 20
-2.75403937007874
 10
-24.08376771653543
 20
-2.75403937007874
 10
-24.08376771653543
 20
-2.959055118110236
  0
LWPOLYLINE
  5
6D
330
1F
100
AcDbEntity
  8
Layer 1
 62
     7
370
     9
100
AcDbPolyline
 90
       32
 70
     1
 43
0.0
 10
-23.92450787401575
 20
-2.756720472440945
 10
-23.917
 20
-2.762370078740157
 10
-23.91053149606299
 20
-2.769444881889764
 10
-23.90512598425197
 20
-2.777948818897638
 10
-23.90077165354331
 20
-2.78788188976378
 10
-23.8965157480315
 20
-2.801629921259842
 10
-23.89346850393701
 20
-2.815779527559055
 10
-23.89163385826772
 20
-2.830322834645669
 10
-23.89102755905512
 20
-2.845267716535433
 10
-23.89203937007874
 20
-2.861937007874016
 10
-23.89472047244094
 20
-2.87953937007874
 10
-23.89884645669291
 20
-2.895145669291339
 10
-23.90439763779527
 20
-2.908744094488189
 10
-23.9113937007874
 20
-2.920350393700788
 10
-23.91825196850394
 20
-2.928153543307086
 10
-23.92584251968504
 20
-2.933732283464567
 10
-23.93414173228346
 20
-2.937074803149606
 10
-23.94317322834646
 20
-2.938192913385827
 10
-23.95320078740157
 20
-2.937086614173228
 10
-23.96221653543307
 20
-2.933771653543307
 10
-23.97024803149606
 20
-2.928248031496063
 10
-23.97729527559055
 20
-2.920511811023622
 10
-23.98706692913386
 20
-2.902681102362205
 10
-23.99295669291338
 20
-2.882303149606299
 10
-23.9958031496063
 20
-2.862102362204725
 10
-23.99664960629921
 20
-2.839594488188976
 10
-23.99295669291338
 20
-2.808070866141732
 10
-23.98722834645669
 20
-2.787692913385827
 10
-23.97764566929134
 20
-2.769511811023622
 10
-23.96352362204724
 20
-2.756574803149606
 10
-23.94400787401575
 20
-2.751681102362205
 10
-23.92450787401575
 20
-2.756720472440945
  0
LWPOLYLINE
  5
6E
330
1F
100
AcDbEntity
  8
Layer 1
 62
     7
370
     9
100
AcDbPolyline
 90
       49
 70
     1
 43
0.0
 10
-23.94283464566929
 20
-2.962102362204724
 10
-23.93301181102362
 20
-2.96148031496063
 10
-23.92381889763779
 20
-2.959610236220473
 10
-23.91524803149606
 20
-2.95648031496063
 10
-23.90729527559055
 20
-2.952114173228346
 10
-23.89999212598425
 20
-2.946507874015748
 10
-23.89329133858268
 20
-2.939649606299213
 10
-23.88722834645669
 20
-2.931547244094488
 10
-23.88179527559055
 20
-2.922196850393701
 10
-23.87464173228346
 20
-2.905429133858268
 10
-23.86954724409449
 20
-2.886846456692914
 10
-23.86648818897638
 20
-2.866452755905512
 10
-23.86547637795276
 20
-2.844255905511811
 10
-23.86648818897638
 20
-2.82205905511811
 10
-23.86954724409449
 20
-2.801669291338583
 10
-23.87464173228346
 20
-2.78309842519685
 10
-23.88179527559055
 20
-2.766318897637795
 10
-23.88722834645669
 20
-2.756976377952756
 10
-23.89329133858268
 20
-2.748877952755906
 10
-23.89999212598425
 20
-2.74201968503937
 10
-23.90729527559055
 20
-2.736413385826772
 10
-23.91524803149606
 20
-2.732043307086614
 10
-23.92381889763779
 20
-2.728917322834646
 10
-23.93301181102362
 20
-2.727043307086614
 10
-23.94283464566929
 20
-2.726425196850394
 10
-23.95264566929134
 20
-2.727043307086614
 10
-23.96185039370079
 20
-2.728917322834646
 10
-23.9704094488189
 20
-2.732043307086614
 10
-23.97836220472441
 20
-2.736413385826772
 10
-23.9856811023622
 20
-2.74201968503937
 10
-23.99237795275591
 20
-2.748877952755906
 10
-23.99844094488189
 20
-2.756976377952756
 10
-24.00388582677165
 20
-2.766318897637795
 10
-24.0110157480315
 20
-2.78309842519685
 10
-24.01611023622047
 20
-2.801669291338583
 10
-24.01916929133858
 20
-2.82205905511811
 10
-24.0201968503937
 20
-2.844255905511811
 10
-24.01916929133858
 20
-2.866452755905512
 10
-24.01611023622047
 20
-2.886846456692914
 10
-24.0110157480315
 20
-2.905429133858268
 10
-24.00388582677165
 20
-2.922196850393701
 10
-23.99844094488189
 20
-2.931547244094488
 10
-23.99237795275591
 20
-2.939649606299213
 10
-23.9856811023622
 20
-2.946507874015748
 10
-23.97836220472441
 20
-2.952114173228346
 10
-23.9704094488189
 20
-2.95648031496063
 10
-23.96185039370079
 20
-2.959610236220473
 10
-23.95264566929134
 20
-2.96148031496063
 10
-23.94283464566929
 20
-2.962102362204724
  0
LWPOLYLINE
  5
6F
330
1F
100
AcDbEntity
  8
Layer 1
 62
     7
370
     9
100
AcDbPolyline
 90
       48
 70
     1
 43
0.0
 10
-23.63571653543307
 20
-2.958397637795275
 10
-23.61216929133858
 20
-2.958397637795275
 10
-23.61216929133858
 20
-2.865795275590551
 10
-23.61293700787402
 20
-2.853799212598425
 10
-23.61524409448819
 20
-2.842948818897638
 10
-23.61908267716536
 20
-2.833271653543307
 10
-23.62444881889764
 20
-2.824740157480315
 10
-23.64009448818897
 20
-2.811763779527559
 10
-23.66498818897638
 20
-2.806909448818898
 10
-23.67248031496063
 20
-2.807437007874016
 10
-23.67948818897638
 20
-2.809
 10
-23.68602755905512
 20
-2.811629921259843
 10
-23.69206299212598
 20
-2.815307086614173
 10
-23.70939763779528
 20
-2.835051181102362
 10
-23.71561023622047
 20
-2.824740157480315
 10
-23.73124409448819
 20
-2.811763779527559
 10
-23.75613385826772
 20
-2.806909448818898
 10
-23.76362992125984
 20
-2.807437007874016
 10
-23.77064960629921
 20
-2.809
 10
-23.77717322834646
 20
-2.811629921259843
 10
-23.78322440944882
 20
-2.815307086614173
 10
-23.79985433070866
 20
-2.833877952755905
 10
-23.79985433070866
 20
-2.810251968503937
 10
-23.82341338582677
 20
-2.810251968503937
 10
-23.82341338582677
 20
-2.958397637795275
 10
-23.79985433070866
 20
-2.958397637795275
 10
-23.79985433070866
 20
-2.882586614173228
 10
-23.79077165354331
 20
-2.851992125984252
 10
-23.77631102362205
 20
-2.83651968503937
 10
-23.75680708661417
 20
-2.830456692913386
 10
-23.74133858267717
 20
-2.833677165354331
 10
-23.7350157480315
 20
-2.839122047244095
 10
-23.73048818897638
 20
-2.846291338582677
 10
-23.72776377952756
 20
-2.855185039370079
 10
-23.72686220472441
 20
-2.865795275590551
 10
-23.72686220472441
 20
-2.958397637795275
 10
-23.7033188976378
 20
-2.958397637795275
 10
-23.7033188976378
 20
-2.865795275590551
 10
-23.70350787401575
 20
-2.860145669291339
 10
-23.69962598425197
 20
-2.851992125984252
 10
-23.68516535433071
 20
-2.83651968503937
 10
-23.66566141732283
 20
-2.830456692913386
 10
-23.65018897637795
 20
-2.833677165354331
 10
-23.64385433070866
 20
-2.839122047244095
 10
-23.63932677165354
 20
-2.846291338582677
 10
-23.63661811023622
 20
-2.855185039370079
 10
-23.63571653543307
 20
-2.865795275590551
 10
-23.63571653543307
 20
-2.958397637795275
  0
LWPOLYLINE
  5
70
330
1F
100
AcDbEntity
  8
Layer 1
 62
     7
370
     9
100
AcDbPolyline
 90
       48
 70
     1
 43
0.0
 10
-23.37908267716535
 20
-2.958397637795275
 10
-23.35553543307087
 20
-2.958397637795275
 10
-23.35553543307087
 20
-2.865795275590551
 10
-23.3563031496063
 20
-2.853799212598425
 10
-23.35859448818898
 20
-2.842948818897638
 10
-23.36243700787401
 20
-2.833271653543307
 10
-23.36781496062992
 20
-2.824740157480315
 10
-23.38344881889764
 20
-2.811763779527559
 10
-23.40833858267716
 20
-2.806909448818898
 10
-23.41583464566929
 20
-2.807437007874016
 10
-23.42285433070866
 20
-2.809
 10
-23.42937795275591
 20
-2.811629921259843
 10
-23.43542913385827
 20
-2.815307086614173
 10
-23.45274803149606
 20
-2.835051181102362
 10
-23.45898818897638
 20
-2.824740157480315
 10
-23.4746062992126
 20
-2.811763779527559
 10
-23.4995
 20
-2.806909448818898
 10
-23.50699212598425
 20
-2.807437007874016
 10
-23.51400393700787
 20
-2.809
 10
-23.52053937007874
 20
-2.811629921259843
 10
-23.5265905511811
 20
-2.815307086614173
 10
-23.54322047244095
 20
-2.833877952755905
 10
-23.54322047244095
 20
-2.810251968503937
 10
-23.56676377952756
 20
-2.810251968503937
 10
-23.56676377952756
 20
-2.958397637795275
 10
-23.54322047244095
 20
-2.958397637795275
 10
-23.54322047244095
 20
-2.882586614173228
 10
-23.53414960629921
 20
-2.851992125984252
 10
-23.51966141732283
 20
-2.83651968503937
 10
-23.50016141732284
 20
-2.830456692913386
 10
-23.48470078740158
 20
-2.833677165354331
 10
-23.47837007874016
 20
-2.839122047244095
 10
-23.47383858267716
 20
-2.846291338582677
 10
-23.47112992125984
 20
-2.855185039370079
 10
-23.47022834645669
 20
-2.865795275590551
 10
-23.47022834645669
 20
-2.958397637795275
 10
-23.44668503937008
 20
-2.958397637795275
 10
-23.44668503937008
 20
-2.865795275590551
 10
-23.44685826771654
 20
-2.860145669291339
 10
-23.44299212598425
 20
-2.851992125984252
 10
-23.4285157480315
 20
-2.83651968503937
 10
-23.4090157480315
 20
-2.830456692913386
 10
-23.39354330708661
 20
-2.833677165354331
 10
-23.38720866141732
 20
-2.839122047244095
 10
-23.38269291338583
 20
-2.846291338582677
 10
-23.37998425196851
 20
-2.855185039370079
 10
-23.37908267716535
 20
-2.865795275590551
 10
-23.37908267716535
 20
-2.958397637795275
  0
LWPOLYLINE
  5
71
330
1F
100
AcDbEntity
  8
Layer 1
 62
     7
370
    18
100
AcDbPolyline
 90
        4
 70
     1
 43
0.0
 10
-27.0714094488189
 20
-5.03996062992126
 10
-26.96669291338583
 20
-5.04711811023622
 10
-27.01672047244094
 20
-4.954838582677166
 10
-27.0714094488189
 20
-5.03996062992126
  0
LWPOLYLINE
  5
72
330
1F
100
AcDbEntity
  8
Layer 1
 62
     7
370
    18
100
AcDbPolyline
 90
        4
 70
     1
 43
0.0
 10
-29.3378188976378
 20
-3.583716535433071
 10
-29.38784645669291
 20
-3.491437007874016
 10
-29.28312598425197
 20
-3.498590551181102
 10
-29.3378188976378
 20
-3.583716535433071
  0
LWPOLYLINE
  5
73
330
1F
100
AcDbEntity
  8
Layer 1
 62
     7
370
    18
100
AcDbPolyline
 90
        2
 70
     0
 43
0.0
 10
-26.9379842519685
 20
-5.059153543307087
 10
-29.41072834645669
 20
-3.470330708661417
  0
LWPOLYLINE
  5
74
330
1F
100
AcDbEntity
  8
Layer 1
 62
     7
370
     9
100
AcDbPolyline
 90
        7
 70
     1
 43
0.0
 10
-28.77252755905512
 20
-4.771279527559055
 10
-28.74899606299213
 20
-4.771279527559055
 10
-28.74899606299213
 20
-4.539685039370079
 10
-28.80550393700787
 20
-4.545736220472441
 10
-28.80550393700787
 20
-4.566263779527559
 10
-28.77252755905512
 20
-4.566263779527559
 10
-28.77252755905512
 20
-4.771279527559055
  0
LWPOLYLINE
  5
75
330
1F
100
AcDbEntity
  8
Layer 1
 62
     7
370
     9
100
AcDbPolyline
 90
       32
 70
     1
 43
0.0
 10
-28.61326377952756
 20
-4.568944881889764
 10
-28.60575984251969
 20
-4.574590551181102
 10
-28.5993031496063
 20
-4.581665354330709
 10
-28.59389763779528
 20
-4.590169291338583
 10
-28.58954330708661
 20
-4.600102362204725
 10
-28.5852874015748
 20
-4.613850393700788
 10
-28.58224015748031
 20
-4.628
 10
-28.5804094488189
 20
-4.642543307086614
 10
-28.57979921259842
 20
-4.657488188976378
 10
-28.58081102362205
 20
-4.674161417322835
 10
-28.58349212598425
 20
-4.691763779527559
 10
-28.58761811023622
 20
-4.707370078740158
 10
-28.59316929133858
 20
-4.720968503937008
 10
-28.60015354330709
 20
-4.732570866141733
 10
-28.60702362204724
 20
-4.740374015748031
 10
-28.61461417322835
 20
-4.745956692913386
 10
-28.62292913385827
 20
-4.749299212598425
 10
-28.63194488188977
 20
-4.750417322834646
 10
-28.64195669291339
 20
-4.749311023622047
 10
-28.65098818897638
 20
-4.745996062992126
 10
-28.65901968503937
 20
-4.740468503937008
 10
-28.66607086614173
 20
-4.732732283464567
 10
-28.67582677165354
 20
-4.714889763779528
 10
-28.68172834645669
 20
-4.69453937007874
 10
-28.68458661417323
 20
-4.674322834645669
 10
-28.68542125984252
 20
-4.651814960629921
 10
-28.68172834645669
 20
-4.620291338582677
 10
-28.676
 20
-4.599913385826771
 10
-28.66640551181102
 20
-4.581748031496063
 10
-28.65228346456693
 20
-4.568795275590551
 10
-28.63277952755906
 20
-4.563905511811024
 10
-28.61326377952756
 20
-4.568944881889764
  0
LWPOLYLINE
  5
76
330
1F
100
AcDbEntity
  8
Layer 1
 62
     7
370
     9
100
AcDbPolyline
 90
       49
 70
     1
 43
0.0
 10
-28.63159448818898
 20
-4.77432283464567
 10
-28.62176771653543
 20
-4.773704724409449
 10
-28.61257874015748
 20
-4.771830708661417
 10
-28.60400787401575
 20
-4.768704724409448
 10
-28.59606692913386
 20
-4.764350393700788
 10
-28.58874803149606
 20
-4.758732283464567
 10
-28.58205118110236
 20
-4.751870078740158
 10
-28.57598818897638
 20
-4.743771653543307
 10
-28.57055511811024
 20
-4.734433070866142
 10
-28.56341338582677
 20
-4.717653543307087
 10
-28.5583188976378
 20
-4.699082677165355
 10
-28.55527165354331
 20
-4.678688976377953
 10
-28.55424803149606
 20
-4.656492125984252
 10
-28.55527165354331
 20
-4.634283464566929
 10
-28.5583188976378
 20
-4.613889763779528
 10
-28.56341338582677
 20
-4.595318897637795
 10
-28.57055511811024
 20
-4.578555118110236
 10
-28.57598818897638
 20
-4.569212598425197
 10
-28.58205118110236
 20
-4.561114173228346
 10
-28.58874803149606
 20
-4.554255905511811
 10
-28.59606692913386
 20
-4.548645669291338
 10
-28.60400787401575
 20
-4.544279527559056
 10
-28.61257874015748
 20
-4.541153543307087
 10
-28.62176771653543
 20
-4.539279527559055
 10
-28.63159448818898
 20
-4.538661417322834
 10
-28.64141732283464
 20
-4.539279527559055
 10
-28.65061023622047
 20
-4.541153543307087
 10
-28.6591811023622
 20
-4.544279527559056
 10
-28.66713385826772
 20
-4.548645669291338
 10
-28.67445275590551
 20
-4.554255905511811
 10
-28.68114960629921
 20
-4.561114173228346
 10
-28.68721653543307
 20
-4.569212598425197
 10
-28.69266141732284
 20
-4.578555118110236
 10
-28.6997874015748
 20
-4.595318897637795
 10
-28.70488188976378
 20
-4.613889763779528
 10
-28.70794488188976
 20
-4.634283464566929
 10
-28.70896850393701
 20
-4.656492125984252
 10
-28.70794488188976
 20
-4.678688976377953
 10
-28.70488188976378
 20
-4.699082677165355
 10
-28.6997874015748
 20
-4.717653543307087
 10
-28.69266141732284
 20
-4.734433070866142
 10
-28.68721653543307
 20
-4.743771653543307
 10
-28.68114960629921
 20
-4.751870078740158
 10
-28.67445275590551
 20
-4.758732283464567
 10
-28.66713385826772
 20
-4.764350393700788
 10
-28.6591811023622
 20
-4.768704724409448
 10
-28.65061023622047
 20
-4.771830708661417
 10
-28.64141732283464
 20
-4.773704724409449
 10
-28.63159448818898
 20
-4.77432283464567
  0
LWPOLYLINE
  5
77
330
1F
100
AcDbEntity
  8
Layer 1
 62
     7
370
     9
100
AcDbPolyline
 90
       32
 70
     1
 43
0.0
 10
-28.4248937007874
 20
-4.568944881889764
 10
-28.41740157480315
 20
-4.574590551181102
 10
-28.41092913385827
 20
-4.581665354330709
 10
-28.40552755905512
 20
-4.590169291338583
 10
-28.40117322834646
 20
-4.600102362204725
 10
-28.39691338582677
 20
-4.613850393700788
 10
-28.39388188976378
 20
-4.628
 10
-28.39204724409449
 20
-4.642543307086614
 10
-28.39144094488189
 20
-4.657488188976378
 10
-28.39242519685039
 20
-4.674161417322835
 10
-28.39511023622047
 20
-4.691763779527559
 10
-28.39923228346457
 20
-4.707370078740158
 10
-28.40479921259843
 20
-4.720968503937008
 10
-28.41177952755906
 20
-4.732570866141733
 10
-28.41865354330709
 20
-4.740374015748031
 10
-28.42624015748031
 20
-4.745956692913386
 10
-28.43454330708661
 20
-4.749299212598425
 10
-28.44357086614173
 20
-4.750417322834646
 10
-28.45358661417323
 20
-4.749311023622047
 10
-28.46261417322835
 20
-4.745996062992126
 10
-28.47064960629921
 20
-4.740468503937008
 10
-28.4776968503937
 20
-4.732732283464567
 10
-28.48746850393701
 20
-4.714889763779528
 10
-28.49335826771653
 20
-4.69453937007874
 10
-28.49621653543307
 20
-4.674322834645669
 10
-28.49705118110236
 20
-4.651814960629921
 10
-28.49335826771653
 20
-4.620291338582677
 10
-28.48762992125984
 20
-4.599913385826771
 10
-28.47803543307086
 20
-4.581748031496063
 10
-28.4639094488189
 20
-4.568795275590551
 10
-28.4444094488189
 20
-4.563905511811024
 10
-28.4248937007874
 20
-4.568944881889764
  0
LWPOLYLINE
  5
78
330
1F
100
AcDbEntity
  8
Layer 1
 62
     7
370
     9
100
AcDbPolyline
 90
       49
 70
     1
 43
0.0
 10
-28.44322047244095
 20
-4.77432283464567
 10
-28.43339763779528
 20
-4.773704724409449
 10
-28.42420472440945
 20
-4.771830708661417
 10
-28.41564960629921
 20
-4.768704724409448
 10
-28.4076968503937
 20
-4.764350393700788
 10
-28.40037795275591
 20
-4.758732283464567
 10
-28.39369291338583
 20
-4.751870078740158
 10
-28.38762992125984
 20
-4.743771653543307
 10
-28.38218503937008
 20
-4.734433070866142
 10
-28.37503937007874
 20
-4.717653543307087
 10
-28.36994488188977
 20
-4.699082677165355
 10
-28.36690157480315
 20
-4.678688976377953
 10
-28.36587795275591
 20
-4.656492125984252
 10
-28.36690157480315
 20
-4.634283464566929
 10
-28.36994488188977
 20
-4.613889763779528
 10
-28.37503937007874
 20
-4.595318897637795
 10
-28.38218503937008
 20
-4.578555118110236
 10
-28.38762992125984
 20
-4.569212598425197
 10
-28.39369291338583
 20
-4.561114173228346
 10
-28.40037795275591
 20
-4.554255905511811
 10
-28.4076968503937
 20
-4.548645669291338
 10
-28.41564960629921
 20
-4.544279527559056
 10
-28.42420472440945
 20
-4.541153543307087
 10
-28.43339763779528
 20
-4.539279527559055
 10
-28.44322047244095
 20
-4.538661417322834
 10
-28.45304724409449
 20
-4.539279527559055
 10
-28.46224015748032
 20
-4.541153543307087
 10
-28.47081102362205
 20
-4.544279527559056
 10
-28.47876377952756
 20
-4.548645669291338
 10
-28.48607874015748
 20
-4.554255905511811
 10
-28.49276377952756
 20
-4.561114173228346
 10
-28.49883070866142
 20
-4.569212598425197
 10
-28.50427559055118
 20
-4.578555118110236
 10
-28.51141732283465
 20
-4.595318897637795
 10
-28.51651181102362
 20
-4.613889763779528
 10
-28.51957086614173
 20
-4.634283464566929
 10
-28.52059448818898
 20
-4.656492125984252
 10
-28.51957086614173
 20
-4.678688976377953
 10
-28.51651181102362
 20
-4.699082677165355
 10
-28.51141732283465
 20
-4.717653543307087
 10
-28.50427559055118
 20
-4.734433070866142
 10
-28.49883070866142
 20
-4.743771653543307
 10
-28.49276377952756
 20
-4.751870078740158
 10
-28.48607874015748
 20
-4.758732283464567
 10
-28.47876377952756
 20
-4.764350393700788
 10
-28.47081102362205
 20
-4.768704724409448
 10
-28.46224015748032
 20
-4.771830708661417
 10
-28.45304724409449
 20
-4.773704724409449
 10
-28.44322047244095
 20
-4.77432283464567
  0
LWPOLYLINE
  5
79
330
1F
100
AcDbEntity
  8
Layer 1
 62
     7
370
     9
100
AcDbPolyline
 90
       48
 70
     1
 43
0.0
 10
-28.13611417322835
 20
-4.770618110236221
 10
-28.11257086614173
 20
-4.770618110236221
 10
-28.11257086614173
 20
-4.678027559055118
 10
-28.11333858267717
 20
-4.66601968503937
 10
-28.11564173228346
 20
-4.655173228346457
 10
-28.1194842519685
 20
-4.64548031496063
 10
-28.12485039370079
 20
-4.636948818897638
 10
-28.14049606299213
 20
-4.623984251968504
 10
-28.16538976377953
 20
-4.619122047244095
 10
-28.17288188976378
 20
-4.619645669291339
 10
-28.17990157480315
 20
-4.621224409448819
 10
-28.18642519685039
 20
-4.623850393700788
 10
-28.19246456692913
 20
-4.627515748031496
 10
-28.20978346456693
 20
-4.647275590551181
 10
-28.21602362204725
 20
-4.636948818897638
 10
-28.23165748031496
 20
-4.623984251968504
 10
-28.25654724409449
 20
-4.619122047244095
 10
-28.26404330708661
 20
-4.619645669291339
 10
-28.27105118110236
 20
-4.621224409448819
 10
-28.27757480314961
 20
-4.623850393700788
 10
-28.28362598425197
 20
-4.627515748031496
 10
-28.30026771653543
 20
-4.646102362204725
 10
-28.30026771653543
 20
-4.622476377952756
 10
-28.32379921259842
 20
-4.622476377952756
 10
-28.32379921259842
 20
-4.770618110236221
 10
-28.30026771653543
 20
-4.770618110236221
 10
-28.30026771653543
 20
-4.694807086614174
 10
-28.29118503937008
 20
-4.664228346456693
 10
-28.27670866141732
 20
-4.648744094488189
 10
-28.2571968503937
 20
-4.642692913385827
 10
-28.24173622047244
 20
-4.645885826771654
 10
-28.23540157480315
 20
-4.651330708661417
 10
-28.23088976377953
 20
-4.658515748031496
 10
-28.22817716535433
 20
-4.667409448818898
 10
-28.22727559055118
 20
-4.678027559055118
 10
-28.22727559055118
 20
-4.770618110236221
 10
-28.20371653543307
 20
-4.770618110236221
 10
-28.20371653543307
 20
-4.678027559055118
 10
-28.20390551181102
 20
-4.672370078740157
 10
-28.20002362204724
 20
-4.664228346456693
 10
-28.18556299212598
 20
-4.648744094488189
 10
-28.16604724409449
 20
-4.642692913385827
 10
-28.15057480314961
 20
-4.645885826771654
 10
-28.14424409448819
 20
-4.651330708661417
 10
-28.13972834645669
 20
-4.658515748031496
 10
-28.13701968503937
 20
-4.667409448818898
 10
-28.13611417322835
 20
-4.678027559055118
 10
-28.13611417322835
 20
-4.770618110236221
  0
LWPOLYLINE
  5
7A
330
1F
100
AcDbEntity
  8
Layer 1
 62
     7
370
     9
100
AcDbPolyline
 90
       48
 70
     1
 43
0.0
 10
-27.87946850393701
 20
-4.770618110236221
 10
-27.85592125984252
 20
-4.770618110236221
 10
-27.85592125984252
 20
-4.678027559055118
 10
-27.85669291338583
 20
-4.66601968503937
 10
-27.85899606299213
 20
-4.655173228346457
 10
-27.86283858267717
 20
-4.64548031496063
 10
-27.86820078740157
 20
-4.636948818897638
 10
-27.88386220472441
 20
-4.623984251968504
 10
-27.90875196850394
 20
-4.619122047244095
 10
-27.91624803149606
 20
-4.619645669291339
 10
-27.92325590551181
 20
-4.621224409448819
 10
-27.92977952755906
 20
-4.623850393700788
 10
-27.93583070866142
 20
-4.627515748031496
 10
-27.95316141732284
 20
-4.647275590551181
 10
-27.95937401574803
 20
-4.636948818897638
 10
-27.97500787401575
 20
-4.623984251968504
 10
-27.99990157480315
 20
-4.619122047244095
 10
-28.0073937007874
 20
-4.619645669291339
 10
-28.01440157480315
 20
-4.621224409448819
 10
-28.02093700787401
 20
-4.623850393700788
 10
-28.02697637795276
 20
-4.627515748031496
 10
-28.0436220472441
 20
-4.646102362204725
 10
-28.0436220472441
 20
-4.622476377952756
 10
-28.06716535433071
 20
-4.622476377952756
 10
-28.06716535433071
 20
-4.770618110236221
 10
-28.0436220472441
 20
-4.770618110236221
 10
-28.0436220472441
 20
-4.694807086614174
 10
-28.03453543307086
 20
-4.664228346456693
 10
-28.0200748031496
 20
-4.648744094488189
 10
-28.00057480314961
 20
-4.642692913385827
 10
-27.9850905511811
 20
-4.645885826771654
 10
-27.97876771653543
 20
-4.651330708661417
 10
-27.97424015748031
 20
-4.658515748031496
 10
-27.97153149606299
 20
-4.667409448818898
 10
-27.97062992125984
 20
-4.678027559055118
 10
-27.97062992125984
 20
-4.770618110236221
 10
-27.94708267716535
 20
-4.770618110236221
 10
-27.94708267716535
 20
-4.678027559055118
 10
-27.94725984251968
 20
-4.672370078740157
 10
-27.94337795275591
 20
-4.664228346456693
 10
-27.92891732283465
 20
-4.648744094488189
 10
-27.90941338582677
 20
-4.642692913385827
 10
-27.89394094488189
 20
-4.645885826771654
 10
-27.88762204724409
 20
-4.651330708661417
 10
-27.88309448818898
 20
-4.658515748031496
 10
-27.88037007874016
 20
-4.667409448818898
 10
-27.87946850393701
 20
-4.678027559055118
 10
-27.87946850393701
 20
-4.770618110236221
  0
ENDSEC
  0
SECTION
  2
OBJECTS
  0
DICTIONARY
  5
C
330
0
100
AcDbDictionary
281
     1
  3
ACAD_DETAILVIEWSTYLE
350
82
  3
ACAD_GROUP
350
D
  3
ACAD_LAYOUT
350
1A
  3
ACAD_MATERIAL
350
43
  3
ACAD_MLEADERSTYLE
350
5B
  3
ACAD_MLINESTYLE
350
17
  3
ACAD_PLOTSETTINGS
350
19
  3
ACAD_PLOTSTYLENAME
350
E
  3
ACAD_SCALELIST
350
47
  3
ACAD_SECTIONVIEWSTYLE
350
83
  3
ACAD_TABLESTYLE
350
59
  3
ACAD_VISUALSTYLE
350
2A
  3
ACDB_RECOMPOSE_DATA
350
7F
  3
AcDbVariableDictionary
350
7B
  0
SUN
  5
5D
330
29
100
AcDbSun
 90
        1
290
     0
 63
     7
421
 16777215
 40
1.0
291
     1
 91
  2455826
 92
 54000000
292
     0
 70
     2
 71
   256
280
     1
  0
DICTIONARY
  5
82
102
{ACAD_REACTORS
330
C
102
}
330
C
100
AcDbDictionary
281
     1
  0
DICTIONARY
  5
D
102
{ACAD_REACTORS
330
C
102
}
330
C
100
AcDbDictionary
281
     1
  0
DICTIONARY
  5
1A
102
{ACAD_REACTORS
330
C
102
}
330
C
100
AcDbDictionary
281
     1
  3
Layout1
350
1E
  3
Layout2
350
26
  3
Model
350
22
  0
DICTIONARY
  5
43
102
{ACAD_REACTORS
330
C
102
}
330
C
100
AcDbDictionary
281
     1
  3
ByBlock
350
45
  3
ByLayer
350
44
  3
Global
350
46
  0
DICTIONARY
  5
5B
102
{ACAD_REACTORS
330
C
102
}
330
C
100
AcDbDictionary
281
     1
  3
Standard
350
5C
  0
DICTIONARY
  5
17
102
{ACAD_REACTORS
330
C
102
}
330
C
100
AcDbDictionary
281
     1
  3
Standard
350
18
  0
DICTIONARY
  5
19
102
{ACAD_REACTORS
330
C
102
}
330
C
100
AcDbDictionary
281
     1
  0
ACDBDICTIONARYWDFLT
  5
E
102
{ACAD_REACTORS
330
C
102
}
330
C
100
AcDbDictionary
281
     1
  3
Normal
350
F
100
AcDbDictionaryWithDefault
340
F
  0
DICTIONARY
  5
47
102
{ACAD_REACTORS
330
C
102
}
330
C
100
AcDbDictionary
281
     1
  3
A0
350
48
  3
A1
350
49
  3
A2
350
4A
  3
A3
350
4B
  3
A4
350
4C
  3
A5
350
4D
  3
A6
350
4E
  3
A7
350
4F
  3
A8
350
50
  3
A9
350
51
  3
B1
350
52
  3
B2
350
53
  3
B3
350
54
  3
B4
350
55
  3
B5
350
56
  3
B6
350
57
  3
B7
350
58
  0
DICTIONARY
  5
83
102
{ACAD_REACTORS
330
C
102
}
330
C
100
AcDbDictionary
281
     1
  0
DICTIONARY
  5
59
102
{ACAD_REACTORS
330
C
102
}
330
C
100
AcDbDictionary
281
     1
  3
Standard
350
5A
  0
DICTIONARY
  5
2A
102
{ACAD_REACTORS
330
C
102
}
330
C
100
AcDbDictionary
281
     1
  3
2dWireframe
350
2F
  3
Basic
350
32
  3
Brighten
350
36
  3
ColorChange
350
3A
  3
Conceptual
350
34
  3
Dim
350
35
  3
EdgeColorOff
350
3D
  3
Facepattern
350
39
  3
Flat
350
2B
  3
FlatWithEdges
350
2C
  3
Gouraud
350
2D
  3
GouraudWithEdges
350
2E
  3
Hidden
350
31
  3
JitterOff
350
3B
  3
Linepattern
350
38
  3
OverhangOff
350
3C
  3
Realistic
350
33
  3
Shaded
350
42
  3
Shaded with edges
350
41
  3
Shades of Gray
350
3E
  3
Sketchy
350
3F
  3
Thicken
350
37
  3
Wireframe
350
30
  3
X-Ray
350
40
  0
XRECORD
  5
7F
102
{ACAD_REACTORS
330
C
102
}
330
C
100
AcDbXrecord
280
     1
 90
        1
330
5A
  0
DICTIONARY
  5
7B
102
{ACAD_REACTORS
330
C
102
}
330
C
100
AcDbDictionary
281
     1
  3
CANNOSCALE
350
7C
  3
CMLEADERSTYLE
350
81
  3
CTABLESTYLE
350
80
  0
LAYOUT
  5
1E
102
{ACAD_REACTORS
330
1A
102
}
330
1A
100
AcDbPlotSettings
  1

  2
none_device
  4

  6

 40
0.0
 41
0.0
 42
0.0
 43
0.0
 44
0.0
 45
0.0
 46
0.0
 47
0.0
 48
0.0
 49
0.0
140
0.0
141
0.0
142
1.0
143
1.0
 70
   688
 72
     0
 73
     0
 74
     5
  7

 75
    16
 76
     0
 77
     2
 78
   300
147
1.0
148
0.0
149
0.0
100
AcDbLayout
  1
Layout1
 70
     1
 71
     1
 10
0.0
 20
0.0
 11
12.0
 21
9.0
 12
0.0
 22
0.0
 32
0.0
 14
1.000000000000000E+20
 24
1.000000000000000E+20
 34
1.000000000000000E+20
 15
-1.000000000000000E+20
 25
-1.000000000000000E+20
 35
-1.000000000000000E+20
146
0.0
 13
0.0
 23
0.0
 33
0.0
 16
1.0
 26
0.0
 36
0.0
 17
0.0
 27
1.0
 37
0.0
 76
     0
330
1B
  0
LAYOUT
  5
26
102
{ACAD_REACTORS
330
1A
102
}
330
1A
100
AcDbPlotSettings
  1

  2
none_device
  4

  6

 40
0.0
 41
0.0
 42
0.0
 43
0.0
 44
0.0
 45
0.0
 46
0.0
 47
0.0
 48
0.0
 49
0.0
140
0.0
141
0.0
142
1.0
143
1.0
 70
   688
 72
     0
 73
     0
 74
     5
  7

 75
    16
 76
     0
 77
     2
 78
   300
147
1.0
148
0.0
149
0.0
100
AcDbLayout
  1
Layout2
 70
     1
 71
     2
 10
0.0
 20
0.0
 11
0.0
 21
0.0
 12
0.0
 22
0.0
 32
0.0
 14
0.0
 24
0.0
 34
0.0
 15
0.0
 25
0.0
 35
0.0
146
0.0
 13
0.0
 23
0.0
 33
0.0
 16
1.0
 26
0.0
 36
0.0
 17
0.0
 27
1.0
 37
0.0
 76
     0
330
23
  0
LAYOUT
  5
22
102
{ACAD_REACTORS
330
1A
102
}
330
1A
100
AcDbPlotSettings
  1

  2
none_device
  4
Letter_(8.50_x_11.00_Inches)
  6

 40
6.35
 41
6.35
 42
6.35000508
 43
6.35000508
 44
215.9
 45
279.4
 46
0.0
 47
0.0
 48
0.0
 49
0.0
140
0.0
141
0.0
142
1.0
143
1.0
 70
  1712
 72
     0
 73
     0
 74
     0
  7

 75
     0
 76
     0
 77
     2
 78
   300
147
1.0
148
0.0
149
0.0
100
AcDbLayout
  1
Model
 70
     1
 71
     0
 10
0.0
 20
0.0
 11
12.0
 21
9.0
 12
0.0
 22
0.0
 32
0.0
 14
-30.36099606299213
 24
-6.196704724409448
 34
0.0
 15
-22.73392125984252
 25
0.9380472440944881
 35
0.0
146
0.0
 13
0.0
 23
0.0
 33
0.0
 16
1.0
 26
0.0
 36
0.0
 17
0.0
 27
1.0
 37
0.0
 76
     0
330
1F
331
29
  0
MATERIAL
  5
45
102
{ACAD_REACTORS
330
43
102
}
330
43
100
AcDbMaterial
  1
ByBlock
 72
     1
 94
      127
  0
MATERIAL
  5
44
102
{ACAD_REACTORS
330
43
102
}
330
43
100
AcDbMaterial
  1
ByLayer
 72
     1
 94
      127
  0
MATERIAL
  5
46
102
{ACAD_REACTORS
330
43
102
}
330
43
100
AcDbMaterial
  1
Global
 72
     1
 94
      127
  0
MLEADERSTYLE
  5
5C
102
{ACAD_REACTORS
330
5B
102
}
330
5B
100
AcDbMLeaderStyle
179
     2
170
     2
171
     1
172
     0
 90
        2
 40
0.0
 41
0.0
173
     1
 91
-1056964608
340
14
 92
       -2
290
     1
 42
0.09
291
     1
 43
0.36
  3
Standard
341
0
 44
0.18
300

342
11
174
     1
178
     6
175
     1
176
     0
 93
-1056964608
 45
0.18
292
     0
297
     0
 46
0.18
343
0
 94
-1056964608
 47
1.0
 49
1.0
140
1.0
293
     1
141
0.0
294
     1
177
     0
142
1.0
295
     0
296
     0
143
0.125
271
     0
272
     9
273
     9
298
     0
  0
MLINESTYLE
  5
18
102
{ACAD_REACTORS
330
17
102
}
330
17
100
AcDbMlineStyle
  2
Standard
 70
     0
  3

 62
   256
 51
90.0
 52
90.0
 71
     2
 49
0.5
 62
   256
  6
BYLAYER
 49
-0.5
 62
   256
  6
BYLAYER
  0
ACDBPLACEHOLDER
  5
F
102
{ACAD_REACTORS
330
E
102
}
330
E
  0
SCALE
  5
48
102
{ACAD_REACTORS
330
47
102
}
330
47
100
AcDbScale
 70
     0
300
1:1
140
1.0
141
1.0
290
     1
  0
SCALE
  5
49
102
{ACAD_REACTORS
330
47
102
}
330
47
100
AcDbScale
 70
     0
300
1/128" = 1'-0"
140
0.0078125
141
12.0
290
     0
  0
SCALE
  5
4A
102
{ACAD_REACTORS
330
47
102
}
330
47
100
AcDbScale
 70
     0
300
1/64" = 1'-0"
140
0.015625
141
12.0
290
     0
  0
SCALE
  5
4B
102
{ACAD_REACTORS
330
47
102
}
330
47
100
AcDbScale
 70
     0
300
1/32" = 1'-0"
140
0.03125
141
12.0
290
     0
  0
SCALE
  5
4C
102
{ACAD_REACTORS
330
47
102
}
330
47
100
AcDbScale
 70
     0
300
1/16" = 1'-0"
140
0.0625
141
12.0
290
     0
  0
SCALE
  5
4D
102
{ACAD_REACTORS
330
47
102
}
330
47
100
AcDbScale
 70
     0
300
3/32" = 1'-0"
140
0.09375
141
12.0
290
     0
  0
SCALE
  5
4E
102
{ACAD_REACTORS
330
47
102
}
330
47
100
AcDbScale
 70
     0
300
1/8" = 1'-0"
140
0.125
141
12.0
290
     0
  0
SCALE
  5
4F
102
{ACAD_REACTORS
330
47
102
}
330
47
100
AcDbScale
 70
     0
300
3/16" = 1'-0"
140
0.1875
141
12.0
290
     0
  0
SCALE
  5
50
102
{ACAD_REACTORS
330
47
102
}
330
47
100
AcDbScale
 70
     0
300
1/4" = 1'-0"
140
0.25
141
12.0
290
     0
  0
SCALE
  5
51
102
{ACAD_REACTORS
330
47
102
}
330
47
100
AcDbScale
 70
     0
300
3/8" = 1'-0"
140
0.375
141
12.0
290
     0
  0
SCALE
  5
52
102
{ACAD_REACTORS
330
47
102
}
330
47
100
AcDbScale
 70
     0
300
1/2" = 1'-0"
140
0.5
141
12.0
290
     0
  0
SCALE
  5
53
102
{ACAD_REACTORS
330
47
102
}
330
47
100
AcDbScale
 70
     0
300
3/4" = 1'-0"
140
0.75
141
12.0
290
     0
  0
SCALE
  5
54
102
{ACAD_REACTORS
330
47
102
}
330
47
100
AcDbScale
 70
     0
300
1" = 1'-0"
140
1.0
141
12.0
290
     0
  0
SCALE
  5
55
102
{ACAD_REACTORS
330
47
102
}
330
47
100
AcDbScale
 70
     0
300
1-1/2" = 1'-0"
140
1.5
141
12.0
290
     0
  0
SCALE
  5
56
102
{ACAD_REACTORS
330
47
102
}
330
47
100
AcDbScale
 70
     0
300
3" = 1'-0"
140
3.0
141
12.0
290
     0
  0
SCALE
  5
57
102
{ACAD_REACTORS
330
47
102
}
330
47
100
AcDbScale
 70
     0
300
6" = 1'-0"
140
6.0
141
12.0
290
     0
  0
SCALE
  5
58
102
{ACAD_REACTORS
330
47
102
}
330
47
100
AcDbScale
 70
     0
300
1'-0" = 1'-0"
140
12.0
141
12.0
290
     0
  0
TABLESTYLE
  5
5A
102
{ACAD_REACTORS
330
59
102
}
102
{ACAD_XDICTIONARY
360
7D
102
}
330
59
100
AcDbTableStyle
  3
Standard
 70
     0
 71
     0
 40
0.06
 41
0.06
280
     0
281
     0
  7
Standard
140
0.18
170
     2
 62
     0
 63
   257
283
     0
 90
        4
 91
        0
  1

274
    -2
284
     1
 64
     0
275
    -2
285
     1
 65
     0
276
    -2
286
     1
 66
     0
277
    -2
287
     1
 67
     0
278
    -2
288
     1
 68
     0
279
    -2
289
     1
 69
     0
  7
Standard
140
0.25
170
     5
 62
     0
 63
   257
283
     0
 90
        4
 91
        0
  1

274
    -2
284
     1
 64
     0
275
    -2
285
     1
 65
     0
276
    -2
286
     1
 66
     0
277
    -2
287
     1
 67
     0
278
    -2
288
     1
 68
     0
279
    -2
289
     1
 69
     0
  7
Standard
140
0.18
170
     5
 62
     0
 63
   257
283
     0
 90
        4
 91
        0
  1

274
    -2
284
     1
 64
     0
275
    -2
285
     1
 65
     0
276
    -2
286
     1
 66
     0
277
    -2
287
     1
 67
     0
278
    -2
288
     1
 68
     0
279
    -2
289
     1
 69
     0
  0
VISUALSTYLE
  5
2F
102
{ACAD_REACTORS
330
2A
102
}
330
2A
100
AcDbVisualStyle
  2
2dWireframe
 70
     4
177
     3
291
     0
 70
    58
 90
        0
176
     1
 90
        2
176
     1
 90
        0
176
     1
 90
        0
176
     1
 40
0.6
176
     1
 40
30.0
176
     1
 62
     7
420
 16777215
176
     1
 90
        1
176
     1
 90
        4
176
     1
 62
     7
176
     1
 62
   257
176
     1
 90
        1
176
     1
 90
        1
176
     1
 40
1.0
176
     1
 90
        0
176
     1
 62
   257
176
     1
 40
1.0
176
     1
 90
        1
176
     1
 90
        6
176
     1
 90
        2
176
     1
 62
     7
176
     1
 90
        5
176
     1
 90
        0
176
     1
 90
        0
176
     1
290
     0
176
     1
 90
        1
176
     1
 40
0.0
176
     1
 90
        0
176
     1
290
     1
176
     1
290
     1
176
     1
290
     0
176
     1
290
     0
176
     1
290
     0
176
     1
290
     0
176
     1
290
     0
176
     1
290
     0
176
     1
290
     0
176
     1
 90
       50
176
     1
 40
0.0
176
     1
 40
1.0
176
     1
 90
        0
176
     1
 62
    18
420
        0
176
     1
 90
       50
176
     1
 90
        3
176
     1
 62
     5
420
      255
176
     1
290
     0
176
     1
 90
       50
176
     1
 90
       50
176
     1
 90
       50
176
     1
290
     0
176
     1
 90
       50
176
     1
 62
   256
176
     0
 40
1.0
176
     0
 90
        2
176
     1
  1
strokes_ogs.tif
176
     1
290
     0
176
     1
 40
1.0
176
     1
 40
1.0
176
     1
  0
VISUALSTYLE
  5
32
102
{ACAD_REACTORS
330
2A
102
}
330
2A
100
AcDbVisualStyle
  2
Basic
 70
     7
177
     3
291
     1
 70
    58
 90
        1
176
     1
 90
        0
176
     1
 90
        1
176
     1
 90
        0
176
     1
 40
0.6
176
     1
 40
30.0
176
     1
 62
     7
420
 16777215
176
     1
 90
        0
176
     1
 90
        4
176
     1
 62
     7
176
     1
 62
   257
176
     1
 90
        1
176
     1
 90
        1
176
     1
 40
1.0
176
     1
 90
        8
176
     1
 62
     7
176
     1
 40
1.0
176
     1
 90
        1
176
     1
 90
        6
176
     1
 90
        2
176
     1
 62
     7
176
     1
 90
        5
176
     1
 90
        0
176
     1
 90
        0
176
     1
290
     0
176
     1
 90
        1
176
     1
 40
0.0
176
     1
 90
        0
176
     1
290
     0
176
     1
290
     1
176
     1
290
     1
176
     1
290
     0
176
     1
290
     0
176
     1
290
     0
176
     1
290
     0
176
     1
290
     0
176
     1
290
     0
176
     1
 90
       50
176
     1
 40
0.0
176
     1
 40
1.0
176
     1
 90
        0
176
     1
 62
    18
420
        0
176
     1
 90
       50
176
     1
 90
        3
176
     1
 62
     5
420
      255
176
     1
290
     0
176
     1
 90
       50
176
     1
 90
       50
176
     1
 90
       50
176
     1
290
     0
176
     1
 90
       50
176
     1
 62
   256
176
     0
 40
1.0
176
     0
 90
        2
176
     1
  1
strokes_ogs.tif
176
     1
290
     0
176
     1
 40
1.0
176
     1
 40
1.0
176
     1
  0
VISUALSTYLE
  5
36
102
{ACAD_REACTORS
330
2A
102
}
330
2A
100
AcDbVisualStyle
  2
Brighten
 70
    12
177
     3
291
     1
 70
    58
 90
        2
176
     1
 90
        2
176
     1
 90
        0
176
     1
 90
        0
176
     1
 40
0.6
176
     1
 40
30.0
176
     1
 62
     7
420
 16777215
176
     1
 90
        1
176
     1
 90
        4
176
     1
 62
     7
176
     1
 62
   257
176
     1
 90
        1
176
     1
 90
        1
176
     1
 40
1.0
176
     1
 90
        8
176
     1
 62
     7
176
     1
 40
1.0
176
     1
 90
        1
176
     1
 90
        6
176
     1
 90
        2
176
     1
 62
     7
176
     1
 90
        5
176
     1
 90
        0
176
     1
 90
        0
176
     1
290
     0
176
     1
 90
        1
176
     1
 40
50.0
176
     1
 90
        0
176
     1
290
     0
176
     1
290
     1
176
     1
290
     1
176
     1
290
     0
176
     1
290
     0
176
     1
290
     0
176
     1
290
     0
176
     1
290
     0
176
     1
290
     0
176
     1
 90
       50
176
     1
 40
0.0
176
     1
 40
1.0
176
     1
 90
        0
176
     1
 62
    18
420
        0
176
     1
 90
       50
176
     1
 90
        3
176
     1
 62
     5
420
      255
176
     1
290
     0
176
     1
 90
       50
176
     1
 90
       50
176
     1
 90
       50
176
     1
290
     0
176
     1
 90
       50
176
     1
 62
   256
176
     0
 40
1.0
176
     0
 90
        2
176
     1
  1
strokes_ogs.tif
176
     1
290
     0
176
     1
 40
1.0
176
     1
 40
1.0
176
     1
  0
VISUALSTYLE
  5
3A
102
{ACAD_REACTORS
330
2A
102
}
330
2A
100
AcDbVisualStyle
  2
ColorChange
 70
    16
177
     3
291
     1
 70
    58
 90
        2
176
     1
 90
        2
176
     1
 90
        3
176
     1
 90
        0
176
     1
 40
0.6
176
     1
 40
30.0
176
     1
 62
     8
420
  8421504
176
     1
 90
        1
176
     1
 90
        4
176
     1
 62
     7
176
     1
 62
   257
176
     1
 90
        1
176
     1
 90
        1
176
     1
 40
1.0
176
     1
 90
        8
176
     1
 62
     8
420
  8421504
176
     1
 40
1.0
176
     1
 90
        1
176
     1
 90
        6
176
     1
 90
        2
176
     1
 62
     7
176
     1
 90
        5
176
     1
 90
        0
176
     1
 90
        0
176
     1
290
     0
176
     1
 90
        1
176
     1
 40
0.0
176
     1
 90
        0
176
     1
290
     0
176
     1
290
     1
176
     1
290
     1
176
     1
290
     0
176
     1
290
     0
176
     1
290
     0
176
     1
290
     0
176
     1
290
     0
176
     1
290
     0
176
     1
 90
       50
176
     1
 40
0.0
176
     1
 40
1.0
176
     1
 90
        0
176
     1
 62
    18
420
        0
176
     1
 90
       50
176
     1
 90
        3
176
     1
 62
     5
420
      255
176
     1
290
     0
176
     1
 90
       50
176
     1
 90
       50
176
     1
 90
       50
176
     1
290
     0
176
     1
 90
       50
176
     1
 62
   256
176
     0
 40
1.0
176
     0
 90
        2
176
     1
  1
strokes_ogs.tif
176
     1
290
     0
176
     1
 40
1.0
176
     1
 40
1.0
176
     1
  0
VISUALSTYLE
  5
34
102
{ACAD_REACTORS
330
2A
102
}
330
2A
100
AcDbVisualStyle
  2
Conceptual
 70
     9
177
     3
291
     0
 70
    58
 90
        3
176
     1
 90
        2
176
     1
 90
        0
176
     1
 90
        0
176
     1
 40
0.6
176
     1
 40
30.0
176
     1
 62
     7
420
 16777215
176
     1
 90
        2
176
     1
 90
        2
176
     1
 62
     7
176
     1
 62
   257
176
     1
 90
        1
176
     1
 90
        1
176
     1
 40
179.0
176
     1
 90
        8
176
     1
 62
     7
176
     1
 40
1.0
176
     1
 90
        1
176
     1
 90
        6
176
     1
 90
        2
176
     1
 62
     7
176
     1
 90
        3
176
     1
 90
        0
176
     1
 90
        0
176
     1
290
     0
176
     1
 90
        1
176
     1
 40
0.0
176
     1
 90
        0
176
     1
290
     0
176
     1
290
     1
176
     1
290
     1
176
     1
290
     0
176
     1
290
     0
176
     1
290
     0
176
     1
290
     0
176
     1
290
     0
176
     1
290
     0
176
     1
 90
       50
176
     1
 40
0.0
176
     1
 40
1.0
176
     1
 90
        0
176
     1
 62
    18
420
        0
176
     1
 90
       50
176
     1
 90
        3
176
     1
 62
     5
420
      255
176
     1
290
     0
176
     1
 90
       50
176
     1
 90
       50
176
     1
 90
       50
176
     1
290
     0
176
     1
 90
       50
176
     1
 62
   256
176
     0
 40
1.0
176
     0
 90
        2
176
     1
  1
strokes_ogs.tif
176
     1
290
     0
176
     1
 40
1.0
176
     1
 40
1.0
176
     1
  0
VISUALSTYLE
  5
35
102
{ACAD_REACTORS
330
2A
102
}
330
2A
100
AcDbVisualStyle
  2
Dim
 70
    11
177
     3
291
     1
 70
    58
 90
        2
176
     1
 90
        2
176
     1
 90
        0
176
     1
 90
        0
176
     1
 40
0.6
176
     1
 40
30.0
176
     1
 62
     7
420
 16777215
176
     1
 90
        1
176
     1
 90
        4
176
     1
 62
     7
176
     1
 62
   257
176
     1
 90
        1
176
     1
 90
        1
176
     1
 40
1.0
176
     1
 90
        8
176
     1
 62
     7
176
     1
 40
1.0
176
     1
 90
        1
176
     1
 90
        6
176
     1
 90
        2
176
     1
 62
     7
176
     1
 90
        5
176
     1
 90
        0
176
     1
 90
        0
176
     1
290
     0
176
     1
 90
        1
176
     1
 40
-50.0
176
     1
 90
        0
176
     1
290
     0
176
     1
290
     1
176
     1
290
     1
176
     1
290
     0
176
     1
290
     0
176
     1
290
     0
176
     1
290
     0
176
     1
290
     0
176
     1
290
     0
176
     1
 90
       50
176
     1
 40
0.0
176
     1
 40
1.0
176
     1
 90
        0
176
     1
 62
    18
420
        0
176
     1
 90
       50
176
     1
 90
        3
176
     1
 62
     5
420
      255
176
     1
290
     0
176
     1
 90
       50
176
     1
 90
       50
176
     1
 90
       50
176
     1
290
     0
176
     1
 90
       50
176
     1
 62
   256
176
     0
 40
1.0
176
     0
 90
        2
176
     1
  1
strokes_ogs.tif
176
     1
290
     0
176
     1
 40
1.0
176
     1
 40
1.0
176
     1
  0
VISUALSTYLE
  5
3D
102
{ACAD_REACTORS
330
2A
102
}
330
2A
100
AcDbVisualStyle
  2
EdgeColorOff
 70
    22
177
     3
291
     1
 70
    58
 90
        2
176
     0
 90
        2
176
     0
 90
        0
176
     0
 90
        0
176
     0
 40
0.6
176
     0
 40
30.0
176
     0
 62
     7
420
 16777215
176
     0
 90
        1
176
     0
 90
        4
176
     0
 62
     7
176
     0
 62
   257
176
     0
 90
        1
176
     0
 90
        1
176
     0
 40
1.0
176
     0
 90
        8
176
     2
 62
     7
176
     0
 40
1.0
176
     0
 90
        1
176
     0
 90
        6
176
     0
 90
        2
176
     0
 62
     7
176
     0
 90
        5
176
     0
 90
        0
176
     0
 90
        0
176
     0
290
     0
176
     0
 90
        1
176
     0
 40
0.0
176
     0
 90
        0
176
     0
290
     0
176
     0
290
     1
176
     0
290
     1
176
     0
290
     0
176
     0
290
     0
176
     0
290
     0
176
     0
290
     0
176
     0
290
     0
176
     0
290
     0
176
     0
 90
       50
176
     0
 40
0.0
176
     0
 40
1.0
176
     0
 90
        0
176
     0
 62
    18
420
        0
176
     0
 90
       50
176
     0
 90
        3
176
     0
 62
     5
420
      255
176
     0
290
     0
176
     0
 90
       50
176
     0
 90
       50
176
     0
 90
       50
176
     0
290
     0
176
     0
 90
       50
176
     0
 62
   256
176
     0
 40
1.0
176
     0
 90
        2
176
     0
  1
strokes_ogs.tif
176
     0
290
     0
176
     0
 40
1.0
176
     0
 40
1.0
176
     0
  0
VISUALSTYLE
  5
39
102
{ACAD_REACTORS
330
2A
102
}
330
2A
100
AcDbVisualStyle
  2
Facepattern
 70
    15
177
     3
291
     1
 70
    58
 90
        2
176
     1
 90
        2
176
     1
 90
        0
176
     1
 90
        0
176
     1
 40
0.6
176
     1
 40
30.0
176
     1
 62
     7
420
 16777215
176
     1
 90
        1
176
     1
 90
        4
176
     1
 62
     7
176
     1
 62
   257
176
     1
 90
        1
176
     1
 90
        1
176
     1
 40
1.0
176
     1
 90
        8
176
     1
 62
     7
176
     1
 40
1.0
176
     1
 90
        1
176
     1
 90
        6
176
     1
 90
        2
176
     1
 62
     7
176
     1
 90
        5
176
     1
 90
        0
176
     1
 90
        0
176
     1
290
     0
176
     1
 90
        1
176
     1
 40
0.0
176
     1
 90
        0
176
     1
290
     0
176
     1
290
     1
176
     1
290
     1
176
     1
290
     0
176
     1
290
     0
176
     1
290
     0
176
     1
290
     0
176
     1
290
     0
176
     1
290
     0
176
     1
 90
       50
176
     1
 40
0.0
176
     1
 40
1.0
176
     1
 90
        0
176
     1
 62
    18
420
        0
176
     1
 90
       50
176
     1
 90
        3
176
     1
 62
     5
420
      255
176
     1
290
     0
176
     1
 90
       50
176
     1
 90
       50
176
     1
 90
       50
176
     1
290
     0
176
     1
 90
       50
176
     1
 62
   256
176
     0
 40
1.0
176
     0
 90
        2
176
     1
  1
strokes_ogs.tif
176
     1
290
     0
176
     1
 40
1.0
176
     1
 40
1.0
176
     1
  0
VISUALSTYLE
  5
2B
102
{ACAD_REACTORS
330
2A
102
}
330
2A
100
AcDbVisualStyle
  2
Flat
 70
     0
177
     3
291
     1
 70
    58
 90
        2
176
     1
 90
        1
176
     1
 90
        1
176
     1
 90
        2
176
     1
 40
0.6
176
     1
 40
30.0
176
     1
 62
     7
420
 16777215
176
     1
 90
        0
176
     1
 90
        0
176
     1
 62
     7
176
     1
 62
   257
176
     1
 90
        1
176
     1
 90
        1
176
     1
 40
1.0
176
     1
 90
        8
176
     1
 62
     7
176
     1
 40
1.0
176
     1
 90
        1
176
     1
 90
        6
176
     1
 90
        2
176
     1
 62
     7
176
     1
 90
        5
176
     1
 90
        0
176
     1
 90
        0
176
     1
290
     0
176
     1
 90
       13
176
     1
 40
0.0
176
     1
 90
        0
176
     1
290
     0
176
     1
290
     1
176
     1
290
     1
176
     1
290
     0
176
     1
290
     0
176
     1
290
     0
176
     1
290
     0
176
     1
290
     0
176
     1
290
     0
176
     1
 90
       50
176
     1
 40
0.0
176
     1
 40
1.0
176
     1
 90
        0
176
     1
 62
    18
420
        0
176
     1
 90
       50
176
     1
 90
        3
176
     1
 62
     5
420
      255
176
     1
290
     0
176
     1
 90
       50
176
     1
 90
       50
176
     1
 90
       50
176
     1
290
     0
176
     1
 90
       50
176
     1
 62
   256
176
     0
 40
1.0
176
     0
 90
        2
176
     1
  1
strokes_ogs.tif
176
     1
290
     0
176
     1
 40
1.0
176
     1
 40
1.0
176
     1
  0
VISUALSTYLE
  5
2C
102
{ACAD_REACTORS
330
2A
102
}
330
2A
100
AcDbVisualStyle
  2
FlatWithEdges
 70
     1
177
     3
291
     1
 70
    58
 90
        2
176
     1
 90
        1
176
     1
 90
        1
176
     1
 90
        2
176
     1
 40
0.6
176
     1
 40
30.0
176
     1
 62
     7
420
 16777215
176
     1
 90
        1
176
     1
 90
        0
176
     1
 62
     7
176
     1
 62
   257
176
     1
 90
        1
176
     1
 90
        1
176
     1
 40
1.0
176
     1
 90
        0
176
     1
 62
   257
176
     1
 40
1.0
176
     1
 90
        1
176
     1
 90
        6
176
     1
 90
        2
176
     1
 62
     7
176
     1
 90
        5
176
     1
 90
        0
176
     1
 90
        0
176
     1
290
     0
176
     1
 90
       13
176
     1
 40
0.0
176
     1
 90
        0
176
     1
290
     0
176
     1
290
     1
176
     1
290
     1
176
     1
290
     0
176
     1
290
     0
176
     1
290
     0
176
     1
290
     0
176
     1
290
     0
176
     1
290
     0
176
     1
 90
       50
176
     1
 40
0.0
176
     1
 40
1.0
176
     1
 90
        0
176
     1
 62
    18
420
        0
176
     1
 90
       50
176
     1
 90
        3
176
     1
 62
     5
420
      255
176
     1
290
     0
176
     1
 90
       50
176
     1
 90
       50
176
     1
 90
       50
176
     1
290
     0
176
     1
 90
       50
176
     1
 62
   256
176
     0
 40
1.0
176
     0
 90
        2
176
     1
  1
strokes_ogs.tif
176
     1
290
     0
176
     1
 40
1.0
176
     1
 40
1.0
176
     1
  0
VISUALSTYLE
  5
2D
102
{ACAD_REACTORS
330
2A
102
}
330
2A
100
AcDbVisualStyle
  2
Gouraud
 70
     2
177
     3
291
     1
 70
    58
 90
        2
176
     1
 90
        2
176
     1
 90
        1
176
     1
 90
        2
176
     1
 40
0.6
176
     1
 40
30.0
176
     1
 62
     7
420
 16777215
176
     1
 90
        0
176
     1
 90
        0
176
     1
 62
     7
176
     1
 62
   257
176
     1
 90
        1
176
     1
 90
        1
176
     1
 40
1.0
176
     1
 90
        0
176
     1
 62
     7
176
     1
 40
1.0
176
     1
 90
        1
176
     1
 90
        6
176
     1
 90
        2
176
     1
 62
     7
176
     1
 90
        5
176
     1
 90
        0
176
     1
 90
        0
176
     1
290
     0
176
     1
 90
       13
176
     1
 40
0.0
176
     1
 90
        0
176
     1
290
     0
176
     1
290
     1
176
     1
290
     1
176
     1
290
     0
176
     1
290
     0
176
     1
290
     0
176
     1
290
     0
176
     1
290
     0
176
     1
290
     0
176
     1
 90
       50
176
     1
 40
0.0
176
     1
 40
1.0
176
     1
 90
        0
176
     1
 62
    18
420
        0
176
     1
 90
       50
176
     1
 90
        3
176
     1
 62
     5
420
      255
176
     1
290
     0
176
     1
 90
       50
176
     1
 90
       50
176
     1
 90
       50
176
     1
290
     0
176
     1
 90
       50
176
     1
 62
   256
176
     0
 40
1.0
176
     0
 90
        2
176
     1
  1
strokes_ogs.tif
176
     1
290
     0
176
     1
 40
1.0
176
     1
 40
1.0
176
     1
  0
VISUALSTYLE
  5
2E
102
{ACAD_REACTORS
330
2A
102
}
330
2A
100
AcDbVisualStyle
  2
GouraudWithEdges
 70
     3
177
     3
291
     1
 70
    58
 90
        2
176
     1
 90
        2
176
     1
 90
        1
176
     1
 90
        2
176
     1
 40
0.6
176
     1
 40
30.0
176
     1
 62
     7
420
 16777215
176
     1
 90
        1
176
     1
 90
        0
176
     1
 62
     7
176
     1
 62
   257
176
     1
 90
        1
176
     1
 90
        1
176
     1
 40
1.0
176
     1
 90
        0
176
     1
 62
   257
176
     1
 40
1.0
176
     1
 90
        1
176
     1
 90
        6
176
     1
 90
        2
176
     1
 62
     7
176
     1
 90
        5
176
     1
 90
        0
176
     1
 90
        0
176
     1
290
     0
176
     1
 90
       13
176
     1
 40
0.0
176
     1
 90
        0
176
     1
290
     0
176
     1
290
     1
176
     1
290
     1
176
     1
290
     0
176
     1
290
     0
176
     1
290
     0
176
     1
290
     0
176
     1
290
     0
176
     1
290
     0
176
     1
 90
       50
176
     1
 40
0.0
176
     1
 40
1.0
176
     1
 90
        0
176
     1
 62
    18
420
        0
176
     1
 90
       50
176
     1
 90
        3
176
     1
 62
     5
420
      255
176
     1
290
     0
176
     1
 90
       50
176
     1
 90
       50
176
     1
 90
       50
176
     1
290
     0
176
     1
 90
       50
176
     1
 62
   256
176
     0
 40
1.0
176
     0
 90
        2
176
     1
  1
strokes_ogs.tif
176
     1
290
     0
176
     1
 40
1.0
176
     1
 40
1.0
176
     1
  0
VISUALSTYLE
  5
31
102
{ACAD_REACTORS
330
2A
102
}
330
2A
100
AcDbVisualStyle
  2
Hidden
 70
     6
177
     3
291
     0
 70
    58
 90
        1
176
     1
 90
        2
176
     1
 90
        2
176
     1
 90
        0
176
     1
 40
0.6
176
     1
 40
30.0
176
     1
 62
     7
420
 16777215
176
     1
 90
        2
176
     1
 90
        2
176
     1
 62
     7
176
     1
 62
   257
176
     1
 90
        2
176
     1
 90
        1
176
     1
 40
40.0
176
     1
 90
        0
176
     1
 62
   257
176
     1
 40
1.0
176
     1
 90
        1
176
     1
 90
        6
176
     1
 90
        2
176
     1
 62
     7
176
     1
 90
        3
176
     1
 90
        0
176
     1
 90
        0
176
     1
290
     0
176
     1
 90
        1
176
     1
 40
0.0
176
     1
 90
        0
176
     1
290
     0
176
     1
290
     1
176
     1
290
     1
176
     1
290
     0
176
     1
290
     0
176
     1
290
     0
176
     1
290
     0
176
     1
290
     0
176
     1
290
     0
176
     1
 90
       50
176
     1
 40
0.0
176
     1
 40
1.0
176
     1
 90
        0
176
     1
 62
    18
420
        0
176
     1
 90
       50
176
     1
 90
        3
176
     1
 62
     5
420
      255
176
     1
290
     0
176
     1
 90
       50
176
     1
 90
       50
176
     1
 90
       50
176
     1
290
     0
176
     1
 90
       50
176
     1
 62
   256
176
     0
 40
1.0
176
     0
 90
        2
176
     1
  1
strokes_ogs.tif
176
     1
290
     0
176
     1
 40
1.0
176
     1
 40
1.0
176
     1
  0
VISUALSTYLE
  5
3B
102
{ACAD_REACTORS
330
2A
102
}
330
2A
100
AcDbVisualStyle
  2
JitterOff
 70
    20
177
     3
291
     1
 70
    58
 90
        2
176
     0
 90
        2
176
     0
 90
        0
176
     0
 90
        0
176
     0
 40
0.6
176
     0
 40
30.0
176
     0
 62
     7
420
 16777215
176
     0
 90
        1
176
     0
 90
        4
176
     0
 62
     7
176
     0
 62
   257
176
     0
 90
        1
176
     0
 90
        1
176
     0
 40
1.0
176
     0
 90
       10
176
     2
 62
     7
176
     0
 40
1.0
176
     0
 90
        1
176
     0
 90
        6
176
     0
 90
        2
176
     0
 62
     7
176
     0
 90
        5
176
     0
 90
        0
176
     0
 90
        0
176
     0
290
     0
176
     0
 90
        1
176
     0
 40
0.0
176
     0
 90
        0
176
     0
290
     0
176
     0
290
     1
176
     0
290
     1
176
     0
290
     0
176
     0
290
     0
176
     0
290
     0
176
     0
290
     0
176
     0
290
     0
176
     0
290
     0
176
     0
 90
       50
176
     0
 40
0.0
176
     0
 40
1.0
176
     0
 90
        0
176
     0
 62
    18
420
        0
176
     0
 90
       50
176
     0
 90
        3
176
     0
 62
     5
420
      255
176
     0
290
     0
176
     0
 90
       50
176
     0
 90
       50
176
     0
 90
       50
176
     0
290
     0
176
     0
 90
       50
176
     0
 62
   256
176
     0
 40
1.0
176
     0
 90
        2
176
     0
  1
strokes_ogs.tif
176
     0
290
     0
176
     0
 40
1.0
176
     0
 40
1.0
176
     0
  0
VISUALSTYLE
  5
38
102
{ACAD_REACTORS
330
2A
102
}
330
2A
100
AcDbVisualStyle
  2
Linepattern
 70
    14
177
     3
291
     1
 70
    58
 90
        2
176
     1
 90
        2
176
     1
 90
        0
176
     1
 90
        0
176
     1
 40
0.6
176
     1
 40
30.0
176
     1
 62
     7
420
 16777215
176
     1
 90
        1
176
     1
 90
        4
176
     1
 62
     7
176
     1
 62
   257
176
     1
 90
        7
176
     1
 90
        7
176
     1
 40
1.0
176
     1
 90
        8
176
     1
 62
     7
176
     1
 40
1.0
176
     1
 90
        1
176
     1
 90
        6
176
     1
 90
        2
176
     1
 62
     7
176
     1
 90
        5
176
     1
 90
        0
176
     1
 90
        0
176
     1
290
     0
176
     1
 90
        1
176
     1
 40
0.0
176
     1
 90
        0
176
     1
290
     0
176
     1
290
     1
176
     1
290
     1
176
     1
290
     0
176
     1
290
     0
176
     1
290
     0
176
     1
290
     0
176
     1
290
     0
176
     1
290
     0
176
     1
 90
       50
176
     1
 40
0.0
176
     1
 40
1.0
176
     1
 90
        0
176
     1
 62
    18
420
        0
176
     1
 90
       50
176
     1
 90
        3
176
     1
 62
     5
420
      255
176
     1
290
     0
176
     1
 90
       50
176
     1
 90
       50
176
     1
 90
       50
176
     1
290
     0
176
     1
 90
       50
176
     1
 62
   256
176
     0
 40
1.0
176
     0
 90
        2
176
     1
  1
strokes_ogs.tif
176
     1
290
     0
176
     1
 40
1.0
176
     1
 40
1.0
176
     1
  0
VISUALSTYLE
  5
3C
102
{ACAD_REACTORS
330
2A
102
}
330
2A
100
AcDbVisualStyle
  2
OverhangOff
 70
    21
177
     3
291
     1
 70
    58
 90
        2
176
     0
 90
        2
176
     0
 90
        0
176
     0
 90
        0
176
     0
 40
0.6
176
     0
 40
30.0
176
     0
 62
     7
420
 16777215
176
     0
 90
        1
176
     0
 90
        4
176
     0
 62
     7
176
     0
 62
   257
176
     0
 90
        1
176
     0
 90
        1
176
     0
 40
1.0
176
     0
 90
        9
176
     2
 62
     7
176
     0
 40
1.0
176
     0
 90
        1
176
     0
 90
        6
176
     0
 90
        2
176
     0
 62
     7
176
     0
 90
        5
176
     0
 90
        0
176
     0
 90
        0
176
     0
290
     0
176
     0
 90
        1
176
     0
 40
0.0
176
     0
 90
        0
176
     0
290
     0
176
     0
290
     1
176
     0
290
     1
176
     0
290
     0
176
     0
290
     0
176
     0
290
     0
176
     0
290
     0
176
     0
290
     0
176
     0
290
     0
176
     0
 90
       50
176
     0
 40
0.0
176
     0
 40
1.0
176
     0
 90
        0
176
     0
 62
    18
420
        0
176
     0
 90
       50
176
     0
 90
        3
176
     0
 62
     5
420
      255
176
     0
290
     0
176
     0
 90
       50
176
     0
 90
       50
176
     0
 90
       50
176
     0
290
     0
176
     0
 90
       50
176
     0
 62
   256
176
     0
 40
1.0
176
     0
 90
        2
176
     0
  1
strokes_ogs.tif
176
     0
290
     0
176
     0
 40
1.0
176
     0
 40
1.0
176
     0
  0
VISUALSTYLE
  5
33
102
{ACAD_REACTORS
330
2A
102
}
330
2A
100
AcDbVisualStyle
  2
Realistic
 70
     8
177
     3
291
     0
 70
    58
 90
        2
176
     1
 90
        3
176
     1
 90
        0
176
     1
 90
        2
176
     1
 40
0.6
176
     1
 40
30.0
176
     1
 62
     7
420
 16777215
176
     1
 90
        0
176
     1
 90
        0
176
     1
 62
     7
176
     1
 62
   257
176
     1
 90
        1
176
     1
 90
        1
176
     1
 40
1.0
176
     1
 90
        8
176
     1
 62
   257
176
     1
 40
1.0
176
     1
 90
        1
176
     1
 90
        6
176
     1
 90
        2
176
     1
 62
     7
176
     1
 90
        3
176
     1
 90
        0
176
     1
 90
        0
176
     1
290
     0
176
     1
 90
       13
176
     1
 40
0.0
176
     1
 90
        0
176
     1
290
     0
176
     1
290
     1
176
     1
290
     1
176
     1
290
     0
176
     1
290
     0
176
     1
290
     0
176
     1
290
     0
176
     1
290
     0
176
     1
290
     0
176
     1
 90
       50
176
     1
 40
0.0
176
     1
 40
1.0
176
     1
 90
        0
176
     1
 62
    18
420
        0
176
     1
 90
       50
176
     1
 90
        3
176
     1
 62
     5
420
      255
176
     1
290
     0
176
     1
 90
       50
176
     1
 90
       50
176
     1
 90
       50
176
     1
290
     0
176
     1
 90
       50
176
     1
 62
   256
176
     0
 40
1.0
176
     0
 90
        2
176
     1
  1
strokes_ogs.tif
176
     1
290
     0
176
     1
 40
1.0
176
     1
 40
1.0
176
     1
  0
VISUALSTYLE
  5
42
102
{ACAD_REACTORS
330
2A
102
}
330
2A
100
AcDbVisualStyle
  2
Shaded
 70
    27
177
     3
291
     0
 70
    58
 90
        2
176
     1
 90
        2
176
     1
 90
        1
176
     1
 90
        2
176
     1
 40
0.6
176
     1
 40
30.0
176
     1
 62
     7
420
 16777215
176
     1
 90
        0
176
     1
 90
        4
176
     1
 62
     7
176
     1
 62
   257
176
     1
 90
        1
176
     1
 90
        1
176
     1
 40
1.0
176
     1
 90
        8
176
     1
 62
   257
176
     1
 40
1.0
176
     1
 90
        1
176
     1
 90
        6
176
     1
 90
        2
176
     1
 62
     8
420
  7895160
176
     1
 90
        3
176
     1
 90
        0
176
     1
 90
        0
176
     1
290
     0
176
     1
 90
        5
176
     1
 40
0.0
176
     1
 90
        0
176
     1
290
     0
176
     1
290
     1
176
     1
290
     1
176
     1
290
     0
176
     1
290
     0
176
     1
290
     0
176
     1
290
     0
176
     1
290
     0
176
     1
290
     0
176
     1
 90
       50
176
     1
 40
0.0
176
     1
 40
1.0
176
     1
 90
        0
176
     1
 62
    18
420
        0
176
     1
 90
       50
176
     1
 90
        3
176
     1
 62
     5
420
      255
176
     1
290
     0
176
     1
 90
       50
176
     1
 90
       50
176
     1
 90
       50
176
     1
290
     0
176
     1
 90
       50
176
     1
 62
   256
176
     0
 40
1.0
176
     0
 90
        2
176
     1
  1
strokes_ogs.tif
176
     1
290
     0
176
     1
 40
1.0
176
     1
 40
1.0
176
     1
  0
VISUALSTYLE
  5
41
102
{ACAD_REACTORS
330
2A
102
}
330
2A
100
AcDbVisualStyle
  2
Shaded with edges
 70
    26
177
     3
291
     0
 70
    58
 90
        2
176
     1
 90
        2
176
     1
 90
        1
176
     1
 90
        2
176
     1
 40
0.6
176
     1
 40
30.0
176
     1
 62
     7
420
 16777215
176
     1
 90
        1
176
     1
 90
       10
176
     1
 62
     7
176
     1
 62
   257
176
     1
 90
        2
176
     1
 90
        1
176
     1
 40
1.0
176
     1
 90
        8
176
     1
 62
   257
176
     1
 40
1.0
176
     1
 90
        1
176
     1
 90
        6
176
     1
 90
        2
176
     1
 62
     7
176
     1
 90
        3
176
     1
 90
        0
176
     1
 90
        0
176
     1
290
     0
176
     1
 90
        5
176
     1
 40
0.0
176
     1
 90
        0
176
     1
290
     0
176
     1
290
     1
176
     1
290
     1
176
     1
290
     0
176
     1
290
     0
176
     1
290
     0
176
     1
290
     0
176
     1
290
     0
176
     1
290
     0
176
     1
 90
       50
176
     1
 40
0.0
176
     1
 40
1.0
176
     1
 90
        0
176
     1
 62
    18
420
        0
176
     1
 90
       50
176
     1
 90
        3
176
     1
 62
     5
420
      255
176
     1
290
     0
176
     1
 90
       50
176
     1
 90
       50
176
     1
 90
       50
176
     1
290
     0
176
     1
 90
       50
176
     1
 62
   256
176
     0
 40
1.0
176
     0
 90
        2
176
     1
  1
strokes_ogs.tif
176
     1
290
     0
176
     1
 40
1.0
176
     1
 40
1.0
176
     1
  0
VISUALSTYLE
  5
3E
102
{ACAD_REACTORS
330
2A
102
}
330
2A
100
AcDbVisualStyle
  2
Shades of Gray
 70
    23
177
     3
291
     0
 70
    58
 90
        2
176
     1
 90
        2
176
     1
 90
        3
176
     1
 90
        0
176
     1
 40
0.6
176
     1
 40
30.0
176
     1
 62
     7
420
 16777215
176
     1
 90
        2
176
     1
 90
        2
176
     1
 62
     7
176
     1
 62
     7
176
     1
 90
        1
176
     1
 90
        1
176
     1
 40
40.0
176
     1
 90
        8
176
     1
 62
     7
176
     1
 40
1.0
176
     1
 90
        1
176
     1
 90
        6
176
     1
 90
        2
176
     1
 62
     7
176
     1
 90
        3
176
     1
 90
        0
176
     1
 90
        0
176
     1
290
     0
176
     1
 90
        1
176
     1
 40
0.0
176
     1
 90
        0
176
     1
290
     0
176
     1
290
     1
176
     1
290
     1
176
     1
290
     0
176
     1
290
     0
176
     1
290
     0
176
     1
290
     0
176
     1
290
     0
176
     1
290
     0
176
     1
 90
       50
176
     1
 40
0.0
176
     1
 40
1.0
176
     1
 90
        0
176
     1
 62
    18
420
        0
176
     1
 90
       50
176
     1
 90
        3
176
     1
 62
     5
420
      255
176
     1
290
     0
176
     1
 90
       50
176
     1
 90
       50
176
     1
 90
       50
176
     1
290
     0
176
     1
 90
       50
176
     1
 62
   256
176
     0
 40
1.0
176
     0
 90
        2
176
     1
  1
strokes_ogs.tif
176
     1
290
     0
176
     1
 40
1.0
176
     1
 40
1.0
176
     1
  0
VISUALSTYLE
  5
3F
102
{ACAD_REACTORS
330
2A
102
}
330
2A
100
AcDbVisualStyle
  2
Sketchy
 70
    24
177
     3
291
     0
 70
    58
 90
        1
176
     1
 90
        2
176
     1
 90
        2
176
     1
 90
        0
176
     1
 40
0.6
176
     1
 40
30.0
176
     1
 62
     7
420
 16777215
176
     1
 90
        2
176
     1
 90
        2
176
     1
 62
     7
176
     1
 62
     7
176
     1
 90
        1
176
     1
 90
        1
176
     1
 40
40.0
176
     1
 90
       11
176
     1
 62
     7
176
     1
 40
1.0
176
     1
 90
        1
176
     1
 90
        6
176
     1
 90
        2
176
     1
 62
     7
176
     1
 90
        6
176
     1
 90
        0
176
     1
 90
        0
176
     1
290
     0
176
     1
 90
        1
176
     1
 40
0.0
176
     1
 90
        0
176
     1
290
     0
176
     1
290
     1
176
     1
290
     1
176
     1
290
     0
176
     1
290
     0
176
     1
290
     0
176
     1
290
     0
176
     1
290
     0
176
     1
290
     0
176
     1
 90
       50
176
     1
 40
0.0
176
     1
 40
1.0
176
     1
 90
        0
176
     1
 62
    18
420
        0
176
     1
 90
       50
176
     1
 90
        3
176
     1
 62
     5
420
      255
176
     1
290
     0
176
     1
 90
       50
176
     1
 90
       50
176
     1
 90
       50
176
     1
290
     0
176
     1
 90
       50
176
     1
 62
   256
176
     0
 40
1.0
176
     0
 90
        2
176
     1
  1
strokes_ogs.tif
176
     1
290
     0
176
     1
 40
1.0
176
     1
 40
1.0
176
     1
  0
VISUALSTYLE
  5
37
102
{ACAD_REACTORS
330
2A
102
}
330
2A
100
AcDbVisualStyle
  2
Thicken
 70
    13
177
     3
291
     1
 70
    58
 90
        2
176
     1
 90
        2
176
     1
 90
        0
176
     1
 90
        0
176
     1
 40
0.6
176
     1
 40
30.0
176
     1
 62
     7
420
 16777215
176
     1
 90
        1
176
     1
 90
        4
176
     1
 62
     7
176
     1
 62
   257
176
     1
 90
        1
176
     1
 90
        1
176
     1
 40
1.0
176
     1
 90
       12
176
     1
 62
     7
176
     1
 40
1.0
176
     1
 90
        1
176
     1
 90
        6
176
     1
 90
        2
176
     1
 62
     7
176
     1
 90
        5
176
     1
 90
        0
176
     1
 90
        0
176
     1
290
     0
176
     1
 90
        1
176
     1
 40
0.0
176
     1
 90
        0
176
     1
290
     0
176
     1
290
     1
176
     1
290
     1
176
     1
290
     0
176
     1
290
     0
176
     1
290
     0
176
     1
290
     0
176
     1
290
     0
176
     1
290
     0
176
     1
 90
       50
176
     1
 40
0.0
176
     1
 40
1.0
176
     1
 90
        0
176
     1
 62
    18
420
        0
176
     1
 90
       50
176
     1
 90
        3
176
     1
 62
     5
420
      255
176
     1
290
     0
176
     1
 90
       50
176
     1
 90
       50
176
     1
 90
       50
176
     1
290
     0
176
     1
 90
       50
176
     1
 62
   256
176
     0
 40
1.0
176
     0
 90
        2
176
     1
  1
strokes_ogs.tif
176
     1
290
     0
176
     1
 40
1.0
176
     1
 40
1.0
176
     1
  0
VISUALSTYLE
  5
30
102
{ACAD_REACTORS
330
2A
102
}
330
2A
100
AcDbVisualStyle
  2
Wireframe
 70
     5
177
     3
291
     0
 70
    58
 90
        0
176
     1
 90
        2
176
     1
 90
        0
176
     1
 90
        0
176
     1
 40
0.6
176
     1
 40
30.0
176
     1
 62
     7
420
 16777215
176
     1
 90
        1
176
     1
 90
        4
176
     1
 62
     7
176
     1
 62
   257
176
     1
 90
        1
176
     1
 90
        1
176
     1
 40
1.0
176
     1
 90
        0
176
     1
 62
   257
176
     1
 40
1.0
176
     1
 90
        1
176
     1
 90
        6
176
     1
 90
        2
176
     1
 62
     7
176
     1
 90
        3
176
     1
 90
        0
176
     1
 90
        0
176
     1
290
     0
176
     1
 90
        1
176
     1
 40
0.0
176
     1
 90
        0
176
     1
290
     0
176
     1
290
     1
176
     1
290
     1
176
     1
290
     0
176
     1
290
     0
176
     1
290
     0
176
     1
290
     0
176
     1
290
     0
176
     1
290
     0
176
     1
 90
       50
176
     1
 40
0.0
176
     1
 40
1.0
176
     1
 90
        0
176
     1
 62
    18
420
        0
176
     1
 90
       50
176
     1
 90
        3
176
     1
 62
     5
420
      255
176
     1
290
     0
176
     1
 90
       50
176
     1
 90
       50
176
     1
 90
       50
176
     1
290
     0
176
     1
 90
       50
176
     1
 62
   256
176
     0
 40
1.0
176
     0
 90
        2
176
     1
  1
strokes_ogs.tif
176
     1
290
     0
176
     1
 40
1.0
176
     1
 40
1.0
176
     1
  0
VISUALSTYLE
  5
40
102
{ACAD_REACTORS
330
2A
102
}
330
2A
100
AcDbVisualStyle
  2
X-Ray
 70
    25
177
     3
291
     0
 70
    58
 90
        2
176
     1
 90
        2
176
     1
 90
        1
176
     1
 90
        1
176
     1
 40
0.5
176
     1
 40
30.0
176
     1
 62
     7
420
 16777215
176
     1
 90
        1
176
     1
 90
        0
176
     1
 62
     7
176
     1
 62
   257
176
     1
 90
        1
176
     1
 90
        1
176
     1
 40
1.0
176
     1
 90
        8
176
     1
 62
     7
176
     1
 40
1.0
176
     1
 90
        1
176
     1
 90
        6
176
     1
 90
        2
176
     1
 62
     7
176
     1
 90
        3
176
     1
 90
        0
176
     1
 90
        0
176
     1
290
     0
176
     1
 90
       13
176
     1
 40
0.0
176
     1
 90
        0
176
     1
290
     0
176
     1
290
     1
176
     1
290
     1
176
     1
290
     0
176
     1
290
     0
176
     1
290
     0
176
     1
290
     0
176
     1
290
     0
176
     1
290
     0
176
     1
 90
       50
176
     1
 40
0.0
176
     1
 40
1.0
176
     1
 90
        0
176
     1
 62
    18
420
        0
176
     1
 90
       50
176
     1
 90
        3
176
     1
 62
     5
420
      255
176
     1
290
     0
176
     1
 90
       50
176
     1
 90
       50
176
     1
 90
       50
176
     1
290
     0
176
     1
 90
       50
176
     1
 62
   256
176
     0
 40
1.0
176
     0
 90
        2
176
     1
  1
strokes_ogs.tif
176
     1
290
     0
176
     1
 40
1.0
176
     1
 40
1.0
176
     1
  0
DICTIONARYVAR
  5
7C
102
{ACAD_REACTORS
330
7B
102
}
330
7B
100
DictionaryVariables
280
     0
  1
1:1
  0
DICTIONARYVAR
  5
81
102
{ACAD_REACTORS
330
7B
102
}
330
7B
100
DictionaryVariables
280
     0
  1
Standard
  0
DICTIONARYVAR
  5
80
102
{ACAD_REACTORS
330
7B
102
}
330
7B
100
DictionaryVariables
280
     0
  1
Standard
  0
DICTIONARY
  5
7D
330
5A
100
AcDbDictionary
280
     1
281
     1
  3
ACAD_ROUNDTRIP_2008_TABLESTYLE_CELLSTYLEMAP
360
7E
  0
CELLSTYLEMAP
  5
7E
102
{ACAD_REACTORS
330
7D
102
}
330
7D
100
AcDbCellStyleMap
 90
        3
300
CELLSTYLE
  1
TABLEFORMAT_BEGIN
 90
        5
170
     1
 91
        0
 92
    32768
 62
   257
 93
        1
300
CONTENTFORMAT
  1
CONTENTFORMAT_BEGIN
 90
        0
 91
        0
 92
        4
 93
        0
300

 40
0.0
140
1.0
 94
        5
 62
     0
340
11
144
0.25
309
CONTENTFORMAT_END
171
     1
301
MARGIN
  1
CELLMARGIN_BEGIN
 40
0.06
 40
0.06
 40
0.06
 40
0.06
 40
0.06
 40
0.06
309
CELLMARGIN_END
 94
        6
 95
        1
302
GRIDFORMAT
  1
GRIDFORMAT_BEGIN
 90
        0
 91
        1
 62
     0
 92
       -2
340
14
 93
        0
 40
0.045
309
GRIDFORMAT_END
 95
        2
302
GRIDFORMAT
  1
GRIDFORMAT_BEGIN
 90
        0
 91
        1
 62
     0
 92
       -2
340
14
 93
        0
 40
0.045
309
GRIDFORMAT_END
 95
        4
302
GRIDFORMAT
  1
GRIDFORMAT_BEGIN
 90
        0
 91
        1
 62
     0
 92
       -2
340
14
 93
        0
 40
0.045
309
GRIDFORMAT_END
 95
        8
302
GRIDFORMAT
  1
GRIDFORMAT_BEGIN
 90
        0
 91
        1
 62
     0
 92
       -2
340
14
 93
        0
 40
0.045
309
GRIDFORMAT_END
 95
       16
302
GRIDFORMAT
  1
GRIDFORMAT_BEGIN
 90
        0
 91
        1
 62
     0
 92
       -2
340
14
 93
        0
 40
0.045
309
GRIDFORMAT_END
 95
       32
302
GRIDFORMAT
  1
GRIDFORMAT_BEGIN
 90
        0
 91
        1
 62
     0
 92
       -2
340
14
 93
        0
 40
0.045
309
GRIDFORMAT_END
309
TABLEFORMAT_END
  1
CELLSTYLE_BEGIN
 90
        1
 91
        1
300
_TITLE
309
CELLSTYLE_END
300
CELLSTYLE
  1
TABLEFORMAT_BEGIN
 90
        5
170
     1
 91
        0
 92
        0
 62
   257
 93
        1
300
CONTENTFORMAT
  1
CONTENTFORMAT_BEGIN
 90
        0
 91
        0
 92
        4
 93
        0
300

 40
0.0
140
1.0
 94
        5
 62
     0
340
11
144
0.18
309
CONTENTFORMAT_END
171
     1
301
MARGIN
  1
CELLMARGIN_BEGIN
 40
0.06
 40
0.06
 40
0.06
 40
0.06
 40
0.06
 40
0.06
309
CELLMARGIN_END
 94
        6
 95
        1
302
GRIDFORMAT
  1
GRIDFORMAT_BEGIN
 90
        0
 91
        1
 62
     0
 92
       -2
340
14
 93
        0
 40
0.045
309
GRIDFORMAT_END
 95
        2
302
GRIDFORMAT
  1
GRIDFORMAT_BEGIN
 90
        0
 91
        1
 62
     0
 92
       -2
340
14
 93
        0
 40
0.045
309
GRIDFORMAT_END
 95
        4
302
GRIDFORMAT
  1
GRIDFORMAT_BEGIN
 90
        0
 91
        1
 62
     0
 92
       -2
340
14
 93
        0
 40
0.045
309
GRIDFORMAT_END
 95
        8
302
GRIDFORMAT
  1
GRIDFORMAT_BEGIN
 90
        0
 91
        1
 62
     0
 92
       -2
340
14
 93
        0
 40
0.045
309
GRIDFORMAT_END
 95
       16
302
GRIDFORMAT
  1
GRIDFORMAT_BEGIN
 90
        0
 91
        1
 62
     0
 92
       -2
340
14
 93
        0
 40
0.045
309
GRIDFORMAT_END
 95
       32
302
GRIDFORMAT
  1
GRIDFORMAT_BEGIN
 90
        0
 91
        1
 62
     0
 92
       -2
340
14
 93
        0
 40
0.045
309
GRIDFORMAT_END
309
TABLEFORMAT_END
  1
CELLSTYLE_BEGIN
 90
        2
 91
        1
300
_HEADER
309
CELLSTYLE_END
300
CELLSTYLE
  1
TABLEFORMAT_BEGIN
 90
        5
170
     1
 91
        0
 92
        0
 62
   257
 93
        1
300
CONTENTFORMAT
  1
CONTENTFORMAT_BEGIN
 90
        0
 91
        0
 92
        4
 93
        0
300

 40
0.0
140
1.0
 94
        2
 62
     0
340
11
144
0.18
309
CONTENTFORMAT_END
171
     1
301
MARGIN
  1
CELLMARGIN_BEGIN
 40
0.06
 40
0.06
 40
0.06
 40
0.06
 40
0.06
 40
0.06
309
CELLMARGIN_END
 94
        6
 95
        1
302
GRIDFORMAT
  1
GRIDFORMAT_BEGIN
 90
        0
 91
        1
 62
     0
 92
       -2
340
14
 93
        0
 40
0.045
309
GRIDFORMAT_END
 95
        2
302
GRIDFORMAT
  1
GRIDFORMAT_BEGIN
 90
        0
 91
        1
 62
     0
 92
       -2
340
14
 93
        0
 40
0.045
309
GRIDFORMAT_END
 95
        4
302
GRIDFORMAT
  1
GRIDFORMAT_BEGIN
 90
        0
 91
        1
 62
     0
 92
       -2
340
14
 93
        0
 40
0.045
309
GRIDFORMAT_END
 95
        8
302
GRIDFORMAT
  1
GRIDFORMAT_BEGIN
 90
        0
 91
        1
 62
     0
 92
       -2
340
14
 93
        0
 40
0.045
309
GRIDFORMAT_END
 95
       16
302
GRIDFORMAT
  1
GRIDFORMAT_BEGIN
 90
        0
 91
        1
 62
     0
 92
       -2
340
14
 93
        0
 40
0.045
309
GRIDFORMAT_END
 95
       32
302
GRIDFORMAT
  1
GRIDFORMAT_BEGIN
 90
        0
 91
        1
 62
     0
 92
       -2
340
14
 93
        0
 40
0.045
309
GRIDFORMAT_END
309
TABLEFORMAT_END
  1
CELLSTYLE_BEGIN
 90
        3
 91
        2
300
_DATA
309
CELLSTYLE_END
  0
ENDSEC
  0
EOF
