  0
SECTION
  2
HEADER
  9
$ACADVER
  1
AC1027
  9
$ACADMAINTVER
 70
   105
  9
$DWGCODEPAGE
  3
ANSI_1252
  9
$LASTSAVEDBY
  1
Office Desk
  9
$REQUIREDVERSIONS
160
                 0
  9
$INSBASE
 10
0.0
 20
0.0
 30
0.0
  9
$EXTMIN
 10
15.05925196850394
 20
0.3834803149606299
 30
0.0
  9
$EXTMAX
 10
25.31831496062992
 20
3.894251968503937
 30
0.0
  9
$LIMMIN
 10
0.0
 20
0.0
  9
$LIMMAX
 10
12.0
 20
9.0
  9
$ORTHOMODE
 70
     0
  9
$REGENMODE
 70
     1
  9
$FILLMODE
 70
     1
  9
$QTEXTMODE
 70
     0
  9
$MIRRTEXT
 70
     1
  9
$LTSCALE
 40
1.0
  9
$ATTMODE
 70
     1
  9
$TEXTSIZE
 40
0.2
  9
$TRACEWID
 40
0.05
  9
$TEXTSTYLE
  7
Standard
  9
$CLAYER
  8
0
  9
$CELTYPE
  6
ByLayer
  9
$CECOLOR
 62
   256
  9
$CELTSCALE
 40
1.0
  9
$DISPSILH
 70
     0
  9
$DIMSCALE
 40
1.0
  9
$DIMASZ
 40
0.18
  9
$DIMEXO
 40
0.0625
  9
$DIMDLI
 40
0.38
  9
$DIMRND
 40
0.0
  9
$DIMDLE
 40
0.0
  9
$DIMEXE
 40
0.18
  9
$DIMTP
 40
0.0
  9
$DIMTM
 40
0.0
  9
$DIMTXT
 40
0.18
  9
$DIMCEN
 40
0.09
  9
$DIMTSZ
 40
0.0
  9
$DIMTOL
 70
     0
  9
$DIMLIM
 70
     0
  9
$DIMTIH
 70
     1
  9
$DIMTOH
 70
     1
  9
$DIMSE1
 70
     0
  9
$DIMSE2
 70
     0
  9
$DIMTAD
 70
     0
  9
$DIMZIN
 70
     0
  9
$DIMBLK
  1

  9
$DIMASO
 70
     1
  9
$DIMSHO
 70
     1
  9
$DIMPOST
  1

  9
$DIMAPOST
  1

  9
$DIMALT
 70
     0
  9
$DIMALTD
 70
     2
  9
$DIMALTF
 40
25.4
  9
$DIMLFAC
 40
1.0
  9
$DIMTOFL
 70
     0
  9
$DIMTVP
 40
0.0
  9
$DIMTIX
 70
     0
  9
$DIMSOXD
 70
     0
  9
$DIMSAH
 70
     0
  9
$DIMBLK1
  1

  9
$DIMBLK2
  1

  9
$DIMSTYLE
  2
Standard
  9
$DIMCLRD
 70
     0
  9
$DIMCLRE
 70
     0
  9
$DIMCLRT
 70
     0
  9
$DIMTFAC
 40
1.0
  9
$DIMGAP
 40
0.09
  9
$DIMJUST
 70
     0
  9
$DIMSD1
 70
     0
  9
$DIMSD2
 70
     0
  9
$DIMTOLJ
 70
     1
  9
$DIMTZIN
 70
     0
  9
$DIMALTZ
 70
     0
  9
$DIMALTTZ
 70
     0
  9
$DIMUPT
 70
     0
  9
$DIMDEC
 70
     4
  9
$DIMTDEC
 70
     4
  9
$DIMALTU
 70
     2
  9
$DIMALTTD
 70
     2
  9
$DIMTXSTY
  7
Standard
  9
$DIMAUNIT
 70
     0
  9
$DIMADEC
 70
     0
  9
$DIMALTRND
 40
0.0
  9
$DIMAZIN
 70
     0
  9
$DIMDSEP
 70
    46
  9
$DIMATFIT
 70
     3
  9
$DIMFRAC
 70
     0
  9
$DIMLDRBLK
  1

  9
$DIMLUNIT
 70
     2
  9
$DIMLWD
 70
    -2
  9
$DIMLWE
 70
    -2
  9
$DIMTMOVE
 70
     0
  9
$DIMFXL
 40
1.0
  9
$DIMFXLON
 70
     0
  9
$DIMJOGANG
 40
0.7853981633974483
  9
$DIMTFILL
 70
     0
  9
$DIMTFILLCLR
 70
     0
  9
$DIMARCSYM
 70
     0
  9
$DIMLTYPE
  6

  9
$DIMLTEX1
  6

  9
$DIMLTEX2
  6

  9
$DIMTXTDIRECTION
 70
     0
  9
$LUNITS
 70
     2
  9
$LUPREC
 70
     4
  9
$SKETCHINC
 40
0.1
  9
$FILLETRAD
 40
0.0
  9
$AUNITS
 70
     0
  9
$AUPREC
 70
     0
  9
$MENU
  1
.
  9
$ELEVATION
 40
0.0
  9
$PELEVATION
 40
0.0
  9
$THICKNESS
 40
0.0
  9
$LIMCHECK
 70
     0
  9
$CHAMFERA
 40
0.0
  9
$CHAMFERB
 40
0.0
  9
$CHAMFERC
 40
0.0
  9
$CHAMFERD
 40
0.0
  9
$SKPOLY
 70
     0
  9
$TDCREATE
 40
2461028.603085093
  9
$TDUCREATE
 40
2461028.373918426
  9
$TDUPDATE
 40
2461028.603085278
  9
$TDUUPDATE
 40
2461028.373918611
  9
$TDINDWG
 40
0.0000000116
  9
$TDUSRTIMER
 40
0.0000000116
  9
$USRTIMER
 70
     1
  9
$ANGBASE
 50
0.0
  9
$ANGDIR
 70
     0
  9
$PDMODE
 70
     0
  9
$PDSIZE
 40
0.0
  9
$PLINEWID
 40
0.0
  9
$SPLFRAME
 70
     0
  9
$SPLINETYPE
 70
     6
  9
$SPLINESEGS
 70
     8
  9
$HANDSEED
  5
86
  9
$SURFTAB1
 70
     6
  9
$SURFTAB2
 70
     6
  9
$SURFTYPE
 70
     6
  9
$SURFU
 70
     6
  9
$SURFV
 70
     6
  9
$UCSBASE
  2

  9
$UCSNAME
  2

  9
$UCSORG
 10
0.0
 20
0.0
 30
0.0
  9
$UCSXDIR
 10
1.0
 20
0.0
 30
0.0
  9
$UCSYDIR
 10
0.0
 20
1.0
 30
0.0
  9
$UCSORTHOREF
  2

  9
$UCSORTHOVIEW
 70
     0
  9
$UCSORGTOP
 10
0.0
 20
0.0
 30
0.0
  9
$UCSORGBOTTOM
 10
0.0
 20
0.0
 30
0.0
  9
$UCSORGLEFT
 10
0.0
 20
0.0
 30
0.0
  9
$UCSORGRIGHT
 10
0.0
 20
0.0
 30
0.0
  9
$UCSORGFRONT
 10
0.0
 20
0.0
 30
0.0
  9
$UCSORGBACK
 10
0.0
 20
0.0
 30
0.0
  9
$PUCSBASE
  2

  9
$PUCSNAME
  2

  9
$PUCSORG
 10
0.0
 20
0.0
 30
0.0
  9
$PUCSXDIR
 10
1.0
 20
0.0
 30
0.0
  9
$PUCSYDIR
 10
0.0
 20
1.0
 30
0.0
  9
$PUCSORTHOREF
  2

  9
$PUCSORTHOVIEW
 70
     0
  9
$PUCSORGTOP
 10
0.0
 20
0.0
 30
0.0
  9
$PUCSORGBOTTOM
 10
0.0
 20
0.0
 30
0.0
  9
$PUCSORGLEFT
 10
0.0
 20
0.0
 30
0.0
  9
$PUCSORGRIGHT
 10
0.0
 20
0.0
 30
0.0
  9
$PUCSORGFRONT
 10
0.0
 20
0.0
 30
0.0
  9
$PUCSORGBACK
 10
0.0
 20
0.0
 30
0.0
  9
$USERI1
 70
     0
  9
$USERI2
 70
     0
  9
$USERI3
 70
     0
  9
$USERI4
 70
     0
  9
$USERI5
 70
     0
  9
$USERR1
 40
0.0
  9
$USERR2
 40
0.0
  9
$USERR3
 40
0.0
  9
$USERR4
 40
0.0
  9
$USERR5
 40
0.0
  9
$WORLDVIEW
 70
     1
  9
$SHADEDGE
 70
     3
  9
$SHADEDIF
 70
    70
  9
$TILEMODE
 70
     1
  9
$MAXACTVP
 70
    64
  9
$PINSBASE
 10
0.0
 20
0.0
 30
0.0
  9
$PLIMCHECK
 70
     0
  9
$PEXTMIN
 10
1.000000000000000E+20
 20
1.000000000000000E+20
 30
1.000000000000000E+20
  9
$PEXTMAX
 10
-1.000000000000000E+20
 20
-1.000000000000000E+20
 30
-1.000000000000000E+20
  9
$PLIMMIN
 10
0.0
 20
0.0
  9
$PLIMMAX
 10
12.0
 20
9.0
  9
$UNITMODE
 70
     0
  9
$VISRETAIN
 70
     1
  9
$PLINEGEN
 70
     0
  9
$PSLTSCALE
 70
     1
  9
$TREEDEPTH
 70
  3020
  9
$CMLSTYLE
  2
Standard
  9
$CMLJUST
 70
     0
  9
$CMLSCALE
 40
1.0
  9
$PROXYGRAPHICS
 70
     1
  9
$MEASUREMENT
 70
     0
  9
$CELWEIGHT
370
    -1
  9
$ENDCAPS
280
     0
  9
$JOINSTYLE
280
     0
  9
$LWDISPLAY
290
     0
  9
$INSUNITS
 70
     1
  9
$HYPERLINKBASE
  1

  9
$STYLESHEET
  1

  9
$XEDIT
290
     1
  9
$CEPSNTYPE
380
     0
  9
$PSTYLEMODE
290
     1
  9
$FINGERPRINTGUID
  2
{15f27ea9-1d78-4193-b5d2-a2545a49dd2c}
  9
$VERSIONGUID
  2
{FAEB1C32-E019-11D5-929B-00C0DF256EC4}
  9
$EXTNAMES
290
     1
  9
$PSVPSCALE
 40
0.0
  9
$OLESTARTUP
290
     0
  9
$SORTENTS
280
   127
  9
$INDEXCTL
280
     0
  9
$HIDETEXT
280
     1
  9
$XCLIPFRAME
280
     2
  9
$HALOGAP
280
     0
  9
$OBSCOLOR
 70
   257
  9
$OBSLTYPE
280
     0
  9
$INTERSECTIONDISPLAY
280
     0
  9
$INTERSECTIONCOLOR
 70
   257
  9
$DIMASSOC
280
     2
  9
$PROJECTNAME
  1

  9
$CAMERADISPLAY
290
     0
  9
$LENSLENGTH
 40
50.0
  9
$CAMERAHEIGHT
 40
0.0
  9
$STEPSPERSEC
 40
2.0
  9
$STEPSIZE
 40
6.0
  9
$3DDWFPREC
 40
2.0
  9
$PSOLWIDTH
 40
0.25
  9
$PSOLHEIGHT
 40
4.0
  9
$LOFTANG1
 40
1.570796326794897
  9
$LOFTANG2
 40
1.570796326794897
  9
$LOFTMAG1
 40
0.0
  9
$LOFTMAG2
 40
0.0
  9
$LOFTPARAM
 70
     7
  9
$LOFTNORMALS
280
     1
  9
$LATITUDE
 40
37.795
  9
$LONGITUDE
 40
-122.394
  9
$NORTHDIRECTION
 40
0.0
  9
$TIMEZONE
 70
 -8000
  9
$LIGHTGLYPHDISPLAY
280
     1
  9
$TILEMODELIGHTSYNCH
280
     1
  9
$CMATERIAL
347
44
  9
$SOLIDHIST
280
     0
  9
$SHOWHIST
280
     1
  9
$DWFFRAME
280
     2
  9
$DGNFRAME
280
     2
  9
$REALWORLDSCALE
290
     1
  9
$INTERFERECOLOR
 62
   256
  9
$CSHADOW
280
     0
  9
$SHADOWPLANELOCATION
 40
0.0
  0
ENDSEC
  0
SECTION
  2
CLASSES
  0
CLASS
  1
ACDBDICTIONARYWDFLT
  2
AcDbDictionaryWithDefault
  3
ObjectDBX Classes
 90
        0
 91
        3
280
     0
281
     0
  0
CLASS
  1
VISUALSTYLE
  2
AcDbVisualStyle
  3
ObjectDBX Classes
 90
     4095
 91
        3
280
     0
281
     0
  0
CLASS
  1
MATERIAL
  2
AcDbMaterial
  3
ObjectDBX Classes
 90
     1153
 91
        3
280
     0
281
     0
  0
CLASS
  1
SCALE
  2
AcDbScale
  3
ObjectDBX Classes
 90
     1153
 91
        3
280
     0
281
     0
  0
CLASS
  1
TABLESTYLE
  2
AcDbTableStyle
  3
ObjectDBX Classes
 90
     4095
 91
        3
280
     0
281
     0
  0
CLASS
  1
MLEADERSTYLE
  2
AcDbMLeaderStyle
  3
ACDB_MLEADERSTYLE_CLASS
 90
     4095
 91
        3
280
     0
281
     0
  0
CLASS
  1
SUN
  2
AcDbSun
  3
SCENEOE
 90
     1153
 91
        3
280
     0
281
     0
  0
CLASS
  1
DICTIONARYVAR
  2
AcDbDictionaryVar
  3
ObjectDBX Classes
 90
        0
 91
        3
280
     0
281
     0
  0
CLASS
  1
CELLSTYLEMAP
  2
AcDbCellStyleMap
  3
ObjectDBX Classes
 90
     1152
 91
        3
280
     0
281
     0
  0
ENDSEC
  0
SECTION
  2
TABLES
  0
TABLE
  2
VPORT
  5
8
330
0
100
AcDbSymbolTable
 70
     1
  0
VPORT
  5
29
330
8
100
AcDbSymbolTableRecord
100
AcDbViewportTableRecord
  2
*Active
 70
     0
 10
0.0
 20
0.0
 11
1.0
 21
1.0
 12
10.42990654205607
 22
4.5
 13
0.0
 23
0.0
 14
0.5
 24
0.5
 15
0.5
 25
0.5
 16
0.0
 26
0.0
 36
1.0
 17
0.0
 27
0.0
 37
0.0
 40
9.0
 41
1.972972972850329
 42
50.0
 43
0.0
 44
0.0
 50
0.0
 51
0.0
 71
     0
 72
   100
 73
     1
 74
     3
 75
     0
 76
     0
 77
     0
 78
     0
281
     0
 65
     1
110
0.0
120
0.0
130
0.0
111
1.0
121
0.0
131
0.0
112
0.0
122
1.0
132
0.0
 79
     0
146
0.0
348
2F
 60
     3
 61
     5
292
     1
282
     1
141
0.0
142
0.0
 63
   250
361
5D
  0
ENDTAB
  0
TABLE
  2
LTYPE
  5
5
330
0
100
AcDbSymbolTable
 70
     1
  0
LTYPE
  5
14
330
5
100
AcDbSymbolTableRecord
100
AcDbLinetypeTableRecord
  2
ByBlock
 70
     0
  3

 72
    65
 73
     0
 40
0.0
  0
LTYPE
  5
15
330
5
100
AcDbSymbolTableRecord
100
AcDbLinetypeTableRecord
  2
ByLayer
 70
     0
  3

 72
    65
 73
     0
 40
0.0
  0
LTYPE
  5
16
330
5
100
AcDbSymbolTableRecord
100
AcDbLinetypeTableRecord
  2
Continuous
 70
     0
  3
Solid line
 72
    65
 73
     0
 40
0.0
  0
ENDTAB
  0
TABLE
  2
LAYER
  5
2
330
0
100
AcDbSymbolTable
 70
     2
  0
LAYER
  5
10
330
2
100
AcDbSymbolTableRecord
100
AcDbLayerTableRecord
  2
0
 70
     0
 62
     7
  6
Continuous
370
    -3
390
F
347
46
348
0
  0
LAYER
  5
60
330
2
100
AcDbSymbolTableRecord
100
AcDbLayerTableRecord
  2
Layer 1
 70
     0
 62
     7
  6
Continuous
370
    -3
390
F
347
46
348
0
  0
ENDTAB
  0
TABLE
  2
STYLE
  5
3
330
0
100
AcDbSymbolTable
 70
     1
  0
STYLE
  5
11
330
3
100
AcDbSymbolTableRecord
100
AcDbTextStyleTableRecord
  2
Standard
 70
     0
 40
0.0
 41
1.0
 50
0.0
 71
     0
 42
0.2
  3
txt
  4

  0
ENDTAB
  0
TABLE
  2
VIEW
  5
6
330
0
100
AcDbSymbolTable
 70
     0
  0
ENDTAB
  0
TABLE
  2
UCS
  5
7
330
0
100
AcDbSymbolTable
 70
     0
  0
ENDTAB
  0
TABLE
  2
APPID
  5
9
330
0
100
AcDbSymbolTable
 70
     2
  0
APPID
  5
12
330
9
100
AcDbSymbolTableRecord
100
AcDbRegAppTableRecord
  2
ACAD
 70
     0
  0
APPID
  5
5E
330
9
100
AcDbSymbolTableRecord
100
AcDbRegAppTableRecord
  2
ODA
 70
     0
  0
ENDTAB
  0
TABLE
  2
DIMSTYLE
  5
A
330
0
100
AcDbSymbolTable
 70
     1
100
AcDbDimStyleTable
  0
DIMSTYLE
105
27
330
A
100
AcDbSymbolTableRecord
100
AcDbDimStyleTableRecord
  2
Standard
 70
     0
178
     0
340
11
  0
ENDTAB
  0
TABLE
  2
BLOCK_RECORD
  5
1
330
0
100
AcDbSymbolTable
 70
     1
  0
BLOCK_RECORD
  5
1F
330
1
100
AcDbSymbolTableRecord
100
AcDbBlockTableRecord
  2
*Model_Space
340
22
 70
     0
280
     1
281
     0
  0
BLOCK_RECORD
  5
1B
330
1
100
AcDbSymbolTableRecord
100
AcDbBlockTableRecord
  2
*Paper_Space
340
1E
 70
     0
280
     1
281
     0
  0
BLOCK_RECORD
  5
23
330
1
100
AcDbSymbolTableRecord
100
AcDbBlockTableRecord
  2
*Paper_Space0
340
26
 70
     0
280
     1
281
     0
  0
ENDTAB
  0
ENDSEC
  0
SECTION
  2
BLOCKS
  0
BLOCK
  5
20
330
1F
100
AcDbEntity
  8
0
100
AcDbBlockBegin
  2
*Model_Space
 70
     0
 10
0.0
 20
0.0
 30
0.0
  3
*Model_Space
  1

  0
ENDBLK
  5
21
330
1F
100
AcDbEntity
  8
0
100
AcDbBlockEnd
  0
BLOCK
  5
1C
330
1B
100
AcDbEntity
 67
     1
  8
0
100
AcDbBlockBegin
  2
*Paper_Space
 70
     0
 10
0.0
 20
0.0
 30
0.0
  3
*Paper_Space
  1

  0
ENDBLK
  5
1D
330
1B
100
AcDbEntity
 67
     1
  8
0
100
AcDbBlockEnd
  0
BLOCK
  5
24
330
23
100
AcDbEntity
  8
0
100
AcDbBlockBegin
  2
*Paper_Space0
 70
     0
 10
0.0
 20
0.0
 30
0.0
  3
*Paper_Space0
  1

  0
ENDBLK
  5
25
330
23
100
AcDbEntity
  8
0
100
AcDbBlockEnd
  0
ENDSEC
  0
SECTION
  2
ENTITIES
  0
LWPOLYLINE
  5
5F
330
1F
100
AcDbEntity
  8
0
 62
   250
370
     9
100
AcDbPolyline
 90
        5
 70
     1
 43
0.0
 10
15.06102362204724
 20
0.385251968503937
 10
25.31654330708662
 20
0.385251968503937
 10
25.31654330708662
 20
3.89248031496063
 10
15.06102362204724
 20
3.89248031496063
 10
15.06102362204724
 20
0.385251968503937
  0
LWPOLYLINE
  5
61
330
1F
100
AcDbEntity
  8
Layer 1
 62
     7
370
     9
100
AcDbPolyline
 90
      142
 70
     1
 43
0.0
 10
16.65203543307087
 20
2.371976377952756
 10
17.80941338582677
 20
2.553476377952756
 10
17.8281062992126
 20
2.539555118110236
 10
17.88508267716535
 20
2.502657480314961
 10
17.98166929133858
 20
2.45007874015748
 10
18.11920078740157
 20
2.389114173228347
 10
18.2990157480315
 20
2.327062992125984
 10
18.52244488188976
 20
2.271220472440945
 10
18.7908188976378
 20
2.228881889763779
 10
19.10548031496063
 20
2.207346456692914
 10
19.13225590551181
 20
2.206645669291339
 10
19.20668897637795
 20
2.205696850393701
 10
19.31994488188976
 20
2.206236220472441
 10
19.46317716535433
 20
2.209984251968504
 10
19.62755118110236
 20
2.218681102362205
 10
19.80422834645669
 20
2.234055118110236
 10
19.98436614173228
 20
2.257834645669291
 10
20.15912598425197
 20
2.291751968503937
 10
20.29461811023622
 20
2.314653543307087
 10
20.65231102362205
 20
2.375220472440945
 10
21.15902755905512
 20
2.461267716535433
 10
21.7415905511811
 20
2.560594488188976
 10
22.3268188976378
 20
2.661007874015748
 10
22.84153543307087
 20
2.750314960629921
 10
23.21256299212599
 20
2.816326771653543
 10
23.36672834645669
 20
2.846838582677165
 10
23.36512598425197
 20
2.859358267716535
 10
23.36102755905512
 20
2.89396062992126
 10
23.35549606299213
 20
2.946228346456693
 10
23.34959448818898
 20
3.011724409448819
 10
23.34438582677165
 20
3.086031496062992
 10
23.34092913385827
 20
3.164716535433071
 10
23.3402874015748
 20
3.243354330708661
 10
23.34352362204724
 20
3.31751968503937
 10
23.30298031496063
 20
3.330700787401575
 10
23.30174409448819
 20
3.33390157480315
 10
23.29912204724409
 20
3.342456692913386
 10
23.29673228346457
 20
3.354795275590551
 10
23.29620078740157
 20
3.369350393700787
 10
23.29914960629921
 20
3.384543307086614
 10
23.30720866141732
 20
3.398811023622047
 10
23.32199212598425
 20
3.410582677165354
 10
23.34513385826772
 20
3.418283464566929
 10
23.37309842519685
 20
3.423547244094488
 10
23.44814566929134
 20
3.437629921259842
 10
23.55698818897638
 20
3.45798031496063
 10
23.68635039370079
 20
3.48203937007874
 10
23.82294488188976
 20
3.507244094488189
 10
23.95349606299213
 20
3.531043307086614
 10
24.06472440944882
 20
3.550877952755906
 10
24.14334251968504
 20
3.564192913385827
 10
24.15422440944882
 20
3.561606299212599
 10
24.18492125984252
 20
3.552917322834646
 10
24.2325157480315
 20
3.536728346456693
 10
24.29409448818897
 20
3.511645669291338
 10
24.36673622047244
 20
3.476271653543307
 10
24.44752362204724
 20
3.429212598425197
 10
24.53354330708661
 20
3.369074803149606
 10
24.62187401574803
 20
3.294456692913386
 10
24.62885433070866
 20
3.287224409448819
 10
24.6456968503937
 20
3.266263779527559
 10
24.66627165354331
 20
3.232692913385827
 10
24.68444094488189
 20
3.187618110236221
 10
24.69405905511811
 20
3.132153543307087
 10
24.689
 20
3.067417322834646
 10
24.66312204724409
 20
2.994511811023622
 10
24.61028346456693
 20
2.91455905511811
 10
24.60206299212598
 20
2.908897637795276
 10
24.57814960629921
 20
2.893425196850394
 10
24.53965354330709
 20
2.870429133858268
 10
24.48769291338583
 20
2.842181102362205
 10
24.42338976377953
 20
2.810968503937008
 10
24.34785039370079
 20
2.779066929133858
 10
24.26220078740158
 20
2.748751968503937
 10
24.16755118110236
 20
2.722311023622047
 10
24.16111811023622
 20
2.704338582677166
 10
24.14291732283464
 20
2.656263779527559
 10
24.11460236220472
 20
2.586850393700788
 10
24.07781889763779
 20
2.504866141732284
 10
24.03421653543307
 20
2.419074803149606
 10
23.98544881889764
 20
2.338236220472441
 10
23.93316141732284
 20
2.271118110236221
 10
23.87900393700787
 20
2.226484251968504
 10
23.87366141732284
 20
2.225850393700787
 10
23.85779921259843
 20
2.225377952755906
 10
23.83166141732283
 20
2.227204724409449
 10
23.7955
 20
2.233468503937008
 10
23.74955511811024
 20
2.246314960629921
 10
23.69407874015748
 20
2.26788188976378
 10
23.62931889763779
 20
2.300307086614173
 10
23.55551968503937
 20
2.345732283464567
 10
23.55195669291339
 20
2.35192125984252
 10
23.54236614173228
 20
2.369074803149606
 10
23.52838188976378
 20
2.39505905511811
 10
23.51164960629921
 20
2.427748031496063
 10
23.4938031496063
 20
2.465011811023622
 10
23.4764842519685
 20
2.504720472440945
 10
23.46133070866142
 20
2.544748031496063
 10
23.44998818897638
 20
2.582968503937008
 10
20.65866535433071
 20
2.093358267716535
 10
20.61176377952756
 20
2.084972440944882
 10
20.48536220472441
 20
2.062688976377953
 10
20.30092519685039
 20
2.030811023622047
 10
20.0799094488189
 20
1.993633858267716
 10
19.84377952755905
 20
1.955468503937008
 10
19.61399606299213
 20
1.920618110236221
 10
19.41201968503937
 20
1.89338188976378
 10
19.25931102362205
 20
1.878066929133858
 10
19.22747637795275
 20
1.876051181102362
 10
19.1378031496063
 20
1.871437007874016
 10
18.99903543307087
 20
1.866377952755905
 10
18.81991338582677
 20
1.863027559055118
 10
18.60917716535433
 20
1.863535433070866
 10
18.37557086614173
 20
1.870051181102362
 10
18.12784251968504
 20
1.884736220472441
 10
17.87472834645669
 20
1.909732283464567
 10
17.86800393700787
 20
1.882338582677165
 10
17.84818897637795
 20
1.808125984251969
 10
17.81583070866142
 20
1.69903937007874
 10
17.77146850393701
 20
1.56701968503937
 10
17.71564960629921
 20
1.424023622047244
 10
17.6489094488189
 20
1.281988188976378
 10
17.57179921259842
 20
1.152862204724409
 10
17.48485433070866
 20
1.048594488188976
 10
17.47737401574803
 20
1.043783464566929
 10
17.45520866141732
 20
1.033822834645669
 10
17.41877165354331
 20
1.025425196850394
 10
17.36848818897638
 20
1.025307086614173
 10
17.30476377952756
 20
1.040177165354331
 10
17.22802362204724
 20
1.076748031496063
 10
17.13867716535433
 20
1.141736220472441
 10
17.03714566929134
 20
1.241846456692913
 10
17.02611811023622
 20
1.252826771653543
 10
16.99648031496063
 20
1.288358267716535
 10
16.95341338582677
 20
1.352330708661417
 10
16.9020905511811
 20
1.448625984251968
 10
16.84768503937008
 20
1.581133858267717
 10
16.79537795275591
 20
1.753736220472441
 10
16.75033858267717
 20
1.970326771653543
 10
16.71774803149606
 20
2.234783464566929
 10
16.65203543307087
 20
2.27848031496063
 10
16.65203543307087
 20
2.371976377952756
  0
LWPOLYLINE
  5
62
330
1F
100
AcDbEntity
  8
Layer 1
 62
     7
370
     9
100
AcDbPolyline
 90
        9
 70
     0
 43
0.0
 10
16.71774803149606
 20
2.234783464566929
 10
16.73937007874016
 20
2.223673228346457
 10
16.8022125984252
 20
2.193791338582677
 10
16.90323622047244
 20
2.150303149606299
 10
17.03940157480315
 20
2.098377952755905
 10
17.20767322834646
 20
2.043192913385827
 10
17.40500787401575
 20
1.989909448818898
 10
17.62837401574803
 20
1.943696850393701
 10
17.87472834645669
 20
1.909732283464567
  0
LWPOLYLINE
  5
63
330
1F
100
AcDbEntity
  8
Layer 1
 62
     7
370
     9
100
AcDbPolyline
 90
        9
 70
     0
 43
0.0
 10
16.88174409448819
 20
2.159161417322835
 10
16.88557874015748
 20
2.123476377952756
 10
16.8985157480315
 20
2.026877952755906
 10
16.92270866141732
 20
1.885055118110236
 10
16.96031102362205
 20
1.713692913385827
 10
17.01346850393701
 20
1.52848031496063
 10
17.08433858267717
 20
1.345102362204724
 10
17.17507086614173
 20
1.179248031496063
 10
17.28781496062992
 20
1.046606299212598
  0
LWPOLYLINE
  5
64
330
1F
100
AcDbEntity
  8
Layer 1
 62
     7
370
     9
100
AcDbPolyline
 90
       25
 70
     1
 43
0.0
 10
23.54287795275591
 20
3.232204724409449
 10
23.55147637795276
 20
3.229417322834646
 10
23.57451968503937
 20
3.220992125984252
 10
23.60788976377953
 20
3.206826771653543
 10
23.64745669291339
 20
3.186826771653543
 10
23.68909842519685
 20
3.160889763779528
 10
23.72868897637795
 20
3.128917322834646
 10
23.7621062992126
 20
3.090811023622047
 10
23.78522834645669
 20
3.046472440944882
 10
23.78355118110236
 20
3.04140157480315
 10
23.77753937007874
 20
3.027661417322835
 10
23.76572047244094
 20
3.007464566929134
 10
23.74663385826772
 20
2.983027559055118
 10
23.71879921259843
 20
2.956562992125984
 10
23.68075590551181
 20
2.930283464566929
 10
23.63103543307087
 20
2.906397637795275
 10
23.56816141732283
 20
2.887125984251969
 10
23.56729133858268
 20
2.895330708661418
 10
23.56494881889764
 20
2.918338582677166
 10
23.56154724409449
 20
2.953740157480315
 10
23.55749212598425
 20
2.999122047244095
 10
23.55318897637795
 20
3.052066929133858
 10
23.54904724409449
 20
3.110173228346456
 10
23.54547244094488
 20
3.171023622047244
 10
23.54287795275591
 20
3.232204724409449
  0
LWPOLYLINE
  5
65
330
1F
100
AcDbEntity
  8
Layer 1
 62
     7
370
     9
100
AcDbPolyline
 90
        9
 70
     0
 43
0.0
 10
23.36672834645669
 20
2.846838582677165
 10
23.37193307086614
 20
2.847255905511811
 10
23.38637007874016
 20
2.848633858267716
 10
23.40827559055118
 20
2.851149606299213
 10
23.43588976377953
 20
2.854984251968504
 10
23.46744881889764
 20
2.860318897637795
 10
23.50118503937008
 20
2.867334645669291
 10
23.53534645669291
 20
2.876208661417323
 10
23.56816141732283
 20
2.887125984251969
  0
LWPOLYLINE
  5
66
330
1F
100
AcDbEntity
  8
Layer 1
 62
     7
370
     9
100
AcDbPolyline
 90
       10
 70
     0
 43
0.0
 10
24.16755118110236
 20
2.722311023622047
 10
23.62190551181102
 20
2.626433070866142
 10
23.6242125984252
 20
2.612913385826772
 10
23.63142125984252
 20
2.57655905511811
 10
23.64395275590551
 20
2.523677165354331
 10
23.66223228346457
 20
2.460582677165355
 10
23.68668503937008
 20
2.393574803149606
 10
23.71774015748031
 20
2.328976377952756
 10
23.75581889763779
 20
2.273082677165355
 10
23.80135039370079
 20
2.232212598425197
  0
LWPOLYLINE
  5
67
330
1F
100
AcDbEntity
  8
Layer 1
 62
     7
370
     9
100
AcDbPolyline
 90
        2
 70
     0
 43
0.0
 10
23.62190551181102
 20
2.626433070866142
 10
23.44998818897638
 20
2.582968503937008
  0
LWPOLYLINE
  5
68
330
1F
100
AcDbEntity
  8
Layer 1
 62
     7
370
     9
100
AcDbPolyline
 90
       42
 70
     0
 43
0.0
 10
16.65203543307087
 20
2.371976377952756
 10
16.66682677165354
 20
2.360909448818898
 10
16.71222047244094
 20
2.33092125984252
 10
16.78973622047244
 20
2.286834645669291
 10
16.90090157480315
 20
2.233472440944882
 10
17.04723228346457
 20
2.175653543307086
 10
17.23025196850394
 20
2.118208661417323
 10
17.45148818897638
 20
2.065956692913386
 10
17.71246062992126
 20
2.023720472440945
 10
17.74569291338583
 20
2.018862204724409
 10
17.8412125984252
 20
2.006637795275591
 10
17.99274015748032
 20
1.990551181102362
 10
18.19400787401575
 20
1.97411811023622
 10
18.43874409448819
 20
1.960850393700788
 10
18.72066929133858
 20
1.954259842519685
 10
19.0335157480315
 20
1.957858267716535
 10
19.37101181102362
 20
1.975161417322835
 10
19.41461417322835
 20
1.981783464566929
 10
19.53173622047244
 20
1.999629921259843
 10
19.70185433070866
 20
2.025692913385827
 10
19.90444881889764
 20
2.056948818897638
 10
20.119
 20
2.090377952755905
 10
20.32498425196851
 20
2.122972440944882
 10
20.50187401574803
 20
2.151704724409449
 10
20.62915354330709
 20
2.17355905511811
 10
23.10750393700787
 20
2.60413779527559
 10
23.14846062992126
 20
2.611354330708661
 10
23.25735826771654
 20
2.63061811023622
 10
23.41322834645669
 20
2.658338582677165
 10
23.59510236220472
 20
2.690933070866142
 10
23.7820157480315
 20
2.724811023622047
 10
23.95300393700787
 20
2.756389763779528
 10
24.08709448818898
 20
2.782082677165354
 10
24.16332283464567
 20
2.798303149606299
 10
24.18332677165354
 20
2.803299212598425
 10
24.23663385826772
 20
2.818043307086614
 10
24.31319291338583
 20
2.842185039370079
 10
24.40294488188976
 20
2.875366141732283
 10
24.49584251968504
 20
2.917228346456693
 10
24.58183464566929
 20
2.967413385826771
 10
24.65085826771654
 20
3.025570866141732
 10
24.69286614173229
 20
3.091338582677166
  0
LWPOLYLINE
  5
69
330
1F
100
AcDbEntity
  8
Layer 1
 62
     7
370
    18
100
AcDbPolyline
 90
        4
 70
     1
 43
0.0
 10
24.91636614173228
 20
1.786803149606299
 10
24.94031496062992
 20
1.805952755905512
 10
24.91131496062992
 20
1.815925196850394
 10
24.91636614173228
 20
1.786803149606299
  0
LWPOLYLINE
  5
6A
330
1F
100
AcDbEntity
  8
Layer 1
 62
     7
370
    18
100
AcDbPolyline
 90
        4
 70
     1
 43
0.0
 10
17.39997244094488
 20
0.4833267716535433
 10
17.37097637795275
 20
0.4932992125984252
 10
17.39492519685039
 20
0.5124488188976378
 10
17.39997244094488
 20
0.4833267716535433
  0
LWPOLYLINE
  5
6B
330
1F
100
AcDbEntity
  8
Layer 1
 62
     7
370
    18
100
AcDbPolyline
 90
        2
 70
     0
 43
0.0
 10
24.94887007874016
 20
1.80903937007874
 10
17.36188582677165
 20
0.4933228346456693
  0
LWPOLYLINE
  5
6C
330
1F
100
AcDbEntity
  8
Layer 1
 62
     7
370
     9
100
AcDbPolyline
 90
       65
 70
     1
 43
0.0
 10
21.30661023622047
 20
0.8480393700787402
 10
21.3105905511811
 20
0.8478543307086615
 10
21.31442125984252
 20
0.8473070866141732
 10
21.31810236220472
 20
0.8463858267716535
 10
21.32163779527559
 20
0.8451023622047245
 10
21.32502755905512
 20
0.8434527559055118
 10
21.32826771653543
 20
0.8414370078740158
 10
21.33136220472441
 20
0.8390551181102363
 10
21.33431102362205
 20
0.8363070866141732
 10
21.33696850393701
 20
0.8333307086614173
 10
21.33927165354331
 20
0.8302165354330708
 10
21.34122047244094
 20
0.8269645669291339
 10
21.34281889763779
 20
0.8235708661417322
 10
21.34405905511811
 20
0.8200354330708661
 10
21.34494881889764
 20
0.8163622047244095
 10
21.34548031496063
 20
0.8125472440944882
 10
21.34565748031496
 20
0.8085905511811023
 10
21.34547637795276
 20
0.8047204724409449
 10
21.34494094488189
 20
0.8009881889763779
 10
21.34404330708661
 20
0.7973818897637795
 10
21.3427874015748
 20
0.7939133858267716
 10
21.34117322834646
 20
0.7905787401574803
 10
21.3391968503937
 20
0.7873740157480315
 10
21.33686220472441
 20
0.7843031496062992
 10
21.33416929133858
 20
0.7813661417322835
 10
21.3312874015748
 20
0.7787322834645669
 10
21.32823622047244
 20
0.7764488188976378
 10
21.32501968503937
 20
0.774515748031496
 10
21.32164173228346
 20
0.7729330708661417
 10
21.31809842519685
 20
0.7717007874015748
 10
21.31438976377953
 20
0.7708228346456693
 10
21.3105157480315
 20
0.7702952755905512
 10
21.30648031496063
 20
0.7701181102362205
 10
21.30252362204724
 20
0.7702992125984252
 10
21.29870078740158
 20
0.7708464566929134
 10
21.29500787401575
 20
0.7717559055118111
 10
21.29144881889764
 20
0.7730275590551181
 10
21.28802362204724
 20
0.7746653543307087
 10
21.28472834645669
 20
0.7766614173228347
 10
21.28156299212598
 20
0.7790236220472441
 10
21.27853149606299
 20
0.7817440944881889
 10
21.27578346456693
 20
0.7846889763779528
 10
21.27340157480315
 20
0.7877755905511811
 10
21.27138976377953
 20
0.791007874015748
 10
21.26974015748031
 20
0.7943897637795275
 10
21.26846062992126
 20
0.7979094488188977
 10
21.26754330708662
 20
0.8015787401574803
 10
21.26699606299213
 20
0.8053897637795275
 10
21.26681102362205
 20
0.8093464566929134
 10
21.26699606299213
 20
0.8132795275590551
 10
21.26754330708662
 20
0.8170590551181103
 10
21.26846062992126
 20
0.8206889763779528
 10
21.26974015748031
 20
0.8241653543307087
 10
21.27138976377953
 20
0.827488188976378
 10
21.27340157480315
 20
0.8306614173228346
 10
21.27578346456693
 20
0.8336811023622047
 10
21.27853149606299
 20
0.8365472440944882
 10
21.2813937007874
 20
0.8390393700787402
 10
21.28446850393701
 20
0.841263779527559
 10
21.28775984251968
 20
0.8432244094488189
 10
21.29127165354331
 20
0.8449212598425196
 10
21.29494094488189
 20
0.8462834645669292
 10
21.29872047244094
 20
0.847259842519685
 10
21.30261023622047
 20
0.8478425196850393
 10
21.30661023622047
 20
0.8480393700787402
  0
LWPOLYLINE
  5
6D
330
1F
100
AcDbEntity
  8
Layer 1
 62
     7
370
     9
100
AcDbPolyline
 90
       61
 70
     1
 43
0.0
 10
21.36337007874016
 20
0.8098307086614174
 10
21.36309842519685
 20
0.8158464566929133
 10
21.36227952755905
 20
0.8215866141732283
 10
21.36091338582677
 20
0.8270511811023622
 10
21.35900393700787
 20
0.8322440944881889
 10
21.35654724409449
 20
0.8371653543307087
 10
21.35354724409449
 20
0.8418110236220473
 10
21.35000393700787
 20
0.8461850393700787
 10
21.34591732283464
 20
0.8502874015748032
 10
21.34172834645669
 20
0.853744094488189
 10
21.33724409448819
 20
0.8567755905511811
 10
21.33247244094488
 20
0.8593779527559056
 10
21.3274094488189
 20
0.8615590551181103
 10
21.32205511811024
 20
0.8633110236220473
 10
21.3164094488189
 20
0.8646417322834645
 10
21.31046850393701
 20
0.8655433070866142
 10
21.30423622047244
 20
0.8660236220472441
 10
21.29924803149606
 20
0.8627874015748032
 10
21.35115354330709
 20
0.9252086614173228
 10
21.32818897637795
 20
0.9252086614173228
 10
21.26182283464567
 20
0.8450393700787402
 10
21.25883858267716
 20
0.8411377952755905
 10
21.25625590551181
 20
0.8370787401574803
 10
21.25406692913386
 20
0.8328582677165355
 10
21.25227559055118
 20
0.8284763779527559
 10
21.25088582677165
 20
0.8239330708661418
 10
21.24988976377953
 20
0.8192322834645669
 10
21.24929527559055
 20
0.8143700787401574
 10
21.24909448818898
 20
0.8093464566929134
 10
21.24935433070866
 20
0.8035551181102362
 10
21.25013779527559
 20
0.797984251968504
 10
21.25144488188976
 20
0.7926377952755905
 10
21.25327559055118
 20
0.787515748031496
 10
21.25562598425197
 20
0.7826141732283465
 10
21.2585
 20
0.7779370078740158
 10
21.2618937007874
 20
0.7734842519685039
 10
21.26581496062992
 20
0.769255905511811
 10
21.27012992125984
 20
0.7653661417322835
 10
21.27465748031496
 20
0.7619921259842519
 10
21.2793937007874
 20
0.7591377952755906
 10
21.28434251968504
 20
0.7568031496062992
 10
21.2895
 20
0.7549842519685039
 10
21.29487007874016
 20
0.7536850393700787
 10
21.30045275590551
 20
0.7529055118110236
 10
21.30624409448819
 20
0.7526456692913386
 10
21.31211417322834
 20
0.7529055118110236
 10
21.31774803149606
 20
0.7536771653543307
 10
21.32314960629921
 20
0.7549645669291338
 10
21.3283188976378
 20
0.7567716535433071
 10
21.33325196850394
 20
0.7590866141732283
 10
21.33795669291339
 20
0.7619212598425197
 10
21.34242519685039
 20
0.765267716535433
 10
21.34666141732284
 20
0.7691259842519685
 10
21.35032283464567
 20
0.7731574803149607
 10
21.35357874015748
 20
0.777492125984252
 10
21.35643700787401
 20
0.7821456692913386
 10
21.3588937007874
 20
0.7871102362204725
 10
21.36085433070866
 20
0.7923740157480315
 10
21.36225196850394
 20
0.7979173228346457
 10
21.3630905511811
 20
0.803736220472441
 10
21.36337007874016
 20
0.8098307086614174
  0
LWPOLYLINE
  5
6E
330
1F
100
AcDbEntity
  8
Layer 1
 62
     7
370
     9
100
AcDbPolyline
 90
       64
 70
     1
 43
0.0
 10
21.45357480314961
 20
0.9054763779527559
 10
21.45645275590551
 20
0.9035196850393701
 10
21.45913779527559
 20
0.9012952755905512
 10
21.46162598425197
 20
0.8988070866141732
 10
21.46392125984252
 20
0.8960511811023623
 10
21.46602362204725
 20
0.8930314960629921
 10
21.46792913385827
 20
0.889748031496063
 10
21.46964173228346
 20
0.8861968503937008
 10
21.47116141732284
 20
0.8823779527559055
 10
21.47285826771654
 20
0.8773149606299213
 10
21.47432677165354
 20
0.8721811023622047
 10
21.47557086614173
 20
0.8669724409448819
 10
21.47658661417323
 20
0.8616850393700788
 10
21.4773779527559
 20
0.8563267716535433
 10
21.47794094488189
 20
0.8508937007874016
 10
21.47827952755906
 20
0.8453858267716535
 10
21.4783937007874
 20
0.8398070866141732
 10
21.47764960629921
 20
0.8274448818897637
 10
21.47678346456693
 20
0.820732283464567
 10
21.47565354330709
 20
0.8143897637795275
 10
21.47425590551181
 20
0.8084173228346456
 10
21.47259842519685
 20
0.8028149606299213
 10
21.47066929133858
 20
0.7975826771653544
 10
21.46848031496063
 20
0.792724409448819
 10
21.46602362204725
 20
0.7882362204724409
 10
21.4633031496063
 20
0.7841181102362205
 10
21.4608188976378
 20
0.7810157480314961
 10
21.45820472440945
 20
0.7783267716535434
 10
21.45545669291339
 20
0.7760472440944882
 10
21.45257480314961
 20
0.7741850393700788
 10
21.44956299212598
 20
0.772736220472441
 10
21.44641732283464
 20
0.7717007874015748
 10
21.44313779527559
 20
0.7710826771653543
 10
21.43972440944882
 20
0.7708740157480315
 10
21.43591338582677
 20
0.7710787401574803
 10
21.4322874015748
 20
0.7716968503937008
 10
21.42884645669291
 20
0.7727204724409449
 10
21.42558661417323
 20
0.7741574803149607
 10
21.42251181102362
 20
0.776
 10
21.41962204724409
 20
0.778255905511811
 10
21.41691338582677
 20
0.7809173228346457
 10
21.41438976377953
 20
0.7839881889763779
 10
21.40715748031496
 20
0.7972244094488189
 10
21.40278346456693
 20
0.8123346456692914
 10
21.40066929133858
 20
0.8273149606299213
 10
21.40005511811023
 20
0.844003937007874
 10
21.40022440944882
 20
0.849
 10
21.40073622047244
 20
0.8545629921259843
 10
21.40158661417323
 20
0.8606929133858268
 10
21.40278346456693
 20
0.8673937007874015
 10
21.40703937007874
 20
0.882507874015748
 10
21.41414173228346
 20
0.896
 10
21.41644094488189
 20
0.8988385826771653
 10
21.41895669291339
 20
0.9013897637795275
 10
21.42168503937008
 20
0.9036456692913386
 10
21.42463385826772
 20
0.9056062992125984
 10
21.42782677165354
 20
0.9071850393700788
 10
21.4313031496063
 20
0.9083149606299212
 10
21.43505905511811
 20
0.9089921259842519
 10
21.43909842519685
 20
0.9092204724409448
 10
21.44313779527559
 20
0.908984251968504
 10
21.44689763779527
 20
0.9082834645669291
 10
21.45037401574803
 20
0.9071141732283464
 10
21.45357480314961
 20
0.9054763779527559
  0
LWPOLYLINE
  5
6F
330
1F
100
AcDbEntity
  8
Layer 1
 62
     7
370
     9
100
AcDbPolyline
 90
       65
 70
     1
 43
0.0
 10
21.43997244094488
 20
0.7531496062992126
 10
21.44725590551181
 20
0.7536102362204724
 10
21.45407874015748
 20
0.755
 10
21.46043700787402
 20
0.7573110236220473
 10
21.46632677165355
 20
0.7605472440944882
 10
21.47175590551181
 20
0.7647086614173229
 10
21.47672047244095
 20
0.7697952755905512
 10
21.48122047244095
 20
0.7758031496062993
 10
21.48525984251969
 20
0.782736220472441
 10
21.48809448818898
 20
0.7887913385826771
 10
21.49055118110236
 20
0.7951771653543307
 10
21.49262992125984
 20
0.8019015748031496
 10
21.49433070866142
 20
0.8089606299212598
 10
21.49564960629921
 20
0.8163543307086614
 10
21.49659448818898
 20
0.8240866141732284
 10
21.49716141732284
 20
0.8321496062992126
 10
21.49735039370079
 20
0.8405511811023622
 10
21.49716141732284
 20
0.8489566929133858
 10
21.49659448818898
 20
0.8570236220472441
 10
21.49564960629921
 20
0.864751968503937
 10
21.49433070866142
 20
0.8721456692913386
 10
21.49262992125984
 20
0.8792007874015748
 10
21.49055118110236
 20
0.8859251968503937
 10
21.48809448818898
 20
0.8923110236220473
 10
21.48525984251969
 20
0.8983622047244094
 10
21.48122047244095
 20
0.9052952755905512
 10
21.47672047244095
 20
0.9113070866141733
 10
21.47175590551181
 20
0.9163937007874016
 10
21.46632677165355
 20
0.9205551181102363
 10
21.46043700787402
 20
0.9237952755905512
 10
21.45407874015748
 20
0.9261102362204724
 10
21.44725590551181
 20
0.927496062992126
 10
21.43997244094488
 20
0.9279606299212598
 10
21.43268897637795
 20
0.927496062992126
 10
21.42586614173228
 20
0.9261102362204724
 10
21.41951181102362
 20
0.9237952755905512
 10
21.41361811023622
 20
0.9205551181102363
 10
21.40818897637795
 20
0.9163937007874016
 10
21.40322440944882
 20
0.9113070866141733
 10
21.39872440944882
 20
0.9052952755905512
 10
21.39468897637795
 20
0.8983622047244094
 10
21.39185433070866
 20
0.8923110236220473
 10
21.3893937007874
 20
0.8859251968503937
 10
21.38731102362205
 20
0.8792007874015748
 10
21.38561023622047
 20
0.8721456692913386
 10
21.38428346456693
 20
0.864751968503937
 10
21.38333464566929
 20
0.8570236220472441
 10
21.38276377952756
 20
0.8489566929133858
 10
21.38257480314961
 20
0.8405511811023622
 10
21.38276377952756
 20
0.8321496062992126
 10
21.38333464566929
 20
0.8240866141732284
 10
21.38428346456693
 20
0.8163543307086614
 10
21.38561023622047
 20
0.8089606299212598
 10
21.38731102362205
 20
0.8019015748031496
 10
21.3893937007874
 20
0.7951771653543307
 10
21.39185433070866
 20
0.7887913385826771
 10
21.39468897637795
 20
0.782736220472441
 10
21.39872440944882
 20
0.7758031496062993
 10
21.40322440944882
 20
0.7697952755905512
 10
21.40818897637795
 20
0.7647086614173229
 10
21.41361811023622
 20
0.7605472440944882
 10
21.41951181102362
 20
0.7573110236220473
 10
21.42586614173228
 20
0.755
 10
21.43268897637795
 20
0.7536102362204724
 10
21.43997244094488
 20
0.7531496062992126
  0
LWPOLYLINE
  5
70
330
1F
100
AcDbEntity
  8
Layer 1
 62
     7
370
     9
100
AcDbPolyline
 90
       64
 70
     1
 43
0.0
 10
21.59330708661417
 20
0.9054763779527559
 10
21.59618503937008
 20
0.9035196850393701
 10
21.59887007874016
 20
0.9012952755905512
 10
21.60135826771653
 20
0.8988070866141732
 10
21.60365354330709
 20
0.8960511811023623
 10
21.60575590551181
 20
0.8930314960629921
 10
21.60766141732283
 20
0.889748031496063
 10
21.60937401574803
 20
0.8861968503937008
 10
21.6108937007874
 20
0.8823779527559055
 10
21.6125905511811
 20
0.8773149606299213
 10
21.61405905511811
 20
0.8721811023622047
 10
21.6153031496063
 20
0.8669724409448819
 10
21.6163188976378
 20
0.8616850393700788
 10
21.61711023622047
 20
0.8563267716535433
 10
21.61767322834646
 20
0.8508937007874016
 10
21.61801181102362
 20
0.8453858267716535
 10
21.61812598425197
 20
0.8398070866141732
 10
21.61738188976378
 20
0.8274448818897637
 10
21.6165157480315
 20
0.820732283464567
 10
21.61538582677165
 20
0.8143897637795275
 10
21.61398818897638
 20
0.8084173228346456
 10
21.61233070866142
 20
0.8028149606299213
 10
21.61040157480315
 20
0.7975826771653544
 10
21.6082125984252
 20
0.792724409448819
 10
21.60575590551181
 20
0.7882362204724409
 10
21.60303543307086
 20
0.7841181102362205
 10
21.60055118110236
 20
0.7810157480314961
 10
21.59793700787402
 20
0.7783267716535434
 10
21.59518897637795
 20
0.7760472440944882
 10
21.59230708661417
 20
0.7741850393700788
 10
21.58929133858268
 20
0.772736220472441
 10
21.58614566929134
 20
0.7717007874015748
 10
21.58286614173228
 20
0.7710826771653543
 10
21.57945669291339
 20
0.7708740157480315
 10
21.57564566929134
 20
0.7710787401574803
 10
21.57201968503937
 20
0.7716968503937008
 10
21.56857874015748
 20
0.7727204724409449
 10
21.56531889763779
 20
0.7741574803149607
 10
21.56224409448819
 20
0.776
 10
21.55935433070866
 20
0.778255905511811
 10
21.55664566929134
 20
0.7809173228346457
 10
21.5541220472441
 20
0.7839881889763779
 10
21.54688976377953
 20
0.7972244094488189
 10
21.54251574803149
 20
0.8123346456692914
 10
21.54040157480315
 20
0.8273149606299213
 10
21.53978346456693
 20
0.844003937007874
 10
21.53995275590551
 20
0.849
 10
21.54046456692913
 20
0.8545629921259843
 10
21.54131889763779
 20
0.8606929133858268
 10
21.54251574803149
 20
0.8673937007874015
 10
21.54675984251968
 20
0.882507874015748
 10
21.55387401574803
 20
0.896
 10
21.55616929133858
 20
0.8988385826771653
 10
21.5586811023622
 20
0.9013897637795275
 10
21.56141338582677
 20
0.9036456692913386
 10
21.56436614173228
 20
0.9056062992125984
 10
21.56755905511811
 20
0.9071850393700788
 10
21.57103543307086
 20
0.9083149606299212
 10
21.57479133858268
 20
0.9089921259842519
 10
21.57883070866142
 20
0.9092204724409448
 10
21.58287007874016
 20
0.908984251968504
 10
21.58662992125984
 20
0.9082834645669291
 10
21.5901062992126
 20
0.9071141732283464
 10
21.59330708661417
 20
0.9054763779527559
  0
LWPOLYLINE
  5
71
330
1F
100
AcDbEntity
  8
Layer 1
 62
     7
370
     9
100
AcDbPolyline
 90
       65
 70
     1
 43
0.0
 10
21.57970472440945
 20
0.7531496062992126
 10
21.58698818897638
 20
0.7536102362204724
 10
21.59381102362205
 20
0.755
 10
21.60016929133858
 20
0.7573110236220473
 10
21.60605905511811
 20
0.7605472440944882
 10
21.61148818897638
 20
0.7647086614173229
 10
21.61645275590551
 20
0.7697952755905512
 10
21.62095275590551
 20
0.7758031496062993
 10
21.62499212598425
 20
0.782736220472441
 10
21.62782677165354
 20
0.7887913385826771
 10
21.63028346456693
 20
0.7951771653543307
 10
21.63236220472441
 20
0.8019015748031496
 10
21.63406299212598
 20
0.8089606299212598
 10
21.63538188976378
 20
0.8163543307086614
 10
21.63632677165354
 20
0.8240866141732284
 10
21.6368937007874
 20
0.8321496062992126
 10
21.63708267716535
 20
0.8405511811023622
 10
21.6368937007874
 20
0.8489566929133858
 10
21.63632677165354
 20
0.8570236220472441
 10
21.63538188976378
 20
0.864751968503937
 10
21.63406299212598
 20
0.8721456692913386
 10
21.63236220472441
 20
0.8792007874015748
 10
21.63028346456693
 20
0.8859251968503937
 10
21.62782677165354
 20
0.8923110236220473
 10
21.62499212598425
 20
0.8983622047244094
 10
21.62095275590551
 20
0.9052952755905512
 10
21.61645275590551
 20
0.9113070866141733
 10
21.61148818897638
 20
0.9163937007874016
 10
21.60605905511811
 20
0.9205551181102363
 10
21.60016929133858
 20
0.9237952755905512
 10
21.59381102362205
 20
0.9261102362204724
 10
21.58698818897638
 20
0.927496062992126
 10
21.57970472440945
 20
0.9279606299212598
 10
21.57242125984252
 20
0.927496062992126
 10
21.56559842519685
 20
0.9261102362204724
 10
21.55924015748031
 20
0.9237952755905512
 10
21.55335039370079
 20
0.9205551181102363
 10
21.54792125984252
 20
0.9163937007874016
 10
21.54295669291339
 20
0.9113070866141733
 10
21.53845669291339
 20
0.9052952755905512
 10
21.53442125984252
 20
0.8983622047244094
 10
21.53158267716535
 20
0.8923110236220473
 10
21.52912598425197
 20
0.8859251968503937
 10
21.52704330708661
 20
0.8792007874015748
 10
21.52533858267716
 20
0.8721456692913386
 10
21.52401181102362
 20
0.864751968503937
 10
21.52306692913386
 20
0.8570236220472441
 10
21.52249606299213
 20
0.8489566929133858
 10
21.52230708661417
 20
0.8405511811023622
 10
21.52249606299213
 20
0.8321496062992126
 10
21.52306692913386
 20
0.8240866141732284
 10
21.52401181102362
 20
0.8163543307086614
 10
21.52533858267716
 20
0.8089606299212598
 10
21.52704330708661
 20
0.8019015748031496
 10
21.52912598425197
 20
0.7951771653543307
 10
21.53158267716535
 20
0.7887913385826771
 10
21.53442125984252
 20
0.782736220472441
 10
21.53845669291339
 20
0.7758031496062993
 10
21.54295669291339
 20
0.7697952755905512
 10
21.54792125984252
 20
0.7647086614173229
 10
21.55335039370079
 20
0.7605472440944882
 10
21.55924015748031
 20
0.7573110236220473
 10
21.56559842519685
 20
0.755
 10
21.57242125984252
 20
0.7536102362204724
 10
21.57970472440945
 20
0.7531496062992126
  0
LWPOLYLINE
  5
72
330
1F
100
AcDbEntity
  8
Layer 1
 62
     7
370
     9
100
AcDbPolyline
 90
      107
 70
     1
 43
0.0
 10
21.80751574803149
 20
0.7559055118110236
 10
21.82496850393701
 20
0.7559055118110236
 10
21.82496850393701
 20
0.8245748031496063
 10
21.82482677165354
 20
0.8291299212598425
 10
21.82440157480315
 20
0.8334724409448819
 10
21.82368897637795
 20
0.8376023622047244
 10
21.8226968503937
 20
0.8415157480314961
 10
21.82141732283464
 20
0.8452165354330708
 10
21.81985433070866
 20
0.8487047244094488
 10
21.81801181102362
 20
0.8519763779527559
 10
21.81588188976378
 20
0.8550354330708662
 10
21.81341732283465
 20
0.8578858267716536
 10
21.81066535433071
 20
0.8604370078740158
 10
21.80761811023622
 20
0.8626889763779527
 10
21.80427559055118
 20
0.8646417322834645
 10
21.80049212598425
 20
0.8662283464566929
 10
21.79615354330708
 20
0.8673622047244095
 10
21.79125984251969
 20
0.8680393700787401
 10
21.78580708661417
 20
0.8682677165354331
 10
21.7829842519685
 20
0.8681692913385827
 10
21.78025196850394
 20
0.8678779527559055
 10
21.7776062992126
 20
0.8673897637795276
 10
21.77504724409449
 20
0.8667086614173228
 10
21.77258267716535
 20
0.8658307086614173
 10
21.77020472440945
 20
0.8647598425196851
 10
21.76791732283464
 20
0.863492125984252
 10
21.76571653543307
 20
0.8620314960629921
 10
21.76199212598425
 20
0.859003937007874
 10
21.75861023622047
 20
0.8555472440944882
 10
21.75556692913386
 20
0.8516732283464566
 10
21.75287007874016
 20
0.8473818897637795
 10
21.74825984251968
 20
0.8550354330708662
 10
21.74579921259842
 20
0.8578858267716536
 10
21.74304330708662
 20
0.8604370078740158
 10
21.73999606299213
 20
0.8626889763779527
 10
21.73665354330709
 20
0.8646417322834645
 10
21.73288188976378
 20
0.8662283464566929
 10
21.72854330708661
 20
0.8673622047244095
 10
21.72364173228346
 20
0.8680393700787401
 10
21.71818503937008
 20
0.8682677165354331
 10
21.71536220472441
 20
0.8681692913385827
 10
21.71262992125984
 20
0.8678779527559055
 10
21.7099842519685
 20
0.8673897637795276
 10
21.70742913385827
 20
0.8667086614173228
 10
21.70496062992126
 20
0.8658307086614173
 10
21.70258267716535
 20
0.8647598425196851
 10
21.70029527559055
 20
0.863492125984252
 10
21.69809448818897
 20
0.8620314960629921
 10
21.69453937007874
 20
0.8591535433070866
 10
21.69129527559055
 20
0.8559015748031497
 10
21.68836220472441
 20
0.8522677165354331
 10
21.68574409448819
 20
0.848248031496063
 10
21.68574409448819
 20
0.8657755905511811
 10
21.66829133858268
 20
0.8657755905511811
 10
21.66829133858268
 20
0.7559055118110236
 10
21.68574409448819
 20
0.7559055118110236
 10
21.68574409448819
 20
0.8121181102362205
 10
21.6866811023622
 20
0.8185433070866142
 10
21.68811811023622
 20
0.8244606299212598
 10
21.69005511811024
 20
0.8298779527559055
 10
21.69249212598425
 20
0.8348070866141732
 10
21.69465748031496
 20
0.8381496062992126
 10
21.69716535433071
 20
0.8411771653543307
 10
21.7000157480315
 20
0.8438937007874016
 10
21.7032125984252
 20
0.8462913385826771
 10
21.70664960629921
 20
0.848259842519685
 10
21.71020472440945
 20
0.8496614173228346
 10
21.71388188976378
 20
0.850503937007874
 10
21.71767716535433
 20
0.8507834645669291
 10
21.72129921259842
 20
0.8506338582677165
 10
21.72442125984252
 20
0.8501929133858268
 10
21.72704330708661
 20
0.8494527559055118
 10
21.72916535433071
 20
0.8484173228346457
 10
21.73168110236221
 20
0.8465590551181102
 10
21.73385826771653
 20
0.8443779527559055
 10
21.73570472440945
 20
0.8418779527559055
 10
21.7372125984252
 20
0.8390590551181102
 10
21.73838582677165
 20
0.8359173228346457
 10
21.73922440944882
 20
0.8324566929133859
 10
21.73972440944882
 20
0.8286771653543307
 10
21.7398937007874
 20
0.8245748031496063
 10
21.7398937007874
 20
0.7559055118110236
 10
21.75735039370079
 20
0.7559055118110236
 10
21.75735039370079
 20
0.8245748031496063
 10
21.75723228346457
 20
0.8287755905511811
 10
21.76010236220472
 20
0.8348070866141732
 10
21.76227165354331
 20
0.8381496062992126
 10
21.76478346456693
 20
0.8411771653543307
 10
21.76763385826772
 20
0.8438937007874016
 10
21.77083070866142
 20
0.8462913385826771
 10
21.77425984251969
 20
0.848259842519685
 10
21.77781496062992
 20
0.8496614173228346
 10
21.78149212598425
 20
0.850503937007874
 10
21.78529921259842
 20
0.8507834645669291
 10
21.78891732283465
 20
0.8506338582677165
 10
21.79203937007874
 20
0.8501929133858268
 10
21.79466141732284
 20
0.8494527559055118
 10
21.79678346456693
 20
0.8484173228346457
 10
21.79929921259842
 20
0.8465590551181102
 10
21.80148031496063
 20
0.8443779527559055
 10
21.80332283464567
 20
0.8418779527559055
 10
21.80483464566929
 20
0.8390590551181102
 10
21.80600787401575
 20
0.8359173228346457
 10
21.80684645669291
 20
0.8324566929133859
 10
21.80734645669291
 20
0.8286771653543307
 10
21.80751574803149
 20
0.8245748031496063
 10
21.80751574803149
 20
0.7559055118110236
  0
LWPOLYLINE
  5
73
330
1F
100
AcDbEntity
  8
Layer 1
 62
     7
370
     9
100
AcDbPolyline
 90
      107
 70
     1
 43
0.0
 10
21.99789763779528
 20
0.7559055118110236
 10
22.01535039370079
 20
0.7559055118110236
 10
22.01535039370079
 20
0.8245748031496063
 10
22.01520866141732
 20
0.8291299212598425
 10
22.01478346456693
 20
0.8334724409448819
 10
22.01407086614173
 20
0.8376023622047244
 10
22.01307480314961
 20
0.8415157480314961
 10
22.01179527559055
 20
0.8452165354330708
 10
22.01023228346457
 20
0.8487047244094488
 10
22.00838582677165
 20
0.8519763779527559
 10
22.00625196850394
 20
0.8550354330708662
 10
22.00379921259843
 20
0.8578858267716536
 10
22.00104724409449
 20
0.8604370078740158
 10
21.998
 20
0.8626889763779527
 10
21.99465748031496
 20
0.8646417322834645
 10
21.99087401574803
 20
0.8662283464566929
 10
21.98653543307087
 20
0.8673622047244095
 10
21.98164173228346
 20
0.8680393700787401
 10
21.97618897637795
 20
0.8682677165354331
 10
21.97336220472441
 20
0.8681692913385827
 10
21.97062992125984
 20
0.8678779527559055
 10
21.9679842519685
 20
0.8673897637795276
 10
21.96542913385827
 20
0.8667086614173228
 10
21.96296062992126
 20
0.8658307086614173
 10
21.96058267716536
 20
0.8647598425196851
 10
21.95829527559055
 20
0.863492125984252
 10
21.95609842519685
 20
0.8620314960629921
 10
21.95237401574803
 20
0.859003937007874
 10
21.94898818897638
 20
0.8555472440944882
 10
21.94594488188977
 20
0.8516732283464566
 10
21.94324015748031
 20
0.8473818897637795
 10
21.93862992125984
 20
0.8550354330708662
 10
21.93617716535433
 20
0.8578858267716536
 10
21.93342519685039
 20
0.8604370078740158
 10
21.9303779527559
 20
0.8626889763779527
 10
21.92703937007874
 20
0.8646417322834645
 10
21.92325984251968
 20
0.8662283464566929
 10
21.91892125984252
 20
0.8673622047244095
 10
21.91401968503937
 20
0.8680393700787401
 10
21.90856692913386
 20
0.8682677165354331
 10
21.90574015748032
 20
0.8681692913385827
 10
21.90300393700787
 20
0.8678779527559055
 10
21.90035826771653
 20
0.8673897637795276
 10
21.8978031496063
 20
0.8667086614173228
 10
21.89533464566929
 20
0.8658307086614173
 10
21.89295669291339
 20
0.8647598425196851
 10
21.89067322834646
 20
0.863492125984252
 10
21.88847637795276
 20
0.8620314960629921
 10
21.88492125984252
 20
0.8591535433070866
 10
21.88167716535433
 20
0.8559015748031497
 10
21.87874803149606
 20
0.8522677165354331
 10
21.87612992125984
 20
0.848248031496063
 10
21.87612992125984
 20
0.8657755905511811
 10
21.85866141732284
 20
0.8657755905511811
 10
21.85866141732284
 20
0.7559055118110236
 10
21.87612992125984
 20
0.7559055118110236
 10
21.87612992125984
 20
0.8121181102362205
 10
21.87706692913386
 20
0.8185433070866142
 10
21.87850393700787
 20
0.8244606299212598
 10
21.88043700787401
 20
0.8298779527559055
 10
21.88287401574803
 20
0.8348070866141732
 10
21.88503937007874
 20
0.8381496062992126
 10
21.88754330708661
 20
0.8411771653543307
 10
21.8903937007874
 20
0.8438937007874016
 10
21.89358267716536
 20
0.8462913385826771
 10
21.89702362204724
 20
0.848259842519685
 10
21.90058267716535
 20
0.8496614173228346
 10
21.90425984251969
 20
0.850503937007874
 10
21.90805905511811
 20
0.8507834645669291
 10
21.91168110236221
 20
0.8506338582677165
 10
21.9148031496063
 20
0.8501929133858268
 10
21.91742125984252
 20
0.8494527559055118
 10
21.91953543307087
 20
0.8484173228346457
 10
21.92205511811024
 20
0.8465590551181102
 10
21.92423622047244
 20
0.8443779527559055
 10
21.92607874015748
 20
0.8418779527559055
 10
21.92758661417323
 20
0.8390590551181102
 10
21.92875984251969
 20
0.8359173228346457
 10
21.92959448818898
 20
0.8324566929133859
 10
21.93009842519685
 20
0.8286771653543307
 10
21.93026377952756
 20
0.8245748031496063
 10
21.93026377952756
 20
0.7559055118110236
 10
21.94773228346457
 20
0.7559055118110236
 10
21.94773228346457
 20
0.8245748031496063
 10
21.94761417322835
 20
0.8287755905511811
 10
21.9504842519685
 20
0.8348070866141732
 10
21.95265354330709
 20
0.8381496062992126
 10
21.95516535433071
 20
0.8411771653543307
 10
21.95801968503937
 20
0.8438937007874016
 10
21.96121653543307
 20
0.8462913385826771
 10
21.96464173228346
 20
0.848259842519685
 10
21.96819291338583
 20
0.8496614173228346
 10
21.97187401574803
 20
0.850503937007874
 10
21.97568110236221
 20
0.8507834645669291
 10
21.97929921259842
 20
0.8506338582677165
 10
21.98242125984252
 20
0.8501929133858268
 10
21.98504330708661
 20
0.8494527559055118
 10
21.98715748031496
 20
0.8484173228346457
 10
21.98967716535433
 20
0.8465590551181102
 10
21.99185826771653
 20
0.8443779527559055
 10
21.99370472440945
 20
0.8418779527559055
 10
21.99521653543307
 20
0.8390590551181102
 10
21.99638976377953
 20
0.8359173228346457
 10
21.99722834645669
 20
0.8324566929133859
 10
21.99772834645669
 20
0.8286771653543307
 10
21.99789763779528
 20
0.8245748031496063
 10
21.99789763779528
 20
0.7559055118110236
  0
LWPOLYLINE
  5
74
330
1F
100
AcDbEntity
  8
Layer 1
 62
     7
370
    18
100
AcDbPolyline
 90
        4
 70
     1
 43
0.0
 10
16.82840157480315
 20
0.6213622047244094
 10
16.85706692913386
 20
0.6104724409448818
 10
16.85091732283465
 20
0.6405118110236221
 10
16.82840157480315
 20
0.6213622047244094
  0
LWPOLYLINE
  5
75
330
1F
100
AcDbEntity
  8
Layer 1
 62
     7
370
    18
100
AcDbPolyline
 90
        4
 70
     1
 43
0.0
 10
15.65809448818898
 20
1.997389763779527
 10
15.65194488188976
 20
2.027429133858268
 10
15.68061023622047
 20
2.01653937007874
 10
15.65809448818898
 20
1.997389763779527
  0
LWPOLYLINE
  5
76
330
1F
100
AcDbEntity
  8
Layer 1
 62
     7
370
    18
100
AcDbPolyline
 90
        2
 70
     0
 43
0.0
 10
16.86407086614173
 20
0.6046732283464566
 10
15.64734645669291
 20
2.035275590551181
  0
LWPOLYLINE
  5
77
330
1F
100
AcDbEntity
  8
Layer 1
 62
     7
370
     9
100
AcDbPolyline
 90
        7
 70
     1
 43
0.0
 10
15.57128346456693
 20
1.068972440944882
 10
15.6458779527559
 20
1.23803937007874
 10
15.53933070866142
 20
1.23803937007874
 10
15.53933070866142
 20
1.220562992125984
 10
15.61868503937008
 20
1.220562992125984
 10
15.55182283464567
 20
1.068972440944882
 10
15.57128346456693
 20
1.068972440944882
  0
LWPOLYLINE
  5
78
330
1F
100
AcDbEntity
  8
Layer 1
 62
     7
370
     9
100
AcDbPolyline
 90
       65
 70
     1
 43
0.0
 10
15.70800393700787
 20
1.155389763779528
 10
15.71170472440945
 20
1.155228346456693
 10
15.71526377952756
 20
1.154748031496063
 10
15.7186811023622
 20
1.153948818897638
 10
15.72194881889764
 20
1.152826771653543
 10
15.72507480314961
 20
1.151385826771653
 10
15.72805511811024
 20
1.149625984251968
 10
15.73088976377953
 20
1.147543307086614
 10
15.73357874015748
 20
1.145145669291339
 10
15.73600787401575
 20
1.14253937007874
 10
15.73811417322835
 20
1.139787401574803
 10
15.7398937007874
 20
1.136885826771654
 10
15.74135039370079
 20
1.133838582677165
 10
15.7424842519685
 20
1.130641732283465
 10
15.74329527559055
 20
1.127299212598425
 10
15.74377952755906
 20
1.123807086614173
 10
15.74394094488189
 20
1.120169291338583
 10
15.74377952755906
 20
1.116562992125984
 10
15.74329921259842
 20
1.11307874015748
 10
15.7425
 20
1.109712598425197
 10
15.74138188976378
 20
1.106468503937008
 10
15.73994094488189
 20
1.103346456692913
 10
15.73818503937008
 20
1.100346456692913
 10
15.73611023622047
 20
1.097464566929134
 10
15.73372047244094
 20
1.094704724409449
 10
15.73109448818898
 20
1.092185039370079
 10
15.72829921259843
 20
1.090003937007874
 10
15.72533464566929
 20
1.088157480314961
 10
15.72220472440945
 20
1.086649606299213
 10
15.71890157480315
 20
1.085472440944882
 10
15.71543700787402
 20
1.084633858267717
 10
15.7118031496063
 20
1.084133858267716
 10
15.70800393700787
 20
1.083964566929134
 10
15.70420866141732
 20
1.084133858267716
 10
15.70057874015748
 20
1.084633858267717
 10
15.69711811023622
 20
1.085472440944882
 10
15.6938188976378
 20
1.086649606299213
 10
15.69068897637795
 20
1.088157480314961
 10
15.68772440944882
 20
1.090003937007874
 10
15.68492913385827
 20
1.092185039370079
 10
15.6823031496063
 20
1.094704724409449
 10
15.6799094488189
 20
1.097464566929134
 10
15.67783464566929
 20
1.100346456692913
 10
15.67607874015748
 20
1.103346456692913
 10
15.67464173228347
 20
1.106468503937008
 10
15.67351968503937
 20
1.109712598425197
 10
15.67272047244095
 20
1.11307874015748
 10
15.67224015748032
 20
1.116562992125984
 10
15.67207874015748
 20
1.120169291338583
 10
15.67224015748032
 20
1.123807086614173
 10
15.67272440944882
 20
1.127299212598425
 10
15.67353543307087
 20
1.130641732283465
 10
15.67466535433071
 20
1.133838582677165
 10
15.67612204724409
 20
1.136885826771654
 10
15.67790551181102
 20
1.139787401574803
 10
15.68000787401575
 20
1.14253937007874
 10
15.68244094488189
 20
1.145145669291339
 10
15.68512992125984
 20
1.147543307086614
 10
15.68796456692913
 20
1.149625984251968
 10
15.69094488188976
 20
1.151385826771653
 10
15.69407086614173
 20
1.152826771653543
 10
15.69733858267717
 20
1.153948818897638
 10
15.70075196850394
 20
1.154748031496063
 10
15.70430708661417
 20
1.155228346456693
 10
15.70800393700787
 20
1.155389763779528
  0
LWPOLYLINE
  5
79
330
1F
100
AcDbEntity
  8
Layer 1
 62
     7
370
     9
100
AcDbPolyline
 90
       65
 70
     1
 43
0.0
 10
15.70800393700787
 20
1.224307086614173
 10
15.71098818897638
 20
1.224181102362205
 10
15.71385826771654
 20
1.223807086614173
 10
15.71661811023622
 20
1.223181102362205
 10
15.71926377952756
 20
1.222307086614173
 10
15.72179527559055
 20
1.221185039370079
 10
15.72421653543307
 20
1.219811023622047
 10
15.72652362204724
 20
1.218185039370079
 10
15.72872047244094
 20
1.216311023622047
 10
15.73076771653543
 20
1.214204724409449
 10
15.73253937007874
 20
1.21198031496063
 10
15.73403937007874
 20
1.209633858267717
 10
15.73526771653543
 20
1.207169291338583
 10
15.73622440944882
 20
1.20457874015748
 10
15.73690551181102
 20
1.201870078740157
 10
15.73731496062992
 20
1.19903937007874
 10
15.73745275590551
 20
1.196082677165354
 10
15.73731496062992
 20
1.193196850393701
 10
15.73690551181102
 20
1.190405511811024
 10
15.73622440944882
 20
1.187708661417323
 10
15.73526771653543
 20
1.185102362204724
 10
15.73403937007874
 20
1.182590551181102
 10
15.73253937007874
 20
1.180173228346457
 10
15.73076771653543
 20
1.177846456692913
 10
15.72872047244094
 20
1.17561811023622
 10
15.72653937007874
 20
1.173625984251969
 10
15.72424409448819
 20
1.171897637795276
 10
15.72182677165354
 20
1.170437007874016
 10
15.71929527559055
 20
1.169244094488189
 10
15.71664960629921
 20
1.168314960629921
 10
15.71388188976378
 20
1.167653543307087
 10
15.711
 20
1.167255905511811
 10
15.70800393700787
 20
1.167122047244094
 10
15.70500787401575
 20
1.167255905511811
 10
15.70212598425197
 20
1.167653543307087
 10
15.69936220472441
 20
1.168314960629921
 10
15.69671653543307
 20
1.169244094488189
 10
15.69418897637795
 20
1.170437007874016
 10
15.69177559055118
 20
1.171897637795276
 10
15.68948031496063
 20
1.173625984251969
 10
15.68729921259843
 20
1.17561811023622
 10
15.68525196850394
 20
1.177846456692913
 10
15.68348031496063
 20
1.180173228346457
 10
15.68198031496063
 20
1.182590551181102
 10
15.68075196850394
 20
1.185102362204724
 10
15.67979527559055
 20
1.187708661417323
 10
15.67911417322835
 20
1.190405511811024
 10
15.67870472440945
 20
1.193196850393701
 10
15.67856692913386
 20
1.196082677165354
 10
15.67870472440945
 20
1.19903937007874
 10
15.67911417322835
 20
1.201870078740157
 10
15.67979527559055
 20
1.20457874015748
 10
15.68075196850394
 20
1.207169291338583
 10
15.68198031496063
 20
1.209633858267717
 10
15.68348031496063
 20
1.21198031496063
 10
15.68525196850394
 20
1.214204724409449
 10
15.68729921259843
 20
1.216311023622047
 10
15.68949212598425
 20
1.218185039370079
 10
15.69179921259843
 20
1.219811023622047
 10
15.69422047244094
 20
1.221185039370079
 10
15.69675590551181
 20
1.222307086614173
 10
15.69939763779528
 20
1.223181102362205
 10
15.70215748031496
 20
1.223807086614173
 10
15.70502362204724
 20
1.224181102362205
 10
15.70800393700787
 20
1.224307086614173
  0
LWPOLYLINE
  5
7A
330
1F
100
AcDbEntity
  8
Layer 1
 62
     7
370
     9
100
AcDbPolyline
 90
      113
 70
     1
 43
0.0
 10
15.70800393700787
 20
1.066488188976378
 10
15.71372047244095
 20
1.066704724409449
 10
15.7192125984252
 20
1.067354330708661
 10
15.72446850393701
 20
1.068433070866142
 10
15.72949606299213
 20
1.069948818897638
 10
15.73429527559055
 20
1.071893700787402
 10
15.73886220472441
 20
1.074275590551181
 10
15.7431968503937
 20
1.077090551181102
 10
15.74729921259843
 20
1.080338582677165
 10
15.75090551181102
 20
1.083818897637795
 10
15.75410236220472
 20
1.087641732283465
 10
15.7568937007874
 20
1.091811023622047
 10
15.75928346456693
 20
1.096322834645669
 10
15.7611968503937
 20
1.101181102362205
 10
15.76256299212598
 20
1.106377952755905
 10
15.76338188976378
 20
1.111917322834646
 10
15.76365354330709
 20
1.117803149606299
 10
15.76353937007874
 20
1.120822834645669
 10
15.76319291338583
 20
1.123838582677165
 10
15.76261811023622
 20
1.126846456692913
 10
15.76181102362205
 20
1.129846456692913
 10
15.76077559055118
 20
1.132842519685039
 10
15.75950787401575
 20
1.135826771653543
 10
15.7580157480315
 20
1.138807086614173
 10
15.75629133858268
 20
1.141779527559055
 10
15.75435039370079
 20
1.144673228346457
 10
15.75220866141732
 20
1.147429133858268
 10
15.74987007874016
 20
1.150051181102362
 10
15.74733464566929
 20
1.15253937007874
 10
15.74460236220472
 20
1.154893700787402
 10
15.74166929133858
 20
1.157106299212598
 10
15.73853937007874
 20
1.159188976377953
 10
15.73520866141732
 20
1.161129921259842
 10
15.73994094488189
 20
1.165358267716536
 10
15.74404330708661
 20
1.169677165354331
 10
15.74751968503937
 20
1.174082677165354
 10
15.75036220472441
 20
1.178582677165354
 10
15.75257086614173
 20
1.183169291338583
 10
15.75415354330709
 20
1.187846456692913
 10
15.75510236220472
 20
1.192610236220472
 10
15.75541732283465
 20
1.197464566929134
 10
15.75520078740158
 20
1.202251968503937
 10
15.75455118110236
 20
1.206818897637795
 10
15.75346850393701
 20
1.211161417322835
 10
15.75195275590551
 20
1.215283464566929
 10
15.75000787401575
 20
1.219185039370079
 10
15.74762992125984
 20
1.22286220472441
 10
15.7448188976378
 20
1.226314960629921
 10
15.74157874015748
 20
1.229543307086614
 10
15.73814173228346
 20
1.232358267716535
 10
15.73448818897638
 20
1.234795275590551
 10
15.73061811023622
 20
1.236858267716535
 10
15.72653149606299
 20
1.238543307086614
 10
15.72222834645669
 20
1.239854330708661
 10
15.71770472440945
 20
1.240787401574803
 10
15.71296456692913
 20
1.241350393700787
 10
15.70800393700787
 20
1.241535433070866
 10
15.70304724409449
 20
1.241350393700787
 10
15.69831102362205
 20
1.240787401574803
 10
15.69379133858268
 20
1.239854330708661
 10
15.68948818897638
 20
1.238543307086614
 10
15.68540157480315
 20
1.236858267716535
 10
15.68153149606299
 20
1.234795275590551
 10
15.6778779527559
 20
1.232358267716535
 10
15.67444488188976
 20
1.229543307086614
 10
15.67120078740157
 20
1.226314960629921
 10
15.66838976377953
 20
1.222870078740157
 10
15.66601181102362
 20
1.219200787401575
 10
15.66406299212598
 20
1.215314960629921
 10
15.66254724409449
 20
1.211208661417323
 10
15.66146062992126
 20
1.206885826771654
 10
15.66081102362205
 20
1.202342519685039
 10
15.66059448818898
 20
1.197582677165354
 10
15.6609094488189
 20
1.192696850393701
 10
15.66185826771654
 20
1.187905511811024
 10
15.66343700787402
 20
1.183208661417323
 10
15.66564960629921
 20
1.178606299212599
 10
15.66849212598425
 20
1.174094488188976
 10
15.67196850393701
 20
1.169681102362205
 10
15.67607480314961
 20
1.165358267716536
 10
15.68081102362205
 20
1.161129921259842
 10
15.67748031496063
 20
1.159188976377953
 10
15.67435039370079
 20
1.157106299212598
 10
15.67141732283465
 20
1.154893700787402
 10
15.66868503937008
 20
1.15253937007874
 10
15.66614960629921
 20
1.150051181102362
 10
15.66381102362205
 20
1.147429133858268
 10
15.66166929133858
 20
1.144673228346457
 10
15.65972834645669
 20
1.141779527559055
 10
15.65800393700787
 20
1.138803149606299
 10
15.65651181102362
 20
1.135807086614173
 10
15.65524409448819
 20
1.132791338582677
 10
15.65420866141732
 20
1.129755905511811
 10
15.65340157480315
 20
1.126700787401575
 10
15.65282677165354
 20
1.123629921259843
 10
15.65248031496063
 20
1.120535433070866
 10
15.65236614173228
 20
1.117425196850394
 10
15.65262204724409
 20
1.111846456692913
 10
15.65338976377953
 20
1.106535433070866
 10
15.65466535433071
 20
1.101496062992126
 10
15.65645669291339
 20
1.096724409448819
 10
15.65875590551181
 20
1.092224409448819
 10
15.66156692913386
 20
1.087992125984252
 10
15.66488976377953
 20
1.084031496062992
 10
15.66872047244095
 20
1.080338582677165
 10
15.67282283464567
 20
1.077090551181102
 10
15.67715748031496
 20
1.074275590551181
 10
15.68172440944882
 20
1.071893700787402
 10
15.68651968503937
 20
1.069948818897638
 10
15.69154724409449
 20
1.068433070866142
 10
15.6968031496063
 20
1.067354330708661
 10
15.70229133858268
 20
1.066704724409449
 10
15.70800393700787
 20
1.066488188976378
  0
LWPOLYLINE
  5
7B
330
1F
100
AcDbEntity
  8
Layer 1
 62
     7
370
     9
100
AcDbPolyline
 90
      107
 70
     1
 43
0.0
 10
15.93157086614173
 20
1.06948031496063
 10
15.94903937007874
 20
1.06948031496063
 10
15.94903937007874
 20
1.138149606299213
 10
15.94889763779527
 20
1.142708661417323
 10
15.94846850393701
 20
1.147051181102362
 10
15.94775590551181
 20
1.151181102362205
 10
15.94675984251968
 20
1.15509842519685
 10
15.94547637795276
 20
1.158799212598425
 10
15.94391338582677
 20
1.162283464566929
 10
15.94206692913386
 20
1.165555118110236
 10
15.93993700787402
 20
1.168610236220472
 10
15.93747637795276
 20
1.171464566929134
 10
15.93472834645669
 20
1.174015748031496
 10
15.93168110236221
 20
1.176267716535433
 10
15.92833464566929
 20
1.178228346456693
 10
15.92455511811024
 20
1.179811023622047
 10
15.92022047244095
 20
1.18094094488189
 10
15.91532283464567
 20
1.18161811023622
 10
15.90986220472441
 20
1.181846456692913
 10
15.90703937007874
 20
1.181748031496063
 10
15.90430708661417
 20
1.181456692913386
 10
15.90166141732283
 20
1.180972440944882
 10
15.8991062992126
 20
1.180291338582677
 10
15.89664173228346
 20
1.179413385826772
 10
15.89426377952756
 20
1.178342519685039
 10
15.89198031496063
 20
1.17707874015748
 10
15.88978346456693
 20
1.17561811023622
 10
15.88605905511811
 20
1.172590551181102
 10
15.88266929133858
 20
1.169129921259842
 10
15.87962598425197
 20
1.165251968503937
 10
15.87692519685039
 20
1.16096062992126
 10
15.8723188976378
 20
1.168610236220472
 10
15.86985826771654
 20
1.171464566929134
 10
15.8671062992126
 20
1.174015748031496
 10
15.86405905511811
 20
1.176267716535433
 10
15.8607125984252
 20
1.178228346456693
 10
15.85694094488189
 20
1.179811023622047
 10
15.85260236220472
 20
1.18094094488189
 10
15.84770472440945
 20
1.18161811023622
 10
15.84224409448819
 20
1.181846456692913
 10
15.83942125984252
 20
1.181748031496063
 10
15.83668503937008
 20
1.181456692913386
 10
15.83403937007874
 20
1.180972440944882
 10
15.8314842519685
 20
1.180291338582677
 10
15.8290157480315
 20
1.179413385826772
 10
15.82663779527559
 20
1.178342519685039
 10
15.82435039370079
 20
1.17707874015748
 10
15.82215354330709
 20
1.17561811023622
 10
15.81860236220473
 20
1.172740157480315
 10
15.81535826771653
 20
1.169488188976378
 10
15.81242913385827
 20
1.165854330708662
 10
15.80981496062992
 20
1.161834645669291
 10
15.80981496062992
 20
1.179362204724409
 10
15.79234645669291
 20
1.179362204724409
 10
15.79234645669291
 20
1.06948031496063
 10
15.80981496062992
 20
1.06948031496063
 10
15.80981496062992
 20
1.125704724409449
 10
15.81074409448819
 20
1.132129921259843
 10
15.81217716535433
 20
1.138047244094488
 10
15.81411811023622
 20
1.143464566929134
 10
15.81655905511811
 20
1.148393700787402
 10
15.81872047244094
 20
1.151728346456693
 10
15.82122834645669
 20
1.154755905511811
 10
15.82407480314961
 20
1.157472440944882
 10
15.82726771653543
 20
1.159877952755906
 10
15.83070472440945
 20
1.161842519685039
 10
15.83426377952756
 20
1.163248031496063
 10
15.83794488188976
 20
1.164090551181102
 10
15.84174409448819
 20
1.164370078740157
 10
15.84536614173228
 20
1.164220472440945
 10
15.84848818897638
 20
1.163775590551181
 10
15.8511062992126
 20
1.163035433070866
 10
15.85322047244095
 20
1.162007874015748
 10
15.85573622047244
 20
1.160141732283465
 10
15.85791732283464
 20
1.15796062992126
 10
15.85975984251968
 20
1.155456692913386
 10
15.86127165354331
 20
1.152637795275591
 10
15.86244488188976
 20
1.149496062992126
 10
15.86328346456693
 20
1.146031496062992
 10
15.86378346456693
 20
1.142251968503937
 10
15.86395275590551
 20
1.138149606299213
 10
15.86395275590551
 20
1.06948031496063
 10
15.88141732283465
 20
1.06948031496063
 10
15.88141732283465
 20
1.138149606299213
 10
15.8812874015748
 20
1.142350393700788
 10
15.88416141732283
 20
1.148393700787402
 10
15.88633858267717
 20
1.151728346456693
 10
15.88885039370079
 20
1.154755905511811
 10
15.89170078740158
 20
1.157472440944882
 10
15.89488976377953
 20
1.159877952755906
 10
15.89832283464567
 20
1.161842519685039
 10
15.90187795275591
 20
1.163248031496063
 10
15.90555905511811
 20
1.164090551181102
 10
15.90936614173228
 20
1.164370078740157
 10
15.91298818897638
 20
1.164220472440945
 10
15.91611023622047
 20
1.163775590551181
 10
15.91872834645669
 20
1.163035433070866
 10
15.92084251968504
 20
1.162007874015748
 10
15.92335826771654
 20
1.160141732283465
 10
15.92553937007874
 20
1.15796062992126
 10
15.92738188976378
 20
1.155456692913386
 10
15.92888976377953
 20
1.152637795275591
 10
15.93006299212598
 20
1.149496062992126
 10
15.93090157480315
 20
1.146031496062992
 10
15.93140157480315
 20
1.142251968503937
 10
15.93157086614173
 20
1.138149606299213
 10
15.93157086614173
 20
1.06948031496063
  0
LWPOLYLINE
  5
7C
330
1F
100
AcDbEntity
  8
Layer 1
 62
     7
370
     9
100
AcDbPolyline
 90
      107
 70
     1
 43
0.0
 10
16.12195275590551
 20
1.06948031496063
 10
16.13942125984252
 20
1.06948031496063
 10
16.13942125984252
 20
1.138149606299213
 10
16.13927952755905
 20
1.142708661417323
 10
16.13885039370079
 20
1.147051181102362
 10
16.13813779527559
 20
1.151181102362205
 10
16.13714173228346
 20
1.15509842519685
 10
16.13586220472441
 20
1.158799212598425
 10
16.13429921259842
 20
1.162283464566929
 10
16.13244881889764
 20
1.165555118110236
 10
16.1303188976378
 20
1.168610236220472
 10
16.12785826771654
 20
1.171464566929134
 10
16.12510236220472
 20
1.174015748031496
 10
16.12205511811024
 20
1.176267716535433
 10
16.11871653543307
 20
1.178228346456693
 10
16.11493307086614
 20
1.179811023622047
 10
16.11059842519685
 20
1.18094094488189
 10
16.10570078740157
 20
1.18161811023622
 10
16.10024409448819
 20
1.181846456692913
 10
16.09742125984252
 20
1.181748031496063
 10
16.09468897637795
 20
1.181456692913386
 10
16.09204330708661
 20
1.180972440944882
 10
16.08948818897638
 20
1.180291338582677
 10
16.08701968503937
 20
1.179413385826772
 10
16.08464173228347
 20
1.178342519685039
 10
16.08235433070866
 20
1.17707874015748
 10
16.08015354330709
 20
1.17561811023622
 10
16.07643307086614
 20
1.172590551181102
 10
16.07305118110236
 20
1.169129921259842
 10
16.07000787401575
 20
1.165251968503937
 10
16.06731102362205
 20
1.16096062992126
 10
16.06270078740157
 20
1.168610236220472
 10
16.06023622047244
 20
1.171464566929134
 10
16.0574842519685
 20
1.174015748031496
 10
16.05443700787401
 20
1.176267716535433
 10
16.05109448818898
 20
1.178228346456693
 10
16.04731889763779
 20
1.179811023622047
 10
16.04298031496063
 20
1.18094094488189
 10
16.03808267716536
 20
1.18161811023622
 10
16.03262598425197
 20
1.181846456692913
 10
16.0298031496063
 20
1.181748031496063
 10
16.02707086614173
 20
1.181456692913386
 10
16.02442519685039
 20
1.180972440944882
 10
16.02186614173228
 20
1.180291338582677
 10
16.01940157480315
 20
1.179413385826772
 10
16.01702362204724
 20
1.178342519685039
 10
16.01473622047244
 20
1.17707874015748
 10
16.01253543307087
 20
1.17561811023622
 10
16.00898031496063
 20
1.172740157480315
 10
16.00573622047244
 20
1.169488188976378
 10
16.0028031496063
 20
1.165854330708662
 10
16.00018503937008
 20
1.161834645669291
 10
16.00018503937008
 20
1.179362204724409
 10
15.98272834645669
 20
1.179362204724409
 10
15.98272834645669
 20
1.06948031496063
 10
16.00018503937008
 20
1.06948031496063
 10
16.00018503937008
 20
1.125704724409449
 10
16.0011220472441
 20
1.132129921259843
 10
16.00255905511811
 20
1.138047244094488
 10
16.00449606299212
 20
1.143464566929134
 10
16.00693307086614
 20
1.148393700787402
 10
16.00909448818897
 20
1.151728346456693
 10
16.01160236220472
 20
1.154755905511811
 10
16.01445669291338
 20
1.157472440944882
 10
16.01765354330709
 20
1.159877952755906
 10
16.0210905511811
 20
1.161842519685039
 10
16.02464566929134
 20
1.163248031496063
 10
16.02832283464567
 20
1.164090551181102
 10
16.03211811023622
 20
1.164370078740157
 10
16.03573622047244
 20
1.164220472440945
 10
16.03885826771653
 20
1.163775590551181
 10
16.04148031496063
 20
1.163035433070866
 10
16.04360236220472
 20
1.162007874015748
 10
16.04611811023622
 20
1.160141732283465
 10
16.04829921259843
 20
1.15796062992126
 10
16.05014173228346
 20
1.155456692913386
 10
16.05165354330709
 20
1.152637795275591
 10
16.05282677165354
 20
1.149496062992126
 10
16.05366535433071
 20
1.146031496062992
 10
16.05416535433071
 20
1.142251968503937
 10
16.05433464566929
 20
1.138149606299213
 10
16.05433464566929
 20
1.06948031496063
 10
16.0717874015748
 20
1.06948031496063
 10
16.0717874015748
 20
1.138149606299213
 10
16.07166929133858
 20
1.142350393700788
 10
16.07454330708661
 20
1.148393700787402
 10
16.0767125984252
 20
1.151728346456693
 10
16.07922440944882
 20
1.154755905511811
 10
16.08207480314961
 20
1.157472440944882
 10
16.08527165354331
 20
1.159877952755906
 10
16.08870078740157
 20
1.161842519685039
 10
16.09225590551181
 20
1.163248031496063
 10
16.09593700787402
 20
1.164090551181102
 10
16.09973622047244
 20
1.164370078740157
 10
16.10335826771654
 20
1.164220472440945
 10
16.10648031496063
 20
1.163775590551181
 10
16.10910236220472
 20
1.163035433070866
 10
16.11122440944882
 20
1.162007874015748
 10
16.11374015748031
 20
1.160141732283465
 10
16.11592125984252
 20
1.15796062992126
 10
16.11776377952756
 20
1.155456692913386
 10
16.11927165354331
 20
1.152637795275591
 10
16.12044488188976
 20
1.149496062992126
 10
16.12128346456693
 20
1.146031496062992
 10
16.12178346456693
 20
1.142251968503937
 10
16.12195275590551
 20
1.138149606299213
 10
16.12195275590551
 20
1.06948031496063
  0
ENDSEC
  0
SECTION
  2
OBJECTS
  0
DICTIONARY
  5
C
330
0
100
AcDbDictionary
281
     1
  3
ACAD_DETAILVIEWSTYLE
350
84
  3
ACAD_GROUP
350
D
  3
ACAD_LAYOUT
350
1A
  3
ACAD_MATERIAL
350
43
  3
ACAD_MLEADERSTYLE
350
5B
  3
ACAD_MLINESTYLE
350
17
  3
ACAD_PLOTSETTINGS
350
19
  3
ACAD_PLOTSTYLENAME
350
E
  3
ACAD_SCALELIST
350
47
  3
ACAD_SECTIONVIEWSTYLE
350
85
  3
ACAD_TABLESTYLE
350
59
  3
ACAD_VISUALSTYLE
350
2A
  3
ACDB_RECOMPOSE_DATA
350
81
  3
AcDbVariableDictionary
350
7D
  0
SUN
  5
5D
330
29
100
AcDbSun
 90
        1
290
     0
 63
     7
421
 16777215
 40
1.0
291
     1
 91
  2455826
 92
 54000000
292
     0
 70
     2
 71
   256
280
     1
  0
DICTIONARY
  5
84
102
{ACAD_REACTORS
330
C
102
}
330
C
100
AcDbDictionary
281
     1
  0
DICTIONARY
  5
D
102
{ACAD_REACTORS
330
C
102
}
330
C
100
AcDbDictionary
281
     1
  0
DICTIONARY
  5
1A
102
{ACAD_REACTORS
330
C
102
}
330
C
100
AcDbDictionary
281
     1
  3
Layout1
350
1E
  3
Layout2
350
26
  3
Model
350
22
  0
DICTIONARY
  5
43
102
{ACAD_REACTORS
330
C
102
}
330
C
100
AcDbDictionary
281
     1
  3
ByBlock
350
45
  3
ByLayer
350
44
  3
Global
350
46
  0
DICTIONARY
  5
5B
102
{ACAD_REACTORS
330
C
102
}
330
C
100
AcDbDictionary
281
     1
  3
Standard
350
5C
  0
DICTIONARY
  5
17
102
{ACAD_REACTORS
330
C
102
}
330
C
100
AcDbDictionary
281
     1
  3
Standard
350
18
  0
DICTIONARY
  5
19
102
{ACAD_REACTORS
330
C
102
}
330
C
100
AcDbDictionary
281
     1
  0
ACDBDICTIONARYWDFLT
  5
E
102
{ACAD_REACTORS
330
C
102
}
330
C
100
AcDbDictionary
281
     1
  3
Normal
350
F
100
AcDbDictionaryWithDefault
340
F
  0
DICTIONARY
  5
47
102
{ACAD_REACTORS
330
C
102
}
330
C
100
AcDbDictionary
281
     1
  3
A0
350
48
  3
A1
350
49
  3
A2
350
4A
  3
A3
350
4B
  3
A4
350
4C
  3
A5
350
4D
  3
A6
350
4E
  3
A7
350
4F
  3
A8
350
50
  3
A9
350
51
  3
B1
350
52
  3
B2
350
53
  3
B3
350
54
  3
B4
350
55
  3
B5
350
56
  3
B6
350
57
  3
B7
350
58
  0
DICTIONARY
  5
85
102
{ACAD_REACTORS
330
C
102
}
330
C
100
AcDbDictionary
281
     1
  0
DICTIONARY
  5
59
102
{ACAD_REACTORS
330
C
102
}
330
C
100
AcDbDictionary
281
     1
  3
Standard
350
5A
  0
DICTIONARY
  5
2A
102
{ACAD_REACTORS
330
C
102
}
330
C
100
AcDbDictionary
281
     1
  3
2dWireframe
350
2F
  3
Basic
350
32
  3
Brighten
350
36
  3
ColorChange
350
3A
  3
Conceptual
350
34
  3
Dim
350
35
  3
EdgeColorOff
350
3D
  3
Facepattern
350
39
  3
Flat
350
2B
  3
FlatWithEdges
350
2C
  3
Gouraud
350
2D
  3
GouraudWithEdges
350
2E
  3
Hidden
350
31
  3
JitterOff
350
3B
  3
Linepattern
350
38
  3
OverhangOff
350
3C
  3
Realistic
350
33
  3
Shaded
350
42
  3
Shaded with edges
350
41
  3
Shades of Gray
350
3E
  3
Sketchy
350
3F
  3
Thicken
350
37
  3
Wireframe
350
30
  3
X-Ray
350
40
  0
XRECORD
  5
81
102
{ACAD_REACTORS
330
C
102
}
330
C
100
AcDbXrecord
280
     1
 90
        1
330
5A
  0
DICTIONARY
  5
7D
102
{ACAD_REACTORS
330
C
102
}
330
C
100
AcDbDictionary
281
     1
  3
CANNOSCALE
350
7E
  3
CMLEADERSTYLE
350
83
  3
CTABLESTYLE
350
82
  0
LAYOUT
  5
1E
102
{ACAD_REACTORS
330
1A
102
}
330
1A
100
AcDbPlotSettings
  1

  2
none_device
  4

  6

 40
0.0
 41
0.0
 42
0.0
 43
0.0
 44
0.0
 45
0.0
 46
0.0
 47
0.0
 48
0.0
 49
0.0
140
0.0
141
0.0
142
1.0
143
1.0
 70
   688
 72
     0
 73
     0
 74
     5
  7

 75
    16
 76
     0
 77
     2
 78
   300
147
1.0
148
0.0
149
0.0
100
AcDbLayout
  1
Layout1
 70
     1
 71
     1
 10
0.0
 20
0.0
 11
12.0
 21
9.0
 12
0.0
 22
0.0
 32
0.0
 14
1.000000000000000E+20
 24
1.000000000000000E+20
 34
1.000000000000000E+20
 15
-1.000000000000000E+20
 25
-1.000000000000000E+20
 35
-1.000000000000000E+20
146
0.0
 13
0.0
 23
0.0
 33
0.0
 16
1.0
 26
0.0
 36
0.0
 17
0.0
 27
1.0
 37
0.0
 76
     0
330
1B
  0
LAYOUT
  5
26
102
{ACAD_REACTORS
330
1A
102
}
330
1A
100
AcDbPlotSettings
  1

  2
none_device
  4

  6

 40
0.0
 41
0.0
 42
0.0
 43
0.0
 44
0.0
 45
0.0
 46
0.0
 47
0.0
 48
0.0
 49
0.0
140
0.0
141
0.0
142
1.0
143
1.0
 70
   688
 72
     0
 73
     0
 74
     5
  7

 75
    16
 76
     0
 77
     2
 78
   300
147
1.0
148
0.0
149
0.0
100
AcDbLayout
  1
Layout2
 70
     1
 71
     2
 10
0.0
 20
0.0
 11
0.0
 21
0.0
 12
0.0
 22
0.0
 32
0.0
 14
0.0
 24
0.0
 34
0.0
 15
0.0
 25
0.0
 35
0.0
146
0.0
 13
0.0
 23
0.0
 33
0.0
 16
1.0
 26
0.0
 36
0.0
 17
0.0
 27
1.0
 37
0.0
 76
     0
330
23
  0
LAYOUT
  5
22
102
{ACAD_REACTORS
330
1A
102
}
330
1A
100
AcDbPlotSettings
  1

  2
none_device
  4
Letter_(8.50_x_11.00_Inches)
  6

 40
6.35
 41
6.35
 42
6.35000508
 43
6.35000508
 44
215.9
 45
279.4
 46
0.0
 47
0.0
 48
0.0
 49
0.0
140
0.0
141
0.0
142
1.0
143
1.0
 70
  1712
 72
     0
 73
     0
 74
     0
  7

 75
     0
 76
     0
 77
     2
 78
   300
147
1.0
148
0.0
149
0.0
100
AcDbLayout
  1
Model
 70
     1
 71
     0
 10
0.0
 20
0.0
 11
12.0
 21
9.0
 12
0.0
 22
0.0
 32
0.0
 14
15.05925196850394
 24
0.3834803149606299
 34
0.0
 15
25.31831496062992
 25
3.894251968503937
 35
0.0
146
0.0
 13
0.0
 23
0.0
 33
0.0
 16
1.0
 26
0.0
 36
0.0
 17
0.0
 27
1.0
 37
0.0
 76
     0
330
1F
331
29
  0
MATERIAL
  5
45
102
{ACAD_REACTORS
330
43
102
}
330
43
100
AcDbMaterial
  1
ByBlock
 72
     1
 94
      127
  0
MATERIAL
  5
44
102
{ACAD_REACTORS
330
43
102
}
330
43
100
AcDbMaterial
  1
ByLayer
 72
     1
 94
      127
  0
MATERIAL
  5
46
102
{ACAD_REACTORS
330
43
102
}
330
43
100
AcDbMaterial
  1
Global
 72
     1
 94
      127
  0
MLEADERSTYLE
  5
5C
102
{ACAD_REACTORS
330
5B
102
}
330
5B
100
AcDbMLeaderStyle
179
     2
170
     2
171
     1
172
     0
 90
        2
 40
0.0
 41
0.0
173
     1
 91
-1056964608
340
14
 92
       -2
290
     1
 42
0.09
291
     1
 43
0.36
  3
Standard
341
0
 44
0.18
300

342
11
174
     1
178
     6
175
     1
176
     0
 93
-1056964608
 45
0.18
292
     0
297
     0
 46
0.18
343
0
 94
-1056964608
 47
1.0
 49
1.0
140
1.0
293
     1
141
0.0
294
     1
177
     0
142
1.0
295
     0
296
     0
143
0.125
271
     0
272
     9
273
     9
298
     0
  0
MLINESTYLE
  5
18
102
{ACAD_REACTORS
330
17
102
}
330
17
100
AcDbMlineStyle
  2
Standard
 70
     0
  3

 62
   256
 51
90.0
 52
90.0
 71
     2
 49
0.5
 62
   256
  6
BYLAYER
 49
-0.5
 62
   256
  6
BYLAYER
  0
ACDBPLACEHOLDER
  5
F
102
{ACAD_REACTORS
330
E
102
}
330
E
  0
SCALE
  5
48
102
{ACAD_REACTORS
330
47
102
}
330
47
100
AcDbScale
 70
     0
300
1:1
140
1.0
141
1.0
290
     1
  0
SCALE
  5
49
102
{ACAD_REACTORS
330
47
102
}
330
47
100
AcDbScale
 70
     0
300
1/128" = 1'-0"
140
0.0078125
141
12.0
290
     0
  0
SCALE
  5
4A
102
{ACAD_REACTORS
330
47
102
}
330
47
100
AcDbScale
 70
     0
300
1/64" = 1'-0"
140
0.015625
141
12.0
290
     0
  0
SCALE
  5
4B
102
{ACAD_REACTORS
330
47
102
}
330
47
100
AcDbScale
 70
     0
300
1/32" = 1'-0"
140
0.03125
141
12.0
290
     0
  0
SCALE
  5
4C
102
{ACAD_REACTORS
330
47
102
}
330
47
100
AcDbScale
 70
     0
300
1/16" = 1'-0"
140
0.0625
141
12.0
290
     0
  0
SCALE
  5
4D
102
{ACAD_REACTORS
330
47
102
}
330
47
100
AcDbScale
 70
     0
300
3/32" = 1'-0"
140
0.09375
141
12.0
290
     0
  0
SCALE
  5
4E
102
{ACAD_REACTORS
330
47
102
}
330
47
100
AcDbScale
 70
     0
300
1/8" = 1'-0"
140
0.125
141
12.0
290
     0
  0
SCALE
  5
4F
102
{ACAD_REACTORS
330
47
102
}
330
47
100
AcDbScale
 70
     0
300
3/16" = 1'-0"
140
0.1875
141
12.0
290
     0
  0
SCALE
  5
50
102
{ACAD_REACTORS
330
47
102
}
330
47
100
AcDbScale
 70
     0
300
1/4" = 1'-0"
140
0.25
141
12.0
290
     0
  0
SCALE
  5
51
102
{ACAD_REACTORS
330
47
102
}
330
47
100
AcDbScale
 70
     0
300
3/8" = 1'-0"
140
0.375
141
12.0
290
     0
  0
SCALE
  5
52
102
{ACAD_REACTORS
330
47
102
}
330
47
100
AcDbScale
 70
     0
300
1/2" = 1'-0"
140
0.5
141
12.0
290
     0
  0
SCALE
  5
53
102
{ACAD_REACTORS
330
47
102
}
330
47
100
AcDbScale
 70
     0
300
3/4" = 1'-0"
140
0.75
141
12.0
290
     0
  0
SCALE
  5
54
102
{ACAD_REACTORS
330
47
102
}
330
47
100
AcDbScale
 70
     0
300
1" = 1'-0"
140
1.0
141
12.0
290
     0
  0
SCALE
  5
55
102
{ACAD_REACTORS
330
47
102
}
330
47
100
AcDbScale
 70
     0
300
1-1/2" = 1'-0"
140
1.5
141
12.0
290
     0
  0
SCALE
  5
56
102
{ACAD_REACTORS
330
47
102
}
330
47
100
AcDbScale
 70
     0
300
3" = 1'-0"
140
3.0
141
12.0
290
     0
  0
SCALE
  5
57
102
{ACAD_REACTORS
330
47
102
}
330
47
100
AcDbScale
 70
     0
300
6" = 1'-0"
140
6.0
141
12.0
290
     0
  0
SCALE
  5
58
102
{ACAD_REACTORS
330
47
102
}
330
47
100
AcDbScale
 70
     0
300
1'-0" = 1'-0"
140
12.0
141
12.0
290
     0
  0
TABLESTYLE
  5
5A
102
{ACAD_REACTORS
330
59
102
}
102
{ACAD_XDICTIONARY
360
7F
102
}
330
59
100
AcDbTableStyle
  3
Standard
 70
     0
 71
     0
 40
0.06
 41
0.06
280
     0
281
     0
  7
Standard
140
0.18
170
     2
 62
     0
 63
   257
283
     0
 90
        4
 91
        0
  1

274
    -2
284
     1
 64
     0
275
    -2
285
     1
 65
     0
276
    -2
286
     1
 66
     0
277
    -2
287
     1
 67
     0
278
    -2
288
     1
 68
     0
279
    -2
289
     1
 69
     0
  7
Standard
140
0.25
170
     5
 62
     0
 63
   257
283
     0
 90
        4
 91
        0
  1

274
    -2
284
     1
 64
     0
275
    -2
285
     1
 65
     0
276
    -2
286
     1
 66
     0
277
    -2
287
     1
 67
     0
278
    -2
288
     1
 68
     0
279
    -2
289
     1
 69
     0
  7
Standard
140
0.18
170
     5
 62
     0
 63
   257
283
     0
 90
        4
 91
        0
  1

274
    -2
284
     1
 64
     0
275
    -2
285
     1
 65
     0
276
    -2
286
     1
 66
     0
277
    -2
287
     1
 67
     0
278
    -2
288
     1
 68
     0
279
    -2
289
     1
 69
     0
  0
VISUALSTYLE
  5
2F
102
{ACAD_REACTORS
330
2A
102
}
330
2A
100
AcDbVisualStyle
  2
2dWireframe
 70
     4
177
     3
291
     0
 70
    58
 90
        0
176
     1
 90
        2
176
     1
 90
        0
176
     1
 90
        0
176
     1
 40
0.6
176
     1
 40
30.0
176
     1
 62
     7
420
 16777215
176
     1
 90
        1
176
     1
 90
        4
176
     1
 62
     7
176
     1
 62
   257
176
     1
 90
        1
176
     1
 90
        1
176
     1
 40
1.0
176
     1
 90
        0
176
     1
 62
   257
176
     1
 40
1.0
176
     1
 90
        1
176
     1
 90
        6
176
     1
 90
        2
176
     1
 62
     7
176
     1
 90
        5
176
     1
 90
        0
176
     1
 90
        0
176
     1
290
     0
176
     1
 90
        1
176
     1
 40
0.0
176
     1
 90
        0
176
     1
290
     1
176
     1
290
     1
176
     1
290
     0
176
     1
290
     0
176
     1
290
     0
176
     1
290
     0
176
     1
290
     0
176
     1
290
     0
176
     1
290
     0
176
     1
 90
       50
176
     1
 40
0.0
176
     1
 40
1.0
176
     1
 90
        0
176
     1
 62
    18
420
        0
176
     1
 90
       50
176
     1
 90
        3
176
     1
 62
     5
420
      255
176
     1
290
     0
176
     1
 90
       50
176
     1
 90
       50
176
     1
 90
       50
176
     1
290
     0
176
     1
 90
       50
176
     1
 62
   256
176
     0
 40
1.0
176
     0
 90
        2
176
     1
  1
strokes_ogs.tif
176
     1
290
     0
176
     1
 40
1.0
176
     1
 40
1.0
176
     1
  0
VISUALSTYLE
  5
32
102
{ACAD_REACTORS
330
2A
102
}
330
2A
100
AcDbVisualStyle
  2
Basic
 70
     7
177
     3
291
     1
 70
    58
 90
        1
176
     1
 90
        0
176
     1
 90
        1
176
     1
 90
        0
176
     1
 40
0.6
176
     1
 40
30.0
176
     1
 62
     7
420
 16777215
176
     1
 90
        0
176
     1
 90
        4
176
     1
 62
     7
176
     1
 62
   257
176
     1
 90
        1
176
     1
 90
        1
176
     1
 40
1.0
176
     1
 90
        8
176
     1
 62
     7
176
     1
 40
1.0
176
     1
 90
        1
176
     1
 90
        6
176
     1
 90
        2
176
     1
 62
     7
176
     1
 90
        5
176
     1
 90
        0
176
     1
 90
        0
176
     1
290
     0
176
     1
 90
        1
176
     1
 40
0.0
176
     1
 90
        0
176
     1
290
     0
176
     1
290
     1
176
     1
290
     1
176
     1
290
     0
176
     1
290
     0
176
     1
290
     0
176
     1
290
     0
176
     1
290
     0
176
     1
290
     0
176
     1
 90
       50
176
     1
 40
0.0
176
     1
 40
1.0
176
     1
 90
        0
176
     1
 62
    18
420
        0
176
     1
 90
       50
176
     1
 90
        3
176
     1
 62
     5
420
      255
176
     1
290
     0
176
     1
 90
       50
176
     1
 90
       50
176
     1
 90
       50
176
     1
290
     0
176
     1
 90
       50
176
     1
 62
   256
176
     0
 40
1.0
176
     0
 90
        2
176
     1
  1
strokes_ogs.tif
176
     1
290
     0
176
     1
 40
1.0
176
     1
 40
1.0
176
     1
  0
VISUALSTYLE
  5
36
102
{ACAD_REACTORS
330
2A
102
}
330
2A
100
AcDbVisualStyle
  2
Brighten
 70
    12
177
     3
291
     1
 70
    58
 90
        2
176
     1
 90
        2
176
     1
 90
        0
176
     1
 90
        0
176
     1
 40
0.6
176
     1
 40
30.0
176
     1
 62
     7
420
 16777215
176
     1
 90
        1
176
     1
 90
        4
176
     1
 62
     7
176
     1
 62
   257
176
     1
 90
        1
176
     1
 90
        1
176
     1
 40
1.0
176
     1
 90
        8
176
     1
 62
     7
176
     1
 40
1.0
176
     1
 90
        1
176
     1
 90
        6
176
     1
 90
        2
176
     1
 62
     7
176
     1
 90
        5
176
     1
 90
        0
176
     1
 90
        0
176
     1
290
     0
176
     1
 90
        1
176
     1
 40
50.0
176
     1
 90
        0
176
     1
290
     0
176
     1
290
     1
176
     1
290
     1
176
     1
290
     0
176
     1
290
     0
176
     1
290
     0
176
     1
290
     0
176
     1
290
     0
176
     1
290
     0
176
     1
 90
       50
176
     1
 40
0.0
176
     1
 40
1.0
176
     1
 90
        0
176
     1
 62
    18
420
        0
176
     1
 90
       50
176
     1
 90
        3
176
     1
 62
     5
420
      255
176
     1
290
     0
176
     1
 90
       50
176
     1
 90
       50
176
     1
 90
       50
176
     1
290
     0
176
     1
 90
       50
176
     1
 62
   256
176
     0
 40
1.0
176
     0
 90
        2
176
     1
  1
strokes_ogs.tif
176
     1
290
     0
176
     1
 40
1.0
176
     1
 40
1.0
176
     1
  0
VISUALSTYLE
  5
3A
102
{ACAD_REACTORS
330
2A
102
}
330
2A
100
AcDbVisualStyle
  2
ColorChange
 70
    16
177
     3
291
     1
 70
    58
 90
        2
176
     1
 90
        2
176
     1
 90
        3
176
     1
 90
        0
176
     1
 40
0.6
176
     1
 40
30.0
176
     1
 62
     8
420
  8421504
176
     1
 90
        1
176
     1
 90
        4
176
     1
 62
     7
176
     1
 62
   257
176
     1
 90
        1
176
     1
 90
        1
176
     1
 40
1.0
176
     1
 90
        8
176
     1
 62
     8
420
  8421504
176
     1
 40
1.0
176
     1
 90
        1
176
     1
 90
        6
176
     1
 90
        2
176
     1
 62
     7
176
     1
 90
        5
176
     1
 90
        0
176
     1
 90
        0
176
     1
290
     0
176
     1
 90
        1
176
     1
 40
0.0
176
     1
 90
        0
176
     1
290
     0
176
     1
290
     1
176
     1
290
     1
176
     1
290
     0
176
     1
290
     0
176
     1
290
     0
176
     1
290
     0
176
     1
290
     0
176
     1
290
     0
176
     1
 90
       50
176
     1
 40
0.0
176
     1
 40
1.0
176
     1
 90
        0
176
     1
 62
    18
420
        0
176
     1
 90
       50
176
     1
 90
        3
176
     1
 62
     5
420
      255
176
     1
290
     0
176
     1
 90
       50
176
     1
 90
       50
176
     1
 90
       50
176
     1
290
     0
176
     1
 90
       50
176
     1
 62
   256
176
     0
 40
1.0
176
     0
 90
        2
176
     1
  1
strokes_ogs.tif
176
     1
290
     0
176
     1
 40
1.0
176
     1
 40
1.0
176
     1
  0
VISUALSTYLE
  5
34
102
{ACAD_REACTORS
330
2A
102
}
330
2A
100
AcDbVisualStyle
  2
Conceptual
 70
     9
177
     3
291
     0
 70
    58
 90
        3
176
     1
 90
        2
176
     1
 90
        0
176
     1
 90
        0
176
     1
 40
0.6
176
     1
 40
30.0
176
     1
 62
     7
420
 16777215
176
     1
 90
        2
176
     1
 90
        2
176
     1
 62
     7
176
     1
 62
   257
176
     1
 90
        1
176
     1
 90
        1
176
     1
 40
179.0
176
     1
 90
        8
176
     1
 62
     7
176
     1
 40
1.0
176
     1
 90
        1
176
     1
 90
        6
176
     1
 90
        2
176
     1
 62
     7
176
     1
 90
        3
176
     1
 90
        0
176
     1
 90
        0
176
     1
290
     0
176
     1
 90
        1
176
     1
 40
0.0
176
     1
 90
        0
176
     1
290
     0
176
     1
290
     1
176
     1
290
     1
176
     1
290
     0
176
     1
290
     0
176
     1
290
     0
176
     1
290
     0
176
     1
290
     0
176
     1
290
     0
176
     1
 90
       50
176
     1
 40
0.0
176
     1
 40
1.0
176
     1
 90
        0
176
     1
 62
    18
420
        0
176
     1
 90
       50
176
     1
 90
        3
176
     1
 62
     5
420
      255
176
     1
290
     0
176
     1
 90
       50
176
     1
 90
       50
176
     1
 90
       50
176
     1
290
     0
176
     1
 90
       50
176
     1
 62
   256
176
     0
 40
1.0
176
     0
 90
        2
176
     1
  1
strokes_ogs.tif
176
     1
290
     0
176
     1
 40
1.0
176
     1
 40
1.0
176
     1
  0
VISUALSTYLE
  5
35
102
{ACAD_REACTORS
330
2A
102
}
330
2A
100
AcDbVisualStyle
  2
Dim
 70
    11
177
     3
291
     1
 70
    58
 90
        2
176
     1
 90
        2
176
     1
 90
        0
176
     1
 90
        0
176
     1
 40
0.6
176
     1
 40
30.0
176
     1
 62
     7
420
 16777215
176
     1
 90
        1
176
     1
 90
        4
176
     1
 62
     7
176
     1
 62
   257
176
     1
 90
        1
176
     1
 90
        1
176
     1
 40
1.0
176
     1
 90
        8
176
     1
 62
     7
176
     1
 40
1.0
176
     1
 90
        1
176
     1
 90
        6
176
     1
 90
        2
176
     1
 62
     7
176
     1
 90
        5
176
     1
 90
        0
176
     1
 90
        0
176
     1
290
     0
176
     1
 90
        1
176
     1
 40
-50.0
176
     1
 90
        0
176
     1
290
     0
176
     1
290
     1
176
     1
290
     1
176
     1
290
     0
176
     1
290
     0
176
     1
290
     0
176
     1
290
     0
176
     1
290
     0
176
     1
290
     0
176
     1
 90
       50
176
     1
 40
0.0
176
     1
 40
1.0
176
     1
 90
        0
176
     1
 62
    18
420
        0
176
     1
 90
       50
176
     1
 90
        3
176
     1
 62
     5
420
      255
176
     1
290
     0
176
     1
 90
       50
176
     1
 90
       50
176
     1
 90
       50
176
     1
290
     0
176
     1
 90
       50
176
     1
 62
   256
176
     0
 40
1.0
176
     0
 90
        2
176
     1
  1
strokes_ogs.tif
176
     1
290
     0
176
     1
 40
1.0
176
     1
 40
1.0
176
     1
  0
VISUALSTYLE
  5
3D
102
{ACAD_REACTORS
330
2A
102
}
330
2A
100
AcDbVisualStyle
  2
EdgeColorOff
 70
    22
177
     3
291
     1
 70
    58
 90
        2
176
     0
 90
        2
176
     0
 90
        0
176
     0
 90
        0
176
     0
 40
0.6
176
     0
 40
30.0
176
     0
 62
     7
420
 16777215
176
     0
 90
        1
176
     0
 90
        4
176
     0
 62
     7
176
     0
 62
   257
176
     0
 90
        1
176
     0
 90
        1
176
     0
 40
1.0
176
     0
 90
        8
176
     2
 62
     7
176
     0
 40
1.0
176
     0
 90
        1
176
     0
 90
        6
176
     0
 90
        2
176
     0
 62
     7
176
     0
 90
        5
176
     0
 90
        0
176
     0
 90
        0
176
     0
290
     0
176
     0
 90
        1
176
     0
 40
0.0
176
     0
 90
        0
176
     0
290
     0
176
     0
290
     1
176
     0
290
     1
176
     0
290
     0
176
     0
290
     0
176
     0
290
     0
176
     0
290
     0
176
     0
290
     0
176
     0
290
     0
176
     0
 90
       50
176
     0
 40
0.0
176
     0
 40
1.0
176
     0
 90
        0
176
     0
 62
    18
420
        0
176
     0
 90
       50
176
     0
 90
        3
176
     0
 62
     5
420
      255
176
     0
290
     0
176
     0
 90
       50
176
     0
 90
       50
176
     0
 90
       50
176
     0
290
     0
176
     0
 90
       50
176
     0
 62
   256
176
     0
 40
1.0
176
     0
 90
        2
176
     0
  1
strokes_ogs.tif
176
     0
290
     0
176
     0
 40
1.0
176
     0
 40
1.0
176
     0
  0
VISUALSTYLE
  5
39
102
{ACAD_REACTORS
330
2A
102
}
330
2A
100
AcDbVisualStyle
  2
Facepattern
 70
    15
177
     3
291
     1
 70
    58
 90
        2
176
     1
 90
        2
176
     1
 90
        0
176
     1
 90
        0
176
     1
 40
0.6
176
     1
 40
30.0
176
     1
 62
     7
420
 16777215
176
     1
 90
        1
176
     1
 90
        4
176
     1
 62
     7
176
     1
 62
   257
176
     1
 90
        1
176
     1
 90
        1
176
     1
 40
1.0
176
     1
 90
        8
176
     1
 62
     7
176
     1
 40
1.0
176
     1
 90
        1
176
     1
 90
        6
176
     1
 90
        2
176
     1
 62
     7
176
     1
 90
        5
176
     1
 90
        0
176
     1
 90
        0
176
     1
290
     0
176
     1
 90
        1
176
     1
 40
0.0
176
     1
 90
        0
176
     1
290
     0
176
     1
290
     1
176
     1
290
     1
176
     1
290
     0
176
     1
290
     0
176
     1
290
     0
176
     1
290
     0
176
     1
290
     0
176
     1
290
     0
176
     1
 90
       50
176
     1
 40
0.0
176
     1
 40
1.0
176
     1
 90
        0
176
     1
 62
    18
420
        0
176
     1
 90
       50
176
     1
 90
        3
176
     1
 62
     5
420
      255
176
     1
290
     0
176
     1
 90
       50
176
     1
 90
       50
176
     1
 90
       50
176
     1
290
     0
176
     1
 90
       50
176
     1
 62
   256
176
     0
 40
1.0
176
     0
 90
        2
176
     1
  1
strokes_ogs.tif
176
     1
290
     0
176
     1
 40
1.0
176
     1
 40
1.0
176
     1
  0
VISUALSTYLE
  5
2B
102
{ACAD_REACTORS
330
2A
102
}
330
2A
100
AcDbVisualStyle
  2
Flat
 70
     0
177
     3
291
     1
 70
    58
 90
        2
176
     1
 90
        1
176
     1
 90
        1
176
     1
 90
        2
176
     1
 40
0.6
176
     1
 40
30.0
176
     1
 62
     7
420
 16777215
176
     1
 90
        0
176
     1
 90
        0
176
     1
 62
     7
176
     1
 62
   257
176
     1
 90
        1
176
     1
 90
        1
176
     1
 40
1.0
176
     1
 90
        8
176
     1
 62
     7
176
     1
 40
1.0
176
     1
 90
        1
176
     1
 90
        6
176
     1
 90
        2
176
     1
 62
     7
176
     1
 90
        5
176
     1
 90
        0
176
     1
 90
        0
176
     1
290
     0
176
     1
 90
       13
176
     1
 40
0.0
176
     1
 90
        0
176
     1
290
     0
176
     1
290
     1
176
     1
290
     1
176
     1
290
     0
176
     1
290
     0
176
     1
290
     0
176
     1
290
     0
176
     1
290
     0
176
     1
290
     0
176
     1
 90
       50
176
     1
 40
0.0
176
     1
 40
1.0
176
     1
 90
        0
176
     1
 62
    18
420
        0
176
     1
 90
       50
176
     1
 90
        3
176
     1
 62
     5
420
      255
176
     1
290
     0
176
     1
 90
       50
176
     1
 90
       50
176
     1
 90
       50
176
     1
290
     0
176
     1
 90
       50
176
     1
 62
   256
176
     0
 40
1.0
176
     0
 90
        2
176
     1
  1
strokes_ogs.tif
176
     1
290
     0
176
     1
 40
1.0
176
     1
 40
1.0
176
     1
  0
VISUALSTYLE
  5
2C
102
{ACAD_REACTORS
330
2A
102
}
330
2A
100
AcDbVisualStyle
  2
FlatWithEdges
 70
     1
177
     3
291
     1
 70
    58
 90
        2
176
     1
 90
        1
176
     1
 90
        1
176
     1
 90
        2
176
     1
 40
0.6
176
     1
 40
30.0
176
     1
 62
     7
420
 16777215
176
     1
 90
        1
176
     1
 90
        0
176
     1
 62
     7
176
     1
 62
   257
176
     1
 90
        1
176
     1
 90
        1
176
     1
 40
1.0
176
     1
 90
        0
176
     1
 62
   257
176
     1
 40
1.0
176
     1
 90
        1
176
     1
 90
        6
176
     1
 90
        2
176
     1
 62
     7
176
     1
 90
        5
176
     1
 90
        0
176
     1
 90
        0
176
     1
290
     0
176
     1
 90
       13
176
     1
 40
0.0
176
     1
 90
        0
176
     1
290
     0
176
     1
290
     1
176
     1
290
     1
176
     1
290
     0
176
     1
290
     0
176
     1
290
     0
176
     1
290
     0
176
     1
290
     0
176
     1
290
     0
176
     1
 90
       50
176
     1
 40
0.0
176
     1
 40
1.0
176
     1
 90
        0
176
     1
 62
    18
420
        0
176
     1
 90
       50
176
     1
 90
        3
176
     1
 62
     5
420
      255
176
     1
290
     0
176
     1
 90
       50
176
     1
 90
       50
176
     1
 90
       50
176
     1
290
     0
176
     1
 90
       50
176
     1
 62
   256
176
     0
 40
1.0
176
     0
 90
        2
176
     1
  1
strokes_ogs.tif
176
     1
290
     0
176
     1
 40
1.0
176
     1
 40
1.0
176
     1
  0
VISUALSTYLE
  5
2D
102
{ACAD_REACTORS
330
2A
102
}
330
2A
100
AcDbVisualStyle
  2
Gouraud
 70
     2
177
     3
291
     1
 70
    58
 90
        2
176
     1
 90
        2
176
     1
 90
        1
176
     1
 90
        2
176
     1
 40
0.6
176
     1
 40
30.0
176
     1
 62
     7
420
 16777215
176
     1
 90
        0
176
     1
 90
        0
176
     1
 62
     7
176
     1
 62
   257
176
     1
 90
        1
176
     1
 90
        1
176
     1
 40
1.0
176
     1
 90
        0
176
     1
 62
     7
176
     1
 40
1.0
176
     1
 90
        1
176
     1
 90
        6
176
     1
 90
        2
176
     1
 62
     7
176
     1
 90
        5
176
     1
 90
        0
176
     1
 90
        0
176
     1
290
     0
176
     1
 90
       13
176
     1
 40
0.0
176
     1
 90
        0
176
     1
290
     0
176
     1
290
     1
176
     1
290
     1
176
     1
290
     0
176
     1
290
     0
176
     1
290
     0
176
     1
290
     0
176
     1
290
     0
176
     1
290
     0
176
     1
 90
       50
176
     1
 40
0.0
176
     1
 40
1.0
176
     1
 90
        0
176
     1
 62
    18
420
        0
176
     1
 90
       50
176
     1
 90
        3
176
     1
 62
     5
420
      255
176
     1
290
     0
176
     1
 90
       50
176
     1
 90
       50
176
     1
 90
       50
176
     1
290
     0
176
     1
 90
       50
176
     1
 62
   256
176
     0
 40
1.0
176
     0
 90
        2
176
     1
  1
strokes_ogs.tif
176
     1
290
     0
176
     1
 40
1.0
176
     1
 40
1.0
176
     1
  0
VISUALSTYLE
  5
2E
102
{ACAD_REACTORS
330
2A
102
}
330
2A
100
AcDbVisualStyle
  2
GouraudWithEdges
 70
     3
177
     3
291
     1
 70
    58
 90
        2
176
     1
 90
        2
176
     1
 90
        1
176
     1
 90
        2
176
     1
 40
0.6
176
     1
 40
30.0
176
     1
 62
     7
420
 16777215
176
     1
 90
        1
176
     1
 90
        0
176
     1
 62
     7
176
     1
 62
   257
176
     1
 90
        1
176
     1
 90
        1
176
     1
 40
1.0
176
     1
 90
        0
176
     1
 62
   257
176
     1
 40
1.0
176
     1
 90
        1
176
     1
 90
        6
176
     1
 90
        2
176
     1
 62
     7
176
     1
 90
        5
176
     1
 90
        0
176
     1
 90
        0
176
     1
290
     0
176
     1
 90
       13
176
     1
 40
0.0
176
     1
 90
        0
176
     1
290
     0
176
     1
290
     1
176
     1
290
     1
176
     1
290
     0
176
     1
290
     0
176
     1
290
     0
176
     1
290
     0
176
     1
290
     0
176
     1
290
     0
176
     1
 90
       50
176
     1
 40
0.0
176
     1
 40
1.0
176
     1
 90
        0
176
     1
 62
    18
420
        0
176
     1
 90
       50
176
     1
 90
        3
176
     1
 62
     5
420
      255
176
     1
290
     0
176
     1
 90
       50
176
     1
 90
       50
176
     1
 90
       50
176
     1
290
     0
176
     1
 90
       50
176
     1
 62
   256
176
     0
 40
1.0
176
     0
 90
        2
176
     1
  1
strokes_ogs.tif
176
     1
290
     0
176
     1
 40
1.0
176
     1
 40
1.0
176
     1
  0
VISUALSTYLE
  5
31
102
{ACAD_REACTORS
330
2A
102
}
330
2A
100
AcDbVisualStyle
  2
Hidden
 70
     6
177
     3
291
     0
 70
    58
 90
        1
176
     1
 90
        2
176
     1
 90
        2
176
     1
 90
        0
176
     1
 40
0.6
176
     1
 40
30.0
176
     1
 62
     7
420
 16777215
176
     1
 90
        2
176
     1
 90
        2
176
     1
 62
     7
176
     1
 62
   257
176
     1
 90
        2
176
     1
 90
        1
176
     1
 40
40.0
176
     1
 90
        0
176
     1
 62
   257
176
     1
 40
1.0
176
     1
 90
        1
176
     1
 90
        6
176
     1
 90
        2
176
     1
 62
     7
176
     1
 90
        3
176
     1
 90
        0
176
     1
 90
        0
176
     1
290
     0
176
     1
 90
        1
176
     1
 40
0.0
176
     1
 90
        0
176
     1
290
     0
176
     1
290
     1
176
     1
290
     1
176
     1
290
     0
176
     1
290
     0
176
     1
290
     0
176
     1
290
     0
176
     1
290
     0
176
     1
290
     0
176
     1
 90
       50
176
     1
 40
0.0
176
     1
 40
1.0
176
     1
 90
        0
176
     1
 62
    18
420
        0
176
     1
 90
       50
176
     1
 90
        3
176
     1
 62
     5
420
      255
176
     1
290
     0
176
     1
 90
       50
176
     1
 90
       50
176
     1
 90
       50
176
     1
290
     0
176
     1
 90
       50
176
     1
 62
   256
176
     0
 40
1.0
176
     0
 90
        2
176
     1
  1
strokes_ogs.tif
176
     1
290
     0
176
     1
 40
1.0
176
     1
 40
1.0
176
     1
  0
VISUALSTYLE
  5
3B
102
{ACAD_REACTORS
330
2A
102
}
330
2A
100
AcDbVisualStyle
  2
JitterOff
 70
    20
177
     3
291
     1
 70
    58
 90
        2
176
     0
 90
        2
176
     0
 90
        0
176
     0
 90
        0
176
     0
 40
0.6
176
     0
 40
30.0
176
     0
 62
     7
420
 16777215
176
     0
 90
        1
176
     0
 90
        4
176
     0
 62
     7
176
     0
 62
   257
176
     0
 90
        1
176
     0
 90
        1
176
     0
 40
1.0
176
     0
 90
       10
176
     2
 62
     7
176
     0
 40
1.0
176
     0
 90
        1
176
     0
 90
        6
176
     0
 90
        2
176
     0
 62
     7
176
     0
 90
        5
176
     0
 90
        0
176
     0
 90
        0
176
     0
290
     0
176
     0
 90
        1
176
     0
 40
0.0
176
     0
 90
        0
176
     0
290
     0
176
     0
290
     1
176
     0
290
     1
176
     0
290
     0
176
     0
290
     0
176
     0
290
     0
176
     0
290
     0
176
     0
290
     0
176
     0
290
     0
176
     0
 90
       50
176
     0
 40
0.0
176
     0
 40
1.0
176
     0
 90
        0
176
     0
 62
    18
420
        0
176
     0
 90
       50
176
     0
 90
        3
176
     0
 62
     5
420
      255
176
     0
290
     0
176
     0
 90
       50
176
     0
 90
       50
176
     0
 90
       50
176
     0
290
     0
176
     0
 90
       50
176
     0
 62
   256
176
     0
 40
1.0
176
     0
 90
        2
176
     0
  1
strokes_ogs.tif
176
     0
290
     0
176
     0
 40
1.0
176
     0
 40
1.0
176
     0
  0
VISUALSTYLE
  5
38
102
{ACAD_REACTORS
330
2A
102
}
330
2A
100
AcDbVisualStyle
  2
Linepattern
 70
    14
177
     3
291
     1
 70
    58
 90
        2
176
     1
 90
        2
176
     1
 90
        0
176
     1
 90
        0
176
     1
 40
0.6
176
     1
 40
30.0
176
     1
 62
     7
420
 16777215
176
     1
 90
        1
176
     1
 90
        4
176
     1
 62
     7
176
     1
 62
   257
176
     1
 90
        7
176
     1
 90
        7
176
     1
 40
1.0
176
     1
 90
        8
176
     1
 62
     7
176
     1
 40
1.0
176
     1
 90
        1
176
     1
 90
        6
176
     1
 90
        2
176
     1
 62
     7
176
     1
 90
        5
176
     1
 90
        0
176
     1
 90
        0
176
     1
290
     0
176
     1
 90
        1
176
     1
 40
0.0
176
     1
 90
        0
176
     1
290
     0
176
     1
290
     1
176
     1
290
     1
176
     1
290
     0
176
     1
290
     0
176
     1
290
     0
176
     1
290
     0
176
     1
290
     0
176
     1
290
     0
176
     1
 90
       50
176
     1
 40
0.0
176
     1
 40
1.0
176
     1
 90
        0
176
     1
 62
    18
420
        0
176
     1
 90
       50
176
     1
 90
        3
176
     1
 62
     5
420
      255
176
     1
290
     0
176
     1
 90
       50
176
     1
 90
       50
176
     1
 90
       50
176
     1
290
     0
176
     1
 90
       50
176
     1
 62
   256
176
     0
 40
1.0
176
     0
 90
        2
176
     1
  1
strokes_ogs.tif
176
     1
290
     0
176
     1
 40
1.0
176
     1
 40
1.0
176
     1
  0
VISUALSTYLE
  5
3C
102
{ACAD_REACTORS
330
2A
102
}
330
2A
100
AcDbVisualStyle
  2
OverhangOff
 70
    21
177
     3
291
     1
 70
    58
 90
        2
176
     0
 90
        2
176
     0
 90
        0
176
     0
 90
        0
176
     0
 40
0.6
176
     0
 40
30.0
176
     0
 62
     7
420
 16777215
176
     0
 90
        1
176
     0
 90
        4
176
     0
 62
     7
176
     0
 62
   257
176
     0
 90
        1
176
     0
 90
        1
176
     0
 40
1.0
176
     0
 90
        9
176
     2
 62
     7
176
     0
 40
1.0
176
     0
 90
        1
176
     0
 90
        6
176
     0
 90
        2
176
     0
 62
     7
176
     0
 90
        5
176
     0
 90
        0
176
     0
 90
        0
176
     0
290
     0
176
     0
 90
        1
176
     0
 40
0.0
176
     0
 90
        0
176
     0
290
     0
176
     0
290
     1
176
     0
290
     1
176
     0
290
     0
176
     0
290
     0
176
     0
290
     0
176
     0
290
     0
176
     0
290
     0
176
     0
290
     0
176
     0
 90
       50
176
     0
 40
0.0
176
     0
 40
1.0
176
     0
 90
        0
176
     0
 62
    18
420
        0
176
     0
 90
       50
176
     0
 90
        3
176
     0
 62
     5
420
      255
176
     0
290
     0
176
     0
 90
       50
176
     0
 90
       50
176
     0
 90
       50
176
     0
290
     0
176
     0
 90
       50
176
     0
 62
   256
176
     0
 40
1.0
176
     0
 90
        2
176
     0
  1
strokes_ogs.tif
176
     0
290
     0
176
     0
 40
1.0
176
     0
 40
1.0
176
     0
  0
VISUALSTYLE
  5
33
102
{ACAD_REACTORS
330
2A
102
}
330
2A
100
AcDbVisualStyle
  2
Realistic
 70
     8
177
     3
291
     0
 70
    58
 90
        2
176
     1
 90
        3
176
     1
 90
        0
176
     1
 90
        2
176
     1
 40
0.6
176
     1
 40
30.0
176
     1
 62
     7
420
 16777215
176
     1
 90
        0
176
     1
 90
        0
176
     1
 62
     7
176
     1
 62
   257
176
     1
 90
        1
176
     1
 90
        1
176
     1
 40
1.0
176
     1
 90
        8
176
     1
 62
   257
176
     1
 40
1.0
176
     1
 90
        1
176
     1
 90
        6
176
     1
 90
        2
176
     1
 62
     7
176
     1
 90
        3
176
     1
 90
        0
176
     1
 90
        0
176
     1
290
     0
176
     1
 90
       13
176
     1
 40
0.0
176
     1
 90
        0
176
     1
290
     0
176
     1
290
     1
176
     1
290
     1
176
     1
290
     0
176
     1
290
     0
176
     1
290
     0
176
     1
290
     0
176
     1
290
     0
176
     1
290
     0
176
     1
 90
       50
176
     1
 40
0.0
176
     1
 40
1.0
176
     1
 90
        0
176
     1
 62
    18
420
        0
176
     1
 90
       50
176
     1
 90
        3
176
     1
 62
     5
420
      255
176
     1
290
     0
176
     1
 90
       50
176
     1
 90
       50
176
     1
 90
       50
176
     1
290
     0
176
     1
 90
       50
176
     1
 62
   256
176
     0
 40
1.0
176
     0
 90
        2
176
     1
  1
strokes_ogs.tif
176
     1
290
     0
176
     1
 40
1.0
176
     1
 40
1.0
176
     1
  0
VISUALSTYLE
  5
42
102
{ACAD_REACTORS
330
2A
102
}
330
2A
100
AcDbVisualStyle
  2
Shaded
 70
    27
177
     3
291
     0
 70
    58
 90
        2
176
     1
 90
        2
176
     1
 90
        1
176
     1
 90
        2
176
     1
 40
0.6
176
     1
 40
30.0
176
     1
 62
     7
420
 16777215
176
     1
 90
        0
176
     1
 90
        4
176
     1
 62
     7
176
     1
 62
   257
176
     1
 90
        1
176
     1
 90
        1
176
     1
 40
1.0
176
     1
 90
        8
176
     1
 62
   257
176
     1
 40
1.0
176
     1
 90
        1
176
     1
 90
        6
176
     1
 90
        2
176
     1
 62
     8
420
  7895160
176
     1
 90
        3
176
     1
 90
        0
176
     1
 90
        0
176
     1
290
     0
176
     1
 90
        5
176
     1
 40
0.0
176
     1
 90
        0
176
     1
290
     0
176
     1
290
     1
176
     1
290
     1
176
     1
290
     0
176
     1
290
     0
176
     1
290
     0
176
     1
290
     0
176
     1
290
     0
176
     1
290
     0
176
     1
 90
       50
176
     1
 40
0.0
176
     1
 40
1.0
176
     1
 90
        0
176
     1
 62
    18
420
        0
176
     1
 90
       50
176
     1
 90
        3
176
     1
 62
     5
420
      255
176
     1
290
     0
176
     1
 90
       50
176
     1
 90
       50
176
     1
 90
       50
176
     1
290
     0
176
     1
 90
       50
176
     1
 62
   256
176
     0
 40
1.0
176
     0
 90
        2
176
     1
  1
strokes_ogs.tif
176
     1
290
     0
176
     1
 40
1.0
176
     1
 40
1.0
176
     1
  0
VISUALSTYLE
  5
41
102
{ACAD_REACTORS
330
2A
102
}
330
2A
100
AcDbVisualStyle
  2
Shaded with edges
 70
    26
177
     3
291
     0
 70
    58
 90
        2
176
     1
 90
        2
176
     1
 90
        1
176
     1
 90
        2
176
     1
 40
0.6
176
     1
 40
30.0
176
     1
 62
     7
420
 16777215
176
     1
 90
        1
176
     1
 90
       10
176
     1
 62
     7
176
     1
 62
   257
176
     1
 90
        2
176
     1
 90
        1
176
     1
 40
1.0
176
     1
 90
        8
176
     1
 62
   257
176
     1
 40
1.0
176
     1
 90
        1
176
     1
 90
        6
176
     1
 90
        2
176
     1
 62
     7
176
     1
 90
        3
176
     1
 90
        0
176
     1
 90
        0
176
     1
290
     0
176
     1
 90
        5
176
     1
 40
0.0
176
     1
 90
        0
176
     1
290
     0
176
     1
290
     1
176
     1
290
     1
176
     1
290
     0
176
     1
290
     0
176
     1
290
     0
176
     1
290
     0
176
     1
290
     0
176
     1
290
     0
176
     1
 90
       50
176
     1
 40
0.0
176
     1
 40
1.0
176
     1
 90
        0
176
     1
 62
    18
420
        0
176
     1
 90
       50
176
     1
 90
        3
176
     1
 62
     5
420
      255
176
     1
290
     0
176
     1
 90
       50
176
     1
 90
       50
176
     1
 90
       50
176
     1
290
     0
176
     1
 90
       50
176
     1
 62
   256
176
     0
 40
1.0
176
     0
 90
        2
176
     1
  1
strokes_ogs.tif
176
     1
290
     0
176
     1
 40
1.0
176
     1
 40
1.0
176
     1
  0
VISUALSTYLE
  5
3E
102
{ACAD_REACTORS
330
2A
102
}
330
2A
100
AcDbVisualStyle
  2
Shades of Gray
 70
    23
177
     3
291
     0
 70
    58
 90
        2
176
     1
 90
        2
176
     1
 90
        3
176
     1
 90
        0
176
     1
 40
0.6
176
     1
 40
30.0
176
     1
 62
     7
420
 16777215
176
     1
 90
        2
176
     1
 90
        2
176
     1
 62
     7
176
     1
 62
     7
176
     1
 90
        1
176
     1
 90
        1
176
     1
 40
40.0
176
     1
 90
        8
176
     1
 62
     7
176
     1
 40
1.0
176
     1
 90
        1
176
     1
 90
        6
176
     1
 90
        2
176
     1
 62
     7
176
     1
 90
        3
176
     1
 90
        0
176
     1
 90
        0
176
     1
290
     0
176
     1
 90
        1
176
     1
 40
0.0
176
     1
 90
        0
176
     1
290
     0
176
     1
290
     1
176
     1
290
     1
176
     1
290
     0
176
     1
290
     0
176
     1
290
     0
176
     1
290
     0
176
     1
290
     0
176
     1
290
     0
176
     1
 90
       50
176
     1
 40
0.0
176
     1
 40
1.0
176
     1
 90
        0
176
     1
 62
    18
420
        0
176
     1
 90
       50
176
     1
 90
        3
176
     1
 62
     5
420
      255
176
     1
290
     0
176
     1
 90
       50
176
     1
 90
       50
176
     1
 90
       50
176
     1
290
     0
176
     1
 90
       50
176
     1
 62
   256
176
     0
 40
1.0
176
     0
 90
        2
176
     1
  1
strokes_ogs.tif
176
     1
290
     0
176
     1
 40
1.0
176
     1
 40
1.0
176
     1
  0
VISUALSTYLE
  5
3F
102
{ACAD_REACTORS
330
2A
102
}
330
2A
100
AcDbVisualStyle
  2
Sketchy
 70
    24
177
     3
291
     0
 70
    58
 90
        1
176
     1
 90
        2
176
     1
 90
        2
176
     1
 90
        0
176
     1
 40
0.6
176
     1
 40
30.0
176
     1
 62
     7
420
 16777215
176
     1
 90
        2
176
     1
 90
        2
176
     1
 62
     7
176
     1
 62
     7
176
     1
 90
        1
176
     1
 90
        1
176
     1
 40
40.0
176
     1
 90
       11
176
     1
 62
     7
176
     1
 40
1.0
176
     1
 90
        1
176
     1
 90
        6
176
     1
 90
        2
176
     1
 62
     7
176
     1
 90
        6
176
     1
 90
        0
176
     1
 90
        0
176
     1
290
     0
176
     1
 90
        1
176
     1
 40
0.0
176
     1
 90
        0
176
     1
290
     0
176
     1
290
     1
176
     1
290
     1
176
     1
290
     0
176
     1
290
     0
176
     1
290
     0
176
     1
290
     0
176
     1
290
     0
176
     1
290
     0
176
     1
 90
       50
176
     1
 40
0.0
176
     1
 40
1.0
176
     1
 90
        0
176
     1
 62
    18
420
        0
176
     1
 90
       50
176
     1
 90
        3
176
     1
 62
     5
420
      255
176
     1
290
     0
176
     1
 90
       50
176
     1
 90
       50
176
     1
 90
       50
176
     1
290
     0
176
     1
 90
       50
176
     1
 62
   256
176
     0
 40
1.0
176
     0
 90
        2
176
     1
  1
strokes_ogs.tif
176
     1
290
     0
176
     1
 40
1.0
176
     1
 40
1.0
176
     1
  0
VISUALSTYLE
  5
37
102
{ACAD_REACTORS
330
2A
102
}
330
2A
100
AcDbVisualStyle
  2
Thicken
 70
    13
177
     3
291
     1
 70
    58
 90
        2
176
     1
 90
        2
176
     1
 90
        0
176
     1
 90
        0
176
     1
 40
0.6
176
     1
 40
30.0
176
     1
 62
     7
420
 16777215
176
     1
 90
        1
176
     1
 90
        4
176
     1
 62
     7
176
     1
 62
   257
176
     1
 90
        1
176
     1
 90
        1
176
     1
 40
1.0
176
     1
 90
       12
176
     1
 62
     7
176
     1
 40
1.0
176
     1
 90
        1
176
     1
 90
        6
176
     1
 90
        2
176
     1
 62
     7
176
     1
 90
        5
176
     1
 90
        0
176
     1
 90
        0
176
     1
290
     0
176
     1
 90
        1
176
     1
 40
0.0
176
     1
 90
        0
176
     1
290
     0
176
     1
290
     1
176
     1
290
     1
176
     1
290
     0
176
     1
290
     0
176
     1
290
     0
176
     1
290
     0
176
     1
290
     0
176
     1
290
     0
176
     1
 90
       50
176
     1
 40
0.0
176
     1
 40
1.0
176
     1
 90
        0
176
     1
 62
    18
420
        0
176
     1
 90
       50
176
     1
 90
        3
176
     1
 62
     5
420
      255
176
     1
290
     0
176
     1
 90
       50
176
     1
 90
       50
176
     1
 90
       50
176
     1
290
     0
176
     1
 90
       50
176
     1
 62
   256
176
     0
 40
1.0
176
     0
 90
        2
176
     1
  1
strokes_ogs.tif
176
     1
290
     0
176
     1
 40
1.0
176
     1
 40
1.0
176
     1
  0
VISUALSTYLE
  5
30
102
{ACAD_REACTORS
330
2A
102
}
330
2A
100
AcDbVisualStyle
  2
Wireframe
 70
     5
177
     3
291
     0
 70
    58
 90
        0
176
     1
 90
        2
176
     1
 90
        0
176
     1
 90
        0
176
     1
 40
0.6
176
     1
 40
30.0
176
     1
 62
     7
420
 16777215
176
     1
 90
        1
176
     1
 90
        4
176
     1
 62
     7
176
     1
 62
   257
176
     1
 90
        1
176
     1
 90
        1
176
     1
 40
1.0
176
     1
 90
        0
176
     1
 62
   257
176
     1
 40
1.0
176
     1
 90
        1
176
     1
 90
        6
176
     1
 90
        2
176
     1
 62
     7
176
     1
 90
        3
176
     1
 90
        0
176
     1
 90
        0
176
     1
290
     0
176
     1
 90
        1
176
     1
 40
0.0
176
     1
 90
        0
176
     1
290
     0
176
     1
290
     1
176
     1
290
     1
176
     1
290
     0
176
     1
290
     0
176
     1
290
     0
176
     1
290
     0
176
     1
290
     0
176
     1
290
     0
176
     1
 90
       50
176
     1
 40
0.0
176
     1
 40
1.0
176
     1
 90
        0
176
     1
 62
    18
420
        0
176
     1
 90
       50
176
     1
 90
        3
176
     1
 62
     5
420
      255
176
     1
290
     0
176
     1
 90
       50
176
     1
 90
       50
176
     1
 90
       50
176
     1
290
     0
176
     1
 90
       50
176
     1
 62
   256
176
     0
 40
1.0
176
     0
 90
        2
176
     1
  1
strokes_ogs.tif
176
     1
290
     0
176
     1
 40
1.0
176
     1
 40
1.0
176
     1
  0
VISUALSTYLE
  5
40
102
{ACAD_REACTORS
330
2A
102
}
330
2A
100
AcDbVisualStyle
  2
X-Ray
 70
    25
177
     3
291
     0
 70
    58
 90
        2
176
     1
 90
        2
176
     1
 90
        1
176
     1
 90
        1
176
     1
 40
0.5
176
     1
 40
30.0
176
     1
 62
     7
420
 16777215
176
     1
 90
        1
176
     1
 90
        0
176
     1
 62
     7
176
     1
 62
   257
176
     1
 90
        1
176
     1
 90
        1
176
     1
 40
1.0
176
     1
 90
        8
176
     1
 62
     7
176
     1
 40
1.0
176
     1
 90
        1
176
     1
 90
        6
176
     1
 90
        2
176
     1
 62
     7
176
     1
 90
        3
176
     1
 90
        0
176
     1
 90
        0
176
     1
290
     0
176
     1
 90
       13
176
     1
 40
0.0
176
     1
 90
        0
176
     1
290
     0
176
     1
290
     1
176
     1
290
     1
176
     1
290
     0
176
     1
290
     0
176
     1
290
     0
176
     1
290
     0
176
     1
290
     0
176
     1
290
     0
176
     1
 90
       50
176
     1
 40
0.0
176
     1
 40
1.0
176
     1
 90
        0
176
     1
 62
    18
420
        0
176
     1
 90
       50
176
     1
 90
        3
176
     1
 62
     5
420
      255
176
     1
290
     0
176
     1
 90
       50
176
     1
 90
       50
176
     1
 90
       50
176
     1
290
     0
176
     1
 90
       50
176
     1
 62
   256
176
     0
 40
1.0
176
     0
 90
        2
176
     1
  1
strokes_ogs.tif
176
     1
290
     0
176
     1
 40
1.0
176
     1
 40
1.0
176
     1
  0
DICTIONARYVAR
  5
7E
102
{ACAD_REACTORS
330
7D
102
}
330
7D
100
DictionaryVariables
280
     0
  1
1:1
  0
DICTIONARYVAR
  5
83
102
{ACAD_REACTORS
330
7D
102
}
330
7D
100
DictionaryVariables
280
     0
  1
Standard
  0
DICTIONARYVAR
  5
82
102
{ACAD_REACTORS
330
7D
102
}
330
7D
100
DictionaryVariables
280
     0
  1
Standard
  0
DICTIONARY
  5
7F
330
5A
100
AcDbDictionary
280
     1
281
     1
  3
ACAD_ROUNDTRIP_2008_TABLESTYLE_CELLSTYLEMAP
360
80
  0
CELLSTYLEMAP
  5
80
102
{ACAD_REACTORS
330
7F
102
}
330
7F
100
AcDbCellStyleMap
 90
        3
300
CELLSTYLE
  1
TABLEFORMAT_BEGIN
 90
        5
170
     1
 91
        0
 92
    32768
 62
   257
 93
        1
300
CONTENTFORMAT
  1
CONTENTFORMAT_BEGIN
 90
        0
 91
        0
 92
        4
 93
        0
300

 40
0.0
140
1.0
 94
        5
 62
     0
340
11
144
0.25
309
CONTENTFORMAT_END
171
     1
301
MARGIN
  1
CELLMARGIN_BEGIN
 40
0.06
 40
0.06
 40
0.06
 40
0.06
 40
0.06
 40
0.06
309
CELLMARGIN_END
 94
        6
 95
        1
302
GRIDFORMAT
  1
GRIDFORMAT_BEGIN
 90
        0
 91
        1
 62
     0
 92
       -2
340
14
 93
        0
 40
0.045
309
GRIDFORMAT_END
 95
        2
302
GRIDFORMAT
  1
GRIDFORMAT_BEGIN
 90
        0
 91
        1
 62
     0
 92
       -2
340
14
 93
        0
 40
0.045
309
GRIDFORMAT_END
 95
        4
302
GRIDFORMAT
  1
GRIDFORMAT_BEGIN
 90
        0
 91
        1
 62
     0
 92
       -2
340
14
 93
        0
 40
0.045
309
GRIDFORMAT_END
 95
        8
302
GRIDFORMAT
  1
GRIDFORMAT_BEGIN
 90
        0
 91
        1
 62
     0
 92
       -2
340
14
 93
        0
 40
0.045
309
GRIDFORMAT_END
 95
       16
302
GRIDFORMAT
  1
GRIDFORMAT_BEGIN
 90
        0
 91
        1
 62
     0
 92
       -2
340
14
 93
        0
 40
0.045
309
GRIDFORMAT_END
 95
       32
302
GRIDFORMAT
  1
GRIDFORMAT_BEGIN
 90
        0
 91
        1
 62
     0
 92
       -2
340
14
 93
        0
 40
0.045
309
GRIDFORMAT_END
309
TABLEFORMAT_END
  1
CELLSTYLE_BEGIN
 90
        1
 91
        1
300
_TITLE
309
CELLSTYLE_END
300
CELLSTYLE
  1
TABLEFORMAT_BEGIN
 90
        5
170
     1
 91
        0
 92
        0
 62
   257
 93
        1
300
CONTENTFORMAT
  1
CONTENTFORMAT_BEGIN
 90
        0
 91
        0
 92
        4
 93
        0
300

 40
0.0
140
1.0
 94
        5
 62
     0
340
11
144
0.18
309
CONTENTFORMAT_END
171
     1
301
MARGIN
  1
CELLMARGIN_BEGIN
 40
0.06
 40
0.06
 40
0.06
 40
0.06
 40
0.06
 40
0.06
309
CELLMARGIN_END
 94
        6
 95
        1
302
GRIDFORMAT
  1
GRIDFORMAT_BEGIN
 90
        0
 91
        1
 62
     0
 92
       -2
340
14
 93
        0
 40
0.045
309
GRIDFORMAT_END
 95
        2
302
GRIDFORMAT
  1
GRIDFORMAT_BEGIN
 90
        0
 91
        1
 62
     0
 92
       -2
340
14
 93
        0
 40
0.045
309
GRIDFORMAT_END
 95
        4
302
GRIDFORMAT
  1
GRIDFORMAT_BEGIN
 90
        0
 91
        1
 62
     0
 92
       -2
340
14
 93
        0
 40
0.045
309
GRIDFORMAT_END
 95
        8
302
GRIDFORMAT
  1
GRIDFORMAT_BEGIN
 90
        0
 91
        1
 62
     0
 92
       -2
340
14
 93
        0
 40
0.045
309
GRIDFORMAT_END
 95
       16
302
GRIDFORMAT
  1
GRIDFORMAT_BEGIN
 90
        0
 91
        1
 62
     0
 92
       -2
340
14
 93
        0
 40
0.045
309
GRIDFORMAT_END
 95
       32
302
GRIDFORMAT
  1
GRIDFORMAT_BEGIN
 90
        0
 91
        1
 62
     0
 92
       -2
340
14
 93
        0
 40
0.045
309
GRIDFORMAT_END
309
TABLEFORMAT_END
  1
CELLSTYLE_BEGIN
 90
        2
 91
        1
300
_HEADER
309
CELLSTYLE_END
300
CELLSTYLE
  1
TABLEFORMAT_BEGIN
 90
        5
170
     1
 91
        0
 92
        0
 62
   257
 93
        1
300
CONTENTFORMAT
  1
CONTENTFORMAT_BEGIN
 90
        0
 91
        0
 92
        4
 93
        0
300

 40
0.0
140
1.0
 94
        2
 62
     0
340
11
144
0.18
309
CONTENTFORMAT_END
171
     1
301
MARGIN
  1
CELLMARGIN_BEGIN
 40
0.06
 40
0.06
 40
0.06
 40
0.06
 40
0.06
 40
0.06
309
CELLMARGIN_END
 94
        6
 95
        1
302
GRIDFORMAT
  1
GRIDFORMAT_BEGIN
 90
        0
 91
        1
 62
     0
 92
       -2
340
14
 93
        0
 40
0.045
309
GRIDFORMAT_END
 95
        2
302
GRIDFORMAT
  1
GRIDFORMAT_BEGIN
 90
        0
 91
        1
 62
     0
 92
       -2
340
14
 93
        0
 40
0.045
309
GRIDFORMAT_END
 95
        4
302
GRIDFORMAT
  1
GRIDFORMAT_BEGIN
 90
        0
 91
        1
 62
     0
 92
       -2
340
14
 93
        0
 40
0.045
309
GRIDFORMAT_END
 95
        8
302
GRIDFORMAT
  1
GRIDFORMAT_BEGIN
 90
        0
 91
        1
 62
     0
 92
       -2
340
14
 93
        0
 40
0.045
309
GRIDFORMAT_END
 95
       16
302
GRIDFORMAT
  1
GRIDFORMAT_BEGIN
 90
        0
 91
        1
 62
     0
 92
       -2
340
14
 93
        0
 40
0.045
309
GRIDFORMAT_END
 95
       32
302
GRIDFORMAT
  1
GRIDFORMAT_BEGIN
 90
        0
 91
        1
 62
     0
 92
       -2
340
14
 93
        0
 40
0.045
309
GRIDFORMAT_END
309
TABLEFORMAT_END
  1
CELLSTYLE_BEGIN
 90
        3
 91
        2
300
_DATA
309
CELLSTYLE_END
  0
ENDSEC
  0
EOF
