  0
SECTION
  2
HEADER
  9
$ACADVER
  1
AC1027
  9
$ACADMAINTVER
 70
   105
  9
$DWGCODEPAGE
  3
ANSI_1252
  9
$LASTSAVEDBY
  1
Office Desk
  9
$REQUIREDVERSIONS
160
                 0
  9
$INSBASE
 10
0.0
 20
0.0
 30
0.0
  9
$EXTMIN
 10
11.92084251968504
 20
-15.67612204724409
 30
0.0
  9
$EXTMAX
 10
25.50047244094488
 20
1.732909448818898
 30
0.0
  9
$LIMMIN
 10
0.0
 20
0.0
  9
$LIMMAX
 10
12.0
 20
9.0
  9
$ORTHOMODE
 70
     0
  9
$REGENMODE
 70
     1
  9
$FILLMODE
 70
     1
  9
$QTEXTMODE
 70
     0
  9
$MIRRTEXT
 70
     1
  9
$LTSCALE
 40
1.0
  9
$ATTMODE
 70
     1
  9
$TEXTSIZE
 40
0.2
  9
$TRACEWID
 40
0.05
  9
$TEXTSTYLE
  7
Standard
  9
$CLAYER
  8
0
  9
$CELTYPE
  6
ByLayer
  9
$CECOLOR
 62
   256
  9
$CELTSCALE
 40
1.0
  9
$DISPSILH
 70
     0
  9
$DIMSCALE
 40
1.0
  9
$DIMASZ
 40
0.18
  9
$DIMEXO
 40
0.0625
  9
$DIMDLI
 40
0.38
  9
$DIMRND
 40
0.0
  9
$DIMDLE
 40
0.0
  9
$DIMEXE
 40
0.18
  9
$DIMTP
 40
0.0
  9
$DIMTM
 40
0.0
  9
$DIMTXT
 40
0.18
  9
$DIMCEN
 40
0.09
  9
$DIMTSZ
 40
0.0
  9
$DIMTOL
 70
     0
  9
$DIMLIM
 70
     0
  9
$DIMTIH
 70
     1
  9
$DIMTOH
 70
     1
  9
$DIMSE1
 70
     0
  9
$DIMSE2
 70
     0
  9
$DIMTAD
 70
     0
  9
$DIMZIN
 70
     0
  9
$DIMBLK
  1

  9
$DIMASO
 70
     1
  9
$DIMSHO
 70
     1
  9
$DIMPOST
  1

  9
$DIMAPOST
  1

  9
$DIMALT
 70
     0
  9
$DIMALTD
 70
     2
  9
$DIMALTF
 40
25.4
  9
$DIMLFAC
 40
1.0
  9
$DIMTOFL
 70
     0
  9
$DIMTVP
 40
0.0
  9
$DIMTIX
 70
     0
  9
$DIMSOXD
 70
     0
  9
$DIMSAH
 70
     0
  9
$DIMBLK1
  1

  9
$DIMBLK2
  1

  9
$DIMSTYLE
  2
Standard
  9
$DIMCLRD
 70
     0
  9
$DIMCLRE
 70
     0
  9
$DIMCLRT
 70
     0
  9
$DIMTFAC
 40
1.0
  9
$DIMGAP
 40
0.09
  9
$DIMJUST
 70
     0
  9
$DIMSD1
 70
     0
  9
$DIMSD2
 70
     0
  9
$DIMTOLJ
 70
     1
  9
$DIMTZIN
 70
     0
  9
$DIMALTZ
 70
     0
  9
$DIMALTTZ
 70
     0
  9
$DIMUPT
 70
     0
  9
$DIMDEC
 70
     4
  9
$DIMTDEC
 70
     4
  9
$DIMALTU
 70
     2
  9
$DIMALTTD
 70
     2
  9
$DIMTXSTY
  7
Standard
  9
$DIMAUNIT
 70
     0
  9
$DIMADEC
 70
     0
  9
$DIMALTRND
 40
0.0
  9
$DIMAZIN
 70
     0
  9
$DIMDSEP
 70
    46
  9
$DIMATFIT
 70
     3
  9
$DIMFRAC
 70
     0
  9
$DIMLDRBLK
  1

  9
$DIMLUNIT
 70
     2
  9
$DIMLWD
 70
    -2
  9
$DIMLWE
 70
    -2
  9
$DIMTMOVE
 70
     0
  9
$DIMFXL
 40
1.0
  9
$DIMFXLON
 70
     0
  9
$DIMJOGANG
 40
0.7853981633974483
  9
$DIMTFILL
 70
     0
  9
$DIMTFILLCLR
 70
     0
  9
$DIMARCSYM
 70
     0
  9
$DIMLTYPE
  6

  9
$DIMLTEX1
  6

  9
$DIMLTEX2
  6

  9
$DIMTXTDIRECTION
 70
     0
  9
$LUNITS
 70
     2
  9
$LUPREC
 70
     4
  9
$SKETCHINC
 40
0.1
  9
$FILLETRAD
 40
0.0
  9
$AUNITS
 70
     0
  9
$AUPREC
 70
     0
  9
$MENU
  1
.
  9
$ELEVATION
 40
0.0
  9
$PELEVATION
 40
0.0
  9
$THICKNESS
 40
0.0
  9
$LIMCHECK
 70
     0
  9
$CHAMFERA
 40
0.0
  9
$CHAMFERB
 40
0.0
  9
$CHAMFERC
 40
0.0
  9
$CHAMFERD
 40
0.0
  9
$SKPOLY
 70
     0
  9
$TDCREATE
 40
2461028.60535728
  9
$TDUCREATE
 40
2461028.376190614
  9
$TDUPDATE
 40
2461028.60535728
  9
$TDUUPDATE
 40
2461028.376190614
  9
$TDINDWG
 40
0.0000000116
  9
$TDUSRTIMER
 40
0.0000000116
  9
$USRTIMER
 70
     1
  9
$ANGBASE
 50
0.0
  9
$ANGDIR
 70
     0
  9
$PDMODE
 70
     0
  9
$PDSIZE
 40
0.0
  9
$PLINEWID
 40
0.0
  9
$SPLFRAME
 70
     0
  9
$SPLINETYPE
 70
     6
  9
$SPLINESEGS
 70
     8
  9
$HANDSEED
  5
8F
  9
$SURFTAB1
 70
     6
  9
$SURFTAB2
 70
     6
  9
$SURFTYPE
 70
     6
  9
$SURFU
 70
     6
  9
$SURFV
 70
     6
  9
$UCSBASE
  2

  9
$UCSNAME
  2

  9
$UCSORG
 10
0.0
 20
0.0
 30
0.0
  9
$UCSXDIR
 10
1.0
 20
0.0
 30
0.0
  9
$UCSYDIR
 10
0.0
 20
1.0
 30
0.0
  9
$UCSORTHOREF
  2

  9
$UCSORTHOVIEW
 70
     0
  9
$UCSORGTOP
 10
0.0
 20
0.0
 30
0.0
  9
$UCSORGBOTTOM
 10
0.0
 20
0.0
 30
0.0
  9
$UCSORGLEFT
 10
0.0
 20
0.0
 30
0.0
  9
$UCSORGRIGHT
 10
0.0
 20
0.0
 30
0.0
  9
$UCSORGFRONT
 10
0.0
 20
0.0
 30
0.0
  9
$UCSORGBACK
 10
0.0
 20
0.0
 30
0.0
  9
$PUCSBASE
  2

  9
$PUCSNAME
  2

  9
$PUCSORG
 10
0.0
 20
0.0
 30
0.0
  9
$PUCSXDIR
 10
1.0
 20
0.0
 30
0.0
  9
$PUCSYDIR
 10
0.0
 20
1.0
 30
0.0
  9
$PUCSORTHOREF
  2

  9
$PUCSORTHOVIEW
 70
     0
  9
$PUCSORGTOP
 10
0.0
 20
0.0
 30
0.0
  9
$PUCSORGBOTTOM
 10
0.0
 20
0.0
 30
0.0
  9
$PUCSORGLEFT
 10
0.0
 20
0.0
 30
0.0
  9
$PUCSORGRIGHT
 10
0.0
 20
0.0
 30
0.0
  9
$PUCSORGFRONT
 10
0.0
 20
0.0
 30
0.0
  9
$PUCSORGBACK
 10
0.0
 20
0.0
 30
0.0
  9
$USERI1
 70
     0
  9
$USERI2
 70
     0
  9
$USERI3
 70
     0
  9
$USERI4
 70
     0
  9
$USERI5
 70
     0
  9
$USERR1
 40
0.0
  9
$USERR2
 40
0.0
  9
$USERR3
 40
0.0
  9
$USERR4
 40
0.0
  9
$USERR5
 40
0.0
  9
$WORLDVIEW
 70
     1
  9
$SHADEDGE
 70
     3
  9
$SHADEDIF
 70
    70
  9
$TILEMODE
 70
     1
  9
$MAXACTVP
 70
    64
  9
$PINSBASE
 10
0.0
 20
0.0
 30
0.0
  9
$PLIMCHECK
 70
     0
  9
$PEXTMIN
 10
1.000000000000000E+20
 20
1.000000000000000E+20
 30
1.000000000000000E+20
  9
$PEXTMAX
 10
-1.000000000000000E+20
 20
-1.000000000000000E+20
 30
-1.000000000000000E+20
  9
$PLIMMIN
 10
0.0
 20
0.0
  9
$PLIMMAX
 10
12.0
 20
9.0
  9
$UNITMODE
 70
     0
  9
$VISRETAIN
 70
     1
  9
$PLINEGEN
 70
     0
  9
$PSLTSCALE
 70
     1
  9
$TREEDEPTH
 70
  3020
  9
$CMLSTYLE
  2
Standard
  9
$CMLJUST
 70
     0
  9
$CMLSCALE
 40
1.0
  9
$PROXYGRAPHICS
 70
     1
  9
$MEASUREMENT
 70
     0
  9
$CELWEIGHT
370
    -1
  9
$ENDCAPS
280
     0
  9
$JOINSTYLE
280
     0
  9
$LWDISPLAY
290
     0
  9
$INSUNITS
 70
     1
  9
$HYPERLINKBASE
  1

  9
$STYLESHEET
  1

  9
$XEDIT
290
     1
  9
$CEPSNTYPE
380
     0
  9
$PSTYLEMODE
290
     1
  9
$FINGERPRINTGUID
  2
{dedfd9aa-4c94-415d-9295-52fab585a9ad}
  9
$VERSIONGUID
  2
{FAEB1C32-E019-11D5-929B-00C0DF256EC4}
  9
$EXTNAMES
290
     1
  9
$PSVPSCALE
 40
0.0
  9
$OLESTARTUP
290
     0
  9
$SORTENTS
280
   127
  9
$INDEXCTL
280
     0
  9
$HIDETEXT
280
     1
  9
$XCLIPFRAME
280
     2
  9
$HALOGAP
280
     0
  9
$OBSCOLOR
 70
   257
  9
$OBSLTYPE
280
     0
  9
$INTERSECTIONDISPLAY
280
     0
  9
$INTERSECTIONCOLOR
 70
   257
  9
$DIMASSOC
280
     2
  9
$PROJECTNAME
  1

  9
$CAMERADISPLAY
290
     0
  9
$LENSLENGTH
 40
50.0
  9
$CAMERAHEIGHT
 40
0.0
  9
$STEPSPERSEC
 40
2.0
  9
$STEPSIZE
 40
6.0
  9
$3DDWFPREC
 40
2.0
  9
$PSOLWIDTH
 40
0.25
  9
$PSOLHEIGHT
 40
4.0
  9
$LOFTANG1
 40
1.570796326794897
  9
$LOFTANG2
 40
1.570796326794897
  9
$LOFTMAG1
 40
0.0
  9
$LOFTMAG2
 40
0.0
  9
$LOFTPARAM
 70
     7
  9
$LOFTNORMALS
280
     1
  9
$LATITUDE
 40
37.795
  9
$LONGITUDE
 40
-122.394
  9
$NORTHDIRECTION
 40
0.0
  9
$TIMEZONE
 70
 -8000
  9
$LIGHTGLYPHDISPLAY
280
     1
  9
$TILEMODELIGHTSYNCH
280
     1
  9
$CMATERIAL
347
44
  9
$SOLIDHIST
280
     0
  9
$SHOWHIST
280
     1
  9
$DWFFRAME
280
     2
  9
$DGNFRAME
280
     2
  9
$REALWORLDSCALE
290
     1
  9
$INTERFERECOLOR
 62
   256
  9
$CSHADOW
280
     0
  9
$SHADOWPLANELOCATION
 40
0.0
  0
ENDSEC
  0
SECTION
  2
CLASSES
  0
CLASS
  1
ACDBDICTIONARYWDFLT
  2
AcDbDictionaryWithDefault
  3
ObjectDBX Classes
 90
        0
 91
        3
280
     0
281
     0
  0
CLASS
  1
VISUALSTYLE
  2
AcDbVisualStyle
  3
ObjectDBX Classes
 90
     4095
 91
        3
280
     0
281
     0
  0
CLASS
  1
MATERIAL
  2
AcDbMaterial
  3
ObjectDBX Classes
 90
     1153
 91
        3
280
     0
281
     0
  0
CLASS
  1
SCALE
  2
AcDbScale
  3
ObjectDBX Classes
 90
     1153
 91
        3
280
     0
281
     0
  0
CLASS
  1
TABLESTYLE
  2
AcDbTableStyle
  3
ObjectDBX Classes
 90
     4095
 91
        3
280
     0
281
     0
  0
CLASS
  1
MLEADERSTYLE
  2
AcDbMLeaderStyle
  3
ACDB_MLEADERSTYLE_CLASS
 90
     4095
 91
        3
280
     0
281
     0
  0
CLASS
  1
SUN
  2
AcDbSun
  3
SCENEOE
 90
     1153
 91
        3
280
     0
281
     0
  0
CLASS
  1
DICTIONARYVAR
  2
AcDbDictionaryVar
  3
ObjectDBX Classes
 90
        0
 91
        3
280
     0
281
     0
  0
CLASS
  1
CELLSTYLEMAP
  2
AcDbCellStyleMap
  3
ObjectDBX Classes
 90
     1152
 91
        3
280
     0
281
     0
  0
ENDSEC
  0
SECTION
  2
TABLES
  0
TABLE
  2
VPORT
  5
8
330
0
100
AcDbSymbolTable
 70
     1
  0
VPORT
  5
29
330
8
100
AcDbSymbolTableRecord
100
AcDbViewportTableRecord
  2
*Active
 70
     0
 10
0.0
 20
0.0
 11
1.0
 21
1.0
 12
10.42990654205607
 22
4.5
 13
0.0
 23
0.0
 14
0.5
 24
0.5
 15
0.5
 25
0.5
 16
0.0
 26
0.0
 36
1.0
 17
0.0
 27
0.0
 37
0.0
 40
9.0
 41
1.972972972850329
 42
50.0
 43
0.0
 44
0.0
 50
0.0
 51
0.0
 71
     0
 72
   100
 73
     1
 74
     3
 75
     0
 76
     0
 77
     0
 78
     0
281
     0
 65
     1
110
0.0
120
0.0
130
0.0
111
1.0
121
0.0
131
0.0
112
0.0
122
1.0
132
0.0
 79
     0
146
0.0
348
2F
 60
     3
 61
     5
292
     1
282
     1
141
0.0
142
0.0
 63
   250
361
5D
  0
ENDTAB
  0
TABLE
  2
LTYPE
  5
5
330
0
100
AcDbSymbolTable
 70
     1
  0
LTYPE
  5
14
330
5
100
AcDbSymbolTableRecord
100
AcDbLinetypeTableRecord
  2
ByBlock
 70
     0
  3

 72
    65
 73
     0
 40
0.0
  0
LTYPE
  5
15
330
5
100
AcDbSymbolTableRecord
100
AcDbLinetypeTableRecord
  2
ByLayer
 70
     0
  3

 72
    65
 73
     0
 40
0.0
  0
LTYPE
  5
16
330
5
100
AcDbSymbolTableRecord
100
AcDbLinetypeTableRecord
  2
Continuous
 70
     0
  3
Solid line
 72
    65
 73
     0
 40
0.0
  0
ENDTAB
  0
TABLE
  2
LAYER
  5
2
330
0
100
AcDbSymbolTable
 70
     2
  0
LAYER
  5
10
330
2
100
AcDbSymbolTableRecord
100
AcDbLayerTableRecord
  2
0
 70
     0
 62
     7
  6
Continuous
370
    -3
390
F
347
46
348
0
  0
LAYER
  5
60
330
2
100
AcDbSymbolTableRecord
100
AcDbLayerTableRecord
  2
Layer 1
 70
     0
 62
     7
  6
Continuous
370
    -3
390
F
347
46
348
0
  0
ENDTAB
  0
TABLE
  2
STYLE
  5
3
330
0
100
AcDbSymbolTable
 70
     1
  0
STYLE
  5
11
330
3
100
AcDbSymbolTableRecord
100
AcDbTextStyleTableRecord
  2
Standard
 70
     0
 40
0.0
 41
1.0
 50
0.0
 71
     0
 42
0.2
  3
txt
  4

  0
ENDTAB
  0
TABLE
  2
VIEW
  5
6
330
0
100
AcDbSymbolTable
 70
     0
  0
ENDTAB
  0
TABLE
  2
UCS
  5
7
330
0
100
AcDbSymbolTable
 70
     0
  0
ENDTAB
  0
TABLE
  2
APPID
  5
9
330
0
100
AcDbSymbolTable
 70
     2
  0
APPID
  5
12
330
9
100
AcDbSymbolTableRecord
100
AcDbRegAppTableRecord
  2
ACAD
 70
     0
  0
APPID
  5
5E
330
9
100
AcDbSymbolTableRecord
100
AcDbRegAppTableRecord
  2
ODA
 70
     0
  0
ENDTAB
  0
TABLE
  2
DIMSTYLE
  5
A
330
0
100
AcDbSymbolTable
 70
     1
100
AcDbDimStyleTable
  0
DIMSTYLE
105
27
330
A
100
AcDbSymbolTableRecord
100
AcDbDimStyleTableRecord
  2
Standard
 70
     0
178
     0
340
11
  0
ENDTAB
  0
TABLE
  2
BLOCK_RECORD
  5
1
330
0
100
AcDbSymbolTable
 70
     1
  0
BLOCK_RECORD
  5
1F
330
1
100
AcDbSymbolTableRecord
100
AcDbBlockTableRecord
  2
*Model_Space
340
22
 70
     0
280
     1
281
     0
  0
BLOCK_RECORD
  5
1B
330
1
100
AcDbSymbolTableRecord
100
AcDbBlockTableRecord
  2
*Paper_Space
340
1E
 70
     0
280
     1
281
     0
  0
BLOCK_RECORD
  5
23
330
1
100
AcDbSymbolTableRecord
100
AcDbBlockTableRecord
  2
*Paper_Space0
340
26
 70
     0
280
     1
281
     0
  0
ENDTAB
  0
ENDSEC
  0
SECTION
  2
BLOCKS
  0
BLOCK
  5
20
330
1F
100
AcDbEntity
  8
0
100
AcDbBlockBegin
  2
*Model_Space
 70
     0
 10
0.0
 20
0.0
 30
0.0
  3
*Model_Space
  1

  0
ENDBLK
  5
21
330
1F
100
AcDbEntity
  8
0
100
AcDbBlockEnd
  0
BLOCK
  5
1C
330
1B
100
AcDbEntity
 67
     1
  8
0
100
AcDbBlockBegin
  2
*Paper_Space
 70
     0
 10
0.0
 20
0.0
 30
0.0
  3
*Paper_Space
  1

  0
ENDBLK
  5
1D
330
1B
100
AcDbEntity
 67
     1
  8
0
100
AcDbBlockEnd
  0
BLOCK
  5
24
330
23
100
AcDbEntity
  8
0
100
AcDbBlockBegin
  2
*Paper_Space0
 70
     0
 10
0.0
 20
0.0
 30
0.0
  3
*Paper_Space0
  1

  0
ENDBLK
  5
25
330
23
100
AcDbEntity
  8
0
100
AcDbBlockEnd
  0
ENDSEC
  0
SECTION
  2
ENTITIES
  0
LWPOLYLINE
  5
5F
330
1F
100
AcDbEntity
  8
0
 62
   250
370
     9
100
AcDbPolyline
 90
        5
 70
     1
 43
0.0
 10
11.92261417322835
 20
-15.67435039370079
 10
25.49870078740157
 20
-15.67435039370079
 10
25.49870078740157
 20
1.731137795275591
 10
11.92261417322835
 20
1.731137795275591
 10
11.92261417322835
 20
-15.67435039370079
  0
LWPOLYLINE
  5
61
330
1F
100
AcDbEntity
  8
Layer 1
 62
     7
370
    18
100
AcDbPolyline
 90
       33
 70
     1
 43
0.0
 10
18.64507086614173
 20
-7.370196850393701
 10
19.00775196850394
 20
-7.38261811023622
 10
19.34557874015748
 20
-7.418236220472441
 10
19.6513031496063
 20
-7.47459842519685
 10
19.91768503937008
 20
-7.549240157480315
 10
20.13748031496063
 20
-7.639704724409449
 10
20.30344488188976
 20
-7.743531496062992
 10
20.40833464566929
 20
-7.858263779527559
 10
20.4449094488189
 20
-7.981437007874016
 10
20.40833464566929
 20
-8.104610236220472
 10
20.30344488188976
 20
-8.219334645669292
 10
20.13748031496063
 20
-8.323157480314961
 10
19.91768503937008
 20
-8.41361811023622
 10
19.6513031496063
 20
-8.488255905511812
 10
19.34557874015748
 20
-8.544610236220473
 10
19.00775196850394
 20
-8.580228346456693
 10
18.64507086614173
 20
-8.592645669291338
 10
18.28238976377953
 20
-8.580228346456693
 10
17.94456692913386
 20
-8.544610236220473
 10
17.63884645669291
 20
-8.488255905511812
 10
17.37247244094488
 20
-8.41361811023622
 10
17.15268110236221
 20
-8.323157480314961
 10
16.98672440944882
 20
-8.219334645669292
 10
16.88183464566929
 20
-8.104610236220472
 10
16.84526377952756
 20
-7.981437007874016
 10
16.88183464566929
 20
-7.858263779527559
 10
16.98672440944882
 20
-7.743531496062992
 10
17.15268110236221
 20
-7.639704724409449
 10
17.37247244094488
 20
-7.549240157480315
 10
17.63884645669291
 20
-7.47459842519685
 10
17.94456692913386
 20
-7.418236220472441
 10
18.28238976377953
 20
-7.38261811023622
 10
18.64507086614173
 20
-7.370196850393701
  0
LWPOLYLINE
  5
62
330
1F
100
AcDbEntity
  8
Layer 1
 62
     7
370
    18
100
AcDbPolyline
 90
       33
 70
     1
 43
0.0
 10
18.6298779527559
 20
-7.572023622047244
 10
18.92985826771654
 20
-7.58096062992126
 10
19.20928346456693
 20
-7.606594488188977
 10
19.46216141732284
 20
-7.647153543307087
 10
19.6825
 20
-7.700866141732283
 10
19.8643031496063
 20
-7.765964566929134
 10
20.00158267716536
 20
-7.840673228346457
 10
20.08834251968504
 20
-7.923228346456693
 10
20.11859448818898
 20
-8.011858267716535
 10
20.08834251968504
 20
-8.1005
 10
20.00158267716536
 20
-8.183062992125985
 10
19.8643031496063
 20
-8.257779527559055
 10
19.6825
 20
-8.322877952755906
 10
19.46216141732284
 20
-8.376594488188976
 10
19.20928346456693
 20
-8.417153543307087
 10
18.92985826771654
 20
-8.442787401574803
 10
18.6298779527559
 20
-8.451724409448818
 10
18.32989763779528
 20
-8.442787401574803
 10
18.05047244094488
 20
-8.417153543307087
 10
17.79760236220472
 20
-8.376594488188976
 10
17.57727165354331
 20
-8.322877952755906
 10
17.39547244094488
 20
-8.257779527559055
 10
17.2581968503937
 20
-8.183062992125985
 10
17.17144094488189
 20
-8.1005
 10
17.14118897637795
 20
-8.011858267716535
 10
17.17144094488189
 20
-7.923228346456693
 10
17.2581968503937
 20
-7.840673228346457
 10
17.39547244094488
 20
-7.765964566929134
 10
17.57727165354331
 20
-7.700866141732283
 10
17.79760236220472
 20
-7.647153543307087
 10
18.05047244094488
 20
-7.606594488188977
 10
18.32989763779528
 20
-7.58096062992126
 10
18.6298779527559
 20
-7.572023622047244
  0
LWPOLYLINE
  5
63
330
1F
100
AcDbEntity
  8
Layer 1
 62
     7
370
    18
100
AcDbPolyline
 90
      107
 70
     0
 43
0.0
 10
16.85155905511811
 20
-8.033062992125984
 10
16.8559842519685
 20
-8.09517716535433
 10
16.86416535433071
 20
-8.149114173228346
 10
16.87476771653543
 20
-8.19483464566929
 10
16.88644881889764
 20
-8.232311023622048
 10
16.89786614173228
 20
-8.261515748031496
 10
16.9076811023622
 20
-8.282413385826771
 10
16.91455511811024
 20
-8.294976377952755
 10
16.91714173228346
 20
-8.299169291338583
 10
17.08031102362205
 20
-8.469807086614173
 10
17.29379527559055
 20
-8.59982283464567
 10
17.53538188976378
 20
-8.694724409448819
 10
17.78285433070866
 20
-8.76001968503937
 10
18.01400393700787
 20
-8.801212598425197
 10
18.20661417322835
 20
-8.823818897637794
 10
18.33846850393701
 20
-8.833346456692913
 10
18.38735826771654
 20
-8.835295275590552
 10
18.89577165354331
 20
-8.855988188976378
 10
19.31230708661417
 20
-8.832858267716535
 10
19.6443937007874
 20
-8.778562992125984
 10
19.89944881889764
 20
-8.705755905511811
 10
20.08490157480315
 20
-8.627094488188977
 10
20.20817716535433
 20
-8.555236220472441
 10
20.2766968503937
 20
-8.50284251968504
 10
20.29788582677165
 20
-8.482562992125985
 10
20.37255511811023
 20
-8.369740157480315
 10
20.42113385826772
 20
-8.267629921259843
 10
20.44859448818898
 20
-8.177566929133858
 10
20.4599094488189
 20
-8.100885826771654
 10
20.46005511811024
 20
-8.038917322834646
 10
20.45400393700787
 20
-7.993003937007874
 10
20.44672440944882
 20
-7.964476377952756
 10
20.44319291338583
 20
-7.954669291338583
 10
20.45846850393701
 20
-7.960570866141732
 10
20.49782677165354
 20
-7.979984251968504
 10
20.55158661417323
 20
-8.01546062992126
 10
20.61005118110236
 20
-8.069551181102362
 10
20.66353149606299
 20
-8.14481496062992
 10
20.70233464566929
 20
-8.243799212598425
 10
20.71677559055118
 20
-8.369062992125984
 10
20.69715748031496
 20
-8.52315748031496
 10
20.69257480314961
 20
-8.537114173228346
 10
20.67286614173228
 20
-8.57559842519685
 10
20.62909842519685
 20
-8.633531496062993
 10
20.55233464566929
 20
-8.705842519685039
 10
20.43363385826772
 20
-8.787444881889764
 10
20.26405905511811
 20
-8.873263779527559
 10
20.03467716535433
 20
-8.95822440944882
 10
19.73655118110236
 20
-9.037248031496063
 10
19.70274409448819
 20
-9.044716535433071
 10
19.60152755905512
 20
-9.063929133858268
 10
19.43320078740157
 20
-9.09011811023622
 10
19.19806299212598
 20
-9.118496062992126
 10
18.89641338582677
 20
-9.14429527559055
 10
18.52855118110236
 20
-9.162736220472441
 10
18.09477952755906
 20
-9.16903937007874
 10
17.5953937007874
 20
-9.158429133858268
 10
17.54578346456693
 20
-9.154885826771654
 10
17.41093700787401
 20
-9.143854330708661
 10
17.21181102362205
 20
-9.124728346456694
 10
16.96937795275591
 20
-9.096913385826772
 10
16.70460236220472
 20
-9.0598031496063
 10
16.43844881889764
 20
-9.012799212598425
 10
16.19188582677165
 20
-8.955299212598424
 10
15.9858779527559
 20
-8.886696850393701
 10
15.95500787401575
 20
-8.880161417322835
 10
15.86884251968504
 20
-8.858523622047244
 10
15.73704724409449
 20
-8.818728346456693
 10
15.5692874015748
 20
-8.75771653543307
 10
15.37523622047244
 20
-8.672433070866141
 10
15.16455905511811
 20
-8.559826771653544
 10
14.94692125984252
 20
-8.416842519685039
 10
14.73198818897638
 20
-8.24042125984252
 10
14.72174803149606
 20
-8.232374015748032
 10
14.69466141732283
 20
-8.210838582677166
 10
14.65616535433071
 20
-8.17974409448819
 10
14.61170472440945
 20
-8.143007874015748
 10
14.56672440944882
 20
-8.104551181102362
 10
14.52666535433071
 20
-8.068291338582677
 10
14.49696850393701
 20
-8.038153543307086
 10
14.48307874015748
 20
-8.01805905511811
 10
14.48307874015748
 20
-7.920783464566929
 10
15.94951181102362
 20
-7.671078740157481
 10
15.95407480314961
 20
-7.67534251968504
 10
15.96759448818898
 20
-7.687110236220472
 10
15.98982283464567
 20
-7.704846456692914
 10
16.02051181102362
 20
-7.727027559055118
 10
16.05941732283464
 20
-7.75211811023622
 10
16.1062874015748
 20
-7.778582677165354
 10
16.16087401574803
 20
-7.804893700787401
 10
16.22292913385827
 20
-7.829515748031496
 10
16.28509448818898
 20
-7.848787401574803
 10
16.34979133858268
 20
-7.863818897637795
 10
16.41630708661417
 20
-7.874834645669291
 10
16.48390551181102
 20
-7.882055118110237
 10
16.55187401574803
 20
-7.885708661417323
 10
16.61948031496063
 20
-7.886023622047244
 10
16.68600393700788
 20
-7.883216535433071
 10
16.75072440944882
 20
-7.877519685039371
 10
16.76965354330709
 20
-7.875232283464567
 10
16.78853149606299
 20
-7.872547244094489
 10
16.80726771653543
 20
-7.869444881889764
 10
16.82579133858268
 20
-7.865897637795276
 10
16.84401181102362
 20
-7.861881889763779
 10
16.86185039370079
 20
-7.857377952755906
 10
16.87922834645669
 20
-7.852362204724409
 10
16.89606299212598
 20
-7.846811023622047
  0
LWPOLYLINE
  5
64
330
1F
100
AcDbEntity
  8
Layer 1
 62
     7
370
    18
100
AcDbPolyline
 90
       25
 70
     0
 43
0.0
 10
14.48307874015748
 20
-7.920783464566929
 10
14.50420078740157
 20
-7.942330708661418
 10
14.5648188976378
 20
-8.00085433070866
 10
14.6608188976378
 20
-8.087185039370079
 10
14.7880905511811
 20
-8.192153543307086
 10
14.9425157480315
 20
-8.306586614173229
 10
15.11998031496063
 20
-8.421311023622048
 10
15.31637401574803
 20
-8.527161417322835
 10
15.52757480314961
 20
-8.614964566929133
 10
15.57426377952756
 20
-8.631751968503938
 10
15.70653543307087
 20
-8.676299212598424
 10
15.9127125984252
 20
-8.73986220472441
 10
16.18109842519685
 20
-8.813708661417323
 10
16.5000157480315
 20
-8.889106299212598
 10
16.85777559055118
 20
-8.957318897637796
 10
17.24269291338583
 20
-9.009610236220473
 10
17.64307874015748
 20
-9.037248031496063
 10
17.7594094488189
 20
-9.042133858267716
 10
18.0693779527559
 20
-9.048066929133858
 10
18.51442519685039
 20
-9.04196062992126
 10
19.03601181102362
 20
-9.01072440944882
 10
19.57558267716535
 20
-8.941271653543307
 10
20.07459448818897
 20
-8.820515748031497
 10
20.47449606299213
 20
-8.635362204724409
 10
20.71673622047244
 20
-8.372728346456693
  0
LWPOLYLINE
  5
65
330
1F
100
AcDbEntity
  8
Layer 1
 62
     7
370
    18
100
AcDbPolyline
 90
       17
 70
     0
 43
0.0
 10
14.53412992125984
 20
-8.075311023622048
 10
14.53882283464567
 20
-8.128712598425198
 10
14.55725196850394
 20
-8.273291338582677
 10
14.59595669291339
 20
-8.485590551181103
 10
14.66146850393701
 20
-8.742169291338582
 10
14.7603188976378
 20
-9.019570866141732
 10
14.89904330708661
 20
-9.294346456692914
 10
15.08417716535433
 20
-9.543051181102362
 10
15.32224803149606
 20
-9.74223622047244
 10
15.33752755905512
 20
-9.749751968503936
 10
15.38056692913386
 20
-9.760370078740157
 10
15.44714960629921
 20
-9.756188976377953
 10
15.53306692913386
 20
-9.719303149606299
 10
15.6341062992126
 20
-9.631811023622047
 10
15.74606299212598
 20
-9.475814960629922
 10
15.86472440944882
 20
-9.233409448818898
 10
15.9858779527559
 20
-8.886696850393701
  0
LWPOLYLINE
  5
66
330
1F
100
AcDbEntity
  8
Layer 1
 62
     7
370
    18
100
AcDbPolyline
 90
        9
 70
     0
 43
0.0
 10
14.74689763779527
 20
-8.254094488188976
 10
14.74741732283464
 20
-8.291988188976378
 10
14.75316535433071
 20
-8.396653543307087
 10
14.77041338582677
 20
-8.554547244094488
 10
14.80544488188976
 20
-8.752141732283464
 10
14.86453543307087
 20
-8.975897637795276
 10
14.95396062992126
 20
-9.212283464566928
 10
15.08000393700787
 20
-9.447763779527559
 10
15.24894094488189
 20
-9.6688031496063
  0
LWPOLYLINE
  5
67
330
1F
100
AcDbEntity
  8
Layer 1
 62
     7
370
    18
100
AcDbPolyline
 90
       26
 70
     0
 43
0.0
 10
17.09020078740157
 20
-9.111413385826772
 10
17.09086614173228
 20
-9.201582677165355
 10
17.09292913385827
 20
-9.441866141732284
 10
17.0965
 20
-9.786933070866143
 10
17.10168503937008
 20
-10.19144488188976
 10
17.10858661417323
 20
-10.61007086614173
 10
17.11731889763779
 20
-10.99747637795276
 10
17.12798031496063
 20
-11.30832283464567
 10
17.1406811023622
 20
-11.49728346456693
 10
17.14336614173228
 20
-11.54418897637795
 10
17.16143700787402
 20
-11.66995669291339
 10
17.20993307086614
 20
-11.85216535433071
 10
17.30388976377953
 20
-12.06840157480315
 10
17.45834251968504
 20
-12.29623622047244
 10
17.68832283464567
 20
-12.51325196850394
 10
18.00886614173228
 20
-12.69703149606299
 10
18.43500787401575
 20
-12.82514960629921
 10
18.4962874015748
 20
-12.82835039370079
 10
18.6592125984252
 20
-12.82157480314961
 10
18.89242913385827
 20
-12.78026771653543
 10
19.16456692913386
 20
-12.67987401574803
 10
19.44426771653543
 20
-12.49582677165354
 10
19.70016535433071
 20
-12.20357480314961
 10
19.90090551181102
 20
-11.77855511811024
 10
20.01511811023622
 20
-11.19620866141732
 10
20.18175984251969
 20
-8.906944881889764
  0
LWPOLYLINE
  5
68
330
1F
100
AcDbEntity
  8
Layer 1
 62
     7
370
    18
100
AcDbPolyline
 90
       33
 70
     1
 43
0.0
 10
18.78148031496063
 20
0.5545511811023622
 10
18.83208267716535
 20
0.5530118110236221
 10
18.87921653543307
 20
0.5485905511811023
 10
18.92187401574803
 20
0.5415944881889764
 10
18.95904724409449
 20
0.5323267716535434
 10
18.98971653543307
 20
0.5210905511811024
 10
19.01287401574803
 20
0.5081889763779528
 10
19.02751181102362
 20
0.4939251968503937
 10
19.03261417322835
 20
0.4786062992125985
 10
19.02751181102362
 20
0.4632834645669291
 10
19.01287401574803
 20
0.4490196850393701
 10
18.98971653543307
 20
0.4361141732283464
 10
18.95904724409449
 20
0.4248700787401575
 10
18.92187401574803
 20
0.4155984251968504
 10
18.87921653543307
 20
0.4085944881889764
 10
18.83208267716535
 20
0.4041732283464567
 10
18.78148031496063
 20
0.4026299212598425
 10
18.73086614173228
 20
0.4041732283464567
 10
18.68372047244095
 20
0.4085944881889764
 10
18.64105905511811
 20
0.4155984251968504
 10
18.60388582677165
 20
0.4248700787401575
 10
18.5732125984252
 20
0.4361141732283464
 10
18.55005118110236
 20
0.4490196850393701
 10
18.53541338582677
 20
0.4632834645669291
 10
18.53031102362205
 20
0.4786062992125985
 10
18.53541338582677
 20
0.4939251968503937
 10
18.55005118110236
 20
0.5081889763779528
 10
18.5732125984252
 20
0.5210905511811024
 10
18.60388582677165
 20
0.5323267716535434
 10
18.64105905511811
 20
0.5415944881889764
 10
18.68372047244095
 20
0.5485905511811023
 10
18.73086614173228
 20
0.5530118110236221
 10
18.78148031496063
 20
0.5545511811023622
  0
LWPOLYLINE
  5
69
330
1F
100
AcDbEntity
  8
Layer 1
 62
     7
370
    18
100
AcDbPolyline
 90
       12
 70
     1
 43
0.0
 10
19.03267716535433
 20
0.4443700787401575
 10
18.87182283464567
 20
-8.445685039370078
 10
18.38691338582677
 20
-8.445685039370078
 10
18.53047244094488
 20
0.4443700787401575
 10
18.54118110236221
 20
0.4378385826771654
 10
18.57167322834646
 20
0.4219724409448819
 10
18.61949212598425
 20
0.4023779527559055
 10
18.68218897637795
 20
0.3846456692913386
 10
18.75731102362205
 20
0.3743818897637795
 10
18.84239763779528
 20
0.3771811023622047
 10
18.93500787401575
 20
0.3986456692913386
 10
19.03267716535433
 20
0.4443700787401575
  0
LWPOLYLINE
  5
6A
330
1F
100
AcDbEntity
  8
Layer 1
 62
     7
370
    18
100
AcDbPolyline
 90
        4
 70
     1
 43
0.0
 10
21.66140551181102
 20
0.8019881889763779
 10
21.64661811023622
 20
0.8288543307086614
 10
21.63184645669291
 20
0.801984251968504
 10
21.66140551181102
 20
0.8019881889763779
  0
LWPOLYLINE
  5
6B
330
1F
100
AcDbEntity
  8
Layer 1
 62
     7
370
    18
100
AcDbPolyline
 90
        4
 70
     1
 43
0.0
 10
21.66397637795276
 20
-12.29977952755906
 10
21.64920078740158
 20
-12.32664960629921
 10
21.63441732283465
 20
-12.29978346456693
 10
21.66397637795276
 20
-12.29977952755906
  0
LWPOLYLINE
  5
6C
330
1F
100
AcDbEntity
  8
Layer 1
 62
     7
370
    18
100
AcDbPolyline
 90
        2
 70
     0
 43
0.0
 10
21.64504330708661
 20
0.8378070866141732
 10
21.64762992125984
 20
-12.3356062992126
  0
LWPOLYLINE
  5
6D
330
1F
100
AcDbEntity
  8
Layer 1
 62
     7
370
     9
100
AcDbPolyline
 90
      137
 70
     1
 43
0.0
 10
22.77195275590551
 20
-6.634586614173228
 10
22.7785905511811
 20
-6.631622047244094
 10
22.7850157480315
 20
-6.628393700787401
 10
22.79124015748031
 20
-6.624897637795276
 10
22.79725590551181
 20
-6.62113779527559
 10
22.80307086614173
 20
-6.617110236220473
 10
22.80868503937008
 20
-6.612822834645669
 10
22.81409842519685
 20
-6.608271653543307
 10
22.8193188976378
 20
-6.60346062992126
 10
22.82956299212599
 20
-6.592574803149606
 10
22.83844488188976
 20
-6.581082677165354
 10
22.84596062992126
 20
-6.56898031496063
 10
22.85211023622047
 20
-6.556263779527559
 10
22.8568937007874
 20
-6.54294094488189
 10
22.86031102362205
 20
-6.529007874015748
 10
22.86235826771653
 20
-6.514464566929134
 10
22.86304330708661
 20
-6.499311023622047
 10
22.86235039370079
 20
-6.484157480314961
 10
22.86027165354331
 20
-6.469594488188976
 10
22.8568031496063
 20
-6.45561811023622
 10
22.85194881889764
 20
-6.442228346456693
 10
22.84570078740158
 20
-6.429429133858267
 10
22.83806692913386
 20
-6.417216535433071
 10
22.82903937007874
 20
-6.405586614173228
 10
22.81861811023622
 20
-6.394547244094488
 10
22.80787007874016
 20
-6.38501968503937
 10
22.79643307086614
 20
-6.376629921259843
 10
22.78430708661417
 20
-6.369374015748032
 10
22.77148818897638
 20
-6.363255905511811
 10
22.75797637795275
 20
-6.358271653543307
 10
22.74377952755906
 20
-6.354421259842519
 10
22.72888976377953
 20
-6.351708661417323
 10
22.71331102362205
 20
-6.350129921259843
 10
22.6938779527559
 20
-6.361795275590551
 10
22.83191338582677
 20
-6.198311023622047
 10
22.5947125984252
 20
-6.198311023622047
 10
22.5947125984252
 20
-6.243712598425197
 10
22.73987007874016
 20
-6.243712598425197
 10
22.60635039370079
 20
-6.399429133858268
 10
22.64070472440945
 20
-6.427330708661417
 10
22.64866141732283
 20
-6.420035433070866
 10
22.65698818897638
 20
-6.413708661417322
 10
22.6656811023622
 20
-6.408354330708661
 10
22.67474409448819
 20
-6.403968503937008
 10
22.68416929133858
 20
-6.40055905511811
 10
22.69396062992126
 20
-6.398122047244095
 10
22.70411417322835
 20
-6.396661417322835
 10
22.71462992125984
 20
-6.396173228346457
 10
22.72511811023622
 20
-6.396645669291338
 10
22.73521653543307
 20
-6.39805905511811
 10
22.74492125984252
 20
-6.400417322834645
 10
22.75423228346457
 20
-6.403720472440945
 10
22.76314960629921
 20
-6.407964566929134
 10
22.77167716535433
 20
-6.413149606299212
 10
22.77980708661417
 20
-6.419275590551181
 10
22.78754724409449
 20
-6.426346456692913
 10
22.79459842519685
 20
-6.434074803149606
 10
22.80071653543307
 20
-6.442181102362205
 10
22.80589763779528
 20
-6.450665354330709
 10
22.81013779527559
 20
-6.459523622047244
 10
22.81344094488189
 20
-6.468759842519685
 10
22.8158031496063
 20
-6.478366141732283
 10
22.81722047244094
 20
-6.488346456692914
 10
22.81769291338583
 20
-6.498696850393701
 10
22.81720866141732
 20
-6.508818897637795
 10
22.81576377952756
 20
-6.51859842519685
 10
22.81335433070866
 20
-6.528031496062992
 10
22.80998031496063
 20
-6.537125984251968
 10
22.80564566929134
 20
-6.545874015748032
 10
22.80035039370079
 20
-6.554279527559055
 10
22.7940905511811
 20
-6.562342519685039
 10
22.78687401574803
 20
-6.570062992125984
 10
22.78331496062992
 20
-6.573381889763779
 10
22.7796062992126
 20
-6.576523622047244
 10
22.77574409448819
 20
-6.579496062992126
 10
22.77172834645669
 20
-6.582295275590551
 10
22.76756299212598
 20
-6.58492125984252
 10
22.76324409448819
 20
-6.58738188976378
 10
22.75877165354331
 20
-6.589673228346457
 10
22.75414566929134
 20
-6.591795275590552
 10
22.74932283464567
 20
-6.593696850393701
 10
22.74425590551181
 20
-6.595342519685039
 10
22.73894488188976
 20
-6.596736220472441
 10
22.73339763779527
 20
-6.597874015748031
 10
22.72760236220472
 20
-6.598759842519685
 10
22.72157086614173
 20
-6.599393700787402
 10
22.7153031496063
 20
-6.599771653543307
 10
22.70879527559055
 20
-6.599897637795276
 10
22.70214960629921
 20
-6.599618110236221
 10
22.6955
 20
-6.598783464566929
 10
22.68885433070866
 20
-6.597389763779527
 10
22.68220472440945
 20
-6.595437007874016
 10
22.67555511811024
 20
-6.592925196850394
 10
22.66890551181102
 20
-6.589854330708661
 10
22.66225196850394
 20
-6.586224409448818
 10
22.65559448818898
 20
-6.582035433070867
 10
22.64919291338583
 20
-6.577385826771653
 10
22.64327952755906
 20
-6.57234251968504
 10
22.63785039370079
 20
-6.566897637795275
 10
22.63291338582677
 20
-6.56105905511811
 10
22.62846062992126
 20
-6.55482283464567
 10
22.62449606299213
 20
-6.548188976377952
 10
22.62101181102362
 20
-6.541165354330708
 10
22.6180157480315
 20
-6.533748031496063
 10
22.57395669291338
 20
-6.548665354330709
 10
22.57814173228347
 20
-6.559232283464567
 10
22.58308661417323
 20
-6.569291338582677
 10
22.58879133858268
 20
-6.578846456692913
 10
22.59525590551181
 20
-6.587893700787402
 10
22.60248031496063
 20
-6.596433070866142
 10
22.61046456692914
 20
-6.604468503937007
 10
22.61921653543307
 20
-6.612
 10
22.62872834645669
 20
-6.619023622047244
 10
22.6333937007874
 20
-6.622110236220473
 10
22.63817322834646
 20
-6.625023622047244
 10
22.64306692913386
 20
-6.627759842519685
 10
22.6480748031496
 20
-6.63032283464567
 10
22.65320078740157
 20
-6.632708661417323
 10
22.65843700787402
 20
-6.634917322834646
 10
22.6637874015748
 20
-6.636956692913386
 10
22.66925196850394
 20
-6.638818897637795
 10
22.67483070866142
 20
-6.640492125984252
 10
22.68055905511811
 20
-6.641944881889764
 10
22.68644488188976
 20
-6.643169291338583
 10
22.69248425196851
 20
-6.644169291338582
 10
22.69867716535433
 20
-6.644948818897638
 10
22.70502362204724
 20
-6.6455
 10
22.71153149606299
 20
-6.645834645669291
 10
22.71819291338583
 20
-6.645944881889764
 10
22.72491338582677
 20
-6.645767716535433
 10
22.73163385826772
 20
-6.645236220472441
 10
22.73835433070866
 20
-6.644346456692913
 10
22.74507480314961
 20
-6.643106299212598
 10
22.75179133858268
 20
-6.641507874015748
 10
22.75851181102362
 20
-6.639555118110236
 10
22.76523228346457
 20
-6.637248031496063
 10
22.77195275590551
 20
-6.634586614173228
  0
LWPOLYLINE
  5
6E
330
1F
100
AcDbEntity
  8
Layer 1
 62
     7
370
     9
100
AcDbPolyline
 90
       73
 70
     1
 43
0.0
 10
23.04292125984252
 20
-6.438996062992126
 10
23.03258661417323
 20
-6.43851968503937
 10
23.02263385826772
 20
-6.437090551181102
 10
23.01306692913386
 20
-6.434712598425197
 10
23.00388188976378
 20
-6.431377952755906
 10
22.99508267716535
 20
-6.427090551181102
 10
22.98666535433071
 20
-6.421850393700788
 10
22.97863385826772
 20
-6.415657480314961
 10
22.9709842519685
 20
-6.408511811023622
 10
22.96407086614173
 20
-6.400779527559055
 10
22.95808267716535
 20
-6.392685039370079
 10
22.95301181102362
 20
-6.384228346456693
 10
22.94886220472441
 20
-6.375405511811024
 10
22.94563385826772
 20
-6.366220472440945
 10
22.94333070866142
 20
-6.356669291338583
 10
22.94194488188976
 20
-6.346751968503937
 10
22.9414842519685
 20
-6.336472440944882
 10
22.94195275590551
 20
-6.326433070866142
 10
22.94335039370079
 20
-6.316736220472441
 10
22.9456811023622
 20
-6.307381889763779
 10
22.94894488188976
 20
-6.298370078740158
 10
22.95313779527559
 20
-6.289704724409448
 10
22.95825984251968
 20
-6.281385826771653
 10
22.96431496062992
 20
-6.273409448818898
 10
22.97129527559055
 20
-6.265779527559055
 10
22.97879527559055
 20
-6.258929133858268
 10
22.98672834645669
 20
-6.252996062992126
 10
22.99508267716535
 20
-6.24798031496063
 10
23.00387007874016
 20
-6.243877952755906
 10
23.01307874015748
 20
-6.240688976377953
 10
23.0227125984252
 20
-6.238409448818897
 10
23.03277165354331
 20
-6.237047244094488
 10
23.04325590551181
 20
-6.236590551181102
 10
23.05353543307087
 20
-6.237062992125984
 10
23.06347244094488
 20
-6.238472440944882
 10
23.07305905511811
 20
-6.240826771653543
 10
23.08230708661417
 20
-6.244122047244095
 10
23.09120866141732
 20
-6.248362204724409
 10
23.09976771653543
 20
-6.253543307086614
 10
23.10798818897638
 20
-6.259665354330709
 10
23.11586614173228
 20
-6.266732283464567
 10
23.12300393700787
 20
-6.274393700787401
 10
23.12918897637795
 20
-6.282429133858268
 10
23.13442519685039
 20
-6.290830708661417
 10
23.13870866141732
 20
-6.299606299212599
 10
23.14203937007874
 20
-6.308751968503937
 10
23.14441732283465
 20
-6.318267716535433
 10
23.14584645669291
 20
-6.328153543307087
 10
23.14632283464567
 20
-6.338409448818898
 10
23.14583858267716
 20
-6.34840157480315
 10
23.1443937007874
 20
-6.35805905511811
 10
23.14198425196851
 20
-6.367389763779528
 10
23.13861417322835
 20
-6.376389763779527
 10
23.13427952755906
 20
-6.385066929133858
 10
23.12898818897638
 20
-6.393417322834646
 10
23.12273622047244
 20
-6.401448818897638
 10
23.11552755905512
 20
-6.409157480314961
 10
23.11196850393701
 20
-6.41248031496063
 10
23.10825590551181
 20
-6.415629921259843
 10
23.10438976377953
 20
-6.418606299212598
 10
23.10037007874016
 20
-6.421413385826772
 10
23.0961968503937
 20
-6.424043307086614
 10
23.09187401574803
 20
-6.4265
 10
23.08739763779528
 20
-6.428783464566929
 10
23.08277165354331
 20
-6.430889763779527
 10
23.07803543307087
 20
-6.432791338582677
 10
23.07323228346457
 20
-6.43444094488189
 10
23.06835826771654
 20
-6.435834645669291
 10
23.06341338582677
 20
-6.436972440944882
 10
23.05840157480315
 20
-6.437858267716535
 10
23.05331102362205
 20
-6.438492125984252
 10
23.04815354330709
 20
-6.438870078740157
 10
23.04292125984252
 20
-6.438996062992126
  0
LWPOLYLINE
  5
6F
330
1F
100
AcDbEntity
  8
Layer 1
 62
     7
370
     9
100
AcDbPolyline
 90
       69
 70
     1
 43
0.0
 10
22.89543307086614
 20
-6.339728346456693
 10
22.89614566929134
 20
-6.355354330708662
 10
22.89827559055118
 20
-6.370271653543307
 10
22.90183070866142
 20
-6.384472440944882
 10
22.9068031496063
 20
-6.397964566929134
 10
22.91319291338583
 20
-6.410748031496063
 10
22.921
 20
-6.422818897637796
 10
22.93022440944882
 20
-6.434177165354331
 10
22.94086614173228
 20
-6.444826771653544
 10
22.95172440944882
 20
-6.4538031496063
 10
22.96334645669291
 20
-6.461677165354331
 10
22.97572834645669
 20
-6.468448818897638
 10
22.98887795275591
 20
-6.474114173228346
 10
23.00278346456693
 20
-6.478673228346457
 10
23.01745275590551
 20
-6.482125984251969
 10
23.03287795275591
 20
-6.484476377952756
 10
23.04906299212599
 20
-6.485712598425197
 10
23.06204724409449
 20
-6.477244094488189
 10
22.92720866141732
 20
-6.639464566929134
 10
22.98685826771653
 20
-6.639464566929134
 10
23.15927952755905
 20
-6.431228346456693
 10
23.16702755905512
 20
-6.421074803149606
 10
23.17374409448819
 20
-6.410511811023622
 10
23.17942519685039
 20
-6.399535433070866
 10
23.18407480314961
 20
-6.388141732283464
 10
23.18769291338583
 20
-6.376334645669291
 10
23.19027559055118
 20
-6.364110236220473
 10
23.19182677165354
 20
-6.351468503937008
 10
23.19234251968504
 20
-6.338409448818898
 10
23.19166535433071
 20
-6.323385826771654
 10
23.18962992125984
 20
-6.308933070866142
 10
23.18623622047244
 20
-6.29505905511811
 10
23.18148818897638
 20
-6.281759842519685
 10
23.17538188976378
 20
-6.269031496062992
 10
23.16792125984252
 20
-6.256885826771653
 10
23.15910236220472
 20
-6.245314960629921
 10
23.14892913385827
 20
-6.234318897637795
 10
23.13770866141732
 20
-6.224204724409449
 10
23.12594488188977
 20
-6.215437007874016
 10
23.11363779527559
 20
-6.20801968503937
 10
23.10078346456693
 20
-6.201952755905512
 10
23.08738582677165
 20
-6.197232283464567
 10
23.07344488188976
 20
-6.193858267716536
 10
23.05896062992126
 20
-6.191834645669291
 10
23.04392913385827
 20
-6.191161417322834
 10
23.02866141732283
 20
-6.191830708661417
 10
23.01400787401575
 20
-6.193842519685039
 10
22.99996850393701
 20
-6.197192913385827
 10
22.98653937007874
 20
-6.201881889763779
 10
22.97371653543307
 20
-6.207909448818898
 10
22.96150393700787
 20
-6.215271653543307
 10
22.94990157480315
 20
-6.223972440944882
 10
22.93890157480315
 20
-6.234007874015748
 10
22.93400787401575
 20
-6.239137795275591
 10
22.92937795275591
 20
-6.244468503937008
 10
22.92501574803149
 20
-6.25
 10
22.92091732283465
 20
-6.255740157480315
 10
22.91707874015748
 20
-6.261681102362204
 10
22.91350787401575
 20
-6.26782283464567
 10
22.91020078740157
 20
-6.274173228346457
 10
22.90715748031496
 20
-6.280728346456693
 10
22.90440551181102
 20
-6.287456692913386
 10
22.90202362204725
 20
-6.294370078740157
 10
22.90000787401575
 20
-6.301468503937008
 10
22.89836220472441
 20
-6.308755905511811
 10
22.89707874015748
 20
-6.316224409448819
 10
22.89616535433071
 20
-6.323874015748031
 10
22.89561417322835
 20
-6.331712598425197
 10
22.89543307086614
 20
-6.339728346456693
  0
LWPOLYLINE
  5
70
330
1F
100
AcDbEntity
  8
Layer 1
 62
     7
370
     9
100
AcDbPolyline
 90
       92
 70
     1
 43
0.0
 10
23.42668503937008
 20
-6.249543307086614
 10
23.43416141732283
 20
-6.254641732283464
 10
23.44113385826772
 20
-6.260425196850393
 10
23.44760236220472
 20
-6.266893700787402
 10
23.45356299212598
 20
-6.274051181102362
 10
23.45901968503937
 20
-6.281893700787402
 10
23.46397637795275
 20
-6.290425196850394
 10
23.46842125984252
 20
-6.299645669291339
 10
23.47236614173228
 20
-6.309555118110236
 10
23.47676377952756
 20
-6.322712598425197
 10
23.48057874015748
 20
-6.336059055118111
 10
23.48380708661417
 20
-6.34959842519685
 10
23.48645275590551
 20
-6.363330708661417
 10
23.48850787401575
 20
-6.377255905511811
 10
23.48998031496063
 20
-6.391370078740158
 10
23.49086220472441
 20
-6.405677165354331
 10
23.49115748031496
 20
-6.420177165354331
 10
23.48922440944882
 20
-6.452287401574803
 10
23.48697637795276
 20
-6.469724409448819
 10
23.48403937007874
 20
-6.486204724409449
 10
23.4804094488189
 20
-6.501720472440945
 10
23.47609448818898
 20
-6.516275590551181
 10
23.4710905511811
 20
-6.529866141732284
 10
23.4653937007874
 20
-6.542492125984252
 10
23.45900393700787
 20
-6.554153543307087
 10
23.45192519685039
 20
-6.564846456692913
 10
23.44548031496063
 20
-6.572909448818898
 10
23.43868897637795
 20
-6.579897637795276
 10
23.43155118110236
 20
-6.585811023622047
 10
23.42406692913386
 20
-6.590649606299213
 10
23.41624015748031
 20
-6.594413385826772
 10
23.40806692913386
 20
-6.597102362204724
 10
23.39955511811024
 20
-6.598712598425196
 10
23.39070078740157
 20
-6.599251968503937
 10
23.3808031496063
 20
-6.598720472440945
 10
23.37138188976378
 20
-6.59711811023622
 10
23.36243700787401
 20
-6.594452755905512
 10
23.35397244094488
 20
-6.590724409448819
 10
23.3459842519685
 20
-6.585933070866142
 10
23.33847637795276
 20
-6.580074803149606
 10
23.33144094488189
 20
-6.57315748031496
 10
23.32488188976378
 20
-6.565181102362205
 10
23.31946456692913
 20
-6.557314960629921
 10
23.31453149606299
 20
-6.548972440944882
 10
23.31007086614173
 20
-6.540137795275591
 10
23.3060905511811
 20
-6.530803149606299
 10
23.3025905511811
 20
-6.521169291338583
 10
23.29953937007874
 20
-6.511417322834646
 10
23.29692125984252
 20
-6.50153937007874
 10
23.29473228346457
 20
-6.491543307086614
 10
23.28923622047244
 20
-6.452622047244095
 10
23.28763779527559
 20
-6.409271653543307
 10
23.28774803149606
 20
-6.402968503937008
 10
23.28807874015748
 20
-6.396295275590552
 10
23.28863385826772
 20
-6.389251968503937
 10
23.2894094488189
 20
-6.38184251968504
 10
23.29040551181102
 20
-6.374062992125984
 10
23.29162598425197
 20
-6.365913385826771
 10
23.29306692913386
 20
-6.357393700787402
 10
23.29473228346457
 20
-6.348503937007874
 10
23.29690157480315
 20
-6.338622047244095
 10
23.29945669291338
 20
-6.328791338582677
 10
23.30240551181102
 20
-6.319
 10
23.30575590551181
 20
-6.309244094488189
 10
23.3095905511811
 20
-6.299755905511811
 10
23.31394488188976
 20
-6.290751968503937
 10
23.31882677165354
 20
-6.282232283464567
 10
23.32423622047244
 20
-6.274192913385827
 10
23.32714566929134
 20
-6.270409448818898
 10
23.3301968503937
 20
-6.266811023622047
 10
23.3333937007874
 20
-6.263405511811023
 10
23.33672834645669
 20
-6.260188976377953
 10
23.34020866141732
 20
-6.257165354330708
 10
23.34382677165354
 20
-6.254330708661417
 10
23.3475905511811
 20
-6.251688976377952
 10
23.35149606299213
 20
-6.249236220472441
 10
23.35555118110236
 20
-6.247027559055118
 10
23.35979133858268
 20
-6.245118110236221
 10
23.36421653543307
 20
-6.243503937007874
 10
23.36882283464567
 20
-6.242185039370079
 10
23.37361417322835
 20
-6.241157480314961
 10
23.37858661417323
 20
-6.240425196850394
 10
23.38374015748031
 20
-6.239988188976378
 10
23.38907480314961
 20
-6.239842519685039
 10
23.3944094488189
 20
-6.239996062992126
 10
23.39956692913386
 20
-6.240452755905512
 10
23.40453937007874
 20
-6.241212598425196
 10
23.40933070866142
 20
-6.242275590551182
 10
23.41394094488189
 20
-6.243641732283464
 10
23.41837007874016
 20
-6.245307086614173
 10
23.42261811023622
 20
-6.247275590551181
 10
23.42668503937008
 20
-6.249543307086614
  0
LWPOLYLINE
  5
71
330
1F
100
AcDbEntity
  8
Layer 1
 62
     7
370
     9
100
AcDbPolyline
 90
       65
 70
     1
 43
0.0
 10
23.39134645669292
 20
-6.645299212598426
 10
23.41026377952756
 20
-6.644098425196851
 10
23.42798031496063
 20
-6.640492125984252
 10
23.44449606299213
 20
-6.634488188976378
 10
23.4598031496063
 20
-6.62607874015748
 10
23.4739094488189
 20
-6.615271653543307
 10
23.48681102362205
 20
-6.602059055118111
 10
23.49850787401575
 20
-6.586448818897638
 10
23.50899606299213
 20
-6.568437007874016
 10
23.51636220472441
 20
-6.552712598425197
 10
23.52274015748031
 20
-6.536114173228347
 10
23.52814173228347
 20
-6.518649606299213
 10
23.53255511811023
 20
-6.500311023622047
 10
23.53599212598425
 20
-6.481102362204725
 10
23.53844488188976
 20
-6.46101968503937
 10
23.53991338582677
 20
-6.440066929133859
 10
23.54040551181102
 20
-6.418244094488189
 10
23.53991338582677
 20
-6.396409448818898
 10
23.53844488188976
 20
-6.375452755905512
 10
23.53599212598425
 20
-6.355370078740157
 10
23.53255511811023
 20
-6.336165354330709
 10
23.52814173228347
 20
-6.317830708661417
 10
23.52274015748031
 20
-6.300366141732283
 10
23.51636220472441
 20
-6.283775590551181
 10
23.50899606299213
 20
-6.268051181102362
 10
23.49850787401575
 20
-6.25003937007874
 10
23.48681102362205
 20
-6.234425196850394
 10
23.4739094488189
 20
-6.221208661417323
 10
23.4598031496063
 20
-6.210393700787401
 10
23.44449606299213
 20
-6.20198031496063
 10
23.42798031496063
 20
-6.195972440944882
 10
23.41026377952756
 20
-6.192362204724409
 10
23.39134645669292
 20
-6.191161417322834
 10
23.37242125984252
 20
-6.192362204724409
 10
23.35470078740158
 20
-6.195972440944882
 10
23.33818503937008
 20
-6.20198031496063
 10
23.32287795275591
 20
-6.210393700787401
 10
23.30877165354331
 20
-6.221208661417323
 10
23.29587007874016
 20
-6.234425196850394
 10
23.28416929133858
 20
-6.25003937007874
 10
23.27367322834646
 20
-6.268051181102362
 10
23.26631496062992
 20
-6.283775590551181
 10
23.25993307086614
 20
-6.300366141732283
 10
23.25453149606299
 20
-6.317830708661417
 10
23.2501062992126
 20
-6.336165354330709
 10
23.24666535433071
 20
-6.355370078740157
 10
23.24420472440945
 20
-6.375452755905512
 10
23.24272440944882
 20
-6.396409448818898
 10
23.24223228346457
 20
-6.418244094488189
 10
23.24272440944882
 20
-6.440066929133859
 10
23.24420472440945
 20
-6.46101968503937
 10
23.24666535433071
 20
-6.481102362204725
 10
23.2501062992126
 20
-6.500311023622047
 10
23.25453149606299
 20
-6.518649606299213
 10
23.25993307086614
 20
-6.536114173228347
 10
23.26631496062992
 20
-6.552712598425197
 10
23.27367322834646
 20
-6.568437007874016
 10
23.28416929133858
 20
-6.586448818897638
 10
23.29587007874016
 20
-6.602059055118111
 10
23.30877165354331
 20
-6.615271653543307
 10
23.32287795275591
 20
-6.62607874015748
 10
23.33818503937008
 20
-6.634488188976378
 10
23.35470078740158
 20
-6.640492125984252
 10
23.37242125984252
 20
-6.644098425196851
 10
23.39134645669292
 20
-6.645299212598426
  0
LWPOLYLINE
  5
72
330
1F
100
AcDbEntity
  8
Layer 1
 62
     7
370
     9
100
AcDbPolyline
 90
      162
 70
     1
 43
0.0
 10
23.98317322834646
 20
-6.638145669291339
 10
24.02851968503937
 20
-6.638145669291339
 10
24.02851968503937
 20
-6.459744094488189
 10
24.02814960629921
 20
-6.447909448818898
 10
24.02704330708661
 20
-6.436625984251968
 10
24.0251968503937
 20
-6.42590157480315
 10
24.02261417322835
 20
-6.415732283464567
 10
24.01929527559055
 20
-6.406114173228347
 10
24.01523622047244
 20
-6.397059055118111
 10
24.01044094488189
 20
-6.388555118110236
 10
24.0049094488189
 20
-6.380610236220472
 10
24.00180708661417
 20
-6.376807086614173
 10
23.99851181102362
 20
-6.373200787401575
 10
23.99503149606299
 20
-6.369791338582677
 10
23.99135826771654
 20
-6.366578740157481
 10
23.98749606299213
 20
-6.363555118110236
 10
23.98344094488189
 20
-6.360728346456693
 10
23.9791968503937
 20
-6.358094488188977
 10
23.97475984251968
 20
-6.355653543307087
 10
23.97002755905512
 20
-6.353444881889764
 10
23.96493307086614
 20
-6.351531496062992
 10
23.95947637795276
 20
-6.349913385826771
 10
23.95366141732283
 20
-6.348586614173229
 10
23.94748031496063
 20
-6.34755905511811
 10
23.94094094488189
 20
-6.346822834645669
 10
23.93403937007874
 20
-6.346377952755906
 10
23.92677559055118
 20
-6.346232283464567
 10
23.91944488188976
 20
-6.346484251968504
 10
23.91234251968504
 20
-6.347248031496063
 10
23.90547244094488
 20
-6.348515748031496
 10
23.89883070866142
 20
-6.350287401574803
 10
23.89241732283465
 20
-6.352566929133858
 10
23.88624015748032
 20
-6.355354330708662
 10
23.88029527559055
 20
-6.358645669291339
 10
23.87458267716535
 20
-6.362440944881889
 10
23.86963385826771
 20
-6.366232283464567
 10
23.8649094488189
 20
-6.3703031496063
 10
23.86040157480315
 20
-6.374653543307087
 10
23.85611811023622
 20
-6.379279527559055
 10
23.85205118110236
 20
-6.38417716535433
 10
23.84820866141732
 20
-6.389350393700788
 10
23.84458267716536
 20
-6.394787401574803
 10
23.84118110236221
 20
-6.400492125984252
 10
23.83857086614173
 20
-6.395224409448819
 10
23.83570078740157
 20
-6.390153543307086
 10
23.83257874015748
 20
-6.385279527559055
 10
23.82920866141732
 20
-6.380610236220472
 10
23.82611417322835
 20
-6.376807086614173
 10
23.82283070866142
 20
-6.373200787401575
 10
23.81935433070866
 20
-6.369791338582677
 10
23.81568503937008
 20
-6.366578740157481
 10
23.81182283464567
 20
-6.363555118110236
 10
23.80777165354331
 20
-6.360728346456693
 10
23.80352362204724
 20
-6.358094488188977
 10
23.79908661417323
 20
-6.355653543307087
 10
23.79437007874016
 20
-6.353444881889764
 10
23.78928346456693
 20
-6.351531496062992
 10
23.78382677165354
 20
-6.349913385826771
 10
23.77800787401575
 20
-6.348586614173229
 10
23.77182283464567
 20
-6.34755905511811
 10
23.76527952755906
 20
-6.346822834645669
 10
23.75837007874016
 20
-6.346377952755906
 10
23.75110236220473
 20
-6.346232283464567
 10
23.74376377952756
 20
-6.346484251968504
 10
23.73665748031496
 20
-6.347248031496063
 10
23.7297874015748
 20
-6.348515748031496
 10
23.72314566929134
 20
-6.350287401574803
 10
23.71674015748032
 20
-6.352566929133858
 10
23.71056692913386
 20
-6.355354330708662
 10
23.70462204724409
 20
-6.358645669291339
 10
23.69891338582677
 20
-6.362440944881889
 10
23.6941968503937
 20
-6.366055118110236
 10
23.6896811023622
 20
-6.369909448818897
 10
23.68536614173228
 20
-6.374007874015748
 10
23.68125196850394
 20
-6.378354330708661
 10
23.67733858267717
 20
-6.382948818897638
 10
23.67363385826772
 20
-6.387787401574803
 10
23.67012992125984
 20
-6.392877952755906
 10
23.66683070866142
 20
-6.398220472440945
 10
23.66683070866142
 20
-6.352708661417322
 10
23.62145275590551
 20
-6.352708661417322
 10
23.62145275590551
 20
-6.638145669291339
 10
23.66683070866142
 20
-6.638145669291339
 10
23.66683070866142
 20
-6.492106299212598
 10
23.66788582677165
 20
-6.483598425196851
 10
23.66926377952756
 20
-6.47542125984252
 10
23.67096850393701
 20
-6.467570866141732
 10
23.67299606299213
 20
-6.460047244094488
 10
23.67535039370079
 20
-6.452846456692914
 10
23.67802755905512
 20
-6.445968503937008
 10
23.68103149606299
 20
-6.439405511811024
 10
23.68435826771654
 20
-6.433161417322835
 10
23.68705511811024
 20
-6.428720472440945
 10
23.68998031496063
 20
-6.42448031496063
 10
23.69312598425197
 20
-6.420444881889764
 10
23.69649212598425
 20
-6.416614173228346
 10
23.70008661417323
 20
-6.412984251968504
 10
23.70390157480315
 20
-6.409562992125984
 10
23.70794094488189
 20
-6.406342519685039
 10
23.71220472440945
 20
-6.403326771653544
 10
23.71662992125984
 20
-6.400586614173228
 10
23.72113385826772
 20
-6.398212598425197
 10
23.72571653543307
 20
-6.396200787401574
 10
23.73037795275591
 20
-6.39455905511811
 10
23.73511417322835
 20
-6.393279527559055
 10
23.73992913385827
 20
-6.392366141732284
 10
23.7448188976378
 20
-6.391814960629921
 10
23.7497874015748
 20
-6.391633858267716
 10
23.75464960629921
 20
-6.391732283464567
 10
23.75919291338583
 20
-6.392023622047244
 10
23.7634094488189
 20
-6.392507874015748
 10
23.7673031496063
 20
-6.393185039370079
 10
23.77087007874016
 20
-6.394051181102363
 10
23.77411417322835
 20
-6.395110236220472
 10
23.77703149606299
 20
-6.39636220472441
 10
23.77962598425197
 20
-6.397803149606299
 10
23.78616141732283
 20
-6.402633858267716
 10
23.79182677165354
 20
-6.408295275590551
 10
23.79661811023622
 20
-6.414791338582678
 10
23.80053543307087
 20
-6.42211811023622
 10
23.80358267716536
 20
-6.430275590551181
 10
23.80575984251968
 20
-6.439263779527559
 10
23.80706299212599
 20
-6.449086614173228
 10
23.8075
 20
-6.459744094488189
 10
23.8075
 20
-6.638145669291339
 10
23.85285039370079
 20
-6.638145669291339
 10
23.85285039370079
 20
-6.459744094488189
 10
23.85253937007874
 20
-6.448838582677165
 10
23.86
 20
-6.433161417322835
 10
23.86270866141732
 20
-6.428720472440945
 10
23.86563779527559
 20
-6.42448031496063
 10
23.86879133858268
 20
-6.420444881889764
 10
23.87216141732284
 20
-6.416614173228346
 10
23.87575590551181
 20
-6.412984251968504
 10
23.87957480314961
 20
-6.409562992125984
 10
23.88361417322835
 20
-6.406342519685039
 10
23.8878779527559
 20
-6.403326771653544
 10
23.89229133858268
 20
-6.400586614173228
 10
23.8967874015748
 20
-6.398212598425197
 10
23.90135826771654
 20
-6.396200787401574
 10
23.9060157480315
 20
-6.39455905511811
 10
23.91075196850394
 20
-6.393279527559055
 10
23.91557086614173
 20
-6.392366141732284
 10
23.92047244094488
 20
-6.391814960629921
 10
23.92545669291339
 20
-6.391633858267716
 10
23.93032283464567
 20
-6.391732283464567
 10
23.93486220472441
 20
-6.392023622047244
 10
23.93908267716536
 20
-6.392507874015748
 10
23.94297637795276
 20
-6.393185039370079
 10
23.94654330708661
 20
-6.394051181102363
 10
23.9497874015748
 20
-6.395110236220472
 10
23.95270472440945
 20
-6.39636220472441
 10
23.95529527559055
 20
-6.397803149606299
 10
23.96183070866142
 20
-6.402633858267716
 10
23.96749606299213
 20
-6.408295275590551
 10
23.9722874015748
 20
-6.414791338582678
 10
23.97620866141732
 20
-6.42211811023622
 10
23.97925590551181
 20
-6.430275590551181
 10
23.98143307086614
 20
-6.439263779527559
 10
23.98273622047244
 20
-6.449086614173228
 10
23.98317322834646
 20
-6.459744094488189
 10
23.98317322834646
 20
-6.638145669291339
  0
LWPOLYLINE
  5
73
330
1F
100
AcDbEntity
  8
Layer 1
 62
     7
370
     9
100
AcDbPolyline
 90
      162
 70
     1
 43
0.0
 10
24.47774015748032
 20
-6.638145669291339
 10
24.52311811023622
 20
-6.638145669291339
 10
24.52311811023622
 20
-6.459744094488189
 10
24.52274803149606
 20
-6.447909448818898
 10
24.52164173228346
 20
-6.436625984251968
 10
24.51979133858268
 20
-6.42590157480315
 10
24.51720866141732
 20
-6.415732283464567
 10
24.51388188976378
 20
-6.406114173228347
 10
24.5098188976378
 20
-6.397059055118111
 10
24.5050157480315
 20
-6.388555118110236
 10
24.49947637795276
 20
-6.380610236220472
 10
24.49638188976378
 20
-6.376807086614173
 10
24.49309448818898
 20
-6.373200787401575
 10
24.48961811023622
 20
-6.369791338582677
 10
24.48594881889764
 20
-6.366578740157481
 10
24.48208661417323
 20
-6.363555118110236
 10
24.47803543307086
 20
-6.360728346456693
 10
24.47379133858268
 20
-6.358094488188977
 10
24.46935433070866
 20
-6.355653543307087
 10
24.4646220472441
 20
-6.353444881889764
 10
24.45952755905512
 20
-6.351531496062992
 10
24.45407086614173
 20
-6.349913385826771
 10
24.44825590551181
 20
-6.348586614173229
 10
24.44207480314961
 20
-6.34755905511811
 10
24.43553543307087
 20
-6.346822834645669
 10
24.42863385826772
 20
-6.346377952755906
 10
24.42137007874016
 20
-6.346232283464567
 10
24.41403149606299
 20
-6.346484251968504
 10
24.40692125984252
 20
-6.347248031496063
 10
24.40004724409449
 20
-6.348515748031496
 10
24.39340551181103
 20
-6.350287401574803
 10
24.38699606299213
 20
-6.352566929133858
 10
24.38082283464567
 20
-6.355354330708662
 10
24.37488188976378
 20
-6.358645669291339
 10
24.36918110236221
 20
-6.362440944881889
 10
24.36423228346457
 20
-6.366232283464567
 10
24.35950393700787
 20
-6.3703031496063
 10
24.35499606299213
 20
-6.374653543307087
 10
24.3507125984252
 20
-6.379279527559055
 10
24.34664566929134
 20
-6.38417716535433
 10
24.3428031496063
 20
-6.389350393700788
 10
24.3391811023622
 20
-6.394787401574803
 10
24.33577952755905
 20
-6.400492125984252
 10
24.33315354330709
 20
-6.395224409448819
 10
24.33028346456693
 20
-6.390153543307086
 10
24.32716929133858
 20
-6.385279527559055
 10
24.3238031496063
 20
-6.380610236220472
 10
24.32070866141732
 20
-6.376807086614173
 10
24.31742519685039
 20
-6.373200787401575
 10
24.31394488188976
 20
-6.369791338582677
 10
24.31027559055118
 20
-6.366578740157481
 10
24.3064094488189
 20
-6.363555118110236
 10
24.30235433070866
 20
-6.360728346456693
 10
24.29810236220472
 20
-6.358094488188977
 10
24.29365354330709
 20
-6.355653543307087
 10
24.28893700787401
 20
-6.353444881889764
 10
24.28385433070866
 20
-6.351531496062992
 10
24.27840551181102
 20
-6.349913385826771
 10
24.2725905511811
 20
-6.348586614173229
 10
24.2664094488189
 20
-6.34755905511811
 10
24.25987007874016
 20
-6.346822834645669
 10
24.25296456692913
 20
-6.346377952755906
 10
24.2456968503937
 20
-6.346232283464567
 10
24.23835826771654
 20
-6.346484251968504
 10
24.23124803149606
 20
-6.347248031496063
 10
24.22437401574803
 20
-6.348515748031496
 10
24.21773228346457
 20
-6.350287401574803
 10
24.21132283464567
 20
-6.352566929133858
 10
24.20514960629921
 20
-6.355354330708662
 10
24.19920866141732
 20
-6.358645669291339
 10
24.19350787401575
 20
-6.362440944881889
 10
24.18879133858268
 20
-6.366055118110236
 10
24.18427559055118
 20
-6.369909448818897
 10
24.17996062992126
 20
-6.374007874015748
 10
24.17584645669291
 20
-6.378354330708661
 10
24.17193307086614
 20
-6.382948818897638
 10
24.16822834645669
 20
-6.387787401574803
 10
24.16472440944882
 20
-6.392877952755906
 10
24.1614251968504
 20
-6.398220472440945
 10
24.1614251968504
 20
-6.352708661417322
 10
24.11604724409449
 20
-6.352708661417322
 10
24.11604724409449
 20
-6.638145669291339
 10
24.1614251968504
 20
-6.638145669291339
 10
24.1614251968504
 20
-6.492106299212598
 10
24.16248031496063
 20
-6.483598425196851
 10
24.16385433070866
 20
-6.47542125984252
 10
24.16555511811024
 20
-6.467570866141732
 10
24.16757874015748
 20
-6.460047244094488
 10
24.16992913385827
 20
-6.452846456692914
 10
24.17261023622047
 20
-6.445968503937008
 10
24.17561417322835
 20
-6.439405511811024
 10
24.17895275590551
 20
-6.433161417322835
 10
24.18164960629921
 20
-6.428720472440945
 10
24.18457480314961
 20
-6.42448031496063
 10
24.18771653543307
 20
-6.420444881889764
 10
24.19108661417323
 20
-6.416614173228346
 10
24.19467322834646
 20
-6.412984251968504
 10
24.19848425196851
 20
-6.409562992125984
 10
24.20251968503937
 20
-6.406342519685039
 10
24.20677165354331
 20
-6.403326771653544
 10
24.21120472440945
 20
-6.400586614173228
 10
24.2157125984252
 20
-6.398212598425197
 10
24.22029527559055
 20
-6.396200787401574
 10
24.22495669291338
 20
-6.39455905511811
 10
24.22969291338583
 20
-6.393279527559055
 10
24.23451181102362
 20
-6.392366141732284
 10
24.23940551181103
 20
-6.391814960629921
 10
24.24438188976378
 20
-6.391633858267716
 10
24.24924803149606
 20
-6.391732283464567
 10
24.2537874015748
 20
-6.392023622047244
 10
24.25800393700787
 20
-6.392507874015748
 10
24.2618937007874
 20
-6.393185039370079
 10
24.26546062992126
 20
-6.394051181102363
 10
24.2686968503937
 20
-6.395110236220472
 10
24.27161023622047
 20
-6.39636220472441
 10
24.27419291338583
 20
-6.397803149606299
 10
24.28072834645669
 20
-6.402633858267716
 10
24.2863937007874
 20
-6.408295275590551
 10
24.29118503937008
 20
-6.414791338582678
 10
24.29510236220472
 20
-6.42211811023622
 10
24.29814960629921
 20
-6.430275590551181
 10
24.30032677165354
 20
-6.439263779527559
 10
24.30162992125984
 20
-6.449086614173228
 10
24.30206692913386
 20
-6.459744094488189
 10
24.30206692913386
 20
-6.638145669291339
 10
24.34744488188976
 20
-6.638145669291339
 10
24.34744488188976
 20
-6.459744094488189
 10
24.34713779527559
 20
-6.448838582677165
 10
24.35456692913386
 20
-6.433161417322835
 10
24.35728346456693
 20
-6.428720472440945
 10
24.36022047244094
 20
-6.42448031496063
 10
24.3633779527559
 20
-6.420444881889764
 10
24.36675196850394
 20
-6.416614173228346
 10
24.37034251968504
 20
-6.412984251968504
 10
24.37415748031496
 20
-6.409562992125984
 10
24.37819291338583
 20
-6.406342519685039
 10
24.38244488188976
 20
-6.403326771653544
 10
24.38685826771654
 20
-6.400586614173228
 10
24.39135826771653
 20
-6.398212598425197
 10
24.39593700787401
 20
-6.396200787401574
 10
24.40059448818898
 20
-6.39455905511811
 10
24.40533858267716
 20
-6.393279527559055
 10
24.41016141732284
 20
-6.392366141732284
 10
24.41506299212599
 20
-6.391814960629921
 10
24.42005118110236
 20
-6.391633858267716
 10
24.42491732283465
 20
-6.391732283464567
 10
24.42945669291339
 20
-6.392023622047244
 10
24.43367322834646
 20
-6.392507874015748
 10
24.43756692913386
 20
-6.393185039370079
 10
24.44112992125984
 20
-6.394051181102363
 10
24.44437007874016
 20
-6.395110236220472
 10
24.44727952755905
 20
-6.39636220472441
 10
24.44986220472441
 20
-6.397803149606299
 10
24.45640551181102
 20
-6.402633858267716
 10
24.4620748031496
 20
-6.408295275590551
 10
24.46686614173228
 20
-6.414791338582678
 10
24.47078346456693
 20
-6.42211811023622
 10
24.47383070866142
 20
-6.430275590551181
 10
24.47600393700787
 20
-6.439263779527559
 10
24.47730708661417
 20
-6.449086614173228
 10
24.47774015748032
 20
-6.459744094488189
 10
24.47774015748032
 20
-6.638145669291339
  0
LWPOLYLINE
  5
74
330
1F
100
AcDbEntity
  8
Layer 1
 62
     7
370
    18
100
AcDbPolyline
 90
        4
 70
     1
 43
0.0
 10
21.20882283464567
 20
-12.70467716535433
 10
21.22874015748031
 20
-12.68135826771653
 10
21.19838582677165
 20
-12.67701968503937
 10
21.20882283464567
 20
-12.70467716535433
  0
LWPOLYLINE
  5
75
330
1F
100
AcDbEntity
  8
Layer 1
 62
     7
370
    18
100
AcDbPolyline
 90
        4
 70
     1
 43
0.0
 10
16.40187007874016
 20
-14.51919291338583
 10
16.3715157480315
 20
-14.51485433070866
 10
16.39143307086614
 20
-14.49153937007874
 10
16.40187007874016
 20
-14.51919291338583
  0
LWPOLYLINE
  5
76
330
1F
100
AcDbEntity
  8
Layer 1
 62
     7
370
    18
100
AcDbPolyline
 90
        2
 70
     0
 43
0.0
 10
21.23656299212599
 20
-12.67672440944882
 10
16.36258267716535
 20
-14.51654330708661
  0
LWPOLYLINE
  5
77
330
1F
100
AcDbEntity
  8
Layer 1
 62
     7
370
     9
100
AcDbPolyline
 90
        7
 70
     1
 43
0.0
 10
19.12884251968504
 20
-13.98534645669291
 10
19.17422047244094
 20
-13.98534645669291
 10
19.17422047244094
 20
-13.53897637795276
 10
19.06532283464567
 20
-13.55066929133858
 10
19.06532283464567
 20
-13.59023622047244
 10
19.12884251968504
 20
-13.59023622047244
 10
19.12884251968504
 20
-13.98534645669291
  0
LWPOLYLINE
  5
78
330
1F
100
AcDbEntity
  8
Layer 1
 62
     7
370
     9
100
AcDbPolyline
 90
        4
 70
     1
 43
0.0
 10
19.47757874015748
 20
-13.59348818897638
 10
19.47757874015748
 20
-13.84844488188976
 10
19.30905905511811
 20
-13.84844488188976
 10
19.47757874015748
 20
-13.59348818897638
  0
LWPOLYLINE
  5
79
330
1F
100
AcDbEntity
  8
Layer 1
 62
     7
370
     9
100
AcDbPolyline
 90
       11
 70
     1
 43
0.0
 10
19.52488976377953
 20
-13.89516141732283
 10
19.58064173228346
 20
-13.89516141732283
 10
19.58064173228346
 20
-13.84844488188976
 10
19.52488976377953
 20
-13.84844488188976
 10
19.52427165354331
 20
-13.54419291338583
 10
19.46072440944882
 20
-13.54419291338583
 10
19.22868110236221
 20
-13.89516141732283
 10
19.47757874015748
 20
-13.89516141732283
 10
19.47757874015748
 20
-13.98534645669291
 10
19.52488976377953
 20
-13.98534645669291
 10
19.52488976377953
 20
-13.89516141732283
  0
LWPOLYLINE
  5
7A
330
1F
100
AcDbEntity
  8
Layer 1
 62
     7
370
     9
100
AcDbPolyline
 90
        7
 70
     1
 43
0.0
 10
19.71354724409449
 20
-13.98534645669291
 10
19.90733464566929
 20
-13.54612598425197
 10
19.63053543307086
 20
-13.54612598425197
 10
19.63053543307086
 20
-13.59152755905512
 10
19.83666141732283
 20
-13.59152755905512
 10
19.66298031496063
 20
-13.98534645669291
 10
19.71354724409449
 20
-13.98534645669291
  0
LWPOLYLINE
  5
7B
330
1F
100
AcDbEntity
  8
Layer 1
 62
     7
370
     9
100
AcDbPolyline
 90
      162
 70
     1
 43
0.0
 10
20.3410157480315
 20
-13.98402755905512
 10
20.3863937007874
 20
-13.98402755905512
 10
20.3863937007874
 20
-13.80562598425197
 10
20.38602362204724
 20
-13.7937874015748
 10
20.38491338582677
 20
-13.78250787401575
 10
20.38306299212599
 20
-13.77177952755905
 10
20.38047244094488
 20
-13.76161023622047
 10
20.37714566929134
 20
-13.75199606299213
 10
20.37308267716535
 20
-13.74293700787402
 10
20.36828346456693
 20
-13.73443700787402
 10
20.36275196850394
 20
-13.72649212598425
 10
20.35964960629921
 20
-13.72268897637795
 10
20.35635826771654
 20
-13.71908267716536
 10
20.35287401574803
 20
-13.71566929133858
 10
20.34920078740157
 20
-13.71245275590551
 10
20.34533858267717
 20
-13.70942913385827
 10
20.34128346456693
 20
-13.70659448818898
 10
20.33703937007874
 20
-13.70395669291339
 10
20.33260236220472
 20
-13.70150393700787
 10
20.32787007874016
 20
-13.69930708661417
 10
20.32277952755906
 20
-13.69739763779527
 10
20.31732677165354
 20
-13.69578346456693
 10
20.3115157480315
 20
-13.69446456692913
 10
20.30533858267717
 20
-13.69343307086614
 10
20.29879921259842
 20
-13.69270078740158
 10
20.29188976377953
 20
-13.69225590551181
 10
20.28461811023622
 20
-13.69211023622047
 10
20.2772874015748
 20
-13.69236220472441
 10
20.27018503937008
 20
-13.69312204724409
 10
20.26331496062992
 20
-13.69438188976378
 10
20.25667322834646
 20
-13.69615354330709
 10
20.25026377952756
 20
-13.69842913385827
 10
20.24408661417323
 20
-13.70120866141732
 10
20.23814173228346
 20
-13.70449606299213
 10
20.23242913385827
 20
-13.70829133858268
 10
20.22748818897638
 20
-13.71208267716535
 10
20.22276377952756
 20
-13.71615748031496
 10
20.21825984251969
 20
-13.7205157480315
 10
20.21397244094488
 20
-13.72514566929134
 10
20.2099094488189
 20
-13.73005118110236
 10
20.20606692913386
 20
-13.73522834645669
 10
20.20244881889764
 20
-13.74066929133858
 10
20.19905511811024
 20
-13.74637401574803
 10
20.1964251968504
 20
-13.74110236220472
 10
20.19355118110236
 20
-13.73601968503937
 10
20.19043307086614
 20
-13.73114566929134
 10
20.18707874015748
 20
-13.72649212598425
 10
20.18397637795276
 20
-13.72268897637795
 10
20.18068503937008
 20
-13.71908267716536
 10
20.17720472440945
 20
-13.71566929133858
 10
20.17353149606299
 20
-13.71245275590551
 10
20.16966929133858
 20
-13.70942913385827
 10
20.16561417322835
 20
-13.70659448818898
 10
20.16137007874016
 20
-13.70395669291339
 10
20.15693307086614
 20
-13.70150393700787
 10
20.1522125984252
 20
-13.69930708661417
 10
20.14712598425197
 20
-13.69739763779527
 10
20.14167322834646
 20
-13.69578346456693
 10
20.13585433070866
 20
-13.69446456692913
 10
20.12966929133858
 20
-13.69343307086614
 10
20.1231220472441
 20
-13.69270078740158
 10
20.11621653543307
 20
-13.69225590551181
 10
20.10894881889764
 20
-13.69211023622047
 10
20.10161811023622
 20
-13.69236220472441
 10
20.0945157480315
 20
-13.69312204724409
 10
20.08764173228347
 20
-13.69438188976378
 10
20.081
 20
-13.69615354330709
 10
20.0745905511811
 20
-13.69842913385827
 10
20.06841338582677
 20
-13.70120866141732
 10
20.06246850393701
 20
-13.70449606299213
 10
20.05675590551181
 20
-13.70829133858268
 10
20.05203937007874
 20
-13.71191338582677
 10
20.04752362204724
 20
-13.71577165354331
 10
20.04320866141732
 20
-13.71987401574803
 10
20.03909448818898
 20
-13.72422047244094
 10
20.03518503937008
 20
-13.72881496062992
 10
20.03147637795276
 20
-13.73365748031496
 10
20.02797244094488
 20
-13.73875196850394
 10
20.02467322834646
 20
-13.74410236220472
 10
20.02467322834646
 20
-13.6985905511811
 10
19.97932677165354
 20
-13.6985905511811
 10
19.97932677165354
 20
-13.98402755905512
 10
20.02467322834646
 20
-13.98402755905512
 10
20.02467322834646
 20
-13.83795669291339
 10
20.02572834645669
 20
-13.82944881889764
 10
20.0271062992126
 20
-13.82127559055118
 10
20.02881102362205
 20
-13.81342913385827
 10
20.03083858267717
 20
-13.80591338582677
 10
20.03319291338583
 20
-13.79871653543307
 10
20.03587007874016
 20
-13.79184251968504
 10
20.03887401574803
 20
-13.7852874015748
 10
20.04220078740158
 20
-13.77904330708661
 10
20.04489763779528
 20
-13.77460236220472
 10
20.04782283464567
 20
-13.77036220472441
 10
20.05096850393701
 20
-13.76632677165354
 10
20.05433858267716
 20
-13.76249212598425
 10
20.05792913385827
 20
-13.75885826771654
 10
20.06174803149606
 20
-13.75542913385827
 10
20.0657874015748
 20
-13.75220078740158
 10
20.07005118110236
 20
-13.74917716535433
 10
20.07447637795276
 20
-13.74644488188976
 10
20.07898031496063
 20
-13.74407874015748
 10
20.08355905511811
 20
-13.74207086614173
 10
20.08822047244094
 20
-13.74043307086614
 10
20.09295669291339
 20
-13.73915354330709
 10
20.09777165354331
 20
-13.73824409448819
 10
20.10266141732284
 20
-13.73769291338583
 10
20.10762992125984
 20
-13.73751181102362
 10
20.11249606299213
 20
-13.73761023622047
 10
20.11703543307087
 20
-13.73790157480315
 10
20.12125590551181
 20
-13.73838582677165
 10
20.12514960629921
 20
-13.73906299212598
 10
20.12871653543307
 20
-13.73992913385827
 10
20.13196062992126
 20
-13.74098818897638
 10
20.1348779527559
 20
-13.74224015748032
 10
20.13746850393701
 20
-13.7436811023622
 10
20.14400393700787
 20
-13.74851181102362
 10
20.14966929133858
 20
-13.75417716535433
 10
20.15446062992126
 20
-13.76066929133858
 10
20.15838188976378
 20
-13.76799606299213
 10
20.16142913385827
 20
-13.77615354330709
 10
20.1636062992126
 20
-13.78514566929134
 10
20.1649094488189
 20
-13.79496850393701
 10
20.16534645669291
 20
-13.80562598425197
 10
20.16534645669291
 20
-13.98402755905512
 10
20.21069291338583
 20
-13.98402755905512
 10
20.21069291338583
 20
-13.80562598425197
 10
20.21038582677165
 20
-13.79471653543307
 10
20.21784645669291
 20
-13.77904330708661
 10
20.22055511811024
 20
-13.77460236220472
 10
20.2234842519685
 20
-13.77036220472441
 10
20.22663385826772
 20
-13.76632677165354
 10
20.23000787401575
 20
-13.76249212598425
 10
20.23360236220472
 20
-13.75885826771654
 10
20.23741732283465
 20
-13.75542913385827
 10
20.24145669291338
 20
-13.75220078740158
 10
20.24572047244094
 20
-13.74917716535433
 10
20.25013779527559
 20
-13.74644488188976
 10
20.25463385826772
 20
-13.74407874015748
 10
20.2592125984252
 20
-13.74207086614173
 10
20.26387007874016
 20
-13.74043307086614
 10
20.2686062992126
 20
-13.73915354330709
 10
20.27342519685039
 20
-13.73824409448819
 10
20.27832283464567
 20
-13.73769291338583
 10
20.28329921259843
 20
-13.73751181102362
 10
20.28816535433071
 20
-13.73761023622047
 10
20.29270472440945
 20
-13.73790157480315
 10
20.2969251968504
 20
-13.73838582677165
 10
20.3008188976378
 20
-13.73906299212598
 10
20.30438582677165
 20
-13.73992913385827
 10
20.30762992125984
 20
-13.74098818897638
 10
20.31054724409449
 20
-13.74224015748032
 10
20.31314173228347
 20
-13.7436811023622
 10
20.31967716535433
 20
-13.74851181102362
 10
20.32533858267717
 20
-13.75417716535433
 10
20.33012992125984
 20
-13.76066929133858
 10
20.33405118110236
 20
-13.76799606299213
 10
20.33709842519685
 20
-13.77615354330709
 10
20.33927559055118
 20
-13.78514566929134
 10
20.34057874015748
 20
-13.79496850393701
 10
20.3410157480315
 20
-13.80562598425197
 10
20.3410157480315
 20
-13.98402755905512
  0
LWPOLYLINE
  5
7C
330
1F
100
AcDbEntity
  8
Layer 1
 62
     7
370
     9
100
AcDbPolyline
 90
      162
 70
     1
 43
0.0
 10
20.83561023622047
 20
-13.98402755905512
 10
20.88096062992126
 20
-13.98402755905512
 10
20.88096062992126
 20
-13.80562598425197
 10
20.8805905511811
 20
-13.7937874015748
 10
20.8794842519685
 20
-13.78250787401575
 10
20.87763385826772
 20
-13.77177952755905
 10
20.87505118110236
 20
-13.76161023622047
 10
20.87172440944882
 20
-13.75199606299213
 10
20.86766141732284
 20
-13.74293700787402
 10
20.86285826771654
 20
-13.73443700787402
 10
20.8573188976378
 20
-13.72649212598425
 10
20.85422440944882
 20
-13.72268897637795
 10
20.85094094488189
 20
-13.71908267716536
 10
20.84746456692913
 20
-13.71566929133858
 10
20.84379527559055
 20
-13.71245275590551
 10
20.83993307086614
 20
-13.70942913385827
 10
20.83588188976378
 20
-13.70659448818898
 10
20.83163385826772
 20
-13.70395669291339
 10
20.8271968503937
 20
-13.70150393700787
 10
20.82246456692913
 20
-13.69930708661417
 10
20.81737007874016
 20
-13.69739763779527
 10
20.81191338582677
 20
-13.69578346456693
 10
20.80609842519685
 20
-13.69446456692913
 10
20.79992125984252
 20
-13.69343307086614
 10
20.79338188976378
 20
-13.69270078740158
 10
20.78647637795276
 20
-13.69225590551181
 10
20.7792125984252
 20
-13.69211023622047
 10
20.77187401574803
 20
-13.69236220472441
 10
20.76476771653543
 20
-13.69312204724409
 10
20.75789763779527
 20
-13.69438188976378
 10
20.75125590551181
 20
-13.69615354330709
 10
20.74485039370079
 20
-13.69842913385827
 10
20.73867716535433
 20
-13.70120866141732
 10
20.73273228346457
 20
-13.70449606299213
 10
20.72702362204724
 20
-13.70829133858268
 10
20.72207480314961
 20
-13.71208267716535
 10
20.71734645669291
 20
-13.71615748031496
 10
20.71284251968504
 20
-13.7205157480315
 10
20.70855511811024
 20
-13.72514566929134
 10
20.70449212598425
 20
-13.73005118110236
 10
20.70064566929134
 20
-13.73522834645669
 10
20.69702362204724
 20
-13.74066929133858
 10
20.69362204724409
 20
-13.74637401574803
 10
20.69100787401575
 20
-13.74110236220472
 10
20.68813779527559
 20
-13.73601968503937
 10
20.6850157480315
 20
-13.73114566929134
 10
20.68164566929134
 20
-13.72649212598425
 10
20.67855118110236
 20
-13.72268897637795
 10
20.67526771653543
 20
-13.71908267716536
 10
20.67179133858268
 20
-13.71566929133858
 10
20.66812204724409
 20
-13.71245275590551
 10
20.66425984251968
 20
-13.70942913385827
 10
20.66020866141732
 20
-13.70659448818898
 10
20.65596456692914
 20
-13.70395669291339
 10
20.65152755905512
 20
-13.70150393700787
 10
20.6468031496063
 20
-13.69930708661417
 10
20.6417125984252
 20
-13.69739763779527
 10
20.63625590551181
 20
-13.69578346456693
 10
20.63043700787401
 20
-13.69446456692913
 10
20.62425590551181
 20
-13.69343307086614
 10
20.6177125984252
 20
-13.69270078740158
 10
20.61080708661417
 20
-13.69225590551181
 10
20.60354330708661
 20
-13.69211023622047
 10
20.59620472440945
 20
-13.69236220472441
 10
20.58909842519685
 20
-13.69312204724409
 10
20.58222440944882
 20
-13.69438188976378
 10
20.57558661417323
 20
-13.69615354330709
 10
20.56917716535433
 20
-13.69842913385827
 10
20.56300393700787
 20
-13.70120866141732
 10
20.55706299212599
 20
-13.70449606299213
 10
20.55135039370079
 20
-13.70829133858268
 10
20.54663385826772
 20
-13.71191338582677
 10
20.54211811023622
 20
-13.71577165354331
 10
20.5378031496063
 20
-13.71987401574803
 10
20.53369291338583
 20
-13.72422047244094
 10
20.52977952755905
 20
-13.72881496062992
 10
20.52607086614173
 20
-13.73365748031496
 10
20.52256692913386
 20
-13.73875196850394
 10
20.51926771653543
 20
-13.74410236220472
 10
20.51926771653543
 20
-13.6985905511811
 10
20.4738937007874
 20
-13.6985905511811
 10
20.4738937007874
 20
-13.98402755905512
 10
20.51926771653543
 20
-13.98402755905512
 10
20.51926771653543
 20
-13.83795669291339
 10
20.52032283464567
 20
-13.82944881889764
 10
20.52170472440945
 20
-13.82127559055118
 10
20.52340551181102
 20
-13.81342913385827
 10
20.52543307086614
 20
-13.80591338582677
 10
20.5277874015748
 20
-13.79871653543307
 10
20.53046456692913
 20
-13.79184251968504
 10
20.53346850393701
 20
-13.7852874015748
 10
20.53679527559055
 20
-13.77904330708661
 10
20.53949606299213
 20
-13.77460236220472
 10
20.54241732283464
 20
-13.77036220472441
 10
20.54556299212598
 20
-13.76632677165354
 10
20.54893307086614
 20
-13.76249212598425
 10
20.55252362204724
 20
-13.75885826771654
 10
20.55634251968504
 20
-13.75542913385827
 10
20.56038188976378
 20
-13.75220078740158
 10
20.56464566929134
 20
-13.74917716535433
 10
20.56907086614173
 20
-13.74644488188976
 10
20.57357480314961
 20
-13.74407874015748
 10
20.57815354330709
 20
-13.74207086614173
 10
20.58281496062992
 20
-13.74043307086614
 10
20.58755118110236
 20
-13.73915354330709
 10
20.59236614173228
 20
-13.73824409448819
 10
20.59725590551181
 20
-13.73769291338583
 10
20.60222440944882
 20
-13.73751181102362
 10
20.6070905511811
 20
-13.73761023622047
 10
20.61162992125984
 20
-13.73790157480315
 10
20.61584645669291
 20
-13.73838582677165
 10
20.61974015748032
 20
-13.73906299212598
 10
20.6233031496063
 20
-13.73992913385827
 10
20.62654330708661
 20
-13.74098818897638
 10
20.62945275590551
 20
-13.74224015748032
 10
20.63203543307086
 20
-13.7436811023622
 10
20.63857874015748
 20
-13.74851181102362
 10
20.64424803149606
 20
-13.75417716535433
 10
20.64903937007874
 20
-13.76066929133858
 10
20.65295669291338
 20
-13.76799606299213
 10
20.65600393700787
 20
-13.77615354330709
 10
20.65817716535433
 20
-13.78514566929134
 10
20.65948031496063
 20
-13.79496850393701
 10
20.65991338582677
 20
-13.80562598425197
 10
20.65991338582677
 20
-13.98402755905512
 10
20.7052874015748
 20
-13.98402755905512
 10
20.7052874015748
 20
-13.80562598425197
 10
20.70498031496063
 20
-13.79471653543307
 10
20.71244094488189
 20
-13.77904330708661
 10
20.71514960629921
 20
-13.77460236220472
 10
20.71807874015748
 20
-13.77036220472441
 10
20.72122834645669
 20
-13.76632677165354
 10
20.72460236220472
 20
-13.76249212598425
 10
20.7281968503937
 20
-13.75885826771654
 10
20.73201181102362
 20
-13.75542913385827
 10
20.73605118110236
 20
-13.75220078740158
 10
20.74031496062992
 20
-13.74917716535433
 10
20.74472047244095
 20
-13.74644488188976
 10
20.7492125984252
 20
-13.74407874015748
 10
20.7537874015748
 20
-13.74207086614173
 10
20.75844488188977
 20
-13.74043307086614
 10
20.76318503937008
 20
-13.73915354330709
 10
20.76800787401575
 20
-13.73824409448819
 10
20.7729094488189
 20
-13.73769291338583
 10
20.77789763779528
 20
-13.73751181102362
 10
20.78275984251968
 20
-13.73761023622047
 10
20.7873031496063
 20
-13.73790157480315
 10
20.79151968503937
 20
-13.73838582677165
 10
20.79541338582677
 20
-13.73906299212598
 10
20.79898031496063
 20
-13.73992913385827
 10
20.80222440944882
 20
-13.74098818897638
 10
20.80514173228346
 20
-13.74224015748032
 10
20.80773622047244
 20
-13.7436811023622
 10
20.81427165354331
 20
-13.74851181102362
 10
20.81993700787402
 20
-13.75417716535433
 10
20.82472834645669
 20
-13.76066929133858
 10
20.82864566929134
 20
-13.76799606299213
 10
20.83169291338583
 20
-13.77615354330709
 10
20.83387007874016
 20
-13.78514566929134
 10
20.83517322834646
 20
-13.79496850393701
 10
20.83561023622047
 20
-13.80562598425197
 10
20.83561023622047
 20
-13.98402755905512
  0
LWPOLYLINE
  5
7D
330
1F
100
AcDbEntity
  8
Layer 1
 62
     7
370
    18
100
AcDbPolyline
 90
        4
 70
     1
 43
0.0
 10
15.98611811023622
 20
-13.36829133858268
 10
16.0143188976378
 20
-13.38033070866142
 10
16.00938976377953
 20
-13.35006692913386
 10
15.98611811023622
 20
-13.36829133858268
  0
LWPOLYLINE
  5
7E
330
1F
100
AcDbEntity
  8
Layer 1
 62
     7
370
    18
100
AcDbPolyline
 90
        4
 70
     1
 43
0.0
 10
12.81823622047244
 20
-9.323074803149606
 10
12.81330708661417
 20
-9.292807086614173
 10
12.84150787401575
 20
-9.304850393700788
 10
12.81823622047244
 20
-9.323074803149606
  0
LWPOLYLINE
  5
7F
330
1F
100
AcDbEntity
  8
Layer 1
 62
     7
370
    18
100
AcDbPolyline
 90
        2
 70
     0
 43
0.0
 10
16.02108267716535
 20
-13.38641338582677
 10
12.80902755905512
 20
-9.284787401574803
  0
LWPOLYLINE
  5
80
330
1F
100
AcDbEntity
  8
Layer 1
 62
     7
370
     9
100
AcDbPolyline
 90
        7
 70
     1
 43
0.0
 10
12.5109842519685
 20
-11.9530157480315
 10
12.55633070866142
 20
-11.9530157480315
 10
12.55633070866142
 20
-11.50667716535433
 10
12.44743307086614
 20
-11.51834251968504
 10
12.44743307086614
 20
-11.5579094488189
 10
12.5109842519685
 20
-11.5579094488189
 10
12.5109842519685
 20
-11.9530157480315
  0
LWPOLYLINE
  5
81
330
1F
100
AcDbEntity
  8
Layer 1
 62
     7
370
     9
100
AcDbPolyline
 90
       87
 70
     1
 43
0.0
 10
12.64192519685039
 20
-11.9530157480315
 10
12.95240551181102
 20
-11.9530157480315
 10
12.95240551181102
 20
-11.90761811023622
 10
12.75143700787402
 20
-11.90761811023622
 10
12.90506692913386
 20
-11.75512598425197
 10
12.91509448818898
 20
-11.74415748031496
 10
12.9237874015748
 20
-11.73263779527559
 10
12.93114173228346
 20
-11.72057086614173
 10
12.93716141732284
 20
-11.70795275590551
 10
12.94184251968504
 20
-11.6947874015748
 10
12.94518503937008
 20
-11.68107086614173
 10
12.94719291338583
 20
-11.6668031496063
 10
12.94786220472441
 20
-11.65198818897638
 10
12.94717716535433
 20
-11.63684645669291
 10
12.94512992125984
 20
-11.62231102362205
 10
12.94170866141732
 20
-11.60838582677165
 10
12.93692519685039
 20
-11.59507086614173
 10
12.93077165354331
 20
-11.58236220472441
 10
12.92325590551181
 20
-11.57025984251968
 10
12.91436614173228
 20
-11.55875984251968
 10
12.90411417322835
 20
-11.54787007874016
 10
12.89272047244095
 20
-11.53775590551181
 10
12.88081889763779
 20
-11.52899212598425
 10
12.86841338582677
 20
-11.52157874015748
 10
12.85549606299213
 20
-11.5155157480315
 10
12.84207874015748
 20
-11.51079921259842
 10
12.82815748031496
 20
-11.50743307086614
 10
12.81373228346457
 20
-11.50541338582677
 10
12.79880708661417
 20
-11.50474015748031
 10
12.78327952755905
 20
-11.50544881889764
 10
12.76833858267717
 20
-11.50757480314961
 10
12.75397637795276
 20
-11.51111811023622
 10
12.7401968503937
 20
-11.51608267716535
 10
12.72699606299213
 20
-11.52246456692913
 10
12.71437401574803
 20
-11.53027165354331
 10
12.70233070866142
 20
-11.53949606299213
 10
12.69086220472441
 20
-11.55014173228346
 10
12.68063779527559
 20
-11.56158661417323
 10
12.67186614173228
 20
-11.57363385826772
 10
12.66454724409449
 20
-11.58627952755906
 10
12.65867716535433
 20
-11.59952362204724
 10
12.65425590551181
 20
-11.61336614173228
 10
12.6512874015748
 20
-11.62781102362205
 10
12.64976377952756
 20
-11.64285433070866
 10
12.64969291338583
 20
-11.65849606299213
 10
12.69574015748032
 20
-11.65849606299213
 10
12.69534251968504
 20
-11.64835826771654
 10
12.69603937007874
 20
-11.63844881889764
 10
12.69783464566929
 20
-11.62877165354331
 10
12.70072440944882
 20
-11.61932283464567
 10
12.7047125984252
 20
-11.61011023622047
 10
12.70979527559055
 20
-11.60112992125984
 10
12.71597637795276
 20
-11.59238582677165
 10
12.72325196850394
 20
-11.58387401574803
 10
12.73103543307087
 20
-11.57627559055118
 10
12.73922047244094
 20
-11.56968897637795
 10
12.74781102362205
 20
-11.56411811023622
 10
12.7568031496063
 20
-11.55955905511811
 10
12.76620078740157
 20
-11.5560157480315
 10
12.776
 20
-11.5534842519685
 10
12.78620472440945
 20
-11.55196850393701
 10
12.79681496062992
 20
-11.55146062992126
 10
12.80722834645669
 20
-11.55191732283465
 10
12.81725196850394
 20
-11.55327952755906
 10
12.82688188976378
 20
-11.55555511811024
 10
12.83611811023622
 20
-11.55874409448819
 10
12.84496062992126
 20
-11.56284251968504
 10
12.85340551181102
 20
-11.56785433070866
 10
12.86146062992126
 20
-11.57378346456693
 10
12.86911417322835
 20
-11.58062204724409
 10
12.8761811023622
 20
-11.58818503937008
 10
12.8823031496063
 20
-11.59611811023622
 10
12.88748031496063
 20
-11.6044094488189
 10
12.8917125984252
 20
-11.61307086614173
 10
12.89500393700787
 20
-11.6220905511811
 10
12.89735433070866
 20
-11.63148031496063
 10
12.89876377952756
 20
-11.64122834645669
 10
12.89923228346457
 20
-11.65134251968504
 10
12.89877559055118
 20
-11.66167716535433
 10
12.89741338582677
 20
-11.67161023622047
 10
12.89513779527559
 20
-11.68114173228346
 10
12.89195275590551
 20
-11.69026377952756
 10
12.88785433070866
 20
-11.6989842519685
 10
12.88284645669291
 20
-11.70729921259842
 10
12.87692519685039
 20
-11.71520866141732
 10
12.87009448818898
 20
-11.72270866141732
 10
12.64192519685039
 20
-11.9530157480315
  0
LWPOLYLINE
  5
82
330
1F
100
AcDbEntity
  8
Layer 1
 62
     7
370
     9
100
AcDbPolyline
 90
       92
 70
     1
 43
0.0
 10
13.21655905511811
 20
-11.56312598425197
 10
13.22404724409449
 20
-11.5682125984252
 10
13.23102362204724
 20
-11.57399212598425
 10
13.23749606299213
 20
-11.58046062992126
 10
13.24346062992126
 20
-11.58761811023622
 10
13.24891732283464
 20
-11.59546456692913
 10
13.25386614173228
 20
-11.604
 10
13.25830708661417
 20
-11.61322440944882
 10
13.26224409448819
 20
-11.62313385826772
 10
13.26664960629921
 20
-11.63627952755905
 10
13.27046850393701
 20
-11.64962204724409
 10
13.2736968503937
 20
-11.66315748031496
 10
13.27633858267717
 20
-11.67688582677165
 10
13.2783937007874
 20
-11.69080708661417
 10
13.27985826771654
 20
-11.70492519685039
 10
13.28074015748031
 20
-11.71923228346457
 10
13.28103149606299
 20
-11.73373228346457
 10
13.27909842519685
 20
-11.76583858267717
 10
13.27685039370079
 20
-11.7832874015748
 10
13.27391732283465
 20
-11.79977165354331
 10
13.27029527559055
 20
-11.81529133858268
 10
13.2659842519685
 20
-11.82984645669291
 10
13.26098031496063
 20
-11.84343700787402
 10
13.2552874015748
 20
-11.85605905511811
 10
13.24890551181102
 20
-11.8677125984252
 10
13.24182677165354
 20
-11.87839763779528
 10
13.23537401574803
 20
-11.88647244094488
 10
13.22857874015748
 20
-11.89346850393701
 10
13.22144094488189
 20
-11.89938582677165
 10
13.21396062992126
 20
-11.90422834645669
 10
13.20613385826772
 20
-11.90799212598425
 10
13.19796850393701
 20
-11.91068503937008
 10
13.18945669291339
 20
-11.91229527559055
 10
13.1806062992126
 20
-11.91283464566929
 10
13.1706968503937
 20
-11.91229921259843
 10
13.16127165354331
 20
-11.9106968503937
 10
13.15232283464567
 20
-11.90802755905512
 10
13.14385433070866
 20
-11.90429133858268
 10
13.13586220472441
 20
-11.89949606299213
 10
13.12835039370079
 20
-11.89363385826772
 10
13.12131496062992
 20
-11.8867125984252
 10
13.11475590551181
 20
-11.87873622047244
 10
13.10935039370079
 20
-11.87086614173228
 10
13.10441338582677
 20
-11.86252362204724
 10
13.09994881889764
 20
-11.85368897637795
 10
13.09596456692913
 20
-11.84435433070866
 10
13.09246850393701
 20
-11.83474015748032
 10
13.08941732283465
 20
-11.82498818897638
 10
13.08681102362205
 20
-11.8151062992126
 10
13.08463779527559
 20
-11.80509842519685
 10
13.07911023622047
 20
-11.76617322834646
 10
13.07753937007874
 20
-11.72282283464567
 10
13.07764960629921
 20
-11.71651968503937
 10
13.07797637795276
 20
-11.70985039370079
 10
13.07852755905512
 20
-11.70281102362205
 10
13.07929921259842
 20
-11.69540551181102
 10
13.08029527559055
 20
-11.68762598425197
 10
13.0815157480315
 20
-11.67947637795276
 10
13.08296456692913
 20
-11.67095275590551
 10
13.08463779527559
 20
-11.66205511811024
 10
13.0867874015748
 20
-11.65217322834646
 10
13.08933858267716
 20
-11.64234251968504
 10
13.09229133858268
 20
-11.63255118110236
 10
13.09565748031496
 20
-11.62279527559055
 10
13.09949212598425
 20
-11.61332283464567
 10
13.10384645669291
 20
-11.60432677165354
 10
13.10872834645669
 20
-11.59581102362205
 10
13.11413779527559
 20
-11.58777165354331
 10
13.11704724409449
 20
-11.58397637795276
 10
13.12010236220472
 20
-11.58037401574803
 10
13.12329527559055
 20
-11.57696456692913
 10
13.12662992125984
 20
-11.57374409448819
 10
13.1301062992126
 20
-11.57072047244094
 10
13.13372047244095
 20
-11.56788188976378
 10
13.13747637795276
 20
-11.56524015748031
 10
13.14137007874016
 20
-11.5627874015748
 10
13.14543700787402
 20
-11.5605905511811
 10
13.14968503937008
 20
-11.5586811023622
 10
13.15411417322835
 20
-11.55706692913386
 10
13.15872440944882
 20
-11.55574803149606
 10
13.1635157480315
 20
-11.55471653543307
 10
13.16848818897638
 20
-11.5539842519685
 10
13.17364173228346
 20
-11.55353937007874
 10
13.17897637795276
 20
-11.5533937007874
 10
13.18431102362205
 20
-11.55354724409449
 10
13.18946850393701
 20
-11.55400393700787
 10
13.19444094488189
 20
-11.55476377952756
 10
13.19922834645669
 20
-11.55583070866142
 10
13.20383464566929
 20
-11.55720078740157
 10
13.20825984251968
 20
-11.55887007874016
 10
13.2125
 20
-11.56084645669291
 10
13.21655905511811
 20
-11.56312598425197
  0
LWPOLYLINE
  5
83
330
1F
100
AcDbEntity
  8
Layer 1
 62
     7
370
     9
100
AcDbPolyline
 90
       65
 70
     1
 43
0.0
 10
13.18122047244094
 20
-11.95885039370079
 10
13.20014566929134
 20
-11.95764960629921
 10
13.21786614173228
 20
-11.95404330708661
 10
13.23438188976378
 20
-11.94803937007874
 10
13.24969291338583
 20
-11.93962992125984
 10
13.26379921259842
 20
-11.92882283464567
 10
13.27670078740157
 20
-11.91561023622047
 10
13.28840157480315
 20
-11.9
 10
13.29889763779528
 20
-11.88198818897638
 10
13.30625590551181
 20
-11.86626377952756
 10
13.31262992125984
 20
-11.84966535433071
 10
13.31803149606299
 20
-11.83220078740158
 10
13.32244881889764
 20
-11.81386220472441
 10
13.32588582677165
 20
-11.79465354330709
 10
13.32834251968504
 20
-11.77457480314961
 10
13.32981496062992
 20
-11.75362204724409
 10
13.33030708661417
 20
-11.73179527559055
 10
13.32981496062992
 20
-11.70996850393701
 10
13.32834251968504
 20
-11.6890157480315
 10
13.32588582677165
 20
-11.66893700787402
 10
13.32244881889764
 20
-11.64972834645669
 10
13.31803149606299
 20
-11.63138976377953
 10
13.31262992125984
 20
-11.61392519685039
 10
13.30625590551181
 20
-11.59732677165354
 10
13.29889763779528
 20
-11.58160236220473
 10
13.28840157480315
 20
-11.5635905511811
 10
13.27670078740157
 20
-11.54798031496063
 10
13.26379921259842
 20
-11.53476771653543
 10
13.24969291338583
 20
-11.52396062992126
 10
13.23438188976378
 20
-11.51555118110236
 10
13.21786614173228
 20
-11.50954724409449
 10
13.20014566929134
 20
-11.50594094488189
 10
13.18122047244094
 20
-11.50474015748031
 10
13.1623031496063
 20
-11.50594094488189
 10
13.14458661417323
 20
-11.50954724409449
 10
13.12807480314961
 20
-11.51555118110236
 10
13.11276377952756
 20
-11.52396062992126
 10
13.09865748031496
 20
-11.53476771653543
 10
13.08575984251969
 20
-11.54798031496063
 10
13.07406299212598
 20
-11.5635905511811
 10
13.06357480314961
 20
-11.58160236220473
 10
13.05620866141732
 20
-11.59732677165354
 10
13.04982677165354
 20
-11.61392519685039
 10
13.04442125984252
 20
-11.63138976377953
 10
13.04
 20
-11.64972834645669
 10
13.03656299212598
 20
-11.66893700787402
 10
13.03410236220472
 20
-11.6890157480315
 10
13.03262992125984
 20
-11.70996850393701
 10
13.03213779527559
 20
-11.73179527559055
 10
13.03262992125984
 20
-11.75362204724409
 10
13.03410236220472
 20
-11.77457480314961
 10
13.03656299212598
 20
-11.79465354330709
 10
13.04
 20
-11.81386220472441
 10
13.04442125984252
 20
-11.83220078740158
 10
13.04982677165354
 20
-11.84966535433071
 10
13.05620866141732
 20
-11.86626377952756
 10
13.06357480314961
 20
-11.88198818897638
 10
13.07406299212598
 20
-11.9
 10
13.08575984251969
 20
-11.91561023622047
 10
13.09865748031496
 20
-11.92882283464567
 10
13.11276377952756
 20
-11.93962992125984
 10
13.12807480314961
 20
-11.94803937007874
 10
13.14458661417323
 20
-11.95404330708661
 10
13.1623031496063
 20
-11.95764960629921
 10
13.18122047244094
 20
-11.95885039370079
  0
LWPOLYLINE
  5
84
330
1F
100
AcDbEntity
  8
Layer 1
 62
     7
370
     9
100
AcDbPolyline
 90
      162
 70
     1
 43
0.0
 10
13.77304724409449
 20
-11.95172834645669
 10
13.81842519685039
 20
-11.95172834645669
 10
13.81842519685039
 20
-11.77332677165354
 10
13.81805511811024
 20
-11.76148031496063
 10
13.81694881889764
 20
-11.75019291338583
 10
13.81509842519685
 20
-11.73946062992126
 10
13.8125157480315
 20
-11.7292874015748
 10
13.80918897637795
 20
-11.71966929133858
 10
13.80512598425197
 20
-11.71061023622047
 10
13.80032283464567
 20
-11.70211023622047
 10
13.79478346456693
 20
-11.69416535433071
 10
13.79168897637795
 20
-11.69036220472441
 10
13.78840551181102
 20
-11.68675984251968
 10
13.78492913385827
 20
-11.68335039370079
 10
13.78125984251968
 20
-11.68013779527559
 10
13.77739763779527
 20
-11.67711811023622
 10
13.77334251968504
 20
-11.67429133858268
 10
13.76909842519685
 20
-11.67165354330709
 10
13.76466141732283
 20
-11.66920472440945
 10
13.75992913385827
 20
-11.667
 10
13.75483464566929
 20
-11.66508661417323
 10
13.74937795275591
 20
-11.66347244094488
 10
13.74356299212598
 20
-11.66215354330709
 10
13.73738582677165
 20
-11.66112598425197
 10
13.73084645669291
 20
-11.66039763779528
 10
13.72394094488189
 20
-11.65995669291339
 10
13.71667716535433
 20
-11.65981102362205
 10
13.70933858267717
 20
-11.66006299212598
 10
13.70222834645669
 20
-11.66082283464567
 10
13.69535433070866
 20
-11.66208267716535
 10
13.6887125984252
 20
-11.66385433070866
 10
13.6823031496063
 20
-11.66612992125984
 10
13.67612992125984
 20
-11.6689094488189
 10
13.67018897637795
 20
-11.6721968503937
 10
13.66448818897638
 20
-11.67599212598425
 10
13.65953937007874
 20
-11.67978346456693
 10
13.65481102362205
 20
-11.68385826771654
 10
13.6503031496063
 20
-11.6882125984252
 10
13.64601968503937
 20
-11.69284251968504
 10
13.64195275590551
 20
-11.69774409448819
 10
13.63811023622047
 20
-11.70291338582677
 10
13.63448818897638
 20
-11.70834645669291
 10
13.63108661417323
 20
-11.71404330708661
 10
13.62845669291339
 20
-11.7087874015748
 10
13.62558267716535
 20
-11.70371653543307
 10
13.62246456692913
 20
-11.69883464566929
 10
13.61911023622047
 20
-11.69416535433071
 10
13.61600787401575
 20
-11.69036220472441
 10
13.61272047244094
 20
-11.68675984251968
 10
13.60924015748031
 20
-11.68335039370079
 10
13.60557480314961
 20
-11.68013779527559
 10
13.6017125984252
 20
-11.67711811023622
 10
13.59765748031496
 20
-11.67429133858268
 10
13.5934094488189
 20
-11.67165354330709
 10
13.58896456692913
 20
-11.66920472440945
 10
13.58424803149606
 20
-11.667
 10
13.57916141732283
 20
-11.66508661417323
 10
13.5737125984252
 20
-11.66347244094488
 10
13.5678937007874
 20
-11.66215354330709
 10
13.5617125984252
 20
-11.66112598425197
 10
13.55516535433071
 20
-11.66039763779528
 10
13.54825590551181
 20
-11.65995669291339
 10
13.54098031496063
 20
-11.65981102362205
 10
13.53364960629921
 20
-11.66006299212598
 10
13.52654724409449
 20
-11.66082283464567
 10
13.51967322834646
 20
-11.66208267716535
 10
13.51303543307087
 20
-11.66385433070866
 10
13.50662992125984
 20
-11.66612992125984
 10
13.50045669291339
 20
-11.6689094488189
 10
13.49451968503937
 20
-11.6721968503937
 10
13.48881496062992
 20
-11.67599212598425
 10
13.4840905511811
 20
-11.67961417322835
 10
13.47957086614173
 20
-11.68347244094488
 10
13.47525196850394
 20
-11.68757480314961
 10
13.47114173228347
 20
-11.69192125984252
 10
13.46723622047244
 20
-11.6965157480315
 10
13.46353149606299
 20
-11.70135826771654
 10
13.46003149606299
 20
-11.70645275590551
 10
13.45673228346457
 20
-11.7118031496063
 10
13.45673228346457
 20
-11.66626377952756
 10
13.41135433070866
 20
-11.66626377952756
 10
13.41135433070866
 20
-11.95172834645669
 10
13.45673228346457
 20
-11.95172834645669
 10
13.45673228346457
 20
-11.80565748031496
 10
13.45777952755905
 20
-11.79714960629921
 10
13.45914960629921
 20
-11.78897244094488
 10
13.46085039370079
 20
-11.78112204724409
 10
13.46287795275591
 20
-11.77359842519685
 10
13.46523228346457
 20
-11.76639763779528
 10
13.46791338582677
 20
-11.75951968503937
 10
13.47092125984252
 20
-11.75295669291339
 10
13.47425984251968
 20
-11.7467125984252
 10
13.47695669291339
 20
-11.74227952755906
 10
13.47988188976378
 20
-11.73804330708662
 10
13.48302362204724
 20
-11.73400787401575
 10
13.4863937007874
 20
-11.73017716535433
 10
13.48998031496063
 20
-11.72654330708661
 10
13.49379133858268
 20
-11.72311811023622
 10
13.49782677165354
 20
-11.7198937007874
 10
13.50207874015748
 20
-11.71687795275591
 10
13.50650393700787
 20
-11.71413779527559
 10
13.51100787401575
 20
-11.71176771653543
 10
13.5155905511811
 20
-11.70975984251968
 10
13.52025196850394
 20
-11.70812204724409
 10
13.52499212598425
 20
-11.70684645669291
 10
13.52981496062992
 20
-11.70594094488189
 10
13.5347125984252
 20
-11.7053937007874
 10
13.53968897637795
 20
-11.7052125984252
 10
13.54455511811024
 20
-11.70530708661417
 10
13.54909448818898
 20
-11.70559842519685
 10
13.55331102362205
 20
-11.70607480314961
 10
13.55720472440945
 20
-11.70674803149606
 10
13.56076771653543
 20
-11.70761023622047
 10
13.56400787401575
 20
-11.70866929133858
 10
13.56691732283465
 20
-11.70991338582677
 10
13.5695
 20
-11.71135433070866
 10
13.57603543307087
 20
-11.7161968503937
 10
13.58170078740157
 20
-11.72186614173228
 10
13.58649212598425
 20
-11.72836220472441
 10
13.59041338582677
 20
-11.73569291338583
 10
13.59346062992126
 20
-11.74385433070866
 10
13.59563779527559
 20
-11.75284645669291
 10
13.59694094488189
 20
-11.76266929133858
 10
13.59737795275591
 20
-11.77332677165354
 10
13.59737795275591
 20
-11.95172834645669
 10
13.64275196850394
 20
-11.95172834645669
 10
13.64275196850394
 20
-11.77332677165354
 10
13.64241732283465
 20
-11.76238976377953
 10
13.64987401574803
 20
-11.7467125984252
 10
13.6525905511811
 20
-11.74227952755906
 10
13.65552755905512
 20
-11.73804330708662
 10
13.65868503937008
 20
-11.73400787401575
 10
13.66205905511811
 20
-11.73017716535433
 10
13.66564960629921
 20
-11.72654330708661
 10
13.66946456692913
 20
-11.72311811023622
 10
13.6735
 20
-11.7198937007874
 10
13.67775196850394
 20
-11.71687795275591
 10
13.68216535433071
 20
-11.71413779527559
 10
13.68666535433071
 20
-11.71176771653543
 10
13.69124409448819
 20
-11.70975984251968
 10
13.69590157480315
 20
-11.70812204724409
 10
13.70064566929134
 20
-11.70684645669291
 10
13.70546850393701
 20
-11.70594094488189
 10
13.71037007874016
 20
-11.7053937007874
 10
13.71535826771654
 20
-11.7052125984252
 10
13.72022440944882
 20
-11.70530708661417
 10
13.72476377952756
 20
-11.70559842519685
 10
13.72898031496063
 20
-11.70607480314961
 10
13.73287401574803
 20
-11.70674803149606
 10
13.73643700787402
 20
-11.70761023622047
 10
13.73967716535433
 20
-11.70866929133858
 10
13.7425905511811
 20
-11.70991338582677
 10
13.74517322834646
 20
-11.71135433070866
 10
13.75170866141732
 20
-11.7161968503937
 10
13.75737007874016
 20
-11.72186614173228
 10
13.76216141732283
 20
-11.72836220472441
 10
13.76608267716535
 20
-11.73569291338583
 10
13.76912992125984
 20
-11.74385433070866
 10
13.77130708661417
 20
-11.75284645669291
 10
13.77261023622047
 20
-11.76266929133858
 10
13.77304724409449
 20
-11.77332677165354
 10
13.77304724409449
 20
-11.95172834645669
  0
LWPOLYLINE
  5
85
330
1F
100
AcDbEntity
  8
Layer 1
 62
     7
370
     9
100
AcDbPolyline
 90
      162
 70
     1
 43
0.0
 10
14.26764173228347
 20
-11.95172834645669
 10
14.31301968503937
 20
-11.95172834645669
 10
14.31301968503937
 20
-11.77332677165354
 10
14.31264960629921
 20
-11.76148031496063
 10
14.31153937007874
 20
-11.75019291338583
 10
14.30968897637795
 20
-11.73946062992126
 10
14.30709842519685
 20
-11.7292874015748
 10
14.30377165354331
 20
-11.71966929133858
 10
14.29970866141732
 20
-11.71061023622047
 10
14.2949094488189
 20
-11.70211023622047
 10
14.28937795275591
 20
-11.69416535433071
 10
14.28627559055118
 20
-11.69036220472441
 10
14.2829842519685
 20
-11.68675984251968
 10
14.2795
 20
-11.68335039370079
 10
14.27582677165354
 20
-11.68013779527559
 10
14.27196456692913
 20
-11.67711811023622
 10
14.2679094488189
 20
-11.67429133858268
 10
14.26366535433071
 20
-11.67165354330709
 10
14.25922834645669
 20
-11.66920472440945
 10
14.25450393700787
 20
-11.667
 10
14.24941732283465
 20
-11.66508661417323
 10
14.24396456692913
 20
-11.66347244094488
 10
14.23814960629921
 20
-11.66215354330709
 10
14.23197244094488
 20
-11.66112598425197
 10
14.22542913385827
 20
-11.66039763779528
 10
14.21851968503937
 20
-11.65995669291339
 10
14.21124409448819
 20
-11.65981102362205
 10
14.20391338582677
 20
-11.66006299212598
 10
14.19681102362205
 20
-11.66082283464567
 10
14.18994094488189
 20
-11.66208267716535
 10
14.18329921259843
 20
-11.66385433070866
 10
14.17688976377953
 20
-11.66612992125984
 10
14.1707125984252
 20
-11.6689094488189
 10
14.16476771653543
 20
-11.6721968503937
 10
14.15905511811024
 20
-11.67599212598425
 10
14.15411417322835
 20
-11.67978346456693
 10
14.1493937007874
 20
-11.68385826771654
 10
14.14488582677165
 20
-11.6882125984252
 10
14.14060236220472
 20
-11.69284251968504
 10
14.13653543307087
 20
-11.69774409448819
 10
14.13269291338583
 20
-11.70291338582677
 10
14.12907480314961
 20
-11.70834645669291
 10
14.1256811023622
 20
-11.71404330708661
 10
14.12305118110236
 20
-11.7087874015748
 10
14.12017716535433
 20
-11.70371653543307
 10
14.11705905511811
 20
-11.69883464566929
 10
14.11370472440945
 20
-11.69416535433071
 10
14.11060236220472
 20
-11.69036220472441
 10
14.10731102362205
 20
-11.68675984251968
 10
14.10383070866142
 20
-11.68335039370079
 10
14.10015748031496
 20
-11.68013779527559
 10
14.09629527559055
 20
-11.67711811023622
 10
14.09224015748032
 20
-11.67429133858268
 10
14.08799606299213
 20
-11.67165354330709
 10
14.08355905511811
 20
-11.66920472440945
 10
14.07884251968504
 20
-11.667
 10
14.07375984251969
 20
-11.66508661417323
 10
14.06830708661417
 20
-11.66347244094488
 10
14.06249212598425
 20
-11.66215354330709
 10
14.05630708661417
 20
-11.66112598425197
 10
14.04975984251969
 20
-11.66039763779528
 10
14.04285039370079
 20
-11.65995669291339
 10
14.03557480314961
 20
-11.65981102362205
 10
14.02824409448819
 20
-11.66006299212598
 10
14.02114173228346
 20
-11.66082283464567
 10
14.01426771653543
 20
-11.66208267716535
 10
14.00762598425197
 20
-11.66385433070866
 10
14.00121653543307
 20
-11.66612992125984
 10
13.99503937007874
 20
-11.6689094488189
 10
13.98909448818898
 20
-11.6721968503937
 10
13.98338188976378
 20
-11.67599212598425
 10
13.97866535433071
 20
-11.67961417322835
 10
13.97414960629921
 20
-11.68347244094488
 10
13.96983464566929
 20
-11.68757480314961
 10
13.96572440944882
 20
-11.69192125984252
 10
13.96181102362205
 20
-11.6965157480315
 10
13.95810236220473
 20
-11.70135826771654
 10
13.95459842519685
 20
-11.70645275590551
 10
13.95129921259842
 20
-11.7118031496063
 10
13.95129921259842
 20
-11.66626377952756
 10
13.90595275590551
 20
-11.66626377952756
 10
13.90595275590551
 20
-11.95172834645669
 10
13.95129921259842
 20
-11.95172834645669
 10
13.95129921259842
 20
-11.80565748031496
 10
13.95235433070866
 20
-11.79714960629921
 10
13.95373622047244
 20
-11.78897244094488
 10
13.95543700787402
 20
-11.78112204724409
 10
13.95746456692913
 20
-11.77359842519685
 10
13.9598188976378
 20
-11.76639763779528
 10
13.96249606299213
 20
-11.75951968503937
 10
13.9655
 20
-11.75295669291339
 10
13.96882677165354
 20
-11.7467125984252
 10
13.97152362204724
 20
-11.74227952755906
 10
13.97444881889764
 20
-11.73804330708662
 10
13.97759448818898
 20
-11.73400787401575
 10
13.98096456692913
 20
-11.73017716535433
 10
13.98455511811024
 20
-11.72654330708661
 10
13.98837401574803
 20
-11.72311811023622
 10
13.99241338582677
 20
-11.7198937007874
 10
13.99667716535433
 20
-11.71687795275591
 10
14.00110236220472
 20
-11.71413779527559
 10
14.0056062992126
 20
-11.71176771653543
 10
14.01018503937008
 20
-11.70975984251968
 10
14.01484645669291
 20
-11.70812204724409
 10
14.01958267716535
 20
-11.70684645669291
 10
14.02439763779527
 20
-11.70594094488189
 10
14.0292874015748
 20
-11.7053937007874
 10
14.03425590551181
 20
-11.7052125984252
 10
14.03912204724409
 20
-11.70530708661417
 10
14.04366141732283
 20
-11.70559842519685
 10
14.04788188976378
 20
-11.70607480314961
 10
14.05177559055118
 20
-11.70674803149606
 10
14.05534251968504
 20
-11.70761023622047
 10
14.05858661417323
 20
-11.70866929133858
 10
14.06150393700787
 20
-11.70991338582677
 10
14.06409448818898
 20
-11.71135433070866
 10
14.07062992125984
 20
-11.7161968503937
 10
14.07629527559055
 20
-11.72186614173228
 10
14.08108661417323
 20
-11.72836220472441
 10
14.08500787401575
 20
-11.73569291338583
 10
14.08805511811024
 20
-11.74385433070866
 10
14.09023228346457
 20
-11.75284645669291
 10
14.09153543307087
 20
-11.76266929133858
 10
14.09197244094488
 20
-11.77332677165354
 10
14.09197244094488
 20
-11.95172834645669
 10
14.1373188976378
 20
-11.95172834645669
 10
14.1373188976378
 20
-11.77332677165354
 10
14.13701181102362
 20
-11.76238976377953
 10
14.14447244094488
 20
-11.7467125984252
 10
14.14718110236221
 20
-11.74227952755906
 10
14.15011023622047
 20
-11.73804330708662
 10
14.15325984251968
 20
-11.73400787401575
 10
14.15663385826772
 20
-11.73017716535433
 10
14.16022834645669
 20
-11.72654330708661
 10
14.16404330708661
 20
-11.72311811023622
 10
14.16808267716535
 20
-11.7198937007874
 10
14.17234645669291
 20
-11.71687795275591
 10
14.17676377952756
 20
-11.71413779527559
 10
14.18125984251968
 20
-11.71176771653543
 10
14.18583858267717
 20
-11.70975984251968
 10
14.1905
 20
-11.70812204724409
 10
14.19524015748032
 20
-11.70684645669291
 10
14.20006692913386
 20
-11.70594094488189
 10
14.20496850393701
 20
-11.7053937007874
 10
14.20995669291339
 20
-11.7052125984252
 10
14.21481889763779
 20
-11.70530708661417
 10
14.21935826771653
 20
-11.70559842519685
 10
14.22357086614173
 20
-11.70607480314961
 10
14.22746062992126
 20
-11.70674803149606
 10
14.23102362204724
 20
-11.70761023622047
 10
14.23425984251969
 20
-11.70866929133858
 10
14.23717716535433
 20
-11.70991338582677
 10
14.23976771653543
 20
-11.71135433070866
 10
14.2463031496063
 20
-11.7161968503937
 10
14.25196456692913
 20
-11.72186614173228
 10
14.25675590551181
 20
-11.72836220472441
 10
14.26067716535433
 20
-11.73569291338583
 10
14.26372440944882
 20
-11.74385433070866
 10
14.26590157480315
 20
-11.75284645669291
 10
14.26720472440945
 20
-11.76266929133858
 10
14.26764173228347
 20
-11.77332677165354
 10
14.26764173228347
 20
-11.95172834645669
  0
ENDSEC
  0
SECTION
  2
OBJECTS
  0
DICTIONARY
  5
C
330
0
100
AcDbDictionary
281
     1
  3
ACAD_DETAILVIEWSTYLE
350
8D
  3
ACAD_GROUP
350
D
  3
ACAD_LAYOUT
350
1A
  3
ACAD_MATERIAL
350
43
  3
ACAD_MLEADERSTYLE
350
5B
  3
ACAD_MLINESTYLE
350
17
  3
ACAD_PLOTSETTINGS
350
19
  3
ACAD_PLOTSTYLENAME
350
E
  3
ACAD_SCALELIST
350
47
  3
ACAD_SECTIONVIEWSTYLE
350
8E
  3
ACAD_TABLESTYLE
350
59
  3
ACAD_VISUALSTYLE
350
2A
  3
ACDB_RECOMPOSE_DATA
350
8A
  3
AcDbVariableDictionary
350
86
  0
SUN
  5
5D
330
29
100
AcDbSun
 90
        1
290
     0
 63
     7
421
 16777215
 40
1.0
291
     1
 91
  2455826
 92
 54000000
292
     0
 70
     2
 71
   256
280
     1
  0
DICTIONARY
  5
8D
102
{ACAD_REACTORS
330
C
102
}
330
C
100
AcDbDictionary
281
     1
  0
DICTIONARY
  5
D
102
{ACAD_REACTORS
330
C
102
}
330
C
100
AcDbDictionary
281
     1
  0
DICTIONARY
  5
1A
102
{ACAD_REACTORS
330
C
102
}
330
C
100
AcDbDictionary
281
     1
  3
Layout1
350
1E
  3
Layout2
350
26
  3
Model
350
22
  0
DICTIONARY
  5
43
102
{ACAD_REACTORS
330
C
102
}
330
C
100
AcDbDictionary
281
     1
  3
ByBlock
350
45
  3
ByLayer
350
44
  3
Global
350
46
  0
DICTIONARY
  5
5B
102
{ACAD_REACTORS
330
C
102
}
330
C
100
AcDbDictionary
281
     1
  3
Standard
350
5C
  0
DICTIONARY
  5
17
102
{ACAD_REACTORS
330
C
102
}
330
C
100
AcDbDictionary
281
     1
  3
Standard
350
18
  0
DICTIONARY
  5
19
102
{ACAD_REACTORS
330
C
102
}
330
C
100
AcDbDictionary
281
     1
  0
ACDBDICTIONARYWDFLT
  5
E
102
{ACAD_REACTORS
330
C
102
}
330
C
100
AcDbDictionary
281
     1
  3
Normal
350
F
100
AcDbDictionaryWithDefault
340
F
  0
DICTIONARY
  5
47
102
{ACAD_REACTORS
330
C
102
}
330
C
100
AcDbDictionary
281
     1
  3
A0
350
48
  3
A1
350
49
  3
A2
350
4A
  3
A3
350
4B
  3
A4
350
4C
  3
A5
350
4D
  3
A6
350
4E
  3
A7
350
4F
  3
A8
350
50
  3
A9
350
51
  3
B1
350
52
  3
B2
350
53
  3
B3
350
54
  3
B4
350
55
  3
B5
350
56
  3
B6
350
57
  3
B7
350
58
  0
DICTIONARY
  5
8E
102
{ACAD_REACTORS
330
C
102
}
330
C
100
AcDbDictionary
281
     1
  0
DICTIONARY
  5
59
102
{ACAD_REACTORS
330
C
102
}
330
C
100
AcDbDictionary
281
     1
  3
Standard
350
5A
  0
DICTIONARY
  5
2A
102
{ACAD_REACTORS
330
C
102
}
330
C
100
AcDbDictionary
281
     1
  3
2dWireframe
350
2F
  3
Basic
350
32
  3
Brighten
350
36
  3
ColorChange
350
3A
  3
Conceptual
350
34
  3
Dim
350
35
  3
EdgeColorOff
350
3D
  3
Facepattern
350
39
  3
Flat
350
2B
  3
FlatWithEdges
350
2C
  3
Gouraud
350
2D
  3
GouraudWithEdges
350
2E
  3
Hidden
350
31
  3
JitterOff
350
3B
  3
Linepattern
350
38
  3
OverhangOff
350
3C
  3
Realistic
350
33
  3
Shaded
350
42
  3
Shaded with edges
350
41
  3
Shades of Gray
350
3E
  3
Sketchy
350
3F
  3
Thicken
350
37
  3
Wireframe
350
30
  3
X-Ray
350
40
  0
XRECORD
  5
8A
102
{ACAD_REACTORS
330
C
102
}
330
C
100
AcDbXrecord
280
     1
 90
        1
330
5A
  0
DICTIONARY
  5
86
102
{ACAD_REACTORS
330
C
102
}
330
C
100
AcDbDictionary
281
     1
  3
CANNOSCALE
350
87
  3
CMLEADERSTYLE
350
8C
  3
CTABLESTYLE
350
8B
  0
LAYOUT
  5
1E
102
{ACAD_REACTORS
330
1A
102
}
330
1A
100
AcDbPlotSettings
  1

  2
none_device
  4

  6

 40
0.0
 41
0.0
 42
0.0
 43
0.0
 44
0.0
 45
0.0
 46
0.0
 47
0.0
 48
0.0
 49
0.0
140
0.0
141
0.0
142
1.0
143
1.0
 70
   688
 72
     0
 73
     0
 74
     5
  7

 75
    16
 76
     0
 77
     2
 78
   300
147
1.0
148
0.0
149
0.0
100
AcDbLayout
  1
Layout1
 70
     1
 71
     1
 10
0.0
 20
0.0
 11
12.0
 21
9.0
 12
0.0
 22
0.0
 32
0.0
 14
1.000000000000000E+20
 24
1.000000000000000E+20
 34
1.000000000000000E+20
 15
-1.000000000000000E+20
 25
-1.000000000000000E+20
 35
-1.000000000000000E+20
146
0.0
 13
0.0
 23
0.0
 33
0.0
 16
1.0
 26
0.0
 36
0.0
 17
0.0
 27
1.0
 37
0.0
 76
     0
330
1B
  0
LAYOUT
  5
26
102
{ACAD_REACTORS
330
1A
102
}
330
1A
100
AcDbPlotSettings
  1

  2
none_device
  4

  6

 40
0.0
 41
0.0
 42
0.0
 43
0.0
 44
0.0
 45
0.0
 46
0.0
 47
0.0
 48
0.0
 49
0.0
140
0.0
141
0.0
142
1.0
143
1.0
 70
   688
 72
     0
 73
     0
 74
     5
  7

 75
    16
 76
     0
 77
     2
 78
   300
147
1.0
148
0.0
149
0.0
100
AcDbLayout
  1
Layout2
 70
     1
 71
     2
 10
0.0
 20
0.0
 11
0.0
 21
0.0
 12
0.0
 22
0.0
 32
0.0
 14
0.0
 24
0.0
 34
0.0
 15
0.0
 25
0.0
 35
0.0
146
0.0
 13
0.0
 23
0.0
 33
0.0
 16
1.0
 26
0.0
 36
0.0
 17
0.0
 27
1.0
 37
0.0
 76
     0
330
23
  0
LAYOUT
  5
22
102
{ACAD_REACTORS
330
1A
102
}
330
1A
100
AcDbPlotSettings
  1

  2
none_device
  4
Letter_(8.50_x_11.00_Inches)
  6

 40
6.35
 41
6.35
 42
6.35000508
 43
6.35000508
 44
215.9
 45
279.4
 46
0.0
 47
0.0
 48
0.0
 49
0.0
140
0.0
141
0.0
142
1.0
143
1.0
 70
  1712
 72
     0
 73
     0
 74
     0
  7

 75
     0
 76
     0
 77
     2
 78
   300
147
1.0
148
0.0
149
0.0
100
AcDbLayout
  1
Model
 70
     1
 71
     0
 10
0.0
 20
0.0
 11
12.0
 21
9.0
 12
0.0
 22
0.0
 32
0.0
 14
11.92084251968504
 24
-15.67612204724409
 34
0.0
 15
25.50047244094488
 25
1.732909448818898
 35
0.0
146
0.0
 13
0.0
 23
0.0
 33
0.0
 16
1.0
 26
0.0
 36
0.0
 17
0.0
 27
1.0
 37
0.0
 76
     0
330
1F
331
29
  0
MATERIAL
  5
45
102
{ACAD_REACTORS
330
43
102
}
330
43
100
AcDbMaterial
  1
ByBlock
 72
     1
 94
      127
  0
MATERIAL
  5
44
102
{ACAD_REACTORS
330
43
102
}
330
43
100
AcDbMaterial
  1
ByLayer
 72
     1
 94
      127
  0
MATERIAL
  5
46
102
{ACAD_REACTORS
330
43
102
}
330
43
100
AcDbMaterial
  1
Global
 72
     1
 94
      127
  0
MLEADERSTYLE
  5
5C
102
{ACAD_REACTORS
330
5B
102
}
330
5B
100
AcDbMLeaderStyle
179
     2
170
     2
171
     1
172
     0
 90
        2
 40
0.0
 41
0.0
173
     1
 91
-1056964608
340
14
 92
       -2
290
     1
 42
0.09
291
     1
 43
0.36
  3
Standard
341
0
 44
0.18
300

342
11
174
     1
178
     6
175
     1
176
     0
 93
-1056964608
 45
0.18
292
     0
297
     0
 46
0.18
343
0
 94
-1056964608
 47
1.0
 49
1.0
140
1.0
293
     1
141
0.0
294
     1
177
     0
142
1.0
295
     0
296
     0
143
0.125
271
     0
272
     9
273
     9
298
     0
  0
MLINESTYLE
  5
18
102
{ACAD_REACTORS
330
17
102
}
330
17
100
AcDbMlineStyle
  2
Standard
 70
     0
  3

 62
   256
 51
90.0
 52
90.0
 71
     2
 49
0.5
 62
   256
  6
BYLAYER
 49
-0.5
 62
   256
  6
BYLAYER
  0
ACDBPLACEHOLDER
  5
F
102
{ACAD_REACTORS
330
E
102
}
330
E
  0
SCALE
  5
48
102
{ACAD_REACTORS
330
47
102
}
330
47
100
AcDbScale
 70
     0
300
1:1
140
1.0
141
1.0
290
     1
  0
SCALE
  5
49
102
{ACAD_REACTORS
330
47
102
}
330
47
100
AcDbScale
 70
     0
300
1/128" = 1'-0"
140
0.0078125
141
12.0
290
     0
  0
SCALE
  5
4A
102
{ACAD_REACTORS
330
47
102
}
330
47
100
AcDbScale
 70
     0
300
1/64" = 1'-0"
140
0.015625
141
12.0
290
     0
  0
SCALE
  5
4B
102
{ACAD_REACTORS
330
47
102
}
330
47
100
AcDbScale
 70
     0
300
1/32" = 1'-0"
140
0.03125
141
12.0
290
     0
  0
SCALE
  5
4C
102
{ACAD_REACTORS
330
47
102
}
330
47
100
AcDbScale
 70
     0
300
1/16" = 1'-0"
140
0.0625
141
12.0
290
     0
  0
SCALE
  5
4D
102
{ACAD_REACTORS
330
47
102
}
330
47
100
AcDbScale
 70
     0
300
3/32" = 1'-0"
140
0.09375
141
12.0
290
     0
  0
SCALE
  5
4E
102
{ACAD_REACTORS
330
47
102
}
330
47
100
AcDbScale
 70
     0
300
1/8" = 1'-0"
140
0.125
141
12.0
290
     0
  0
SCALE
  5
4F
102
{ACAD_REACTORS
330
47
102
}
330
47
100
AcDbScale
 70
     0
300
3/16" = 1'-0"
140
0.1875
141
12.0
290
     0
  0
SCALE
  5
50
102
{ACAD_REACTORS
330
47
102
}
330
47
100
AcDbScale
 70
     0
300
1/4" = 1'-0"
140
0.25
141
12.0
290
     0
  0
SCALE
  5
51
102
{ACAD_REACTORS
330
47
102
}
330
47
100
AcDbScale
 70
     0
300
3/8" = 1'-0"
140
0.375
141
12.0
290
     0
  0
SCALE
  5
52
102
{ACAD_REACTORS
330
47
102
}
330
47
100
AcDbScale
 70
     0
300
1/2" = 1'-0"
140
0.5
141
12.0
290
     0
  0
SCALE
  5
53
102
{ACAD_REACTORS
330
47
102
}
330
47
100
AcDbScale
 70
     0
300
3/4" = 1'-0"
140
0.75
141
12.0
290
     0
  0
SCALE
  5
54
102
{ACAD_REACTORS
330
47
102
}
330
47
100
AcDbScale
 70
     0
300
1" = 1'-0"
140
1.0
141
12.0
290
     0
  0
SCALE
  5
55
102
{ACAD_REACTORS
330
47
102
}
330
47
100
AcDbScale
 70
     0
300
1-1/2" = 1'-0"
140
1.5
141
12.0
290
     0
  0
SCALE
  5
56
102
{ACAD_REACTORS
330
47
102
}
330
47
100
AcDbScale
 70
     0
300
3" = 1'-0"
140
3.0
141
12.0
290
     0
  0
SCALE
  5
57
102
{ACAD_REACTORS
330
47
102
}
330
47
100
AcDbScale
 70
     0
300
6" = 1'-0"
140
6.0
141
12.0
290
     0
  0
SCALE
  5
58
102
{ACAD_REACTORS
330
47
102
}
330
47
100
AcDbScale
 70
     0
300
1'-0" = 1'-0"
140
12.0
141
12.0
290
     0
  0
TABLESTYLE
  5
5A
102
{ACAD_REACTORS
330
59
102
}
102
{ACAD_XDICTIONARY
360
88
102
}
330
59
100
AcDbTableStyle
  3
Standard
 70
     0
 71
     0
 40
0.06
 41
0.06
280
     0
281
     0
  7
Standard
140
0.18
170
     2
 62
     0
 63
   257
283
     0
 90
        4
 91
        0
  1

274
    -2
284
     1
 64
     0
275
    -2
285
     1
 65
     0
276
    -2
286
     1
 66
     0
277
    -2
287
     1
 67
     0
278
    -2
288
     1
 68
     0
279
    -2
289
     1
 69
     0
  7
Standard
140
0.25
170
     5
 62
     0
 63
   257
283
     0
 90
        4
 91
        0
  1

274
    -2
284
     1
 64
     0
275
    -2
285
     1
 65
     0
276
    -2
286
     1
 66
     0
277
    -2
287
     1
 67
     0
278
    -2
288
     1
 68
     0
279
    -2
289
     1
 69
     0
  7
Standard
140
0.18
170
     5
 62
     0
 63
   257
283
     0
 90
        4
 91
        0
  1

274
    -2
284
     1
 64
     0
275
    -2
285
     1
 65
     0
276
    -2
286
     1
 66
     0
277
    -2
287
     1
 67
     0
278
    -2
288
     1
 68
     0
279
    -2
289
     1
 69
     0
  0
VISUALSTYLE
  5
2F
102
{ACAD_REACTORS
330
2A
102
}
330
2A
100
AcDbVisualStyle
  2
2dWireframe
 70
     4
177
     3
291
     0
 70
    58
 90
        0
176
     1
 90
        2
176
     1
 90
        0
176
     1
 90
        0
176
     1
 40
0.6
176
     1
 40
30.0
176
     1
 62
     7
420
 16777215
176
     1
 90
        1
176
     1
 90
        4
176
     1
 62
     7
176
     1
 62
   257
176
     1
 90
        1
176
     1
 90
        1
176
     1
 40
1.0
176
     1
 90
        0
176
     1
 62
   257
176
     1
 40
1.0
176
     1
 90
        1
176
     1
 90
        6
176
     1
 90
        2
176
     1
 62
     7
176
     1
 90
        5
176
     1
 90
        0
176
     1
 90
        0
176
     1
290
     0
176
     1
 90
        1
176
     1
 40
0.0
176
     1
 90
        0
176
     1
290
     1
176
     1
290
     1
176
     1
290
     0
176
     1
290
     0
176
     1
290
     0
176
     1
290
     0
176
     1
290
     0
176
     1
290
     0
176
     1
290
     0
176
     1
 90
       50
176
     1
 40
0.0
176
     1
 40
1.0
176
     1
 90
        0
176
     1
 62
    18
420
        0
176
     1
 90
       50
176
     1
 90
        3
176
     1
 62
     5
420
      255
176
     1
290
     0
176
     1
 90
       50
176
     1
 90
       50
176
     1
 90
       50
176
     1
290
     0
176
     1
 90
       50
176
     1
 62
   256
176
     0
 40
1.0
176
     0
 90
        2
176
     1
  1
strokes_ogs.tif
176
     1
290
     0
176
     1
 40
1.0
176
     1
 40
1.0
176
     1
  0
VISUALSTYLE
  5
32
102
{ACAD_REACTORS
330
2A
102
}
330
2A
100
AcDbVisualStyle
  2
Basic
 70
     7
177
     3
291
     1
 70
    58
 90
        1
176
     1
 90
        0
176
     1
 90
        1
176
     1
 90
        0
176
     1
 40
0.6
176
     1
 40
30.0
176
     1
 62
     7
420
 16777215
176
     1
 90
        0
176
     1
 90
        4
176
     1
 62
     7
176
     1
 62
   257
176
     1
 90
        1
176
     1
 90
        1
176
     1
 40
1.0
176
     1
 90
        8
176
     1
 62
     7
176
     1
 40
1.0
176
     1
 90
        1
176
     1
 90
        6
176
     1
 90
        2
176
     1
 62
     7
176
     1
 90
        5
176
     1
 90
        0
176
     1
 90
        0
176
     1
290
     0
176
     1
 90
        1
176
     1
 40
0.0
176
     1
 90
        0
176
     1
290
     0
176
     1
290
     1
176
     1
290
     1
176
     1
290
     0
176
     1
290
     0
176
     1
290
     0
176
     1
290
     0
176
     1
290
     0
176
     1
290
     0
176
     1
 90
       50
176
     1
 40
0.0
176
     1
 40
1.0
176
     1
 90
        0
176
     1
 62
    18
420
        0
176
     1
 90
       50
176
     1
 90
        3
176
     1
 62
     5
420
      255
176
     1
290
     0
176
     1
 90
       50
176
     1
 90
       50
176
     1
 90
       50
176
     1
290
     0
176
     1
 90
       50
176
     1
 62
   256
176
     0
 40
1.0
176
     0
 90
        2
176
     1
  1
strokes_ogs.tif
176
     1
290
     0
176
     1
 40
1.0
176
     1
 40
1.0
176
     1
  0
VISUALSTYLE
  5
36
102
{ACAD_REACTORS
330
2A
102
}
330
2A
100
AcDbVisualStyle
  2
Brighten
 70
    12
177
     3
291
     1
 70
    58
 90
        2
176
     1
 90
        2
176
     1
 90
        0
176
     1
 90
        0
176
     1
 40
0.6
176
     1
 40
30.0
176
     1
 62
     7
420
 16777215
176
     1
 90
        1
176
     1
 90
        4
176
     1
 62
     7
176
     1
 62
   257
176
     1
 90
        1
176
     1
 90
        1
176
     1
 40
1.0
176
     1
 90
        8
176
     1
 62
     7
176
     1
 40
1.0
176
     1
 90
        1
176
     1
 90
        6
176
     1
 90
        2
176
     1
 62
     7
176
     1
 90
        5
176
     1
 90
        0
176
     1
 90
        0
176
     1
290
     0
176
     1
 90
        1
176
     1
 40
50.0
176
     1
 90
        0
176
     1
290
     0
176
     1
290
     1
176
     1
290
     1
176
     1
290
     0
176
     1
290
     0
176
     1
290
     0
176
     1
290
     0
176
     1
290
     0
176
     1
290
     0
176
     1
 90
       50
176
     1
 40
0.0
176
     1
 40
1.0
176
     1
 90
        0
176
     1
 62
    18
420
        0
176
     1
 90
       50
176
     1
 90
        3
176
     1
 62
     5
420
      255
176
     1
290
     0
176
     1
 90
       50
176
     1
 90
       50
176
     1
 90
       50
176
     1
290
     0
176
     1
 90
       50
176
     1
 62
   256
176
     0
 40
1.0
176
     0
 90
        2
176
     1
  1
strokes_ogs.tif
176
     1
290
     0
176
     1
 40
1.0
176
     1
 40
1.0
176
     1
  0
VISUALSTYLE
  5
3A
102
{ACAD_REACTORS
330
2A
102
}
330
2A
100
AcDbVisualStyle
  2
ColorChange
 70
    16
177
     3
291
     1
 70
    58
 90
        2
176
     1
 90
        2
176
     1
 90
        3
176
     1
 90
        0
176
     1
 40
0.6
176
     1
 40
30.0
176
     1
 62
     8
420
  8421504
176
     1
 90
        1
176
     1
 90
        4
176
     1
 62
     7
176
     1
 62
   257
176
     1
 90
        1
176
     1
 90
        1
176
     1
 40
1.0
176
     1
 90
        8
176
     1
 62
     8
420
  8421504
176
     1
 40
1.0
176
     1
 90
        1
176
     1
 90
        6
176
     1
 90
        2
176
     1
 62
     7
176
     1
 90
        5
176
     1
 90
        0
176
     1
 90
        0
176
     1
290
     0
176
     1
 90
        1
176
     1
 40
0.0
176
     1
 90
        0
176
     1
290
     0
176
     1
290
     1
176
     1
290
     1
176
     1
290
     0
176
     1
290
     0
176
     1
290
     0
176
     1
290
     0
176
     1
290
     0
176
     1
290
     0
176
     1
 90
       50
176
     1
 40
0.0
176
     1
 40
1.0
176
     1
 90
        0
176
     1
 62
    18
420
        0
176
     1
 90
       50
176
     1
 90
        3
176
     1
 62
     5
420
      255
176
     1
290
     0
176
     1
 90
       50
176
     1
 90
       50
176
     1
 90
       50
176
     1
290
     0
176
     1
 90
       50
176
     1
 62
   256
176
     0
 40
1.0
176
     0
 90
        2
176
     1
  1
strokes_ogs.tif
176
     1
290
     0
176
     1
 40
1.0
176
     1
 40
1.0
176
     1
  0
VISUALSTYLE
  5
34
102
{ACAD_REACTORS
330
2A
102
}
330
2A
100
AcDbVisualStyle
  2
Conceptual
 70
     9
177
     3
291
     0
 70
    58
 90
        3
176
     1
 90
        2
176
     1
 90
        0
176
     1
 90
        0
176
     1
 40
0.6
176
     1
 40
30.0
176
     1
 62
     7
420
 16777215
176
     1
 90
        2
176
     1
 90
        2
176
     1
 62
     7
176
     1
 62
   257
176
     1
 90
        1
176
     1
 90
        1
176
     1
 40
179.0
176
     1
 90
        8
176
     1
 62
     7
176
     1
 40
1.0
176
     1
 90
        1
176
     1
 90
        6
176
     1
 90
        2
176
     1
 62
     7
176
     1
 90
        3
176
     1
 90
        0
176
     1
 90
        0
176
     1
290
     0
176
     1
 90
        1
176
     1
 40
0.0
176
     1
 90
        0
176
     1
290
     0
176
     1
290
     1
176
     1
290
     1
176
     1
290
     0
176
     1
290
     0
176
     1
290
     0
176
     1
290
     0
176
     1
290
     0
176
     1
290
     0
176
     1
 90
       50
176
     1
 40
0.0
176
     1
 40
1.0
176
     1
 90
        0
176
     1
 62
    18
420
        0
176
     1
 90
       50
176
     1
 90
        3
176
     1
 62
     5
420
      255
176
     1
290
     0
176
     1
 90
       50
176
     1
 90
       50
176
     1
 90
       50
176
     1
290
     0
176
     1
 90
       50
176
     1
 62
   256
176
     0
 40
1.0
176
     0
 90
        2
176
     1
  1
strokes_ogs.tif
176
     1
290
     0
176
     1
 40
1.0
176
     1
 40
1.0
176
     1
  0
VISUALSTYLE
  5
35
102
{ACAD_REACTORS
330
2A
102
}
330
2A
100
AcDbVisualStyle
  2
Dim
 70
    11
177
     3
291
     1
 70
    58
 90
        2
176
     1
 90
        2
176
     1
 90
        0
176
     1
 90
        0
176
     1
 40
0.6
176
     1
 40
30.0
176
     1
 62
     7
420
 16777215
176
     1
 90
        1
176
     1
 90
        4
176
     1
 62
     7
176
     1
 62
   257
176
     1
 90
        1
176
     1
 90
        1
176
     1
 40
1.0
176
     1
 90
        8
176
     1
 62
     7
176
     1
 40
1.0
176
     1
 90
        1
176
     1
 90
        6
176
     1
 90
        2
176
     1
 62
     7
176
     1
 90
        5
176
     1
 90
        0
176
     1
 90
        0
176
     1
290
     0
176
     1
 90
        1
176
     1
 40
-50.0
176
     1
 90
        0
176
     1
290
     0
176
     1
290
     1
176
     1
290
     1
176
     1
290
     0
176
     1
290
     0
176
     1
290
     0
176
     1
290
     0
176
     1
290
     0
176
     1
290
     0
176
     1
 90
       50
176
     1
 40
0.0
176
     1
 40
1.0
176
     1
 90
        0
176
     1
 62
    18
420
        0
176
     1
 90
       50
176
     1
 90
        3
176
     1
 62
     5
420
      255
176
     1
290
     0
176
     1
 90
       50
176
     1
 90
       50
176
     1
 90
       50
176
     1
290
     0
176
     1
 90
       50
176
     1
 62
   256
176
     0
 40
1.0
176
     0
 90
        2
176
     1
  1
strokes_ogs.tif
176
     1
290
     0
176
     1
 40
1.0
176
     1
 40
1.0
176
     1
  0
VISUALSTYLE
  5
3D
102
{ACAD_REACTORS
330
2A
102
}
330
2A
100
AcDbVisualStyle
  2
EdgeColorOff
 70
    22
177
     3
291
     1
 70
    58
 90
        2
176
     0
 90
        2
176
     0
 90
        0
176
     0
 90
        0
176
     0
 40
0.6
176
     0
 40
30.0
176
     0
 62
     7
420
 16777215
176
     0
 90
        1
176
     0
 90
        4
176
     0
 62
     7
176
     0
 62
   257
176
     0
 90
        1
176
     0
 90
        1
176
     0
 40
1.0
176
     0
 90
        8
176
     2
 62
     7
176
     0
 40
1.0
176
     0
 90
        1
176
     0
 90
        6
176
     0
 90
        2
176
     0
 62
     7
176
     0
 90
        5
176
     0
 90
        0
176
     0
 90
        0
176
     0
290
     0
176
     0
 90
        1
176
     0
 40
0.0
176
     0
 90
        0
176
     0
290
     0
176
     0
290
     1
176
     0
290
     1
176
     0
290
     0
176
     0
290
     0
176
     0
290
     0
176
     0
290
     0
176
     0
290
     0
176
     0
290
     0
176
     0
 90
       50
176
     0
 40
0.0
176
     0
 40
1.0
176
     0
 90
        0
176
     0
 62
    18
420
        0
176
     0
 90
       50
176
     0
 90
        3
176
     0
 62
     5
420
      255
176
     0
290
     0
176
     0
 90
       50
176
     0
 90
       50
176
     0
 90
       50
176
     0
290
     0
176
     0
 90
       50
176
     0
 62
   256
176
     0
 40
1.0
176
     0
 90
        2
176
     0
  1
strokes_ogs.tif
176
     0
290
     0
176
     0
 40
1.0
176
     0
 40
1.0
176
     0
  0
VISUALSTYLE
  5
39
102
{ACAD_REACTORS
330
2A
102
}
330
2A
100
AcDbVisualStyle
  2
Facepattern
 70
    15
177
     3
291
     1
 70
    58
 90
        2
176
     1
 90
        2
176
     1
 90
        0
176
     1
 90
        0
176
     1
 40
0.6
176
     1
 40
30.0
176
     1
 62
     7
420
 16777215
176
     1
 90
        1
176
     1
 90
        4
176
     1
 62
     7
176
     1
 62
   257
176
     1
 90
        1
176
     1
 90
        1
176
     1
 40
1.0
176
     1
 90
        8
176
     1
 62
     7
176
     1
 40
1.0
176
     1
 90
        1
176
     1
 90
        6
176
     1
 90
        2
176
     1
 62
     7
176
     1
 90
        5
176
     1
 90
        0
176
     1
 90
        0
176
     1
290
     0
176
     1
 90
        1
176
     1
 40
0.0
176
     1
 90
        0
176
     1
290
     0
176
     1
290
     1
176
     1
290
     1
176
     1
290
     0
176
     1
290
     0
176
     1
290
     0
176
     1
290
     0
176
     1
290
     0
176
     1
290
     0
176
     1
 90
       50
176
     1
 40
0.0
176
     1
 40
1.0
176
     1
 90
        0
176
     1
 62
    18
420
        0
176
     1
 90
       50
176
     1
 90
        3
176
     1
 62
     5
420
      255
176
     1
290
     0
176
     1
 90
       50
176
     1
 90
       50
176
     1
 90
       50
176
     1
290
     0
176
     1
 90
       50
176
     1
 62
   256
176
     0
 40
1.0
176
     0
 90
        2
176
     1
  1
strokes_ogs.tif
176
     1
290
     0
176
     1
 40
1.0
176
     1
 40
1.0
176
     1
  0
VISUALSTYLE
  5
2B
102
{ACAD_REACTORS
330
2A
102
}
330
2A
100
AcDbVisualStyle
  2
Flat
 70
     0
177
     3
291
     1
 70
    58
 90
        2
176
     1
 90
        1
176
     1
 90
        1
176
     1
 90
        2
176
     1
 40
0.6
176
     1
 40
30.0
176
     1
 62
     7
420
 16777215
176
     1
 90
        0
176
     1
 90
        0
176
     1
 62
     7
176
     1
 62
   257
176
     1
 90
        1
176
     1
 90
        1
176
     1
 40
1.0
176
     1
 90
        8
176
     1
 62
     7
176
     1
 40
1.0
176
     1
 90
        1
176
     1
 90
        6
176
     1
 90
        2
176
     1
 62
     7
176
     1
 90
        5
176
     1
 90
        0
176
     1
 90
        0
176
     1
290
     0
176
     1
 90
       13
176
     1
 40
0.0
176
     1
 90
        0
176
     1
290
     0
176
     1
290
     1
176
     1
290
     1
176
     1
290
     0
176
     1
290
     0
176
     1
290
     0
176
     1
290
     0
176
     1
290
     0
176
     1
290
     0
176
     1
 90
       50
176
     1
 40
0.0
176
     1
 40
1.0
176
     1
 90
        0
176
     1
 62
    18
420
        0
176
     1
 90
       50
176
     1
 90
        3
176
     1
 62
     5
420
      255
176
     1
290
     0
176
     1
 90
       50
176
     1
 90
       50
176
     1
 90
       50
176
     1
290
     0
176
     1
 90
       50
176
     1
 62
   256
176
     0
 40
1.0
176
     0
 90
        2
176
     1
  1
strokes_ogs.tif
176
     1
290
     0
176
     1
 40
1.0
176
     1
 40
1.0
176
     1
  0
VISUALSTYLE
  5
2C
102
{ACAD_REACTORS
330
2A
102
}
330
2A
100
AcDbVisualStyle
  2
FlatWithEdges
 70
     1
177
     3
291
     1
 70
    58
 90
        2
176
     1
 90
        1
176
     1
 90
        1
176
     1
 90
        2
176
     1
 40
0.6
176
     1
 40
30.0
176
     1
 62
     7
420
 16777215
176
     1
 90
        1
176
     1
 90
        0
176
     1
 62
     7
176
     1
 62
   257
176
     1
 90
        1
176
     1
 90
        1
176
     1
 40
1.0
176
     1
 90
        0
176
     1
 62
   257
176
     1
 40
1.0
176
     1
 90
        1
176
     1
 90
        6
176
     1
 90
        2
176
     1
 62
     7
176
     1
 90
        5
176
     1
 90
        0
176
     1
 90
        0
176
     1
290
     0
176
     1
 90
       13
176
     1
 40
0.0
176
     1
 90
        0
176
     1
290
     0
176
     1
290
     1
176
     1
290
     1
176
     1
290
     0
176
     1
290
     0
176
     1
290
     0
176
     1
290
     0
176
     1
290
     0
176
     1
290
     0
176
     1
 90
       50
176
     1
 40
0.0
176
     1
 40
1.0
176
     1
 90
        0
176
     1
 62
    18
420
        0
176
     1
 90
       50
176
     1
 90
        3
176
     1
 62
     5
420
      255
176
     1
290
     0
176
     1
 90
       50
176
     1
 90
       50
176
     1
 90
       50
176
     1
290
     0
176
     1
 90
       50
176
     1
 62
   256
176
     0
 40
1.0
176
     0
 90
        2
176
     1
  1
strokes_ogs.tif
176
     1
290
     0
176
     1
 40
1.0
176
     1
 40
1.0
176
     1
  0
VISUALSTYLE
  5
2D
102
{ACAD_REACTORS
330
2A
102
}
330
2A
100
AcDbVisualStyle
  2
Gouraud
 70
     2
177
     3
291
     1
 70
    58
 90
        2
176
     1
 90
        2
176
     1
 90
        1
176
     1
 90
        2
176
     1
 40
0.6
176
     1
 40
30.0
176
     1
 62
     7
420
 16777215
176
     1
 90
        0
176
     1
 90
        0
176
     1
 62
     7
176
     1
 62
   257
176
     1
 90
        1
176
     1
 90
        1
176
     1
 40
1.0
176
     1
 90
        0
176
     1
 62
     7
176
     1
 40
1.0
176
     1
 90
        1
176
     1
 90
        6
176
     1
 90
        2
176
     1
 62
     7
176
     1
 90
        5
176
     1
 90
        0
176
     1
 90
        0
176
     1
290
     0
176
     1
 90
       13
176
     1
 40
0.0
176
     1
 90
        0
176
     1
290
     0
176
     1
290
     1
176
     1
290
     1
176
     1
290
     0
176
     1
290
     0
176
     1
290
     0
176
     1
290
     0
176
     1
290
     0
176
     1
290
     0
176
     1
 90
       50
176
     1
 40
0.0
176
     1
 40
1.0
176
     1
 90
        0
176
     1
 62
    18
420
        0
176
     1
 90
       50
176
     1
 90
        3
176
     1
 62
     5
420
      255
176
     1
290
     0
176
     1
 90
       50
176
     1
 90
       50
176
     1
 90
       50
176
     1
290
     0
176
     1
 90
       50
176
     1
 62
   256
176
     0
 40
1.0
176
     0
 90
        2
176
     1
  1
strokes_ogs.tif
176
     1
290
     0
176
     1
 40
1.0
176
     1
 40
1.0
176
     1
  0
VISUALSTYLE
  5
2E
102
{ACAD_REACTORS
330
2A
102
}
330
2A
100
AcDbVisualStyle
  2
GouraudWithEdges
 70
     3
177
     3
291
     1
 70
    58
 90
        2
176
     1
 90
        2
176
     1
 90
        1
176
     1
 90
        2
176
     1
 40
0.6
176
     1
 40
30.0
176
     1
 62
     7
420
 16777215
176
     1
 90
        1
176
     1
 90
        0
176
     1
 62
     7
176
     1
 62
   257
176
     1
 90
        1
176
     1
 90
        1
176
     1
 40
1.0
176
     1
 90
        0
176
     1
 62
   257
176
     1
 40
1.0
176
     1
 90
        1
176
     1
 90
        6
176
     1
 90
        2
176
     1
 62
     7
176
     1
 90
        5
176
     1
 90
        0
176
     1
 90
        0
176
     1
290
     0
176
     1
 90
       13
176
     1
 40
0.0
176
     1
 90
        0
176
     1
290
     0
176
     1
290
     1
176
     1
290
     1
176
     1
290
     0
176
     1
290
     0
176
     1
290
     0
176
     1
290
     0
176
     1
290
     0
176
     1
290
     0
176
     1
 90
       50
176
     1
 40
0.0
176
     1
 40
1.0
176
     1
 90
        0
176
     1
 62
    18
420
        0
176
     1
 90
       50
176
     1
 90
        3
176
     1
 62
     5
420
      255
176
     1
290
     0
176
     1
 90
       50
176
     1
 90
       50
176
     1
 90
       50
176
     1
290
     0
176
     1
 90
       50
176
     1
 62
   256
176
     0
 40
1.0
176
     0
 90
        2
176
     1
  1
strokes_ogs.tif
176
     1
290
     0
176
     1
 40
1.0
176
     1
 40
1.0
176
     1
  0
VISUALSTYLE
  5
31
102
{ACAD_REACTORS
330
2A
102
}
330
2A
100
AcDbVisualStyle
  2
Hidden
 70
     6
177
     3
291
     0
 70
    58
 90
        1
176
     1
 90
        2
176
     1
 90
        2
176
     1
 90
        0
176
     1
 40
0.6
176
     1
 40
30.0
176
     1
 62
     7
420
 16777215
176
     1
 90
        2
176
     1
 90
        2
176
     1
 62
     7
176
     1
 62
   257
176
     1
 90
        2
176
     1
 90
        1
176
     1
 40
40.0
176
     1
 90
        0
176
     1
 62
   257
176
     1
 40
1.0
176
     1
 90
        1
176
     1
 90
        6
176
     1
 90
        2
176
     1
 62
     7
176
     1
 90
        3
176
     1
 90
        0
176
     1
 90
        0
176
     1
290
     0
176
     1
 90
        1
176
     1
 40
0.0
176
     1
 90
        0
176
     1
290
     0
176
     1
290
     1
176
     1
290
     1
176
     1
290
     0
176
     1
290
     0
176
     1
290
     0
176
     1
290
     0
176
     1
290
     0
176
     1
290
     0
176
     1
 90
       50
176
     1
 40
0.0
176
     1
 40
1.0
176
     1
 90
        0
176
     1
 62
    18
420
        0
176
     1
 90
       50
176
     1
 90
        3
176
     1
 62
     5
420
      255
176
     1
290
     0
176
     1
 90
       50
176
     1
 90
       50
176
     1
 90
       50
176
     1
290
     0
176
     1
 90
       50
176
     1
 62
   256
176
     0
 40
1.0
176
     0
 90
        2
176
     1
  1
strokes_ogs.tif
176
     1
290
     0
176
     1
 40
1.0
176
     1
 40
1.0
176
     1
  0
VISUALSTYLE
  5
3B
102
{ACAD_REACTORS
330
2A
102
}
330
2A
100
AcDbVisualStyle
  2
JitterOff
 70
    20
177
     3
291
     1
 70
    58
 90
        2
176
     0
 90
        2
176
     0
 90
        0
176
     0
 90
        0
176
     0
 40
0.6
176
     0
 40
30.0
176
     0
 62
     7
420
 16777215
176
     0
 90
        1
176
     0
 90
        4
176
     0
 62
     7
176
     0
 62
   257
176
     0
 90
        1
176
     0
 90
        1
176
     0
 40
1.0
176
     0
 90
       10
176
     2
 62
     7
176
     0
 40
1.0
176
     0
 90
        1
176
     0
 90
        6
176
     0
 90
        2
176
     0
 62
     7
176
     0
 90
        5
176
     0
 90
        0
176
     0
 90
        0
176
     0
290
     0
176
     0
 90
        1
176
     0
 40
0.0
176
     0
 90
        0
176
     0
290
     0
176
     0
290
     1
176
     0
290
     1
176
     0
290
     0
176
     0
290
     0
176
     0
290
     0
176
     0
290
     0
176
     0
290
     0
176
     0
290
     0
176
     0
 90
       50
176
     0
 40
0.0
176
     0
 40
1.0
176
     0
 90
        0
176
     0
 62
    18
420
        0
176
     0
 90
       50
176
     0
 90
        3
176
     0
 62
     5
420
      255
176
     0
290
     0
176
     0
 90
       50
176
     0
 90
       50
176
     0
 90
       50
176
     0
290
     0
176
     0
 90
       50
176
     0
 62
   256
176
     0
 40
1.0
176
     0
 90
        2
176
     0
  1
strokes_ogs.tif
176
     0
290
     0
176
     0
 40
1.0
176
     0
 40
1.0
176
     0
  0
VISUALSTYLE
  5
38
102
{ACAD_REACTORS
330
2A
102
}
330
2A
100
AcDbVisualStyle
  2
Linepattern
 70
    14
177
     3
291
     1
 70
    58
 90
        2
176
     1
 90
        2
176
     1
 90
        0
176
     1
 90
        0
176
     1
 40
0.6
176
     1
 40
30.0
176
     1
 62
     7
420
 16777215
176
     1
 90
        1
176
     1
 90
        4
176
     1
 62
     7
176
     1
 62
   257
176
     1
 90
        7
176
     1
 90
        7
176
     1
 40
1.0
176
     1
 90
        8
176
     1
 62
     7
176
     1
 40
1.0
176
     1
 90
        1
176
     1
 90
        6
176
     1
 90
        2
176
     1
 62
     7
176
     1
 90
        5
176
     1
 90
        0
176
     1
 90
        0
176
     1
290
     0
176
     1
 90
        1
176
     1
 40
0.0
176
     1
 90
        0
176
     1
290
     0
176
     1
290
     1
176
     1
290
     1
176
     1
290
     0
176
     1
290
     0
176
     1
290
     0
176
     1
290
     0
176
     1
290
     0
176
     1
290
     0
176
     1
 90
       50
176
     1
 40
0.0
176
     1
 40
1.0
176
     1
 90
        0
176
     1
 62
    18
420
        0
176
     1
 90
       50
176
     1
 90
        3
176
     1
 62
     5
420
      255
176
     1
290
     0
176
     1
 90
       50
176
     1
 90
       50
176
     1
 90
       50
176
     1
290
     0
176
     1
 90
       50
176
     1
 62
   256
176
     0
 40
1.0
176
     0
 90
        2
176
     1
  1
strokes_ogs.tif
176
     1
290
     0
176
     1
 40
1.0
176
     1
 40
1.0
176
     1
  0
VISUALSTYLE
  5
3C
102
{ACAD_REACTORS
330
2A
102
}
330
2A
100
AcDbVisualStyle
  2
OverhangOff
 70
    21
177
     3
291
     1
 70
    58
 90
        2
176
     0
 90
        2
176
     0
 90
        0
176
     0
 90
        0
176
     0
 40
0.6
176
     0
 40
30.0
176
     0
 62
     7
420
 16777215
176
     0
 90
        1
176
     0
 90
        4
176
     0
 62
     7
176
     0
 62
   257
176
     0
 90
        1
176
     0
 90
        1
176
     0
 40
1.0
176
     0
 90
        9
176
     2
 62
     7
176
     0
 40
1.0
176
     0
 90
        1
176
     0
 90
        6
176
     0
 90
        2
176
     0
 62
     7
176
     0
 90
        5
176
     0
 90
        0
176
     0
 90
        0
176
     0
290
     0
176
     0
 90
        1
176
     0
 40
0.0
176
     0
 90
        0
176
     0
290
     0
176
     0
290
     1
176
     0
290
     1
176
     0
290
     0
176
     0
290
     0
176
     0
290
     0
176
     0
290
     0
176
     0
290
     0
176
     0
290
     0
176
     0
 90
       50
176
     0
 40
0.0
176
     0
 40
1.0
176
     0
 90
        0
176
     0
 62
    18
420
        0
176
     0
 90
       50
176
     0
 90
        3
176
     0
 62
     5
420
      255
176
     0
290
     0
176
     0
 90
       50
176
     0
 90
       50
176
     0
 90
       50
176
     0
290
     0
176
     0
 90
       50
176
     0
 62
   256
176
     0
 40
1.0
176
     0
 90
        2
176
     0
  1
strokes_ogs.tif
176
     0
290
     0
176
     0
 40
1.0
176
     0
 40
1.0
176
     0
  0
VISUALSTYLE
  5
33
102
{ACAD_REACTORS
330
2A
102
}
330
2A
100
AcDbVisualStyle
  2
Realistic
 70
     8
177
     3
291
     0
 70
    58
 90
        2
176
     1
 90
        3
176
     1
 90
        0
176
     1
 90
        2
176
     1
 40
0.6
176
     1
 40
30.0
176
     1
 62
     7
420
 16777215
176
     1
 90
        0
176
     1
 90
        0
176
     1
 62
     7
176
     1
 62
   257
176
     1
 90
        1
176
     1
 90
        1
176
     1
 40
1.0
176
     1
 90
        8
176
     1
 62
   257
176
     1
 40
1.0
176
     1
 90
        1
176
     1
 90
        6
176
     1
 90
        2
176
     1
 62
     7
176
     1
 90
        3
176
     1
 90
        0
176
     1
 90
        0
176
     1
290
     0
176
     1
 90
       13
176
     1
 40
0.0
176
     1
 90
        0
176
     1
290
     0
176
     1
290
     1
176
     1
290
     1
176
     1
290
     0
176
     1
290
     0
176
     1
290
     0
176
     1
290
     0
176
     1
290
     0
176
     1
290
     0
176
     1
 90
       50
176
     1
 40
0.0
176
     1
 40
1.0
176
     1
 90
        0
176
     1
 62
    18
420
        0
176
     1
 90
       50
176
     1
 90
        3
176
     1
 62
     5
420
      255
176
     1
290
     0
176
     1
 90
       50
176
     1
 90
       50
176
     1
 90
       50
176
     1
290
     0
176
     1
 90
       50
176
     1
 62
   256
176
     0
 40
1.0
176
     0
 90
        2
176
     1
  1
strokes_ogs.tif
176
     1
290
     0
176
     1
 40
1.0
176
     1
 40
1.0
176
     1
  0
VISUALSTYLE
  5
42
102
{ACAD_REACTORS
330
2A
102
}
330
2A
100
AcDbVisualStyle
  2
Shaded
 70
    27
177
     3
291
     0
 70
    58
 90
        2
176
     1
 90
        2
176
     1
 90
        1
176
     1
 90
        2
176
     1
 40
0.6
176
     1
 40
30.0
176
     1
 62
     7
420
 16777215
176
     1
 90
        0
176
     1
 90
        4
176
     1
 62
     7
176
     1
 62
   257
176
     1
 90
        1
176
     1
 90
        1
176
     1
 40
1.0
176
     1
 90
        8
176
     1
 62
   257
176
     1
 40
1.0
176
     1
 90
        1
176
     1
 90
        6
176
     1
 90
        2
176
     1
 62
     8
420
  7895160
176
     1
 90
        3
176
     1
 90
        0
176
     1
 90
        0
176
     1
290
     0
176
     1
 90
        5
176
     1
 40
0.0
176
     1
 90
        0
176
     1
290
     0
176
     1
290
     1
176
     1
290
     1
176
     1
290
     0
176
     1
290
     0
176
     1
290
     0
176
     1
290
     0
176
     1
290
     0
176
     1
290
     0
176
     1
 90
       50
176
     1
 40
0.0
176
     1
 40
1.0
176
     1
 90
        0
176
     1
 62
    18
420
        0
176
     1
 90
       50
176
     1
 90
        3
176
     1
 62
     5
420
      255
176
     1
290
     0
176
     1
 90
       50
176
     1
 90
       50
176
     1
 90
       50
176
     1
290
     0
176
     1
 90
       50
176
     1
 62
   256
176
     0
 40
1.0
176
     0
 90
        2
176
     1
  1
strokes_ogs.tif
176
     1
290
     0
176
     1
 40
1.0
176
     1
 40
1.0
176
     1
  0
VISUALSTYLE
  5
41
102
{ACAD_REACTORS
330
2A
102
}
330
2A
100
AcDbVisualStyle
  2
Shaded with edges
 70
    26
177
     3
291
     0
 70
    58
 90
        2
176
     1
 90
        2
176
     1
 90
        1
176
     1
 90
        2
176
     1
 40
0.6
176
     1
 40
30.0
176
     1
 62
     7
420
 16777215
176
     1
 90
        1
176
     1
 90
       10
176
     1
 62
     7
176
     1
 62
   257
176
     1
 90
        2
176
     1
 90
        1
176
     1
 40
1.0
176
     1
 90
        8
176
     1
 62
   257
176
     1
 40
1.0
176
     1
 90
        1
176
     1
 90
        6
176
     1
 90
        2
176
     1
 62
     7
176
     1
 90
        3
176
     1
 90
        0
176
     1
 90
        0
176
     1
290
     0
176
     1
 90
        5
176
     1
 40
0.0
176
     1
 90
        0
176
     1
290
     0
176
     1
290
     1
176
     1
290
     1
176
     1
290
     0
176
     1
290
     0
176
     1
290
     0
176
     1
290
     0
176
     1
290
     0
176
     1
290
     0
176
     1
 90
       50
176
     1
 40
0.0
176
     1
 40
1.0
176
     1
 90
        0
176
     1
 62
    18
420
        0
176
     1
 90
       50
176
     1
 90
        3
176
     1
 62
     5
420
      255
176
     1
290
     0
176
     1
 90
       50
176
     1
 90
       50
176
     1
 90
       50
176
     1
290
     0
176
     1
 90
       50
176
     1
 62
   256
176
     0
 40
1.0
176
     0
 90
        2
176
     1
  1
strokes_ogs.tif
176
     1
290
     0
176
     1
 40
1.0
176
     1
 40
1.0
176
     1
  0
VISUALSTYLE
  5
3E
102
{ACAD_REACTORS
330
2A
102
}
330
2A
100
AcDbVisualStyle
  2
Shades of Gray
 70
    23
177
     3
291
     0
 70
    58
 90
        2
176
     1
 90
        2
176
     1
 90
        3
176
     1
 90
        0
176
     1
 40
0.6
176
     1
 40
30.0
176
     1
 62
     7
420
 16777215
176
     1
 90
        2
176
     1
 90
        2
176
     1
 62
     7
176
     1
 62
     7
176
     1
 90
        1
176
     1
 90
        1
176
     1
 40
40.0
176
     1
 90
        8
176
     1
 62
     7
176
     1
 40
1.0
176
     1
 90
        1
176
     1
 90
        6
176
     1
 90
        2
176
     1
 62
     7
176
     1
 90
        3
176
     1
 90
        0
176
     1
 90
        0
176
     1
290
     0
176
     1
 90
        1
176
     1
 40
0.0
176
     1
 90
        0
176
     1
290
     0
176
     1
290
     1
176
     1
290
     1
176
     1
290
     0
176
     1
290
     0
176
     1
290
     0
176
     1
290
     0
176
     1
290
     0
176
     1
290
     0
176
     1
 90
       50
176
     1
 40
0.0
176
     1
 40
1.0
176
     1
 90
        0
176
     1
 62
    18
420
        0
176
     1
 90
       50
176
     1
 90
        3
176
     1
 62
     5
420
      255
176
     1
290
     0
176
     1
 90
       50
176
     1
 90
       50
176
     1
 90
       50
176
     1
290
     0
176
     1
 90
       50
176
     1
 62
   256
176
     0
 40
1.0
176
     0
 90
        2
176
     1
  1
strokes_ogs.tif
176
     1
290
     0
176
     1
 40
1.0
176
     1
 40
1.0
176
     1
  0
VISUALSTYLE
  5
3F
102
{ACAD_REACTORS
330
2A
102
}
330
2A
100
AcDbVisualStyle
  2
Sketchy
 70
    24
177
     3
291
     0
 70
    58
 90
        1
176
     1
 90
        2
176
     1
 90
        2
176
     1
 90
        0
176
     1
 40
0.6
176
     1
 40
30.0
176
     1
 62
     7
420
 16777215
176
     1
 90
        2
176
     1
 90
        2
176
     1
 62
     7
176
     1
 62
     7
176
     1
 90
        1
176
     1
 90
        1
176
     1
 40
40.0
176
     1
 90
       11
176
     1
 62
     7
176
     1
 40
1.0
176
     1
 90
        1
176
     1
 90
        6
176
     1
 90
        2
176
     1
 62
     7
176
     1
 90
        6
176
     1
 90
        0
176
     1
 90
        0
176
     1
290
     0
176
     1
 90
        1
176
     1
 40
0.0
176
     1
 90
        0
176
     1
290
     0
176
     1
290
     1
176
     1
290
     1
176
     1
290
     0
176
     1
290
     0
176
     1
290
     0
176
     1
290
     0
176
     1
290
     0
176
     1
290
     0
176
     1
 90
       50
176
     1
 40
0.0
176
     1
 40
1.0
176
     1
 90
        0
176
     1
 62
    18
420
        0
176
     1
 90
       50
176
     1
 90
        3
176
     1
 62
     5
420
      255
176
     1
290
     0
176
     1
 90
       50
176
     1
 90
       50
176
     1
 90
       50
176
     1
290
     0
176
     1
 90
       50
176
     1
 62
   256
176
     0
 40
1.0
176
     0
 90
        2
176
     1
  1
strokes_ogs.tif
176
     1
290
     0
176
     1
 40
1.0
176
     1
 40
1.0
176
     1
  0
VISUALSTYLE
  5
37
102
{ACAD_REACTORS
330
2A
102
}
330
2A
100
AcDbVisualStyle
  2
Thicken
 70
    13
177
     3
291
     1
 70
    58
 90
        2
176
     1
 90
        2
176
     1
 90
        0
176
     1
 90
        0
176
     1
 40
0.6
176
     1
 40
30.0
176
     1
 62
     7
420
 16777215
176
     1
 90
        1
176
     1
 90
        4
176
     1
 62
     7
176
     1
 62
   257
176
     1
 90
        1
176
     1
 90
        1
176
     1
 40
1.0
176
     1
 90
       12
176
     1
 62
     7
176
     1
 40
1.0
176
     1
 90
        1
176
     1
 90
        6
176
     1
 90
        2
176
     1
 62
     7
176
     1
 90
        5
176
     1
 90
        0
176
     1
 90
        0
176
     1
290
     0
176
     1
 90
        1
176
     1
 40
0.0
176
     1
 90
        0
176
     1
290
     0
176
     1
290
     1
176
     1
290
     1
176
     1
290
     0
176
     1
290
     0
176
     1
290
     0
176
     1
290
     0
176
     1
290
     0
176
     1
290
     0
176
     1
 90
       50
176
     1
 40
0.0
176
     1
 40
1.0
176
     1
 90
        0
176
     1
 62
    18
420
        0
176
     1
 90
       50
176
     1
 90
        3
176
     1
 62
     5
420
      255
176
     1
290
     0
176
     1
 90
       50
176
     1
 90
       50
176
     1
 90
       50
176
     1
290
     0
176
     1
 90
       50
176
     1
 62
   256
176
     0
 40
1.0
176
     0
 90
        2
176
     1
  1
strokes_ogs.tif
176
     1
290
     0
176
     1
 40
1.0
176
     1
 40
1.0
176
     1
  0
VISUALSTYLE
  5
30
102
{ACAD_REACTORS
330
2A
102
}
330
2A
100
AcDbVisualStyle
  2
Wireframe
 70
     5
177
     3
291
     0
 70
    58
 90
        0
176
     1
 90
        2
176
     1
 90
        0
176
     1
 90
        0
176
     1
 40
0.6
176
     1
 40
30.0
176
     1
 62
     7
420
 16777215
176
     1
 90
        1
176
     1
 90
        4
176
     1
 62
     7
176
     1
 62
   257
176
     1
 90
        1
176
     1
 90
        1
176
     1
 40
1.0
176
     1
 90
        0
176
     1
 62
   257
176
     1
 40
1.0
176
     1
 90
        1
176
     1
 90
        6
176
     1
 90
        2
176
     1
 62
     7
176
     1
 90
        3
176
     1
 90
        0
176
     1
 90
        0
176
     1
290
     0
176
     1
 90
        1
176
     1
 40
0.0
176
     1
 90
        0
176
     1
290
     0
176
     1
290
     1
176
     1
290
     1
176
     1
290
     0
176
     1
290
     0
176
     1
290
     0
176
     1
290
     0
176
     1
290
     0
176
     1
290
     0
176
     1
 90
       50
176
     1
 40
0.0
176
     1
 40
1.0
176
     1
 90
        0
176
     1
 62
    18
420
        0
176
     1
 90
       50
176
     1
 90
        3
176
     1
 62
     5
420
      255
176
     1
290
     0
176
     1
 90
       50
176
     1
 90
       50
176
     1
 90
       50
176
     1
290
     0
176
     1
 90
       50
176
     1
 62
   256
176
     0
 40
1.0
176
     0
 90
        2
176
     1
  1
strokes_ogs.tif
176
     1
290
     0
176
     1
 40
1.0
176
     1
 40
1.0
176
     1
  0
VISUALSTYLE
  5
40
102
{ACAD_REACTORS
330
2A
102
}
330
2A
100
AcDbVisualStyle
  2
X-Ray
 70
    25
177
     3
291
     0
 70
    58
 90
        2
176
     1
 90
        2
176
     1
 90
        1
176
     1
 90
        1
176
     1
 40
0.5
176
     1
 40
30.0
176
     1
 62
     7
420
 16777215
176
     1
 90
        1
176
     1
 90
        0
176
     1
 62
     7
176
     1
 62
   257
176
     1
 90
        1
176
     1
 90
        1
176
     1
 40
1.0
176
     1
 90
        8
176
     1
 62
     7
176
     1
 40
1.0
176
     1
 90
        1
176
     1
 90
        6
176
     1
 90
        2
176
     1
 62
     7
176
     1
 90
        3
176
     1
 90
        0
176
     1
 90
        0
176
     1
290
     0
176
     1
 90
       13
176
     1
 40
0.0
176
     1
 90
        0
176
     1
290
     0
176
     1
290
     1
176
     1
290
     1
176
     1
290
     0
176
     1
290
     0
176
     1
290
     0
176
     1
290
     0
176
     1
290
     0
176
     1
290
     0
176
     1
 90
       50
176
     1
 40
0.0
176
     1
 40
1.0
176
     1
 90
        0
176
     1
 62
    18
420
        0
176
     1
 90
       50
176
     1
 90
        3
176
     1
 62
     5
420
      255
176
     1
290
     0
176
     1
 90
       50
176
     1
 90
       50
176
     1
 90
       50
176
     1
290
     0
176
     1
 90
       50
176
     1
 62
   256
176
     0
 40
1.0
176
     0
 90
        2
176
     1
  1
strokes_ogs.tif
176
     1
290
     0
176
     1
 40
1.0
176
     1
 40
1.0
176
     1
  0
DICTIONARYVAR
  5
87
102
{ACAD_REACTORS
330
86
102
}
330
86
100
DictionaryVariables
280
     0
  1
1:1
  0
DICTIONARYVAR
  5
8C
102
{ACAD_REACTORS
330
86
102
}
330
86
100
DictionaryVariables
280
     0
  1
Standard
  0
DICTIONARYVAR
  5
8B
102
{ACAD_REACTORS
330
86
102
}
330
86
100
DictionaryVariables
280
     0
  1
Standard
  0
DICTIONARY
  5
88
330
5A
100
AcDbDictionary
280
     1
281
     1
  3
ACAD_ROUNDTRIP_2008_TABLESTYLE_CELLSTYLEMAP
360
89
  0
CELLSTYLEMAP
  5
89
102
{ACAD_REACTORS
330
88
102
}
330
88
100
AcDbCellStyleMap
 90
        3
300
CELLSTYLE
  1
TABLEFORMAT_BEGIN
 90
        5
170
     1
 91
        0
 92
    32768
 62
   257
 93
        1
300
CONTENTFORMAT
  1
CONTENTFORMAT_BEGIN
 90
        0
 91
        0
 92
        4
 93
        0
300

 40
0.0
140
1.0
 94
        5
 62
     0
340
11
144
0.25
309
CONTENTFORMAT_END
171
     1
301
MARGIN
  1
CELLMARGIN_BEGIN
 40
0.06
 40
0.06
 40
0.06
 40
0.06
 40
0.06
 40
0.06
309
CELLMARGIN_END
 94
        6
 95
        1
302
GRIDFORMAT
  1
GRIDFORMAT_BEGIN
 90
        0
 91
        1
 62
     0
 92
       -2
340
14
 93
        0
 40
0.045
309
GRIDFORMAT_END
 95
        2
302
GRIDFORMAT
  1
GRIDFORMAT_BEGIN
 90
        0
 91
        1
 62
     0
 92
       -2
340
14
 93
        0
 40
0.045
309
GRIDFORMAT_END
 95
        4
302
GRIDFORMAT
  1
GRIDFORMAT_BEGIN
 90
        0
 91
        1
 62
     0
 92
       -2
340
14
 93
        0
 40
0.045
309
GRIDFORMAT_END
 95
        8
302
GRIDFORMAT
  1
GRIDFORMAT_BEGIN
 90
        0
 91
        1
 62
     0
 92
       -2
340
14
 93
        0
 40
0.045
309
GRIDFORMAT_END
 95
       16
302
GRIDFORMAT
  1
GRIDFORMAT_BEGIN
 90
        0
 91
        1
 62
     0
 92
       -2
340
14
 93
        0
 40
0.045
309
GRIDFORMAT_END
 95
       32
302
GRIDFORMAT
  1
GRIDFORMAT_BEGIN
 90
        0
 91
        1
 62
     0
 92
       -2
340
14
 93
        0
 40
0.045
309
GRIDFORMAT_END
309
TABLEFORMAT_END
  1
CELLSTYLE_BEGIN
 90
        1
 91
        1
300
_TITLE
309
CELLSTYLE_END
300
CELLSTYLE
  1
TABLEFORMAT_BEGIN
 90
        5
170
     1
 91
        0
 92
        0
 62
   257
 93
        1
300
CONTENTFORMAT
  1
CONTENTFORMAT_BEGIN
 90
        0
 91
        0
 92
        4
 93
        0
300

 40
0.0
140
1.0
 94
        5
 62
     0
340
11
144
0.18
309
CONTENTFORMAT_END
171
     1
301
MARGIN
  1
CELLMARGIN_BEGIN
 40
0.06
 40
0.06
 40
0.06
 40
0.06
 40
0.06
 40
0.06
309
CELLMARGIN_END
 94
        6
 95
        1
302
GRIDFORMAT
  1
GRIDFORMAT_BEGIN
 90
        0
 91
        1
 62
     0
 92
       -2
340
14
 93
        0
 40
0.045
309
GRIDFORMAT_END
 95
        2
302
GRIDFORMAT
  1
GRIDFORMAT_BEGIN
 90
        0
 91
        1
 62
     0
 92
       -2
340
14
 93
        0
 40
0.045
309
GRIDFORMAT_END
 95
        4
302
GRIDFORMAT
  1
GRIDFORMAT_BEGIN
 90
        0
 91
        1
 62
     0
 92
       -2
340
14
 93
        0
 40
0.045
309
GRIDFORMAT_END
 95
        8
302
GRIDFORMAT
  1
GRIDFORMAT_BEGIN
 90
        0
 91
        1
 62
     0
 92
       -2
340
14
 93
        0
 40
0.045
309
GRIDFORMAT_END
 95
       16
302
GRIDFORMAT
  1
GRIDFORMAT_BEGIN
 90
        0
 91
        1
 62
     0
 92
       -2
340
14
 93
        0
 40
0.045
309
GRIDFORMAT_END
 95
       32
302
GRIDFORMAT
  1
GRIDFORMAT_BEGIN
 90
        0
 91
        1
 62
     0
 92
       -2
340
14
 93
        0
 40
0.045
309
GRIDFORMAT_END
309
TABLEFORMAT_END
  1
CELLSTYLE_BEGIN
 90
        2
 91
        1
300
_HEADER
309
CELLSTYLE_END
300
CELLSTYLE
  1
TABLEFORMAT_BEGIN
 90
        5
170
     1
 91
        0
 92
        0
 62
   257
 93
        1
300
CONTENTFORMAT
  1
CONTENTFORMAT_BEGIN
 90
        0
 91
        0
 92
        4
 93
        0
300

 40
0.0
140
1.0
 94
        2
 62
     0
340
11
144
0.18
309
CONTENTFORMAT_END
171
     1
301
MARGIN
  1
CELLMARGIN_BEGIN
 40
0.06
 40
0.06
 40
0.06
 40
0.06
 40
0.06
 40
0.06
309
CELLMARGIN_END
 94
        6
 95
        1
302
GRIDFORMAT
  1
GRIDFORMAT_BEGIN
 90
        0
 91
        1
 62
     0
 92
       -2
340
14
 93
        0
 40
0.045
309
GRIDFORMAT_END
 95
        2
302
GRIDFORMAT
  1
GRIDFORMAT_BEGIN
 90
        0
 91
        1
 62
     0
 92
       -2
340
14
 93
        0
 40
0.045
309
GRIDFORMAT_END
 95
        4
302
GRIDFORMAT
  1
GRIDFORMAT_BEGIN
 90
        0
 91
        1
 62
     0
 92
       -2
340
14
 93
        0
 40
0.045
309
GRIDFORMAT_END
 95
        8
302
GRIDFORMAT
  1
GRIDFORMAT_BEGIN
 90
        0
 91
        1
 62
     0
 92
       -2
340
14
 93
        0
 40
0.045
309
GRIDFORMAT_END
 95
       16
302
GRIDFORMAT
  1
GRIDFORMAT_BEGIN
 90
        0
 91
        1
 62
     0
 92
       -2
340
14
 93
        0
 40
0.045
309
GRIDFORMAT_END
 95
       32
302
GRIDFORMAT
  1
GRIDFORMAT_BEGIN
 90
        0
 91
        1
 62
     0
 92
       -2
340
14
 93
        0
 40
0.045
309
GRIDFORMAT_END
309
TABLEFORMAT_END
  1
CELLSTYLE_BEGIN
 90
        3
 91
        2
300
_DATA
309
CELLSTYLE_END
  0
ENDSEC
  0
EOF
