  0
SECTION
  2
HEADER
  9
$ACADVER
  1
AC1027
  9
$ACADMAINTVER
 70
   105
  9
$DWGCODEPAGE
  3
ANSI_1252
  9
$LASTSAVEDBY
  1
Office Desk
  9
$REQUIREDVERSIONS
160
                 0
  9
$INSBASE
 10
0.0
 20
0.0
 30
0.0
  9
$EXTMIN
 10
-12.31874409448819
 20
-2.526744094488189
 30
0.0
  9
$EXTMAX
 10
-4.939027559055118
 20
7.556885826771653
 30
0.0
  9
$LIMMIN
 10
0.0
 20
0.0
  9
$LIMMAX
 10
12.0
 20
9.0
  9
$ORTHOMODE
 70
     0
  9
$REGENMODE
 70
     1
  9
$FILLMODE
 70
     1
  9
$QTEXTMODE
 70
     0
  9
$MIRRTEXT
 70
     1
  9
$LTSCALE
 40
1.0
  9
$ATTMODE
 70
     1
  9
$TEXTSIZE
 40
0.2
  9
$TRACEWID
 40
0.05
  9
$TEXTSTYLE
  7
Standard
  9
$CLAYER
  8
0
  9
$CELTYPE
  6
ByLayer
  9
$CECOLOR
 62
   256
  9
$CELTSCALE
 40
1.0
  9
$DISPSILH
 70
     0
  9
$DIMSCALE
 40
1.0
  9
$DIMASZ
 40
0.18
  9
$DIMEXO
 40
0.0625
  9
$DIMDLI
 40
0.38
  9
$DIMRND
 40
0.0
  9
$DIMDLE
 40
0.0
  9
$DIMEXE
 40
0.18
  9
$DIMTP
 40
0.0
  9
$DIMTM
 40
0.0
  9
$DIMTXT
 40
0.18
  9
$DIMCEN
 40
0.09
  9
$DIMTSZ
 40
0.0
  9
$DIMTOL
 70
     0
  9
$DIMLIM
 70
     0
  9
$DIMTIH
 70
     1
  9
$DIMTOH
 70
     1
  9
$DIMSE1
 70
     0
  9
$DIMSE2
 70
     0
  9
$DIMTAD
 70
     0
  9
$DIMZIN
 70
     0
  9
$DIMBLK
  1

  9
$DIMASO
 70
     1
  9
$DIMSHO
 70
     1
  9
$DIMPOST
  1

  9
$DIMAPOST
  1

  9
$DIMALT
 70
     0
  9
$DIMALTD
 70
     2
  9
$DIMALTF
 40
25.4
  9
$DIMLFAC
 40
1.0
  9
$DIMTOFL
 70
     0
  9
$DIMTVP
 40
0.0
  9
$DIMTIX
 70
     0
  9
$DIMSOXD
 70
     0
  9
$DIMSAH
 70
     0
  9
$DIMBLK1
  1

  9
$DIMBLK2
  1

  9
$DIMSTYLE
  2
Standard
  9
$DIMCLRD
 70
     0
  9
$DIMCLRE
 70
     0
  9
$DIMCLRT
 70
     0
  9
$DIMTFAC
 40
1.0
  9
$DIMGAP
 40
0.09
  9
$DIMJUST
 70
     0
  9
$DIMSD1
 70
     0
  9
$DIMSD2
 70
     0
  9
$DIMTOLJ
 70
     1
  9
$DIMTZIN
 70
     0
  9
$DIMALTZ
 70
     0
  9
$DIMALTTZ
 70
     0
  9
$DIMUPT
 70
     0
  9
$DIMDEC
 70
     4
  9
$DIMTDEC
 70
     4
  9
$DIMALTU
 70
     2
  9
$DIMALTTD
 70
     2
  9
$DIMTXSTY
  7
Standard
  9
$DIMAUNIT
 70
     0
  9
$DIMADEC
 70
     0
  9
$DIMALTRND
 40
0.0
  9
$DIMAZIN
 70
     0
  9
$DIMDSEP
 70
    46
  9
$DIMATFIT
 70
     3
  9
$DIMFRAC
 70
     0
  9
$DIMLDRBLK
  1

  9
$DIMLUNIT
 70
     2
  9
$DIMLWD
 70
    -2
  9
$DIMLWE
 70
    -2
  9
$DIMTMOVE
 70
     0
  9
$DIMFXL
 40
1.0
  9
$DIMFXLON
 70
     0
  9
$DIMJOGANG
 40
0.7853981633974483
  9
$DIMTFILL
 70
     0
  9
$DIMTFILLCLR
 70
     0
  9
$DIMARCSYM
 70
     0
  9
$DIMLTYPE
  6

  9
$DIMLTEX1
  6

  9
$DIMLTEX2
  6

  9
$DIMTXTDIRECTION
 70
     0
  9
$LUNITS
 70
     2
  9
$LUPREC
 70
     4
  9
$SKETCHINC
 40
0.1
  9
$FILLETRAD
 40
0.0
  9
$AUNITS
 70
     0
  9
$AUPREC
 70
     0
  9
$MENU
  1
.
  9
$ELEVATION
 40
0.0
  9
$PELEVATION
 40
0.0
  9
$THICKNESS
 40
0.0
  9
$LIMCHECK
 70
     0
  9
$CHAMFERA
 40
0.0
  9
$CHAMFERB
 40
0.0
  9
$CHAMFERC
 40
0.0
  9
$CHAMFERD
 40
0.0
  9
$SKPOLY
 70
     0
  9
$TDCREATE
 40
2461020.612408484
  9
$TDUCREATE
 40
2461020.383241818
  9
$TDUPDATE
 40
2461020.6124086
  9
$TDUUPDATE
 40
2461020.383241933
  9
$TDINDWG
 40
0.0000000116
  9
$TDUSRTIMER
 40
0.0000000116
  9
$USRTIMER
 70
     1
  9
$ANGBASE
 50
0.0
  9
$ANGDIR
 70
     0
  9
$PDMODE
 70
     0
  9
$PDSIZE
 40
0.0
  9
$PLINEWID
 40
0.0
  9
$SPLFRAME
 70
     0
  9
$SPLINETYPE
 70
     6
  9
$SPLINESEGS
 70
     8
  9
$HANDSEED
  5
DF
  9
$SURFTAB1
 70
     6
  9
$SURFTAB2
 70
     6
  9
$SURFTYPE
 70
     6
  9
$SURFU
 70
     6
  9
$SURFV
 70
     6
  9
$UCSBASE
  2

  9
$UCSNAME
  2

  9
$UCSORG
 10
0.0
 20
0.0
 30
0.0
  9
$UCSXDIR
 10
1.0
 20
0.0
 30
0.0
  9
$UCSYDIR
 10
0.0
 20
1.0
 30
0.0
  9
$UCSORTHOREF
  2

  9
$UCSORTHOVIEW
 70
     0
  9
$UCSORGTOP
 10
0.0
 20
0.0
 30
0.0
  9
$UCSORGBOTTOM
 10
0.0
 20
0.0
 30
0.0
  9
$UCSORGLEFT
 10
0.0
 20
0.0
 30
0.0
  9
$UCSORGRIGHT
 10
0.0
 20
0.0
 30
0.0
  9
$UCSORGFRONT
 10
0.0
 20
0.0
 30
0.0
  9
$UCSORGBACK
 10
0.0
 20
0.0
 30
0.0
  9
$PUCSBASE
  2

  9
$PUCSNAME
  2

  9
$PUCSORG
 10
0.0
 20
0.0
 30
0.0
  9
$PUCSXDIR
 10
1.0
 20
0.0
 30
0.0
  9
$PUCSYDIR
 10
0.0
 20
1.0
 30
0.0
  9
$PUCSORTHOREF
  2

  9
$PUCSORTHOVIEW
 70
     0
  9
$PUCSORGTOP
 10
0.0
 20
0.0
 30
0.0
  9
$PUCSORGBOTTOM
 10
0.0
 20
0.0
 30
0.0
  9
$PUCSORGLEFT
 10
0.0
 20
0.0
 30
0.0
  9
$PUCSORGRIGHT
 10
0.0
 20
0.0
 30
0.0
  9
$PUCSORGFRONT
 10
0.0
 20
0.0
 30
0.0
  9
$PUCSORGBACK
 10
0.0
 20
0.0
 30
0.0
  9
$USERI1
 70
     0
  9
$USERI2
 70
     0
  9
$USERI3
 70
     0
  9
$USERI4
 70
     0
  9
$USERI5
 70
     0
  9
$USERR1
 40
0.0
  9
$USERR2
 40
0.0
  9
$USERR3
 40
0.0
  9
$USERR4
 40
0.0
  9
$USERR5
 40
0.0
  9
$WORLDVIEW
 70
     1
  9
$SHADEDGE
 70
     3
  9
$SHADEDIF
 70
    70
  9
$TILEMODE
 70
     1
  9
$MAXACTVP
 70
    64
  9
$PINSBASE
 10
0.0
 20
0.0
 30
0.0
  9
$PLIMCHECK
 70
     0
  9
$PEXTMIN
 10
1.000000000000000E+20
 20
1.000000000000000E+20
 30
1.000000000000000E+20
  9
$PEXTMAX
 10
-1.000000000000000E+20
 20
-1.000000000000000E+20
 30
-1.000000000000000E+20
  9
$PLIMMIN
 10
0.0
 20
0.0
  9
$PLIMMAX
 10
12.0
 20
9.0
  9
$UNITMODE
 70
     0
  9
$VISRETAIN
 70
     1
  9
$PLINEGEN
 70
     0
  9
$PSLTSCALE
 70
     1
  9
$TREEDEPTH
 70
  3020
  9
$CMLSTYLE
  2
Standard
  9
$CMLJUST
 70
     0
  9
$CMLSCALE
 40
1.0
  9
$PROXYGRAPHICS
 70
     1
  9
$MEASUREMENT
 70
     0
  9
$CELWEIGHT
370
    -1
  9
$ENDCAPS
280
     0
  9
$JOINSTYLE
280
     0
  9
$LWDISPLAY
290
     0
  9
$INSUNITS
 70
     1
  9
$HYPERLINKBASE
  1

  9
$STYLESHEET
  1

  9
$XEDIT
290
     1
  9
$CEPSNTYPE
380
     0
  9
$PSTYLEMODE
290
     1
  9
$FINGERPRINTGUID
  2
{cb68594f-0cf5-48a1-bb8e-c203afd17fa5}
  9
$VERSIONGUID
  2
{FAEB1C32-E019-11D5-929B-00C0DF256EC4}
  9
$EXTNAMES
290
     1
  9
$PSVPSCALE
 40
0.0
  9
$OLESTARTUP
290
     0
  9
$SORTENTS
280
   127
  9
$INDEXCTL
280
     0
  9
$HIDETEXT
280
     1
  9
$XCLIPFRAME
280
     2
  9
$HALOGAP
280
     0
  9
$OBSCOLOR
 70
   257
  9
$OBSLTYPE
280
     0
  9
$INTERSECTIONDISPLAY
280
     0
  9
$INTERSECTIONCOLOR
 70
   257
  9
$DIMASSOC
280
     2
  9
$PROJECTNAME
  1

  9
$CAMERADISPLAY
290
     0
  9
$LENSLENGTH
 40
50.0
  9
$CAMERAHEIGHT
 40
0.0
  9
$STEPSPERSEC
 40
2.0
  9
$STEPSIZE
 40
6.0
  9
$3DDWFPREC
 40
2.0
  9
$PSOLWIDTH
 40
0.25
  9
$PSOLHEIGHT
 40
4.0
  9
$LOFTANG1
 40
1.570796326794897
  9
$LOFTANG2
 40
1.570796326794897
  9
$LOFTMAG1
 40
0.0
  9
$LOFTMAG2
 40
0.0
  9
$LOFTPARAM
 70
     7
  9
$LOFTNORMALS
280
     1
  9
$LATITUDE
 40
37.795
  9
$LONGITUDE
 40
-122.394
  9
$NORTHDIRECTION
 40
0.0
  9
$TIMEZONE
 70
 -8000
  9
$LIGHTGLYPHDISPLAY
280
     1
  9
$TILEMODELIGHTSYNCH
280
     1
  9
$CMATERIAL
347
44
  9
$SOLIDHIST
280
     0
  9
$SHOWHIST
280
     1
  9
$DWFFRAME
280
     2
  9
$DGNFRAME
280
     2
  9
$REALWORLDSCALE
290
     1
  9
$INTERFERECOLOR
 62
   256
  9
$CSHADOW
280
     0
  9
$SHADOWPLANELOCATION
 40
0.0
  0
ENDSEC
  0
SECTION
  2
CLASSES
  0
CLASS
  1
ACDBDICTIONARYWDFLT
  2
AcDbDictionaryWithDefault
  3
ObjectDBX Classes
 90
        0
 91
        3
280
     0
281
     0
  0
CLASS
  1
VISUALSTYLE
  2
AcDbVisualStyle
  3
ObjectDBX Classes
 90
     4095
 91
        3
280
     0
281
     0
  0
CLASS
  1
MATERIAL
  2
AcDbMaterial
  3
ObjectDBX Classes
 90
     1153
 91
        3
280
     0
281
     0
  0
CLASS
  1
SCALE
  2
AcDbScale
  3
ObjectDBX Classes
 90
     1153
 91
        3
280
     0
281
     0
  0
CLASS
  1
TABLESTYLE
  2
AcDbTableStyle
  3
ObjectDBX Classes
 90
     4095
 91
        3
280
     0
281
     0
  0
CLASS
  1
MLEADERSTYLE
  2
AcDbMLeaderStyle
  3
ACDB_MLEADERSTYLE_CLASS
 90
     4095
 91
        3
280
     0
281
     0
  0
CLASS
  1
SUN
  2
AcDbSun
  3
SCENEOE
 90
     1153
 91
        3
280
     0
281
     0
  0
CLASS
  1
DICTIONARYVAR
  2
AcDbDictionaryVar
  3
ObjectDBX Classes
 90
        0
 91
        3
280
     0
281
     0
  0
CLASS
  1
CELLSTYLEMAP
  2
AcDbCellStyleMap
  3
ObjectDBX Classes
 90
     1152
 91
        3
280
     0
281
     0
  0
ENDSEC
  0
SECTION
  2
TABLES
  0
TABLE
  2
VPORT
  5
8
330
0
100
AcDbSymbolTable
 70
     1
  0
VPORT
  5
29
330
8
100
AcDbSymbolTableRecord
100
AcDbViewportTableRecord
  2
*Active
 70
     0
 10
0.0
 20
0.0
 11
1.0
 21
1.0
 12
10.42990654205607
 22
4.5
 13
0.0
 23
0.0
 14
0.5
 24
0.5
 15
0.5
 25
0.5
 16
0.0
 26
0.0
 36
1.0
 17
0.0
 27
0.0
 37
0.0
 40
9.0
 41
1.972972972850329
 42
50.0
 43
0.0
 44
0.0
 50
0.0
 51
0.0
 71
     0
 72
   100
 73
     1
 74
     3
 75
     0
 76
     0
 77
     0
 78
     0
281
     0
 65
     1
110
0.0
120
0.0
130
0.0
111
1.0
121
0.0
131
0.0
112
0.0
122
1.0
132
0.0
 79
     0
146
0.0
348
2F
 60
     3
 61
     5
292
     1
282
     1
141
0.0
142
0.0
 63
   250
361
5D
  0
ENDTAB
  0
TABLE
  2
LTYPE
  5
5
330
0
100
AcDbSymbolTable
 70
     1
  0
LTYPE
  5
14
330
5
100
AcDbSymbolTableRecord
100
AcDbLinetypeTableRecord
  2
ByBlock
 70
     0
  3

 72
    65
 73
     0
 40
0.0
  0
LTYPE
  5
15
330
5
100
AcDbSymbolTableRecord
100
AcDbLinetypeTableRecord
  2
ByLayer
 70
     0
  3

 72
    65
 73
     0
 40
0.0
  0
LTYPE
  5
16
330
5
100
AcDbSymbolTableRecord
100
AcDbLinetypeTableRecord
  2
Continuous
 70
     0
  3
Solid line
 72
    65
 73
     0
 40
0.0
  0
ENDTAB
  0
TABLE
  2
LAYER
  5
2
330
0
100
AcDbSymbolTable
 70
     2
  0
LAYER
  5
10
330
2
100
AcDbSymbolTableRecord
100
AcDbLayerTableRecord
  2
0
 70
     0
 62
     7
  6
Continuous
370
    -3
390
F
347
46
348
0
  0
LAYER
  5
5F
330
2
100
AcDbSymbolTableRecord
100
AcDbLayerTableRecord
  2
Layer 1
 70
     0
 62
     7
  6
Continuous
370
    -3
390
F
347
46
348
0
  0
ENDTAB
  0
TABLE
  2
STYLE
  5
3
330
0
100
AcDbSymbolTable
 70
     1
  0
STYLE
  5
11
330
3
100
AcDbSymbolTableRecord
100
AcDbTextStyleTableRecord
  2
Standard
 70
     0
 40
0.0
 41
1.0
 50
0.0
 71
     0
 42
0.2
  3
txt
  4

  0
ENDTAB
  0
TABLE
  2
VIEW
  5
6
330
0
100
AcDbSymbolTable
 70
     0
  0
ENDTAB
  0
TABLE
  2
UCS
  5
7
330
0
100
AcDbSymbolTable
 70
     0
  0
ENDTAB
  0
TABLE
  2
APPID
  5
9
330
0
100
AcDbSymbolTable
 70
     2
  0
APPID
  5
12
330
9
100
AcDbSymbolTableRecord
100
AcDbRegAppTableRecord
  2
ACAD
 70
     0
  0
APPID
  5
5E
330
9
100
AcDbSymbolTableRecord
100
AcDbRegAppTableRecord
  2
ODA
 70
     0
  0
ENDTAB
  0
TABLE
  2
DIMSTYLE
  5
A
330
0
100
AcDbSymbolTable
 70
     1
100
AcDbDimStyleTable
  0
DIMSTYLE
105
27
330
A
100
AcDbSymbolTableRecord
100
AcDbDimStyleTableRecord
  2
Standard
 70
     0
178
     0
340
11
  0
ENDTAB
  0
TABLE
  2
BLOCK_RECORD
  5
1
330
0
100
AcDbSymbolTable
 70
     1
  0
BLOCK_RECORD
  5
1F
330
1
100
AcDbSymbolTableRecord
100
AcDbBlockTableRecord
  2
*Model_Space
340
22
 70
     0
280
     1
281
     0
  0
BLOCK_RECORD
  5
1B
330
1
100
AcDbSymbolTableRecord
100
AcDbBlockTableRecord
  2
*Paper_Space
340
1E
 70
     0
280
     1
281
     0
  0
BLOCK_RECORD
  5
23
330
1
100
AcDbSymbolTableRecord
100
AcDbBlockTableRecord
  2
*Paper_Space0
340
26
 70
     0
280
     1
281
     0
  0
ENDTAB
  0
ENDSEC
  0
SECTION
  2
BLOCKS
  0
BLOCK
  5
20
330
1F
100
AcDbEntity
  8
0
100
AcDbBlockBegin
  2
*Model_Space
 70
     0
 10
0.0
 20
0.0
 30
0.0
  3
*Model_Space
  1

  0
ENDBLK
  5
21
330
1F
100
AcDbEntity
  8
0
100
AcDbBlockEnd
  0
BLOCK
  5
1C
330
1B
100
AcDbEntity
 67
     1
  8
0
100
AcDbBlockBegin
  2
*Paper_Space
 70
     0
 10
0.0
 20
0.0
 30
0.0
  3
*Paper_Space
  1

  0
ENDBLK
  5
1D
330
1B
100
AcDbEntity
 67
     1
  8
0
100
AcDbBlockEnd
  0
BLOCK
  5
24
330
23
100
AcDbEntity
  8
0
100
AcDbBlockBegin
  2
*Paper_Space0
 70
     0
 10
0.0
 20
0.0
 30
0.0
  3
*Paper_Space0
  1

  0
ENDBLK
  5
25
330
23
100
AcDbEntity
  8
0
100
AcDbBlockEnd
  0
ENDSEC
  0
SECTION
  2
ENTITIES
  0
LWPOLYLINE
  5
60
330
1F
100
AcDbEntity
  8
Layer 1
 62
   250
370
     9
100
AcDbPolyline
 90
        5
 70
     1
 43
0.0
 10
-12.31724409448819
 20
-2.525244094488189
 10
-4.940527559055118
 20
-2.525244094488189
 10
-4.940527559055118
 20
7.555385826771653
 10
-12.31724409448819
 20
7.555385826771653
 10
-12.31724409448819
 20
-2.525244094488189
  0
LWPOLYLINE
  5
61
330
1F
100
AcDbEntity
  8
Layer 1
 62
     7
100
AcDbPolyline
 90
      147
 70
     1
 43
0.0
 10
-10.19900393700787
 20
6.832535433070866
 10
-10.25627952755906
 20
6.832535433070866
 10
-10.26311811023622
 20
6.820566929133858
 10
-10.27061811023622
 20
6.809200787401575
 10
-10.27878346456693
 20
6.798440944881889
 10
-10.28761023622047
 20
6.788283464566929
 10
-10.29709842519685
 20
6.778728346456693
 10
-10.30725196850394
 20
6.769779527559055
 10
-10.31806692913386
 20
6.761437007874016
 10
-10.32954330708661
 20
6.753696850393701
 10
-10.34149606299213
 20
6.746724409448819
 10
-10.35374015748032
 20
6.740681102362204
 10
-10.36627559055118
 20
6.735566929133858
 10
-10.37909842519685
 20
6.73138188976378
 10
-10.39221653543307
 20
6.728125984251968
 10
-10.40562204724409
 20
6.725799212598425
 10
-10.41931496062992
 20
6.724405511811024
 10
-10.4333031496063
 20
6.72394094488189
 10
-10.4537125984252
 20
6.724905511811023
 10
-10.47337795275591
 20
6.727799212598425
 10
-10.49229921259843
 20
6.732622047244094
 10
-10.51047637795276
 20
6.739377952755905
 10
-10.52790551181102
 20
6.748059055118111
 10
-10.54459448818898
 20
6.758669291338583
 10
-10.56053937007874
 20
6.771212598425197
 10
-10.57574015748031
 20
6.785681102362204
 10
-10.58925196850394
 20
6.801074803149606
 10
-10.60096062992126
 20
6.817220472440945
 10
-10.61086614173228
 20
6.834125984251968
 10
-10.61897244094488
 20
6.851787401574803
 10
-10.62527952755906
 20
6.870200787401575
 10
-10.62978346456693
 20
6.889370078740157
 10
-10.6324842519685
 20
6.909295275590551
 10
-10.63338582677165
 20
6.929976377952756
 10
-10.6324842519685
 20
6.950830708661417
 10
-10.62978346456693
 20
6.970909448818897
 10
-10.62527952755906
 20
6.990204724409449
 10
-10.61897244094488
 20
7.008724409448819
 10
-10.61086614173228
 20
7.026464566929134
 10
-10.60096062992126
 20
7.043425196850394
 10
-10.58925196850394
 20
7.059610236220473
 10
-10.57574015748031
 20
7.075015748031496
 10
-10.56880708661417
 20
7.081901574803149
 10
-10.56158661417323
 20
7.088429133858268
 10
-10.55407086614173
 20
7.094594488188976
 10
-10.54626771653543
 20
7.100397637795275
 10
-10.53817322834646
 20
7.105842519685039
 10
-10.5297874015748
 20
7.110929133858268
 10
-10.52111023622047
 20
7.115653543307086
 10
-10.51214566929134
 20
7.120015748031496
 10
-10.50305511811024
 20
7.123940944881889
 10
-10.4940157480315
 20
7.127338582677165
 10
-10.48501968503937
 20
7.130216535433071
 10
-10.47607086614173
 20
7.132570866141732
 10
-10.46716535433071
 20
7.134397637795276
 10
-10.45831102362205
 20
7.135704724409448
 10
-10.44950393700787
 20
7.136492125984252
 10
-10.44074015748031
 20
7.136751968503937
 10
-10.43213385826772
 20
7.136629921259843
 10
-10.42379527559055
 20
7.136263779527559
 10
-10.41572440944882
 20
7.135653543307087
 10
-10.40792125984252
 20
7.134799212598425
 10
-10.40038188976378
 20
7.133700787401575
 10
-10.39311417322835
 20
7.13236220472441
 10
-10.38611023622047
 20
7.130775590551181
 10
-10.37937401574803
 20
7.128944881889764
 10
-10.35968897637795
 20
7.122145669291339
 10
-10.34125590551181
 20
7.113740157480315
 10
-10.32407874015748
 20
7.103732283464567
 10
-10.30815748031496
 20
7.092122047244095
 10
-10.29349212598425
 20
7.078909448818898
 10
-10.28007874015748
 20
7.064090551181103
 10
-10.26792519685039
 20
7.047669291338583
 10
-10.25702362204724
 20
7.029645669291338
 10
-10.19974803149606
 20
7.029645669291338
 10
-10.20745275590551
 20
7.047248031496063
 10
-10.21625196850394
 20
7.063976377952756
 10
-10.22614173228346
 20
7.079834645669291
 10
-10.23712598425197
 20
7.09482283464567
 10
-10.24920078740158
 20
7.108937007874016
 10
-10.26237007874016
 20
7.122177165354331
 10
-10.27662992125984
 20
7.134547244094488
 10
-10.29198031496063
 20
7.146047244094488
 10
-10.30809842519685
 20
7.15642125984252
 10
-10.32466141732283
 20
7.165409448818898
 10
-10.34166535433071
 20
7.173015748031496
 10
-10.35911023622047
 20
7.179240157480315
 10
-10.37699606299213
 20
7.184078740157481
 10
-10.39532283464567
 20
7.187535433070866
 10
-10.4140905511811
 20
7.189610236220473
 10
-10.4333031496063
 20
7.190303149606299
 10
-10.45908661417323
 20
7.189094488188976
 10
-10.48390551181102
 20
7.185468503937008
 10
-10.50775984251968
 20
7.179425196850394
 10
-10.53064960629921
 20
7.170964566929134
 10
-10.55257480314961
 20
7.160086614173228
 10
-10.57353149606299
 20
7.146791338582677
 10
-10.59352755905512
 20
7.131078740157481
 10
-10.61255905511811
 20
7.112948818897638
 10
-10.62087795275591
 20
7.103846456692914
 10
-10.62873622047244
 20
7.094381889763779
 10
-10.63612598425197
 20
7.084555118110236
 10
-10.64305118110236
 20
7.074366141732283
 10
-10.6495157480315
 20
7.063818897637796
 10
-10.65551181102362
 20
7.052913385826772
 10
-10.66104724409449
 20
7.041645669291339
 10
-10.66611417322835
 20
7.03001968503937
 10
-10.67064566929134
 20
7.018122047244095
 10
-10.67457480314961
 20
7.006055118110236
 10
-10.67789763779528
 20
6.993811023622047
 10
-10.68061811023622
 20
6.981393700787401
 10
-10.68273228346457
 20
6.968799212598425
 10
-10.68424015748031
 20
6.956031496062992
 10
-10.68514566929134
 20
6.943090551181102
 10
-10.68544881889764
 20
6.929976377952756
 10
-10.68431102362205
 20
6.903901574803149
 10
-10.6808937007874
 20
6.878771653543307
 10
-10.67520078740158
 20
6.85457874015748
 10
-10.66722834645669
 20
6.831330708661417
 10
-10.65697637795276
 20
6.809023622047244
 10
-10.64444881889764
 20
6.787657480314961
 10
-10.62964173228347
 20
6.767232283464567
 10
-10.61255905511811
 20
6.747748031496063
 10
-10.59352755905512
 20
6.72961811023622
 10
-10.57353149606299
 20
6.713905511811023
 10
-10.55257480314961
 20
6.700610236220473
 10
-10.53064960629921
 20
6.689732283464567
 10
-10.50775984251968
 20
6.681271653543307
 10
-10.48390551181102
 20
6.675228346456693
 10
-10.45908661417323
 20
6.671602362204724
 10
-10.4333031496063
 20
6.670393700787401
 10
-10.41416141732283
 20
6.671098425196851
 10
-10.39541732283465
 20
6.673204724409449
 10
-10.37706299212598
 20
6.676720472440945
 10
-10.35911023622047
 20
6.681641732283465
 10
-10.34154724409449
 20
6.687972440944882
 10
-10.32438188976378
 20
6.695704724409449
 10
-10.30761023622047
 20
6.704842519685039
 10
-10.29123622047244
 20
6.715389763779528
 10
-10.27576377952756
 20
6.726984251968504
 10
-10.26141732283465
 20
6.739448818897638
 10
-10.2481968503937
 20
6.752783464566929
 10
-10.23610236220472
 20
6.766992125984252
 10
-10.22513779527559
 20
6.782070866141733
 10
-10.21529921259843
 20
6.79801968503937
 10
-10.20658661417323
 20
6.81484251968504
 10
-10.19900393700787
 20
6.832535433070866
  0
LWPOLYLINE
  5
62
330
1F
100
AcDbEntity
  8
Layer 1
 62
     7
100
AcDbPolyline
 90
       36
 70
     1
 43
0.0
 10
-10.06884251968504
 20
6.928740157480315
 10
-10.06884251968504
 20
7.134027559055118
 10
-9.951326771653543
 20
7.134027559055118
 10
-9.940086614173229
 20
7.133586614173228
 10
-9.929429133858267
 20
7.132259842519685
 10
-9.919350393700787
 20
7.130051181102362
 10
-9.909854330708662
 20
7.12696062992126
 10
-9.90094094488189
 20
7.122988188976378
 10
-9.892610236220472
 20
7.118129921259842
 10
-9.884858267716535
 20
7.112389763779528
 10
-9.877688976377954
 20
7.105763779527559
 10
-9.871240157480315
 20
7.098437007874016
 10
-9.865649606299213
 20
7.090586614173229
 10
-9.860917322834645
 20
7.082216535433071
 10
-9.857051181102362
 20
7.073330708661417
 10
-9.85403937007874
 20
7.063925196850394
 10
-9.851889763779528
 20
7.054003937007874
 10
-9.85059842519685
 20
7.043570866141732
 10
-9.850169291338583
 20
7.032622047244095
 10
-9.850622047244094
 20
7.021692913385826
 10
-9.85198031496063
 20
7.01121653543307
 10
-9.854248031496063
 20
7.001200787401575
 10
-9.85742125984252
 20
6.991649606299212
 10
-9.8615
 20
6.982562992125985
 10
-9.866484251968505
 20
6.97394094488189
 10
-9.872377952755906
 20
6.965791338582677
 10
-9.879177165354331
 20
6.958118110236221
 10
-9.886566929133858
 20
6.951232283464567
 10
-9.89442125984252
 20
6.945263779527559
 10
-9.902744094488188
 20
6.940212598425197
 10
-9.911531496062992
 20
6.936082677165355
 10
-9.920779527559056
 20
6.932870078740158
 10
-9.9305
 20
6.930574803149606
 10
-9.940681102362205
 20
6.929200787401575
 10
-9.951326771653543
 20
6.928740157480315
 10
-10.06884251968504
 20
6.928740157480315
  0
LWPOLYLINE
  5
63
330
1F
100
AcDbEntity
  8
Layer 1
 62
     7
100
AcDbPolyline
 90
       38
 70
     1
 43
0.0
 10
-9.79809842519685
 20
7.03138188976378
 10
-9.798834645669292
 20
7.047704724409448
 10
-9.801051181102363
 20
7.063295275590551
 10
-9.804740157480316
 20
7.078153543307087
 10
-9.809905511811024
 20
7.092283464566929
 10
-9.816551181102362
 20
7.105677165354331
 10
-9.824669291338582
 20
7.118338582677166
 10
-9.834263779527559
 20
7.130267716535433
 10
-9.845334645669292
 20
7.141464566929134
 10
-9.85723622047244
 20
7.15140157480315
 10
-9.869787401574802
 20
7.160015748031496
 10
-9.882988188976379
 20
7.167303149606299
 10
-9.89684251968504
 20
7.173263779527559
 10
-9.911346456692913
 20
7.177901574803149
 10
-9.9265
 20
7.181212598425197
 10
-9.942307086614173
 20
7.183200787401574
 10
-9.958763779527558
 20
7.183862204724409
 10
-10.12090551181102
 20
7.183862204724409
 10
-10.12090551181102
 20
6.67807874015748
 10
-10.06884251968504
 20
6.67807874015748
 10
-10.06884251968504
 20
6.878157480314961
 10
-9.958763779527558
 20
6.878157480314961
 10
-9.94222440944882
 20
6.878826771653543
 10
-9.926362204724409
 20
6.880830708661417
 10
-9.911173228346456
 20
6.884173228346457
 10
-9.89665748031496
 20
6.888850393700787
 10
-9.882814960629922
 20
6.894866141732283
 10
-9.869645669291339
 20
6.90221653543307
 10
-9.857153543307087
 20
6.910905511811023
 10
-9.845334645669292
 20
6.920929133858268
 10
-9.834263779527559
 20
6.932255905511811
 10
-9.824669291338582
 20
6.944287401574803
 10
-9.816551181102362
 20
6.957031496062992
 10
-9.809905511811024
 20
6.970484251968504
 10
-9.804740157480316
 20
6.984645669291338
 10
-9.801051181102363
 20
6.999515748031496
 10
-9.798834645669292
 20
7.015094488188977
 10
-9.79809842519685
 20
7.03138188976378
  0
LWPOLYLINE
  5
64
330
1F
100
AcDbEntity
  8
Layer 1
 62
     7
100
AcDbPolyline
 90
      155
 70
     1
 43
0.0
 10
-9.586988188976378
 20
6.916338582677166
 10
-9.563389763779528
 20
6.910397637795276
 10
-9.54177559055118
 20
6.904283464566929
 10
-9.522141732283465
 20
6.898003937007874
 10
-9.504488188976378
 20
6.891562992125984
 10
-9.488807086614173
 20
6.884964566929134
 10
-9.475102362204725
 20
6.87821653543307
 10
-9.463366141732283
 20
6.871318897637796
 10
-9.45359842519685
 20
6.864275590551181
 10
-9.447885826771653
 20
6.859122047244094
 10
-9.442933070866141
 20
6.853606299212599
 10
-9.43873622047244
 20
6.847724409448819
 10
-9.435299212598425
 20
6.84148031496063
 10
-9.432622047244095
 20
6.834870078740157
 10
-9.430708661417324
 20
6.827893700787402
 10
-9.42955905511811
 20
6.820547244094488
 10
-9.42917716535433
 20
6.812830708661417
 10
-9.42938188976378
 20
6.80513779527559
 10
-9.429992125984253
 20
6.797858267716536
 10
-9.431015748031497
 20
6.790996062992126
 10
-9.432448818897639
 20
6.784551181102362
 10
-9.434295275590552
 20
6.778515748031496
 10
-9.436555118110237
 20
6.772889763779528
 10
-9.439228346456693
 20
6.767677165354331
 10
-9.442318897637795
 20
6.762870078740158
 10
-9.451535433070866
 20
6.75184251968504
 10
-9.462354330708662
 20
6.742279527559055
 10
-9.474771653543307
 20
6.734185039370079
 10
-9.488791338582677
 20
6.727555118110236
 10
-9.504405511811024
 20
6.722397637795275
 10
-9.52161811023622
 20
6.718712598425197
 10
-9.540429133858268
 20
6.7165
 10
-9.560830708661417
 20
6.715763779527559
 10
-9.588944881889764
 20
6.71701968503937
 10
-9.613779527559055
 20
6.720783464566929
 10
-9.63534251968504
 20
6.727059055118111
 10
-9.653633858267716
 20
6.735846456692913
 10
-9.668653543307087
 20
6.747141732283464
 10
-9.680401574803149
 20
6.760948818897638
 10
-9.68888188976378
 20
6.777263779527559
 10
-9.694094488188977
 20
6.796090551181102
 10
-9.75570472440945
 20
6.796090551181102
 10
-9.746803149606299
 20
6.766106299212598
 10
-9.733484251968504
 20
6.740122047244094
 10
-9.715755905511811
 20
6.718133858267716
 10
-9.693614173228346
 20
6.700145669291339
 10
-9.667059055118111
 20
6.686153543307086
 10
-9.63609842519685
 20
6.676157480314961
 10
-9.600728346456693
 20
6.670161417322834
 10
-9.560952755905511
 20
6.668161417322835
 10
-9.542688976377953
 20
6.668677165354331
 10
-9.525181102362204
 20
6.670228346456692
 10
-9.50842125984252
 20
6.672814960629921
 10
-9.492417322834646
 20
6.676437007874016
 10
-9.477157480314961
 20
6.681090551181103
 10
-9.462649606299212
 20
6.686779527559055
 10
-9.448885826771653
 20
6.693503937007874
 10
-9.435870078740157
 20
6.701259842519685
 10
-9.421748031496064
 20
6.711602362204724
 10
-9.409507874015748
 20
6.723106299212598
 10
-9.399149606299213
 20
6.735775590551181
 10
-9.390669291338583
 20
6.749606299212599
 10
-9.384062992125985
 20
6.764598425196851
 10
-9.37933464566929
 20
6.780751968503937
 10
-9.376480314960629
 20
6.798066929133858
 10
-9.3755
 20
6.816547244094489
 10
-9.376295275590552
 20
6.831637795275591
 10
-9.378594488188977
 20
6.845854330708661
 10
-9.382397637795275
 20
6.859196850393701
 10
-9.387708661417323
 20
6.871665354330709
 10
-9.394531496062992
 20
6.883255905511811
 10
-9.402870078740158
 20
6.893968503937008
 10
-9.412720472440945
 20
6.903795275590551
 10
-9.424094488188976
 20
6.912744094488189
 10
-9.433456692913385
 20
6.918850393700787
 10
-9.444149606299213
 20
6.924807086614173
 10
-9.456177165354331
 20
6.930614173228347
 10
-9.469527559055118
 20
6.936267716535433
 10
-9.484208661417323
 20
6.941771653543307
 10
-9.500208661417323
 20
6.947125984251969
 10
-9.517527559055118
 20
6.952326771653543
 10
-9.536161417322834
 20
6.957377952755905
 10
-9.554665354330709
 20
6.962283464566929
 10
-9.571492125984252
 20
6.966952755905512
 10
-9.586645669291338
 20
6.971393700787401
 10
-9.600129921259843
 20
6.975598425196851
 10
-9.611937007874015
 20
6.979570866141732
 10
-9.622070866141732
 20
6.983314960629921
 10
-9.630531496062993
 20
6.986822834645669
 10
-9.637318897637796
 20
6.990098425196851
 10
-9.649212598425196
 20
6.996799212598425
 10
-9.659515748031495
 20
7.004161417322835
 10
-9.668228346456694
 20
7.012181102362205
 10
-9.675346456692914
 20
7.020862204724409
 10
-9.680870078740158
 20
7.0301968503937
 10
-9.684807086614173
 20
7.040185039370079
 10
-9.687145669291338
 20
7.050830708661417
 10
-9.687897637795276
 20
7.062125984251969
 10
-9.68776377952756
 20
7.068173228346457
 10
-9.687271653543307
 20
7.073956692913386
 10
-9.686425196850394
 20
7.079464566929134
 10
-9.685228346456693
 20
7.084704724409449
 10
-9.68368503937008
 20
7.089669291338582
 10
-9.681791338582677
 20
7.094358267716536
 10
-9.67955905511811
 20
7.098771653543307
 10
-9.676984251968504
 20
7.102909448818898
 10
-9.669
 20
7.113110236220472
 10
-9.659641732283465
 20
7.121948818897637
 10
-9.648909448818898
 20
7.129425196850394
 10
-9.6368031496063
 20
7.135543307086614
 10
-9.623318897637795
 20
7.140303149606299
 10
-9.608456692913386
 20
7.143700787401575
 10
-9.59221653543307
 20
7.145740157480315
 10
-9.574590551181103
 20
7.14642125984252
 10
-9.550035433070866
 20
7.145397637795275
 10
-9.528244094488189
 20
7.142330708661417
 10
-9.50922440944882
 20
7.137216535433071
 10
-9.492972440944882
 20
7.13005905511811
 10
-9.479492125984253
 20
7.120854330708662
 10
-9.468787401574803
 20
7.109602362204725
 10
-9.460858267716535
 20
7.096307086614173
 10
-9.455704724409449
 20
7.080964566929134
 10
-9.399425196850395
 20
7.080964566929134
 10
-9.408220472440945
 20
7.106767716535433
 10
-9.420759842519685
 20
7.129129921259842
 10
-9.437043307086615
 20
7.148047244094488
 10
-9.457066929133859
 20
7.163527559055118
 10
-9.480834645669292
 20
7.175566929133859
 10
-9.508346456692914
 20
7.184169291338582
 10
-9.53959842519685
 20
7.189326771653543
 10
-9.574590551181103
 20
7.191047244094488
 10
-9.591145669291338
 20
7.190496062992126
 10
-9.607153543307087
 20
7.188838582677166
 10
-9.622618110236221
 20
7.18607874015748
 10
-9.637535433070866
 20
7.182216535433071
 10
-9.651905511811023
 20
7.177248031496063
 10
-9.665728346456692
 20
7.171173228346457
 10
-9.679003937007874
 20
7.163996062992126
 10
-9.69173622047244
 20
7.155716535433071
 10
-9.703417322834646
 20
7.146318897637795
 10
-9.713543307086614
 20
7.135799212598426
 10
-9.722106299212598
 20
7.124153543307087
 10
-9.72911811023622
 20
7.111385826771653
 10
-9.734566929133859
 20
7.097496062992126
 10
-9.73846062992126
 20
7.082484251968504
 10
-9.740795275590552
 20
7.066358267716535
 10
-9.741574803149605
 20
7.049110236220472
 10
-9.7391968503937
 20
7.02584251968504
 10
-9.731976377952757
 20
7.00448031496063
 10
-9.719909448818898
 20
6.985023622047244
 10
-9.703003937007875
 20
6.967476377952756
 10
-9.681255905511811
 20
6.951830708661418
 10
-9.654669291338582
 20
6.938094488188977
 10
-9.623248031496063
 20
6.926263779527559
 10
-9.586988188976378
 20
6.916338582677166
  0
LWPOLYLINE
  5
65
330
1F
100
AcDbEntity
  8
Layer 1
 62
     7
100
AcDbPolyline
 90
       67
 70
     1
 43
0.0
 10
-8.95855905511811
 20
6.640468503937008
 10
-8.966858267716535
 20
6.656393700787402
 10
-8.974622047244095
 20
6.672547244094488
 10
-8.98185433070866
 20
6.688933070866142
 10
-8.988547244094487
 20
6.705547244094488
 10
-8.994700787401575
 20
6.722389763779527
 10
-9.000318897637795
 20
6.73946062992126
 10
-9.005393700787401
 20
6.756763779527559
 10
-9.009929133858268
 20
6.774295275590551
 10
-9.01396062992126
 20
6.79209842519685
 10
-9.017448818897638
 20
6.810145669291338
 10
-9.020401574803149
 20
6.828429133858267
 10
-9.022811023622047
 20
6.846948818897638
 10
-9.024685039370079
 20
6.865712598425197
 10
-9.026023622047244
 20
6.884708661417323
 10
-9.02682283464567
 20
6.903948818897637
 10
-9.027090551181102
 20
6.923425196850394
 10
-9.02682283464567
 20
6.943866141732284
 10
-9.026023622047244
 20
6.96394094488189
 10
-9.0246968503937
 20
6.983645669291339
 10
-9.022838582677165
 20
7.002976377952756
 10
-9.020448818897638
 20
7.021937007874016
 10
-9.017535433070867
 20
7.040523622047244
 10
-9.014090551181102
 20
7.058732283464566
 10
-9.01012598425197
 20
7.076570866141732
 10
-9.005590551181102
 20
7.094106299212599
 10
-9.000511811023623
 20
7.111354330708662
 10
-8.994889763779527
 20
7.128307086614173
 10
-8.988720472440946
 20
7.144968503937008
 10
-8.982
 20
7.161342519685039
 10
-8.97473622047244
 20
7.177425196850393
 10
-8.966925196850394
 20
7.193224409448819
 10
-8.95855905511811
 20
7.208736220472441
 10
-8.911783464566929
 20
7.194614173228347
 10
-8.919220472440944
 20
7.179311023622048
 10
-8.926165354330708
 20
7.163838582677165
 10
-8.932610236220473
 20
7.148204724409449
 10
-8.938566929133858
 20
7.132405511811023
 10
-8.944027559055119
 20
7.116437007874016
 10
-8.949
 20
7.100307086614174
 10
-8.95348031496063
 20
7.084011811023622
 10
-8.957472440944882
 20
7.067551181102362
 10
-8.960956692913387
 20
7.050803149606299
 10
-8.963984251968505
 20
7.033720472440945
 10
-8.966543307086614
 20
7.016299212598425
 10
-8.968641732283464
 20
6.99853937007874
 10
-8.97027559055118
 20
6.980433070866142
 10
-8.971444881889763
 20
6.96198031496063
 10
-8.972149606299213
 20
6.943173228346457
 10
-8.97238188976378
 20
6.924015748031496
 10
-8.972153543307087
 20
6.904
 10
-8.97146062992126
 20
6.884472440944882
 10
-8.970307086614174
 20
6.865429133858267
 10
-8.968692913385826
 20
6.846877952755905
 10
-8.966610236220472
 20
6.828811023622047
 10
-8.964066929133859
 20
6.811232283464567
 10
-8.961055118110236
 20
6.794141732283465
 10
-8.957574803149607
 20
6.777535433070866
 10
-8.953641732283465
 20
6.76128346456693
 10
-8.949192913385827
 20
6.74532283464567
 10
-8.944232283464567
 20
6.729657480314961
 10
-8.938759842519685
 20
6.714279527559055
 10
-8.932779527559054
 20
6.699196850393701
 10
-8.926287401574804
 20
6.684397637795276
 10
-8.919291338582678
 20
6.669889763779527
 10
-8.911783464566929
 20
6.655665354330709
 10
-8.95855905511811
 20
6.640468503937008
  0
LWPOLYLINE
  5
66
330
1F
100
AcDbEntity
  8
Layer 1
 62
     7
100
AcDbPolyline
 90
        7
 70
     1
 43
0.0
 10
-8.741681102362204
 20
6.768708661417323
 10
-8.741681102362204
 20
7.131086614173229
 10
-8.828744094488188
 20
7.131086614173229
 10
-8.802279527559055
 20
7.185196850393701
 10
-8.679334645669291
 20
7.185196850393701
 10
-8.679334645669291
 20
6.768708661417323
 10
-8.741681102362204
 20
6.768708661417323
  0
LWPOLYLINE
  5
67
330
1F
100
AcDbEntity
  8
Layer 1
 62
     7
100
AcDbPolyline
 90
      128
 70
     1
 43
0.0
 10
-8.473929133858269
 20
6.869204724409449
 10
-8.470122047244095
 20
6.862637795275591
 10
-8.46605905511811
 20
6.856468503937008
 10
-8.461740157480316
 20
6.850692913385827
 10
-8.457161417322835
 20
6.845318897637795
 10
-8.452326771653544
 20
6.84034251968504
 10
-8.447232283464567
 20
6.835767716535433
 10
-8.441885826771653
 20
6.831594488188976
 10
-8.436279527559055
 20
6.827826771653544
 10
-8.430429133858267
 20
6.824448818897638
 10
-8.42442125984252
 20
6.821523622047244
 10
-8.418255905511812
 20
6.819047244094488
 10
-8.411937007874016
 20
6.81701968503937
 10
-8.40546062992126
 20
6.815444881889764
 10
-8.398830708661418
 20
6.814318897637795
 10
-8.392043307086615
 20
6.813641732283465
 10
-8.385098425196851
 20
6.813417322834646
 10
-8.374909448818897
 20
6.813830708661417
 10
-8.36522440944882
 20
6.815074803149606
 10
-8.35603937007874
 20
6.817145669291339
 10
-8.347354330708662
 20
6.820047244094488
 10
-8.339161417322835
 20
6.823779527559055
 10
-8.331468503937009
 20
6.828346456692914
 10
-8.32426377952756
 20
6.833748031496063
 10
-8.317547244094488
 20
6.839984251968504
 10
-8.31148031496063
 20
6.84690157480315
 10
-8.306220472440945
 20
6.854346456692913
 10
-8.301771653543307
 20
6.862311023622047
 10
-8.298133858267716
 20
6.870799212598425
 10
-8.295299212598426
 20
6.879811023622048
 10
-8.293279527559054
 20
6.889346456692913
 10
-8.292066929133858
 20
6.899405511811024
 10
-8.291661417322835
 20
6.909988188976378
 10
-8.292082677165354
 20
6.920185039370079
 10
-8.293354330708661
 20
6.929885826771653
 10
-8.295472440944883
 20
6.939094488188976
 10
-8.298437007874016
 20
6.947811023622047
 10
-8.30225590551181
 20
6.956043307086614
 10
-8.306925196850393
 20
6.963791338582677
 10
-8.312444881889764
 20
6.971055118110236
 10
-8.318818897637795
 20
6.977838582677165
 10
-8.32588188976378
 20
6.983972440944882
 10
-8.333472440944881
 20
6.989291338582677
 10
-8.341582677165354
 20
6.993791338582677
 10
-8.350220472440945
 20
6.997472440944882
 10
-8.359377952755905
 20
7.000334645669291
 10
-8.369062992125984
 20
7.002377952755905
 10
-8.379271653543308
 20
7.003606299212598
 10
-8.39
 20
7.004015748031496
 10
-8.396555118110236
 20
7.003874015748032
 10
-8.402984251968505
 20
7.003444881889764
 10
-8.409287401574803
 20
7.002736220472441
 10
-8.415468503937008
 20
7.001748031496063
 10
-8.421531496062991
 20
7.000476377952756
 10
-8.427472440944882
 20
6.998925196850394
 10
-8.4333031496063
 20
6.99709842519685
 10
-8.43901968503937
 20
6.994992125984252
 10
-8.444562992125984
 20
6.99257874015748
 10
-8.44994094488189
 20
6.989897637795275
 10
-8.455157480314961
 20
6.986944881889764
 10
-8.460212598425198
 20
6.983720472440945
 10
-8.465106299212598
 20
6.980216535433071
 10
-8.469838582677164
 20
6.976437007874016
 10
-8.474413385826772
 20
6.972374015748032
 10
-8.478834645669291
 20
6.968031496062992
 10
-8.495791338582677
 20
6.971858267716535
 10
-8.443437007874016
 20
7.185196850393701
 10
-8.244696850393701
 20
7.185196850393701
 10
-8.244696850393701
 20
7.129905511811024
 10
-8.402354330708661
 20
7.129905511811024
 10
-8.427062992125984
 20
7.03705905511811
 10
-8.418515748031496
 20
7.040370078740158
 10
-8.41009842519685
 20
7.043236220472441
 10
-8.401830708661418
 20
7.045661417322835
 10
-8.393724409448819
 20
7.047645669291339
 10
-8.385708661417322
 20
7.049133858267717
 10
-8.377685039370078
 20
7.050208661417323
 10
-8.369641732283464
 20
7.050858267716535
 10
-8.361570866141733
 20
7.051078740157481
 10
-8.346921259842519
 20
7.050476377952756
 10
-8.332968503937009
 20
7.048669291338583
 10
-8.31971653543307
 20
7.045657480314961
 10
-8.307165354330708
 20
7.041444881889764
 10
-8.295318897637795
 20
7.036023622047244
 10
-8.28417716535433
 20
7.02940157480315
 10
-8.273744094488189
 20
7.021574803149607
 10
-8.264015748031497
 20
7.012547244094488
 10
-8.255188976377953
 20
7.002582677165354
 10
-8.247543307086614
 20
6.991881889763779
 10
-8.241070866141733
 20
6.980452755905512
 10
-8.235779527559055
 20
6.968291338582677
 10
-8.231661417322835
 20
6.955397637795276
 10
-8.228720472440944
 20
6.941775590551181
 10
-8.226952755905511
 20
6.927425196850393
 10
-8.226366141732283
 20
6.912346456692913
 10
-8.227051181102363
 20
6.89513779527559
 10
-8.229106299212598
 20
6.878814960629922
 10
-8.232535433070867
 20
6.863377952755905
 10
-8.237334645669291
 20
6.848834645669291
 10
-8.243507874015748
 20
6.835181102362204
 10
-8.25105905511811
 20
6.822421259842519
 10
-8.259988188976378
 20
6.810559055118111
 10
-8.27029527559055
 20
6.799594488188976
 10
-8.281751968503936
 20
6.789736220472441
 10
-8.29413779527559
 20
6.781192913385826
 10
-8.307452755905512
 20
6.773964566929134
 10
-8.321700787401575
 20
6.768051181102362
 10
-8.336881889763779
 20
6.763448818897638
 10
-8.353
 20
6.760165354330709
 10
-8.370055118110237
 20
6.758192913385827
 10
-8.388043307086614
 20
6.757535433070866
 10
-8.398783464566929
 20
6.757771653543307
 10
-8.409165354330709
 20
6.758472440944882
 10
-8.419188976377953
 20
6.759649606299212
 10
-8.428854330708662
 20
6.761295275590551
 10
-8.438157480314961
 20
6.763417322834646
 10
-8.447106299212598
 20
6.766011811023622
 10
-8.4556968503937
 20
6.769082677165354
 10
-8.463925196850393
 20
6.772629921259843
 10
-8.471807086614174
 20
6.77663779527559
 10
-8.47942125984252
 20
6.781161417322835
 10
-8.486759842519685
 20
6.786204724409449
 10
-8.493830708661417
 20
6.791763779527559
 10
-8.500622047244095
 20
6.797838582677166
 10
-8.507133858267716
 20
6.804437007874016
 10
-8.513370078740158
 20
6.81155905511811
 10
-8.519318897637795
 20
6.819200787401575
 10
-8.473929133858269
 20
6.869204724409449
  0
LWPOLYLINE
  5
68
330
1F
100
AcDbEntity
  8
Layer 1
 62
     7
100
AcDbPolyline
 90
       65
 70
     1
 43
0.0
 10
-7.85751968503937
 20
6.971173228346457
 10
-7.858149606299213
 20
6.946811023622047
 10
-7.860039370078741
 20
6.923799212598425
 10
-7.863192913385827
 20
6.902141732283464
 10
-7.867610236220473
 20
6.881838582677165
 10
-7.873291338582677
 20
6.862893700787402
 10
-7.880236220472441
 20
6.845303149606299
 10
-7.888444881889764
 20
6.829074803149607
 10
-7.897921259842519
 20
6.814200787401575
 10
-7.908468503937008
 20
6.800929133858268
 10
-7.91996062992126
 20
6.789425196850393
 10
-7.93240157480315
 20
6.779685039370078
 10
-7.945787401574803
 20
6.771712598425196
 10
-7.960122047244094
 20
6.765511811023622
 10
-7.97540157480315
 20
6.761082677165354
 10
-7.991629921259842
 20
6.758421259842519
 10
-8.0088031496063
 20
6.757535433070866
 10
-8.026208661417323
 20
6.758433070866142
 10
-8.042610236220472
 20
6.761118110236221
 10
-8.058015748031496
 20
6.765594488188976
 10
-8.07242125984252
 20
6.771862204724409
 10
-8.085830708661417
 20
6.779917322834645
 10
-8.098244094488189
 20
6.789755905511811
 10
-8.109661417322835
 20
6.801381889763779
 10
-8.120086614173228
 20
6.814791338582677
 10
-8.129425196850393
 20
6.829854330708661
 10
-8.137515748031497
 20
6.846358267716536
 10
-8.144358267716536
 20
6.864307086614173
 10
-8.149952755905511
 20
6.883704724409449
 10
-8.1543031496063
 20
6.904547244094489
 10
-8.157405511811024
 20
6.92684251968504
 10
-8.159267716535433
 20
6.950586614173228
 10
-8.159889763779528
 20
6.975779527559055
 10
-8.159259842519685
 20
7.000771653543307
 10
-8.157374015748031
 20
7.024346456692913
 10
-8.154228346456692
 20
7.046503937007874
 10
-8.149830708661417
 20
7.067244094488189
 10
-8.144173228346457
 20
7.08655905511811
 10
-8.137267716535433
 20
7.104456692913386
 10
-8.129106299212598
 20
7.120929133858268
 10
-8.119692913385826
 20
7.13598031496063
 10
-8.109165354330708
 20
7.149456692913386
 10
-8.097653543307086
 20
7.161133858267717
 10
-8.085161417322835
 20
7.171007874015748
 10
-8.071692913385826
 20
7.179086614173229
 10
-8.057240157480315
 20
7.185366141732284
 10
-8.041811023622047
 20
7.189846456692913
 10
-8.025405511811023
 20
7.192535433070866
 10
-8.008027559055119
 20
7.193433070866142
 10
-7.990456692913386
 20
7.192531496062992
 10
-7.973925196850394
 20
7.189830708661417
 10
-7.958429133858267
 20
7.185330708661417
 10
-7.943976377952755
 20
7.179035433070866
 10
-7.930562992125984
 20
7.17094094488189
 10
-7.918185039370079
 20
7.161051181102362
 10
-7.906846456692914
 20
7.149366141732283
 10
-7.896547244094489
 20
7.135885826771654
 10
-7.887409448818897
 20
7.120700787401574
 10
-7.879488188976378
 20
7.103972440944882
 10
-7.872783464566929
 20
7.085696850393701
 10
-7.867291338582677
 20
7.065881889763779
 10
-7.86301968503937
 20
7.04451968503937
 10
-7.859964566929134
 20
7.021614173228347
 10
-7.858129921259843
 20
6.997165354330709
 10
-7.85751968503937
 20
6.971173228346457
  0
LWPOLYLINE
  5
69
330
1F
100
AcDbEntity
  8
Layer 1
 62
     7
100
AcDbPolyline
 90
       65
 70
     1
 43
0.0
 10
-8.009984251968504
 20
6.816354330708662
 10
-7.999826771653543
 20
6.81698031496063
 10
-7.990314960629921
 20
6.818854330708661
 10
-7.981452755905512
 20
6.821984251968504
 10
-7.973240157480315
 20
6.826366141732284
 10
-7.965681102362205
 20
6.832003937007874
 10
-7.958775590551181
 20
6.838897637795275
 10
-7.952527559055119
 20
6.847047244094489
 10
-7.94694094488189
 20
6.856456692913386
 10
-7.941976377952756
 20
6.867082677165354
 10
-7.937673228346457
 20
6.878956692913386
 10
-7.934035433070866
 20
6.89207874015748
 10
-7.931055118110236
 20
6.906448818897638
 10
-7.928740157480315
 20
6.922062992125984
 10
-7.927086614173228
 20
6.93892125984252
 10
-7.926094488188976
 20
6.957023622047244
 10
-7.925763779527559
 20
6.976370078740158
 10
-7.926090551181102
 20
6.995169291338582
 10
-7.927070866141732
 20
7.012822834645669
 10
-7.928700787401575
 20
7.02932283464567
 10
-7.930984251968504
 20
7.044669291338582
 10
-7.93392125984252
 20
7.058862204724409
 10
-7.937511811023622
 20
7.07190157480315
 10
-7.941748031496063
 20
7.083783464566929
 10
-7.946641732283465
 20
7.094511811023622
 10
-7.952133858267716
 20
7.10405905511811
 10
-7.958228346456693
 20
7.112326771653543
 10
-7.964925196850394
 20
7.119322834645669
 10
-7.972224409448819
 20
7.125043307086615
 10
-7.980125984251968
 20
7.129488188976378
 10
-7.988629921259842
 20
7.132665354330709
 10
-7.997732283464567
 20
7.134570866141733
 10
-8.007437007874016
 20
7.135204724409449
 10
-8.017523622047245
 20
7.134570866141733
 10
-8.026976377952757
 20
7.132669291338583
 10
-8.035791338582678
 20
7.1295
 10
-8.043976377952756
 20
7.125066929133858
 10
-8.051527559055119
 20
7.119370078740157
 10
-8.058444881889764
 20
7.112409448818898
 10
-8.06472440944882
 20
7.104188976377952
 10
-8.070374015748031
 20
7.094708661417322
 10
-8.075374015748032
 20
7.083964566929134
 10
-8.079700787401574
 20
7.07201968503937
 10
-8.083358267716536
 20
7.05888188976378
 10
-8.086350393700787
 20
7.044547244094488
 10
-8.088673228346456
 20
7.029007874015748
 10
-8.090330708661417
 20
7.012271653543307
 10
-8.091326771653543
 20
6.994330708661417
 10
-8.09165748031496
 20
6.975188976377953
 10
-8.091326771653543
 20
6.956586614173228
 10
-8.09033464566929
 20
6.939090551181103
 10
-8.088681102362205
 20
6.922696850393701
 10
-8.08636220472441
 20
6.907417322834646
 10
-8.083385826771654
 20
6.893248031496063
 10
-8.07974409448819
 20
6.880192913385827
 10
-8.07544094488189
 20
6.868255905511811
 10
-8.070476377952756
 20
6.857437007874016
 10
-8.064929133858268
 20
6.847818897637795
 10
-8.0588031496063
 20
6.839476377952756
 10
-8.052102362204725
 20
6.832417322834646
 10
-8.044826771653543
 20
6.82663779527559
 10
-8.036976377952756
 20
6.822141732283464
 10
-8.028551181102362
 20
6.818925196850394
 10
-8.019551181102361
 20
6.816996062992126
 10
-8.009984251968504
 20
6.816354330708662
  0
LWPOLYLINE
  5
6A
330
1F
100
AcDbEntity
  8
Layer 1
 62
     7
100
AcDbPolyline
 90
      157
 70
     1
 43
0.0
 10
-7.725751968503937
 20
6.768708661417323
 10
-7.788106299212599
 20
6.768708661417323
 10
-7.788106299212599
 20
7.041074803149606
 10
-7.729484251968504
 20
7.041074803149606
 10
-7.729484251968504
 20
6.996366141732284
 10
-7.724736220472441
 20
7.003259842519685
 10
-7.719830708661418
 20
7.009673228346457
 10
-7.714767716535433
 20
7.015606299212599
 10
-7.709551181102362
 20
7.021062992125985
 10
-7.704177165354331
 20
7.026031496062992
 10
-7.698649606299212
 20
7.030515748031496
 10
-7.692964566929134
 20
7.034515748031496
 10
-7.687125984251969
 20
7.038031496062992
 10
-7.681070866141733
 20
7.04109842519685
 10
-7.674751968503937
 20
7.043755905511811
 10
-7.668169291338582
 20
7.045996062992126
 10
-7.661314960629921
 20
7.047830708661417
 10
-7.654196850393701
 20
7.049251968503937
 10
-7.646811023622047
 20
7.050267716535433
 10
-7.63915748031496
 20
7.050877952755905
 10
-7.631236220472441
 20
7.051078740157481
 10
-7.623429133858267
 20
7.050870078740157
 10
-7.615964566929134
 20
7.050248031496063
 10
-7.608838582677166
 20
7.049212598425197
 10
-7.602059055118111
 20
7.047755905511811
 10
-7.595622047244095
 20
7.04588188976378
 10
-7.589531496062992
 20
7.043590551181103
 10
-7.583787401574803
 20
7.040877952755905
 10
-7.578389763779527
 20
7.037744094488189
 10
-7.573291338582677
 20
7.034177165354331
 10
-7.568515748031496
 20
7.030173228346457
 10
-7.56405905511811
 20
7.025728346456693
 10
-7.55992125984252
 20
7.020846456692913
 10
-7.556102362204724
 20
7.015523622047244
 10
-7.552598425196851
 20
7.009771653543307
 10
-7.549409448818897
 20
7.00357874015748
 10
-7.546531496062992
 20
6.996956692913386
 10
-7.541086614173229
 20
7.003775590551181
 10
-7.535555118110236
 20
7.01011811023622
 10
-7.529944881889763
 20
7.015984251968504
 10
-7.524248031496063
 20
7.021370078740158
 10
-7.518472440944882
 20
7.026275590551181
 10
-7.512610236220472
 20
7.030708661417322
 10
-7.506669291338583
 20
7.034661417322835
 10
-7.500645669291338
 20
7.038133858267717
 10
-7.494472440944882
 20
7.041169291338583
 10
-7.488090551181102
 20
7.043799212598425
 10
-7.481492125984252
 20
7.046023622047244
 10
-7.474688976377953
 20
7.047842519685039
 10
-7.467669291338582
 20
7.049259842519685
 10
-7.460440944881889
 20
7.050271653543307
 10
-7.453
 20
7.050877952755905
 10
-7.445346456692914
 20
7.051078740157481
 10
-7.438724409448819
 20
7.05092125984252
 10
-7.432314960629921
 20
7.050456692913386
 10
-7.426114173228346
 20
7.049677165354331
 10
-7.420125984251968
 20
7.048590551181102
 10
-7.414350393700787
 20
7.047196850393701
 10
-7.408783464566929
 20
7.045496062992126
 10
-7.403429133858268
 20
7.043488188976378
 10
-7.398283464566929
 20
7.04117716535433
 10
-7.393389763779528
 20
7.038535433070866
 10
-7.388779527559056
 20
7.035622047244095
 10
-7.384452755905512
 20
7.032429133858268
 10
-7.380405511811023
 20
7.028956692913386
 10
-7.376641732283464
 20
7.025200787401575
 10
-7.373153543307087
 20
7.021169291338583
 10
-7.369948818897638
 20
7.016850393700787
 10
-7.367015748031496
 20
7.012248031496063
 10
-7.364547244094489
 20
7.007606299212599
 10
-7.362448818897637
 20
7.0025
 10
-7.360720472440945
 20
6.996948818897637
 10
-7.359358267716535
 20
6.990976377952756
 10
-7.358271653543307
 20
6.984137795275591
 10
-7.357507874015748
 20
6.975976377952755
 10
-7.357055118110236
 20
6.966488188976378
 10
-7.356905511811024
 20
6.955677165354331
 10
-7.356905511811024
 20
6.933814960629921
 10
-7.356905511811024
 20
6.768708661417323
 10
-7.419263779527559
 20
6.768708661417323
 10
-7.419263779527559
 20
6.90851968503937
 10
-7.419448818897638
 20
6.921649606299213
 10
-7.419996062992126
 20
6.933610236220472
 10
-7.420913385826772
 20
6.94440157480315
 10
-7.422192913385826
 20
6.954023622047244
 10
-7.423834645669292
 20
6.962472440944881
 10
-7.425842519685039
 20
6.969748031496063
 10
-7.428208661417323
 20
6.975850393700787
 10
-7.430933070866142
 20
6.980775590551181
 10
-7.434122047244094
 20
6.984846456692914
 10
-7.43788188976378
 20
6.988374015748032
 10
-7.442212598425197
 20
6.991358267716535
 10
-7.447114173228346
 20
6.993799212598425
 10
-7.452582677165354
 20
6.995696850393701
 10
-7.458622047244094
 20
6.997055118110236
 10
-7.465228346456693
 20
6.997866141732284
 10
-7.472409448818897
 20
6.998137795275591
 10
-7.481271653543307
 20
6.997771653543307
 10
-7.489468503937008
 20
6.996669291338582
 10
-7.497003937007874
 20
6.994834645669291
 10
-7.503877952755905
 20
6.992267716535433
 10
-7.510090551181102
 20
6.988968503937008
 10
-7.515645669291339
 20
6.98494094488189
 10
-7.520535433070866
 20
6.980185039370078
 10
-7.524763779527559
 20
6.974700787401575
 10
-7.528448818897638
 20
6.968303149606299
 10
-7.531641732283465
 20
6.960803149606299
 10
-7.534338582677165
 20
6.952204724409449
 10
-7.53653937007874
 20
6.942503937007874
 10
-7.538251968503937
 20
6.931708661417323
 10
-7.539472440944881
 20
6.919814960629921
 10
-7.540204724409449
 20
6.906822834645669
 10
-7.540448818897638
 20
6.892740157480315
 10
-7.540448818897638
 20
6.768708661417323
 10
-7.603393700787402
 20
6.768708661417323
 10
-7.603393700787402
 20
6.90851968503937
 10
-7.603582677165354
 20
6.920681102362205
 10
-7.604149606299212
 20
6.931870078740157
 10
-7.605094488188977
 20
6.942082677165354
 10
-7.60642125984252
 20
6.951326771653544
 10
-7.608125984251968
 20
6.959602362204724
 10
-7.610216535433071
 20
6.966909448818898
 10
-7.612692913385827
 20
6.973248031496063
 10
-7.615551181102362
 20
6.978622047244095
 10
-7.618885826771653
 20
6.983204724409449
 10
-7.622775590551181
 20
6.987173228346457
 10
-7.627220472440944
 20
6.990527559055118
 10
-7.632220472440945
 20
6.993271653543307
 10
-7.637771653543307
 20
6.995401574803149
 10
-7.643874015748032
 20
6.996921259842519
 10
-7.65051968503937
 20
6.997834645669291
 10
-7.657712598425197
 20
6.998137795275591
 10
-7.662255905511811
 20
6.998007874015748
 10
-7.666700787401575
 20
6.997622047244095
 10
-7.671043307086614
 20
6.996972440944882
 10
-7.675287401574803
 20
6.996062992125984
 10
-7.679429133858267
 20
6.994893700787402
 10
-7.683468503937008
 20
6.99346062992126
 10
-7.687405511811024
 20
6.991759842519685
 10
-7.691244094488189
 20
6.989799212598426
 10
-7.694964566929134
 20
6.987606299212598
 10
-7.698488188976378
 20
6.985224409448819
 10
-7.701807086614173
 20
6.982645669291339
 10
-7.704929133858267
 20
6.979874015748032
 10
-7.707854330708662
 20
6.976909448818898
 10
-7.710582677165355
 20
6.973751968503937
 10
-7.713118110236221
 20
6.97040157480315
 10
-7.715456692913386
 20
6.966858267716535
 10
-7.718106299212598
 20
6.96182283464567
 10
-7.720326771653543
 20
6.956267716535433
 10
-7.72211811023622
 20
6.950200787401575
 10
-7.723496062992126
 20
6.943622047244094
 10
-7.724472440944882
 20
6.935255905511811
 10
-7.725177165354331
 20
6.923988188976378
 10
-7.725606299212599
 20
6.909814960629921
 10
-7.725751968503937
 20
6.892740157480315
 10
-7.725751968503937
 20
6.768708661417323
  0
LWPOLYLINE
  5
6B
330
1F
100
AcDbEntity
  8
Layer 1
 62
     7
100
AcDbPolyline
 90
      157
 70
     1
 43
0.0
 10
-7.211015748031496
 20
6.768708661417323
 10
-7.273370078740157
 20
6.768708661417323
 10
-7.273370078740157
 20
7.041074803149606
 10
-7.214748031496063
 20
7.041074803149606
 10
-7.214748031496063
 20
6.996366141732284
 10
-7.21
 20
7.003259842519685
 10
-7.205094488188976
 20
7.009673228346457
 10
-7.200031496062993
 20
7.015606299212599
 10
-7.194814960629921
 20
7.021062992125985
 10
-7.189440944881889
 20
7.026031496062992
 10
-7.183913385826772
 20
7.030515748031496
 10
-7.178228346456692
 20
7.034515748031496
 10
-7.172389763779528
 20
7.038031496062992
 10
-7.166334645669291
 20
7.04109842519685
 10
-7.160015748031496
 20
7.043755905511811
 10
-7.153433070866142
 20
7.045996062992126
 10
-7.14657874015748
 20
7.047830708661417
 10
-7.13946062992126
 20
7.049251968503937
 10
-7.132074803149607
 20
7.050267716535433
 10
-7.124425196850393
 20
7.050877952755905
 10
-7.116503937007874
 20
7.051078740157481
 10
-7.1086968503937
 20
7.050870078740157
 10
-7.101228346456693
 20
7.050248031496063
 10
-7.094102362204724
 20
7.049212598425197
 10
-7.087322834645669
 20
7.047755905511811
 10
-7.080885826771653
 20
7.04588188976378
 10
-7.074795275590551
 20
7.043590551181103
 10
-7.069051181102362
 20
7.040877952755905
 10
-7.063653543307087
 20
7.037744094488189
 10
-7.058555118110236
 20
7.034177165354331
 10
-7.053783464566929
 20
7.030173228346457
 10
-7.049326771653543
 20
7.025728346456693
 10
-7.045188976377953
 20
7.020846456692913
 10
-7.041366141732284
 20
7.015523622047244
 10
-7.037862204724409
 20
7.009771653543307
 10
-7.034673228346457
 20
7.00357874015748
 10
-7.031795275590551
 20
6.996956692913386
 10
-7.026350393700787
 20
7.003775590551181
 10
-7.020822834645669
 20
7.01011811023622
 10
-7.015208661417323
 20
7.015984251968504
 10
-7.009515748031496
 20
7.021370078740158
 10
-7.003736220472441
 20
7.026275590551181
 10
-6.997874015748032
 20
7.030708661417322
 10
-6.991933070866142
 20
7.034661417322835
 10
-6.985909448818898
 20
7.038133858267717
 10
-6.979736220472441
 20
7.041169291338583
 10
-6.973354330708662
 20
7.043799212598425
 10
-6.966755905511811
 20
7.046023622047244
 10
-6.959952755905512
 20
7.047842519685039
 10
-6.952933070866142
 20
7.049259842519685
 10
-6.945704724409449
 20
7.050271653543307
 10
-6.938263779527559
 20
7.050877952755905
 10
-6.930610236220472
 20
7.051078740157481
 10
-6.923988188976378
 20
7.05092125984252
 10
-6.91757874015748
 20
7.050456692913386
 10
-6.911377952755905
 20
7.049677165354331
 10
-6.905389763779527
 20
7.048590551181102
 10
-6.899614173228346
 20
7.047196850393701
 10
-6.894047244094488
 20
7.045496062992126
 10
-6.888692913385826
 20
7.043488188976378
 10
-6.883547244094488
 20
7.04117716535433
 10
-6.878653543307086
 20
7.038535433070866
 10
-6.874043307086614
 20
7.035622047244095
 10
-6.869716535433071
 20
7.032429133858268
 10
-6.865669291338583
 20
7.028956692913386
 10
-6.861905511811024
 20
7.025200787401575
 10
-6.858417322834645
 20
7.021169291338583
 10
-6.855212598425197
 20
7.016850393700787
 10
-6.852279527559055
 20
7.012248031496063
 10
-6.849811023622047
 20
7.007606299212599
 10
-6.847712598425197
 20
7.0025
 10
-6.845984251968504
 20
6.996948818897637
 10
-6.844622047244094
 20
6.990976377952756
 10
-6.843535433070866
 20
6.984137795275591
 10
-6.842771653543307
 20
6.975976377952755
 10
-6.842322834645669
 20
6.966488188976378
 10
-6.842173228346457
 20
6.955677165354331
 10
-6.842173228346457
 20
6.933814960629921
 10
-6.842173228346457
 20
6.768708661417323
 10
-6.904527559055119
 20
6.768708661417323
 10
-6.904527559055119
 20
6.90851968503937
 10
-6.904712598425196
 20
6.921649606299213
 10
-6.905259842519685
 20
6.933610236220472
 10
-6.906177165354331
 20
6.94440157480315
 10
-6.907456692913386
 20
6.954023622047244
 10
-6.90909842519685
 20
6.962472440944881
 10
-6.911106299212598
 20
6.969748031496063
 10
-6.913472440944882
 20
6.975850393700787
 10
-6.916196850393701
 20
6.980775590551181
 10
-6.919389763779527
 20
6.984846456692914
 10
-6.923149606299212
 20
6.988374015748032
 10
-6.92748031496063
 20
6.991358267716535
 10
-6.932377952755905
 20
6.993799212598425
 10
-6.937850393700788
 20
6.995696850393701
 10
-6.943889763779527
 20
6.997055118110236
 10
-6.950496062992126
 20
6.997866141732284
 10
-6.957677165354331
 20
6.998137795275591
 10
-6.966535433070866
 20
6.997771653543307
 10
-6.974732283464567
 20
6.996669291338582
 10
-6.982267716535433
 20
6.994834645669291
 10
-6.989145669291339
 20
6.992267716535433
 10
-6.995358267716536
 20
6.988968503937008
 10
-7.000909448818898
 20
6.98494094488189
 10
-7.005799212598426
 20
6.980185039370078
 10
-7.010027559055118
 20
6.974700787401575
 10
-7.013712598425196
 20
6.968303149606299
 10
-7.016905511811023
 20
6.960803149606299
 10
-7.019602362204725
 20
6.952204724409449
 10
-7.021803149606299
 20
6.942503937007874
 10
-7.023515748031496
 20
6.931708661417323
 10
-7.024736220472441
 20
6.919814960629921
 10
-7.025468503937008
 20
6.906822834645669
 10
-7.025712598425197
 20
6.892740157480315
 10
-7.025712598425197
 20
6.768708661417323
 10
-7.088661417322835
 20
6.768708661417323
 10
-7.088661417322835
 20
6.90851968503937
 10
-7.088850393700787
 20
6.920681102362205
 10
-7.089417322834645
 20
6.931870078740157
 10
-7.090358267716535
 20
6.942082677165354
 10
-7.091685039370079
 20
6.951326771653544
 10
-7.093389763779528
 20
6.959602362204724
 10
-7.09548031496063
 20
6.966909448818898
 10
-7.097956692913386
 20
6.973248031496063
 10
-7.100814960629921
 20
6.978622047244095
 10
-7.104149606299212
 20
6.983204724409449
 10
-7.10803937007874
 20
6.987173228346457
 10
-7.112484251968504
 20
6.990527559055118
 10
-7.117484251968504
 20
6.993271653543307
 10
-7.123035433070866
 20
6.995401574803149
 10
-7.12913779527559
 20
6.996921259842519
 10
-7.135783464566929
 20
6.997834645669291
 10
-7.142976377952756
 20
6.998137795275591
 10
-7.14751968503937
 20
6.998007874015748
 10
-7.151964566929134
 20
6.997622047244095
 10
-7.156307086614174
 20
6.996972440944882
 10
-7.160551181102362
 20
6.996062992125984
 10
-7.164692913385827
 20
6.994893700787402
 10
-7.168732283464567
 20
6.99346062992126
 10
-7.172669291338583
 20
6.991759842519685
 10
-7.176507874015748
 20
6.989799212598426
 10
-7.180228346456693
 20
6.987606299212598
 10
-7.183751968503937
 20
6.985224409448819
 10
-7.187070866141732
 20
6.982645669291339
 10
-7.190192913385827
 20
6.979874015748032
 10
-7.19311811023622
 20
6.976909448818898
 10
-7.195846456692913
 20
6.973751968503937
 10
-7.198381889763779
 20
6.97040157480315
 10
-7.200720472440945
 20
6.966858267716535
 10
-7.203370078740157
 20
6.96182283464567
 10
-7.205590551181102
 20
6.956267716535433
 10
-7.20738188976378
 20
6.950200787401575
 10
-7.208759842519685
 20
6.943622047244094
 10
-7.209736220472441
 20
6.935255905511811
 10
-7.210440944881889
 20
6.923988188976378
 10
-7.210870078740157
 20
6.909814960629921
 10
-7.211015748031496
 20
6.892740157480315
 10
-7.211015748031496
 20
6.768708661417323
  0
LWPOLYLINE
  5
6C
330
1F
100
AcDbEntity
  8
Layer 1
 62
     7
100
AcDbPolyline
 90
       67
 70
     1
 43
0.0
 10
-6.742165354330709
 20
6.640468503937008
 10
-6.788641732283464
 20
6.655665354330709
 10
-6.78113779527559
 20
6.669889763779527
 10
-6.774137795275591
 20
6.684397637795276
 10
-6.767649606299212
 20
6.699196850393701
 10
-6.761669291338583
 20
6.714279527559055
 10
-6.7561968503937
 20
6.729657480314961
 10
-6.751236220472441
 20
6.74532283464567
 10
-6.746791338582677
 20
6.76128346456693
 10
-6.742858267716535
 20
6.777535433070866
 10
-6.739377952755905
 20
6.794141732283465
 10
-6.736366141732283
 20
6.811232283464567
 10
-6.733822834645669
 20
6.828811023622047
 10
-6.731740157480315
 20
6.846877952755905
 10
-6.730125984251968
 20
6.865429133858267
 10
-6.728972440944882
 20
6.884472440944882
 10
-6.728279527559055
 20
6.904
 10
-6.728051181102362
 20
6.924015748031496
 10
-6.728279527559055
 20
6.943173228346457
 10
-6.728972440944882
 20
6.96198031496063
 10
-6.730125984251968
 20
6.980433070866142
 10
-6.731740157480315
 20
6.99853937007874
 10
-6.733822834645669
 20
7.016299212598425
 10
-6.736366141732283
 20
7.033720472440945
 10
-6.739377952755905
 20
7.050803149606299
 10
-6.742858267716535
 20
7.067551181102362
 10
-6.746791338582677
 20
7.084011811023622
 10
-6.751236220472441
 20
7.100307086614174
 10
-6.7561968503937
 20
7.116437007874016
 10
-6.761669291338583
 20
7.132405511811023
 10
-6.767649606299212
 20
7.148204724409449
 10
-6.774137795275591
 20
7.163838582677165
 10
-6.78113779527559
 20
7.179311023622048
 10
-6.788641732283464
 20
7.194614173228347
 10
-6.742165354330709
 20
7.208736220472441
 10
-6.733732283464567
 20
7.193224409448819
 10
-6.725858267716536
 20
7.177425196850393
 10
-6.718543307086614
 20
7.161342519685039
 10
-6.711787401574803
 20
7.144968503937008
 10
-6.705582677165355
 20
7.128307086614173
 10
-6.699937007874015
 20
7.111354330708662
 10
-6.694842519685039
 20
7.094106299212599
 10
-6.690299212598426
 20
7.076570866141732
 10
-6.686334645669291
 20
7.058732283464566
 10
-6.682897637795276
 20
7.040523622047244
 10
-6.679984251968504
 20
7.021937007874016
 10
-6.677594488188976
 20
7.002976377952756
 10
-6.675736220472441
 20
6.983645669291339
 10
-6.674409448818897
 20
6.96394094488189
 10
-6.673610236220473
 20
6.943866141732284
 10
-6.67334251968504
 20
6.923425196850394
 10
-6.673610236220473
 20
6.903948818897637
 10
-6.674409448818897
 20
6.884708661417323
 10
-6.675748031496063
 20
6.865712598425197
 10
-6.677622047244094
 20
6.846948818897638
 10
-6.680031496062992
 20
6.828429133858267
 10
-6.68298031496063
 20
6.810145669291338
 10
-6.686468503937008
 20
6.79209842519685
 10
-6.690496062992126
 20
6.774295275590551
 10
-6.695039370078741
 20
6.756763779527559
 10
-6.700129921259842
 20
6.73946062992126
 10
-6.705771653543307
 20
6.722389763779527
 10
-6.711956692913386
 20
6.705547244094488
 10
-6.718692913385826
 20
6.688933070866142
 10
-6.725972440944882
 20
6.672547244094488
 10
-6.733795275590551
 20
6.656393700787402
 10
-6.742165354330709
 20
6.640468503937008
  0
LWPOLYLINE
  5
6D
330
1F
100
AcDbEntity
  8
Layer 1
 62
     7
370
    18
100
AcDbPolyline
 90
      188
 70
     0
 43
0.0
 10
-6.925070866141732
 20
2.593114173228346
 10
-6.953216535433071
 20
2.593169291338583
 10
-6.981866141732284
 20
2.602712598425197
 10
-7.009708661417323
 20
2.618818897637795
 10
-7.035437007874016
 20
2.638562992125984
 10
-7.057728346456693
 20
2.659015748031496
 10
-7.075279527559055
 20
2.677248031496063
 10
-7.086771653543307
 20
2.690334645669291
 10
-7.090893700787402
 20
2.695346456692914
 10
-7.118795275590551
 20
2.717708661417323
 10
-7.146303149606299
 20
2.742830708661417
 10
-7.172389763779528
 20
2.768944881889764
 10
-7.196031496062992
 20
2.794283464566929
 10
-7.216200787401575
 20
2.817066929133858
 10
-7.231874015748032
 20
2.835535433070866
 10
-7.242031496062992
 20
2.847913385826772
 10
-7.245645669291338
 20
2.852433070866142
 10
-7.252692913385827
 20
2.865220472440945
 10
-7.267933070866142
 20
2.901161417322835
 10
-7.282515748031496
 20
2.956625984251969
 10
-7.287594488188977
 20
3.027992125984252
 10
-7.274318897637795
 20
3.111622047244095
 10
-7.233834645669291
 20
3.203889763779527
 10
-7.157299212598425
 20
3.301173228346457
 10
-7.03586220472441
 20
3.399834645669291
 10
-6.898074803149607
 20
3.474858267716535
 10
-6.778433070866142
 20
3.509814960629921
 10
-6.677003937007874
 20
3.513968503937008
 10
-6.593866141732283
 20
3.496594488188976
 10
-6.52907874015748
 20
3.466948818897638
 10
-6.482720472440945
 20
3.434299212598425
 10
-6.454850393700787
 20
3.407917322834646
 10
-6.445547244094488
 20
3.397062992125984
 10
-6.406259842519685
 20
3.343988188976378
 10
-6.376086614173229
 20
3.295043307086614
 10
-6.353834645669291
 20
3.251133858267717
 10
-6.338307086614173
 20
3.213169291338583
 10
-6.328311023622048
 20
3.182062992125984
 10
-6.322649606299213
 20
3.158716535433071
 10
-6.320129921259842
 20
3.144043307086614
 10
-6.319555118110237
 20
3.138948818897638
 10
-6.34898031496063
 20
2.985354330708661
 10
-6.415712598425197
 20
2.86065748031496
 10
-6.507043307086614
 20
2.762259842519685
 10
-6.610263779527559
 20
2.687570866141732
 10
-6.712665354330709
 20
2.633992125984252
 10
-6.801543307086614
 20
2.598937007874016
 10
-6.864188976377953
 20
2.579803149606299
 10
-6.887893700787401
 20
2.574003937007874
 10
-7.194736220472441
 20
1.804811023622047
 10
-7.431818897637795
 20
1.099417322834646
 10
-7.608263779527559
 20
0.4676732283464567
 10
-7.733196850393701
 20
-0.0805590551181102
 10
-7.815740157480315
 20
-0.5354212598425196
 10
-7.86501968503937
 20
-0.8870629921259843
 10
-7.890153543307086
 20
-1.125625984251968
 10
-7.900271653543308
 20
-1.241251968503937
 10
-7.90907874015748
 20
-1.2895
 10
-7.922929133858267
 20
-1.332295275590551
 10
-7.93990157480315
 20
-1.369334645669291
 10
-7.958082677165354
 20
-1.400318897637795
 10
-7.975559055118111
 20
-1.424944881889764
 10
-7.990413385826772
 20
-1.442909448818898
 10
-8.000728346456693
 20
-1.453909448818898
 10
-8.004594488188976
 20
-1.457641732283464
 10
-8.251149606299213
 20
-1.512007874015748
 10
-8.524507874015748
 20
-1.545023622047244
 10
-8.80628346456693
 20
-1.561031496062992
 10
-9.078074803149606
 20
-1.564377952755905
 10
-9.321488188976378
 20
-1.559413385826772
 10
-9.518133858267717
 20
-1.550484251968504
 10
-9.649606299212598
 20
-1.541937007874016
 10
-9.69751968503937
 20
-1.538122047244094
 10
-9.673275590551182
 20
-1.087
 10
-9.619263779527559
 20
-0.6100314960629921
 10
-9.544925196850393
 20
-0.1308188976377953
 10
-9.459692913385826
 20
0.3270275590551181
 10
-9.373011811023622
 20
0.7398937007874016
 10
-9.29432283464567
 20
1.084169291338583
 10
-9.233062992125983
 20
1.336248031496063
 10
-9.198677165354331
 20
1.472515748031496
 10
-9.184224409448818
 20
1.54257874015748
 10
-9.175661417322834
 20
1.610338582677165
 10
-9.171771653543306
 20
1.673622047244095
 10
-9.171326771653543
 20
1.730259842519685
 10
-9.173106299212598
 20
1.778086614173228
 10
-9.175889763779528
 20
1.814937007874016
 10
-9.178456692913386
 20
1.838633858267717
 10
-9.179582677165355
 20
1.847015748031496
 10
-9.184523622047244
 20
1.922377952755906
 10
-9.197594488188976
 20
2.122318897637795
 10
-9.216169291338582
 20
2.407610236220473
 10
-9.237629921259842
 20
2.739027559055118
 10
-9.25934251968504
 20
3.077346456692913
 10
-9.278685039370078
 20
3.383346456692913
 10
-9.29303937007874
 20
3.617795275590551
 10
-9.299771653543306
 20
3.741476377952756
 10
-9.294933070866142
 20
3.789673228346456
 10
-9.27878346456693
 20
3.825129921259843
 10
-9.255
 20
3.849783464566929
 10
-9.227279527559055
 20
3.865586614173228
 10
-9.1993031496063
 20
3.874488188976378
 10
-9.17475590551181
 20
3.878437007874016
 10
-9.157322834645669
 20
3.879374015748032
 10
-9.150692913385827
 20
3.879255905511811
 10
-8.956507874015749
 20
3.893814960629921
 10
-8.778307086614173
 20
3.913755905511811
 10
-8.619145669291338
 20
3.936818897637795
 10
-8.482074803149606
 20
3.960748031496063
 10
-8.370149606299213
 20
3.983287401574803
 10
-8.286425196850393
 20
4.002181102362205
 10
-8.233948818897638
 20
4.015173228346456
 10
-8.215779527559055
 20
4.020003937007874
 10
-7.98551968503937
 20
3.947007874015748
 10
-7.770334645669291
 20
3.884342519685039
 10
-7.57503937007874
 20
3.831826771653543
 10
-7.404452755905512
 20
3.789267716535433
 10
-7.263389763779528
 20
3.756492125984252
 10
-7.156665354330709
 20
3.733307086614173
 10
-7.08909842519685
 20
3.719531496062992
 10
-7.065507874015748
 20
3.71498031496063
 10
-7.025307086614173
 20
3.708413385826772
 10
-6.92048031496063
 20
3.693181102362205
 10
-6.774700787401575
 20
3.676
 10
-6.61163779527559
 20
3.663582677165354
 10
-6.454964566929134
 20
3.66263779527559
 10
-6.328346456692914
 20
3.67988188976378
 10
-6.25546062992126
 20
3.722023622047244
 10
-6.259976377952756
 20
3.795775590551181
 10
-6.359602362204725
 20
3.876299212598425
 10
-6.537464566929134
 20
3.936295275590551
 10
-6.765354330708662
 20
3.978779527559055
 10
-7.015062992125984
 20
4.006771653543307
 10
-7.25838188976378
 20
4.023287401574803
 10
-7.467106299212598
 20
4.031346456692914
 10
-7.613027559055118
 20
4.033968503937007
 10
-7.667937007874015
 20
4.034173228346456
 10
-7.661251968503937
 20
4.038275590551181
 10
-7.647106299212599
 20
4.049444881889764
 10
-7.634381889763779
 20
4.065988188976378
 10
-7.631948818897638
 20
4.086208661417323
 10
-7.648681102362205
 20
4.10840157480315
 10
-7.69346062992126
 20
4.130874015748032
 10
-7.775153543307087
 20
4.151929133858268
 10
-7.902637795275591
 20
4.169866141732284
 10
-8.067984251968504
 20
4.173429133858268
 10
-8.2495
 20
4.156594488188976
 10
-8.43540157480315
 20
4.125503937007874
 10
-8.613917322834645
 20
4.086291338582678
 10
-8.773263779527559
 20
4.045102362204724
 10
-8.901665354330708
 20
4.00807874015748
 10
-8.98734251968504
 20
3.981362204724409
 10
-9.01851968503937
 20
3.971090551181102
 10
-9.29486220472441
 20
4.049338582677166
 10
-9.363307086614173
 20
4.457562992125984
 10
-9.467909448818897
 20
4.814692913385827
 10
-9.594704724409448
 20
5.119708661417323
 10
-9.729744094488188
 20
5.371570866141732
 10
-9.859070866141732
 20
5.569259842519685
 10
-9.96872440944882
 20
5.711736220472441
 10
-10.04474803149606
 20
5.79798031496063
 10
-10.07319291338583
 20
5.826956692913386
 10
-10.07297637795276
 20
5.835531496062992
 10
-10.06916929133858
 20
5.857992125984252
 10
-10.05701181102362
 20
5.889437007874016
 10
-10.03175984251969
 20
5.92498031496063
 10
-9.988661417322835
 20
5.959720472440945
 10
-9.922968503937009
 20
5.988759842519685
 10
-9.829929133858268
 20
6.007204724409449
 10
-9.704795275590552
 20
6.010161417322835
 10
-9.538877952755906
 20
5.996881889763779
 10
-9.338318897637794
 20
5.972527559055118
 10
-9.12061811023622
 20
5.941055118110236
 10
-8.903271653543307
 20
5.906425196850393
 10
-8.703767716535433
 20
5.87259842519685
 10
-8.539602362204725
 20
5.843531496062992
 10
-8.42827559055118
 20
5.823188976377953
 10
-8.387279527559055
 20
5.815527559055118
 10
-8.364570866141733
 20
5.809779527559055
 10
-8.304070866141732
 20
5.788602362204724
 10
-8.217232283464567
 20
5.746114173228347
 10
-8.115496062992126
 20
5.676417322834646
 10
-8.010314960629922
 20
5.573625984251969
 10
-7.913129921259842
 20
5.431850393700787
 10
-7.835393700787401
 20
5.245196850393701
 10
-7.788547244094488
 20
5.007779527559055
 10
-7.641456692913386
 20
4.176732283464567
 10
-7.635295275590551
 20
4.138350393700787
  0
LWPOLYLINE
  5
6E
330
1F
100
AcDbEntity
  8
Layer 1
 62
     7
370
    18
100
AcDbPolyline
 90
       10
 70
     0
 43
0.0
 10
-9.051393700787402
 20
-1.564488188976378
 10
-9.053110236220473
 20
-1.464496062992126
 10
-9.043555118110236
 20
-1.176681102362205
 10
-9.000669291338582
 20
-0.7192677165354331
 10
-8.902393700787401
 20
-0.110492125984252
 10
-8.726669291338583
 20
0.6314133858267716
 10
-8.451437007874016
 20
1.488224409448819
 10
-8.05463779527559
 20
2.441700787401575
 10
-7.514212598425197
 20
3.473614173228346
 10
-7.404818897637795
 20
3.766814960629921
  0
LWPOLYLINE
  5
6F
330
1F
100
AcDbEntity
  8
Layer 1
 62
     7
370
    18
100
AcDbPolyline
 90
       33
 70
     1
 43
0.0
 10
-7.053555118110236
 20
2.766259842519685
 10
-7.054937007874016
 20
2.780763779527559
 10
-7.054448818897638
 20
2.820547244094488
 10
-7.045153543307086
 20
2.880007874015748
 10
-7.020114173228347
 20
2.953551181102362
 10
-6.972385826771654
 20
3.035570866141732
 10
-6.895031496062992
 20
3.120476377952756
 10
-6.781110236220472
 20
3.202661417322834
 10
-6.623681102362204
 20
3.276531496062992
 10
-6.609669291338583
 20
3.278948818897638
 10
-6.573354330708661
 20
3.282543307086614
 10
-6.523299212598425
 20
3.281826771653543
 10
-6.468082677165354
 20
3.271307086614173
 10
-6.416271653543308
 20
3.245492125984252
 10
-6.376437007874015
 20
3.198893700787401
 10
-6.357153543307087
 20
3.126023622047244
 10
-6.366988188976378
 20
3.021389763779528
 10
-6.371283464566929
 20
3.009122047244094
 10
-6.385692913385827
 20
2.97601968503937
 10
-6.412492125984252
 20
2.927622047244094
 10
-6.453976377952756
 20
2.86948031496063
 10
-6.512417322834645
 20
2.807129921259842
 10
-6.590102362204725
 20
2.746118110236221
 10
-6.689314960629921
 20
2.691992125984252
 10
-6.812334645669291
 20
2.650295275590551
 10
-6.820940944881889
 20
2.649259842519685
 10
-6.844
 20
2.647779527559055
 10
-6.87736220472441
 20
2.648295275590551
 10
-6.916881889763779
 20
2.653248031496063
 10
-6.958409448818897
 20
2.66507874015748
 10
-6.997795275590551
 20
2.686232283464567
 10
-7.030893700787401
 20
2.719145669291338
 10
-7.053555118110236
 20
2.766259842519685
  0
LWPOLYLINE
  5
70
330
1F
100
AcDbEntity
  8
Layer 1
 62
     7
370
    18
100
AcDbPolyline
 90
       33
 70
     1
 43
0.0
 10
-7.053716535433071
 20
2.810838582677166
 10
-7.054976377952756
 20
2.824094488188976
 10
-7.054531496062992
 20
2.860444881889764
 10
-7.04603937007874
 20
2.914775590551181
 10
-7.023157480314961
 20
2.981976377952756
 10
-6.979547244094488
 20
3.056925196850394
 10
-6.908866141732283
 20
3.134503937007874
 10
-6.804771653543307
 20
3.209602362204724
 10
-6.660925196850394
 20
3.277102362204725
 10
-6.648122047244095
 20
3.279311023622047
 10
-6.614937007874016
 20
3.28259842519685
 10
-6.569200787401575
 20
3.28194094488189
 10
-6.518744094488189
 20
3.272326771653543
 10
-6.471401574803149
 20
3.248740157480315
 10
-6.435003937007874
 20
3.206161417322835
 10
-6.417385826771653
 20
3.13957874015748
 10
-6.426374015748031
 20
3.043972440944882
 10
-6.430299212598425
 20
3.032763779527559
 10
-6.443464566929133
 20
3.002515748031496
 10
-6.467952755905512
 20
2.958291338582677
 10
-6.505854330708662
 20
2.905161417322835
 10
-6.559255905511811
 20
2.848188976377953
 10
-6.630240157480315
 20
2.79244094488189
 10
-6.720893700787402
 20
2.742984251968504
 10
-6.833303149606299
 20
2.704885826771653
 10
-6.841169291338582
 20
2.70394094488189
 10
-6.862236220472441
 20
2.702586614173228
 10
-6.892720472440945
 20
2.70305905511811
 10
-6.928830708661417
 20
2.707582677165354
 10
-6.966775590551181
 20
2.718393700787402
 10
-7.002763779527559
 20
2.737720472440945
 10
-7.033007874015748
 20
2.767791338582677
 10
-7.053716535433071
 20
2.810838582677166
  0
LWPOLYLINE
  5
71
330
1F
100
AcDbEntity
  8
Layer 1
 62
     7
370
    18
100
AcDbPolyline
 90
        2
 70
     0
 43
0.0
 10
-9.141153543307087
 20
4.005803149606299
 10
-9.13378346456693
 20
3.880220472440945
  0
LWPOLYLINE
  5
72
330
1F
100
AcDbEntity
  8
Layer 1
 62
     7
370
    18
100
AcDbPolyline
 90
       10
 70
     0
 43
0.0
 10
-8.489807086614173
 20
3.1765
 10
-8.2113937007874
 20
4.018555118110236
 10
-8.194736220472441
 20
4.022964566929134
 10
-8.14924409448819
 20
4.033814960629921
 10
-8.081653543307086
 20
4.047535433070866
 10
-7.998696850393701
 20
4.060551181102362
 10
-7.907098425196851
 20
4.069295275590552
 10
-7.813590551181102
 20
4.070192913385827
 10
-7.724909448818898
 20
4.059677165354331
 10
-7.647783464566929
 20
4.034173228346456
  0
LWPOLYLINE
  5
73
330
1F
100
AcDbEntity
  8
Layer 1
 62
   250
370
     9
100
AcDbPolyline
 90
        3
 70
     0
 43
0.0
 10
-6.825767716535433
 20
3.211204724409449
 10
-6.825767716535433
 20
3.201728346456693
 10
-6.861165354330709
 20
3.188555118110236
  0
LWPOLYLINE
  5
74
330
1F
100
AcDbEntity
  8
Layer 1
 62
   250
370
     9
100
AcDbPolyline
 90
        4
 70
     0
 43
0.0
 10
-6.759303149606299
 20
3.246606299212599
 10
-6.759303149606299
 20
3.226464566929134
 10
-6.825767716535433
 20
3.201728346456693
 10
-6.825767716535433
 20
3.211204724409449
  0
LWPOLYLINE
  5
75
330
1F
100
AcDbEntity
  8
Layer 1
 62
   250
370
     9
100
AcDbPolyline
 90
        4
 70
     0
 43
0.0
 10
-6.692838582677165
 20
3.274838582677166
 10
-6.692838582677165
 20
3.251204724409449
 10
-6.759303149606299
 20
3.226464566929134
 10
-6.759303149606299
 20
3.246606299212599
  0
LWPOLYLINE
  5
76
330
1F
100
AcDbEntity
  8
Layer 1
 62
   250
370
     9
100
AcDbPolyline
 90
        3
 70
     0
 43
0.0
 10
-6.958696850393701
 20
3.103192913385827
 10
-6.958696850393701
 20
3.085787401574803
 10
-6.979232283464567
 20
3.078145669291338
  0
LWPOLYLINE
  5
77
330
1F
100
AcDbEntity
  8
Layer 1
 62
   250
370
     9
100
AcDbPolyline
 90
        4
 70
     0
 43
0.0
 10
-6.892232283464567
 20
3.165641732283464
 10
-6.892232283464567
 20
3.110527559055118
 10
-6.958696850393701
 20
3.085787401574803
 10
-6.958696850393701
 20
3.103192913385827
  0
LWPOLYLINE
  5
78
330
1F
100
AcDbEntity
  8
Layer 1
 62
   250
370
     9
100
AcDbPolyline
 90
        5
 70
     0
 43
0.0
 10
-6.861165354330709
 20
3.188555118110236
 10
-6.825767716535433
 20
3.201728346456693
 10
-6.825767716535433
 20
3.135263779527559
 10
-6.892232283464567
 20
3.110527559055118
 10
-6.892232283464567
 20
3.165641732283464
  0
LWPOLYLINE
  5
79
330
1F
100
AcDbEntity
  8
Layer 1
 62
   250
370
     9
100
AcDbPolyline
 90
        5
 70
     0
 43
0.0
 10
-6.825767716535433
 20
3.201728346456693
 10
-6.759303149606299
 20
3.226464566929134
 10
-6.759303149606299
 20
3.16
 10
-6.825767716535433
 20
3.135263779527559
 10
-6.825767716535433
 20
3.201728346456693
  0
LWPOLYLINE
  5
7A
330
1F
100
AcDbEntity
  8
Layer 1
 62
   250
370
     9
100
AcDbPolyline
 90
        5
 70
     0
 43
0.0
 10
-6.759303149606299
 20
3.226464566929134
 10
-6.692838582677165
 20
3.251204724409449
 10
-6.692838582677165
 20
3.184740157480315
 10
-6.759303149606299
 20
3.16
 10
-6.759303149606299
 20
3.226464566929134
  0
LWPOLYLINE
  5
7B
330
1F
100
AcDbEntity
  8
Layer 1
 62
   250
370
     9
100
AcDbPolyline
 90
        3
 70
     0
 43
0.0
 10
-7.02517716535433
 20
3.001153543307087
 10
-7.02517716535433
 20
2.994586614173228
 10
-7.028566929133858
 20
2.99332283464567
  0
LWPOLYLINE
  5
7C
330
1F
100
AcDbEntity
  8
Layer 1
 62
   250
370
     9
100
AcDbPolyline
 90
        5
 70
     0
 43
0.0
 10
-6.979232283464567
 20
3.078145669291338
 10
-6.958696850393701
 20
3.085787401574803
 10
-6.958696850393701
 20
3.019322834645669
 10
-7.02517716535433
 20
2.994586614173228
 10
-7.02517716535433
 20
3.001153543307087
  0
LWPOLYLINE
  5
7D
330
1F
100
AcDbEntity
  8
Layer 1
 62
   250
370
     9
100
AcDbPolyline
 90
        5
 70
     0
 43
0.0
 10
-6.958696850393701
 20
3.085787401574803
 10
-6.892232283464567
 20
3.110527559055118
 10
-6.892232283464567
 20
3.044062992125984
 10
-6.958696850393701
 20
3.019322834645669
 10
-6.958696850393701
 20
3.085787401574803
  0
LWPOLYLINE
  5
7E
330
1F
100
AcDbEntity
  8
Layer 1
 62
   250
370
     9
100
AcDbPolyline
 90
        5
 70
     0
 43
0.0
 10
-6.892232283464567
 20
3.110527559055118
 10
-6.825767716535433
 20
3.135263779527559
 10
-6.825767716535433
 20
3.068799212598425
 10
-6.892232283464567
 20
3.044062992125984
 10
-6.892232283464567
 20
3.110527559055118
  0
LWPOLYLINE
  5
7F
330
1F
100
AcDbEntity
  8
Layer 1
 62
   250
370
     9
100
AcDbPolyline
 90
        5
 70
     0
 43
0.0
 10
-6.825767716535433
 20
3.135263779527559
 10
-6.759303149606299
 20
3.16
 10
-6.759303149606299
 20
3.09353937007874
 10
-6.825767716535433
 20
3.068799212598425
 10
-6.825767716535433
 20
3.135263779527559
  0
LWPOLYLINE
  5
80
330
1F
100
AcDbEntity
  8
Layer 1
 62
   250
370
     9
100
AcDbPolyline
 90
        5
 70
     0
 43
0.0
 10
-6.759303149606299
 20
3.16
 10
-6.692838582677165
 20
3.184740157480315
 10
-6.692838582677165
 20
3.118275590551181
 10
-6.759303149606299
 20
3.09353937007874
 10
-6.759303149606299
 20
3.16
  0
LWPOLYLINE
  5
81
330
1F
100
AcDbEntity
  8
Layer 1
 62
   250
370
     9
100
AcDbPolyline
 90
        4
 70
     0
 43
0.0
 10
-7.028566929133858
 20
2.99332283464567
 10
-7.02517716535433
 20
2.994586614173228
 10
-7.02517716535433
 20
2.928122047244095
 10
-7.050649606299213
 20
2.918637795275591
  0
LWPOLYLINE
  5
82
330
1F
100
AcDbEntity
  8
Layer 1
 62
   250
370
     9
100
AcDbPolyline
 90
        5
 70
     0
 43
0.0
 10
-7.02517716535433
 20
2.994586614173228
 10
-6.958696850393701
 20
3.019322834645669
 10
-6.958696850393701
 20
2.95286220472441
 10
-7.02517716535433
 20
2.928122047244095
 10
-7.02517716535433
 20
2.994586614173228
  0
LWPOLYLINE
  5
83
330
1F
100
AcDbEntity
  8
Layer 1
 62
   250
370
     9
100
AcDbPolyline
 90
        5
 70
     0
 43
0.0
 10
-6.958696850393701
 20
3.019322834645669
 10
-6.892232283464567
 20
3.044062992125984
 10
-6.892232283464567
 20
2.977598425196851
 10
-6.958696850393701
 20
2.95286220472441
 10
-6.958696850393701
 20
3.019322834645669
  0
LWPOLYLINE
  5
84
330
1F
100
AcDbEntity
  8
Layer 1
 62
   250
370
     9
100
AcDbPolyline
 90
        5
 70
     0
 43
0.0
 10
-6.892232283464567
 20
3.044062992125984
 10
-6.825767716535433
 20
3.068799212598425
 10
-6.825767716535433
 20
3.002334645669291
 10
-6.892232283464567
 20
2.977598425196851
 10
-6.892232283464567
 20
3.044062992125984
  0
LWPOLYLINE
  5
85
330
1F
100
AcDbEntity
  8
Layer 1
 62
   250
370
     9
100
AcDbPolyline
 90
        5
 70
     0
 43
0.0
 10
-6.825767716535433
 20
3.068799212598425
 10
-6.759303149606299
 20
3.09353937007874
 10
-6.759303149606299
 20
3.027074803149606
 10
-6.825767716535433
 20
3.002334645669291
 10
-6.825767716535433
 20
3.068799212598425
  0
LWPOLYLINE
  5
86
330
1F
100
AcDbEntity
  8
Layer 1
 62
   250
370
     9
100
AcDbPolyline
 90
        5
 70
     0
 43
0.0
 10
-6.759303149606299
 20
3.09353937007874
 10
-6.692838582677165
 20
3.118275590551181
 10
-6.692838582677165
 20
3.051811023622047
 10
-6.759303149606299
 20
3.027074803149606
 10
-6.759303149606299
 20
3.09353937007874
  0
LWPOLYLINE
  5
87
330
1F
100
AcDbEntity
  8
Layer 1
 62
   250
370
     9
100
AcDbPolyline
 90
        4
 70
     0
 43
0.0
 10
-7.050649606299213
 20
2.918637795275591
 10
-7.02517716535433
 20
2.928122047244095
 10
-7.02517716535433
 20
2.861657480314961
 10
-7.054826771653543
 20
2.85061811023622
  0
LWPOLYLINE
  5
88
330
1F
100
AcDbEntity
  8
Layer 1
 62
   250
370
     9
100
AcDbPolyline
 90
        5
 70
     0
 43
0.0
 10
-7.02517716535433
 20
2.928122047244095
 10
-6.958696850393701
 20
2.95286220472441
 10
-6.958696850393701
 20
2.886397637795276
 10
-7.02517716535433
 20
2.861657480314961
 10
-7.02517716535433
 20
2.928122047244095
  0
LWPOLYLINE
  5
89
330
1F
100
AcDbEntity
  8
Layer 1
 62
   250
370
     9
100
AcDbPolyline
 90
        5
 70
     0
 43
0.0
 10
-6.958696850393701
 20
2.95286220472441
 10
-6.892232283464567
 20
2.977598425196851
 10
-6.892232283464567
 20
2.911133858267716
 10
-6.958696850393701
 20
2.886397637795276
 10
-6.958696850393701
 20
2.95286220472441
  0
LWPOLYLINE
  5
8A
330
1F
100
AcDbEntity
  8
Layer 1
 62
   250
370
     9
100
AcDbPolyline
 90
        5
 70
     0
 43
0.0
 10
-6.892232283464567
 20
2.977598425196851
 10
-6.825767716535433
 20
3.002334645669291
 10
-6.825767716535433
 20
2.935870078740157
 10
-6.892232283464567
 20
2.911133858267716
 10
-6.892232283464567
 20
2.977598425196851
  0
LWPOLYLINE
  5
8B
330
1F
100
AcDbEntity
  8
Layer 1
 62
   250
370
     9
100
AcDbPolyline
 90
        5
 70
     0
 43
0.0
 10
-6.825767716535433
 20
3.002334645669291
 10
-6.759303149606299
 20
3.027074803149606
 10
-6.759303149606299
 20
2.960590551181102
 10
-6.825767716535433
 20
2.935870078740157
 10
-6.825767716535433
 20
3.002334645669291
  0
LWPOLYLINE
  5
8C
330
1F
100
AcDbEntity
  8
Layer 1
 62
   250
370
     9
100
AcDbPolyline
 90
        5
 70
     0
 43
0.0
 10
-6.759303149606299
 20
3.027074803149606
 10
-6.692838582677165
 20
3.051811023622047
 10
-6.692838582677165
 20
2.985330708661417
 10
-6.759303149606299
 20
2.960590551181102
 10
-6.759303149606299
 20
3.027074803149606
  0
LWPOLYLINE
  5
8D
330
1F
100
AcDbEntity
  8
Layer 1
 62
   250
370
     9
100
AcDbPolyline
 90
        4
 70
     0
 43
0.0
 10
-6.626374015748032
 20
3.28307874015748
 10
-6.626374015748032
 20
3.27594094488189
 10
-6.692838582677165
 20
3.251204724409449
 10
-6.692838582677165
 20
3.274838582677166
  0
LWPOLYLINE
  5
8E
330
1F
100
AcDbEntity
  8
Layer 1
 62
   250
370
     9
100
AcDbPolyline
 90
        3
 70
     0
 43
0.0
 10
-6.608488188976378
 20
3.28259842519685
 10
-6.626374015748032
 20
3.27594094488189
 10
-6.626374015748032
 20
3.28307874015748
  0
LWPOLYLINE
  5
8F
330
1F
100
AcDbEntity
  8
Layer 1
 62
   250
370
     9
100
AcDbPolyline
 90
        5
 70
     0
 43
0.0
 10
-6.692838582677165
 20
3.251204724409449
 10
-6.626374015748032
 20
3.27594094488189
 10
-6.626374015748032
 20
3.209476377952756
 10
-6.692838582677165
 20
3.184740157480315
 10
-6.692838582677165
 20
3.251204724409449
  0
LWPOLYLINE
  5
90
330
1F
100
AcDbEntity
  8
Layer 1
 62
   250
370
     9
100
AcDbPolyline
 90
        2
 70
     0
 43
0.0
 10
-6.626374015748032
 20
3.27594094488189
 10
-6.608488188976378
 20
3.28259842519685
  0
LWPOLYLINE
  5
91
330
1F
100
AcDbEntity
  8
Layer 1
 62
   250
370
     9
100
AcDbPolyline
 90
        4
 70
     0
 43
0.0
 10
-6.559913385826771
 20
3.275062992125984
 10
-6.559913385826771
 20
3.234216535433071
 10
-6.626374015748032
 20
3.209476377952756
 10
-6.626374015748032
 20
3.27594094488189
  0
LWPOLYLINE
  5
92
330
1F
100
AcDbEntity
  8
Layer 1
 62
   250
370
     9
100
AcDbPolyline
 90
        3
 70
     0
 43
0.0
 10
-6.510748031496063
 20
3.252515748031496
 10
-6.559913385826771
 20
3.234216535433071
 10
-6.559913385826771
 20
3.275062992125984
  0
LWPOLYLINE
  5
93
330
1F
100
AcDbEntity
  8
Layer 1
 62
   250
370
     9
100
AcDbPolyline
 90
        5
 70
     0
 43
0.0
 10
-6.692838582677165
 20
3.184740157480315
 10
-6.626374015748032
 20
3.209476377952756
 10
-6.626374015748032
 20
3.143011811023622
 10
-6.692838582677165
 20
3.118275590551181
 10
-6.692838582677165
 20
3.184740157480315
  0
LWPOLYLINE
  5
94
330
1F
100
AcDbEntity
  8
Layer 1
 62
   250
370
     9
100
AcDbPolyline
 90
        5
 70
     0
 43
0.0
 10
-6.626374015748032
 20
3.209476377952756
 10
-6.559913385826771
 20
3.234216535433071
 10
-6.559913385826771
 20
3.167732283464567
 10
-6.626374015748032
 20
3.143011811023622
 10
-6.626374015748032
 20
3.209476377952756
  0
LWPOLYLINE
  5
95
330
1F
100
AcDbEntity
  8
Layer 1
 62
   250
370
     9
100
AcDbPolyline
 90
        2
 70
     0
 43
0.0
 10
-6.559913385826771
 20
3.234216535433071
 10
-6.510748031496063
 20
3.252515748031496
  0
LWPOLYLINE
  5
96
330
1F
100
AcDbEntity
  8
Layer 1
 62
   250
370
     9
100
AcDbPolyline
 90
        4
 70
     0
 43
0.0
 10
-6.493448818897638
 20
3.237570866141732
 10
-6.493448818897638
 20
3.192472440944882
 10
-6.559913385826771
 20
3.167732283464567
 10
-6.559913385826771
 20
3.234216535433071
  0
LWPOLYLINE
  5
97
330
1F
100
AcDbEntity
  8
Layer 1
 62
   250
370
     9
100
AcDbPolyline
 90
        3
 70
     0
 43
0.0
 10
-6.469834645669291
 20
3.201259842519685
 10
-6.493448818897638
 20
3.192472440944882
 10
-6.493448818897638
 20
3.237570866141732
  0
LWPOLYLINE
  5
98
330
1F
100
AcDbEntity
  8
Layer 1
 62
   250
370
     9
100
AcDbPolyline
 90
        5
 70
     0
 43
0.0
 10
-6.692838582677165
 20
3.118275590551181
 10
-6.626374015748032
 20
3.143011811023622
 10
-6.626374015748032
 20
3.076547244094488
 10
-6.692838582677165
 20
3.051811023622047
 10
-6.692838582677165
 20
3.118275590551181
  0
LWPOLYLINE
  5
99
330
1F
100
AcDbEntity
  8
Layer 1
 62
   250
370
     9
100
AcDbPolyline
 90
        5
 70
     0
 43
0.0
 10
-6.626374015748032
 20
3.143011811023622
 10
-6.559913385826771
 20
3.167732283464567
 10
-6.559913385826771
 20
3.101287401574803
 10
-6.626374015748032
 20
3.076547244094488
 10
-6.626374015748032
 20
3.143011811023622
  0
LWPOLYLINE
  5
9A
330
1F
100
AcDbEntity
  8
Layer 1
 62
   250
370
     9
100
AcDbPolyline
 90
        5
 70
     0
 43
0.0
 10
-6.559913385826771
 20
3.167732283464567
 10
-6.493448818897638
 20
3.192472440944882
 10
-6.493448818897638
 20
3.126007874015748
 10
-6.559913385826771
 20
3.101287401574803
 10
-6.559913385826771
 20
3.167732283464567
  0
LWPOLYLINE
  5
9B
330
1F
100
AcDbEntity
  8
Layer 1
 62
   250
370
     9
100
AcDbPolyline
 90
        2
 70
     0
 43
0.0
 10
-6.493448818897638
 20
3.192472440944882
 10
-6.469834645669291
 20
3.201259842519685
  0
LWPOLYLINE
  5
9C
330
1F
100
AcDbEntity
  8
Layer 1
 62
   250
370
     9
100
AcDbPolyline
 90
        3
 70
     0
 43
0.0
 10
-6.45746062992126
 20
3.139401574803149
 10
-6.493448818897638
 20
3.126007874015748
 10
-6.493448818897638
 20
3.192472440944882
  0
LWPOLYLINE
  5
9D
330
1F
100
AcDbEntity
  8
Layer 1
 62
   250
370
     9
100
AcDbPolyline
 90
        5
 70
     0
 43
0.0
 10
-6.692838582677165
 20
3.051811023622047
 10
-6.626374015748032
 20
3.076547244094488
 10
-6.626374015748032
 20
3.010066929133858
 10
-6.692838582677165
 20
2.985330708661417
 10
-6.692838582677165
 20
3.051811023622047
  0
LWPOLYLINE
  5
9E
330
1F
100
AcDbEntity
  8
Layer 1
 62
   250
370
     9
100
AcDbPolyline
 90
        5
 70
     0
 43
0.0
 10
-6.626374015748032
 20
3.076547244094488
 10
-6.559913385826771
 20
3.101287401574803
 10
-6.559913385826771
 20
3.034807086614173
 10
-6.626374015748032
 20
3.010066929133858
 10
-6.626374015748032
 20
3.076547244094488
  0
LWPOLYLINE
  5
9F
330
1F
100
AcDbEntity
  8
Layer 1
 62
   250
370
     9
100
AcDbPolyline
 90
        5
 70
     0
 43
0.0
 10
-6.559913385826771
 20
3.101287401574803
 10
-6.493448818897638
 20
3.126007874015748
 10
-6.493448818897638
 20
3.059543307086614
 10
-6.559913385826771
 20
3.034807086614173
 10
-6.559913385826771
 20
3.101287401574803
  0
LWPOLYLINE
  5
A0
330
1F
100
AcDbEntity
  8
Layer 1
 62
   250
370
     9
100
AcDbPolyline
 90
        2
 70
     0
 43
0.0
 10
-6.493448818897638
 20
3.126007874015748
 10
-6.45746062992126
 20
3.139401574803149
  0
LWPOLYLINE
  5
A1
330
1F
100
AcDbEntity
  8
Layer 1
 62
   250
370
     9
100
AcDbPolyline
 90
        3
 70
     0
 43
0.0
 10
-6.463964566929134
 20
3.070515748031496
 10
-6.493448818897638
 20
3.059543307086614
 10
-6.493448818897638
 20
3.126007874015748
  0
LWPOLYLINE
  5
A2
330
1F
100
AcDbEntity
  8
Layer 1
 62
   250
370
     9
100
AcDbPolyline
 90
        4
 70
     0
 43
0.0
 10
-7.054826771653543
 20
2.85061811023622
 10
-7.02517716535433
 20
2.861657480314961
 10
-7.02517716535433
 20
2.795192913385827
 10
-7.029114173228346
 20
2.793728346456693
  0
LWPOLYLINE
  5
A3
330
1F
100
AcDbEntity
  8
Layer 1
 62
   250
370
     9
100
AcDbPolyline
 90
        5
 70
     0
 43
0.0
 10
-7.02517716535433
 20
2.861657480314961
 10
-6.958696850393701
 20
2.886397637795276
 10
-6.958696850393701
 20
2.819933070866142
 10
-7.02517716535433
 20
2.795192913385827
 10
-7.02517716535433
 20
2.861657480314961
  0
LWPOLYLINE
  5
A4
330
1F
100
AcDbEntity
  8
Layer 1
 62
   250
370
     9
100
AcDbPolyline
 90
        5
 70
     0
 43
0.0
 10
-6.958696850393701
 20
2.886397637795276
 10
-6.892232283464567
 20
2.911133858267716
 10
-6.892232283464567
 20
2.844653543307087
 10
-6.958696850393701
 20
2.819933070866142
 10
-6.958696850393701
 20
2.886397637795276
  0
LWPOLYLINE
  5
A5
330
1F
100
AcDbEntity
  8
Layer 1
 62
   250
370
     9
100
AcDbPolyline
 90
        5
 70
     0
 43
0.0
 10
-6.892232283464567
 20
2.911133858267716
 10
-6.825767716535433
 20
2.935870078740157
 10
-6.825767716535433
 20
2.869389763779528
 10
-6.892232283464567
 20
2.844653543307087
 10
-6.892232283464567
 20
2.911133858267716
  0
LWPOLYLINE
  5
A6
330
1F
100
AcDbEntity
  8
Layer 1
 62
   250
370
     9
100
AcDbPolyline
 90
        5
 70
     0
 43
0.0
 10
-6.825767716535433
 20
2.935870078740157
 10
-6.759303149606299
 20
2.960590551181102
 10
-6.759303149606299
 20
2.894129921259843
 10
-6.825767716535433
 20
2.869389763779528
 10
-6.825767716535433
 20
2.935870078740157
  0
LWPOLYLINE
  5
A7
330
1F
100
AcDbEntity
  8
Layer 1
 62
   250
370
     9
100
AcDbPolyline
 90
        5
 70
     0
 43
0.0
 10
-6.759303149606299
 20
2.960590551181102
 10
-6.692838582677165
 20
2.985330708661417
 10
-6.692838582677165
 20
2.918866141732284
 10
-6.759303149606299
 20
2.894129921259843
 10
-6.759303149606299
 20
2.960590551181102
  0
LWPOLYLINE
  5
A8
330
1F
100
AcDbEntity
  8
Layer 1
 62
   250
370
     9
100
AcDbPolyline
 90
        3
 70
     0
 43
0.0
 10
-7.029114173228346
 20
2.793728346456693
 10
-7.02517716535433
 20
2.795192913385827
 10
-7.02517716535433
 20
2.789228346456693
  0
LWPOLYLINE
  5
A9
330
1F
100
AcDbEntity
  8
Layer 1
 62
   250
370
     9
100
AcDbPolyline
 90
        4
 70
     0
 43
0.0
 10
-7.02517716535433
 20
2.795192913385827
 10
-6.958696850393701
 20
2.819933070866142
 10
-6.958696850393701
 20
2.753468503937008
 10
-6.964381889763779
 20
2.751354330708661
  0
LWPOLYLINE
  5
AA
330
1F
100
AcDbEntity
  8
Layer 1
 62
   250
370
     9
100
AcDbPolyline
 90
        2
 70
     0
 43
0.0
 10
-7.02517716535433
 20
2.789228346456693
 10
-7.02517716535433
 20
2.795192913385827
  0
LWPOLYLINE
  5
AB
330
1F
100
AcDbEntity
  8
Layer 1
 62
   250
370
     9
100
AcDbPolyline
 90
        5
 70
     0
 43
0.0
 10
-6.958696850393701
 20
2.819933070866142
 10
-6.892232283464567
 20
2.844653543307087
 10
-6.892232283464567
 20
2.778188976377953
 10
-6.958696850393701
 20
2.753468503937008
 10
-6.958696850393701
 20
2.819933070866142
  0
LWPOLYLINE
  5
AC
330
1F
100
AcDbEntity
  8
Layer 1
 62
   250
370
     9
100
AcDbPolyline
 90
        5
 70
     0
 43
0.0
 10
-6.892232283464567
 20
2.844653543307087
 10
-6.825767716535433
 20
2.869389763779528
 10
-6.825767716535433
 20
2.802925196850394
 10
-6.892232283464567
 20
2.778188976377953
 10
-6.892232283464567
 20
2.844653543307087
  0
LWPOLYLINE
  5
AD
330
1F
100
AcDbEntity
  8
Layer 1
 62
   250
370
     9
100
AcDbPolyline
 90
        5
 70
     0
 43
0.0
 10
-6.825767716535433
 20
2.869389763779528
 10
-6.759303149606299
 20
2.894129921259843
 10
-6.759303149606299
 20
2.827665354330709
 10
-6.825767716535433
 20
2.802925196850394
 10
-6.825767716535433
 20
2.869389763779528
  0
LWPOLYLINE
  5
AE
330
1F
100
AcDbEntity
  8
Layer 1
 62
   250
370
     9
100
AcDbPolyline
 90
        5
 70
     0
 43
0.0
 10
-6.759303149606299
 20
2.894129921259843
 10
-6.692838582677165
 20
2.918866141732284
 10
-6.692838582677165
 20
2.852401574803149
 10
-6.759303149606299
 20
2.827665354330709
 10
-6.759303149606299
 20
2.894129921259843
  0
LWPOLYLINE
  5
AF
330
1F
100
AcDbEntity
  8
Layer 1
 62
   250
370
     9
100
AcDbPolyline
 90
        3
 70
     0
 43
0.0
 10
-6.964381889763779
 20
2.751354330708661
 10
-6.958696850393701
 20
2.753468503937008
 10
-6.958696850393701
 20
2.749523622047244
  0
LWPOLYLINE
  5
B0
330
1F
100
AcDbEntity
  8
Layer 1
 62
   250
370
     9
100
AcDbPolyline
 90
        3
 70
     0
 43
0.0
 10
-6.958696850393701
 20
2.753468503937008
 10
-6.892232283464567
 20
2.778188976377953
 10
-6.892232283464567
 20
2.739417322834646
  0
LWPOLYLINE
  5
B1
330
1F
100
AcDbEntity
  8
Layer 1
 62
   250
370
     9
100
AcDbPolyline
 90
        2
 70
     0
 43
0.0
 10
-6.958696850393701
 20
2.749523622047244
 10
-6.958696850393701
 20
2.753468503937008
  0
LWPOLYLINE
  5
B2
330
1F
100
AcDbEntity
  8
Layer 1
 62
   250
370
     9
100
AcDbPolyline
 90
        3
 70
     0
 43
0.0
 10
-6.892232283464567
 20
2.778188976377953
 10
-6.825767716535433
 20
2.802925196850394
 10
-6.825767716535433
 20
2.747385826771653
  0
LWPOLYLINE
  5
B3
330
1F
100
AcDbEntity
  8
Layer 1
 62
   250
370
     9
100
AcDbPolyline
 90
        2
 70
     0
 43
0.0
 10
-6.892232283464567
 20
2.739417322834646
 10
-6.892232283464567
 20
2.778188976377953
  0
LWPOLYLINE
  5
B4
330
1F
100
AcDbEntity
  8
Layer 1
 62
   250
370
     9
100
AcDbPolyline
 90
        3
 70
     0
 43
0.0
 10
-6.825767716535433
 20
2.802925196850394
 10
-6.759303149606299
 20
2.827665354330709
 10
-6.759303149606299
 20
2.770074803149606
  0
LWPOLYLINE
  5
B5
330
1F
100
AcDbEntity
  8
Layer 1
 62
   250
370
     9
100
AcDbPolyline
 90
        2
 70
     0
 43
0.0
 10
-6.825767716535433
 20
2.747385826771653
 10
-6.825767716535433
 20
2.802925196850394
  0
LWPOLYLINE
  5
B6
330
1F
100
AcDbEntity
  8
Layer 1
 62
   250
370
     9
100
AcDbPolyline
 90
        3
 70
     0
 43
0.0
 10
-6.759303149606299
 20
2.827665354330709
 10
-6.692838582677165
 20
2.852401574803149
 10
-6.692838582677165
 20
2.801905511811023
  0
LWPOLYLINE
  5
B7
330
1F
100
AcDbEntity
  8
Layer 1
 62
   250
370
     9
100
AcDbPolyline
 90
        2
 70
     0
 43
0.0
 10
-6.759303149606299
 20
2.770074803149606
 10
-6.759303149606299
 20
2.827665354330709
  0
LWPOLYLINE
  5
B8
330
1F
100
AcDbEntity
  8
Layer 1
 62
   250
370
     9
100
AcDbPolyline
 90
        5
 70
     0
 43
0.0
 10
-6.692838582677165
 20
2.985330708661417
 10
-6.626374015748032
 20
3.010066929133858
 10
-6.626374015748032
 20
2.943602362204724
 10
-6.692838582677165
 20
2.918866141732284
 10
-6.692838582677165
 20
2.985330708661417
  0
LWPOLYLINE
  5
B9
330
1F
100
AcDbEntity
  8
Layer 1
 62
   250
370
     9
100
AcDbPolyline
 90
        5
 70
     0
 43
0.0
 10
-6.626374015748032
 20
3.010066929133858
 10
-6.559913385826771
 20
3.034807086614173
 10
-6.559913385826771
 20
2.968342519685039
 10
-6.626374015748032
 20
2.943602362204724
 10
-6.626374015748032
 20
3.010066929133858
  0
LWPOLYLINE
  5
BA
330
1F
100
AcDbEntity
  8
Layer 1
 62
   250
370
     9
100
AcDbPolyline
 90
        3
 70
     0
 43
0.0
 10
-6.559913385826771
 20
3.034807086614173
 10
-6.493448818897638
 20
3.059543307086614
 10
-6.493448818897638
 20
2.998988188976378
  0
LWPOLYLINE
  5
BB
330
1F
100
AcDbEntity
  8
Layer 1
 62
   250
370
     9
100
AcDbPolyline
 90
        3
 70
     0
 43
0.0
 10
-6.497708661417323
 20
2.991492125984252
 10
-6.559913385826771
 20
2.968342519685039
 10
-6.559913385826771
 20
3.034807086614173
  0
LWPOLYLINE
  5
BC
330
1F
100
AcDbEntity
  8
Layer 1
 62
   250
370
     9
100
AcDbPolyline
 90
        2
 70
     0
 43
0.0
 10
-6.493448818897638
 20
3.059543307086614
 10
-6.463964566929134
 20
3.070515748031496
  0
LWPOLYLINE
  5
BD
330
1F
100
AcDbEntity
  8
Layer 1
 62
   250
370
     9
100
AcDbPolyline
 90
        2
 70
     0
 43
0.0
 10
-6.493448818897638
 20
2.998988188976378
 10
-6.493448818897638
 20
3.059543307086614
  0
LWPOLYLINE
  5
BE
330
1F
100
AcDbEntity
  8
Layer 1
 62
   250
370
     9
100
AcDbPolyline
 90
        5
 70
     0
 43
0.0
 10
-6.692838582677165
 20
2.918866141732284
 10
-6.626374015748032
 20
2.943602362204724
 10
-6.626374015748032
 20
2.877137795275591
 10
-6.692838582677165
 20
2.852401574803149
 10
-6.692838582677165
 20
2.918866141732284
  0
LWPOLYLINE
  5
BF
330
1F
100
AcDbEntity
  8
Layer 1
 62
   250
370
     9
100
AcDbPolyline
 90
        3
 70
     0
 43
0.0
 10
-6.626374015748032
 20
2.943602362204724
 10
-6.559913385826771
 20
2.968342519685039
 10
-6.559913385826771
 20
2.906913385826772
  0
LWPOLYLINE
  5
C0
330
1F
100
AcDbEntity
  8
Layer 1
 62
   250
370
     9
100
AcDbPolyline
 90
        3
 70
     0
 43
0.0
 10
-6.567086614173228
 20
2.899208661417323
 10
-6.626374015748032
 20
2.877137795275591
 10
-6.626374015748032
 20
2.943602362204724
  0
LWPOLYLINE
  5
C1
330
1F
100
AcDbEntity
  8
Layer 1
 62
   250
370
     9
100
AcDbPolyline
 90
        2
 70
     0
 43
0.0
 10
-6.559913385826771
 20
2.968342519685039
 10
-6.497708661417323
 20
2.991492125984252
  0
LWPOLYLINE
  5
C2
330
1F
100
AcDbEntity
  8
Layer 1
 62
   250
370
     9
100
AcDbPolyline
 90
        2
 70
     0
 43
0.0
 10
-6.559913385826771
 20
2.906913385826772
 10
-6.559913385826771
 20
2.968342519685039
  0
LWPOLYLINE
  5
C3
330
1F
100
AcDbEntity
  8
Layer 1
 62
   250
370
     9
100
AcDbPolyline
 90
        3
 70
     0
 43
0.0
 10
-6.692838582677165
 20
2.852401574803149
 10
-6.626374015748032
 20
2.877137795275591
 10
-6.626374015748032
 20
2.845751968503937
  0
LWPOLYLINE
  5
C4
330
1F
100
AcDbEntity
  8
Layer 1
 62
   250
370
     9
100
AcDbPolyline
 90
        2
 70
     0
 43
0.0
 10
-6.692838582677165
 20
2.801905511811023
 10
-6.692838582677165
 20
2.852401574803149
  0
LWPOLYLINE
  5
C5
330
1F
100
AcDbEntity
  8
Layer 1
 62
   250
370
     9
100
AcDbPolyline
 90
        2
 70
     0
 43
0.0
 10
-6.626374015748032
 20
2.877137795275591
 10
-6.567086614173228
 20
2.899208661417323
  0
LWPOLYLINE
  5
C6
330
1F
100
AcDbEntity
  8
Layer 1
 62
   250
370
     9
100
AcDbPolyline
 90
        2
 70
     0
 43
0.0
 10
-6.626374015748032
 20
2.845751968503937
 10
-6.626374015748032
 20
2.877137795275591
  0
LWPOLYLINE
  5
C7
330
1F
100
AcDbEntity
  8
Layer 1
 62
     7
370
    18
100
AcDbPolyline
 90
       33
 70
     1
 43
0.0
 10
-7.053814960629921
 20
2.840838582677165
 10
-7.054996062992126
 20
2.853251968503937
 10
-7.05457874015748
 20
2.887291338582677
 10
-7.046629921259843
 20
2.938173228346457
 10
-7.025200787401575
 20
3.001102362204724
 10
-6.98436220472441
 20
3.071291338582677
 10
-6.918169291338582
 20
3.14394094488189
 10
-6.820688976377952
 20
3.214267716535433
 10
-6.685976377952756
 20
3.27748031496063
 10
-6.673988188976378
 20
3.279551181102362
 10
-6.642909448818898
 20
3.282625984251969
 10
-6.60007874015748
 20
3.282011811023622
 10
-6.552830708661418
 20
3.273007874015748
 10
-6.508496062992126
 20
3.250917322834646
 10
-6.474409448818897
 20
3.211043307086614
 10
-6.457905511811024
 20
3.148688976377953
 10
-6.466322834645669
 20
3.059153543307087
 10
-6.47
 20
3.048657480314961
 10
-6.482326771653543
 20
3.020330708661418
 10
-6.505263779527559
 20
2.978917322834646
 10
-6.540755905511811
 20
2.929165354330709
 10
-6.590767716535433
 20
2.875811023622047
 10
-6.657240157480315
 20
2.823606299212599
 10
-6.742137795275591
 20
2.777291338582677
 10
-6.847405511811024
 20
2.741610236220473
 10
-6.854771653543307
 20
2.740724409448819
 10
-6.874503937007874
 20
2.739456692913386
 10
-6.903051181102362
 20
2.739897637795276
 10
-6.936866141732284
 20
2.744133858267717
 10
-6.972397637795275
 20
2.754259842519685
 10
-7.006098425196851
 20
2.772358267716535
 10
-7.03442125984252
 20
2.800523622047244
 10
-7.053814960629921
 20
2.840838582677165
  0
LWPOLYLINE
  5
C8
330
1F
100
AcDbEntity
  8
Layer 1
 62
     7
370
    18
100
AcDbPolyline
 90
       25
 70
     0
 43
0.0
 10
-9.960393700787401
 20
5.971125984251969
 10
-9.940023622047244
 20
5.976913385826772
 10
-9.880570866141733
 20
5.986511811023622
 10
-9.784503937007875
 20
5.988251968503937
 10
-9.654307086614173
 20
5.97048031496063
 10
-9.492452755905513
 20
5.921535433070866
 10
-9.30142125984252
 20
5.829759842519685
 10
-9.083685039370078
 20
5.683496062992126
 10
-8.841720472440945
 20
5.471078740157481
 10
-8.827141732283465
 20
5.460110236220473
 10
-8.78642125984252
 20
5.431082677165354
 10
-8.724070866141732
 20
5.389811023622047
 10
-8.64461811023622
 20
5.342110236220472
 10
-8.552570866141732
 20
5.293803149606299
 10
-8.452456692913385
 20
5.250696850393701
 10
-8.348791338582677
 20
5.218610236220472
 10
-8.246090551181103
 20
5.203362204724409
 10
-8.153535433070866
 20
5.198216535433071
 10
-8.07661811023622
 20
5.192763779527559
 10
-8.014314960629921
 20
5.187314960629921
 10
-7.965622047244095
 20
5.182173228346457
 10
-7.929515748031496
 20
5.177641732283464
 10
-7.904984251968504
 20
5.174027559055118
 10
-7.891007874015748
 20
5.171633858267716
 10
-7.886574803149606
 20
5.170767716535433
  0
LWPOLYLINE
  5
C9
330
1F
100
AcDbEntity
  8
Layer 1
 62
     7
370
    18
100
AcDbPolyline
 90
        2
 70
     0
 43
0.0
 10
-10.38772440944882
 20
5.977208661417323
 10
-10.38772440944882
 20
-1.538122047244094
  0
LWPOLYLINE
  5
CA
330
1F
100
AcDbEntity
  8
Layer 1
 62
     7
370
    18
100
AcDbPolyline
 90
        2
 70
     0
 43
0.0
 10
-9.707417322834646
 20
-1.712948818897638
 10
-7.869488188976378
 20
-1.712948818897638
  0
LWPOLYLINE
  5
CB
330
1F
100
AcDbEntity
  8
Layer 1
 62
     7
370
    18
100
AcDbPolyline
 90
        2
 70
     0
 43
0.0
 10
-10.48295669291339
 20
-1.538082677165354
 10
-10.29246850393701
 20
-1.538082677165354
  0
LWPOLYLINE
  5
CC
330
1F
100
AcDbEntity
  8
Layer 1
 62
     7
370
    18
100
AcDbPolyline
 90
        2
 70
     0
 43
0.0
 10
-10.48295669291339
 20
5.977212598425197
 10
-10.29246850393701
 20
5.977212598425197
  0
LWPOLYLINE
  5
CD
330
1F
100
AcDbEntity
  8
Layer 1
 62
     7
370
    18
100
AcDbPolyline
 90
        2
 70
     0
 43
0.0
 10
-7.86951968503937
 20
-1.808181102362205
 10
-7.86951968503937
 20
-1.617696850393701
  0
LWPOLYLINE
  5
CE
330
1F
100
AcDbEntity
  8
Layer 1
 62
     7
370
    18
100
AcDbPolyline
 90
        2
 70
     0
 43
0.0
 10
-9.707389763779528
 20
-1.808181102362205
 10
-9.707389763779528
 20
-1.617696850393701
  0
LWPOLYLINE
  5
CF
330
1F
100
AcDbEntity
  8
Layer 1
 62
     7
370
     9
100
AcDbPolyline
 90
       87
 70
     1
 43
0.0
 10
-10.65513779527559
 20
1.666814960629921
 10
-10.65513779527559
 20
1.903811023622047
 10
-10.68977952755906
 20
1.903811023622047
 10
-10.68977952755906
 20
1.75044094488189
 10
-10.80605511811024
 20
1.867696850393701
 10
-10.81442125984252
 20
1.875350393700787
 10
-10.82320866141732
 20
1.881988188976378
 10
-10.83241732283465
 20
1.887602362204724
 10
-10.84203937007874
 20
1.892192913385827
 10
-10.85208267716535
 20
1.895763779527559
 10
-10.86254330708661
 20
1.898318897637795
 10
-10.87342519685039
 20
1.899846456692913
 10
-10.88472047244094
 20
1.900358267716535
 10
-10.89627165354331
 20
1.899834645669291
 10
-10.90735826771654
 20
1.898271653543307
 10
-10.91798031496063
 20
1.895661417322835
 10
-10.92813779527559
 20
1.892007874015748
 10
-10.93783464566929
 20
1.887311023622047
 10
-10.94706692913386
 20
1.881570866141732
 10
-10.95583464566929
 20
1.874787401574803
 10
-10.96414173228346
 20
1.86696062992126
 10
-10.97185039370079
 20
1.858259842519685
 10
-10.97853543307087
 20
1.849173228346457
 10
-10.98418503937008
 20
1.839704724409449
 10
-10.98881102362205
 20
1.829850393700788
 10
-10.9924094488189
 20
1.819606299212599
 10
-10.99497637795276
 20
1.808976377952756
 10
-10.99651968503937
 20
1.79796062992126
 10
-10.99703149606299
 20
1.78655905511811
 10
-10.99649212598425
 20
1.774716535433071
 10
-10.99487007874016
 20
1.763314960629921
 10
-10.99216535433071
 20
1.752354330708661
 10
-10.98837795275591
 20
1.741834645669291
 10
-10.98350787401575
 20
1.731755905511811
 10
-10.97755905511811
 20
1.722122047244095
 10
-10.97052362204724
 20
1.712925196850394
 10
-10.96240551181102
 20
1.704173228346457
 10
-10.95366929133858
 20
1.696377952755906
 10
-10.94448031496063
 20
1.689685039370079
 10
-10.93483464566929
 20
1.68409842519685
 10
-10.92473228346457
 20
1.67961811023622
 10
-10.91417716535433
 20
1.676240157480315
 10
-10.90316535433071
 20
1.673972440944882
 10
-10.8916968503937
 20
1.672811023622047
 10
-10.87977559055118
 20
1.672755905511811
 10
-10.87977559055118
 20
1.707874015748031
 10
-10.88751181102362
 20
1.707582677165354
 10
-10.89506692913386
 20
1.708122047244095
 10
-10.90244881889764
 20
1.7095
 10
-10.90964960629921
 20
1.711712598425197
 10
-10.91667322834646
 20
1.714759842519685
 10
-10.9235157480315
 20
1.718641732283465
 10
-10.93018110236221
 20
1.723362204724409
 10
-10.93666929133858
 20
1.728913385826772
 10
-10.94246850393701
 20
1.734846456692913
 10
-10.94749212598425
 20
1.741090551181102
 10
-10.95174409448819
 20
1.747645669291339
 10
-10.95522440944882
 20
1.754511811023622
 10
-10.95792913385827
 20
1.761685039370079
 10
-10.95986220472441
 20
1.769169291338583
 10
-10.96101968503937
 20
1.776964566929134
 10
-10.96140551181102
 20
1.785066929133858
 10
-10.96105905511811
 20
1.793015748031496
 10
-10.9600157480315
 20
1.800665354330709
 10
-10.95827559055118
 20
1.808011811023622
 10
-10.95584251968504
 20
1.81505905511811
 10
-10.95270866141732
 20
1.821807086614173
 10
-10.94888188976378
 20
1.828251968503937
 10
-10.94435826771654
 20
1.834397637795276
 10
-10.93913779527559
 20
1.840240157480315
 10
-10.93337401574803
 20
1.845633858267717
 10
-10.92732677165354
 20
1.850307086614173
 10
-10.92100393700787
 20
1.854259842519685
 10
-10.91440551181102
 20
1.857496062992126
 10
-10.90752362204724
 20
1.860011811023622
 10
-10.90036614173228
 20
1.861807086614173
 10
-10.89292913385827
 20
1.862885826771653
 10
-10.8852125984252
 20
1.863244094488189
 10
-10.87732677165354
 20
1.862897637795276
 10
-10.86974803149606
 20
1.861854330708661
 10
-10.86248031496063
 20
1.860114173228346
 10
-10.85552362204724
 20
1.857681102362205
 10
-10.84887401574803
 20
1.854547244094488
 10
-10.84253543307087
 20
1.850720472440945
 10
-10.83650787401575
 20
1.846196850393701
 10
-10.83079133858268
 20
1.840976377952756
 10
-10.65513779527559
 20
1.666814960629921
  0
LWPOLYLINE
  5
D0
330
1F
100
AcDbEntity
  8
Layer 1
 62
     7
370
     9
100
AcDbPolyline
 90
        7
 70
     1
 43
0.0
 10
-10.65513779527559
 20
2.013177165354331
 10
-10.65513779527559
 20
2.047803149606299
 10
-10.99555905511811
 20
2.047803149606299
 10
-10.98664960629921
 20
1.964685039370079
 10
-10.95646062992126
 20
1.964685039370079
 10
-10.95646062992126
 20
2.013177165354331
 10
-10.65513779527559
 20
2.013177165354331
  0
LWPOLYLINE
  5
D1
330
1F
100
AcDbEntity
  8
Layer 1
 62
     7
370
     9
100
AcDbPolyline
 90
       84
 70
     1
 43
0.0
 10
-10.9525
 20
2.247456692913386
 10
-10.9486220472441
 20
2.253173228346457
 10
-10.94421653543307
 20
2.258503937007874
 10
-10.93928346456693
 20
2.263444881889764
 10
-10.93382677165354
 20
2.268
 10
-10.92784645669291
 20
2.272165354330709
 10
-10.92133464566929
 20
2.275944881889764
 10
-10.91429921259843
 20
2.279338582677165
 10
-10.90674015748031
 20
2.282346456692913
 10
-10.89670866141732
 20
2.285708661417323
 10
-10.88652755905512
 20
2.288625984251969
 10
-10.87620078740157
 20
2.291090551181102
 10
-10.86572834645669
 20
2.293106299212599
 10
-10.85511023622047
 20
2.294673228346457
 10
-10.84434645669291
 20
2.295795275590551
 10
-10.83343700787402
 20
2.296464566929134
 10
-10.82237795275591
 20
2.296688976377953
 10
-10.79788188976378
 20
2.295216535433071
 10
-10.78458267716535
 20
2.2935
 10
-10.7720157480315
 20
2.291259842519685
 10
-10.76018503937008
 20
2.288492125984252
 10
-10.74908661417323
 20
2.285196850393701
 10
-10.73872440944882
 20
2.281374015748031
 10
-10.72909842519685
 20
2.277027559055118
 10
-10.72020472440945
 20
2.272157480314961
 10
-10.71204724409449
 20
2.266759842519685
 10
-10.70589763779528
 20
2.261834645669291
 10
-10.70056692913386
 20
2.256649606299213
 10
-10.69605905511811
 20
2.251200787401575
 10
-10.69237401574803
 20
2.245484251968504
 10
-10.68950393700787
 20
2.239507874015748
 10
-10.68745669291339
 20
2.233271653543307
 10
-10.68622834645669
 20
2.226767716535433
 10
-10.68581889763779
 20
2.220003937007874
 10
-10.68622440944882
 20
2.212452755905512
 10
-10.68744094488189
 20
2.205267716535433
 10
-10.68947244094488
 20
2.198444881889764
 10
-10.69231102362205
 20
2.191984251968504
 10
-10.69596456692913
 20
2.185885826771654
 10
-10.70042519685039
 20
2.180149606299213
 10
-10.70570078740158
 20
2.174779527559055
 10
-10.71178346456693
 20
2.169771653543307
 10
-10.71779133858268
 20
2.165629921259843
 10
-10.72416141732283
 20
2.161858267716535
 10
-10.73090157480315
 20
2.15846062992126
 10
-10.73801181102362
 20
2.155433070866142
 10
-10.74535433070866
 20
2.152759842519685
 10
-10.75279133858268
 20
2.150425196850394
 10
-10.76032677165354
 20
2.148429133858268
 10
-10.76795669291339
 20
2.146771653543307
 10
-10.79763779527559
 20
2.142562992125984
 10
-10.83070472440945
 20
2.141334645669291
 10
-10.84059842519685
 20
2.141673228346457
 10
-10.85161811023622
 20
2.142692913385827
 10
-10.86377165354331
 20
2.144389763779528
 10
-10.87705905511811
 20
2.146771653543307
 10
-10.88458267716535
 20
2.148413385826772
 10
-10.89208267716536
 20
2.150362204724409
 10
-10.89955118110236
 20
2.152618110236221
 10
-10.9069842519685
 20
2.155185039370079
 10
-10.91421653543307
 20
2.158106299212598
 10
-10.92108267716536
 20
2.161433070866142
 10
-10.92757874015748
 20
2.16515748031496
 10
-10.93370472440945
 20
2.169283464566929
 10
-10.93935433070866
 20
2.173830708661417
 10
-10.9444094488189
 20
2.178811023622047
 10
-10.94888188976378
 20
2.184228346456693
 10
-10.95276377952756
 20
2.190074803149606
 10
-10.95444094488189
 20
2.193169291338583
 10
-10.9558937007874
 20
2.196405511811024
 10
-10.95712598425197
 20
2.199783464566929
 10
-10.95813779527559
 20
2.203299212598425
 10
-10.95892125984252
 20
2.206956692913386
 10
-10.9594842519685
 20
2.210751968503937
 10
-10.9598188976378
 20
2.214685039370079
 10
-10.95993307086614
 20
2.218759842519685
 10
-10.9598188976378
 20
2.222834645669291
 10
-10.95946850393701
 20
2.226771653543307
 10
-10.95888976377953
 20
2.230566929133858
 10
-10.95807874015748
 20
2.234224409448819
 10
-10.95703149606299
 20
2.237740157480315
 10
-10.95575590551181
 20
2.24111811023622
 10
-10.95424409448819
 20
2.244358267716535
 10
-10.9525
 20
2.247456692913386
  0
LWPOLYLINE
  5
D2
330
1F
100
AcDbEntity
  8
Layer 1
 62
     7
370
     9
100
AcDbPolyline
 90
       65
 70
     1
 43
0.0
 10
-10.65068503937008
 20
2.220492125984252
 10
-10.65160236220472
 20
2.234937007874016
 10
-10.65435039370079
 20
2.248464566929134
 10
-10.65892913385827
 20
2.261070866141732
 10
-10.66534251968504
 20
2.272755905511811
 10
-10.67358661417323
 20
2.283523622047244
 10
-10.68366535433071
 20
2.293366141732283
 10
-10.69557086614173
 20
2.302291338582677
 10
-10.70931102362205
 20
2.310291338582677
 10
-10.72130708661417
 20
2.315917322834645
 10
-10.73396456692913
 20
2.320795275590551
 10
-10.74728346456693
 20
2.32492125984252
 10
-10.76127165354331
 20
2.328295275590551
 10
-10.77592125984252
 20
2.33092125984252
 10
-10.79123622047244
 20
2.332795275590551
 10
-10.80721653543307
 20
2.33392125984252
 10
-10.82386614173228
 20
2.334295275590551
 10
-10.84050787401575
 20
2.33392125984252
 10
-10.85648818897638
 20
2.332795275590551
 10
-10.8718031496063
 20
2.33092125984252
 10
-10.88645275590551
 20
2.328295275590551
 10
-10.90043700787402
 20
2.32492125984252
 10
-10.91375984251968
 20
2.320795275590551
 10
-10.92641338582677
 20
2.315917322834645
 10
-10.93840157480315
 20
2.310291338582677
 10
-10.95214566929134
 20
2.302291338582677
 10
-10.96405905511811
 20
2.293366141732283
 10
-10.97413385826772
 20
2.283523622047244
 10
-10.98237795275591
 20
2.272755905511811
 10
-10.98879133858268
 20
2.261070866141732
 10
-10.99337007874016
 20
2.248464566929134
 10
-10.99611417322835
 20
2.234937007874016
 10
-10.99703149606299
 20
2.220492125984252
 10
-10.99611417322835
 20
2.206047244094488
 10
-10.99337007874016
 20
2.192523622047244
 10
-10.98879133858268
 20
2.17992125984252
 10
-10.98237795275591
 20
2.168236220472441
 10
-10.97413385826772
 20
2.157472440944882
 10
-10.96405905511811
 20
2.147625984251968
 10
-10.95214566929134
 20
2.138700787401575
 10
-10.93840157480315
 20
2.130692913385827
 10
-10.92641338582677
 20
2.125066929133858
 10
-10.91375984251968
 20
2.120192913385827
 10
-10.90043700787402
 20
2.116066929133858
 10
-10.88645275590551
 20
2.112692913385827
 10
-10.8718031496063
 20
2.110066929133858
 10
-10.85648818897638
 20
2.108192913385827
 10
-10.84050787401575
 20
2.107066929133858
 10
-10.82386614173228
 20
2.106692913385827
 10
-10.80721653543307
 20
2.107066929133858
 10
-10.79123622047244
 20
2.108192913385827
 10
-10.77592125984252
 20
2.110066929133858
 10
-10.76127165354331
 20
2.112692913385827
 10
-10.74728346456693
 20
2.116066929133858
 10
-10.73396456692913
 20
2.120192913385827
 10
-10.72130708661417
 20
2.125066929133858
 10
-10.70931102362205
 20
2.130692913385827
 10
-10.69557086614173
 20
2.138700787401575
 10
-10.68366535433071
 20
2.147625984251968
 10
-10.67358661417323
 20
2.157472440944882
 10
-10.66534251968504
 20
2.168236220472441
 10
-10.65892913385827
 20
2.17992125984252
 10
-10.65435039370079
 20
2.192523622047244
 10
-10.65160236220472
 20
2.206047244094488
 10
-10.65068503937008
 20
2.220492125984252
  0
LWPOLYLINE
  5
D3
330
1F
100
AcDbEntity
  8
Layer 1
 62
     7
370
     9
100
AcDbPolyline
 90
      132
 70
     1
 43
0.0
 10
-9.064787401574803
 20
-2.038799212598425
 10
-9.042031496062991
 20
-1.948751968503937
 10
-8.920307086614173
 20
-1.948751968503937
 10
-8.920307086614173
 20
-1.914110236220472
 10
-9.068259842519685
 20
-1.914110236220472
 10
-9.106846456692914
 20
-2.065027559055118
 10
-9.069240157480316
 20
-2.081838582677165
 10
-9.063787401574803
 20
-2.078125984251968
 10
-9.058062992125985
 20
-2.074913385826772
 10
-9.052066929133858
 20
-2.072192913385827
 10
-9.0458031496063
 20
-2.069964566929134
 10
-9.039267716535432
 20
-2.068232283464567
 10
-9.03246062992126
 20
-2.066996062992126
 10
-9.02538188976378
 20
-2.066255905511811
 10
-9.018027559055119
 20
-2.066007874015748
 10
-9.01063779527559
 20
-2.066370078740158
 10
-9.003496062992125
 20
-2.06746062992126
 10
-8.99659842519685
 20
-2.069279527559055
 10
-8.989952755905511
 20
-2.071822834645669
 10
-8.983551181102362
 20
-2.075090551181102
 10
-8.97740157480315
 20
-2.079090551181102
 10
-8.971496062992125
 20
-2.083818897637795
 10
-8.965834645669291
 20
-2.089271653543307
 10
-8.9605
 20
-2.095346456692913
 10
-8.955874015748032
 20
-2.101649606299213
 10
-8.951964566929133
 20
-2.108181102362205
 10
-8.948763779527559
 20
-2.114933070866142
 10
-8.946275590551181
 20
-2.121909448818898
 10
-8.9445
 20
-2.129110236220472
 10
-8.943433070866142
 20
-2.136535433070866
 10
-8.94307874015748
 20
-2.144181102362205
 10
-8.943440944881889
 20
-2.15209842519685
 10
-8.944531496062993
 20
-2.159696850393701
 10
-8.946346456692913
 20
-2.166976377952756
 10
-8.948889763779528
 20
-2.17394094488189
 10
-8.95215748031496
 20
-2.180586614173228
 10
-8.956153543307087
 20
-2.186913385826772
 10
-8.960877952755906
 20
-2.192925196850394
 10
-8.966326771653543
 20
-2.19861811023622
 10
-8.971972440944882
 20
-2.203551181102362
 10
-8.978015748031495
 20
-2.207956692913386
 10
-8.984464566929134
 20
-2.211834645669291
 10
-8.991311023622048
 20
-2.215188976377953
 10
-8.99494094488189
 20
-2.216637795275591
 10
-8.998767716535433
 20
-2.217893700787402
 10
-9.002799212598426
 20
-2.218956692913386
 10
-9.007027559055118
 20
-2.219826771653543
 10
-9.011456692913386
 20
-2.220503937007874
 10
-9.01608661417323
 20
-2.220988188976378
 10
-9.020917322834645
 20
-2.221279527559055
 10
-9.025952755905513
 20
-2.221377952755906
 10
-9.031082677165355
 20
-2.221161417322834
 10
-9.03620472440945
 20
-2.220511811023622
 10
-9.041318897637796
 20
-2.219425196850394
 10
-9.046425196850393
 20
-2.217909448818898
 10
-9.051523622047243
 20
-2.21596062992126
 10
-9.056614173228347
 20
-2.213582677165354
 10
-9.061696850393702
 20
-2.210771653543307
 10
-9.066767716535432
 20
-2.207527559055118
 10
-9.071657480314961
 20
-2.203929133858268
 10
-9.076173228346457
 20
-2.200070866141732
 10
-9.080318897637795
 20
-2.195948818897638
 10
-9.084090551181102
 20
-2.191562992125984
 10
-9.087492125984252
 20
-2.186917322834645
 10
-9.09051968503937
 20
-2.182003937007874
 10
-9.093181102362205
 20
-2.176830708661417
 10
-9.095468503937008
 20
-2.171393700787402
 10
-9.129114173228347
 20
-2.182279527559055
 10
-9.125807086614174
 20
-2.190425196850394
 10
-9.121952755905513
 20
-2.198161417322835
 10
-9.117551181102362
 20
-2.205488188976378
 10
-9.11259842519685
 20
-2.21240157480315
 10
-9.107094488188977
 20
-2.218909448818898
 10
-9.101047244094488
 20
-2.225003937007874
 10
-9.094444881889764
 20
-2.230688976377953
 10
-9.087299212598426
 20
-2.235964566929134
 10
-9.079700787401574
 20
-2.240779527559055
 10
-9.071929133858267
 20
-2.244952755905512
 10
-9.063992125984251
 20
-2.248484251968504
 10
-9.05588188976378
 20
-2.251374015748032
 10
-9.047602362204724
 20
-2.253622047244094
 10
-9.039153543307087
 20
-2.255228346456693
 10
-9.030535433070867
 20
-2.256188976377953
 10
-9.02174409448819
 20
-2.256511811023622
 10
-9.010031496062991
 20
-2.25598031496063
 10
-8.998767716535433
 20
-2.254389763779527
 10
-8.987952755905512
 20
-2.251740157480315
 10
-8.977586614173228
 20
-2.248031496062992
 10
-8.967669291338582
 20
-2.243263779527559
 10
-8.958200787401575
 20
-2.237433070866142
 10
-8.949181102362205
 20
-2.230547244094488
 10
-8.940606299212599
 20
-2.222602362204725
 10
-8.932834645669292
 20
-2.21398031496063
 10
-8.92609842519685
 20
-2.204933070866142
 10
-8.920401574803149
 20
-2.19546062992126
 10
-8.915740157480315
 20
-2.185562992125984
 10
-8.912114173228346
 20
-2.175240157480315
 10
-8.909523622047244
 20
-2.164488188976378
 10
-8.907972440944881
 20
-2.153314960629921
 10
-8.907452755905512
 20
-2.141712598425197
 10
-8.907964566929135
 20
-2.130173228346457
 10
-8.909496062992126
 20
-2.119122047244094
 10
-8.912047244094488
 20
-2.10855905511811
 10
-8.91561811023622
 20
-2.09848031496063
 10
-8.920208661417323
 20
-2.088889763779528
 10
-8.925818897637795
 20
-2.079787401574803
 10
-8.932448818897639
 20
-2.071169291338583
 10
-8.940098425196851
 20
-2.063043307086614
 10
-8.944015748031497
 20
-2.059425196850394
 10
-8.948082677165354
 20
-2.056003937007874
 10
-8.952307086614173
 20
-2.052775590551181
 10
-8.956685039370079
 20
-2.049744094488189
 10
-8.961212598425197
 20
-2.04690157480315
 10
-8.965897637795276
 20
-2.044255905511811
 10
-8.970732283464567
 20
-2.041799212598425
 10
-8.97572440944882
 20
-2.039535433070866
 10
-8.98082283464567
 20
-2.037507874015748
 10
-8.985964566929134
 20
-2.035748031496063
 10
-8.991149606299212
 20
-2.034259842519685
 10
-8.996374015748032
 20
-2.033043307086614
 10
-9.001645669291339
 20
-2.032094488188976
 10
-9.006956692913386
 20
-2.031417322834645
 10
-9.012307086614173
 20
-2.031007874015748
 10
-9.017696850393701
 20
-2.030874015748032
 10
-9.023192913385827
 20
-2.030996062992126
 10
-9.028803149606299
 20
-2.031370078740157
 10
-9.03451968503937
 20
-2.031988188976378
 10
-9.040346456692914
 20
-2.032858267716535
 10
-9.046287401574803
 20
-2.033972440944882
 10
-9.052338582677166
 20
-2.035334645669291
 10
-9.058507874015747
 20
-2.03694094488189
 10
-9.064787401574803
 20
-2.038799212598425
  0
LWPOLYLINE
  5
D4
330
1F
100
AcDbEntity
  8
Layer 1
 62
     7
370
     9
100
AcDbPolyline
 90
       84
 70
     1
 43
0.0
 10
-8.71572440944882
 20
-1.953204724409449
 10
-8.710007874015748
 20
-1.957086614173228
 10
-8.704677165354331
 20
-1.961492125984252
 10
-8.699736220472442
 20
-1.96642125984252
 10
-8.695181102362204
 20
-1.971877952755906
 10
-8.691015748031496
 20
-1.977862204724409
 10
-8.68723622047244
 20
-1.984370078740157
 10
-8.68384251968504
 20
-1.991405511811024
 10
-8.680834645669291
 20
-1.998964566929134
 10
-8.677472440944882
 20
-2.009
 10
-8.674555118110236
 20
-2.019177165354331
 10
-8.672090551181102
 20
-2.029503937007874
 10
-8.670074803149607
 20
-2.039976377952756
 10
-8.668507874015749
 20
-2.050594488188976
 10
-8.667385826771653
 20
-2.061362204724409
 10
-8.666716535433071
 20
-2.072271653543307
 10
-8.666492125984252
 20
-2.083330708661417
 10
-8.667964566929134
 20
-2.107822834645669
 10
-8.669681102362205
 20
-2.121122047244095
 10
-8.671925196850394
 20
-2.133688976377953
 10
-8.674692913385826
 20
-2.14551968503937
 10
-8.677988188976379
 20
-2.156618110236221
 10
-8.681807086614173
 20
-2.16698031496063
 10
-8.686153543307087
 20
-2.176606299212598
 10
-8.691023622047243
 20
-2.1855
 10
-8.69642125984252
 20
-2.193657480314961
 10
-8.701346456692914
 20
-2.199807086614173
 10
-8.706531496062992
 20
-2.20513779527559
 10
-8.71198031496063
 20
-2.209645669291338
 10
-8.7176968503937
 20
-2.213334645669292
 10
-8.723673228346456
 20
-2.216200787401575
 10
-8.729909448818898
 20
-2.218248031496063
 10
-8.736413385826772
 20
-2.219476377952756
 10
-8.74317716535433
 20
-2.219885826771653
 10
-8.750728346456693
 20
-2.21948031496063
 10
-8.757913385826772
 20
-2.218263779527559
 10
-8.764740157480315
 20
-2.216232283464567
 10
-8.771200787401575
 20
-2.213393700787401
 10
-8.777295275590552
 20
-2.209740157480315
 10
-8.783031496062993
 20
-2.205279527559055
 10
-8.78840157480315
 20
-2.200003937007874
 10
-8.793409448818897
 20
-2.19392125984252
 10
-8.797551181102362
 20
-2.187913385826772
 10
-8.801322834645669
 20
-2.181543307086614
 10
-8.804724409448818
 20
-2.174803149606299
 10
-8.807748031496063
 20
-2.167692913385827
 10
-8.810421259842519
 20
-2.160350393700787
 10
-8.81275590551181
 20
-2.152913385826772
 10
-8.814751968503938
 20
-2.145377952755906
 10
-8.816409448818897
 20
-2.137748031496063
 10
-8.82061811023622
 20
-2.108066929133858
 10
-8.821846456692914
 20
-2.075
 10
-8.821507874015747
 20
-2.065106299212598
 10
-8.820488188976379
 20
-2.054086614173228
 10
-8.818791338582677
 20
-2.041933070866142
 10
-8.816409448818897
 20
-2.028645669291338
 10
-8.814771653543307
 20
-2.021122047244094
 10
-8.812822834645669
 20
-2.013625984251969
 10
-8.810562992125984
 20
-2.006153543307087
 10
-8.807996062992126
 20
-1.998720472440945
 10
-8.805074803149607
 20
-1.991488188976378
 10
-8.801748031496063
 20
-1.984622047244095
 10
-8.798023622047245
 20
-1.978125984251969
 10
-8.793897637795276
 20
-1.972
 10
-8.789354330708662
 20
-1.966350393700787
 10
-8.784370078740157
 20
-1.961295275590551
 10
-8.778952755905511
 20
-1.956826771653543
 10
-8.773106299212598
 20
-1.952944881889764
 10
-8.770011811023622
 20
-1.951267716535433
 10
-8.76677559055118
 20
-1.949811023622047
 10
-8.763401574803149
 20
-1.94857874015748
 10
-8.75988188976378
 20
-1.947570866141732
 10
-8.756228346456693
 20
-1.946783464566929
 10
-8.752433070866141
 20
-1.946220472440945
 10
-8.748496062992126
 20
-1.945885826771653
 10
-8.744425196850393
 20
-1.945771653543307
 10
-8.740346456692913
 20
-1.945885826771653
 10
-8.736409448818897
 20
-1.946236220472441
 10
-8.732614173228347
 20
-1.946814960629921
 10
-8.728956692913385
 20
-1.947629921259842
 10
-8.725440944881889
 20
-1.948673228346457
 10
-8.722062992125984
 20
-1.949948818897638
 10
-8.71882283464567
 20
-1.95146062992126
 10
-8.71572440944882
 20
-1.953204724409449
  0
LWPOLYLINE
  5
D5
330
1F
100
AcDbEntity
  8
Layer 1
 62
     7
370
     9
100
AcDbPolyline
 90
       65
 70
     1
 43
0.0
 10
-8.742688976377952
 20
-2.25501968503937
 10
-8.72824409448819
 20
-2.254102362204724
 10
-8.714720472440945
 20
-2.251354330708661
 10
-8.702114173228347
 20
-2.246775590551181
 10
-8.690425196850393
 20
-2.24036220472441
 10
-8.679661417322835
 20
-2.23211811023622
 10
-8.669814960629921
 20
-2.22203937007874
 10
-8.660893700787401
 20
-2.210133858267716
 10
-8.652889763779527
 20
-2.196393700787401
 10
-8.64726377952756
 20
-2.184397637795275
 10
-8.642385826771653
 20
-2.171740157480315
 10
-8.638259842519686
 20
-2.15842125984252
 10
-8.634885826771654
 20
-2.144437007874016
 10
-8.632259842519685
 20
-2.129783464566929
 10
-8.630385826771654
 20
-2.114468503937008
 10
-8.629259842519685
 20
-2.098488188976378
 10
-8.628885826771654
 20
-2.081838582677165
 10
-8.629259842519685
 20
-2.065196850393701
 10
-8.630385826771654
 20
-2.049216535433071
 10
-8.632259842519685
 20
-2.03390157480315
 10
-8.634885826771654
 20
-2.019251968503937
 10
-8.638259842519686
 20
-2.005267716535433
 10
-8.642385826771653
 20
-1.991944881889764
 10
-8.64726377952756
 20
-1.979291338582677
 10
-8.652889763779527
 20
-1.967303149606299
 10
-8.660893700787401
 20
-1.95355905511811
 10
-8.669814960629921
 20
-1.941645669291339
 10
-8.679661417322835
 20
-1.931570866141732
 10
-8.690425196850393
 20
-1.923326771653543
 10
-8.702114173228347
 20
-1.916913385826772
 10
-8.714720472440945
 20
-1.912334645669291
 10
-8.72824409448819
 20
-1.909590551181102
 10
-8.742688976377952
 20
-1.908673228346457
 10
-8.757133858267716
 20
-1.909590551181102
 10
-8.770657480314961
 20
-1.912334645669291
 10
-8.783259842519685
 20
-1.916913385826772
 10
-8.794944881889764
 20
-1.923326771653543
 10
-8.805708661417324
 20
-1.931570866141732
 10
-8.815555118110236
 20
-1.941645669291339
 10
-8.82448031496063
 20
-1.95355905511811
 10
-8.832488188976377
 20
-1.967303149606299
 10
-8.838114173228346
 20
-1.979291338582677
 10
-8.842988188976378
 20
-1.991944881889764
 10
-8.847114173228347
 20
-2.005267716535433
 10
-8.850488188976378
 20
-2.019251968503937
 10
-8.853114173228347
 20
-2.03390157480315
 10
-8.854988188976378
 20
-2.049216535433071
 10
-8.856114173228347
 20
-2.065196850393701
 10
-8.856488188976378
 20
-2.081838582677165
 10
-8.856114173228347
 20
-2.098488188976378
 10
-8.854988188976378
 20
-2.114468503937008
 10
-8.853114173228347
 20
-2.129783464566929
 10
-8.850488188976378
 20
-2.144437007874016
 10
-8.847114173228347
 20
-2.15842125984252
 10
-8.842988188976378
 20
-2.171740157480315
 10
-8.838114173228346
 20
-2.184397637795275
 10
-8.832488188976377
 20
-2.196393700787401
 10
-8.82448031496063
 20
-2.210133858267716
 10
-8.815555118110236
 20
-2.22203937007874
 10
-8.805708661417324
 20
-2.23211811023622
 10
-8.794944881889764
 20
-2.24036220472441
 10
-8.783259842519685
 20
-2.246775590551181
 10
-8.770657480314961
 20
-2.251354330708661
 10
-8.757133858267716
 20
-2.254102362204724
 10
-8.742688976377952
 20
-2.25501968503937
  0
ENDSEC
  0
SECTION
  2
OBJECTS
  0
DICTIONARY
  5
C
330
0
100
AcDbDictionary
281
     1
  3
ACAD_DETAILVIEWSTYLE
350
DD
  3
ACAD_GROUP
350
D
  3
ACAD_LAYOUT
350
1A
  3
ACAD_MATERIAL
350
43
  3
ACAD_MLEADERSTYLE
350
5B
  3
ACAD_MLINESTYLE
350
17
  3
ACAD_PLOTSETTINGS
350
19
  3
ACAD_PLOTSTYLENAME
350
E
  3
ACAD_SCALELIST
350
47
  3
ACAD_SECTIONVIEWSTYLE
350
DE
  3
ACAD_TABLESTYLE
350
59
  3
ACAD_VISUALSTYLE
350
2A
  3
ACDB_RECOMPOSE_DATA
350
DA
  3
AcDbVariableDictionary
350
D6
  0
SUN
  5
5D
330
29
100
AcDbSun
 90
        1
290
     0
 63
     7
421
 16777215
 40
1.0
291
     1
 91
  2455826
 92
 54000000
292
     0
 70
     2
 71
   256
280
     1
  0
DICTIONARY
  5
DD
102
{ACAD_REACTORS
330
C
102
}
330
C
100
AcDbDictionary
281
     1
  0
DICTIONARY
  5
D
102
{ACAD_REACTORS
330
C
102
}
330
C
100
AcDbDictionary
281
     1
  0
DICTIONARY
  5
1A
102
{ACAD_REACTORS
330
C
102
}
330
C
100
AcDbDictionary
281
     1
  3
Layout1
350
1E
  3
Layout2
350
26
  3
Model
350
22
  0
DICTIONARY
  5
43
102
{ACAD_REACTORS
330
C
102
}
330
C
100
AcDbDictionary
281
     1
  3
ByBlock
350
45
  3
ByLayer
350
44
  3
Global
350
46
  0
DICTIONARY
  5
5B
102
{ACAD_REACTORS
330
C
102
}
330
C
100
AcDbDictionary
281
     1
  3
Standard
350
5C
  0
DICTIONARY
  5
17
102
{ACAD_REACTORS
330
C
102
}
330
C
100
AcDbDictionary
281
     1
  3
Standard
350
18
  0
DICTIONARY
  5
19
102
{ACAD_REACTORS
330
C
102
}
330
C
100
AcDbDictionary
281
     1
  0
ACDBDICTIONARYWDFLT
  5
E
102
{ACAD_REACTORS
330
C
102
}
330
C
100
AcDbDictionary
281
     1
  3
Normal
350
F
100
AcDbDictionaryWithDefault
340
F
  0
DICTIONARY
  5
47
102
{ACAD_REACTORS
330
C
102
}
330
C
100
AcDbDictionary
281
     1
  3
A0
350
48
  3
A1
350
49
  3
A2
350
4A
  3
A3
350
4B
  3
A4
350
4C
  3
A5
350
4D
  3
A6
350
4E
  3
A7
350
4F
  3
A8
350
50
  3
A9
350
51
  3
B1
350
52
  3
B2
350
53
  3
B3
350
54
  3
B4
350
55
  3
B5
350
56
  3
B6
350
57
  3
B7
350
58
  0
DICTIONARY
  5
DE
102
{ACAD_REACTORS
330
C
102
}
330
C
100
AcDbDictionary
281
     1
  0
DICTIONARY
  5
59
102
{ACAD_REACTORS
330
C
102
}
330
C
100
AcDbDictionary
281
     1
  3
Standard
350
5A
  0
DICTIONARY
  5
2A
102
{ACAD_REACTORS
330
C
102
}
330
C
100
AcDbDictionary
281
     1
  3
2dWireframe
350
2F
  3
Basic
350
32
  3
Brighten
350
36
  3
ColorChange
350
3A
  3
Conceptual
350
34
  3
Dim
350
35
  3
EdgeColorOff
350
3D
  3
Facepattern
350
39
  3
Flat
350
2B
  3
FlatWithEdges
350
2C
  3
Gouraud
350
2D
  3
GouraudWithEdges
350
2E
  3
Hidden
350
31
  3
JitterOff
350
3B
  3
Linepattern
350
38
  3
OverhangOff
350
3C
  3
Realistic
350
33
  3
Shaded
350
42
  3
Shaded with edges
350
41
  3
Shades of Gray
350
3E
  3
Sketchy
350
3F
  3
Thicken
350
37
  3
Wireframe
350
30
  3
X-Ray
350
40
  0
XRECORD
  5
DA
102
{ACAD_REACTORS
330
C
102
}
330
C
100
AcDbXrecord
280
     1
 90
        1
330
5A
  0
DICTIONARY
  5
D6
102
{ACAD_REACTORS
330
C
102
}
330
C
100
AcDbDictionary
281
     1
  3
CANNOSCALE
350
D7
  3
CMLEADERSTYLE
350
DC
  3
CTABLESTYLE
350
DB
  0
LAYOUT
  5
1E
102
{ACAD_REACTORS
330
1A
102
}
330
1A
100
AcDbPlotSettings
  1

  2
none_device
  4

  6

 40
0.0
 41
0.0
 42
0.0
 43
0.0
 44
0.0
 45
0.0
 46
0.0
 47
0.0
 48
0.0
 49
0.0
140
0.0
141
0.0
142
1.0
143
1.0
 70
   688
 72
     0
 73
     0
 74
     5
  7

 75
    16
 76
     0
 77
     2
 78
   300
147
1.0
148
0.0
149
0.0
100
AcDbLayout
  1
Layout1
 70
     1
 71
     1
 10
0.0
 20
0.0
 11
12.0
 21
9.0
 12
0.0
 22
0.0
 32
0.0
 14
1.000000000000000E+20
 24
1.000000000000000E+20
 34
1.000000000000000E+20
 15
-1.000000000000000E+20
 25
-1.000000000000000E+20
 35
-1.000000000000000E+20
146
0.0
 13
0.0
 23
0.0
 33
0.0
 16
1.0
 26
0.0
 36
0.0
 17
0.0
 27
1.0
 37
0.0
 76
     0
330
1B
  0
LAYOUT
  5
26
102
{ACAD_REACTORS
330
1A
102
}
330
1A
100
AcDbPlotSettings
  1

  2
none_device
  4

  6

 40
0.0
 41
0.0
 42
0.0
 43
0.0
 44
0.0
 45
0.0
 46
0.0
 47
0.0
 48
0.0
 49
0.0
140
0.0
141
0.0
142
1.0
143
1.0
 70
   688
 72
     0
 73
     0
 74
     5
  7

 75
    16
 76
     0
 77
     2
 78
   300
147
1.0
148
0.0
149
0.0
100
AcDbLayout
  1
Layout2
 70
     1
 71
     2
 10
0.0
 20
0.0
 11
0.0
 21
0.0
 12
0.0
 22
0.0
 32
0.0
 14
0.0
 24
0.0
 34
0.0
 15
0.0
 25
0.0
 35
0.0
146
0.0
 13
0.0
 23
0.0
 33
0.0
 16
1.0
 26
0.0
 36
0.0
 17
0.0
 27
1.0
 37
0.0
 76
     0
330
23
  0
LAYOUT
  5
22
102
{ACAD_REACTORS
330
1A
102
}
330
1A
100
AcDbPlotSettings
  1

  2
none_device
  4
Letter_(8.50_x_11.00_Inches)
  6

 40
6.35
 41
6.35
 42
6.35000508
 43
6.35000508
 44
215.9
 45
279.4
 46
0.0
 47
0.0
 48
0.0
 49
0.0
140
0.0
141
0.0
142
1.0
143
1.0
 70
  1712
 72
     0
 73
     0
 74
     0
  7

 75
     0
 76
     0
 77
     2
 78
   300
147
1.0
148
0.0
149
0.0
100
AcDbLayout
  1
Model
 70
     1
 71
     0
 10
0.0
 20
0.0
 11
12.0
 21
9.0
 12
0.0
 22
0.0
 32
0.0
 14
-12.31874409448819
 24
-2.526744094488189
 34
0.0
 15
-4.939027559055118
 25
7.556885826771653
 35
0.0
146
0.0
 13
0.0
 23
0.0
 33
0.0
 16
1.0
 26
0.0
 36
0.0
 17
0.0
 27
1.0
 37
0.0
 76
     0
330
1F
331
29
  0
MATERIAL
  5
45
102
{ACAD_REACTORS
330
43
102
}
330
43
100
AcDbMaterial
  1
ByBlock
 72
     1
 94
      127
  0
MATERIAL
  5
44
102
{ACAD_REACTORS
330
43
102
}
330
43
100
AcDbMaterial
  1
ByLayer
 72
     1
 94
      127
  0
MATERIAL
  5
46
102
{ACAD_REACTORS
330
43
102
}
330
43
100
AcDbMaterial
  1
Global
 72
     1
 94
      127
  0
MLEADERSTYLE
  5
5C
102
{ACAD_REACTORS
330
5B
102
}
330
5B
100
AcDbMLeaderStyle
179
     2
170
     2
171
     1
172
     0
 90
        2
 40
0.0
 41
0.0
173
     1
 91
-1056964608
340
14
 92
       -2
290
     1
 42
0.09
291
     1
 43
0.36
  3
Standard
341
0
 44
0.18
300

342
11
174
     1
178
     6
175
     1
176
     0
 93
-1056964608
 45
0.18
292
     0
297
     0
 46
0.18
343
0
 94
-1056964608
 47
1.0
 49
1.0
140
1.0
293
     1
141
0.0
294
     1
177
     0
142
1.0
295
     0
296
     0
143
0.125
271
     0
272
     9
273
     9
298
     0
  0
MLINESTYLE
  5
18
102
{ACAD_REACTORS
330
17
102
}
330
17
100
AcDbMlineStyle
  2
Standard
 70
     0
  3

 62
   256
 51
90.0
 52
90.0
 71
     2
 49
0.5
 62
   256
  6
BYLAYER
 49
-0.5
 62
   256
  6
BYLAYER
  0
ACDBPLACEHOLDER
  5
F
102
{ACAD_REACTORS
330
E
102
}
330
E
  0
SCALE
  5
48
102
{ACAD_REACTORS
330
47
102
}
330
47
100
AcDbScale
 70
     0
300
1:1
140
1.0
141
1.0
290
     1
  0
SCALE
  5
49
102
{ACAD_REACTORS
330
47
102
}
330
47
100
AcDbScale
 70
     0
300
1/128" = 1'-0"
140
0.0078125
141
12.0
290
     0
  0
SCALE
  5
4A
102
{ACAD_REACTORS
330
47
102
}
330
47
100
AcDbScale
 70
     0
300
1/64" = 1'-0"
140
0.015625
141
12.0
290
     0
  0
SCALE
  5
4B
102
{ACAD_REACTORS
330
47
102
}
330
47
100
AcDbScale
 70
     0
300
1/32" = 1'-0"
140
0.03125
141
12.0
290
     0
  0
SCALE
  5
4C
102
{ACAD_REACTORS
330
47
102
}
330
47
100
AcDbScale
 70
     0
300
1/16" = 1'-0"
140
0.0625
141
12.0
290
     0
  0
SCALE
  5
4D
102
{ACAD_REACTORS
330
47
102
}
330
47
100
AcDbScale
 70
     0
300
3/32" = 1'-0"
140
0.09375
141
12.0
290
     0
  0
SCALE
  5
4E
102
{ACAD_REACTORS
330
47
102
}
330
47
100
AcDbScale
 70
     0
300
1/8" = 1'-0"
140
0.125
141
12.0
290
     0
  0
SCALE
  5
4F
102
{ACAD_REACTORS
330
47
102
}
330
47
100
AcDbScale
 70
     0
300
3/16" = 1'-0"
140
0.1875
141
12.0
290
     0
  0
SCALE
  5
50
102
{ACAD_REACTORS
330
47
102
}
330
47
100
AcDbScale
 70
     0
300
1/4" = 1'-0"
140
0.25
141
12.0
290
     0
  0
SCALE
  5
51
102
{ACAD_REACTORS
330
47
102
}
330
47
100
AcDbScale
 70
     0
300
3/8" = 1'-0"
140
0.375
141
12.0
290
     0
  0
SCALE
  5
52
102
{ACAD_REACTORS
330
47
102
}
330
47
100
AcDbScale
 70
     0
300
1/2" = 1'-0"
140
0.5
141
12.0
290
     0
  0
SCALE
  5
53
102
{ACAD_REACTORS
330
47
102
}
330
47
100
AcDbScale
 70
     0
300
3/4" = 1'-0"
140
0.75
141
12.0
290
     0
  0
SCALE
  5
54
102
{ACAD_REACTORS
330
47
102
}
330
47
100
AcDbScale
 70
     0
300
1" = 1'-0"
140
1.0
141
12.0
290
     0
  0
SCALE
  5
55
102
{ACAD_REACTORS
330
47
102
}
330
47
100
AcDbScale
 70
     0
300
1-1/2" = 1'-0"
140
1.5
141
12.0
290
     0
  0
SCALE
  5
56
102
{ACAD_REACTORS
330
47
102
}
330
47
100
AcDbScale
 70
     0
300
3" = 1'-0"
140
3.0
141
12.0
290
     0
  0
SCALE
  5
57
102
{ACAD_REACTORS
330
47
102
}
330
47
100
AcDbScale
 70
     0
300
6" = 1'-0"
140
6.0
141
12.0
290
     0
  0
SCALE
  5
58
102
{ACAD_REACTORS
330
47
102
}
330
47
100
AcDbScale
 70
     0
300
1'-0" = 1'-0"
140
12.0
141
12.0
290
     0
  0
TABLESTYLE
  5
5A
102
{ACAD_REACTORS
330
59
102
}
102
{ACAD_XDICTIONARY
360
D8
102
}
330
59
100
AcDbTableStyle
  3
Standard
 70
     0
 71
     0
 40
0.06
 41
0.06
280
     0
281
     0
  7
Standard
140
0.18
170
     2
 62
     0
 63
   257
283
     0
 90
        4
 91
        0
  1

274
    -2
284
     1
 64
     0
275
    -2
285
     1
 65
     0
276
    -2
286
     1
 66
     0
277
    -2
287
     1
 67
     0
278
    -2
288
     1
 68
     0
279
    -2
289
     1
 69
     0
  7
Standard
140
0.25
170
     5
 62
     0
 63
   257
283
     0
 90
        4
 91
        0
  1

274
    -2
284
     1
 64
     0
275
    -2
285
     1
 65
     0
276
    -2
286
     1
 66
     0
277
    -2
287
     1
 67
     0
278
    -2
288
     1
 68
     0
279
    -2
289
     1
 69
     0
  7
Standard
140
0.18
170
     5
 62
     0
 63
   257
283
     0
 90
        4
 91
        0
  1

274
    -2
284
     1
 64
     0
275
    -2
285
     1
 65
     0
276
    -2
286
     1
 66
     0
277
    -2
287
     1
 67
     0
278
    -2
288
     1
 68
     0
279
    -2
289
     1
 69
     0
  0
VISUALSTYLE
  5
2F
102
{ACAD_REACTORS
330
2A
102
}
330
2A
100
AcDbVisualStyle
  2
2dWireframe
 70
     4
177
     3
291
     0
 70
    58
 90
        0
176
     1
 90
        2
176
     1
 90
        0
176
     1
 90
        0
176
     1
 40
0.6
176
     1
 40
30.0
176
     1
 62
     7
420
 16777215
176
     1
 90
        1
176
     1
 90
        4
176
     1
 62
     7
176
     1
 62
   257
176
     1
 90
        1
176
     1
 90
        1
176
     1
 40
1.0
176
     1
 90
        0
176
     1
 62
   257
176
     1
 40
1.0
176
     1
 90
        1
176
     1
 90
        6
176
     1
 90
        2
176
     1
 62
     7
176
     1
 90
        5
176
     1
 90
        0
176
     1
 90
        0
176
     1
290
     0
176
     1
 90
        1
176
     1
 40
0.0
176
     1
 90
        0
176
     1
290
     1
176
     1
290
     1
176
     1
290
     0
176
     1
290
     0
176
     1
290
     0
176
     1
290
     0
176
     1
290
     0
176
     1
290
     0
176
     1
290
     0
176
     1
 90
       50
176
     1
 40
0.0
176
     1
 40
1.0
176
     1
 90
        0
176
     1
 62
    18
420
        0
176
     1
 90
       50
176
     1
 90
        3
176
     1
 62
     5
420
      255
176
     1
290
     0
176
     1
 90
       50
176
     1
 90
       50
176
     1
 90
       50
176
     1
290
     0
176
     1
 90
       50
176
     1
 62
   256
176
     0
 40
1.0
176
     0
 90
        2
176
     1
  1
strokes_ogs.tif
176
     1
290
     0
176
     1
 40
1.0
176
     1
 40
1.0
176
     1
  0
VISUALSTYLE
  5
32
102
{ACAD_REACTORS
330
2A
102
}
330
2A
100
AcDbVisualStyle
  2
Basic
 70
     7
177
     3
291
     1
 70
    58
 90
        1
176
     1
 90
        0
176
     1
 90
        1
176
     1
 90
        0
176
     1
 40
0.6
176
     1
 40
30.0
176
     1
 62
     7
420
 16777215
176
     1
 90
        0
176
     1
 90
        4
176
     1
 62
     7
176
     1
 62
   257
176
     1
 90
        1
176
     1
 90
        1
176
     1
 40
1.0
176
     1
 90
        8
176
     1
 62
     7
176
     1
 40
1.0
176
     1
 90
        1
176
     1
 90
        6
176
     1
 90
        2
176
     1
 62
     7
176
     1
 90
        5
176
     1
 90
        0
176
     1
 90
        0
176
     1
290
     0
176
     1
 90
        1
176
     1
 40
0.0
176
     1
 90
        0
176
     1
290
     0
176
     1
290
     1
176
     1
290
     1
176
     1
290
     0
176
     1
290
     0
176
     1
290
     0
176
     1
290
     0
176
     1
290
     0
176
     1
290
     0
176
     1
 90
       50
176
     1
 40
0.0
176
     1
 40
1.0
176
     1
 90
        0
176
     1
 62
    18
420
        0
176
     1
 90
       50
176
     1
 90
        3
176
     1
 62
     5
420
      255
176
     1
290
     0
176
     1
 90
       50
176
     1
 90
       50
176
     1
 90
       50
176
     1
290
     0
176
     1
 90
       50
176
     1
 62
   256
176
     0
 40
1.0
176
     0
 90
        2
176
     1
  1
strokes_ogs.tif
176
     1
290
     0
176
     1
 40
1.0
176
     1
 40
1.0
176
     1
  0
VISUALSTYLE
  5
36
102
{ACAD_REACTORS
330
2A
102
}
330
2A
100
AcDbVisualStyle
  2
Brighten
 70
    12
177
     3
291
     1
 70
    58
 90
        2
176
     1
 90
        2
176
     1
 90
        0
176
     1
 90
        0
176
     1
 40
0.6
176
     1
 40
30.0
176
     1
 62
     7
420
 16777215
176
     1
 90
        1
176
     1
 90
        4
176
     1
 62
     7
176
     1
 62
   257
176
     1
 90
        1
176
     1
 90
        1
176
     1
 40
1.0
176
     1
 90
        8
176
     1
 62
     7
176
     1
 40
1.0
176
     1
 90
        1
176
     1
 90
        6
176
     1
 90
        2
176
     1
 62
     7
176
     1
 90
        5
176
     1
 90
        0
176
     1
 90
        0
176
     1
290
     0
176
     1
 90
        1
176
     1
 40
50.0
176
     1
 90
        0
176
     1
290
     0
176
     1
290
     1
176
     1
290
     1
176
     1
290
     0
176
     1
290
     0
176
     1
290
     0
176
     1
290
     0
176
     1
290
     0
176
     1
290
     0
176
     1
 90
       50
176
     1
 40
0.0
176
     1
 40
1.0
176
     1
 90
        0
176
     1
 62
    18
420
        0
176
     1
 90
       50
176
     1
 90
        3
176
     1
 62
     5
420
      255
176
     1
290
     0
176
     1
 90
       50
176
     1
 90
       50
176
     1
 90
       50
176
     1
290
     0
176
     1
 90
       50
176
     1
 62
   256
176
     0
 40
1.0
176
     0
 90
        2
176
     1
  1
strokes_ogs.tif
176
     1
290
     0
176
     1
 40
1.0
176
     1
 40
1.0
176
     1
  0
VISUALSTYLE
  5
3A
102
{ACAD_REACTORS
330
2A
102
}
330
2A
100
AcDbVisualStyle
  2
ColorChange
 70
    16
177
     3
291
     1
 70
    58
 90
        2
176
     1
 90
        2
176
     1
 90
        3
176
     1
 90
        0
176
     1
 40
0.6
176
     1
 40
30.0
176
     1
 62
     8
420
  8421504
176
     1
 90
        1
176
     1
 90
        4
176
     1
 62
     7
176
     1
 62
   257
176
     1
 90
        1
176
     1
 90
        1
176
     1
 40
1.0
176
     1
 90
        8
176
     1
 62
     8
420
  8421504
176
     1
 40
1.0
176
     1
 90
        1
176
     1
 90
        6
176
     1
 90
        2
176
     1
 62
     7
176
     1
 90
        5
176
     1
 90
        0
176
     1
 90
        0
176
     1
290
     0
176
     1
 90
        1
176
     1
 40
0.0
176
     1
 90
        0
176
     1
290
     0
176
     1
290
     1
176
     1
290
     1
176
     1
290
     0
176
     1
290
     0
176
     1
290
     0
176
     1
290
     0
176
     1
290
     0
176
     1
290
     0
176
     1
 90
       50
176
     1
 40
0.0
176
     1
 40
1.0
176
     1
 90
        0
176
     1
 62
    18
420
        0
176
     1
 90
       50
176
     1
 90
        3
176
     1
 62
     5
420
      255
176
     1
290
     0
176
     1
 90
       50
176
     1
 90
       50
176
     1
 90
       50
176
     1
290
     0
176
     1
 90
       50
176
     1
 62
   256
176
     0
 40
1.0
176
     0
 90
        2
176
     1
  1
strokes_ogs.tif
176
     1
290
     0
176
     1
 40
1.0
176
     1
 40
1.0
176
     1
  0
VISUALSTYLE
  5
34
102
{ACAD_REACTORS
330
2A
102
}
330
2A
100
AcDbVisualStyle
  2
Conceptual
 70
     9
177
     3
291
     0
 70
    58
 90
        3
176
     1
 90
        2
176
     1
 90
        0
176
     1
 90
        0
176
     1
 40
0.6
176
     1
 40
30.0
176
     1
 62
     7
420
 16777215
176
     1
 90
        2
176
     1
 90
        2
176
     1
 62
     7
176
     1
 62
   257
176
     1
 90
        1
176
     1
 90
        1
176
     1
 40
179.0
176
     1
 90
        8
176
     1
 62
     7
176
     1
 40
1.0
176
     1
 90
        1
176
     1
 90
        6
176
     1
 90
        2
176
     1
 62
     7
176
     1
 90
        3
176
     1
 90
        0
176
     1
 90
        0
176
     1
290
     0
176
     1
 90
        1
176
     1
 40
0.0
176
     1
 90
        0
176
     1
290
     0
176
     1
290
     1
176
     1
290
     1
176
     1
290
     0
176
     1
290
     0
176
     1
290
     0
176
     1
290
     0
176
     1
290
     0
176
     1
290
     0
176
     1
 90
       50
176
     1
 40
0.0
176
     1
 40
1.0
176
     1
 90
        0
176
     1
 62
    18
420
        0
176
     1
 90
       50
176
     1
 90
        3
176
     1
 62
     5
420
      255
176
     1
290
     0
176
     1
 90
       50
176
     1
 90
       50
176
     1
 90
       50
176
     1
290
     0
176
     1
 90
       50
176
     1
 62
   256
176
     0
 40
1.0
176
     0
 90
        2
176
     1
  1
strokes_ogs.tif
176
     1
290
     0
176
     1
 40
1.0
176
     1
 40
1.0
176
     1
  0
VISUALSTYLE
  5
35
102
{ACAD_REACTORS
330
2A
102
}
330
2A
100
AcDbVisualStyle
  2
Dim
 70
    11
177
     3
291
     1
 70
    58
 90
        2
176
     1
 90
        2
176
     1
 90
        0
176
     1
 90
        0
176
     1
 40
0.6
176
     1
 40
30.0
176
     1
 62
     7
420
 16777215
176
     1
 90
        1
176
     1
 90
        4
176
     1
 62
     7
176
     1
 62
   257
176
     1
 90
        1
176
     1
 90
        1
176
     1
 40
1.0
176
     1
 90
        8
176
     1
 62
     7
176
     1
 40
1.0
176
     1
 90
        1
176
     1
 90
        6
176
     1
 90
        2
176
     1
 62
     7
176
     1
 90
        5
176
     1
 90
        0
176
     1
 90
        0
176
     1
290
     0
176
     1
 90
        1
176
     1
 40
-50.0
176
     1
 90
        0
176
     1
290
     0
176
     1
290
     1
176
     1
290
     1
176
     1
290
     0
176
     1
290
     0
176
     1
290
     0
176
     1
290
     0
176
     1
290
     0
176
     1
290
     0
176
     1
 90
       50
176
     1
 40
0.0
176
     1
 40
1.0
176
     1
 90
        0
176
     1
 62
    18
420
        0
176
     1
 90
       50
176
     1
 90
        3
176
     1
 62
     5
420
      255
176
     1
290
     0
176
     1
 90
       50
176
     1
 90
       50
176
     1
 90
       50
176
     1
290
     0
176
     1
 90
       50
176
     1
 62
   256
176
     0
 40
1.0
176
     0
 90
        2
176
     1
  1
strokes_ogs.tif
176
     1
290
     0
176
     1
 40
1.0
176
     1
 40
1.0
176
     1
  0
VISUALSTYLE
  5
3D
102
{ACAD_REACTORS
330
2A
102
}
330
2A
100
AcDbVisualStyle
  2
EdgeColorOff
 70
    22
177
     3
291
     1
 70
    58
 90
        2
176
     0
 90
        2
176
     0
 90
        0
176
     0
 90
        0
176
     0
 40
0.6
176
     0
 40
30.0
176
     0
 62
     7
420
 16777215
176
     0
 90
        1
176
     0
 90
        4
176
     0
 62
     7
176
     0
 62
   257
176
     0
 90
        1
176
     0
 90
        1
176
     0
 40
1.0
176
     0
 90
        8
176
     2
 62
     7
176
     0
 40
1.0
176
     0
 90
        1
176
     0
 90
        6
176
     0
 90
        2
176
     0
 62
     7
176
     0
 90
        5
176
     0
 90
        0
176
     0
 90
        0
176
     0
290
     0
176
     0
 90
        1
176
     0
 40
0.0
176
     0
 90
        0
176
     0
290
     0
176
     0
290
     1
176
     0
290
     1
176
     0
290
     0
176
     0
290
     0
176
     0
290
     0
176
     0
290
     0
176
     0
290
     0
176
     0
290
     0
176
     0
 90
       50
176
     0
 40
0.0
176
     0
 40
1.0
176
     0
 90
        0
176
     0
 62
    18
420
        0
176
     0
 90
       50
176
     0
 90
        3
176
     0
 62
     5
420
      255
176
     0
290
     0
176
     0
 90
       50
176
     0
 90
       50
176
     0
 90
       50
176
     0
290
     0
176
     0
 90
       50
176
     0
 62
   256
176
     0
 40
1.0
176
     0
 90
        2
176
     0
  1
strokes_ogs.tif
176
     0
290
     0
176
     0
 40
1.0
176
     0
 40
1.0
176
     0
  0
VISUALSTYLE
  5
39
102
{ACAD_REACTORS
330
2A
102
}
330
2A
100
AcDbVisualStyle
  2
Facepattern
 70
    15
177
     3
291
     1
 70
    58
 90
        2
176
     1
 90
        2
176
     1
 90
        0
176
     1
 90
        0
176
     1
 40
0.6
176
     1
 40
30.0
176
     1
 62
     7
420
 16777215
176
     1
 90
        1
176
     1
 90
        4
176
     1
 62
     7
176
     1
 62
   257
176
     1
 90
        1
176
     1
 90
        1
176
     1
 40
1.0
176
     1
 90
        8
176
     1
 62
     7
176
     1
 40
1.0
176
     1
 90
        1
176
     1
 90
        6
176
     1
 90
        2
176
     1
 62
     7
176
     1
 90
        5
176
     1
 90
        0
176
     1
 90
        0
176
     1
290
     0
176
     1
 90
        1
176
     1
 40
0.0
176
     1
 90
        0
176
     1
290
     0
176
     1
290
     1
176
     1
290
     1
176
     1
290
     0
176
     1
290
     0
176
     1
290
     0
176
     1
290
     0
176
     1
290
     0
176
     1
290
     0
176
     1
 90
       50
176
     1
 40
0.0
176
     1
 40
1.0
176
     1
 90
        0
176
     1
 62
    18
420
        0
176
     1
 90
       50
176
     1
 90
        3
176
     1
 62
     5
420
      255
176
     1
290
     0
176
     1
 90
       50
176
     1
 90
       50
176
     1
 90
       50
176
     1
290
     0
176
     1
 90
       50
176
     1
 62
   256
176
     0
 40
1.0
176
     0
 90
        2
176
     1
  1
strokes_ogs.tif
176
     1
290
     0
176
     1
 40
1.0
176
     1
 40
1.0
176
     1
  0
VISUALSTYLE
  5
2B
102
{ACAD_REACTORS
330
2A
102
}
330
2A
100
AcDbVisualStyle
  2
Flat
 70
     0
177
     3
291
     1
 70
    58
 90
        2
176
     1
 90
        1
176
     1
 90
        1
176
     1
 90
        2
176
     1
 40
0.6
176
     1
 40
30.0
176
     1
 62
     7
420
 16777215
176
     1
 90
        0
176
     1
 90
        0
176
     1
 62
     7
176
     1
 62
   257
176
     1
 90
        1
176
     1
 90
        1
176
     1
 40
1.0
176
     1
 90
        8
176
     1
 62
     7
176
     1
 40
1.0
176
     1
 90
        1
176
     1
 90
        6
176
     1
 90
        2
176
     1
 62
     7
176
     1
 90
        5
176
     1
 90
        0
176
     1
 90
        0
176
     1
290
     0
176
     1
 90
       13
176
     1
 40
0.0
176
     1
 90
        0
176
     1
290
     0
176
     1
290
     1
176
     1
290
     1
176
     1
290
     0
176
     1
290
     0
176
     1
290
     0
176
     1
290
     0
176
     1
290
     0
176
     1
290
     0
176
     1
 90
       50
176
     1
 40
0.0
176
     1
 40
1.0
176
     1
 90
        0
176
     1
 62
    18
420
        0
176
     1
 90
       50
176
     1
 90
        3
176
     1
 62
     5
420
      255
176
     1
290
     0
176
     1
 90
       50
176
     1
 90
       50
176
     1
 90
       50
176
     1
290
     0
176
     1
 90
       50
176
     1
 62
   256
176
     0
 40
1.0
176
     0
 90
        2
176
     1
  1
strokes_ogs.tif
176
     1
290
     0
176
     1
 40
1.0
176
     1
 40
1.0
176
     1
  0
VISUALSTYLE
  5
2C
102
{ACAD_REACTORS
330
2A
102
}
330
2A
100
AcDbVisualStyle
  2
FlatWithEdges
 70
     1
177
     3
291
     1
 70
    58
 90
        2
176
     1
 90
        1
176
     1
 90
        1
176
     1
 90
        2
176
     1
 40
0.6
176
     1
 40
30.0
176
     1
 62
     7
420
 16777215
176
     1
 90
        1
176
     1
 90
        0
176
     1
 62
     7
176
     1
 62
   257
176
     1
 90
        1
176
     1
 90
        1
176
     1
 40
1.0
176
     1
 90
        0
176
     1
 62
   257
176
     1
 40
1.0
176
     1
 90
        1
176
     1
 90
        6
176
     1
 90
        2
176
     1
 62
     7
176
     1
 90
        5
176
     1
 90
        0
176
     1
 90
        0
176
     1
290
     0
176
     1
 90
       13
176
     1
 40
0.0
176
     1
 90
        0
176
     1
290
     0
176
     1
290
     1
176
     1
290
     1
176
     1
290
     0
176
     1
290
     0
176
     1
290
     0
176
     1
290
     0
176
     1
290
     0
176
     1
290
     0
176
     1
 90
       50
176
     1
 40
0.0
176
     1
 40
1.0
176
     1
 90
        0
176
     1
 62
    18
420
        0
176
     1
 90
       50
176
     1
 90
        3
176
     1
 62
     5
420
      255
176
     1
290
     0
176
     1
 90
       50
176
     1
 90
       50
176
     1
 90
       50
176
     1
290
     0
176
     1
 90
       50
176
     1
 62
   256
176
     0
 40
1.0
176
     0
 90
        2
176
     1
  1
strokes_ogs.tif
176
     1
290
     0
176
     1
 40
1.0
176
     1
 40
1.0
176
     1
  0
VISUALSTYLE
  5
2D
102
{ACAD_REACTORS
330
2A
102
}
330
2A
100
AcDbVisualStyle
  2
Gouraud
 70
     2
177
     3
291
     1
 70
    58
 90
        2
176
     1
 90
        2
176
     1
 90
        1
176
     1
 90
        2
176
     1
 40
0.6
176
     1
 40
30.0
176
     1
 62
     7
420
 16777215
176
     1
 90
        0
176
     1
 90
        0
176
     1
 62
     7
176
     1
 62
   257
176
     1
 90
        1
176
     1
 90
        1
176
     1
 40
1.0
176
     1
 90
        0
176
     1
 62
     7
176
     1
 40
1.0
176
     1
 90
        1
176
     1
 90
        6
176
     1
 90
        2
176
     1
 62
     7
176
     1
 90
        5
176
     1
 90
        0
176
     1
 90
        0
176
     1
290
     0
176
     1
 90
       13
176
     1
 40
0.0
176
     1
 90
        0
176
     1
290
     0
176
     1
290
     1
176
     1
290
     1
176
     1
290
     0
176
     1
290
     0
176
     1
290
     0
176
     1
290
     0
176
     1
290
     0
176
     1
290
     0
176
     1
 90
       50
176
     1
 40
0.0
176
     1
 40
1.0
176
     1
 90
        0
176
     1
 62
    18
420
        0
176
     1
 90
       50
176
     1
 90
        3
176
     1
 62
     5
420
      255
176
     1
290
     0
176
     1
 90
       50
176
     1
 90
       50
176
     1
 90
       50
176
     1
290
     0
176
     1
 90
       50
176
     1
 62
   256
176
     0
 40
1.0
176
     0
 90
        2
176
     1
  1
strokes_ogs.tif
176
     1
290
     0
176
     1
 40
1.0
176
     1
 40
1.0
176
     1
  0
VISUALSTYLE
  5
2E
102
{ACAD_REACTORS
330
2A
102
}
330
2A
100
AcDbVisualStyle
  2
GouraudWithEdges
 70
     3
177
     3
291
     1
 70
    58
 90
        2
176
     1
 90
        2
176
     1
 90
        1
176
     1
 90
        2
176
     1
 40
0.6
176
     1
 40
30.0
176
     1
 62
     7
420
 16777215
176
     1
 90
        1
176
     1
 90
        0
176
     1
 62
     7
176
     1
 62
   257
176
     1
 90
        1
176
     1
 90
        1
176
     1
 40
1.0
176
     1
 90
        0
176
     1
 62
   257
176
     1
 40
1.0
176
     1
 90
        1
176
     1
 90
        6
176
     1
 90
        2
176
     1
 62
     7
176
     1
 90
        5
176
     1
 90
        0
176
     1
 90
        0
176
     1
290
     0
176
     1
 90
       13
176
     1
 40
0.0
176
     1
 90
        0
176
     1
290
     0
176
     1
290
     1
176
     1
290
     1
176
     1
290
     0
176
     1
290
     0
176
     1
290
     0
176
     1
290
     0
176
     1
290
     0
176
     1
290
     0
176
     1
 90
       50
176
     1
 40
0.0
176
     1
 40
1.0
176
     1
 90
        0
176
     1
 62
    18
420
        0
176
     1
 90
       50
176
     1
 90
        3
176
     1
 62
     5
420
      255
176
     1
290
     0
176
     1
 90
       50
176
     1
 90
       50
176
     1
 90
       50
176
     1
290
     0
176
     1
 90
       50
176
     1
 62
   256
176
     0
 40
1.0
176
     0
 90
        2
176
     1
  1
strokes_ogs.tif
176
     1
290
     0
176
     1
 40
1.0
176
     1
 40
1.0
176
     1
  0
VISUALSTYLE
  5
31
102
{ACAD_REACTORS
330
2A
102
}
330
2A
100
AcDbVisualStyle
  2
Hidden
 70
     6
177
     3
291
     0
 70
    58
 90
        1
176
     1
 90
        2
176
     1
 90
        2
176
     1
 90
        0
176
     1
 40
0.6
176
     1
 40
30.0
176
     1
 62
     7
420
 16777215
176
     1
 90
        2
176
     1
 90
        2
176
     1
 62
     7
176
     1
 62
   257
176
     1
 90
        2
176
     1
 90
        1
176
     1
 40
40.0
176
     1
 90
        0
176
     1
 62
   257
176
     1
 40
1.0
176
     1
 90
        1
176
     1
 90
        6
176
     1
 90
        2
176
     1
 62
     7
176
     1
 90
        3
176
     1
 90
        0
176
     1
 90
        0
176
     1
290
     0
176
     1
 90
        1
176
     1
 40
0.0
176
     1
 90
        0
176
     1
290
     0
176
     1
290
     1
176
     1
290
     1
176
     1
290
     0
176
     1
290
     0
176
     1
290
     0
176
     1
290
     0
176
     1
290
     0
176
     1
290
     0
176
     1
 90
       50
176
     1
 40
0.0
176
     1
 40
1.0
176
     1
 90
        0
176
     1
 62
    18
420
        0
176
     1
 90
       50
176
     1
 90
        3
176
     1
 62
     5
420
      255
176
     1
290
     0
176
     1
 90
       50
176
     1
 90
       50
176
     1
 90
       50
176
     1
290
     0
176
     1
 90
       50
176
     1
 62
   256
176
     0
 40
1.0
176
     0
 90
        2
176
     1
  1
strokes_ogs.tif
176
     1
290
     0
176
     1
 40
1.0
176
     1
 40
1.0
176
     1
  0
VISUALSTYLE
  5
3B
102
{ACAD_REACTORS
330
2A
102
}
330
2A
100
AcDbVisualStyle
  2
JitterOff
 70
    20
177
     3
291
     1
 70
    58
 90
        2
176
     0
 90
        2
176
     0
 90
        0
176
     0
 90
        0
176
     0
 40
0.6
176
     0
 40
30.0
176
     0
 62
     7
420
 16777215
176
     0
 90
        1
176
     0
 90
        4
176
     0
 62
     7
176
     0
 62
   257
176
     0
 90
        1
176
     0
 90
        1
176
     0
 40
1.0
176
     0
 90
       10
176
     2
 62
     7
176
     0
 40
1.0
176
     0
 90
        1
176
     0
 90
        6
176
     0
 90
        2
176
     0
 62
     7
176
     0
 90
        5
176
     0
 90
        0
176
     0
 90
        0
176
     0
290
     0
176
     0
 90
        1
176
     0
 40
0.0
176
     0
 90
        0
176
     0
290
     0
176
     0
290
     1
176
     0
290
     1
176
     0
290
     0
176
     0
290
     0
176
     0
290
     0
176
     0
290
     0
176
     0
290
     0
176
     0
290
     0
176
     0
 90
       50
176
     0
 40
0.0
176
     0
 40
1.0
176
     0
 90
        0
176
     0
 62
    18
420
        0
176
     0
 90
       50
176
     0
 90
        3
176
     0
 62
     5
420
      255
176
     0
290
     0
176
     0
 90
       50
176
     0
 90
       50
176
     0
 90
       50
176
     0
290
     0
176
     0
 90
       50
176
     0
 62
   256
176
     0
 40
1.0
176
     0
 90
        2
176
     0
  1
strokes_ogs.tif
176
     0
290
     0
176
     0
 40
1.0
176
     0
 40
1.0
176
     0
  0
VISUALSTYLE
  5
38
102
{ACAD_REACTORS
330
2A
102
}
330
2A
100
AcDbVisualStyle
  2
Linepattern
 70
    14
177
     3
291
     1
 70
    58
 90
        2
176
     1
 90
        2
176
     1
 90
        0
176
     1
 90
        0
176
     1
 40
0.6
176
     1
 40
30.0
176
     1
 62
     7
420
 16777215
176
     1
 90
        1
176
     1
 90
        4
176
     1
 62
     7
176
     1
 62
   257
176
     1
 90
        7
176
     1
 90
        7
176
     1
 40
1.0
176
     1
 90
        8
176
     1
 62
     7
176
     1
 40
1.0
176
     1
 90
        1
176
     1
 90
        6
176
     1
 90
        2
176
     1
 62
     7
176
     1
 90
        5
176
     1
 90
        0
176
     1
 90
        0
176
     1
290
     0
176
     1
 90
        1
176
     1
 40
0.0
176
     1
 90
        0
176
     1
290
     0
176
     1
290
     1
176
     1
290
     1
176
     1
290
     0
176
     1
290
     0
176
     1
290
     0
176
     1
290
     0
176
     1
290
     0
176
     1
290
     0
176
     1
 90
       50
176
     1
 40
0.0
176
     1
 40
1.0
176
     1
 90
        0
176
     1
 62
    18
420
        0
176
     1
 90
       50
176
     1
 90
        3
176
     1
 62
     5
420
      255
176
     1
290
     0
176
     1
 90
       50
176
     1
 90
       50
176
     1
 90
       50
176
     1
290
     0
176
     1
 90
       50
176
     1
 62
   256
176
     0
 40
1.0
176
     0
 90
        2
176
     1
  1
strokes_ogs.tif
176
     1
290
     0
176
     1
 40
1.0
176
     1
 40
1.0
176
     1
  0
VISUALSTYLE
  5
3C
102
{ACAD_REACTORS
330
2A
102
}
330
2A
100
AcDbVisualStyle
  2
OverhangOff
 70
    21
177
     3
291
     1
 70
    58
 90
        2
176
     0
 90
        2
176
     0
 90
        0
176
     0
 90
        0
176
     0
 40
0.6
176
     0
 40
30.0
176
     0
 62
     7
420
 16777215
176
     0
 90
        1
176
     0
 90
        4
176
     0
 62
     7
176
     0
 62
   257
176
     0
 90
        1
176
     0
 90
        1
176
     0
 40
1.0
176
     0
 90
        9
176
     2
 62
     7
176
     0
 40
1.0
176
     0
 90
        1
176
     0
 90
        6
176
     0
 90
        2
176
     0
 62
     7
176
     0
 90
        5
176
     0
 90
        0
176
     0
 90
        0
176
     0
290
     0
176
     0
 90
        1
176
     0
 40
0.0
176
     0
 90
        0
176
     0
290
     0
176
     0
290
     1
176
     0
290
     1
176
     0
290
     0
176
     0
290
     0
176
     0
290
     0
176
     0
290
     0
176
     0
290
     0
176
     0
290
     0
176
     0
 90
       50
176
     0
 40
0.0
176
     0
 40
1.0
176
     0
 90
        0
176
     0
 62
    18
420
        0
176
     0
 90
       50
176
     0
 90
        3
176
     0
 62
     5
420
      255
176
     0
290
     0
176
     0
 90
       50
176
     0
 90
       50
176
     0
 90
       50
176
     0
290
     0
176
     0
 90
       50
176
     0
 62
   256
176
     0
 40
1.0
176
     0
 90
        2
176
     0
  1
strokes_ogs.tif
176
     0
290
     0
176
     0
 40
1.0
176
     0
 40
1.0
176
     0
  0
VISUALSTYLE
  5
33
102
{ACAD_REACTORS
330
2A
102
}
330
2A
100
AcDbVisualStyle
  2
Realistic
 70
     8
177
     3
291
     0
 70
    58
 90
        2
176
     1
 90
        3
176
     1
 90
        0
176
     1
 90
        2
176
     1
 40
0.6
176
     1
 40
30.0
176
     1
 62
     7
420
 16777215
176
     1
 90
        0
176
     1
 90
        0
176
     1
 62
     7
176
     1
 62
   257
176
     1
 90
        1
176
     1
 90
        1
176
     1
 40
1.0
176
     1
 90
        8
176
     1
 62
   257
176
     1
 40
1.0
176
     1
 90
        1
176
     1
 90
        6
176
     1
 90
        2
176
     1
 62
     7
176
     1
 90
        3
176
     1
 90
        0
176
     1
 90
        0
176
     1
290
     0
176
     1
 90
       13
176
     1
 40
0.0
176
     1
 90
        0
176
     1
290
     0
176
     1
290
     1
176
     1
290
     1
176
     1
290
     0
176
     1
290
     0
176
     1
290
     0
176
     1
290
     0
176
     1
290
     0
176
     1
290
     0
176
     1
 90
       50
176
     1
 40
0.0
176
     1
 40
1.0
176
     1
 90
        0
176
     1
 62
    18
420
        0
176
     1
 90
       50
176
     1
 90
        3
176
     1
 62
     5
420
      255
176
     1
290
     0
176
     1
 90
       50
176
     1
 90
       50
176
     1
 90
       50
176
     1
290
     0
176
     1
 90
       50
176
     1
 62
   256
176
     0
 40
1.0
176
     0
 90
        2
176
     1
  1
strokes_ogs.tif
176
     1
290
     0
176
     1
 40
1.0
176
     1
 40
1.0
176
     1
  0
VISUALSTYLE
  5
42
102
{ACAD_REACTORS
330
2A
102
}
330
2A
100
AcDbVisualStyle
  2
Shaded
 70
    27
177
     3
291
     0
 70
    58
 90
        2
176
     1
 90
        2
176
     1
 90
        1
176
     1
 90
        2
176
     1
 40
0.6
176
     1
 40
30.0
176
     1
 62
     7
420
 16777215
176
     1
 90
        0
176
     1
 90
        4
176
     1
 62
     7
176
     1
 62
   257
176
     1
 90
        1
176
     1
 90
        1
176
     1
 40
1.0
176
     1
 90
        8
176
     1
 62
   257
176
     1
 40
1.0
176
     1
 90
        1
176
     1
 90
        6
176
     1
 90
        2
176
     1
 62
     8
420
  7895160
176
     1
 90
        3
176
     1
 90
        0
176
     1
 90
        0
176
     1
290
     0
176
     1
 90
        5
176
     1
 40
0.0
176
     1
 90
        0
176
     1
290
     0
176
     1
290
     1
176
     1
290
     1
176
     1
290
     0
176
     1
290
     0
176
     1
290
     0
176
     1
290
     0
176
     1
290
     0
176
     1
290
     0
176
     1
 90
       50
176
     1
 40
0.0
176
     1
 40
1.0
176
     1
 90
        0
176
     1
 62
    18
420
        0
176
     1
 90
       50
176
     1
 90
        3
176
     1
 62
     5
420
      255
176
     1
290
     0
176
     1
 90
       50
176
     1
 90
       50
176
     1
 90
       50
176
     1
290
     0
176
     1
 90
       50
176
     1
 62
   256
176
     0
 40
1.0
176
     0
 90
        2
176
     1
  1
strokes_ogs.tif
176
     1
290
     0
176
     1
 40
1.0
176
     1
 40
1.0
176
     1
  0
VISUALSTYLE
  5
41
102
{ACAD_REACTORS
330
2A
102
}
330
2A
100
AcDbVisualStyle
  2
Shaded with edges
 70
    26
177
     3
291
     0
 70
    58
 90
        2
176
     1
 90
        2
176
     1
 90
        1
176
     1
 90
        2
176
     1
 40
0.6
176
     1
 40
30.0
176
     1
 62
     7
420
 16777215
176
     1
 90
        1
176
     1
 90
       10
176
     1
 62
     7
176
     1
 62
   257
176
     1
 90
        2
176
     1
 90
        1
176
     1
 40
1.0
176
     1
 90
        8
176
     1
 62
   257
176
     1
 40
1.0
176
     1
 90
        1
176
     1
 90
        6
176
     1
 90
        2
176
     1
 62
     7
176
     1
 90
        3
176
     1
 90
        0
176
     1
 90
        0
176
     1
290
     0
176
     1
 90
        5
176
     1
 40
0.0
176
     1
 90
        0
176
     1
290
     0
176
     1
290
     1
176
     1
290
     1
176
     1
290
     0
176
     1
290
     0
176
     1
290
     0
176
     1
290
     0
176
     1
290
     0
176
     1
290
     0
176
     1
 90
       50
176
     1
 40
0.0
176
     1
 40
1.0
176
     1
 90
        0
176
     1
 62
    18
420
        0
176
     1
 90
       50
176
     1
 90
        3
176
     1
 62
     5
420
      255
176
     1
290
     0
176
     1
 90
       50
176
     1
 90
       50
176
     1
 90
       50
176
     1
290
     0
176
     1
 90
       50
176
     1
 62
   256
176
     0
 40
1.0
176
     0
 90
        2
176
     1
  1
strokes_ogs.tif
176
     1
290
     0
176
     1
 40
1.0
176
     1
 40
1.0
176
     1
  0
VISUALSTYLE
  5
3E
102
{ACAD_REACTORS
330
2A
102
}
330
2A
100
AcDbVisualStyle
  2
Shades of Gray
 70
    23
177
     3
291
     0
 70
    58
 90
        2
176
     1
 90
        2
176
     1
 90
        3
176
     1
 90
        0
176
     1
 40
0.6
176
     1
 40
30.0
176
     1
 62
     7
420
 16777215
176
     1
 90
        2
176
     1
 90
        2
176
     1
 62
     7
176
     1
 62
     7
176
     1
 90
        1
176
     1
 90
        1
176
     1
 40
40.0
176
     1
 90
        8
176
     1
 62
     7
176
     1
 40
1.0
176
     1
 90
        1
176
     1
 90
        6
176
     1
 90
        2
176
     1
 62
     7
176
     1
 90
        3
176
     1
 90
        0
176
     1
 90
        0
176
     1
290
     0
176
     1
 90
        1
176
     1
 40
0.0
176
     1
 90
        0
176
     1
290
     0
176
     1
290
     1
176
     1
290
     1
176
     1
290
     0
176
     1
290
     0
176
     1
290
     0
176
     1
290
     0
176
     1
290
     0
176
     1
290
     0
176
     1
 90
       50
176
     1
 40
0.0
176
     1
 40
1.0
176
     1
 90
        0
176
     1
 62
    18
420
        0
176
     1
 90
       50
176
     1
 90
        3
176
     1
 62
     5
420
      255
176
     1
290
     0
176
     1
 90
       50
176
     1
 90
       50
176
     1
 90
       50
176
     1
290
     0
176
     1
 90
       50
176
     1
 62
   256
176
     0
 40
1.0
176
     0
 90
        2
176
     1
  1
strokes_ogs.tif
176
     1
290
     0
176
     1
 40
1.0
176
     1
 40
1.0
176
     1
  0
VISUALSTYLE
  5
3F
102
{ACAD_REACTORS
330
2A
102
}
330
2A
100
AcDbVisualStyle
  2
Sketchy
 70
    24
177
     3
291
     0
 70
    58
 90
        1
176
     1
 90
        2
176
     1
 90
        2
176
     1
 90
        0
176
     1
 40
0.6
176
     1
 40
30.0
176
     1
 62
     7
420
 16777215
176
     1
 90
        2
176
     1
 90
        2
176
     1
 62
     7
176
     1
 62
     7
176
     1
 90
        1
176
     1
 90
        1
176
     1
 40
40.0
176
     1
 90
       11
176
     1
 62
     7
176
     1
 40
1.0
176
     1
 90
        1
176
     1
 90
        6
176
     1
 90
        2
176
     1
 62
     7
176
     1
 90
        6
176
     1
 90
        0
176
     1
 90
        0
176
     1
290
     0
176
     1
 90
        1
176
     1
 40
0.0
176
     1
 90
        0
176
     1
290
     0
176
     1
290
     1
176
     1
290
     1
176
     1
290
     0
176
     1
290
     0
176
     1
290
     0
176
     1
290
     0
176
     1
290
     0
176
     1
290
     0
176
     1
 90
       50
176
     1
 40
0.0
176
     1
 40
1.0
176
     1
 90
        0
176
     1
 62
    18
420
        0
176
     1
 90
       50
176
     1
 90
        3
176
     1
 62
     5
420
      255
176
     1
290
     0
176
     1
 90
       50
176
     1
 90
       50
176
     1
 90
       50
176
     1
290
     0
176
     1
 90
       50
176
     1
 62
   256
176
     0
 40
1.0
176
     0
 90
        2
176
     1
  1
strokes_ogs.tif
176
     1
290
     0
176
     1
 40
1.0
176
     1
 40
1.0
176
     1
  0
VISUALSTYLE
  5
37
102
{ACAD_REACTORS
330
2A
102
}
330
2A
100
AcDbVisualStyle
  2
Thicken
 70
    13
177
     3
291
     1
 70
    58
 90
        2
176
     1
 90
        2
176
     1
 90
        0
176
     1
 90
        0
176
     1
 40
0.6
176
     1
 40
30.0
176
     1
 62
     7
420
 16777215
176
     1
 90
        1
176
     1
 90
        4
176
     1
 62
     7
176
     1
 62
   257
176
     1
 90
        1
176
     1
 90
        1
176
     1
 40
1.0
176
     1
 90
       12
176
     1
 62
     7
176
     1
 40
1.0
176
     1
 90
        1
176
     1
 90
        6
176
     1
 90
        2
176
     1
 62
     7
176
     1
 90
        5
176
     1
 90
        0
176
     1
 90
        0
176
     1
290
     0
176
     1
 90
        1
176
     1
 40
0.0
176
     1
 90
        0
176
     1
290
     0
176
     1
290
     1
176
     1
290
     1
176
     1
290
     0
176
     1
290
     0
176
     1
290
     0
176
     1
290
     0
176
     1
290
     0
176
     1
290
     0
176
     1
 90
       50
176
     1
 40
0.0
176
     1
 40
1.0
176
     1
 90
        0
176
     1
 62
    18
420
        0
176
     1
 90
       50
176
     1
 90
        3
176
     1
 62
     5
420
      255
176
     1
290
     0
176
     1
 90
       50
176
     1
 90
       50
176
     1
 90
       50
176
     1
290
     0
176
     1
 90
       50
176
     1
 62
   256
176
     0
 40
1.0
176
     0
 90
        2
176
     1
  1
strokes_ogs.tif
176
     1
290
     0
176
     1
 40
1.0
176
     1
 40
1.0
176
     1
  0
VISUALSTYLE
  5
30
102
{ACAD_REACTORS
330
2A
102
}
330
2A
100
AcDbVisualStyle
  2
Wireframe
 70
     5
177
     3
291
     0
 70
    58
 90
        0
176
     1
 90
        2
176
     1
 90
        0
176
     1
 90
        0
176
     1
 40
0.6
176
     1
 40
30.0
176
     1
 62
     7
420
 16777215
176
     1
 90
        1
176
     1
 90
        4
176
     1
 62
     7
176
     1
 62
   257
176
     1
 90
        1
176
     1
 90
        1
176
     1
 40
1.0
176
     1
 90
        0
176
     1
 62
   257
176
     1
 40
1.0
176
     1
 90
        1
176
     1
 90
        6
176
     1
 90
        2
176
     1
 62
     7
176
     1
 90
        3
176
     1
 90
        0
176
     1
 90
        0
176
     1
290
     0
176
     1
 90
        1
176
     1
 40
0.0
176
     1
 90
        0
176
     1
290
     0
176
     1
290
     1
176
     1
290
     1
176
     1
290
     0
176
     1
290
     0
176
     1
290
     0
176
     1
290
     0
176
     1
290
     0
176
     1
290
     0
176
     1
 90
       50
176
     1
 40
0.0
176
     1
 40
1.0
176
     1
 90
        0
176
     1
 62
    18
420
        0
176
     1
 90
       50
176
     1
 90
        3
176
     1
 62
     5
420
      255
176
     1
290
     0
176
     1
 90
       50
176
     1
 90
       50
176
     1
 90
       50
176
     1
290
     0
176
     1
 90
       50
176
     1
 62
   256
176
     0
 40
1.0
176
     0
 90
        2
176
     1
  1
strokes_ogs.tif
176
     1
290
     0
176
     1
 40
1.0
176
     1
 40
1.0
176
     1
  0
VISUALSTYLE
  5
40
102
{ACAD_REACTORS
330
2A
102
}
330
2A
100
AcDbVisualStyle
  2
X-Ray
 70
    25
177
     3
291
     0
 70
    58
 90
        2
176
     1
 90
        2
176
     1
 90
        1
176
     1
 90
        1
176
     1
 40
0.5
176
     1
 40
30.0
176
     1
 62
     7
420
 16777215
176
     1
 90
        1
176
     1
 90
        0
176
     1
 62
     7
176
     1
 62
   257
176
     1
 90
        1
176
     1
 90
        1
176
     1
 40
1.0
176
     1
 90
        8
176
     1
 62
     7
176
     1
 40
1.0
176
     1
 90
        1
176
     1
 90
        6
176
     1
 90
        2
176
     1
 62
     7
176
     1
 90
        3
176
     1
 90
        0
176
     1
 90
        0
176
     1
290
     0
176
     1
 90
       13
176
     1
 40
0.0
176
     1
 90
        0
176
     1
290
     0
176
     1
290
     1
176
     1
290
     1
176
     1
290
     0
176
     1
290
     0
176
     1
290
     0
176
     1
290
     0
176
     1
290
     0
176
     1
290
     0
176
     1
 90
       50
176
     1
 40
0.0
176
     1
 40
1.0
176
     1
 90
        0
176
     1
 62
    18
420
        0
176
     1
 90
       50
176
     1
 90
        3
176
     1
 62
     5
420
      255
176
     1
290
     0
176
     1
 90
       50
176
     1
 90
       50
176
     1
 90
       50
176
     1
290
     0
176
     1
 90
       50
176
     1
 62
   256
176
     0
 40
1.0
176
     0
 90
        2
176
     1
  1
strokes_ogs.tif
176
     1
290
     0
176
     1
 40
1.0
176
     1
 40
1.0
176
     1
  0
DICTIONARYVAR
  5
D7
102
{ACAD_REACTORS
330
D6
102
}
330
D6
100
DictionaryVariables
280
     0
  1
1:1
  0
DICTIONARYVAR
  5
DC
102
{ACAD_REACTORS
330
D6
102
}
330
D6
100
DictionaryVariables
280
     0
  1
Standard
  0
DICTIONARYVAR
  5
DB
102
{ACAD_REACTORS
330
D6
102
}
330
D6
100
DictionaryVariables
280
     0
  1
Standard
  0
DICTIONARY
  5
D8
330
5A
100
AcDbDictionary
280
     1
281
     1
  3
ACAD_ROUNDTRIP_2008_TABLESTYLE_CELLSTYLEMAP
360
D9
  0
CELLSTYLEMAP
  5
D9
102
{ACAD_REACTORS
330
D8
102
}
330
D8
100
AcDbCellStyleMap
 90
        3
300
CELLSTYLE
  1
TABLEFORMAT_BEGIN
 90
        5
170
     1
 91
        0
 92
    32768
 62
   257
 93
        1
300
CONTENTFORMAT
  1
CONTENTFORMAT_BEGIN
 90
        0
 91
        0
 92
        4
 93
        0
300

 40
0.0
140
1.0
 94
        5
 62
     0
340
11
144
0.25
309
CONTENTFORMAT_END
171
     1
301
MARGIN
  1
CELLMARGIN_BEGIN
 40
0.06
 40
0.06
 40
0.06
 40
0.06
 40
0.06
 40
0.06
309
CELLMARGIN_END
 94
        6
 95
        1
302
GRIDFORMAT
  1
GRIDFORMAT_BEGIN
 90
        0
 91
        1
 62
     0
 92
       -2
340
14
 93
        0
 40
0.045
309
GRIDFORMAT_END
 95
        2
302
GRIDFORMAT
  1
GRIDFORMAT_BEGIN
 90
        0
 91
        1
 62
     0
 92
       -2
340
14
 93
        0
 40
0.045
309
GRIDFORMAT_END
 95
        4
302
GRIDFORMAT
  1
GRIDFORMAT_BEGIN
 90
        0
 91
        1
 62
     0
 92
       -2
340
14
 93
        0
 40
0.045
309
GRIDFORMAT_END
 95
        8
302
GRIDFORMAT
  1
GRIDFORMAT_BEGIN
 90
        0
 91
        1
 62
     0
 92
       -2
340
14
 93
        0
 40
0.045
309
GRIDFORMAT_END
 95
       16
302
GRIDFORMAT
  1
GRIDFORMAT_BEGIN
 90
        0
 91
        1
 62
     0
 92
       -2
340
14
 93
        0
 40
0.045
309
GRIDFORMAT_END
 95
       32
302
GRIDFORMAT
  1
GRIDFORMAT_BEGIN
 90
        0
 91
        1
 62
     0
 92
       -2
340
14
 93
        0
 40
0.045
309
GRIDFORMAT_END
309
TABLEFORMAT_END
  1
CELLSTYLE_BEGIN
 90
        1
 91
        1
300
_TITLE
309
CELLSTYLE_END
300
CELLSTYLE
  1
TABLEFORMAT_BEGIN
 90
        5
170
     1
 91
        0
 92
        0
 62
   257
 93
        1
300
CONTENTFORMAT
  1
CONTENTFORMAT_BEGIN
 90
        0
 91
        0
 92
        4
 93
        0
300

 40
0.0
140
1.0
 94
        5
 62
     0
340
11
144
0.18
309
CONTENTFORMAT_END
171
     1
301
MARGIN
  1
CELLMARGIN_BEGIN
 40
0.06
 40
0.06
 40
0.06
 40
0.06
 40
0.06
 40
0.06
309
CELLMARGIN_END
 94
        6
 95
        1
302
GRIDFORMAT
  1
GRIDFORMAT_BEGIN
 90
        0
 91
        1
 62
     0
 92
       -2
340
14
 93
        0
 40
0.045
309
GRIDFORMAT_END
 95
        2
302
GRIDFORMAT
  1
GRIDFORMAT_BEGIN
 90
        0
 91
        1
 62
     0
 92
       -2
340
14
 93
        0
 40
0.045
309
GRIDFORMAT_END
 95
        4
302
GRIDFORMAT
  1
GRIDFORMAT_BEGIN
 90
        0
 91
        1
 62
     0
 92
       -2
340
14
 93
        0
 40
0.045
309
GRIDFORMAT_END
 95
        8
302
GRIDFORMAT
  1
GRIDFORMAT_BEGIN
 90
        0
 91
        1
 62
     0
 92
       -2
340
14
 93
        0
 40
0.045
309
GRIDFORMAT_END
 95
       16
302
GRIDFORMAT
  1
GRIDFORMAT_BEGIN
 90
        0
 91
        1
 62
     0
 92
       -2
340
14
 93
        0
 40
0.045
309
GRIDFORMAT_END
 95
       32
302
GRIDFORMAT
  1
GRIDFORMAT_BEGIN
 90
        0
 91
        1
 62
     0
 92
       -2
340
14
 93
        0
 40
0.045
309
GRIDFORMAT_END
309
TABLEFORMAT_END
  1
CELLSTYLE_BEGIN
 90
        2
 91
        1
300
_HEADER
309
CELLSTYLE_END
300
CELLSTYLE
  1
TABLEFORMAT_BEGIN
 90
        5
170
     1
 91
        0
 92
        0
 62
   257
 93
        1
300
CONTENTFORMAT
  1
CONTENTFORMAT_BEGIN
 90
        0
 91
        0
 92
        4
 93
        0
300

 40
0.0
140
1.0
 94
        2
 62
     0
340
11
144
0.18
309
CONTENTFORMAT_END
171
     1
301
MARGIN
  1
CELLMARGIN_BEGIN
 40
0.06
 40
0.06
 40
0.06
 40
0.06
 40
0.06
 40
0.06
309
CELLMARGIN_END
 94
        6
 95
        1
302
GRIDFORMAT
  1
GRIDFORMAT_BEGIN
 90
        0
 91
        1
 62
     0
 92
       -2
340
14
 93
        0
 40
0.045
309
GRIDFORMAT_END
 95
        2
302
GRIDFORMAT
  1
GRIDFORMAT_BEGIN
 90
        0
 91
        1
 62
     0
 92
       -2
340
14
 93
        0
 40
0.045
309
GRIDFORMAT_END
 95
        4
302
GRIDFORMAT
  1
GRIDFORMAT_BEGIN
 90
        0
 91
        1
 62
     0
 92
       -2
340
14
 93
        0
 40
0.045
309
GRIDFORMAT_END
 95
        8
302
GRIDFORMAT
  1
GRIDFORMAT_BEGIN
 90
        0
 91
        1
 62
     0
 92
       -2
340
14
 93
        0
 40
0.045
309
GRIDFORMAT_END
 95
       16
302
GRIDFORMAT
  1
GRIDFORMAT_BEGIN
 90
        0
 91
        1
 62
     0
 92
       -2
340
14
 93
        0
 40
0.045
309
GRIDFORMAT_END
 95
       32
302
GRIDFORMAT
  1
GRIDFORMAT_BEGIN
 90
        0
 91
        1
 62
     0
 92
       -2
340
14
 93
        0
 40
0.045
309
GRIDFORMAT_END
309
TABLEFORMAT_END
  1
CELLSTYLE_BEGIN
 90
        3
 91
        2
300
_DATA
309
CELLSTYLE_END
  0
ENDSEC
  0
EOF
