  0
SECTION
  2
HEADER
  9
$ACADVER
  1
AC1027
  9
$ACADMAINTVER
 70
   105
  9
$DWGCODEPAGE
  3
ANSI_1252
  9
$LASTSAVEDBY
  1
Office Desk
  9
$REQUIREDVERSIONS
160
                 0
  9
$INSBASE
 10
0.0
 20
0.0
 30
0.0
  9
$EXTMIN
 10
5.011795275590551
 20
-2.108716535433071
 30
0.0
  9
$EXTMAX
 10
12.39151181102362
 20
7.974913385826771
 30
0.0
  9
$LIMMIN
 10
0.0
 20
0.0
  9
$LIMMAX
 10
12.0
 20
9.0
  9
$ORTHOMODE
 70
     0
  9
$REGENMODE
 70
     1
  9
$FILLMODE
 70
     1
  9
$QTEXTMODE
 70
     0
  9
$MIRRTEXT
 70
     1
  9
$LTSCALE
 40
1.0
  9
$ATTMODE
 70
     1
  9
$TEXTSIZE
 40
0.2
  9
$TRACEWID
 40
0.05
  9
$TEXTSTYLE
  7
Standard
  9
$CLAYER
  8
0
  9
$CELTYPE
  6
ByLayer
  9
$CECOLOR
 62
   256
  9
$CELTSCALE
 40
1.0
  9
$DISPSILH
 70
     0
  9
$DIMSCALE
 40
1.0
  9
$DIMASZ
 40
0.18
  9
$DIMEXO
 40
0.0625
  9
$DIMDLI
 40
0.38
  9
$DIMRND
 40
0.0
  9
$DIMDLE
 40
0.0
  9
$DIMEXE
 40
0.18
  9
$DIMTP
 40
0.0
  9
$DIMTM
 40
0.0
  9
$DIMTXT
 40
0.18
  9
$DIMCEN
 40
0.09
  9
$DIMTSZ
 40
0.0
  9
$DIMTOL
 70
     0
  9
$DIMLIM
 70
     0
  9
$DIMTIH
 70
     1
  9
$DIMTOH
 70
     1
  9
$DIMSE1
 70
     0
  9
$DIMSE2
 70
     0
  9
$DIMTAD
 70
     0
  9
$DIMZIN
 70
     0
  9
$DIMBLK
  1

  9
$DIMASO
 70
     1
  9
$DIMSHO
 70
     1
  9
$DIMPOST
  1

  9
$DIMAPOST
  1

  9
$DIMALT
 70
     0
  9
$DIMALTD
 70
     2
  9
$DIMALTF
 40
25.4
  9
$DIMLFAC
 40
1.0
  9
$DIMTOFL
 70
     0
  9
$DIMTVP
 40
0.0
  9
$DIMTIX
 70
     0
  9
$DIMSOXD
 70
     0
  9
$DIMSAH
 70
     0
  9
$DIMBLK1
  1

  9
$DIMBLK2
  1

  9
$DIMSTYLE
  2
Standard
  9
$DIMCLRD
 70
     0
  9
$DIMCLRE
 70
     0
  9
$DIMCLRT
 70
     0
  9
$DIMTFAC
 40
1.0
  9
$DIMGAP
 40
0.09
  9
$DIMJUST
 70
     0
  9
$DIMSD1
 70
     0
  9
$DIMSD2
 70
     0
  9
$DIMTOLJ
 70
     1
  9
$DIMTZIN
 70
     0
  9
$DIMALTZ
 70
     0
  9
$DIMALTTZ
 70
     0
  9
$DIMUPT
 70
     0
  9
$DIMDEC
 70
     4
  9
$DIMTDEC
 70
     4
  9
$DIMALTU
 70
     2
  9
$DIMALTTD
 70
     2
  9
$DIMTXSTY
  7
Standard
  9
$DIMAUNIT
 70
     0
  9
$DIMADEC
 70
     0
  9
$DIMALTRND
 40
0.0
  9
$DIMAZIN
 70
     0
  9
$DIMDSEP
 70
    46
  9
$DIMATFIT
 70
     3
  9
$DIMFRAC
 70
     0
  9
$DIMLDRBLK
  1

  9
$DIMLUNIT
 70
     2
  9
$DIMLWD
 70
    -2
  9
$DIMLWE
 70
    -2
  9
$DIMTMOVE
 70
     0
  9
$DIMFXL
 40
1.0
  9
$DIMFXLON
 70
     0
  9
$DIMJOGANG
 40
0.7853981633974483
  9
$DIMTFILL
 70
     0
  9
$DIMTFILLCLR
 70
     0
  9
$DIMARCSYM
 70
     0
  9
$DIMLTYPE
  6

  9
$DIMLTEX1
  6

  9
$DIMLTEX2
  6

  9
$DIMTXTDIRECTION
 70
     0
  9
$LUNITS
 70
     2
  9
$LUPREC
 70
     4
  9
$SKETCHINC
 40
0.1
  9
$FILLETRAD
 40
0.0
  9
$AUNITS
 70
     0
  9
$AUPREC
 70
     0
  9
$MENU
  1
.
  9
$ELEVATION
 40
0.0
  9
$PELEVATION
 40
0.0
  9
$THICKNESS
 40
0.0
  9
$LIMCHECK
 70
     0
  9
$CHAMFERA
 40
0.0
  9
$CHAMFERB
 40
0.0
  9
$CHAMFERC
 40
0.0
  9
$CHAMFERD
 40
0.0
  9
$SKPOLY
 70
     0
  9
$TDCREATE
 40
2461020.614196146
  9
$TDUCREATE
 40
2461020.38502948
  9
$TDUPDATE
 40
2461020.614196158
  9
$TDUUPDATE
 40
2461020.385029491
  9
$TDINDWG
 40
0.0000000116
  9
$TDUSRTIMER
 40
0.0000000116
  9
$USRTIMER
 70
     1
  9
$ANGBASE
 50
0.0
  9
$ANGDIR
 70
     0
  9
$PDMODE
 70
     0
  9
$PDSIZE
 40
0.0
  9
$PLINEWID
 40
0.0
  9
$SPLFRAME
 70
     0
  9
$SPLINETYPE
 70
     6
  9
$SPLINESEGS
 70
     8
  9
$HANDSEED
  5
95
  9
$SURFTAB1
 70
     6
  9
$SURFTAB2
 70
     6
  9
$SURFTYPE
 70
     6
  9
$SURFU
 70
     6
  9
$SURFV
 70
     6
  9
$UCSBASE
  2

  9
$UCSNAME
  2

  9
$UCSORG
 10
0.0
 20
0.0
 30
0.0
  9
$UCSXDIR
 10
1.0
 20
0.0
 30
0.0
  9
$UCSYDIR
 10
0.0
 20
1.0
 30
0.0
  9
$UCSORTHOREF
  2

  9
$UCSORTHOVIEW
 70
     0
  9
$UCSORGTOP
 10
0.0
 20
0.0
 30
0.0
  9
$UCSORGBOTTOM
 10
0.0
 20
0.0
 30
0.0
  9
$UCSORGLEFT
 10
0.0
 20
0.0
 30
0.0
  9
$UCSORGRIGHT
 10
0.0
 20
0.0
 30
0.0
  9
$UCSORGFRONT
 10
0.0
 20
0.0
 30
0.0
  9
$UCSORGBACK
 10
0.0
 20
0.0
 30
0.0
  9
$PUCSBASE
  2

  9
$PUCSNAME
  2

  9
$PUCSORG
 10
0.0
 20
0.0
 30
0.0
  9
$PUCSXDIR
 10
1.0
 20
0.0
 30
0.0
  9
$PUCSYDIR
 10
0.0
 20
1.0
 30
0.0
  9
$PUCSORTHOREF
  2

  9
$PUCSORTHOVIEW
 70
     0
  9
$PUCSORGTOP
 10
0.0
 20
0.0
 30
0.0
  9
$PUCSORGBOTTOM
 10
0.0
 20
0.0
 30
0.0
  9
$PUCSORGLEFT
 10
0.0
 20
0.0
 30
0.0
  9
$PUCSORGRIGHT
 10
0.0
 20
0.0
 30
0.0
  9
$PUCSORGFRONT
 10
0.0
 20
0.0
 30
0.0
  9
$PUCSORGBACK
 10
0.0
 20
0.0
 30
0.0
  9
$USERI1
 70
     0
  9
$USERI2
 70
     0
  9
$USERI3
 70
     0
  9
$USERI4
 70
     0
  9
$USERI5
 70
     0
  9
$USERR1
 40
0.0
  9
$USERR2
 40
0.0
  9
$USERR3
 40
0.0
  9
$USERR4
 40
0.0
  9
$USERR5
 40
0.0
  9
$WORLDVIEW
 70
     1
  9
$SHADEDGE
 70
     3
  9
$SHADEDIF
 70
    70
  9
$TILEMODE
 70
     1
  9
$MAXACTVP
 70
    64
  9
$PINSBASE
 10
0.0
 20
0.0
 30
0.0
  9
$PLIMCHECK
 70
     0
  9
$PEXTMIN
 10
1.000000000000000E+20
 20
1.000000000000000E+20
 30
1.000000000000000E+20
  9
$PEXTMAX
 10
-1.000000000000000E+20
 20
-1.000000000000000E+20
 30
-1.000000000000000E+20
  9
$PLIMMIN
 10
0.0
 20
0.0
  9
$PLIMMAX
 10
12.0
 20
9.0
  9
$UNITMODE
 70
     0
  9
$VISRETAIN
 70
     1
  9
$PLINEGEN
 70
     0
  9
$PSLTSCALE
 70
     1
  9
$TREEDEPTH
 70
  3020
  9
$CMLSTYLE
  2
Standard
  9
$CMLJUST
 70
     0
  9
$CMLSCALE
 40
1.0
  9
$PROXYGRAPHICS
 70
     1
  9
$MEASUREMENT
 70
     0
  9
$CELWEIGHT
370
    -1
  9
$ENDCAPS
280
     0
  9
$JOINSTYLE
280
     0
  9
$LWDISPLAY
290
     0
  9
$INSUNITS
 70
     1
  9
$HYPERLINKBASE
  1

  9
$STYLESHEET
  1

  9
$XEDIT
290
     1
  9
$CEPSNTYPE
380
     0
  9
$PSTYLEMODE
290
     1
  9
$FINGERPRINTGUID
  2
{a8070d63-4df2-4328-bd60-ada9b49f9583}
  9
$VERSIONGUID
  2
{FAEB1C32-E019-11D5-929B-00C0DF256EC4}
  9
$EXTNAMES
290
     1
  9
$PSVPSCALE
 40
0.0
  9
$OLESTARTUP
290
     0
  9
$SORTENTS
280
   127
  9
$INDEXCTL
280
     0
  9
$HIDETEXT
280
     1
  9
$XCLIPFRAME
280
     2
  9
$HALOGAP
280
     0
  9
$OBSCOLOR
 70
   257
  9
$OBSLTYPE
280
     0
  9
$INTERSECTIONDISPLAY
280
     0
  9
$INTERSECTIONCOLOR
 70
   257
  9
$DIMASSOC
280
     2
  9
$PROJECTNAME
  1

  9
$CAMERADISPLAY
290
     0
  9
$LENSLENGTH
 40
50.0
  9
$CAMERAHEIGHT
 40
0.0
  9
$STEPSPERSEC
 40
2.0
  9
$STEPSIZE
 40
6.0
  9
$3DDWFPREC
 40
2.0
  9
$PSOLWIDTH
 40
0.25
  9
$PSOLHEIGHT
 40
4.0
  9
$LOFTANG1
 40
1.570796326794897
  9
$LOFTANG2
 40
1.570796326794897
  9
$LOFTMAG1
 40
0.0
  9
$LOFTMAG2
 40
0.0
  9
$LOFTPARAM
 70
     7
  9
$LOFTNORMALS
280
     1
  9
$LATITUDE
 40
37.795
  9
$LONGITUDE
 40
-122.394
  9
$NORTHDIRECTION
 40
0.0
  9
$TIMEZONE
 70
 -8000
  9
$LIGHTGLYPHDISPLAY
280
     1
  9
$TILEMODELIGHTSYNCH
280
     1
  9
$CMATERIAL
347
44
  9
$SOLIDHIST
280
     0
  9
$SHOWHIST
280
     1
  9
$DWFFRAME
280
     2
  9
$DGNFRAME
280
     2
  9
$REALWORLDSCALE
290
     1
  9
$INTERFERECOLOR
 62
   256
  9
$CSHADOW
280
     0
  9
$SHADOWPLANELOCATION
 40
0.0
  0
ENDSEC
  0
SECTION
  2
CLASSES
  0
CLASS
  1
ACDBDICTIONARYWDFLT
  2
AcDbDictionaryWithDefault
  3
ObjectDBX Classes
 90
        0
 91
        3
280
     0
281
     0
  0
CLASS
  1
VISUALSTYLE
  2
AcDbVisualStyle
  3
ObjectDBX Classes
 90
     4095
 91
        3
280
     0
281
     0
  0
CLASS
  1
MATERIAL
  2
AcDbMaterial
  3
ObjectDBX Classes
 90
     1153
 91
        3
280
     0
281
     0
  0
CLASS
  1
SCALE
  2
AcDbScale
  3
ObjectDBX Classes
 90
     1153
 91
        3
280
     0
281
     0
  0
CLASS
  1
TABLESTYLE
  2
AcDbTableStyle
  3
ObjectDBX Classes
 90
     4095
 91
        3
280
     0
281
     0
  0
CLASS
  1
MLEADERSTYLE
  2
AcDbMLeaderStyle
  3
ACDB_MLEADERSTYLE_CLASS
 90
     4095
 91
        3
280
     0
281
     0
  0
CLASS
  1
SUN
  2
AcDbSun
  3
SCENEOE
 90
     1153
 91
        3
280
     0
281
     0
  0
CLASS
  1
DICTIONARYVAR
  2
AcDbDictionaryVar
  3
ObjectDBX Classes
 90
        0
 91
        3
280
     0
281
     0
  0
CLASS
  1
CELLSTYLEMAP
  2
AcDbCellStyleMap
  3
ObjectDBX Classes
 90
     1152
 91
        3
280
     0
281
     0
  0
ENDSEC
  0
SECTION
  2
TABLES
  0
TABLE
  2
VPORT
  5
8
330
0
100
AcDbSymbolTable
 70
     1
  0
VPORT
  5
29
330
8
100
AcDbSymbolTableRecord
100
AcDbViewportTableRecord
  2
*Active
 70
     0
 10
0.0
 20
0.0
 11
1.0
 21
1.0
 12
10.42990654205607
 22
4.5
 13
0.0
 23
0.0
 14
0.5
 24
0.5
 15
0.5
 25
0.5
 16
0.0
 26
0.0
 36
1.0
 17
0.0
 27
0.0
 37
0.0
 40
9.0
 41
1.972972972850329
 42
50.0
 43
0.0
 44
0.0
 50
0.0
 51
0.0
 71
     0
 72
   100
 73
     1
 74
     3
 75
     0
 76
     0
 77
     0
 78
     0
281
     0
 65
     1
110
0.0
120
0.0
130
0.0
111
1.0
121
0.0
131
0.0
112
0.0
122
1.0
132
0.0
 79
     0
146
0.0
348
2F
 60
     3
 61
     5
292
     1
282
     1
141
0.0
142
0.0
 63
   250
361
5D
  0
ENDTAB
  0
TABLE
  2
LTYPE
  5
5
330
0
100
AcDbSymbolTable
 70
     1
  0
LTYPE
  5
14
330
5
100
AcDbSymbolTableRecord
100
AcDbLinetypeTableRecord
  2
ByBlock
 70
     0
  3

 72
    65
 73
     0
 40
0.0
  0
LTYPE
  5
15
330
5
100
AcDbSymbolTableRecord
100
AcDbLinetypeTableRecord
  2
ByLayer
 70
     0
  3

 72
    65
 73
     0
 40
0.0
  0
LTYPE
  5
16
330
5
100
AcDbSymbolTableRecord
100
AcDbLinetypeTableRecord
  2
Continuous
 70
     0
  3
Solid line
 72
    65
 73
     0
 40
0.0
  0
ENDTAB
  0
TABLE
  2
LAYER
  5
2
330
0
100
AcDbSymbolTable
 70
     2
  0
LAYER
  5
10
330
2
100
AcDbSymbolTableRecord
100
AcDbLayerTableRecord
  2
0
 70
     0
 62
     7
  6
Continuous
370
    -3
390
F
347
46
348
0
  0
LAYER
  5
5F
330
2
100
AcDbSymbolTableRecord
100
AcDbLayerTableRecord
  2
Layer 1
 70
     0
 62
     7
  6
Continuous
370
    -3
390
F
347
46
348
0
  0
ENDTAB
  0
TABLE
  2
STYLE
  5
3
330
0
100
AcDbSymbolTable
 70
     1
  0
STYLE
  5
11
330
3
100
AcDbSymbolTableRecord
100
AcDbTextStyleTableRecord
  2
Standard
 70
     0
 40
0.0
 41
1.0
 50
0.0
 71
     0
 42
0.2
  3
txt
  4

  0
ENDTAB
  0
TABLE
  2
VIEW
  5
6
330
0
100
AcDbSymbolTable
 70
     0
  0
ENDTAB
  0
TABLE
  2
UCS
  5
7
330
0
100
AcDbSymbolTable
 70
     0
  0
ENDTAB
  0
TABLE
  2
APPID
  5
9
330
0
100
AcDbSymbolTable
 70
     2
  0
APPID
  5
12
330
9
100
AcDbSymbolTableRecord
100
AcDbRegAppTableRecord
  2
ACAD
 70
     0
  0
APPID
  5
5E
330
9
100
AcDbSymbolTableRecord
100
AcDbRegAppTableRecord
  2
ODA
 70
     0
  0
ENDTAB
  0
TABLE
  2
DIMSTYLE
  5
A
330
0
100
AcDbSymbolTable
 70
     1
100
AcDbDimStyleTable
  0
DIMSTYLE
105
27
330
A
100
AcDbSymbolTableRecord
100
AcDbDimStyleTableRecord
  2
Standard
 70
     0
178
     0
340
11
  0
ENDTAB
  0
TABLE
  2
BLOCK_RECORD
  5
1
330
0
100
AcDbSymbolTable
 70
     1
  0
BLOCK_RECORD
  5
1F
330
1
100
AcDbSymbolTableRecord
100
AcDbBlockTableRecord
  2
*Model_Space
340
22
 70
     0
280
     1
281
     0
  0
BLOCK_RECORD
  5
1B
330
1
100
AcDbSymbolTableRecord
100
AcDbBlockTableRecord
  2
*Paper_Space
340
1E
 70
     0
280
     1
281
     0
  0
BLOCK_RECORD
  5
23
330
1
100
AcDbSymbolTableRecord
100
AcDbBlockTableRecord
  2
*Paper_Space0
340
26
 70
     0
280
     1
281
     0
  0
ENDTAB
  0
ENDSEC
  0
SECTION
  2
BLOCKS
  0
BLOCK
  5
20
330
1F
100
AcDbEntity
  8
0
100
AcDbBlockBegin
  2
*Model_Space
 70
     0
 10
0.0
 20
0.0
 30
0.0
  3
*Model_Space
  1

  0
ENDBLK
  5
21
330
1F
100
AcDbEntity
  8
0
100
AcDbBlockEnd
  0
BLOCK
  5
1C
330
1B
100
AcDbEntity
 67
     1
  8
0
100
AcDbBlockBegin
  2
*Paper_Space
 70
     0
 10
0.0
 20
0.0
 30
0.0
  3
*Paper_Space
  1

  0
ENDBLK
  5
1D
330
1B
100
AcDbEntity
 67
     1
  8
0
100
AcDbBlockEnd
  0
BLOCK
  5
24
330
23
100
AcDbEntity
  8
0
100
AcDbBlockBegin
  2
*Paper_Space0
 70
     0
 10
0.0
 20
0.0
 30
0.0
  3
*Paper_Space0
  1

  0
ENDBLK
  5
25
330
23
100
AcDbEntity
  8
0
100
AcDbBlockEnd
  0
ENDSEC
  0
SECTION
  2
ENTITIES
  0
LWPOLYLINE
  5
60
330
1F
100
AcDbEntity
  8
Layer 1
 62
   250
370
     9
100
AcDbPolyline
 90
        5
 70
     1
 43
0.0
 10
5.013295275590552
 20
-2.107216535433071
 10
12.39001181102362
 20
-2.107216535433071
 10
12.39001181102362
 20
7.973413385826771
 10
5.013295275590552
 20
7.973413385826771
 10
5.013295275590552
 20
-2.107216535433071
  0
LWPOLYLINE
  5
61
330
1F
100
AcDbEntity
  8
Layer 1
 62
     7
370
     9
100
AcDbPolyline
 90
      162
 70
     1
 43
0.0
 10
5.491523622047244
 20
2.447870078740157
 10
5.76353937007874
 20
2.65053937007874
 10
5.755614173228347
 20
2.662094488188977
 10
5.955795275590551
 20
2.810169291338583
 10
6.002897637795275
 20
2.810169291338583
 10
6.343492125984252
 20
3.054692913385827
 10
6.345405511811023
 20
3.055
 10
6.350625984251969
 20
3.055543307086614
 10
6.358366141732284
 20
3.055775590551181
 10
6.367854330708662
 20
3.05513779527559
 10
6.378299212598425
 20
3.053074803149606
 10
6.38892125984252
 20
3.049031496062992
 10
6.398937007874015
 20
3.042452755905512
 10
6.407570866141732
 20
3.032783464566929
 10
6.415236220472441
 20
3.021204724409449
 10
6.422708661417323
 20
3.009586614173228
 10
6.429728346456693
 20
2.998417322834646
 10
6.43603937007874
 20
2.988188976377953
 10
6.441393700787401
 20
2.97938188976378
 10
6.445531496062992
 20
2.972488188976378
 10
6.448204724409448
 20
2.967996062992126
 10
6.449149606299213
 20
2.966389763779528
 10
6.580708661417323
 20
2.962051181102362
 10
6.668452755905512
 20
3.032897637795275
 10
6.505377952755905
 20
3.265854330708661
 10
6.510744094488189
 20
3.413897637795276
 10
8.815818897637795
 20
3.203389763779528
 10
8.939149606299212
 20
3.226023622047244
 10
8.939149606299212
 20
3.30901968503937
 10
8.93057874015748
 20
3.309318897637795
 10
8.907921259842519
 20
3.310740157480315
 10
8.875779527559056
 20
3.314070866141732
 10
8.838744094488188
 20
3.32009842519685
 10
8.801405511811023
 20
3.329610236220472
 10
8.76836220472441
 20
3.343385826771653
 10
8.74420472440945
 20
3.362220472440945
 10
8.733531496062993
 20
3.386897637795276
 10
8.742728346456692
 20
4.067838582677165
 10
8.751192913385827
 20
4.126464566929134
 10
8.786944881889763
 20
4.283818897637795
 10
8.865531496062992
 20
4.512122047244095
 10
9.0025
 20
4.783598425196851
 10
9.213393700787401
 20
5.070464566929134
 10
9.513759842519685
 20
5.344940944881889
 10
9.919141732283464
 20
5.579251968503937
 10
10.44508661417323
 20
5.745614173228346
 10
10.90929921259842
 20
5.731137795275591
 10
10.91067716535433
 20
5.730086614173229
 10
10.91403149606299
 20
5.726751968503937
 10
10.91816929133858
 20
5.720862204724409
 10
10.92191338582677
 20
5.712149606299213
 10
10.92408267716536
 20
5.700342519685039
 10
10.92349212598425
 20
5.685173228346457
 10
10.91895669291338
 20
5.666366141732284
 10
10.90929921259842
 20
5.64365748031496
 10
10.8788031496063
 20
5.603031496062992
 10
10.79923622047244
 20
5.488807086614173
 10
10.68847244094488
 20
5.312484251968504
 10
10.56439763779528
 20
5.085551181102362
 10
10.4448937007874
 20
4.819503937007874
 10
10.34783070866142
 20
4.525830708661418
 10
10.29109842519685
 20
4.216027559055118
 10
10.29257086614173
 20
3.901586614173228
 10
10.31436614173228
 20
3.821842519685039
 10
10.3126968503937
 20
3.816433070866142
 10
10.3069842519685
 20
3.801051181102362
 10
10.29617322834646
 20
3.776944881889764
 10
10.27920078740157
 20
3.745377952755906
 10
10.2550157480315
 20
3.707606299212598
 10
10.22255511811024
 20
3.664885826771654
 10
10.18076377952756
 20
3.618472440944882
 10
10.12858661417323
 20
3.569625984251969
 10
10.13065748031496
 20
3.560515748031496
 10
10.1361062992126
 20
3.53638188976378
 10
10.1438031496063
 20
3.501996062992126
 10
10.15260236220472
 20
3.462149606299213
 10
10.16137401574803
 20
3.421618110236221
 10
10.16897637795276
 20
3.385188976377953
 10
10.17427165354331
 20
3.357641732283465
 10
10.17612204724409
 20
3.343759842519685
 10
10.31370078740157
 20
3.291507874015748
 10
10.70145275590551
 20
-0.5561653543307087
 10
10.70405905511811
 20
-0.568732283464567
 10
10.70990157480315
 20
-0.6021338582677165
 10
10.71603543307087
 20
-0.6499251968503937
 10
10.71950393700787
 20
-0.7056535433070866
 10
10.71734645669291
 20
-0.7628700787401574
 10
10.70661811023622
 20
-0.8151259842519685
 10
10.68436220472441
 20
-0.8559763779527559
 10
10.64762598425197
 20
-0.8789685039370079
 10
10.56230708661417
 20
-0.8939212598425197
 10
10.40867716535433
 20
-0.910240157480315
 10
10.20533464566929
 20
-0.9208464566929134
 10
9.970870078740157
 20
-0.9186653543307086
 10
9.72388188976378
 20
-0.8966220472440944
 10
9.482968503937007
 20
-0.8476417322834646
 10
9.266728346456693
 20
-0.7646456692913386
 10
9.093748031496062
 20
-0.6405629921259842
 10
8.961653543307087
 20
1.467204724409449
 10
8.957055118110237
 20
1.489551181102362
 10
8.939157480314961
 20
1.551405511811024
 10
8.9018031496063
 20
1.644996062992126
 10
8.838846456692913
 20
1.762543307086614
 10
8.744129921259843
 20
1.896275590551181
 10
8.611496062992126
 20
2.038417322834646
 10
8.434799212598426
 20
2.181192913385827
 10
8.20788188976378
 20
2.316830708661417
 10
7.967889763779527
 20
2.423783464566929
 10
7.756716535433071
 20
2.490937007874016
 10
7.575346456692913
 20
2.526165354330709
 10
7.424755905511811
 20
2.537334645669291
 10
7.305925196850394
 20
2.532322834645669
 10
7.219834645669291
 20
2.519
 10
7.16746062992126
 20
2.505232283464567
 10
7.149787401574804
 20
2.498893700787402
 10
7.148566929133858
 20
2.499007874015748
 10
7.145035433070866
 20
2.49961811023622
 10
7.139401574803149
 20
2.501125984251968
 10
7.131866141732283
 20
2.503929133858268
 10
7.122629921259843
 20
2.508433070866142
 10
7.11190157480315
 20
2.515035433070866
 10
7.099877952755905
 20
2.524141732283465
 10
7.086763779527559
 20
2.536145669291339
 10
7.069830708661417
 20
2.554188976377953
 10
7.047732283464567
 20
2.579204724409449
 10
7.022763779527559
 20
2.608307086614173
 10
6.997204724409449
 20
2.63859842519685
 10
6.97334251968504
 20
2.667192913385827
 10
6.953468503937008
 20
2.691196850393701
 10
6.939870078740157
 20
2.707720472440945
 10
6.934826771653543
 20
2.713870078740158
 10
6.814488188976378
 20
2.642137795275591
 10
6.766070866141733
 20
2.551763779527559
 10
6.846216535433071
 20
2.444732283464567
 10
6.846696850393701
 20
2.443271653543307
 10
6.847838582677165
 20
2.439291338582677
 10
6.849192913385827
 20
2.433409448818898
 10
6.850318897637795
 20
2.426236220472441
 10
6.850759842519685
 20
2.41838188976378
 10
6.850074803149607
 20
2.410456692913386
 10
6.847811023622048
 20
2.403074803149606
 10
6.843527559055118
 20
2.396850393700787
 10
6.825720472440945
 20
2.381948818897638
 10
6.787807086614174
 20
2.351692913385827
 10
6.736716535433071
 20
2.311429133858268
 10
6.679377952755906
 20
2.266503937007874
 10
6.622720472440945
 20
2.222259842519685
 10
6.573673228346457
 20
2.184035433070866
 10
6.539161417322835
 20
2.157185039370079
 10
6.52611811023622
 20
2.147047244094488
 10
6.507374015748032
 20
2.099263779527559
 10
6.339602362204724
 20
1.94244094488189
 10
6.329015748031496
 20
1.952838582677165
 10
6.041035433070866
 20
1.734535433070866
 10
6.021688976377953
 20
1.753885826771653
 10
5.9698031496063
 20
1.807248031496063
 10
5.894594488188976
 20
1.887590551181102
 10
5.805287401574803
 20
1.98788188976378
 10
5.711106299212599
 20
2.101086614173228
 10
5.621271653543307
 20
2.220173228346457
 10
5.545
 20
2.338114173228346
 10
5.491523622047244
 20
2.447870078740157
  0
LWPOLYLINE
  5
62
330
1F
100
AcDbEntity
  8
Layer 1
 62
     7
370
    18
100
AcDbPolyline
 90
       10
 70
     0
 43
0.0
 10
8.984125984251968
 20
3.310625984251968
 10
9.591251968503936
 20
3.292795275590551
 10
9.612082677165354
 20
3.302976377952756
 10
9.667094488188976
 20
3.33005905511811
 10
9.745062992125984
 20
3.368846456692913
 10
9.83476377952756
 20
3.414145669291339
 10
9.924968503937007
 20
3.460763779527559
 10
10.00445669291339
 20
3.503503937007874
 10
10.06200393700787
 20
3.537177165354331
 10
10.08638582677165
 20
3.556582677165354
  0
LWPOLYLINE
  5
63
330
1F
100
AcDbEntity
  8
Layer 1
 62
     7
370
    18
100
AcDbPolyline
 90
       25
 70
     0
 43
0.0
 10
6.522299212598425
 20
3.287531496062992
 10
6.522031496062992
 20
3.288838582677165
 10
6.521724409448819
 20
3.292358267716535
 10
6.522122047244094
 20
3.297484251968504
 10
6.523972440944882
 20
3.303606299212599
 10
6.528007874015748
 20
3.310122047244095
 10
6.53498031496063
 20
3.31642125984252
 10
6.545633858267717
 20
3.321893700787402
 10
6.560708661417323
 20
3.32594094488189
 10
6.666185039370078
 20
3.317704724409449
 10
6.915177165354331
 20
3.290799212598425
 10
7.259110236220472
 20
3.251318897637795
 10
7.649417322834646
 20
3.205350393700787
 10
8.037535433070866
 20
3.158992125984252
 10
8.374893700787402
 20
3.118334645669291
 10
8.612921259842519
 20
3.089476377952756
 10
8.70305905511811
 20
3.0785
 10
8.715893700787401
 20
3.074649606299213
 10
8.75217716535433
 20
3.065531496062992
 10
8.808562992125983
 20
3.054803149606299
 10
8.881712598425198
 20
3.046122047244094
 10
8.968291338582677
 20
3.043141732283464
 10
9.064952755905512
 20
3.049523622047244
 10
9.16836220472441
 20
3.06892125984252
 10
9.275173228346457
 20
3.104992125984252
  0
LWPOLYLINE
  5
64
330
1F
100
AcDbEntity
  8
Layer 1
 62
     7
370
    18
100
AcDbPolyline
 90
        9
 70
     0
 43
0.0
 10
5.781125984251968
 20
2.618448818897638
 10
5.798397637795276
 20
2.594125984251968
 10
5.844755905511811
 20
2.52953937007874
 10
5.912035433070866
 20
2.437271653543307
 10
5.99205905511811
 20
2.329897637795276
 10
6.076653543307087
 20
2.22
 10
6.157649606299213
 20
2.120157480314961
 10
6.226870078740157
 20
2.042948818897638
 10
6.276141732283465
 20
2.000952755905512
  0
LWPOLYLINE
  5
65
330
1F
100
AcDbEntity
  8
Layer 1
 62
     7
370
    18
100
AcDbPolyline
 90
        9
 70
     0
 43
0.0
 10
5.835964566929134
 20
2.636685039370079
 10
5.852893700787401
 20
2.613
 10
5.898330708661417
 20
2.549984251968504
 10
5.964244094488189
 20
2.459700787401575
 10
6.042602362204724
 20
2.354208661417323
 10
6.125374015748031
 20
2.245574803149606
 10
6.204535433070866
 20
2.145854330708661
 10
6.272047244094488
 20
2.067114173228346
 10
6.319889763779527
 20
2.021417322834646
  0
LWPOLYLINE
  5
66
330
1F
100
AcDbEntity
  8
Layer 1
 62
     7
370
    18
100
AcDbPolyline
 90
        9
 70
     0
 43
0.0
 10
6.002173228346456
 20
2.777240157480315
 10
6.013614173228347
 20
2.761531496062992
 10
6.045511811023622
 20
2.718220472440945
 10
6.094240157480315
 20
2.653027559055118
 10
6.156169291338583
 20
2.571673228346457
 10
6.227665354330709
 20
2.479881889763779
 10
6.305102362204725
 20
2.383374015748032
 10
6.38484251968504
 20
2.287870078740157
 10
6.463263779527559
 20
2.199094488188976
  0
LWPOLYLINE
  5
67
330
1F
100
AcDbEntity
  8
Layer 1
 62
     7
370
    18
100
AcDbPolyline
 90
        9
 70
     0
 43
0.0
 10
6.594362204724409
 20
2.944350393700788
 10
6.598437007874016
 20
2.936897637795276
 10
6.610031496062992
 20
2.916283464566929
 10
6.628220472440945
 20
2.885106299212599
 10
6.65205905511811
 20
2.84598031496063
 10
6.68061811023622
 20
2.801507874015748
 10
6.71296062992126
 20
2.754299212598425
 10
6.748153543307087
 20
2.70696062992126
 10
6.785259842519685
 20
2.662094488188977
  0
LWPOLYLINE
  5
68
330
1F
100
AcDbEntity
  8
Layer 1
 62
     7
370
    18
100
AcDbPolyline
 90
        9
 70
     0
 43
0.0
 10
8.792633858267717
 20
4.093496062992126
 10
8.813929133858268
 20
4.157488188976378
 10
8.88379527559055
 20
4.327318897637795
 10
9.011192913385827
 20
4.569775590551181
 10
9.205094488188976
 20
4.851641732283465
 10
9.474464566929134
 20
5.139704724409449
 10
9.828263779527559
 20
5.400748031496063
 10
10.27546456692913
 20
5.60155905511811
 10
10.82503149606299
 20
5.70892125984252
  0
LWPOLYLINE
  5
69
330
1F
100
AcDbEntity
  8
Layer 1
 62
     7
370
    18
100
AcDbPolyline
 90
        9
 70
     0
 43
0.0
 10
8.945555118110237
 20
3.163145669291338
 10
8.986795275590552
 20
3.158964566929134
 10
9.098318897637796
 20
3.14990157480315
 10
9.26184251968504
 20
3.141181102362205
 10
9.459070866141733
 20
3.138023622047244
 10
9.67171653543307
 20
3.145645669291338
 10
9.881492125984252
 20
3.169271653543307
 10
10.07011023622047
 20
3.214122047244095
 10
10.21927559055118
 20
3.28542125984252
  0
LWPOLYLINE
  5
6A
330
1F
100
AcDbEntity
  8
Layer 1
 62
     7
370
    18
100
AcDbPolyline
 90
        2
 70
     0
 43
0.0
 10
11.21457874015748
 20
5.882751968503937
 10
11.21457874015748
 20
-0.9457086614173228
  0
LWPOLYLINE
  5
6B
330
1F
100
AcDbEntity
  8
Layer 1
 62
     7
370
    18
100
AcDbPolyline
 90
        2
 70
     0
 43
0.0
 10
9.071515748031496
 20
-1.10455905511811
 10
10.74146850393701
 20
-1.10455905511811
  0
LWPOLYLINE
  5
6C
330
1F
100
AcDbEntity
  8
Layer 1
 62
     7
370
    18
100
AcDbPolyline
 90
        2
 70
     0
 43
0.0
 10
11.12805118110236
 20
-0.9456732283464567
 10
11.30112598425197
 20
-0.9456732283464567
  0
LWPOLYLINE
  5
6D
330
1F
100
AcDbEntity
  8
Layer 1
 62
     7
370
    18
100
AcDbPolyline
 90
        2
 70
     0
 43
0.0
 10
11.12805118110236
 20
5.882751968503937
 10
11.30112598425197
 20
5.882751968503937
  0
LWPOLYLINE
  5
6E
330
1F
100
AcDbEntity
  8
Layer 1
 62
     7
370
    18
100
AcDbPolyline
 90
        2
 70
     0
 43
0.0
 10
10.74143700787402
 20
-1.191086614173228
 10
10.74143700787402
 20
-1.018007874015748
  0
LWPOLYLINE
  5
6F
330
1F
100
AcDbEntity
  8
Layer 1
 62
     7
370
    18
100
AcDbPolyline
 90
        2
 70
     0
 43
0.0
 10
9.071543307086614
 20
-1.191086614173228
 10
9.071543307086614
 20
-1.018007874015748
  0
LWPOLYLINE
  5
70
330
1F
100
AcDbEntity
  8
Layer 1
 62
     7
370
     9
100
AcDbPolyline
 90
        7
 70
     1
 43
0.0
 10
11.41945275590551
 20
2.534566929133858
 10
11.41945275590551
 20
2.503106299212599
 10
11.72875984251968
 20
2.503106299212599
 10
11.72066535433071
 20
2.578629921259842
 10
11.69323622047244
 20
2.578629921259842
 10
11.69323622047244
 20
2.534566929133858
 10
11.41945275590551
 20
2.534566929133858
  0
LWPOLYLINE
  5
71
330
1F
100
AcDbEntity
  8
Layer 1
 62
     7
370
     9
100
AcDbPolyline
 90
       65
 70
     1
 43
0.0
 10
11.55837401574803
 20
2.357669291338583
 10
11.55870472440945
 20
2.364834645669291
 10
11.55969291338583
 20
2.371740157480315
 10
11.56134251968504
 20
2.378377952755906
 10
11.56365354330709
 20
2.384748031496063
 10
11.56662598425197
 20
2.390850393700787
 10
11.57025590551181
 20
2.396688976377953
 10
11.57454330708661
 20
2.402259842519685
 10
11.57949606299213
 20
2.40755905511811
 10
11.58485039370079
 20
2.412354330708661
 10
11.59045669291338
 20
2.416507874015748
 10
11.59631496062992
 20
2.420023622047244
 10
11.60242519685039
 20
2.422901574803149
 10
11.60879133858268
 20
2.425137795275591
 10
11.6154094488189
 20
2.426736220472441
 10
11.62227952755905
 20
2.427696850393701
 10
11.62940551181102
 20
2.428015748031496
 10
11.63636614173228
 20
2.427692913385827
 10
11.64308661417323
 20
2.426724409448819
 10
11.64956692913386
 20
2.425110236220473
 10
11.65581102362205
 20
2.422850393700787
 10
11.66181496062992
 20
2.419944881889764
 10
11.66758267716535
 20
2.416389763779528
 10
11.67311417322835
 20
2.412188976377953
 10
11.67840551181102
 20
2.407338582677165
 10
11.68314960629921
 20
2.402133858267717
 10
11.68725984251969
 20
2.396629921259843
 10
11.69073622047244
 20
2.390834645669291
 10
11.69357874015748
 20
2.384744094488189
 10
11.69579133858268
 20
2.378358267716536
 10
11.69737007874016
 20
2.371677165354331
 10
11.6983188976378
 20
2.364700787401575
 10
11.69863385826772
 20
2.357429133858268
 10
11.69830708661417
 20
2.350303149606299
 10
11.69732677165354
 20
2.343413385826772
 10
11.69569291338583
 20
2.336763779527559
 10
11.69340551181102
 20
2.330350393700787
 10
11.69046456692913
 20
2.324177165354331
 10
11.68687401574803
 20
2.318240157480315
 10
11.68262992125984
 20
2.312547244094488
 10
11.67773622047244
 20
2.307090551181102
 10
11.67243307086614
 20
2.302133858267716
 10
11.66687401574803
 20
2.297842519685039
 10
11.66105118110236
 20
2.294208661417323
 10
11.65497244094488
 20
2.291236220472441
 10
11.64863385826772
 20
2.288925196850394
 10
11.64203149606299
 20
2.287271653543307
 10
11.63517322834646
 20
2.286283464566929
 10
11.62805118110236
 20
2.285952755905512
 10
11.62113779527559
 20
2.286287401574803
 10
11.61445275590551
 20
2.287287401574803
 10
11.60798818897638
 20
2.288956692913386
 10
11.60175196850394
 20
2.291295275590551
 10
11.59574015748031
 20
2.294299212598425
 10
11.58995275590551
 20
2.297968503937008
 10
11.58438976377953
 20
2.302307086614173
 10
11.57905118110236
 20
2.307314960629921
 10
11.57457086614173
 20
2.312354330708661
 10
11.57056692913386
 20
2.317818897637795
 10
11.56703543307087
 20
2.323704724409449
 10
11.56398031496063
 20
2.330015748031496
 10
11.56152362204724
 20
2.336629921259842
 10
11.55977165354331
 20
2.34344094488189
 10
11.55872440944882
 20
2.350456692913386
 10
11.55837401574803
 20
2.357669291338583
  0
LWPOLYLINE
  5
72
330
1F
100
AcDbEntity
  8
Layer 1
 62
     7
370
     9
100
AcDbPolyline
 90
       69
 70
     1
 43
0.0
 10
11.62715748031496
 20
2.459937007874016
 10
11.61633070866142
 20
2.459444881889764
 10
11.60599212598425
 20
2.457968503937008
 10
11.59614960629921
 20
2.455507874015748
 10
11.58679921259843
 20
2.452066929133858
 10
11.57794094488189
 20
2.447641732283464
 10
11.56957874015748
 20
2.442228346456693
 10
11.56170472440945
 20
2.435838582677166
 10
11.55432677165354
 20
2.42846062992126
 10
11.54810236220472
 20
2.42092125984252
 10
11.54264960629921
 20
2.412854330708662
 10
11.53796062992126
 20
2.404259842519685
 10
11.53403543307087
 20
2.395141732283465
 10
11.53088188976378
 20
2.385492125984252
 10
11.52848818897638
 20
2.375314960629921
 10
11.52686614173228
 20
2.364614173228346
 10
11.52600393700787
 20
2.353385826771654
 10
11.53185039370079
 20
2.344397637795276
 10
11.41945275590551
 20
2.437905511811024
 10
11.41945275590551
 20
2.396555118110236
 10
11.56375984251969
 20
2.276968503937008
 10
11.57079133858268
 20
2.271594488188976
 10
11.57811023622047
 20
2.266933070866142
 10
11.5857125984252
 20
2.262992125984252
 10
11.5936062992126
 20
2.259767716535433
 10
11.60178346456693
 20
2.257255905511811
 10
11.61025196850394
 20
2.255464566929134
 10
11.61900787401575
 20
2.254389763779527
 10
11.62805118110236
 20
2.254031496062992
 10
11.63847244094488
 20
2.254503937007874
 10
11.64849212598425
 20
2.255917322834646
 10
11.65811417322835
 20
2.258271653543307
 10
11.66733464566929
 20
2.261566929133858
 10
11.67615354330709
 20
2.265803149606299
 10
11.68457480314961
 20
2.27098031496063
 10
11.69259448818898
 20
2.27709842519685
 10
11.7002125984252
 20
2.284153543307087
 10
11.70722047244094
 20
2.291929133858268
 10
11.71329133858268
 20
2.300086614173228
 10
11.71842519685039
 20
2.308622047244095
 10
11.72262992125984
 20
2.317535433070866
 10
11.72589763779528
 20
2.326826771653543
 10
11.72823228346457
 20
2.3365
 10
11.72962992125984
 20
2.346551181102362
 10
11.73009842519685
 20
2.356984251968504
 10
11.72963385826772
 20
2.367562992125984
 10
11.72824409448819
 20
2.377716535433071
 10
11.72592913385827
 20
2.387452755905512
 10
11.72268503937008
 20
2.396767716535433
 10
11.7185157480315
 20
2.405661417322835
 10
11.71341732283465
 20
2.414133858267717
 10
11.70738976377953
 20
2.422185039370079
 10
11.70043700787402
 20
2.429814960629921
 10
11.69687795275591
 20
2.433204724409449
 10
11.6931811023622
 20
2.436417322834646
 10
11.68934251968504
 20
2.439444881889764
 10
11.68537007874016
 20
2.442287401574803
 10
11.68125196850394
 20
2.444948818897638
 10
11.67699606299213
 20
2.447433070866142
 10
11.67260236220472
 20
2.449728346456693
 10
11.66806692913386
 20
2.451846456692913
 10
11.6633937007874
 20
2.453744094488189
 10
11.6585905511811
 20
2.455385826771654
 10
11.65366535433071
 20
2.456779527559055
 10
11.64861811023622
 20
2.457917322834646
 10
11.64344094488189
 20
2.458799212598425
 10
11.63813779527559
 20
2.459433070866142
 10
11.6327125984252
 20
2.459811023622047
 10
11.62715748031496
 20
2.459937007874016
  0
LWPOLYLINE
  5
73
330
1F
100
AcDbEntity
  8
Layer 1
 62
     7
370
     9
100
AcDbPolyline
 90
       81
 70
     1
 43
0.0
 10
11.68963385826772
 20
2.091515748031496
 10
11.68611023622047
 20
2.086322834645669
 10
11.6821062992126
 20
2.08148031496063
 10
11.67762992125984
 20
2.076988188976378
 10
11.67266929133858
 20
2.072850393700787
 10
11.66723622047244
 20
2.069066929133858
 10
11.66131889763779
 20
2.065629921259843
 10
11.65492913385827
 20
2.062547244094488
 10
11.64805905511811
 20
2.059814960629921
 10
11.63894094488189
 20
2.056759842519685
 10
11.62969291338583
 20
2.054110236220473
 10
11.62031102362205
 20
2.051870078740158
 10
11.61079527559055
 20
2.05003937007874
 10
11.60114566929134
 20
2.048614173228346
 10
11.59136614173228
 20
2.04759842519685
 10
11.58145275590551
 20
2.046988188976378
 10
11.57140551181102
 20
2.046783464566929
 10
11.54914960629921
 20
2.048122047244095
 10
11.53706299212598
 20
2.049681102362205
 10
11.52564566929134
 20
2.051716535433071
 10
11.51489763779528
 20
2.054232283464567
 10
11.50481496062992
 20
2.057224409448819
 10
11.49539763779527
 20
2.060696850393701
 10
11.48664960629921
 20
2.064645669291338
 10
11.47857086614173
 20
2.069070866141732
 10
11.47115748031496
 20
2.073976377952756
 10
11.46557086614173
 20
2.078452755905512
 10
11.46072834645669
 20
2.083165354330708
 10
11.45662992125984
 20
2.08811811023622
 10
11.45327952755905
 20
2.093307086614173
 10
11.45067716535433
 20
2.098736220472441
 10
11.44881496062992
 20
2.104405511811024
 10
11.4476968503937
 20
2.110314960629921
 10
11.44732677165354
 20
2.11646062992126
 10
11.4476968503937
 20
2.123318897637795
 10
11.4488031496063
 20
2.129850393700787
 10
11.45064566929134
 20
2.136051181102362
 10
11.45322834645669
 20
2.141921259842519
 10
11.45654724409449
 20
2.14746062992126
 10
11.46060236220472
 20
2.152669291338583
 10
11.4653937007874
 20
2.157551181102362
 10
11.47092125984252
 20
2.16209842519685
 10
11.47637795275591
 20
2.16586220472441
 10
11.48216535433071
 20
2.169291338582677
 10
11.48829133858268
 20
2.172377952755906
 10
11.49475196850394
 20
2.175129921259843
 10
11.50142519685039
 20
2.17755905511811
 10
11.5081811023622
 20
2.179681102362205
 10
11.51502755905512
 20
2.181496062992126
 10
11.52196062992126
 20
2.183
 10
11.54892913385827
 20
2.186822834645669
 10
11.57897244094488
 20
2.187937007874016
 10
11.58796456692913
 20
2.187629921259842
 10
11.59797637795276
 20
2.186704724409449
 10
11.6090157480315
 20
2.185161417322835
 10
11.6210905511811
 20
2.183
 10
11.64828346456693
 20
2.175354330708661
 10
11.65485433070866
 20
2.172696850393701
 10
11.6610905511811
 20
2.169677165354331
 10
11.66699212598425
 20
2.166295275590551
 10
11.67255905511811
 20
2.162547244094488
 10
11.67768897637795
 20
2.158417322834646
 10
11.6822874015748
 20
2.153889763779528
 10
11.68634645669291
 20
2.148964566929134
 10
11.68987401574803
 20
2.143653543307086
 10
11.69139763779528
 20
2.14084251968504
 10
11.69272047244094
 20
2.13790157480315
 10
11.69383858267716
 20
2.134834645669291
 10
11.69475590551181
 20
2.131641732283465
 10
11.69547244094488
 20
2.128318897637795
 10
11.69598031496063
 20
2.124870078740158
 10
11.6962874015748
 20
2.121295275590551
 10
11.69638976377953
 20
2.117594488188976
 10
11.69628346456693
 20
2.113889763779528
 10
11.69596850393701
 20
2.110311023622047
 10
11.69544094488189
 20
2.106862204724409
 10
11.69470078740157
 20
2.10353937007874
 10
11.69375196850394
 20
2.100342519685039
 10
11.6925905511811
 20
2.097275590551181
 10
11.69121653543307
 20
2.094330708661417
 10
11.68963385826772
 20
2.091515748031496
  0
LWPOLYLINE
  5
74
330
1F
100
AcDbEntity
  8
Layer 1
 62
     7
370
     9
100
AcDbPolyline
 90
       65
 70
     1
 43
0.0
 10
11.41540551181102
 20
2.116015748031496
 10
11.41623622047244
 20
2.102889763779527
 10
11.41873622047244
 20
2.090602362204725
 10
11.42289763779528
 20
2.079145669291338
 10
11.42872440944882
 20
2.068531496062992
 10
11.43621653543307
 20
2.058748031496063
 10
11.44537007874016
 20
2.049803149606299
 10
11.45618897637795
 20
2.041696850393701
 10
11.46867322834646
 20
2.034425196850394
 10
11.47957086614173
 20
2.029311023622047
 10
11.49107086614173
 20
2.02488188976378
 10
11.50317716535433
 20
2.021129921259842
 10
11.51588582677165
 20
2.018062992125984
 10
11.5291968503937
 20
2.015681102362205
 10
11.54311023622047
 20
2.013976377952756
 10
11.55763385826772
 20
2.012952755905512
 10
11.57275984251969
 20
2.012614173228346
 10
11.58788188976378
 20
2.012952755905512
 10
11.60240157480315
 20
2.013976377952756
 10
11.61631496062992
 20
2.015681102362205
 10
11.62962598425197
 20
2.018062992125984
 10
11.64233070866142
 20
2.021129921259842
 10
11.65443307086614
 20
2.02488188976378
 10
11.66593307086614
 20
2.029311023622047
 10
11.67682677165354
 20
2.034425196850394
 10
11.68931496062992
 20
2.041696850393701
 10
11.70013779527559
 20
2.049803149606299
 10
11.70929133858268
 20
2.058748031496063
 10
11.71678346456693
 20
2.068531496062992
 10
11.72261023622047
 20
2.079145669291338
 10
11.72677165354331
 20
2.090602362204725
 10
11.72926771653543
 20
2.102889763779527
 10
11.73009842519685
 20
2.116015748031496
 10
11.72926771653543
 20
2.129141732283465
 10
11.72677165354331
 20
2.141429133858268
 10
11.72261023622047
 20
2.152881889763779
 10
11.71678346456693
 20
2.163496062992126
 10
11.70929133858268
 20
2.173275590551181
 10
11.70013779527559
 20
2.182220472440945
 10
11.68931496062992
 20
2.190330708661417
 10
11.67682677165354
 20
2.197606299212599
 10
11.66593307086614
 20
2.202720472440945
 10
11.65443307086614
 20
2.207149606299212
 10
11.64233070866142
 20
2.210897637795275
 10
11.62962598425197
 20
2.213964566929134
 10
11.61631496062992
 20
2.216346456692913
 10
11.60240157480315
 20
2.218051181102362
 10
11.58788188976378
 20
2.219074803149606
 10
11.57275984251969
 20
2.219413385826772
 10
11.55763385826772
 20
2.219074803149606
 10
11.54311023622047
 20
2.218051181102362
 10
11.5291968503937
 20
2.216346456692913
 10
11.51588582677165
 20
2.213964566929134
 10
11.50317716535433
 20
2.210897637795275
 10
11.49107086614173
 20
2.207149606299212
 10
11.47957086614173
 20
2.202720472440945
 10
11.46867322834646
 20
2.197606299212599
 10
11.45618897637795
 20
2.190330708661417
 10
11.44537007874016
 20
2.182220472440945
 10
11.43621653543307
 20
2.173275590551181
 10
11.42872440944882
 20
2.163496062992126
 10
11.42289763779528
 20
2.152881889763779
 10
11.41873622047244
 20
2.141429133858268
 10
11.41623622047244
 20
2.129141732283465
 10
11.41540551181102
 20
2.116015748031496
  0
LWPOLYLINE
  5
75
330
1F
100
AcDbEntity
  8
Layer 1
 62
     7
370
     9
100
AcDbPolyline
 90
        4
 70
     1
 43
0.0
 10
9.837618110236221
 20
-1.3215
 10
9.837618110236221
 20
-1.498177165354331
 10
9.720724409448819
 20
-1.498177165354331
 10
9.837618110236221
 20
-1.3215
  0
LWPOLYLINE
  5
76
330
1F
100
AcDbEntity
  8
Layer 1
 62
     7
370
     9
100
AcDbPolyline
 90
       11
 70
     1
 43
0.0
 10
9.870433070866142
 20
-1.530547244094488
 10
9.909094488188977
 20
-1.530547244094488
 10
9.909094488188977
 20
-1.498177165354331
 10
9.870433070866142
 20
-1.498177165354331
 10
9.869984251968503
 20
-1.287330708661417
 10
9.825925196850394
 20
-1.287330708661417
 10
9.664972440944881
 20
-1.530547244094488
 10
9.837618110236221
 20
-1.530547244094488
 10
9.837618110236221
 20
-1.59303937007874
 10
9.870433070866142
 20
-1.59303937007874
 10
9.870433070866142
 20
-1.530547244094488
  0
LWPOLYLINE
  5
77
330
1F
100
AcDbEntity
  8
Layer 1
 62
     7
370
     9
100
AcDbPolyline
 90
       65
 70
     1
 43
0.0
 10
10.04844488188976
 20
-1.437484251968504
 10
10.05511811023622
 20
-1.437771653543307
 10
10.06153149606299
 20
-1.438637795275591
 10
10.0676811023622
 20
-1.44007874015748
 10
10.07357480314961
 20
-1.442094488188976
 10
10.07920078740158
 20
-1.444685039370079
 10
10.08457086614173
 20
-1.447854330708661
 10
10.0896811023622
 20
-1.45159842519685
 10
10.09453149606299
 20
-1.455917322834646
 10
10.09890551181102
 20
-1.460602362204724
 10
10.10269291338583
 20
-1.465555118110236
 10
10.10590157480315
 20
-1.470775590551181
 10
10.10852362204724
 20
-1.476259842519685
 10
10.11056299212598
 20
-1.482011811023622
 10
10.11201968503937
 20
-1.488031496062992
 10
10.1128937007874
 20
-1.494318897637795
 10
10.11318503937008
 20
-1.500870078740157
 10
10.11289763779528
 20
-1.507366141732283
 10
10.11203543307087
 20
-1.513645669291338
 10
10.11059448818898
 20
-1.519704724409449
 10
10.10858267716536
 20
-1.525543307086614
 10
10.10598818897638
 20
-1.531169291338583
 10
10.10282283464567
 20
-1.536570866141732
 10
10.09907480314961
 20
-1.541759842519685
 10
10.09475196850394
 20
-1.546732283464567
 10
10.09002362204724
 20
-1.551263779527559
 10
10.08499606299213
 20
-1.555188976377953
 10
10.07966141732283
 20
-1.558515748031496
 10
10.07402362204724
 20
-1.561232283464567
 10
10.06808267716535
 20
-1.563350393700787
 10
10.06184251968504
 20
-1.564862204724409
 10
10.05529527559055
 20
-1.565767716535433
 10
10.04844488188976
 20
-1.566070866141732
 10
10.04160236220472
 20
-1.565767716535433
 10
10.03505905511811
 20
-1.564862204724409
 10
10.02881889763779
 20
-1.563350393700787
 10
10.02288188976378
 20
-1.561232283464567
 10
10.01724409448819
 20
-1.558515748031496
 10
10.01191338582677
 20
-1.555188976377953
 10
10.00688188976378
 20
-1.551263779527559
 10
10.00215354330709
 20
-1.546732283464567
 10
9.997830708661418
 20
-1.541759842519685
 10
9.994082677165354
 20
-1.536570866141732
 10
9.990913385826772
 20
-1.531169291338583
 10
9.988318897637795
 20
-1.525543307086614
 10
9.986303149606298
 20
-1.519704724409449
 10
9.98486220472441
 20
-1.513645669291338
 10
9.983996062992126
 20
-1.507366141732283
 10
9.983708661417323
 20
-1.500870078740157
 10
9.984
 20
-1.494318897637795
 10
9.984877952755905
 20
-1.488031496062992
 10
9.986334645669292
 20
-1.482011811023622
 10
9.988377952755906
 20
-1.476259842519685
 10
9.991003937007873
 20
-1.470775590551181
 10
9.994212598425197
 20
-1.465555118110236
 10
9.998003937007875
 20
-1.460602362204724
 10
10.00237795275591
 20
-1.455917322834646
 10
10.00722834645669
 20
-1.45159842519685
 10
10.01233464566929
 20
-1.447854330708661
 10
10.01770472440945
 20
-1.444685039370079
 10
10.02333464566929
 20
-1.442094488188976
 10
10.02922047244095
 20
-1.44007874015748
 10
10.03537007874016
 20
-1.438637795275591
 10
10.04177559055118
 20
-1.437771653543307
 10
10.04844488188976
 20
-1.437484251968504
  0
LWPOLYLINE
  5
78
330
1F
100
AcDbEntity
  8
Layer 1
 62
     7
370
     9
100
AcDbPolyline
 90
       65
 70
     1
 43
0.0
 10
10.04844488188976
 20
-1.313409448818898
 10
10.05382677165354
 20
-1.313633858267717
 10
10.05900393700787
 20
-1.314307086614173
 10
10.06397244094488
 20
-1.315433070866142
 10
10.06874015748032
 20
-1.317007874015748
 10
10.07329921259842
 20
-1.319027559055118
 10
10.07766141732283
 20
-1.3215
 10
10.08181496062992
 20
-1.324425196850394
 10
10.08576771653543
 20
-1.327795275590551
 10
10.08945275590551
 20
-1.331582677165354
 10
10.09264960629921
 20
-1.335590551181102
 10
10.09535433070866
 20
-1.339814960629921
 10
10.09757086614173
 20
-1.344255905511811
 10
10.09929133858268
 20
-1.348917322834646
 10
10.10052362204724
 20
-1.353795275590551
 10
10.10125984251968
 20
-1.358893700787402
 10
10.10150787401575
 20
-1.364208661417323
 10
10.10125984251968
 20
-1.369405511811024
 10
10.10052362204724
 20
-1.374437007874016
 10
10.09929133858268
 20
-1.379299212598425
 10
10.09757086614173
 20
-1.383992125984252
 10
10.09535433070866
 20
-1.388515748031496
 10
10.09264960629921
 20
-1.392870078740158
 10
10.08945275590551
 20
-1.397055118110236
 10
10.08576771653543
 20
-1.401070866141732
 10
10.08183858267716
 20
-1.404653543307087
 10
10.07770078740158
 20
-1.407759842519685
 10
10.07335039370079
 20
-1.410389763779528
 10
10.06879133858268
 20
-1.41253937007874
 10
10.06401968503937
 20
-1.414212598425197
 10
10.05903937007874
 20
-1.415405511811024
 10
10.05384645669291
 20
-1.416122047244095
 10
10.04844488188976
 20
-1.41636220472441
 10
10.04304330708661
 20
-1.416122047244095
 10
10.03785433070866
 20
-1.415405511811024
 10
10.03287401574803
 20
-1.414212598425197
 10
10.02811023622047
 20
-1.41253937007874
 10
10.02355118110236
 20
-1.410389763779528
 10
10.01920472440945
 20
-1.407759842519685
 10
10.01506692913386
 20
-1.404653543307087
 10
10.01113779527559
 20
-1.401070866141732
 10
10.00744881889764
 20
-1.397055118110236
 10
10.00425196850394
 20
-1.392870078740158
 10
10.00154724409449
 20
-1.388515748031496
 10
9.999334645669292
 20
-1.383992125984252
 10
9.997614173228346
 20
-1.379299212598425
 10
9.996385826771654
 20
-1.374437007874016
 10
9.995645669291338
 20
-1.369405511811024
 10
9.99540157480315
 20
-1.364208661417323
 10
9.995645669291338
 20
-1.358893700787402
 10
9.996385826771654
 20
-1.353795275590551
 10
9.997614173228346
 20
-1.348917322834646
 10
9.999334645669292
 20
-1.344255905511811
 10
10.00154724409449
 20
-1.339814960629921
 10
10.00425196850394
 20
-1.335590551181102
 10
10.00744881889764
 20
-1.331582677165354
 10
10.01113779527559
 20
-1.327795275590551
 10
10.01508661417323
 20
-1.324425196850394
 10
10.01924015748031
 20
-1.3215
 10
10.02359842519685
 20
-1.319027559055118
 10
10.02816141732283
 20
-1.317007874015748
 10
10.03292519685039
 20
-1.315433070866142
 10
10.03789763779528
 20
-1.314307086614173
 10
10.04307086614173
 20
-1.313633858267717
 10
10.04844488188976
 20
-1.313409448818898
  0
LWPOLYLINE
  5
79
330
1F
100
AcDbEntity
  8
Layer 1
 62
     7
370
     9
100
AcDbPolyline
 90
      121
 70
     1
 43
0.0
 10
10.04844488188976
 20
-1.597531496062992
 10
10.05875196850394
 20
-1.597141732283465
 10
10.06864173228347
 20
-1.595972440944882
 10
10.07811417322835
 20
-1.594023622047244
 10
10.08717322834646
 20
-1.591295275590551
 10
10.09581496062992
 20
-1.587787401574803
 10
10.10403937007874
 20
-1.5835
 10
10.11185433070866
 20
-1.578433070866142
 10
10.11925196850394
 20
-1.572586614173228
 10
10.1225905511811
 20
-1.569527559055118
 10
10.12574803149606
 20
-1.566318897637795
 10
10.12872047244094
 20
-1.562952755905512
 10
10.13151181102362
 20
-1.559433070866142
 10
10.13411811023622
 20
-1.555759842519685
 10
10.13653937007874
 20
-1.551933070866142
 10
10.13878346456693
 20
-1.547948818897638
 10
10.14083858267717
 20
-1.543814960629921
 10
10.14268110236221
 20
-1.53951968503937
 10
10.14427952755906
 20
-1.535074803149606
 10
10.14562992125984
 20
-1.530472440944882
 10
10.14674015748031
 20
-1.525716535433071
 10
10.14759842519685
 20
-1.520807086614173
 10
10.14821653543307
 20
-1.515740157480315
 10
10.14858661417323
 20
-1.510523622047244
 10
10.14870866141732
 20
-1.505153543307087
 10
10.1485
 20
-1.499708661417323
 10
10.14787795275591
 20
-1.494275590551181
 10
10.14684251968504
 20
-1.488858267716535
 10
10.14538976377953
 20
-1.483456692913386
 10
10.14352362204724
 20
-1.478066929133858
 10
10.14124015748031
 20
-1.472692913385827
 10
10.13854724409449
 20
-1.467330708661417
 10
10.13543700787402
 20
-1.461984251968504
 10
10.13194488188976
 20
-1.456771653543307
 10
10.1280905511811
 20
-1.451807086614173
 10
10.12388188976378
 20
-1.447082677165354
 10
10.11931102362205
 20
-1.442606299212599
 10
10.11438582677165
 20
-1.438374015748032
 10
10.10910236220472
 20
-1.434385826771654
 10
10.10346062992126
 20
-1.430645669291339
 10
10.09746062992126
 20
-1.427145669291339
 10
10.10599606299213
 20
-1.419531496062992
 10
10.1133937007874
 20
-1.411759842519685
 10
10.11965354330709
 20
-1.403826771653543
 10
10.12477559055118
 20
-1.395732283464567
 10
10.12875590551181
 20
-1.387476377952756
 10
10.13160236220472
 20
-1.37905905511811
 10
10.13330708661417
 20
-1.37048031496063
 10
10.13387795275591
 20
-1.361740157480315
 10
10.13348818897638
 20
-1.35311811023622
 10
10.13231496062992
 20
-1.344893700787402
 10
10.13036614173228
 20
-1.337070866141732
 10
10.12763385826772
 20
-1.329649606299213
 10
10.12412204724409
 20
-1.322629921259842
 10
10.11983464566929
 20
-1.316007874015748
 10
10.11476377952756
 20
-1.309783464566929
 10
10.10891732283465
 20
-1.303964566929134
 10
10.10273622047244
 20
-1.298905511811024
 10
10.09615748031496
 20
-1.294523622047244
 10
10.08918897637795
 20
-1.290818897637795
 10
10.08183070866142
 20
-1.287783464566929
 10
10.07407480314961
 20
-1.285425196850394
 10
10.06592519685039
 20
-1.283740157480315
 10
10.05738188976378
 20
-1.282732283464567
 10
10.04844488188976
 20
-1.282393700787402
 10
10.03951181102362
 20
-1.282732283464567
 10
10.03097244094488
 20
-1.283740157480315
 10
10.02282677165354
 20
-1.285425196850394
 10
10.01507086614173
 20
-1.287783464566929
 10
10.00770866141732
 20
-1.290818897637795
 10
10.00074015748032
 20
-1.294523622047244
 10
9.994169291338583
 20
-1.298905511811024
 10
9.987992125984253
 20
-1.303964566929134
 10
9.982141732283464
 20
-1.309783464566929
 10
9.977070866141732
 20
-1.315992125984252
 10
9.972779527559055
 20
-1.322594488188976
 10
9.969271653543307
 20
-1.329594488188976
 10
9.96653937007874
 20
-1.336984251968504
 10
9.964590551181102
 20
-1.344767716535433
 10
9.96342125984252
 20
-1.352944881889764
 10
9.963031496062992
 20
-1.361515748031496
 10
9.963602362204725
 20
-1.370307086614173
 10
9.965307086614173
 20
-1.378933070866142
 10
9.968153543307087
 20
-1.387389763779528
 10
9.972133858267716
 20
-1.395677165354331
 10
9.97725590551181
 20
-1.403795275590551
 10
9.983515748031497
 20
-1.411744094488189
 10
9.990909448818897
 20
-1.419531496062992
 10
9.999444881889763
 20
-1.427145669291339
 10
9.99344094488189
 20
-1.430645669291339
 10
9.987799212598425
 20
-1.434385826771654
 10
9.982511811023622
 20
-1.438374015748032
 10
9.977582677165355
 20
-1.442606299212599
 10
9.973011811023621
 20
-1.447082677165354
 10
9.9688031496063
 20
-1.451807086614173
 10
9.964948818897637
 20
-1.456771653543307
 10
9.961452755905512
 20
-1.461984251968504
 10
9.958346456692913
 20
-1.467342519685039
 10
9.955653543307086
 20
-1.472736220472441
 10
9.953374015748032
 20
-1.478161417322835
 10
9.951511811023622
 20
-1.483625984251969
 10
9.950062992125984
 20
-1.489122047244094
 10
9.949027559055118
 20
-1.494653543307087
 10
9.948409448818898
 20
-1.500220472440945
 10
9.948200787401575
 20
-1.505822834645669
 10
9.948661417322835
 20
-1.515862204724409
 10
9.95003937007874
 20
-1.525417322834646
 10
9.952338582677166
 20
-1.534488188976378
 10
9.95555905511811
 20
-1.543074803149606
 10
9.959700787401575
 20
-1.551177165354331
 10
9.964759842519685
 20
-1.558799212598425
 10
9.97073622047244
 20
-1.565933070866142
 10
9.97763779527559
 20
-1.572586614173228
 10
9.985043307086615
 20
-1.578433070866142
 10
9.992858267716535
 20
-1.5835
 10
10.0010905511811
 20
-1.587787401574803
 10
10.00973228346457
 20
-1.591295275590551
 10
10.01879133858268
 20
-1.594023622047244
 10
10.02825984251968
 20
-1.595972440944882
 10
10.03814566929134
 20
-1.597141732283465
 10
10.04844488188976
 20
-1.597531496062992
  0
LWPOLYLINE
  5
7A
330
1F
100
AcDbEntity
  8
Layer 1
 62
     7
100
AcDbPolyline
 90
      147
 70
     1
 43
0.0
 10
7.257523622047244
 20
7.222145669291338
 10
7.213291338582677
 20
7.222145669291338
 10
7.208007874015748
 20
7.21290157480315
 10
7.202212598425197
 20
7.204122047244095
 10
7.195909448818898
 20
7.195811023622047
 10
7.189090551181103
 20
7.187968503937008
 10
7.181763779527559
 20
7.180586614173229
 10
7.17392125984252
 20
7.173677165354331
 10
7.165570866141732
 20
7.167228346456693
 10
7.156708661417323
 20
7.161251968503937
 10
7.147476377952755
 20
7.155866141732283
 10
7.13801968503937
 20
7.151200787401574
 10
7.128338582677165
 20
7.147251968503937
 10
7.118433070866142
 20
7.14401968503937
 10
7.108303149606299
 20
7.141507874015748
 10
7.097948818897637
 20
7.139712598425197
 10
7.087370078740157
 20
7.138633858267717
 10
7.076566929133858
 20
7.138275590551181
 10
7.060807086614173
 20
7.13901968503937
 10
7.04561811023622
 20
7.141255905511811
 10
7.031007874015748
 20
7.14498031496063
 10
7.016968503937008
 20
7.150196850393701
 10
7.003503937007874
 20
7.156901574803149
 10
6.990614173228346
 20
7.165094488188976
 10
6.978299212598425
 20
7.174779527559055
 10
6.96655905511811
 20
7.185956692913386
 10
6.956125984251969
 20
7.197846456692913
 10
6.947082677165354
 20
7.210318897637795
 10
6.939429133858268
 20
7.223374015748031
 10
6.933169291338583
 20
7.237011811023622
 10
6.928299212598425
 20
7.251236220472441
 10
6.92482283464567
 20
7.26603937007874
 10
6.922736220472441
 20
7.281429133858268
 10
6.92203937007874
 20
7.29740157480315
 10
6.922736220472441
 20
7.313507874015748
 10
6.92482283464567
 20
7.329015748031496
 10
6.928299212598425
 20
7.34392125984252
 10
6.933169291338583
 20
7.358224409448819
 10
6.939429133858268
 20
7.371925196850394
 10
6.947082677165354
 20
7.385023622047244
 10
6.956125984251969
 20
7.39751968503937
 10
6.96655905511811
 20
7.409417322834646
 10
6.971913385826771
 20
7.414736220472441
 10
6.977492125984252
 20
7.419775590551181
 10
6.983295275590551
 20
7.42453937007874
 10
6.98932283464567
 20
7.429023622047244
 10
6.995574803149606
 20
7.433228346456693
 10
7.002051181102362
 20
7.43715748031496
 10
7.008751968503937
 20
7.440807086614173
 10
7.01567716535433
 20
7.444177165354331
 10
7.022696850393701
 20
7.447204724409449
 10
7.029677165354331
 20
7.449830708661417
 10
7.036625984251969
 20
7.452051181102362
 10
7.04353937007874
 20
7.453870078740158
 10
7.050413385826771
 20
7.455283464566929
 10
7.057255905511811
 20
7.456295275590551
 10
7.06405905511811
 20
7.456901574803149
 10
7.070826771653543
 20
7.457102362204725
 10
7.077472440944882
 20
7.457007874015748
 10
7.083913385826771
 20
7.456724409448819
 10
7.090145669291338
 20
7.456251968503937
 10
7.096173228346457
 20
7.455594488188976
 10
7.101992125984252
 20
7.454744094488189
 10
7.107606299212598
 20
7.453708661417322
 10
7.113015748031496
 20
7.45248031496063
 10
7.118216535433071
 20
7.451066929133859
 10
7.133421259842519
 20
7.445814960629921
 10
7.147657480314961
 20
7.439326771653543
 10
7.160925196850394
 20
7.43159842519685
 10
7.173220472440945
 20
7.422633858267717
 10
7.184551181102362
 20
7.412429133858268
 10
7.194909448818898
 20
7.400984251968504
 10
7.204299212598425
 20
7.388299212598425
 10
7.212716535433071
 20
7.374377952755905
 10
7.256948818897638
 20
7.374377952755905
 10
7.250996062992126
 20
7.387972440944882
 10
7.244200787401574
 20
7.400893700787401
 10
7.236562992125984
 20
7.413141732283465
 10
7.228082677165355
 20
7.424716535433071
 10
7.218755905511811
 20
7.435618110236221
 10
7.208582677165355
 20
7.445846456692913
 10
7.197570866141732
 20
7.455397637795276
 10
7.185712598425197
 20
7.464279527559055
 10
7.173263779527559
 20
7.472291338582677
 10
7.160476377952756
 20
7.479236220472441
 10
7.147342519685039
 20
7.485110236220472
 10
7.133870078740157
 20
7.489917322834645
 10
7.12005905511811
 20
7.493657480314961
 10
7.105901574803149
 20
7.496326771653544
 10
7.091405511811024
 20
7.497929133858268
 10
7.076566929133858
 20
7.498464566929134
 10
7.056653543307086
 20
7.497531496062992
 10
7.037488188976378
 20
7.494728346456693
 10
7.019066929133858
 20
7.490062992125984
 10
7.001389763779527
 20
7.483527559055118
 10
6.984456692913386
 20
7.475125984251968
 10
6.968267716535433
 20
7.464854330708661
 10
6.952822834645669
 20
7.452720472440945
 10
6.938125984251968
 20
7.438716535433071
 10
6.931696850393701
 20
7.431685039370079
 10
6.925629921259842
 20
7.424374015748032
 10
6.919921259842519
 20
7.416783464566929
 10
6.914570866141732
 20
7.408917322834646
 10
6.909582677165354
 20
7.400771653543307
 10
6.904948818897638
 20
7.392346456692914
 10
6.900677165354331
 20
7.383645669291338
 10
6.896763779527559
 20
7.374665354330709
 10
6.893263779527559
 20
7.36548031496063
 10
6.890232283464567
 20
7.356157480314961
 10
6.887665354330709
 20
7.346704724409449
 10
6.885562992125984
 20
7.337114173228346
 10
6.883929133858268
 20
7.327385826771653
 10
6.882759842519685
 20
7.317527559055118
 10
6.88205905511811
 20
7.307531496062992
 10
6.881826771653543
 20
7.29740157480315
 10
6.882704724409449
 20
7.277263779527559
 10
6.885346456692913
 20
7.257854330708661
 10
6.889744094488189
 20
7.239169291338583
 10
6.895901574803149
 20
7.221212598425197
 10
6.903818897637795
 20
7.203984251968504
 10
6.913496062992126
 20
7.18748031496063
 10
6.924933070866142
 20
7.171704724409449
 10
6.938125984251968
 20
7.15665748031496
 10
6.952822834645669
 20
7.142657480314961
 10
6.968267716535433
 20
7.13051968503937
 10
6.984456692913386
 20
7.120251968503937
 10
7.001389763779527
 20
7.111850393700787
 10
7.019066929133858
 20
7.105314960629921
 10
7.037488188976378
 20
7.100649606299212
 10
7.056653543307086
 20
7.097846456692913
 10
7.076566929133858
 20
7.096913385826771
 10
7.091350393700788
 20
7.097456692913386
 10
7.105830708661418
 20
7.099086614173229
 10
7.120003937007874
 20
7.101803149606299
 10
7.133870078740157
 20
7.105602362204724
 10
7.147433070866142
 20
7.110492125984252
 10
7.160688976377953
 20
7.116464566929134
 10
7.173641732283465
 20
7.123527559055118
 10
7.186287401574803
 20
7.131673228346457
 10
7.198240157480315
 20
7.140625984251969
 10
7.209322834645669
 20
7.150251968503937
 10
7.219531496062992
 20
7.160551181102362
 10
7.228874015748032
 20
7.171523622047244
 10
7.237342519685039
 20
7.183169291338583
 10
7.24494094488189
 20
7.195488188976378
 10
7.251665354330709
 20
7.20848031496063
 10
7.257523622047244
 20
7.222145669291338
  0
LWPOLYLINE
  5
7B
330
1F
100
AcDbEntity
  8
Layer 1
 62
     7
100
AcDbPolyline
 90
       36
 70
     1
 43
0.0
 10
7.358055118110236
 20
7.29644094488189
 10
7.358055118110236
 20
7.454996062992126
 10
7.448818897637795
 20
7.454996062992126
 10
7.4575
 20
7.454653543307087
 10
7.465732283464567
 20
7.453629921259843
 10
7.473511811023622
 20
7.451925196850394
 10
7.480846456692913
 20
7.44953937007874
 10
7.487728346456693
 20
7.446468503937008
 10
7.494165354330709
 20
7.442716535433071
 10
7.500149606299213
 20
7.438283464566929
 10
7.505688976377953
 20
7.433165354330709
 10
7.510669291338583
 20
7.427503937007874
 10
7.514988188976378
 20
7.421444881889764
 10
7.518641732283465
 20
7.41498031496063
 10
7.521629921259843
 20
7.40811811023622
 10
7.523956692913385
 20
7.400854330708661
 10
7.525618110236221
 20
7.393192913385827
 10
7.526614173228347
 20
7.385133858267716
 10
7.526944881889764
 20
7.376677165354331
 10
7.526594488188977
 20
7.368236220472441
 10
7.525543307086614
 20
7.360145669291339
 10
7.523795275590551
 20
7.352409448818897
 10
7.521346456692913
 20
7.345031496062992
 10
7.518192913385827
 20
7.338011811023622
 10
7.514342519685039
 20
7.331354330708661
 10
7.509791338582677
 20
7.325062992125984
 10
7.50453937007874
 20
7.319133858267716
 10
7.498830708661417
 20
7.313814960629921
 10
7.492763779527559
 20
7.309208661417323
 10
7.486338582677165
 20
7.305307086614174
 10
7.479551181102362
 20
7.302114173228347
 10
7.472409448818897
 20
7.299633858267716
 10
7.464905511811024
 20
7.297858267716536
 10
7.45703937007874
 20
7.296795275590551
 10
7.448818897637795
 20
7.29644094488189
 10
7.358055118110236
 20
7.29644094488189
  0
LWPOLYLINE
  5
7C
330
1F
100
AcDbEntity
  8
Layer 1
 62
     7
100
AcDbPolyline
 90
       38
 70
     1
 43
0.0
 10
7.567157480314961
 20
7.375720472440945
 10
7.566586614173229
 20
7.388326771653543
 10
7.564877952755905
 20
7.400366141732284
 10
7.562027559055118
 20
7.411842519685039
 10
7.55803937007874
 20
7.422751968503937
 10
7.552909448818897
 20
7.433094488188976
 10
7.546637795275591
 20
7.442874015748031
 10
7.539228346456693
 20
7.452086614173228
 10
7.530681102362204
 20
7.460736220472441
 10
7.521488188976378
 20
7.468409448818898
 10
7.511795275590551
 20
7.475062992125984
 10
7.501598425196851
 20
7.480688976377952
 10
7.490897637795276
 20
7.485295275590551
 10
7.479696850393701
 20
7.488877952755906
 10
7.467992125984252
 20
7.491433070866142
 10
7.455787401574804
 20
7.492968503937008
 10
7.44307874015748
 20
7.49348031496063
 10
7.31784251968504
 20
7.49348031496063
 10
7.31784251968504
 20
7.102850393700788
 10
7.358055118110236
 20
7.102850393700788
 10
7.358055118110236
 20
7.25738188976378
 10
7.44307874015748
 20
7.25738188976378
 10
7.455850393700787
 20
7.257897637795276
 10
7.468102362204724
 20
7.259444881889764
 10
7.479834645669292
 20
7.262027559055118
 10
7.491043307086614
 20
7.26563779527559
 10
7.501732283464567
 20
7.270283464566929
 10
7.51190157480315
 20
7.27596062992126
 10
7.521551181102362
 20
7.282669291338583
 10
7.530681102362204
 20
7.290413385826771
 10
7.539228346456693
 20
7.299161417322835
 10
7.546637795275591
 20
7.308452755905511
 10
7.552909448818897
 20
7.318295275590551
 10
7.55803937007874
 20
7.328685039370079
 10
7.562027559055118
 20
7.339622047244094
 10
7.564877952755905
 20
7.351110236220473
 10
7.566586614173229
 20
7.363141732283465
 10
7.567157480314961
 20
7.375720472440945
  0
LWPOLYLINE
  5
7D
330
1F
100
AcDbEntity
  8
Layer 1
 62
     7
100
AcDbPolyline
 90
       88
 70
     1
 43
0.0
 10
7.770803149606299
 20
7.447909448818898
 10
7.777437007874016
 20
7.443405511811024
 10
7.783622047244094
 20
7.438287401574804
 10
7.789358267716535
 20
7.432562992125984
 10
7.794641732283464
 20
7.426224409448819
 10
7.79948031496063
 20
7.419275590551181
 10
7.803870078740157
 20
7.411720472440945
 10
7.807807086614173
 20
7.403551181102362
 10
7.811299212598425
 20
7.394771653543307
 10
7.815204724409448
 20
7.383125984251969
 10
7.818590551181102
 20
7.371307086614173
 10
7.821452755905511
 20
7.35932283464567
 10
7.823795275590551
 20
7.347165354330708
 10
7.825618110236221
 20
7.334834645669291
 10
7.82692125984252
 20
7.322334645669291
 10
7.827700787401575
 20
7.309665354330709
 10
7.82796062992126
 20
7.296826771653543
 10
7.826240157480315
 20
7.268389763779528
 10
7.824248031496063
 20
7.252948818897638
 10
7.821641732283465
 20
7.238358267716535
 10
7.818429133858268
 20
7.224622047244094
 10
7.814602362204725
 20
7.211736220472441
 10
7.810169291338583
 20
7.199704724409449
 10
7.805125984251968
 20
7.188523622047244
 10
7.799472440944882
 20
7.178196850393701
 10
7.793208661417323
 20
7.168720472440945
 10
7.787488188976378
 20
7.161586614173229
 10
7.781464566929134
 20
7.155401574803149
 10
7.77513779527559
 20
7.150169291338583
 10
7.768503937007874
 20
7.145885826771654
 10
7.761566929133858
 20
7.14255905511811
 10
7.754322834645669
 20
7.140177165354331
 10
7.746775590551181
 20
7.138751968503937
 10
7.738921259842519
 20
7.138275590551181
 10
7.73015748031496
 20
7.138748031496063
 10
7.721811023622047
 20
7.140161417322835
 10
7.713889763779528
 20
7.142515748031496
 10
7.706393700787402
 20
7.145814960629921
 10
7.699314960629922
 20
7.150055118110236
 10
7.692657480314961
 20
7.155240157480315
 10
7.686425196850394
 20
7.161366141732284
 10
7.680610236220472
 20
7.168437007874016
 10
7.675799212598426
 20
7.17540157480315
 10
7.67142125984252
 20
7.182799212598425
 10
7.667472440944882
 20
7.190622047244094
 10
7.663952755905512
 20
7.198881889763779
 10
7.660846456692913
 20
7.207409448818898
 10
7.65813779527559
 20
7.216043307086614
 10
7.65582283464567
 20
7.224787401574803
 10
7.653901574803149
 20
7.23363779527559
 10
7.649015748031496
 20
7.268102362204725
 10
7.64757874015748
 20
7.306496062992126
 10
7.647972440944882
 20
7.317984251968504
 10
7.649157480314961
 20
7.330779527559055
 10
7.651133858267716
 20
7.344881889763779
 10
7.653901574803149
 20
7.360307086614173
 10
7.655803149606299
 20
7.369047244094488
 10
7.658062992125984
 20
7.377755905511811
 10
7.660685039370079
 20
7.386425196850394
 10
7.663665354330709
 20
7.39505905511811
 10
7.66705905511811
 20
7.40346062992126
 10
7.670917322834645
 20
7.411433070866142
 10
7.675244094488189
 20
7.418972440944882
 10
7.680035433070866
 20
7.426078740157481
 10
7.682614173228346
 20
7.42944094488189
 10
7.685314960629921
 20
7.432633858267716
 10
7.688141732283465
 20
7.435653543307087
 10
7.691094488188976
 20
7.438503937007874
 10
7.694173228346457
 20
7.441181102362204
 10
7.697381889763779
 20
7.443692913385827
 10
7.700712598425197
 20
7.446031496062992
 10
7.704169291338583
 20
7.448196850393701
 10
7.707767716535433
 20
7.450149606299212
 10
7.711527559055118
 20
7.451838582677166
 10
7.715448818897638
 20
7.453271653543307
 10
7.719535433070866
 20
7.454444881889764
 10
7.723779527559056
 20
7.455354330708661
 10
7.728185039370079
 20
7.456007874015748
 10
7.732751968503937
 20
7.456397637795275
 10
7.737484251968504
 20
7.456527559055118
 10
7.742212598425197
 20
7.456393700787402
 10
7.74678346456693
 20
7.455988188976378
 10
7.751188976377953
 20
7.455314960629921
 10
7.755437007874016
 20
7.454374015748032
 10
7.75951968503937
 20
7.453161417322835
 10
7.76344094488189
 20
7.451681102362205
 10
7.767204724409448
 20
7.449929133858268
 10
7.770803149606299
 20
7.447909448818898
  0
LWPOLYLINE
  5
7E
330
1F
100
AcDbEntity
  8
Layer 1
 62
     7
100
AcDbPolyline
 90
       65
 70
     1
 43
0.0
 10
7.739496062992126
 20
7.097492125984252
 10
7.756267716535433
 20
7.098555118110236
 10
7.771968503937008
 20
7.101748031496063
 10
7.786606299212599
 20
7.107062992125984
 10
7.800173228346456
 20
7.114507874015748
 10
7.812669291338582
 20
7.124082677165354
 10
7.82409842519685
 20
7.135779527559055
 10
7.83446062992126
 20
7.149610236220473
 10
7.843755905511811
 20
7.165562992125984
 10
7.850287401574803
 20
7.179484251968504
 10
7.855948818897637
 20
7.194177165354331
 10
7.860736220472441
 20
7.209645669291339
 10
7.864653543307087
 20
7.225881889763779
 10
7.867700787401575
 20
7.242889763779528
 10
7.869877952755905
 20
7.260673228346457
 10
7.871181102362205
 20
7.279224409448819
 10
7.871618110236221
 20
7.298551181102362
 10
7.871181102362205
 20
7.317877952755905
 10
7.869877952755905
 20
7.336429133858267
 10
7.867700787401575
 20
7.354212598425197
 10
7.864653543307087
 20
7.371220472440945
 10
7.860736220472441
 20
7.387456692913386
 10
7.855948818897637
 20
7.40292125984252
 10
7.850287401574803
 20
7.417614173228347
 10
7.843755905511811
 20
7.431535433070867
 10
7.83446062992126
 20
7.447492125984252
 10
7.82409842519685
 20
7.461318897637796
 10
7.812669291338582
 20
7.47301968503937
 10
7.800173228346456
 20
7.482594488188976
 10
7.786606299212599
 20
7.49003937007874
 10
7.771968503937008
 20
7.495354330708661
 10
7.756267716535433
 20
7.498547244094488
 10
7.739496062992126
 20
7.499610236220472
 10
7.722724409448819
 20
7.498547244094488
 10
7.70701968503937
 20
7.495354330708661
 10
7.692385826771654
 20
7.49003937007874
 10
7.678818897637795
 20
7.482594488188976
 10
7.666318897637796
 20
7.47301968503937
 10
7.654885826771654
 20
7.461318897637796
 10
7.644523622047244
 20
7.447492125984252
 10
7.635228346456693
 20
7.431535433070867
 10
7.628700787401574
 20
7.417614173228347
 10
7.62303937007874
 20
7.40292125984252
 10
7.618251968503937
 20
7.387456692913386
 10
7.614334645669292
 20
7.371220472440945
 10
7.611287401574804
 20
7.354212598425197
 10
7.609110236220473
 20
7.336429133858267
 10
7.607807086614173
 20
7.317877952755905
 10
7.607370078740158
 20
7.298551181102362
 10
7.607807086614173
 20
7.279224409448819
 10
7.609110236220473
 20
7.260673228346457
 10
7.611287401574804
 20
7.242889763779528
 10
7.614334645669292
 20
7.225881889763779
 10
7.618251968503937
 20
7.209645669291339
 10
7.62303937007874
 20
7.194177165354331
 10
7.628700787401574
 20
7.179484251968504
 10
7.635228346456693
 20
7.165562992125984
 10
7.644523622047244
 20
7.149610236220473
 10
7.654885826771654
 20
7.135779527559055
 10
7.666318897637796
 20
7.124082677165354
 10
7.678818897637795
 20
7.114507874015748
 10
7.692385826771654
 20
7.107062992125984
 10
7.70701968503937
 20
7.101748031496063
 10
7.722724409448819
 20
7.098555118110236
 10
7.739496062992126
 20
7.097492125984252
  0
LWPOLYLINE
  5
7F
330
1F
100
AcDbEntity
  8
Layer 1
 62
     7
100
AcDbPolyline
 90
       88
 70
     1
 43
0.0
 10
8.0925
 20
7.447909448818898
 10
8.099133858267717
 20
7.443405511811024
 10
8.105318897637796
 20
7.438287401574804
 10
8.111055118110237
 20
7.432562992125984
 10
8.116338582677166
 20
7.426224409448819
 10
8.12117716535433
 20
7.419275590551181
 10
8.125566929133859
 20
7.411720472440945
 10
8.129503937007874
 20
7.403551181102362
 10
8.132996062992126
 20
7.394771653543307
 10
8.136901574803149
 20
7.383125984251969
 10
8.140287401574803
 20
7.371307086614173
 10
8.143149606299213
 20
7.35932283464567
 10
8.145492125984251
 20
7.347165354330708
 10
8.147314960629922
 20
7.334834645669291
 10
8.148618110236221
 20
7.322334645669291
 10
8.149397637795275
 20
7.309665354330709
 10
8.14965748031496
 20
7.296826771653543
 10
8.147937007874015
 20
7.268389763779528
 10
8.145944881889763
 20
7.252948818897638
 10
8.143342519685039
 20
7.238358267716535
 10
8.140125984251968
 20
7.224622047244094
 10
8.136303149606299
 20
7.211736220472441
 10
8.131870078740157
 20
7.199704724409449
 10
8.126826771653544
 20
7.188523622047244
 10
8.121169291338584
 20
7.178196850393701
 10
8.114905511811024
 20
7.168720472440945
 10
8.109188976377952
 20
7.161586614173229
 10
8.10316535433071
 20
7.155401574803149
 10
8.096834645669292
 20
7.150169291338583
 10
8.090200787401574
 20
7.145885826771654
 10
8.08326377952756
 20
7.14255905511811
 10
8.07601968503937
 20
7.140177165354331
 10
8.068472440944882
 20
7.138751968503937
 10
8.06061811023622
 20
7.138275590551181
 10
8.051854330708661
 20
7.138748031496063
 10
8.043507874015749
 20
7.140161417322835
 10
8.035586614173228
 20
7.142515748031496
 10
8.028090551181103
 20
7.145814960629921
 10
8.021011811023621
 20
7.150055118110236
 10
8.014354330708661
 20
7.155240157480315
 10
8.008122047244095
 20
7.161366141732284
 10
8.002307086614174
 20
7.168437007874016
 10
7.997496062992126
 20
7.17540157480315
 10
7.99311811023622
 20
7.182799212598425
 10
7.989169291338583
 20
7.190622047244094
 10
7.985653543307087
 20
7.198881889763779
 10
7.982547244094488
 20
7.207409448818898
 10
7.979834645669292
 20
7.216043307086614
 10
7.97751968503937
 20
7.224787401574803
 10
7.975598425196851
 20
7.23363779527559
 10
7.970712598425197
 20
7.268102362204725
 10
7.969275590551181
 20
7.306496062992126
 10
7.969669291338582
 20
7.317984251968504
 10
7.970858267716536
 20
7.330779527559055
 10
7.972834645669291
 20
7.344881889763779
 10
7.975598425196851
 20
7.360307086614173
 10
7.9775
 20
7.369047244094488
 10
7.979763779527559
 20
7.377755905511811
 10
7.982385826771654
 20
7.386425196850394
 10
7.985366141732284
 20
7.39505905511811
 10
7.988759842519685
 20
7.40346062992126
 10
7.99261811023622
 20
7.411433070866142
 10
7.996944881889764
 20
7.418972440944882
 10
8.001736220472441
 20
7.426078740157481
 10
8.004314960629921
 20
7.42944094488189
 10
8.007015748031495
 20
7.432633858267716
 10
8.009842519685039
 20
7.435653543307087
 10
8.012795275590552
 20
7.438503937007874
 10
8.015874015748032
 20
7.441181102362204
 10
8.01907874015748
 20
7.443692913385827
 10
8.022409448818898
 20
7.446031496062992
 10
8.025866141732283
 20
7.448196850393701
 10
8.029464566929134
 20
7.450149606299212
 10
8.033224409448819
 20
7.451838582677166
 10
8.03714566929134
 20
7.453271653543307
 10
8.041232283464566
 20
7.454444881889764
 10
8.045476377952756
 20
7.455354330708661
 10
8.04988188976378
 20
7.456007874015748
 10
8.054452755905512
 20
7.456397637795275
 10
8.059185039370078
 20
7.456527559055118
 10
8.06391338582677
 20
7.456393700787402
 10
8.068484251968504
 20
7.455988188976378
 10
8.072889763779527
 20
7.455314960629921
 10
8.077133858267716
 20
7.454374015748032
 10
8.081216535433072
 20
7.453161417322835
 10
8.085141732283464
 20
7.451681102362205
 10
8.088901574803149
 20
7.449929133858268
 10
8.0925
 20
7.447909448818898
  0
LWPOLYLINE
  5
80
330
1F
100
AcDbEntity
  8
Layer 1
 62
     7
100
AcDbPolyline
 90
       65
 70
     1
 43
0.0
 10
8.061192913385828
 20
7.097492125984252
 10
8.077964566929134
 20
7.098555118110236
 10
8.093665354330708
 20
7.101748031496063
 10
8.1083031496063
 20
7.107062992125984
 10
8.121870078740157
 20
7.114507874015748
 10
8.134370078740158
 20
7.124082677165354
 10
8.145799212598424
 20
7.135779527559055
 10
8.156161417322835
 20
7.149610236220473
 10
8.165452755905513
 20
7.165562992125984
 10
8.171984251968503
 20
7.179484251968504
 10
8.177645669291339
 20
7.194177165354331
 10
8.182433070866141
 20
7.209645669291339
 10
8.186354330708662
 20
7.225881889763779
 10
8.18940157480315
 20
7.242889763779528
 10
8.19157874015748
 20
7.260673228346457
 10
8.192881889763779
 20
7.279224409448819
 10
8.193318897637795
 20
7.298551181102362
 10
8.192881889763779
 20
7.317877952755905
 10
8.19157874015748
 20
7.336429133858267
 10
8.18940157480315
 20
7.354212598425197
 10
8.186354330708662
 20
7.371220472440945
 10
8.182433070866141
 20
7.387456692913386
 10
8.177645669291339
 20
7.40292125984252
 10
8.171984251968503
 20
7.417614173228347
 10
8.165452755905513
 20
7.431535433070867
 10
8.156161417322835
 20
7.447492125984252
 10
8.145799212598424
 20
7.461318897637796
 10
8.134370078740158
 20
7.47301968503937
 10
8.121870078740157
 20
7.482594488188976
 10
8.1083031496063
 20
7.49003937007874
 10
8.093665354330708
 20
7.495354330708661
 10
8.077964566929134
 20
7.498547244094488
 10
8.061192913385828
 20
7.499610236220472
 10
8.044421259842519
 20
7.498547244094488
 10
8.028716535433071
 20
7.495354330708661
 10
8.014082677165355
 20
7.49003937007874
 10
8.000515748031496
 20
7.482594488188976
 10
7.988015748031496
 20
7.47301968503937
 10
7.976586614173228
 20
7.461318897637796
 10
7.966224409448819
 20
7.447492125984252
 10
7.956929133858267
 20
7.431535433070867
 10
7.950397637795276
 20
7.417614173228347
 10
7.944740157480315
 20
7.40292125984252
 10
7.939948818897638
 20
7.387456692913386
 10
7.936031496062992
 20
7.371220472440945
 10
7.932984251968504
 20
7.354212598425197
 10
7.930807086614173
 20
7.336429133858267
 10
7.929503937007874
 20
7.317877952755905
 10
7.929066929133858
 20
7.298551181102362
 10
7.929503937007874
 20
7.279224409448819
 10
7.930807086614173
 20
7.260673228346457
 10
7.932984251968504
 20
7.242889763779528
 10
7.936031496062992
 20
7.225881889763779
 10
7.939948818897638
 20
7.209645669291339
 10
7.944740157480315
 20
7.194177165354331
 10
7.950397637795276
 20
7.179484251968504
 10
7.956929133858267
 20
7.165562992125984
 10
7.966224409448819
 20
7.149610236220473
 10
7.976586614173228
 20
7.135779527559055
 10
7.988015748031496
 20
7.124082677165354
 10
8.000515748031496
 20
7.114507874015748
 10
8.014082677165355
 20
7.107062992125984
 10
8.028716535433071
 20
7.101748031496063
 10
8.044421259842519
 20
7.098555118110236
 10
8.061192913385828
 20
7.097492125984252
  0
LWPOLYLINE
  5
81
330
1F
100
AcDbEntity
  8
Layer 1
 62
     7
100
AcDbPolyline
 90
       65
 70
     1
 43
0.0
 10
8.373125984251969
 20
7.301421259842519
 10
8.381645669291338
 20
7.301055118110236
 10
8.389838582677166
 20
7.299948818897637
 10
8.397692913385827
 20
7.298110236220473
 10
8.405220472440945
 20
7.295535433070866
 10
8.412413385826772
 20
7.292220472440945
 10
8.41927559055118
 20
7.288173228346457
 10
8.425807086614173
 20
7.283389763779527
 10
8.432003937007874
 20
7.277870078740158
 10
8.437594488188976
 20
7.271885826771654
 10
8.442437007874016
 20
7.265555118110236
 10
8.446535433070865
 20
7.258885826771653
 10
8.449885826771654
 20
7.251877952755906
 10
8.452496062992125
 20
7.244527559055118
 10
8.454358267716536
 20
7.236834645669291
 10
8.455472440944883
 20
7.228799212598426
 10
8.455846456692914
 20
7.220425196850393
 10
8.45548031496063
 20
7.212125984251968
 10
8.454374015748032
 20
7.204106299212598
 10
8.452535433070866
 20
7.19636220472441
 10
8.449956692913386
 20
7.18890157480315
 10
8.446645669291339
 20
7.181712598425197
 10
8.44259842519685
 20
7.174807086614173
 10
8.437811023622046
 20
7.168177165354331
 10
8.432291338582678
 20
7.161826771653543
 10
8.426248031496064
 20
7.156035433070866
 10
8.419814960629921
 20
7.15101968503937
 10
8.413
 20
7.146775590551181
 10
8.40579527559055
 20
7.143299212598425
 10
8.398208661417323
 20
7.14059842519685
 10
8.390232283464567
 20
7.138669291338583
 10
8.381874015748032
 20
7.137511811023622
 10
8.373125984251969
 20
7.137125984251968
 10
8.364377952755905
 20
7.137511811023622
 10
8.356015748031496
 20
7.138669291338583
 10
8.348043307086614
 20
7.14059842519685
 10
8.340452755905511
 20
7.143299212598425
 10
8.333248031496064
 20
7.146775590551181
 10
8.326433070866141
 20
7.15101968503937
 10
8.32
 20
7.156035433070866
 10
8.313952755905511
 20
7.161826771653543
 10
8.308433070866142
 20
7.168177165354331
 10
8.303649606299212
 20
7.174807086614173
 10
8.299602362204725
 20
7.181712598425197
 10
8.296291338582677
 20
7.18890157480315
 10
8.293712598425197
 20
7.19636220472441
 10
8.291874015748032
 20
7.204106299212598
 10
8.290771653543308
 20
7.212125984251968
 10
8.29040157480315
 20
7.220425196850393
 10
8.290775590551181
 20
7.228799212598426
 10
8.291889763779528
 20
7.236834645669291
 10
8.293751968503937
 20
7.244527559055118
 10
8.29636220472441
 20
7.251877952755906
 10
8.299712598425197
 20
7.258885826771653
 10
8.303811023622048
 20
7.265555118110236
 10
8.308653543307086
 20
7.271885826771654
 10
8.314244094488188
 20
7.277870078740158
 10
8.32044094488189
 20
7.283389763779527
 10
8.326972440944882
 20
7.288173228346457
 10
8.333830708661417
 20
7.292220472440945
 10
8.341027559055117
 20
7.295535433070866
 10
8.348551181102362
 20
7.298110236220473
 10
8.356409448818898
 20
7.299948818897637
 10
8.364602362204725
 20
7.301055118110236
 10
8.373125984251969
 20
7.301421259842519
  0
LWPOLYLINE
  5
82
330
1F
100
AcDbEntity
  8
Layer 1
 62
     7
100
AcDbPolyline
 90
       65
 70
     1
 43
0.0
 10
8.373125984251969
 20
7.459972440944882
 10
8.379996062992126
 20
7.459685039370079
 10
8.386606299212598
 20
7.45882283464567
 10
8.392956692913385
 20
7.457389763779528
 10
8.399047244094488
 20
7.455377952755906
 10
8.404877952755905
 20
7.452791338582677
 10
8.410444881889763
 20
7.449633858267717
 10
8.41575590551181
 20
7.445897637795276
 10
8.4208031496063
 20
7.441590551181102
 10
8.425515748031495
 20
7.436748031496063
 10
8.42959842519685
 20
7.431625984251968
 10
8.433055118110236
 20
7.426228346456693
 10
8.43588188976378
 20
7.420551181102362
 10
8.438082677165355
 20
7.414594488188976
 10
8.439653543307086
 20
7.408362204724409
 10
8.440594488188976
 20
7.401850393700787
 10
8.440909448818898
 20
7.39505905511811
 10
8.440594488188976
 20
7.388417322834646
 10
8.439653543307086
 20
7.381992125984252
 10
8.438082677165355
 20
7.375779527559055
 10
8.43588188976378
 20
7.369783464566929
 10
8.433055118110236
 20
7.364003937007874
 10
8.42959842519685
 20
7.35844094488189
 10
8.425515748031495
 20
7.353090551181102
 10
8.4208031496063
 20
7.347956692913386
 10
8.415783464566928
 20
7.343377952755906
 10
8.410496062992125
 20
7.339409448818897
 10
8.40494094488189
 20
7.336051181102362
 10
8.39911811023622
 20
7.333307086614173
 10
8.393023622047243
 20
7.331169291338583
 10
8.386661417322834
 20
7.329641732283465
 10
8.380027559055119
 20
7.328728346456693
 10
8.373125984251969
 20
7.32842125984252
 10
8.366224409448819
 20
7.328728346456693
 10
8.359590551181102
 20
7.329641732283465
 10
8.353228346456692
 20
7.331169291338583
 10
8.347129921259842
 20
7.333307086614173
 10
8.341307086614174
 20
7.336051181102362
 10
8.335748031496063
 20
7.339409448818897
 10
8.33046062992126
 20
7.343377952755906
 10
8.325444881889764
 20
7.347956692913386
 10
8.320732283464567
 20
7.353090551181102
 10
8.316649606299213
 20
7.35844094488189
 10
8.313192913385826
 20
7.364003937007874
 10
8.310366141732283
 20
7.369783464566929
 10
8.30816535433071
 20
7.375779527559055
 10
8.306594488188976
 20
7.381992125984252
 10
8.305653543307086
 20
7.388417322834646
 10
8.305338582677166
 20
7.39505905511811
 10
8.305653543307086
 20
7.401850393700787
 10
8.306594488188976
 20
7.408362204724409
 10
8.30816535433071
 20
7.414594488188976
 10
8.310366141732283
 20
7.420551181102362
 10
8.313192913385826
 20
7.426228346456693
 10
8.316649606299213
 20
7.431625984251968
 10
8.320732283464567
 20
7.436748031496063
 10
8.325444881889764
 20
7.441590551181102
 10
8.330492125984252
 20
7.445897637795276
 10
8.3358031496063
 20
7.449633858267717
 10
8.341370078740157
 20
7.452791338582677
 10
8.347200787401574
 20
7.455377952755906
 10
8.353291338582677
 20
7.457389763779528
 10
8.359641732283464
 20
7.45882283464567
 10
8.366251968503937
 20
7.459685039370079
 10
8.373125984251969
 20
7.459972440944882
  0
LWPOLYLINE
  5
83
330
1F
100
AcDbEntity
  8
Layer 1
 62
     7
100
AcDbPolyline
 90
      121
 70
     1
 43
0.0
 10
8.373125984251969
 20
7.096913385826771
 10
8.386287401574803
 20
7.097413385826772
 10
8.39892125984252
 20
7.098905511811024
 10
8.411023622047244
 20
7.101397637795276
 10
8.42259842519685
 20
7.10488188976378
 10
8.433641732283464
 20
7.109366141732283
 10
8.44415748031496
 20
7.114846456692914
 10
8.454141732283464
 20
7.121322834645669
 10
8.463598425196851
 20
7.128795275590551
 10
8.46786220472441
 20
7.132700787401575
 10
8.471893700787401
 20
7.136803149606299
 10
8.475692913385826
 20
7.141102362204724
 10
8.479255905511812
 20
7.145598425196851
 10
8.48258661417323
 20
7.150295275590551
 10
8.485685039370079
 20
7.155185039370079
 10
8.488547244094487
 20
7.160275590551181
 10
8.491177165354332
 20
7.165562992125984
 10
8.493531496062992
 20
7.171047244094488
 10
8.495574803149607
 20
7.176728346456693
 10
8.4973031496063
 20
7.182606299212599
 10
8.49871653543307
 20
7.188685039370078
 10
8.499814960629921
 20
7.194956692913386
 10
8.50059842519685
 20
7.201429133858268
 10
8.501070866141733
 20
7.208098425196851
 10
8.501228346456694
 20
7.214964566929134
 10
8.500964566929134
 20
7.22192125984252
 10
8.500169291338583
 20
7.228858267716536
 10
8.498846456692913
 20
7.235779527559055
 10
8.496992125984251
 20
7.242681102362205
 10
8.494606299212599
 20
7.249566929133858
 10
8.491692913385826
 20
7.256433070866142
 10
8.488251968503937
 20
7.263283464566929
 10
8.484279527559055
 20
7.270114173228347
 10
8.479814960629922
 20
7.276779527559055
 10
8.474889763779528
 20
7.283129921259842
 10
8.469507874015749
 20
7.289165354330708
 10
8.463673228346456
 20
7.294885826771654
 10
8.457374015748032
 20
7.300295275590551
 10
8.450622047244094
 20
7.305389763779528
 10
8.443409448818898
 20
7.310169291338583
 10
8.435740157480314
 20
7.314637795275591
 10
8.446645669291339
 20
7.32436220472441
 10
8.456098425196851
 20
7.334295275590551
 10
8.464094488188977
 20
7.344433070866142
 10
8.470641732283465
 20
7.354775590551181
 10
8.475728346456693
 20
7.365326771653543
 10
8.47936220472441
 20
7.376082677165354
 10
8.481543307086614
 20
7.387047244094489
 10
8.482271653543307
 20
7.398216535433071
 10
8.481771653543307
 20
7.409236220472441
 10
8.480279527559055
 20
7.419740157480315
 10
8.477787401574803
 20
7.429736220472441
 10
8.474299212598424
 20
7.439220472440945
 10
8.469814960629922
 20
7.448192913385827
 10
8.464338582677165
 20
7.456653543307087
 10
8.45786220472441
 20
7.464598425196851
 10
8.450389763779528
 20
7.472035433070866
 10
8.442492125984252
 20
7.4785
 10
8.434090551181102
 20
7.484102362204724
 10
8.42518503937008
 20
7.488838582677166
 10
8.415779527559055
 20
7.492716535433071
 10
8.405870078740158
 20
7.495732283464567
 10
8.395456692913386
 20
7.497885826771654
 10
8.384543307086615
 20
7.499181102362205
 10
8.373125984251969
 20
7.499610236220472
 10
8.361708661417323
 20
7.499181102362205
 10
8.350791338582678
 20
7.497885826771654
 10
8.340377952755906
 20
7.495732283464567
 10
8.330472440944883
 20
7.492716535433071
 10
8.321066929133858
 20
7.488838582677166
 10
8.312161417322836
 20
7.484102362204724
 10
8.303759842519685
 20
7.4785
 10
8.29586220472441
 20
7.472035433070866
 10
8.288389763779527
 20
7.464602362204724
 10
8.28191338582677
 20
7.456669291338582
 10
8.276433070866142
 20
7.448232283464567
 10
8.271948818897638
 20
7.439291338582677
 10
8.26846062992126
 20
7.429850393700788
 10
8.265968503937009
 20
7.419905511811024
 10
8.264476377952755
 20
7.409456692913386
 10
8.263976377952757
 20
7.398503937007874
 10
8.264704724409448
 20
7.387267716535433
 10
8.266885826771654
 20
7.376244094488189
 10
8.27051968503937
 20
7.36544094488189
 10
8.275610236220473
 20
7.354846456692913
 10
8.282153543307087
 20
7.344472440944882
 10
8.290149606299213
 20
7.334311023622047
 10
8.299602362204725
 20
7.324366141732283
 10
8.310507874015748
 20
7.314637795275591
 10
8.302838582677165
 20
7.310169291338583
 10
8.295625984251968
 20
7.305389763779528
 10
8.288870078740157
 20
7.300295275590551
 10
8.282574803149606
 20
7.294885826771654
 10
8.276736220472442
 20
7.289165354330708
 10
8.271354330708661
 20
7.283129921259842
 10
8.266433070866142
 20
7.276779527559055
 10
8.261968503937007
 20
7.270114173228347
 10
8.257996062992126
 20
7.263267716535433
 10
8.254555118110236
 20
7.256381889763779
 10
8.251641732283465
 20
7.249444881889763
 10
8.249255905511811
 20
7.242468503937008
 10
8.247401574803149
 20
7.235444881889764
 10
8.24607874015748
 20
7.228374015748032
 10
8.24528346456693
 20
7.221259842519685
 10
8.24501968503937
 20
7.214102362204724
 10
8.245606299212598
 20
7.201271653543307
 10
8.247370078740158
 20
7.18905905511811
 10
8.250311023622046
 20
7.177468503937008
 10
8.254429133858268
 20
7.166496062992126
 10
8.259720472440945
 20
7.156141732283465
 10
8.266185039370079
 20
7.146405511811023
 10
8.273830708661418
 20
7.137291338582677
 10
8.282649606299213
 20
7.128795275590551
 10
8.292106299212598
 20
7.121322834645669
 10
8.302090551181102
 20
7.114846456692914
 10
8.312606299212598
 20
7.109366141732283
 10
8.323649606299213
 20
7.10488188976378
 10
8.335224409448818
 20
7.101397637795276
 10
8.347326771653544
 20
7.098905511811024
 10
8.35996062992126
 20
7.097413385826772
 10
8.373125984251969
 20
7.096913385826771
  0
LWPOLYLINE
  5
84
330
1F
100
AcDbEntity
  8
Layer 1
 62
     7
100
AcDbPolyline
 90
       67
 70
     1
 43
0.0
 10
9.040964566929134
 20
7.059503937007874
 10
9.034566929133858
 20
7.071779527559055
 10
9.02857874015748
 20
7.084236220472441
 10
9.023007874015748
 20
7.096866141732283
 10
9.017846456692913
 20
7.109677165354331
 10
9.013102362204725
 20
7.122661417322835
 10
9.008771653543308
 20
7.135822834645669
 10
9.004858267716536
 20
7.149161417322834
 10
9.00136220472441
 20
7.162677165354331
 10
8.998251968503936
 20
7.176401574803149
 10
8.995562992125985
 20
7.190311023622047
 10
8.993287401574802
 20
7.204405511811023
 10
8.991429133858269
 20
7.218685039370079
 10
8.989984251968504
 20
7.233149606299213
 10
8.988952755905512
 20
7.247799212598426
 10
8.98833464566929
 20
7.262629921259842
 10
8.988129921259842
 20
7.277645669291338
 10
8.98833464566929
 20
7.293405511811024
 10
8.988952755905512
 20
7.308877952755905
 10
8.989976377952756
 20
7.324070866141732
 10
8.991409448818898
 20
7.338972440944882
 10
8.993251968503937
 20
7.353590551181102
 10
8.9955
 20
7.36792125984252
 10
8.998153543307087
 20
7.381960629921259
 10
9.001212598425196
 20
7.395712598425197
 10
9.004708661417324
 20
7.409232283464567
 10
9.008622047244094
 20
7.422527559055118
 10
9.01296062992126
 20
7.435598425196851
 10
9.01771653543307
 20
7.44844094488189
 10
9.022893700787401
 20
7.461066929133858
 10
9.028492125984252
 20
7.473464566929134
 10
9.034515748031495
 20
7.485645669291339
 10
9.040964566929134
 20
7.497602362204725
 10
9.077027559055118
 20
7.486712598425197
 10
9.071291338582677
 20
7.474913385826771
 10
9.06594094488189
 20
7.462988188976378
 10
9.060968503937008
 20
7.450937007874016
 10
9.056377952755906
 20
7.438755905511811
 10
9.052169291338583
 20
7.426444881889764
 10
9.048334645669291
 20
7.414011811023622
 10
9.04488188976378
 20
7.401444881889764
 10
9.041803149606299
 20
7.388755905511811
 10
9.039114173228347
 20
7.375842519685039
 10
9.036783464566929
 20
7.362673228346456
 10
9.034807086614173
 20
7.349244094488189
 10
9.033192913385827
 20
7.335551181102362
 10
9.031933070866142
 20
7.321594488188977
 10
9.031031496062992
 20
7.307370078740157
 10
9.030492125984251
 20
7.292870078740157
 10
9.030311023622048
 20
7.278102362204725
 10
9.030488188976378
 20
7.262669291338582
 10
9.03101968503937
 20
7.247614173228347
 10
9.031909448818897
 20
7.232937007874016
 10
9.033153543307087
 20
7.218633858267717
 10
9.034759842519685
 20
7.204704724409448
 10
9.036720472440944
 20
7.191153543307086
 10
9.039043307086613
 20
7.177976377952756
 10
9.041724409448818
 20
7.165173228346457
 10
9.044755905511812
 20
7.152641732283465
 10
9.048185039370079
 20
7.140338582677165
 10
9.052011811023622
 20
7.128259842519685
 10
9.056228346456694
 20
7.116409448818898
 10
9.060838582677166
 20
7.104775590551181
 10
9.06584251968504
 20
7.093370078740158
 10
9.071240157480315
 20
7.082185039370079
 10
9.077027559055118
 20
7.071220472440945
 10
9.040964566929134
 20
7.059503937007874
  0
LWPOLYLINE
  5
85
330
1F
100
AcDbEntity
  8
Layer 1
 62
     7
100
AcDbPolyline
 90
        7
 70
     1
 43
0.0
 10
9.208165354330708
 20
7.158370078740157
 10
9.208165354330708
 20
7.437740157480315
 10
9.141043307086614
 20
7.437740157480315
 10
9.161448818897638
 20
7.479456692913386
 10
9.256232283464566
 20
7.479456692913386
 10
9.256232283464566
 20
7.158370078740157
 10
9.208165354330708
 20
7.158370078740157
  0
LWPOLYLINE
  5
86
330
1F
100
AcDbEntity
  8
Layer 1
 62
     7
100
AcDbPolyline
 90
      128
 70
     1
 43
0.0
 10
9.414586614173228
 20
7.23584251968504
 10
9.41751968503937
 20
7.230779527559055
 10
9.420653543307086
 20
7.226023622047244
 10
9.423984251968504
 20
7.221574803149606
 10
9.427511811023622
 20
7.217429133858268
 10
9.431240157480316
 20
7.213594488188976
 10
9.435165354330708
 20
7.210066929133858
 10
9.439287401574804
 20
7.206850393700788
 10
9.443610236220472
 20
7.203944881889764
 10
9.448122047244095
 20
7.201342519685039
 10
9.452751968503938
 20
7.199086614173228
 10
9.457503937007875
 20
7.197177165354331
 10
9.462377952755906
 20
7.195614173228346
 10
9.467370078740158
 20
7.194397637795276
 10
9.47248031496063
 20
7.193531496062992
 10
9.477716535433071
 20
7.193007874015748
 10
9.483070866141732
 20
7.192834645669292
 10
9.490925196850394
 20
7.193153543307087
 10
9.498393700787402
 20
7.194110236220473
 10
9.505472440944882
 20
7.195708661417322
 10
9.512169291338582
 20
7.197944881889764
 10
9.518484251968504
 20
7.200826771653543
 10
9.524413385826772
 20
7.204346456692913
 10
9.529968503937008
 20
7.208511811023622
 10
9.535145669291339
 20
7.213318897637795
 10
9.539822834645669
 20
7.218653543307086
 10
9.543877952755906
 20
7.224389763779527
 10
9.547307086614174
 20
7.230531496062993
 10
9.550114173228346
 20
7.237074803149606
 10
9.55229527559055
 20
7.244023622047244
 10
9.553854330708662
 20
7.251374015748032
 10
9.554791338582676
 20
7.259129921259842
 10
9.555102362204725
 20
7.267287401574803
 10
9.55477559055118
 20
7.275145669291339
 10
9.553799212598426
 20
7.282625984251968
 10
9.55216535433071
 20
7.289724409448818
 10
9.549877952755905
 20
7.296444881889764
 10
9.546937007874016
 20
7.302791338582677
 10
9.543334645669292
 20
7.308763779527559
 10
9.53907874015748
 20
7.314362204724409
 10
9.534165354330709
 20
7.319594488188977
 10
9.528720472440945
 20
7.324326771653543
 10
9.522870078740157
 20
7.328425196850394
 10
9.516614173228346
 20
7.331893700787401
 10
9.509956692913386
 20
7.334732283464567
 10
9.502893700787402
 20
7.336937007874016
 10
9.495429133858268
 20
7.338515748031496
 10
9.48755905511811
 20
7.33946062992126
 10
9.479287401574803
 20
7.339775590551181
 10
9.474236220472442
 20
7.339665354330709
 10
9.469279527559054
 20
7.339338582677166
 10
9.464417322834645
 20
7.338791338582677
 10
9.459653543307086
 20
7.338027559055118
 10
9.454980314960629
 20
7.337047244094488
 10
9.450397637795275
 20
7.335850393700787
 10
9.44590157480315
 20
7.33444094488189
 10
9.441496062992126
 20
7.332818897637796
 10
9.437220472440945
 20
7.33096062992126
 10
9.433074803149607
 20
7.328893700787401
 10
9.429055118110236
 20
7.326618110236221
 10
9.42515748031496
 20
7.324129921259843
 10
9.421385826771653
 20
7.321429133858268
 10
9.417736220472442
 20
7.318511811023622
 10
9.414208661417323
 20
7.315381889763779
 10
9.410803149606298
 20
7.312031496062992
 10
9.397732283464567
 20
7.314984251968504
 10
9.438090551181102
 20
7.479456692913386
 10
9.591307086614174
 20
7.479456692913386
 10
9.591307086614174
 20
7.436830708661417
 10
9.46976377952756
 20
7.436830708661417
 10
9.45071653543307
 20
7.365251968503937
 10
9.457307086614174
 20
7.367803149606299
 10
9.46379527559055
 20
7.370011811023622
 10
9.470169291338582
 20
7.371881889763779
 10
9.476417322834646
 20
7.373409448818897
 10
9.48259842519685
 20
7.374559055118111
 10
9.488783464566929
 20
7.375385826771653
 10
9.494984251968503
 20
7.375889763779528
 10
9.501208661417323
 20
7.376059055118111
 10
9.512503937007875
 20
7.375594488188977
 10
9.523259842519685
 20
7.374200787401575
 10
9.533472440944882
 20
7.371881889763779
 10
9.543149606299213
 20
7.368629921259843
 10
9.55228346456693
 20
7.364452755905512
 10
9.560870078740157
 20
7.359350393700788
 10
9.568917322834645
 20
7.353314960629922
 10
9.576417322834645
 20
7.346354330708661
 10
9.583220472440946
 20
7.338673228346456
 10
9.589114173228346
 20
7.330425196850394
 10
9.594102362204724
 20
7.321610236220472
 10
9.59818503937008
 20
7.312236220472441
 10
9.601358267716535
 20
7.302295275590551
 10
9.603625984251968
 20
7.291791338582677
 10
9.604988188976378
 20
7.280728346456693
 10
9.60544094488189
 20
7.269102362204724
 10
9.604913385826771
 20
7.255838582677165
 10
9.603326771653544
 20
7.243251968503937
 10
9.600685039370079
 20
7.231354330708662
 10
9.596984251968504
 20
7.220141732283465
 10
9.59222440944882
 20
7.209614173228347
 10
9.58640157480315
 20
7.199775590551181
 10
9.57951968503937
 20
7.190629921259842
 10
9.571574803149606
 20
7.18217716535433
 10
9.562744094488188
 20
7.174578740157481
 10
9.553192913385827
 20
7.167992125984252
 10
9.542929133858268
 20
7.16242125984252
 10
9.531944881889764
 20
7.15786220472441
 10
9.520240157480314
 20
7.154314960629922
 10
9.507814960629922
 20
7.151783464566929
 10
9.494665354330708
 20
7.150263779527559
 10
9.480795275590552
 20
7.149755905511811
 10
9.472515748031496
 20
7.149937007874016
 10
9.464515748031497
 20
7.15048031496063
 10
9.456787401574804
 20
7.151385826771653
 10
9.449338582677166
 20
7.152653543307086
 10
9.442161417322835
 20
7.154287401574803
 10
9.43526377952756
 20
7.156291338582677
 10
9.428645669291338
 20
7.158657480314961
 10
9.422299212598425
 20
7.161393700787402
 10
9.416220472440944
 20
7.164484251968504
 10
9.410354330708662
 20
7.167972440944882
 10
9.404692913385826
 20
7.171858267716535
 10
9.39924409448819
 20
7.176145669291339
 10
9.394007874015749
 20
7.180830708661417
 10
9.388984251968504
 20
7.185917322834646
 10
9.38417716535433
 20
7.191405511811023
 10
9.379590551181103
 20
7.197295275590551
 10
9.414586614173228
 20
7.23584251968504
  0
LWPOLYLINE
  5
87
330
1F
100
AcDbEntity
  8
Layer 1
 62
     7
100
AcDbPolyline
 90
       65
 70
     1
 43
0.0
 10
9.88979527559055
 20
7.314456692913386
 10
9.889311023622048
 20
7.295673228346456
 10
9.887850393700788
 20
7.277933070866141
 10
9.88542125984252
 20
7.261240157480315
 10
9.88201968503937
 20
7.245586614173228
 10
9.877637795275591
 20
7.23098031496063
 10
9.872287401574804
 20
7.21742125984252
 10
9.865956692913386
 20
7.204905511811024
 10
9.858649606299213
 20
7.19344094488189
 10
9.85051968503937
 20
7.183208661417323
 10
9.841661417322834
 20
7.174338582677166
 10
9.832070866141732
 20
7.166830708661418
 10
9.821748031496062
 20
7.160685039370079
 10
9.8106968503937
 20
7.155905511811024
 10
9.798917322834646
 20
7.152488188976378
 10
9.786409448818898
 20
7.15044094488189
 10
9.773169291338583
 20
7.149755905511811
 10
9.759751968503936
 20
7.150444881889764
 10
9.747106299212598
 20
7.15251968503937
 10
9.735228346456694
 20
7.155968503937008
 10
9.724122047244094
 20
7.160803149606299
 10
9.713783464566928
 20
7.167011811023622
 10
9.704216535433071
 20
7.174598425196851
 10
9.695413385826772
 20
7.18355905511811
 10
9.687374015748032
 20
7.193897637795276
 10
9.680173228346456
 20
7.205507874015748
 10
9.673937007874017
 20
7.218232283464567
 10
9.668661417322834
 20
7.232070866141732
 10
9.664350393700788
 20
7.247023622047244
 10
9.660996062992126
 20
7.263090551181103
 10
9.658602362204725
 20
7.280279527559055
 10
9.657165354330708
 20
7.298582677165355
 10
9.656688976377954
 20
7.318007874015748
 10
9.657173228346457
 20
7.337275590551181
 10
9.658629921259843
 20
7.355448818897638
 10
9.661055118110236
 20
7.372531496062992
 10
9.664444881889764
 20
7.38851968503937
 10
9.6688031496063
 20
7.403413385826772
 10
9.674129921259842
 20
7.417208661417323
 10
9.68042125984252
 20
7.429909448818898
 10
9.68767716535433
 20
7.441511811023622
 10
9.695795275590552
 20
7.451901574803149
 10
9.704669291338583
 20
7.46090157480315
 10
9.714299212598425
 20
7.468515748031496
 10
9.724685039370078
 20
7.474744094488189
 10
9.735826771653544
 20
7.479586614173228
 10
9.747720472440944
 20
7.483043307086614
 10
9.760370078740157
 20
7.48511811023622
 10
9.773767716535433
 20
7.485807086614173
 10
9.78731496062992
 20
7.485114173228347
 10
9.80005905511811
 20
7.483031496062992
 10
9.812003937007875
 20
7.479562992125985
 10
9.823145669291339
 20
7.474704724409449
 10
9.833488188976379
 20
7.468464566929134
 10
9.843031496062991
 20
7.460838582677165
 10
9.851771653543308
 20
7.451830708661418
 10
9.859712598425197
 20
7.44144094488189
 10
9.86675590551181
 20
7.429732283464567
 10
9.87286220472441
 20
7.416834645669291
 10
9.878031496062992
 20
7.402748031496063
 10
9.882263779527559
 20
7.387468503937008
 10
9.88555905511811
 20
7.371003937007874
 10
9.887909448818897
 20
7.353342519685039
 10
9.88932283464567
 20
7.334496062992126
 10
9.88979527559055
 20
7.314456692913386
  0
LWPOLYLINE
  5
88
330
1F
100
AcDbEntity
  8
Layer 1
 62
     7
100
AcDbPolyline
 90
       65
 70
     1
 43
0.0
 10
9.772259842519684
 20
7.195102362204724
 10
9.780090551181102
 20
7.195582677165354
 10
9.78742125984252
 20
7.197031496062992
 10
9.794255905511811
 20
7.199444881889764
 10
9.800586614173229
 20
7.202822834645669
 10
9.806413385826772
 20
7.207165354330709
 10
9.81173622047244
 20
7.21248031496063
 10
9.816551181102362
 20
7.218763779527559
 10
9.820858267716535
 20
7.226015748031496
 10
9.82468503937008
 20
7.234208661417322
 10
9.828
 20
7.243362204724409
 10
9.830807086614174
 20
7.25348031496063
 10
9.833102362204725
 20
7.26455905511811
 10
9.834889763779527
 20
7.276594488188977
 10
9.836165354330708
 20
7.289594488188976
 10
9.836929133858268
 20
7.303547244094489
 10
9.837185039370079
 20
7.31846062992126
 10
9.836933070866142
 20
7.332956692913386
 10
9.83617716535433
 20
7.346562992125985
 10
9.83492125984252
 20
7.359283464566929
 10
9.833161417322835
 20
7.371114173228347
 10
9.830897637795276
 20
7.38205905511811
 10
9.828129921259842
 20
7.392110236220472
 10
9.82486220472441
 20
7.401271653543307
 10
9.821090551181102
 20
7.409543307086614
 10
9.816858267716535
 20
7.416901574803149
 10
9.81215748031496
 20
7.423279527559055
 10
9.806996062992125
 20
7.428669291338583
 10
9.801366141732283
 20
7.43307874015748
 10
9.795275590551181
 20
7.436507874015748
 10
9.788720472440945
 20
7.438956692913385
 10
9.781700787401574
 20
7.440425196850394
 10
9.774220472440945
 20
7.440913385826772
 10
9.766444881889763
 20
7.440425196850394
 10
9.759157480314961
 20
7.438956692913385
 10
9.75236220472441
 20
7.436515748031496
 10
9.746051181102363
 20
7.43309842519685
 10
9.740232283464566
 20
7.428704724409449
 10
9.734897637795276
 20
7.42334251968504
 10
9.730055118110236
 20
7.417003937007874
 10
9.725700787401575
 20
7.409692913385827
 10
9.721846456692914
 20
7.401409448818898
 10
9.718511811023623
 20
7.392204724409448
 10
9.715688976377953
 20
7.382074803149607
 10
9.713385826771654
 20
7.371023622047244
 10
9.711594488188977
 20
7.359043307086615
 10
9.71031496062992
 20
7.346141732283464
 10
9.709551181102363
 20
7.332311023622047
 10
9.70929527559055
 20
7.317551181102362
 10
9.709551181102363
 20
7.303208661417323
 10
9.71031496062992
 20
7.289720472440945
 10
9.711590551181102
 20
7.277082677165354
 10
9.713374015748032
 20
7.265303149606299
 10
9.715669291338582
 20
7.25438188976378
 10
9.718476377952756
 20
7.244318897637795
 10
9.721795275590551
 20
7.235114173228347
 10
9.725622047244094
 20
7.226775590551181
 10
9.729897637795276
 20
7.219358267716536
 10
9.734618110236221
 20
7.212929133858268
 10
9.739787401574803
 20
7.207484251968504
 10
9.745397637795275
 20
7.203031496062992
 10
9.751448818897638
 20
7.199562992125984
 10
9.757944881889763
 20
7.197086614173228
 10
9.76488188976378
 20
7.195598425196851
 10
9.772259842519684
 20
7.195102362204724
  0
LWPOLYLINE
  5
89
330
1F
100
AcDbEntity
  8
Layer 1
 62
     7
100
AcDbPolyline
 90
      157
 70
     1
 43
0.0
 10
9.99138188976378
 20
7.158370078740157
 10
9.943311023622048
 20
7.158370078740157
 10
9.943311023622048
 20
7.368346456692914
 10
9.988503937007874
 20
7.368346456692914
 10
9.988503937007874
 20
7.33388188976378
 10
9.992165354330709
 20
7.339192913385827
 10
9.995948818897638
 20
7.34413779527559
 10
9.999850393700788
 20
7.348712598425196
 10
10.00387007874016
 20
7.352917322834646
 10
10.0080157480315
 20
7.356748031496063
 10
10.01227559055118
 20
7.360204724409448
 10
10.01665748031496
 20
7.363291338582677
 10
10.02116141732284
 20
7.366
 10
10.02582677165354
 20
7.368366141732284
 10
10.03070078740157
 20
7.370413385826772
 10
10.03577559055118
 20
7.372141732283464
 10
10.04105905511811
 20
7.373555118110236
 10
10.04654724409449
 20
7.374649606299212
 10
10.05224015748031
 20
7.375433070866142
 10
10.05814173228346
 20
7.37590157480315
 10
10.06424803149606
 20
7.376059055118111
 10
10.07026771653543
 20
7.375897637795275
 10
10.07602362204724
 20
7.375421259842519
 10
10.0815157480315
 20
7.37461811023622
 10
10.08674409448819
 20
7.373496062992126
 10
10.09170472440945
 20
7.372051181102362
 10
10.09640157480315
 20
7.37028346456693
 10
10.10083070866142
 20
7.368192913385827
 10
10.10498818897638
 20
7.365775590551181
 10
10.10891732283465
 20
7.363027559055118
 10
10.11259842519685
 20
7.35994094488189
 10
10.11603543307087
 20
7.356515748031496
 10
10.11922440944882
 20
7.352751968503937
 10
10.12217322834646
 20
7.348649606299213
 10
10.12487401574803
 20
7.344212598425197
 10
10.12733464566929
 20
7.33944094488189
 10
10.12955118110236
 20
7.334334645669291
 10
10.13374803149606
 20
7.339590551181102
 10
10.13801181102362
 20
7.34448031496063
 10
10.14233858267717
 20
7.349
 10
10.14672834645669
 20
7.353153543307086
 10
10.15118110236221
 20
7.356937007874015
 10
10.15570078740157
 20
7.360354330708661
 10
10.16027952755906
 20
7.36340157480315
 10
10.16492519685039
 20
7.36607874015748
 10
10.16968503937008
 20
7.368417322834645
 10
10.1746062992126
 20
7.370444881889764
 10
10.17968897637795
 20
7.372161417322834
 10
10.18493700787402
 20
7.373562992125985
 10
10.19034645669291
 20
7.37465748031496
 10
10.19592125984252
 20
7.375437007874016
 10
10.20165748031496
 20
7.37590157480315
 10
10.20755905511811
 20
7.376059055118111
 10
10.21266535433071
 20
7.375937007874016
 10
10.2176062992126
 20
7.37557874015748
 10
10.22238582677165
 20
7.37498031496063
 10
10.227
 20
7.374141732283465
 10
10.23145669291338
 20
7.373066929133858
 10
10.23574803149606
 20
7.371755905511811
 10
10.23987401574803
 20
7.370208661417323
 10
10.24384251968504
 20
7.368425196850394
 10
10.24761417322835
 20
7.366389763779527
 10
10.25116929133858
 20
7.364141732283464
 10
10.25450393700787
 20
7.361681102362205
 10
10.25762598425197
 20
7.359003937007874
 10
10.26052755905512
 20
7.356110236220473
 10
10.26321653543307
 20
7.353
 10
10.26568897637795
 20
7.349669291338583
 10
10.26794881889764
 20
7.346122047244094
 10
10.26985039370079
 20
7.342543307086614
 10
10.27146850393701
 20
7.338606299212598
 10
10.27279921259843
 20
7.334330708661417
 10
10.27385039370079
 20
7.329724409448819
 10
10.27468897637795
 20
7.324452755905511
 10
10.27527559055118
 20
7.318161417322835
 10
10.27562598425197
 20
7.310846456692913
 10
10.27574015748032
 20
7.302507874015748
 10
10.27574015748032
 20
7.285653543307086
 10
10.27574015748032
 20
7.158370078740157
 10
10.22766535433071
 20
7.158370078740157
 10
10.22766535433071
 20
7.266153543307087
 10
10.22752362204724
 20
7.276275590551181
 10
10.22709842519685
 20
7.2855
 10
10.2263937007874
 20
7.293818897637795
 10
10.22540551181102
 20
7.301236220472441
 10
10.22414173228347
 20
7.307748031496063
 10
10.22259448818898
 20
7.313358267716535
 10
10.22077165354331
 20
7.31805905511811
 10
10.21866929133858
 20
7.321858267716536
 10
10.21620866141732
 20
7.324996062992126
 10
10.21331102362205
 20
7.327716535433071
 10
10.20997244094488
 20
7.330015748031496
 10
10.2061968503937
 20
7.331897637795276
 10
10.20198031496063
 20
7.333362204724409
 10
10.19732283464567
 20
7.334409448818898
 10
10.19222834645669
 20
7.335035433070866
 10
10.18669291338583
 20
7.335244094488189
 10
10.17986220472441
 20
7.33496062992126
 10
10.17353937007874
 20
7.334110236220472
 10
10.16773228346457
 20
7.332696850393701
 10
10.16243307086614
 20
7.330716535433071
 10
10.15764173228346
 20
7.32817716535433
 10
10.15336220472441
 20
7.325070866141732
 10
10.1495905511811
 20
7.321405511811023
 10
10.14633070866142
 20
7.31717716535433
 10
10.14348818897638
 20
7.312244094488189
 10
10.14103149606299
 20
7.306464566929134
 10
10.13895275590551
 20
7.299830708661418
 10
10.13725196850394
 20
7.292354330708662
 10
10.13593307086614
 20
7.284031496062992
 10
10.13499212598425
 20
7.27486220472441
 10
10.13442913385827
 20
7.264846456692913
 10
10.13424015748032
 20
7.253988188976378
 10
10.13424015748032
 20
7.158370078740157
 10
10.0857125984252
 20
7.158370078740157
 10
10.0857125984252
 20
7.266153543307087
 10
10.08556692913386
 20
7.275527559055118
 10
10.08512992125984
 20
7.284153543307086
 10
10.08440157480315
 20
7.292031496062992
 10
10.08338188976378
 20
7.29915748031496
 10
10.08206299212598
 20
7.305535433070866
 10
10.08045275590551
 20
7.311169291338583
 10
10.07854330708661
 20
7.316055118110236
 10
10.07633858267716
 20
7.320200787401575
 10
10.07376771653543
 20
7.323732283464567
 10
10.07077165354331
 20
7.326791338582678
 10
10.06734251968504
 20
7.329377952755905
 10
10.06348818897638
 20
7.331492125984252
 10
10.05920866141732
 20
7.333133858267717
 10
10.05450393700787
 20
7.334307086614174
 10
10.04938188976378
 20
7.335011811023622
 10
10.04383464566929
 20
7.335244094488189
 10
10.04033464566929
 20
7.335145669291339
 10
10.0369094488189
 20
7.334846456692913
 10
10.03355905511811
 20
7.334346456692914
 10
10.03029133858268
 20
7.333645669291339
 10
10.02709448818898
 20
7.332740157480315
 10
10.02398031496063
 20
7.331637795275591
 10
10.02094488188976
 20
7.330326771653543
 10
10.0179842519685
 20
7.328814960629921
 10
10.01511811023622
 20
7.327125984251968
 10
10.01240157480315
 20
7.325287401574803
 10
10.00984251968504
 20
7.323299212598426
 10
10.00743700787402
 20
7.321165354330708
 10
10.0051811023622
 20
7.318877952755906
 10
10.00307480314961
 20
7.316444881889764
 10
10.0011220472441
 20
7.313862204724409
 10
9.999318897637796
 20
7.311129921259843
 10
9.997275590551181
 20
7.307248031496063
 10
9.995566929133858
 20
7.302964566929134
 10
9.994185039370079
 20
7.298287401574803
 10
9.993122047244094
 20
7.29321653543307
 10
9.992370078740157
 20
7.286767716535433
 10
9.991826771653542
 20
7.27807874015748
 10
9.991492125984252
 20
7.267153543307087
 10
9.99138188976378
 20
7.253988188976378
 10
9.99138188976378
 20
7.158370078740157
  0
LWPOLYLINE
  5
8A
330
1F
100
AcDbEntity
  8
Layer 1
 62
     7
100
AcDbPolyline
 90
      157
 70
     1
 43
0.0
 10
10.3882125984252
 20
7.158370078740157
 10
10.34013779527559
 20
7.158370078740157
 10
10.34013779527559
 20
7.368346456692914
 10
10.38533464566929
 20
7.368346456692914
 10
10.38533464566929
 20
7.33388188976378
 10
10.38899606299213
 20
7.339192913385827
 10
10.39277559055118
 20
7.34413779527559
 10
10.39667716535433
 20
7.348712598425196
 10
10.40070078740158
 20
7.352917322834646
 10
10.40484251968504
 20
7.356748031496063
 10
10.40910236220472
 20
7.360204724409448
 10
10.4134842519685
 20
7.363291338582677
 10
10.41798818897638
 20
7.366
 10
10.42265748031496
 20
7.368366141732284
 10
10.42752755905512
 20
7.370413385826772
 10
10.4326062992126
 20
7.372141732283464
 10
10.43788976377953
 20
7.373555118110236
 10
10.44337795275591
 20
7.374649606299212
 10
10.44907086614173
 20
7.375433070866142
 10
10.45496850393701
 20
7.37590157480315
 10
10.46107480314961
 20
7.376059055118111
 10
10.46709448818898
 20
7.375897637795275
 10
10.47285039370079
 20
7.375421259842519
 10
10.47834251968504
 20
7.37461811023622
 10
10.48357086614173
 20
7.373496062992126
 10
10.48853543307087
 20
7.372051181102362
 10
10.49322834645669
 20
7.37028346456693
 10
10.49765748031496
 20
7.368192913385827
 10
10.5018188976378
 20
7.365775590551181
 10
10.50574803149606
 20
7.363027559055118
 10
10.50942913385827
 20
7.35994094488189
 10
10.51286614173228
 20
7.356515748031496
 10
10.51605511811024
 20
7.352751968503937
 10
10.519
 20
7.348649606299213
 10
10.52170078740157
 20
7.344212598425197
 10
10.52416141732284
 20
7.33944094488189
 10
10.52637795275591
 20
7.334334645669291
 10
10.53057480314961
 20
7.339590551181102
 10
10.53483858267717
 20
7.34448031496063
 10
10.53916535433071
 20
7.349
 10
10.54355905511811
 20
7.353153543307086
 10
10.54801181102362
 20
7.356937007874015
 10
10.55252755905512
 20
7.360354330708661
 10
10.55711023622047
 20
7.36340157480315
 10
10.56175196850394
 20
7.36607874015748
 10
10.56651181102362
 20
7.368417322834645
 10
10.57143307086614
 20
7.370444881889764
 10
10.57651968503937
 20
7.372161417322834
 10
10.58176377952756
 20
7.373562992125985
 10
10.58717716535433
 20
7.37465748031496
 10
10.59274803149606
 20
7.375437007874016
 10
10.5984842519685
 20
7.37590157480315
 10
10.60438582677165
 20
7.376059055118111
 10
10.60949212598425
 20
7.375937007874016
 10
10.61443307086614
 20
7.37557874015748
 10
10.6192125984252
 20
7.37498031496063
 10
10.62383070866142
 20
7.374141732283465
 10
10.62828346456693
 20
7.373066929133858
 10
10.63257480314961
 20
7.371755905511811
 10
10.63670472440945
 20
7.370208661417323
 10
10.64066929133858
 20
7.368425196850394
 10
10.64444094488189
 20
7.366389763779527
 10
10.64799606299213
 20
7.364141732283464
 10
10.65133070866142
 20
7.361681102362205
 10
10.65445275590551
 20
7.359003937007874
 10
10.65735433070866
 20
7.356110236220473
 10
10.66004330708661
 20
7.353
 10
10.6625157480315
 20
7.349669291338583
 10
10.66477559055118
 20
7.346122047244094
 10
10.66667716535433
 20
7.342543307086614
 10
10.66829527559055
 20
7.338606299212598
 10
10.66962598425197
 20
7.334330708661417
 10
10.67067716535433
 20
7.329724409448819
 10
10.6715157480315
 20
7.324452755905511
 10
10.67210236220472
 20
7.318161417322835
 10
10.67245275590551
 20
7.310846456692913
 10
10.67256692913386
 20
7.302507874015748
 10
10.67256692913386
 20
7.285653543307086
 10
10.67256692913386
 20
7.158370078740157
 10
10.62449606299213
 20
7.158370078740157
 10
10.62449606299213
 20
7.266153543307087
 10
10.62435433070866
 20
7.276275590551181
 10
10.62392913385827
 20
7.2855
 10
10.62322440944882
 20
7.293818897637795
 10
10.62223622047244
 20
7.301236220472441
 10
10.62096850393701
 20
7.307748031496063
 10
10.61942519685039
 20
7.313358267716535
 10
10.61759842519685
 20
7.31805905511811
 10
10.61549606299213
 20
7.321858267716536
 10
10.61303543307087
 20
7.324996062992126
 10
10.61013779527559
 20
7.327716535433071
 10
10.60679921259842
 20
7.330015748031496
 10
10.60302362204724
 20
7.331897637795276
 10
10.59880708661417
 20
7.333362204724409
 10
10.59414960629921
 20
7.334409448818898
 10
10.58905511811024
 20
7.335035433070866
 10
10.58351968503937
 20
7.335244094488189
 10
10.57668897637795
 20
7.33496062992126
 10
10.57037007874016
 20
7.334110236220472
 10
10.56455905511811
 20
7.332696850393701
 10
10.55925984251969
 20
7.330716535433071
 10
10.55447244094488
 20
7.32817716535433
 10
10.55019291338583
 20
7.325070866141732
 10
10.54642125984252
 20
7.321405511811023
 10
10.54316141732284
 20
7.31717716535433
 10
10.54031889763779
 20
7.312244094488189
 10
10.53785826771654
 20
7.306464566929134
 10
10.53577952755906
 20
7.299830708661418
 10
10.53408267716535
 20
7.292354330708662
 10
10.53275984251968
 20
7.284031496062992
 10
10.53181889763779
 20
7.27486220472441
 10
10.53125590551181
 20
7.264846456692913
 10
10.53106692913386
 20
7.253988188976378
 10
10.53106692913386
 20
7.158370078740157
 10
10.48253937007874
 20
7.158370078740157
 10
10.48253937007874
 20
7.266153543307087
 10
10.4823937007874
 20
7.275527559055118
 10
10.48195669291339
 20
7.284153543307086
 10
10.48122834645669
 20
7.292031496062992
 10
10.48020866141732
 20
7.29915748031496
 10
10.4788937007874
 20
7.305535433070866
 10
10.47727952755906
 20
7.311169291338583
 10
10.47537401574803
 20
7.316055118110236
 10
10.47316929133858
 20
7.320200787401575
 10
10.47059842519685
 20
7.323732283464567
 10
10.46760236220472
 20
7.326791338582678
 10
10.46417322834646
 20
7.329377952755905
 10
10.4603188976378
 20
7.331492125984252
 10
10.45603937007874
 20
7.333133858267717
 10
10.45133464566929
 20
7.334307086614174
 10
10.4462125984252
 20
7.335011811023622
 10
10.44066535433071
 20
7.335244094488189
 10
10.43716141732284
 20
7.335145669291339
 10
10.43373622047244
 20
7.334846456692913
 10
10.43038976377953
 20
7.334346456692914
 10
10.42711811023622
 20
7.333645669291339
 10
10.42392519685039
 20
7.332740157480315
 10
10.42081102362205
 20
7.331637795275591
 10
10.41777165354331
 20
7.330326771653543
 10
10.41481496062992
 20
7.328814960629921
 10
10.41194488188976
 20
7.327125984251968
 10
10.40923228346457
 20
7.325287401574803
 10
10.40667322834646
 20
7.323299212598426
 10
10.40426377952756
 20
7.321165354330708
 10
10.40200787401575
 20
7.318877952755906
 10
10.39990551181102
 20
7.316444881889764
 10
10.39795275590551
 20
7.313862204724409
 10
10.39614960629921
 20
7.311129921259843
 10
10.3941062992126
 20
7.307248031496063
 10
10.39239763779528
 20
7.302964566929134
 10
10.3910157480315
 20
7.298287401574803
 10
10.38995275590551
 20
7.29321653543307
 10
10.38920078740157
 20
7.286767716535433
 10
10.38865354330709
 20
7.27807874015748
 10
10.38832283464567
 20
7.267153543307087
 10
10.3882125984252
 20
7.253988188976378
 10
10.3882125984252
 20
7.158370078740157
  0
LWPOLYLINE
  5
8B
330
1F
100
AcDbEntity
  8
Layer 1
 62
     7
100
AcDbPolyline
 90
       67
 70
     1
 43
0.0
 10
10.74966535433071
 20
7.059503937007874
 10
10.71383858267717
 20
7.071220472440945
 10
10.71962204724409
 20
7.082185039370079
 10
10.72501968503937
 20
7.093370078740158
 10
10.73001968503937
 20
7.104775590551181
 10
10.73463385826772
 20
7.116409448818898
 10
10.73885039370079
 20
7.128259842519685
 10
10.74267322834646
 20
7.140338582677165
 10
10.74610236220472
 20
7.152641732283465
 10
10.74913385826772
 20
7.165173228346457
 10
10.75181496062992
 20
7.177976377952756
 10
10.75413779527559
 20
7.191153543307086
 10
10.75609842519685
 20
7.204704724409448
 10
10.75770472440945
 20
7.218633858267717
 10
10.75894881889764
 20
7.232937007874016
 10
10.75983858267717
 20
7.247614173228347
 10
10.76037007874016
 20
7.262669291338582
 10
10.76054724409449
 20
7.278102362204725
 10
10.76037007874016
 20
7.292870078740157
 10
10.75983858267717
 20
7.307370078740157
 10
10.75894881889764
 20
7.321594488188977
 10
10.75770472440945
 20
7.335551181102362
 10
10.75609842519685
 20
7.349244094488189
 10
10.75413779527559
 20
7.362673228346456
 10
10.75181496062992
 20
7.375842519685039
 10
10.74913385826772
 20
7.388755905511811
 10
10.74610236220472
 20
7.401444881889764
 10
10.74267322834646
 20
7.414011811023622
 10
10.73885039370079
 20
7.426444881889764
 10
10.73463385826772
 20
7.438755905511811
 10
10.73001968503937
 20
7.450937007874016
 10
10.72501968503937
 20
7.462988188976378
 10
10.71962204724409
 20
7.474913385826771
 10
10.71383858267717
 20
7.486712598425197
 10
10.74966535433071
 20
7.497602362204725
 10
10.75616929133858
 20
7.485645669291339
 10
10.76224015748032
 20
7.473464566929134
 10
10.7678779527559
 20
7.461066929133858
 10
10.77308661417323
 20
7.44844094488189
 10
10.77787007874016
 20
7.435598425196851
 10
10.78222440944882
 20
7.422527559055118
 10
10.78614960629921
 20
7.409232283464567
 10
10.78965354330709
 20
7.395712598425197
 10
10.79270866141732
 20
7.381960629921259
 10
10.79535826771654
 20
7.36792125984252
 10
10.7976062992126
 20
7.353590551181102
 10
10.79944488188976
 20
7.338972440944882
 10
10.80087795275591
 20
7.324070866141732
 10
10.80190157480315
 20
7.308877952755905
 10
10.80251968503937
 20
7.293405511811024
 10
10.80272440944882
 20
7.277645669291338
 10
10.80251968503937
 20
7.262629921259842
 10
10.80190157480315
 20
7.247799212598426
 10
10.80087007874016
 20
7.233149606299213
 10
10.79942519685039
 20
7.218685039370079
 10
10.79756692913386
 20
7.204405511811023
 10
10.79529527559055
 20
7.190311023622047
 10
10.7926062992126
 20
7.176401574803149
 10
10.7895
 20
7.162677165354331
 10
10.786
 20
7.149161417322834
 10
10.78207480314961
 20
7.135822834645669
 10
10.77772440944882
 20
7.122661417322835
 10
10.77295669291339
 20
7.109677165354331
 10
10.76776377952756
 20
7.096866141732283
 10
10.76214960629921
 20
7.084236220472441
 10
10.75611811023622
 20
7.071779527559055
 10
10.74966535433071
 20
7.059503937007874
  0
ENDSEC
  0
SECTION
  2
OBJECTS
  0
DICTIONARY
  5
C
330
0
100
AcDbDictionary
281
     1
  3
ACAD_DETAILVIEWSTYLE
350
93
  3
ACAD_GROUP
350
D
  3
ACAD_LAYOUT
350
1A
  3
ACAD_MATERIAL
350
43
  3
ACAD_MLEADERSTYLE
350
5B
  3
ACAD_MLINESTYLE
350
17
  3
ACAD_PLOTSETTINGS
350
19
  3
ACAD_PLOTSTYLENAME
350
E
  3
ACAD_SCALELIST
350
47
  3
ACAD_SECTIONVIEWSTYLE
350
94
  3
ACAD_TABLESTYLE
350
59
  3
ACAD_VISUALSTYLE
350
2A
  3
ACDB_RECOMPOSE_DATA
350
90
  3
AcDbVariableDictionary
350
8C
  0
SUN
  5
5D
330
29
100
AcDbSun
 90
        1
290
     0
 63
     7
421
 16777215
 40
1.0
291
     1
 91
  2455826
 92
 54000000
292
     0
 70
     2
 71
   256
280
     1
  0
DICTIONARY
  5
93
102
{ACAD_REACTORS
330
C
102
}
330
C
100
AcDbDictionary
281
     1
  0
DICTIONARY
  5
D
102
{ACAD_REACTORS
330
C
102
}
330
C
100
AcDbDictionary
281
     1
  0
DICTIONARY
  5
1A
102
{ACAD_REACTORS
330
C
102
}
330
C
100
AcDbDictionary
281
     1
  3
Layout1
350
1E
  3
Layout2
350
26
  3
Model
350
22
  0
DICTIONARY
  5
43
102
{ACAD_REACTORS
330
C
102
}
330
C
100
AcDbDictionary
281
     1
  3
ByBlock
350
45
  3
ByLayer
350
44
  3
Global
350
46
  0
DICTIONARY
  5
5B
102
{ACAD_REACTORS
330
C
102
}
330
C
100
AcDbDictionary
281
     1
  3
Standard
350
5C
  0
DICTIONARY
  5
17
102
{ACAD_REACTORS
330
C
102
}
330
C
100
AcDbDictionary
281
     1
  3
Standard
350
18
  0
DICTIONARY
  5
19
102
{ACAD_REACTORS
330
C
102
}
330
C
100
AcDbDictionary
281
     1
  0
ACDBDICTIONARYWDFLT
  5
E
102
{ACAD_REACTORS
330
C
102
}
330
C
100
AcDbDictionary
281
     1
  3
Normal
350
F
100
AcDbDictionaryWithDefault
340
F
  0
DICTIONARY
  5
47
102
{ACAD_REACTORS
330
C
102
}
330
C
100
AcDbDictionary
281
     1
  3
A0
350
48
  3
A1
350
49
  3
A2
350
4A
  3
A3
350
4B
  3
A4
350
4C
  3
A5
350
4D
  3
A6
350
4E
  3
A7
350
4F
  3
A8
350
50
  3
A9
350
51
  3
B1
350
52
  3
B2
350
53
  3
B3
350
54
  3
B4
350
55
  3
B5
350
56
  3
B6
350
57
  3
B7
350
58
  0
DICTIONARY
  5
94
102
{ACAD_REACTORS
330
C
102
}
330
C
100
AcDbDictionary
281
     1
  0
DICTIONARY
  5
59
102
{ACAD_REACTORS
330
C
102
}
330
C
100
AcDbDictionary
281
     1
  3
Standard
350
5A
  0
DICTIONARY
  5
2A
102
{ACAD_REACTORS
330
C
102
}
330
C
100
AcDbDictionary
281
     1
  3
2dWireframe
350
2F
  3
Basic
350
32
  3
Brighten
350
36
  3
ColorChange
350
3A
  3
Conceptual
350
34
  3
Dim
350
35
  3
EdgeColorOff
350
3D
  3
Facepattern
350
39
  3
Flat
350
2B
  3
FlatWithEdges
350
2C
  3
Gouraud
350
2D
  3
GouraudWithEdges
350
2E
  3
Hidden
350
31
  3
JitterOff
350
3B
  3
Linepattern
350
38
  3
OverhangOff
350
3C
  3
Realistic
350
33
  3
Shaded
350
42
  3
Shaded with edges
350
41
  3
Shades of Gray
350
3E
  3
Sketchy
350
3F
  3
Thicken
350
37
  3
Wireframe
350
30
  3
X-Ray
350
40
  0
XRECORD
  5
90
102
{ACAD_REACTORS
330
C
102
}
330
C
100
AcDbXrecord
280
     1
 90
        1
330
5A
  0
DICTIONARY
  5
8C
102
{ACAD_REACTORS
330
C
102
}
330
C
100
AcDbDictionary
281
     1
  3
CANNOSCALE
350
8D
  3
CMLEADERSTYLE
350
92
  3
CTABLESTYLE
350
91
  0
LAYOUT
  5
1E
102
{ACAD_REACTORS
330
1A
102
}
330
1A
100
AcDbPlotSettings
  1

  2
none_device
  4

  6

 40
0.0
 41
0.0
 42
0.0
 43
0.0
 44
0.0
 45
0.0
 46
0.0
 47
0.0
 48
0.0
 49
0.0
140
0.0
141
0.0
142
1.0
143
1.0
 70
   688
 72
     0
 73
     0
 74
     5
  7

 75
    16
 76
     0
 77
     2
 78
   300
147
1.0
148
0.0
149
0.0
100
AcDbLayout
  1
Layout1
 70
     1
 71
     1
 10
0.0
 20
0.0
 11
12.0
 21
9.0
 12
0.0
 22
0.0
 32
0.0
 14
1.000000000000000E+20
 24
1.000000000000000E+20
 34
1.000000000000000E+20
 15
-1.000000000000000E+20
 25
-1.000000000000000E+20
 35
-1.000000000000000E+20
146
0.0
 13
0.0
 23
0.0
 33
0.0
 16
1.0
 26
0.0
 36
0.0
 17
0.0
 27
1.0
 37
0.0
 76
     0
330
1B
  0
LAYOUT
  5
26
102
{ACAD_REACTORS
330
1A
102
}
330
1A
100
AcDbPlotSettings
  1

  2
none_device
  4

  6

 40
0.0
 41
0.0
 42
0.0
 43
0.0
 44
0.0
 45
0.0
 46
0.0
 47
0.0
 48
0.0
 49
0.0
140
0.0
141
0.0
142
1.0
143
1.0
 70
   688
 72
     0
 73
     0
 74
     5
  7

 75
    16
 76
     0
 77
     2
 78
   300
147
1.0
148
0.0
149
0.0
100
AcDbLayout
  1
Layout2
 70
     1
 71
     2
 10
0.0
 20
0.0
 11
0.0
 21
0.0
 12
0.0
 22
0.0
 32
0.0
 14
0.0
 24
0.0
 34
0.0
 15
0.0
 25
0.0
 35
0.0
146
0.0
 13
0.0
 23
0.0
 33
0.0
 16
1.0
 26
0.0
 36
0.0
 17
0.0
 27
1.0
 37
0.0
 76
     0
330
23
  0
LAYOUT
  5
22
102
{ACAD_REACTORS
330
1A
102
}
330
1A
100
AcDbPlotSettings
  1

  2
none_device
  4
Letter_(8.50_x_11.00_Inches)
  6

 40
6.35
 41
6.35
 42
6.35000508
 43
6.35000508
 44
215.9
 45
279.4
 46
0.0
 47
0.0
 48
0.0
 49
0.0
140
0.0
141
0.0
142
1.0
143
1.0
 70
  1712
 72
     0
 73
     0
 74
     0
  7

 75
     0
 76
     0
 77
     2
 78
   300
147
1.0
148
0.0
149
0.0
100
AcDbLayout
  1
Model
 70
     1
 71
     0
 10
0.0
 20
0.0
 11
12.0
 21
9.0
 12
0.0
 22
0.0
 32
0.0
 14
5.011795275590551
 24
-2.108716535433071
 34
0.0
 15
12.39151181102362
 25
7.974913385826771
 35
0.0
146
0.0
 13
0.0
 23
0.0
 33
0.0
 16
1.0
 26
0.0
 36
0.0
 17
0.0
 27
1.0
 37
0.0
 76
     0
330
1F
331
29
  0
MATERIAL
  5
45
102
{ACAD_REACTORS
330
43
102
}
330
43
100
AcDbMaterial
  1
ByBlock
 72
     1
 94
      127
  0
MATERIAL
  5
44
102
{ACAD_REACTORS
330
43
102
}
330
43
100
AcDbMaterial
  1
ByLayer
 72
     1
 94
      127
  0
MATERIAL
  5
46
102
{ACAD_REACTORS
330
43
102
}
330
43
100
AcDbMaterial
  1
Global
 72
     1
 94
      127
  0
MLEADERSTYLE
  5
5C
102
{ACAD_REACTORS
330
5B
102
}
330
5B
100
AcDbMLeaderStyle
179
     2
170
     2
171
     1
172
     0
 90
        2
 40
0.0
 41
0.0
173
     1
 91
-1056964608
340
14
 92
       -2
290
     1
 42
0.09
291
     1
 43
0.36
  3
Standard
341
0
 44
0.18
300

342
11
174
     1
178
     6
175
     1
176
     0
 93
-1056964608
 45
0.18
292
     0
297
     0
 46
0.18
343
0
 94
-1056964608
 47
1.0
 49
1.0
140
1.0
293
     1
141
0.0
294
     1
177
     0
142
1.0
295
     0
296
     0
143
0.125
271
     0
272
     9
273
     9
298
     0
  0
MLINESTYLE
  5
18
102
{ACAD_REACTORS
330
17
102
}
330
17
100
AcDbMlineStyle
  2
Standard
 70
     0
  3

 62
   256
 51
90.0
 52
90.0
 71
     2
 49
0.5
 62
   256
  6
BYLAYER
 49
-0.5
 62
   256
  6
BYLAYER
  0
ACDBPLACEHOLDER
  5
F
102
{ACAD_REACTORS
330
E
102
}
330
E
  0
SCALE
  5
48
102
{ACAD_REACTORS
330
47
102
}
330
47
100
AcDbScale
 70
     0
300
1:1
140
1.0
141
1.0
290
     1
  0
SCALE
  5
49
102
{ACAD_REACTORS
330
47
102
}
330
47
100
AcDbScale
 70
     0
300
1/128" = 1'-0"
140
0.0078125
141
12.0
290
     0
  0
SCALE
  5
4A
102
{ACAD_REACTORS
330
47
102
}
330
47
100
AcDbScale
 70
     0
300
1/64" = 1'-0"
140
0.015625
141
12.0
290
     0
  0
SCALE
  5
4B
102
{ACAD_REACTORS
330
47
102
}
330
47
100
AcDbScale
 70
     0
300
1/32" = 1'-0"
140
0.03125
141
12.0
290
     0
  0
SCALE
  5
4C
102
{ACAD_REACTORS
330
47
102
}
330
47
100
AcDbScale
 70
     0
300
1/16" = 1'-0"
140
0.0625
141
12.0
290
     0
  0
SCALE
  5
4D
102
{ACAD_REACTORS
330
47
102
}
330
47
100
AcDbScale
 70
     0
300
3/32" = 1'-0"
140
0.09375
141
12.0
290
     0
  0
SCALE
  5
4E
102
{ACAD_REACTORS
330
47
102
}
330
47
100
AcDbScale
 70
     0
300
1/8" = 1'-0"
140
0.125
141
12.0
290
     0
  0
SCALE
  5
4F
102
{ACAD_REACTORS
330
47
102
}
330
47
100
AcDbScale
 70
     0
300
3/16" = 1'-0"
140
0.1875
141
12.0
290
     0
  0
SCALE
  5
50
102
{ACAD_REACTORS
330
47
102
}
330
47
100
AcDbScale
 70
     0
300
1/4" = 1'-0"
140
0.25
141
12.0
290
     0
  0
SCALE
  5
51
102
{ACAD_REACTORS
330
47
102
}
330
47
100
AcDbScale
 70
     0
300
3/8" = 1'-0"
140
0.375
141
12.0
290
     0
  0
SCALE
  5
52
102
{ACAD_REACTORS
330
47
102
}
330
47
100
AcDbScale
 70
     0
300
1/2" = 1'-0"
140
0.5
141
12.0
290
     0
  0
SCALE
  5
53
102
{ACAD_REACTORS
330
47
102
}
330
47
100
AcDbScale
 70
     0
300
3/4" = 1'-0"
140
0.75
141
12.0
290
     0
  0
SCALE
  5
54
102
{ACAD_REACTORS
330
47
102
}
330
47
100
AcDbScale
 70
     0
300
1" = 1'-0"
140
1.0
141
12.0
290
     0
  0
SCALE
  5
55
102
{ACAD_REACTORS
330
47
102
}
330
47
100
AcDbScale
 70
     0
300
1-1/2" = 1'-0"
140
1.5
141
12.0
290
     0
  0
SCALE
  5
56
102
{ACAD_REACTORS
330
47
102
}
330
47
100
AcDbScale
 70
     0
300
3" = 1'-0"
140
3.0
141
12.0
290
     0
  0
SCALE
  5
57
102
{ACAD_REACTORS
330
47
102
}
330
47
100
AcDbScale
 70
     0
300
6" = 1'-0"
140
6.0
141
12.0
290
     0
  0
SCALE
  5
58
102
{ACAD_REACTORS
330
47
102
}
330
47
100
AcDbScale
 70
     0
300
1'-0" = 1'-0"
140
12.0
141
12.0
290
     0
  0
TABLESTYLE
  5
5A
102
{ACAD_REACTORS
330
59
102
}
102
{ACAD_XDICTIONARY
360
8E
102
}
330
59
100
AcDbTableStyle
  3
Standard
 70
     0
 71
     0
 40
0.06
 41
0.06
280
     0
281
     0
  7
Standard
140
0.18
170
     2
 62
     0
 63
   257
283
     0
 90
        4
 91
        0
  1

274
    -2
284
     1
 64
     0
275
    -2
285
     1
 65
     0
276
    -2
286
     1
 66
     0
277
    -2
287
     1
 67
     0
278
    -2
288
     1
 68
     0
279
    -2
289
     1
 69
     0
  7
Standard
140
0.25
170
     5
 62
     0
 63
   257
283
     0
 90
        4
 91
        0
  1

274
    -2
284
     1
 64
     0
275
    -2
285
     1
 65
     0
276
    -2
286
     1
 66
     0
277
    -2
287
     1
 67
     0
278
    -2
288
     1
 68
     0
279
    -2
289
     1
 69
     0
  7
Standard
140
0.18
170
     5
 62
     0
 63
   257
283
     0
 90
        4
 91
        0
  1

274
    -2
284
     1
 64
     0
275
    -2
285
     1
 65
     0
276
    -2
286
     1
 66
     0
277
    -2
287
     1
 67
     0
278
    -2
288
     1
 68
     0
279
    -2
289
     1
 69
     0
  0
VISUALSTYLE
  5
2F
102
{ACAD_REACTORS
330
2A
102
}
330
2A
100
AcDbVisualStyle
  2
2dWireframe
 70
     4
177
     3
291
     0
 70
    58
 90
        0
176
     1
 90
        2
176
     1
 90
        0
176
     1
 90
        0
176
     1
 40
0.6
176
     1
 40
30.0
176
     1
 62
     7
420
 16777215
176
     1
 90
        1
176
     1
 90
        4
176
     1
 62
     7
176
     1
 62
   257
176
     1
 90
        1
176
     1
 90
        1
176
     1
 40
1.0
176
     1
 90
        0
176
     1
 62
   257
176
     1
 40
1.0
176
     1
 90
        1
176
     1
 90
        6
176
     1
 90
        2
176
     1
 62
     7
176
     1
 90
        5
176
     1
 90
        0
176
     1
 90
        0
176
     1
290
     0
176
     1
 90
        1
176
     1
 40
0.0
176
     1
 90
        0
176
     1
290
     1
176
     1
290
     1
176
     1
290
     0
176
     1
290
     0
176
     1
290
     0
176
     1
290
     0
176
     1
290
     0
176
     1
290
     0
176
     1
290
     0
176
     1
 90
       50
176
     1
 40
0.0
176
     1
 40
1.0
176
     1
 90
        0
176
     1
 62
    18
420
        0
176
     1
 90
       50
176
     1
 90
        3
176
     1
 62
     5
420
      255
176
     1
290
     0
176
     1
 90
       50
176
     1
 90
       50
176
     1
 90
       50
176
     1
290
     0
176
     1
 90
       50
176
     1
 62
   256
176
     0
 40
1.0
176
     0
 90
        2
176
     1
  1
strokes_ogs.tif
176
     1
290
     0
176
     1
 40
1.0
176
     1
 40
1.0
176
     1
  0
VISUALSTYLE
  5
32
102
{ACAD_REACTORS
330
2A
102
}
330
2A
100
AcDbVisualStyle
  2
Basic
 70
     7
177
     3
291
     1
 70
    58
 90
        1
176
     1
 90
        0
176
     1
 90
        1
176
     1
 90
        0
176
     1
 40
0.6
176
     1
 40
30.0
176
     1
 62
     7
420
 16777215
176
     1
 90
        0
176
     1
 90
        4
176
     1
 62
     7
176
     1
 62
   257
176
     1
 90
        1
176
     1
 90
        1
176
     1
 40
1.0
176
     1
 90
        8
176
     1
 62
     7
176
     1
 40
1.0
176
     1
 90
        1
176
     1
 90
        6
176
     1
 90
        2
176
     1
 62
     7
176
     1
 90
        5
176
     1
 90
        0
176
     1
 90
        0
176
     1
290
     0
176
     1
 90
        1
176
     1
 40
0.0
176
     1
 90
        0
176
     1
290
     0
176
     1
290
     1
176
     1
290
     1
176
     1
290
     0
176
     1
290
     0
176
     1
290
     0
176
     1
290
     0
176
     1
290
     0
176
     1
290
     0
176
     1
 90
       50
176
     1
 40
0.0
176
     1
 40
1.0
176
     1
 90
        0
176
     1
 62
    18
420
        0
176
     1
 90
       50
176
     1
 90
        3
176
     1
 62
     5
420
      255
176
     1
290
     0
176
     1
 90
       50
176
     1
 90
       50
176
     1
 90
       50
176
     1
290
     0
176
     1
 90
       50
176
     1
 62
   256
176
     0
 40
1.0
176
     0
 90
        2
176
     1
  1
strokes_ogs.tif
176
     1
290
     0
176
     1
 40
1.0
176
     1
 40
1.0
176
     1
  0
VISUALSTYLE
  5
36
102
{ACAD_REACTORS
330
2A
102
}
330
2A
100
AcDbVisualStyle
  2
Brighten
 70
    12
177
     3
291
     1
 70
    58
 90
        2
176
     1
 90
        2
176
     1
 90
        0
176
     1
 90
        0
176
     1
 40
0.6
176
     1
 40
30.0
176
     1
 62
     7
420
 16777215
176
     1
 90
        1
176
     1
 90
        4
176
     1
 62
     7
176
     1
 62
   257
176
     1
 90
        1
176
     1
 90
        1
176
     1
 40
1.0
176
     1
 90
        8
176
     1
 62
     7
176
     1
 40
1.0
176
     1
 90
        1
176
     1
 90
        6
176
     1
 90
        2
176
     1
 62
     7
176
     1
 90
        5
176
     1
 90
        0
176
     1
 90
        0
176
     1
290
     0
176
     1
 90
        1
176
     1
 40
50.0
176
     1
 90
        0
176
     1
290
     0
176
     1
290
     1
176
     1
290
     1
176
     1
290
     0
176
     1
290
     0
176
     1
290
     0
176
     1
290
     0
176
     1
290
     0
176
     1
290
     0
176
     1
 90
       50
176
     1
 40
0.0
176
     1
 40
1.0
176
     1
 90
        0
176
     1
 62
    18
420
        0
176
     1
 90
       50
176
     1
 90
        3
176
     1
 62
     5
420
      255
176
     1
290
     0
176
     1
 90
       50
176
     1
 90
       50
176
     1
 90
       50
176
     1
290
     0
176
     1
 90
       50
176
     1
 62
   256
176
     0
 40
1.0
176
     0
 90
        2
176
     1
  1
strokes_ogs.tif
176
     1
290
     0
176
     1
 40
1.0
176
     1
 40
1.0
176
     1
  0
VISUALSTYLE
  5
3A
102
{ACAD_REACTORS
330
2A
102
}
330
2A
100
AcDbVisualStyle
  2
ColorChange
 70
    16
177
     3
291
     1
 70
    58
 90
        2
176
     1
 90
        2
176
     1
 90
        3
176
     1
 90
        0
176
     1
 40
0.6
176
     1
 40
30.0
176
     1
 62
     8
420
  8421504
176
     1
 90
        1
176
     1
 90
        4
176
     1
 62
     7
176
     1
 62
   257
176
     1
 90
        1
176
     1
 90
        1
176
     1
 40
1.0
176
     1
 90
        8
176
     1
 62
     8
420
  8421504
176
     1
 40
1.0
176
     1
 90
        1
176
     1
 90
        6
176
     1
 90
        2
176
     1
 62
     7
176
     1
 90
        5
176
     1
 90
        0
176
     1
 90
        0
176
     1
290
     0
176
     1
 90
        1
176
     1
 40
0.0
176
     1
 90
        0
176
     1
290
     0
176
     1
290
     1
176
     1
290
     1
176
     1
290
     0
176
     1
290
     0
176
     1
290
     0
176
     1
290
     0
176
     1
290
     0
176
     1
290
     0
176
     1
 90
       50
176
     1
 40
0.0
176
     1
 40
1.0
176
     1
 90
        0
176
     1
 62
    18
420
        0
176
     1
 90
       50
176
     1
 90
        3
176
     1
 62
     5
420
      255
176
     1
290
     0
176
     1
 90
       50
176
     1
 90
       50
176
     1
 90
       50
176
     1
290
     0
176
     1
 90
       50
176
     1
 62
   256
176
     0
 40
1.0
176
     0
 90
        2
176
     1
  1
strokes_ogs.tif
176
     1
290
     0
176
     1
 40
1.0
176
     1
 40
1.0
176
     1
  0
VISUALSTYLE
  5
34
102
{ACAD_REACTORS
330
2A
102
}
330
2A
100
AcDbVisualStyle
  2
Conceptual
 70
     9
177
     3
291
     0
 70
    58
 90
        3
176
     1
 90
        2
176
     1
 90
        0
176
     1
 90
        0
176
     1
 40
0.6
176
     1
 40
30.0
176
     1
 62
     7
420
 16777215
176
     1
 90
        2
176
     1
 90
        2
176
     1
 62
     7
176
     1
 62
   257
176
     1
 90
        1
176
     1
 90
        1
176
     1
 40
179.0
176
     1
 90
        8
176
     1
 62
     7
176
     1
 40
1.0
176
     1
 90
        1
176
     1
 90
        6
176
     1
 90
        2
176
     1
 62
     7
176
     1
 90
        3
176
     1
 90
        0
176
     1
 90
        0
176
     1
290
     0
176
     1
 90
        1
176
     1
 40
0.0
176
     1
 90
        0
176
     1
290
     0
176
     1
290
     1
176
     1
290
     1
176
     1
290
     0
176
     1
290
     0
176
     1
290
     0
176
     1
290
     0
176
     1
290
     0
176
     1
290
     0
176
     1
 90
       50
176
     1
 40
0.0
176
     1
 40
1.0
176
     1
 90
        0
176
     1
 62
    18
420
        0
176
     1
 90
       50
176
     1
 90
        3
176
     1
 62
     5
420
      255
176
     1
290
     0
176
     1
 90
       50
176
     1
 90
       50
176
     1
 90
       50
176
     1
290
     0
176
     1
 90
       50
176
     1
 62
   256
176
     0
 40
1.0
176
     0
 90
        2
176
     1
  1
strokes_ogs.tif
176
     1
290
     0
176
     1
 40
1.0
176
     1
 40
1.0
176
     1
  0
VISUALSTYLE
  5
35
102
{ACAD_REACTORS
330
2A
102
}
330
2A
100
AcDbVisualStyle
  2
Dim
 70
    11
177
     3
291
     1
 70
    58
 90
        2
176
     1
 90
        2
176
     1
 90
        0
176
     1
 90
        0
176
     1
 40
0.6
176
     1
 40
30.0
176
     1
 62
     7
420
 16777215
176
     1
 90
        1
176
     1
 90
        4
176
     1
 62
     7
176
     1
 62
   257
176
     1
 90
        1
176
     1
 90
        1
176
     1
 40
1.0
176
     1
 90
        8
176
     1
 62
     7
176
     1
 40
1.0
176
     1
 90
        1
176
     1
 90
        6
176
     1
 90
        2
176
     1
 62
     7
176
     1
 90
        5
176
     1
 90
        0
176
     1
 90
        0
176
     1
290
     0
176
     1
 90
        1
176
     1
 40
-50.0
176
     1
 90
        0
176
     1
290
     0
176
     1
290
     1
176
     1
290
     1
176
     1
290
     0
176
     1
290
     0
176
     1
290
     0
176
     1
290
     0
176
     1
290
     0
176
     1
290
     0
176
     1
 90
       50
176
     1
 40
0.0
176
     1
 40
1.0
176
     1
 90
        0
176
     1
 62
    18
420
        0
176
     1
 90
       50
176
     1
 90
        3
176
     1
 62
     5
420
      255
176
     1
290
     0
176
     1
 90
       50
176
     1
 90
       50
176
     1
 90
       50
176
     1
290
     0
176
     1
 90
       50
176
     1
 62
   256
176
     0
 40
1.0
176
     0
 90
        2
176
     1
  1
strokes_ogs.tif
176
     1
290
     0
176
     1
 40
1.0
176
     1
 40
1.0
176
     1
  0
VISUALSTYLE
  5
3D
102
{ACAD_REACTORS
330
2A
102
}
330
2A
100
AcDbVisualStyle
  2
EdgeColorOff
 70
    22
177
     3
291
     1
 70
    58
 90
        2
176
     0
 90
        2
176
     0
 90
        0
176
     0
 90
        0
176
     0
 40
0.6
176
     0
 40
30.0
176
     0
 62
     7
420
 16777215
176
     0
 90
        1
176
     0
 90
        4
176
     0
 62
     7
176
     0
 62
   257
176
     0
 90
        1
176
     0
 90
        1
176
     0
 40
1.0
176
     0
 90
        8
176
     2
 62
     7
176
     0
 40
1.0
176
     0
 90
        1
176
     0
 90
        6
176
     0
 90
        2
176
     0
 62
     7
176
     0
 90
        5
176
     0
 90
        0
176
     0
 90
        0
176
     0
290
     0
176
     0
 90
        1
176
     0
 40
0.0
176
     0
 90
        0
176
     0
290
     0
176
     0
290
     1
176
     0
290
     1
176
     0
290
     0
176
     0
290
     0
176
     0
290
     0
176
     0
290
     0
176
     0
290
     0
176
     0
290
     0
176
     0
 90
       50
176
     0
 40
0.0
176
     0
 40
1.0
176
     0
 90
        0
176
     0
 62
    18
420
        0
176
     0
 90
       50
176
     0
 90
        3
176
     0
 62
     5
420
      255
176
     0
290
     0
176
     0
 90
       50
176
     0
 90
       50
176
     0
 90
       50
176
     0
290
     0
176
     0
 90
       50
176
     0
 62
   256
176
     0
 40
1.0
176
     0
 90
        2
176
     0
  1
strokes_ogs.tif
176
     0
290
     0
176
     0
 40
1.0
176
     0
 40
1.0
176
     0
  0
VISUALSTYLE
  5
39
102
{ACAD_REACTORS
330
2A
102
}
330
2A
100
AcDbVisualStyle
  2
Facepattern
 70
    15
177
     3
291
     1
 70
    58
 90
        2
176
     1
 90
        2
176
     1
 90
        0
176
     1
 90
        0
176
     1
 40
0.6
176
     1
 40
30.0
176
     1
 62
     7
420
 16777215
176
     1
 90
        1
176
     1
 90
        4
176
     1
 62
     7
176
     1
 62
   257
176
     1
 90
        1
176
     1
 90
        1
176
     1
 40
1.0
176
     1
 90
        8
176
     1
 62
     7
176
     1
 40
1.0
176
     1
 90
        1
176
     1
 90
        6
176
     1
 90
        2
176
     1
 62
     7
176
     1
 90
        5
176
     1
 90
        0
176
     1
 90
        0
176
     1
290
     0
176
     1
 90
        1
176
     1
 40
0.0
176
     1
 90
        0
176
     1
290
     0
176
     1
290
     1
176
     1
290
     1
176
     1
290
     0
176
     1
290
     0
176
     1
290
     0
176
     1
290
     0
176
     1
290
     0
176
     1
290
     0
176
     1
 90
       50
176
     1
 40
0.0
176
     1
 40
1.0
176
     1
 90
        0
176
     1
 62
    18
420
        0
176
     1
 90
       50
176
     1
 90
        3
176
     1
 62
     5
420
      255
176
     1
290
     0
176
     1
 90
       50
176
     1
 90
       50
176
     1
 90
       50
176
     1
290
     0
176
     1
 90
       50
176
     1
 62
   256
176
     0
 40
1.0
176
     0
 90
        2
176
     1
  1
strokes_ogs.tif
176
     1
290
     0
176
     1
 40
1.0
176
     1
 40
1.0
176
     1
  0
VISUALSTYLE
  5
2B
102
{ACAD_REACTORS
330
2A
102
}
330
2A
100
AcDbVisualStyle
  2
Flat
 70
     0
177
     3
291
     1
 70
    58
 90
        2
176
     1
 90
        1
176
     1
 90
        1
176
     1
 90
        2
176
     1
 40
0.6
176
     1
 40
30.0
176
     1
 62
     7
420
 16777215
176
     1
 90
        0
176
     1
 90
        0
176
     1
 62
     7
176
     1
 62
   257
176
     1
 90
        1
176
     1
 90
        1
176
     1
 40
1.0
176
     1
 90
        8
176
     1
 62
     7
176
     1
 40
1.0
176
     1
 90
        1
176
     1
 90
        6
176
     1
 90
        2
176
     1
 62
     7
176
     1
 90
        5
176
     1
 90
        0
176
     1
 90
        0
176
     1
290
     0
176
     1
 90
       13
176
     1
 40
0.0
176
     1
 90
        0
176
     1
290
     0
176
     1
290
     1
176
     1
290
     1
176
     1
290
     0
176
     1
290
     0
176
     1
290
     0
176
     1
290
     0
176
     1
290
     0
176
     1
290
     0
176
     1
 90
       50
176
     1
 40
0.0
176
     1
 40
1.0
176
     1
 90
        0
176
     1
 62
    18
420
        0
176
     1
 90
       50
176
     1
 90
        3
176
     1
 62
     5
420
      255
176
     1
290
     0
176
     1
 90
       50
176
     1
 90
       50
176
     1
 90
       50
176
     1
290
     0
176
     1
 90
       50
176
     1
 62
   256
176
     0
 40
1.0
176
     0
 90
        2
176
     1
  1
strokes_ogs.tif
176
     1
290
     0
176
     1
 40
1.0
176
     1
 40
1.0
176
     1
  0
VISUALSTYLE
  5
2C
102
{ACAD_REACTORS
330
2A
102
}
330
2A
100
AcDbVisualStyle
  2
FlatWithEdges
 70
     1
177
     3
291
     1
 70
    58
 90
        2
176
     1
 90
        1
176
     1
 90
        1
176
     1
 90
        2
176
     1
 40
0.6
176
     1
 40
30.0
176
     1
 62
     7
420
 16777215
176
     1
 90
        1
176
     1
 90
        0
176
     1
 62
     7
176
     1
 62
   257
176
     1
 90
        1
176
     1
 90
        1
176
     1
 40
1.0
176
     1
 90
        0
176
     1
 62
   257
176
     1
 40
1.0
176
     1
 90
        1
176
     1
 90
        6
176
     1
 90
        2
176
     1
 62
     7
176
     1
 90
        5
176
     1
 90
        0
176
     1
 90
        0
176
     1
290
     0
176
     1
 90
       13
176
     1
 40
0.0
176
     1
 90
        0
176
     1
290
     0
176
     1
290
     1
176
     1
290
     1
176
     1
290
     0
176
     1
290
     0
176
     1
290
     0
176
     1
290
     0
176
     1
290
     0
176
     1
290
     0
176
     1
 90
       50
176
     1
 40
0.0
176
     1
 40
1.0
176
     1
 90
        0
176
     1
 62
    18
420
        0
176
     1
 90
       50
176
     1
 90
        3
176
     1
 62
     5
420
      255
176
     1
290
     0
176
     1
 90
       50
176
     1
 90
       50
176
     1
 90
       50
176
     1
290
     0
176
     1
 90
       50
176
     1
 62
   256
176
     0
 40
1.0
176
     0
 90
        2
176
     1
  1
strokes_ogs.tif
176
     1
290
     0
176
     1
 40
1.0
176
     1
 40
1.0
176
     1
  0
VISUALSTYLE
  5
2D
102
{ACAD_REACTORS
330
2A
102
}
330
2A
100
AcDbVisualStyle
  2
Gouraud
 70
     2
177
     3
291
     1
 70
    58
 90
        2
176
     1
 90
        2
176
     1
 90
        1
176
     1
 90
        2
176
     1
 40
0.6
176
     1
 40
30.0
176
     1
 62
     7
420
 16777215
176
     1
 90
        0
176
     1
 90
        0
176
     1
 62
     7
176
     1
 62
   257
176
     1
 90
        1
176
     1
 90
        1
176
     1
 40
1.0
176
     1
 90
        0
176
     1
 62
     7
176
     1
 40
1.0
176
     1
 90
        1
176
     1
 90
        6
176
     1
 90
        2
176
     1
 62
     7
176
     1
 90
        5
176
     1
 90
        0
176
     1
 90
        0
176
     1
290
     0
176
     1
 90
       13
176
     1
 40
0.0
176
     1
 90
        0
176
     1
290
     0
176
     1
290
     1
176
     1
290
     1
176
     1
290
     0
176
     1
290
     0
176
     1
290
     0
176
     1
290
     0
176
     1
290
     0
176
     1
290
     0
176
     1
 90
       50
176
     1
 40
0.0
176
     1
 40
1.0
176
     1
 90
        0
176
     1
 62
    18
420
        0
176
     1
 90
       50
176
     1
 90
        3
176
     1
 62
     5
420
      255
176
     1
290
     0
176
     1
 90
       50
176
     1
 90
       50
176
     1
 90
       50
176
     1
290
     0
176
     1
 90
       50
176
     1
 62
   256
176
     0
 40
1.0
176
     0
 90
        2
176
     1
  1
strokes_ogs.tif
176
     1
290
     0
176
     1
 40
1.0
176
     1
 40
1.0
176
     1
  0
VISUALSTYLE
  5
2E
102
{ACAD_REACTORS
330
2A
102
}
330
2A
100
AcDbVisualStyle
  2
GouraudWithEdges
 70
     3
177
     3
291
     1
 70
    58
 90
        2
176
     1
 90
        2
176
     1
 90
        1
176
     1
 90
        2
176
     1
 40
0.6
176
     1
 40
30.0
176
     1
 62
     7
420
 16777215
176
     1
 90
        1
176
     1
 90
        0
176
     1
 62
     7
176
     1
 62
   257
176
     1
 90
        1
176
     1
 90
        1
176
     1
 40
1.0
176
     1
 90
        0
176
     1
 62
   257
176
     1
 40
1.0
176
     1
 90
        1
176
     1
 90
        6
176
     1
 90
        2
176
     1
 62
     7
176
     1
 90
        5
176
     1
 90
        0
176
     1
 90
        0
176
     1
290
     0
176
     1
 90
       13
176
     1
 40
0.0
176
     1
 90
        0
176
     1
290
     0
176
     1
290
     1
176
     1
290
     1
176
     1
290
     0
176
     1
290
     0
176
     1
290
     0
176
     1
290
     0
176
     1
290
     0
176
     1
290
     0
176
     1
 90
       50
176
     1
 40
0.0
176
     1
 40
1.0
176
     1
 90
        0
176
     1
 62
    18
420
        0
176
     1
 90
       50
176
     1
 90
        3
176
     1
 62
     5
420
      255
176
     1
290
     0
176
     1
 90
       50
176
     1
 90
       50
176
     1
 90
       50
176
     1
290
     0
176
     1
 90
       50
176
     1
 62
   256
176
     0
 40
1.0
176
     0
 90
        2
176
     1
  1
strokes_ogs.tif
176
     1
290
     0
176
     1
 40
1.0
176
     1
 40
1.0
176
     1
  0
VISUALSTYLE
  5
31
102
{ACAD_REACTORS
330
2A
102
}
330
2A
100
AcDbVisualStyle
  2
Hidden
 70
     6
177
     3
291
     0
 70
    58
 90
        1
176
     1
 90
        2
176
     1
 90
        2
176
     1
 90
        0
176
     1
 40
0.6
176
     1
 40
30.0
176
     1
 62
     7
420
 16777215
176
     1
 90
        2
176
     1
 90
        2
176
     1
 62
     7
176
     1
 62
   257
176
     1
 90
        2
176
     1
 90
        1
176
     1
 40
40.0
176
     1
 90
        0
176
     1
 62
   257
176
     1
 40
1.0
176
     1
 90
        1
176
     1
 90
        6
176
     1
 90
        2
176
     1
 62
     7
176
     1
 90
        3
176
     1
 90
        0
176
     1
 90
        0
176
     1
290
     0
176
     1
 90
        1
176
     1
 40
0.0
176
     1
 90
        0
176
     1
290
     0
176
     1
290
     1
176
     1
290
     1
176
     1
290
     0
176
     1
290
     0
176
     1
290
     0
176
     1
290
     0
176
     1
290
     0
176
     1
290
     0
176
     1
 90
       50
176
     1
 40
0.0
176
     1
 40
1.0
176
     1
 90
        0
176
     1
 62
    18
420
        0
176
     1
 90
       50
176
     1
 90
        3
176
     1
 62
     5
420
      255
176
     1
290
     0
176
     1
 90
       50
176
     1
 90
       50
176
     1
 90
       50
176
     1
290
     0
176
     1
 90
       50
176
     1
 62
   256
176
     0
 40
1.0
176
     0
 90
        2
176
     1
  1
strokes_ogs.tif
176
     1
290
     0
176
     1
 40
1.0
176
     1
 40
1.0
176
     1
  0
VISUALSTYLE
  5
3B
102
{ACAD_REACTORS
330
2A
102
}
330
2A
100
AcDbVisualStyle
  2
JitterOff
 70
    20
177
     3
291
     1
 70
    58
 90
        2
176
     0
 90
        2
176
     0
 90
        0
176
     0
 90
        0
176
     0
 40
0.6
176
     0
 40
30.0
176
     0
 62
     7
420
 16777215
176
     0
 90
        1
176
     0
 90
        4
176
     0
 62
     7
176
     0
 62
   257
176
     0
 90
        1
176
     0
 90
        1
176
     0
 40
1.0
176
     0
 90
       10
176
     2
 62
     7
176
     0
 40
1.0
176
     0
 90
        1
176
     0
 90
        6
176
     0
 90
        2
176
     0
 62
     7
176
     0
 90
        5
176
     0
 90
        0
176
     0
 90
        0
176
     0
290
     0
176
     0
 90
        1
176
     0
 40
0.0
176
     0
 90
        0
176
     0
290
     0
176
     0
290
     1
176
     0
290
     1
176
     0
290
     0
176
     0
290
     0
176
     0
290
     0
176
     0
290
     0
176
     0
290
     0
176
     0
290
     0
176
     0
 90
       50
176
     0
 40
0.0
176
     0
 40
1.0
176
     0
 90
        0
176
     0
 62
    18
420
        0
176
     0
 90
       50
176
     0
 90
        3
176
     0
 62
     5
420
      255
176
     0
290
     0
176
     0
 90
       50
176
     0
 90
       50
176
     0
 90
       50
176
     0
290
     0
176
     0
 90
       50
176
     0
 62
   256
176
     0
 40
1.0
176
     0
 90
        2
176
     0
  1
strokes_ogs.tif
176
     0
290
     0
176
     0
 40
1.0
176
     0
 40
1.0
176
     0
  0
VISUALSTYLE
  5
38
102
{ACAD_REACTORS
330
2A
102
}
330
2A
100
AcDbVisualStyle
  2
Linepattern
 70
    14
177
     3
291
     1
 70
    58
 90
        2
176
     1
 90
        2
176
     1
 90
        0
176
     1
 90
        0
176
     1
 40
0.6
176
     1
 40
30.0
176
     1
 62
     7
420
 16777215
176
     1
 90
        1
176
     1
 90
        4
176
     1
 62
     7
176
     1
 62
   257
176
     1
 90
        7
176
     1
 90
        7
176
     1
 40
1.0
176
     1
 90
        8
176
     1
 62
     7
176
     1
 40
1.0
176
     1
 90
        1
176
     1
 90
        6
176
     1
 90
        2
176
     1
 62
     7
176
     1
 90
        5
176
     1
 90
        0
176
     1
 90
        0
176
     1
290
     0
176
     1
 90
        1
176
     1
 40
0.0
176
     1
 90
        0
176
     1
290
     0
176
     1
290
     1
176
     1
290
     1
176
     1
290
     0
176
     1
290
     0
176
     1
290
     0
176
     1
290
     0
176
     1
290
     0
176
     1
290
     0
176
     1
 90
       50
176
     1
 40
0.0
176
     1
 40
1.0
176
     1
 90
        0
176
     1
 62
    18
420
        0
176
     1
 90
       50
176
     1
 90
        3
176
     1
 62
     5
420
      255
176
     1
290
     0
176
     1
 90
       50
176
     1
 90
       50
176
     1
 90
       50
176
     1
290
     0
176
     1
 90
       50
176
     1
 62
   256
176
     0
 40
1.0
176
     0
 90
        2
176
     1
  1
strokes_ogs.tif
176
     1
290
     0
176
     1
 40
1.0
176
     1
 40
1.0
176
     1
  0
VISUALSTYLE
  5
3C
102
{ACAD_REACTORS
330
2A
102
}
330
2A
100
AcDbVisualStyle
  2
OverhangOff
 70
    21
177
     3
291
     1
 70
    58
 90
        2
176
     0
 90
        2
176
     0
 90
        0
176
     0
 90
        0
176
     0
 40
0.6
176
     0
 40
30.0
176
     0
 62
     7
420
 16777215
176
     0
 90
        1
176
     0
 90
        4
176
     0
 62
     7
176
     0
 62
   257
176
     0
 90
        1
176
     0
 90
        1
176
     0
 40
1.0
176
     0
 90
        9
176
     2
 62
     7
176
     0
 40
1.0
176
     0
 90
        1
176
     0
 90
        6
176
     0
 90
        2
176
     0
 62
     7
176
     0
 90
        5
176
     0
 90
        0
176
     0
 90
        0
176
     0
290
     0
176
     0
 90
        1
176
     0
 40
0.0
176
     0
 90
        0
176
     0
290
     0
176
     0
290
     1
176
     0
290
     1
176
     0
290
     0
176
     0
290
     0
176
     0
290
     0
176
     0
290
     0
176
     0
290
     0
176
     0
290
     0
176
     0
 90
       50
176
     0
 40
0.0
176
     0
 40
1.0
176
     0
 90
        0
176
     0
 62
    18
420
        0
176
     0
 90
       50
176
     0
 90
        3
176
     0
 62
     5
420
      255
176
     0
290
     0
176
     0
 90
       50
176
     0
 90
       50
176
     0
 90
       50
176
     0
290
     0
176
     0
 90
       50
176
     0
 62
   256
176
     0
 40
1.0
176
     0
 90
        2
176
     0
  1
strokes_ogs.tif
176
     0
290
     0
176
     0
 40
1.0
176
     0
 40
1.0
176
     0
  0
VISUALSTYLE
  5
33
102
{ACAD_REACTORS
330
2A
102
}
330
2A
100
AcDbVisualStyle
  2
Realistic
 70
     8
177
     3
291
     0
 70
    58
 90
        2
176
     1
 90
        3
176
     1
 90
        0
176
     1
 90
        2
176
     1
 40
0.6
176
     1
 40
30.0
176
     1
 62
     7
420
 16777215
176
     1
 90
        0
176
     1
 90
        0
176
     1
 62
     7
176
     1
 62
   257
176
     1
 90
        1
176
     1
 90
        1
176
     1
 40
1.0
176
     1
 90
        8
176
     1
 62
   257
176
     1
 40
1.0
176
     1
 90
        1
176
     1
 90
        6
176
     1
 90
        2
176
     1
 62
     7
176
     1
 90
        3
176
     1
 90
        0
176
     1
 90
        0
176
     1
290
     0
176
     1
 90
       13
176
     1
 40
0.0
176
     1
 90
        0
176
     1
290
     0
176
     1
290
     1
176
     1
290
     1
176
     1
290
     0
176
     1
290
     0
176
     1
290
     0
176
     1
290
     0
176
     1
290
     0
176
     1
290
     0
176
     1
 90
       50
176
     1
 40
0.0
176
     1
 40
1.0
176
     1
 90
        0
176
     1
 62
    18
420
        0
176
     1
 90
       50
176
     1
 90
        3
176
     1
 62
     5
420
      255
176
     1
290
     0
176
     1
 90
       50
176
     1
 90
       50
176
     1
 90
       50
176
     1
290
     0
176
     1
 90
       50
176
     1
 62
   256
176
     0
 40
1.0
176
     0
 90
        2
176
     1
  1
strokes_ogs.tif
176
     1
290
     0
176
     1
 40
1.0
176
     1
 40
1.0
176
     1
  0
VISUALSTYLE
  5
42
102
{ACAD_REACTORS
330
2A
102
}
330
2A
100
AcDbVisualStyle
  2
Shaded
 70
    27
177
     3
291
     0
 70
    58
 90
        2
176
     1
 90
        2
176
     1
 90
        1
176
     1
 90
        2
176
     1
 40
0.6
176
     1
 40
30.0
176
     1
 62
     7
420
 16777215
176
     1
 90
        0
176
     1
 90
        4
176
     1
 62
     7
176
     1
 62
   257
176
     1
 90
        1
176
     1
 90
        1
176
     1
 40
1.0
176
     1
 90
        8
176
     1
 62
   257
176
     1
 40
1.0
176
     1
 90
        1
176
     1
 90
        6
176
     1
 90
        2
176
     1
 62
     8
420
  7895160
176
     1
 90
        3
176
     1
 90
        0
176
     1
 90
        0
176
     1
290
     0
176
     1
 90
        5
176
     1
 40
0.0
176
     1
 90
        0
176
     1
290
     0
176
     1
290
     1
176
     1
290
     1
176
     1
290
     0
176
     1
290
     0
176
     1
290
     0
176
     1
290
     0
176
     1
290
     0
176
     1
290
     0
176
     1
 90
       50
176
     1
 40
0.0
176
     1
 40
1.0
176
     1
 90
        0
176
     1
 62
    18
420
        0
176
     1
 90
       50
176
     1
 90
        3
176
     1
 62
     5
420
      255
176
     1
290
     0
176
     1
 90
       50
176
     1
 90
       50
176
     1
 90
       50
176
     1
290
     0
176
     1
 90
       50
176
     1
 62
   256
176
     0
 40
1.0
176
     0
 90
        2
176
     1
  1
strokes_ogs.tif
176
     1
290
     0
176
     1
 40
1.0
176
     1
 40
1.0
176
     1
  0
VISUALSTYLE
  5
41
102
{ACAD_REACTORS
330
2A
102
}
330
2A
100
AcDbVisualStyle
  2
Shaded with edges
 70
    26
177
     3
291
     0
 70
    58
 90
        2
176
     1
 90
        2
176
     1
 90
        1
176
     1
 90
        2
176
     1
 40
0.6
176
     1
 40
30.0
176
     1
 62
     7
420
 16777215
176
     1
 90
        1
176
     1
 90
       10
176
     1
 62
     7
176
     1
 62
   257
176
     1
 90
        2
176
     1
 90
        1
176
     1
 40
1.0
176
     1
 90
        8
176
     1
 62
   257
176
     1
 40
1.0
176
     1
 90
        1
176
     1
 90
        6
176
     1
 90
        2
176
     1
 62
     7
176
     1
 90
        3
176
     1
 90
        0
176
     1
 90
        0
176
     1
290
     0
176
     1
 90
        5
176
     1
 40
0.0
176
     1
 90
        0
176
     1
290
     0
176
     1
290
     1
176
     1
290
     1
176
     1
290
     0
176
     1
290
     0
176
     1
290
     0
176
     1
290
     0
176
     1
290
     0
176
     1
290
     0
176
     1
 90
       50
176
     1
 40
0.0
176
     1
 40
1.0
176
     1
 90
        0
176
     1
 62
    18
420
        0
176
     1
 90
       50
176
     1
 90
        3
176
     1
 62
     5
420
      255
176
     1
290
     0
176
     1
 90
       50
176
     1
 90
       50
176
     1
 90
       50
176
     1
290
     0
176
     1
 90
       50
176
     1
 62
   256
176
     0
 40
1.0
176
     0
 90
        2
176
     1
  1
strokes_ogs.tif
176
     1
290
     0
176
     1
 40
1.0
176
     1
 40
1.0
176
     1
  0
VISUALSTYLE
  5
3E
102
{ACAD_REACTORS
330
2A
102
}
330
2A
100
AcDbVisualStyle
  2
Shades of Gray
 70
    23
177
     3
291
     0
 70
    58
 90
        2
176
     1
 90
        2
176
     1
 90
        3
176
     1
 90
        0
176
     1
 40
0.6
176
     1
 40
30.0
176
     1
 62
     7
420
 16777215
176
     1
 90
        2
176
     1
 90
        2
176
     1
 62
     7
176
     1
 62
     7
176
     1
 90
        1
176
     1
 90
        1
176
     1
 40
40.0
176
     1
 90
        8
176
     1
 62
     7
176
     1
 40
1.0
176
     1
 90
        1
176
     1
 90
        6
176
     1
 90
        2
176
     1
 62
     7
176
     1
 90
        3
176
     1
 90
        0
176
     1
 90
        0
176
     1
290
     0
176
     1
 90
        1
176
     1
 40
0.0
176
     1
 90
        0
176
     1
290
     0
176
     1
290
     1
176
     1
290
     1
176
     1
290
     0
176
     1
290
     0
176
     1
290
     0
176
     1
290
     0
176
     1
290
     0
176
     1
290
     0
176
     1
 90
       50
176
     1
 40
0.0
176
     1
 40
1.0
176
     1
 90
        0
176
     1
 62
    18
420
        0
176
     1
 90
       50
176
     1
 90
        3
176
     1
 62
     5
420
      255
176
     1
290
     0
176
     1
 90
       50
176
     1
 90
       50
176
     1
 90
       50
176
     1
290
     0
176
     1
 90
       50
176
     1
 62
   256
176
     0
 40
1.0
176
     0
 90
        2
176
     1
  1
strokes_ogs.tif
176
     1
290
     0
176
     1
 40
1.0
176
     1
 40
1.0
176
     1
  0
VISUALSTYLE
  5
3F
102
{ACAD_REACTORS
330
2A
102
}
330
2A
100
AcDbVisualStyle
  2
Sketchy
 70
    24
177
     3
291
     0
 70
    58
 90
        1
176
     1
 90
        2
176
     1
 90
        2
176
     1
 90
        0
176
     1
 40
0.6
176
     1
 40
30.0
176
     1
 62
     7
420
 16777215
176
     1
 90
        2
176
     1
 90
        2
176
     1
 62
     7
176
     1
 62
     7
176
     1
 90
        1
176
     1
 90
        1
176
     1
 40
40.0
176
     1
 90
       11
176
     1
 62
     7
176
     1
 40
1.0
176
     1
 90
        1
176
     1
 90
        6
176
     1
 90
        2
176
     1
 62
     7
176
     1
 90
        6
176
     1
 90
        0
176
     1
 90
        0
176
     1
290
     0
176
     1
 90
        1
176
     1
 40
0.0
176
     1
 90
        0
176
     1
290
     0
176
     1
290
     1
176
     1
290
     1
176
     1
290
     0
176
     1
290
     0
176
     1
290
     0
176
     1
290
     0
176
     1
290
     0
176
     1
290
     0
176
     1
 90
       50
176
     1
 40
0.0
176
     1
 40
1.0
176
     1
 90
        0
176
     1
 62
    18
420
        0
176
     1
 90
       50
176
     1
 90
        3
176
     1
 62
     5
420
      255
176
     1
290
     0
176
     1
 90
       50
176
     1
 90
       50
176
     1
 90
       50
176
     1
290
     0
176
     1
 90
       50
176
     1
 62
   256
176
     0
 40
1.0
176
     0
 90
        2
176
     1
  1
strokes_ogs.tif
176
     1
290
     0
176
     1
 40
1.0
176
     1
 40
1.0
176
     1
  0
VISUALSTYLE
  5
37
102
{ACAD_REACTORS
330
2A
102
}
330
2A
100
AcDbVisualStyle
  2
Thicken
 70
    13
177
     3
291
     1
 70
    58
 90
        2
176
     1
 90
        2
176
     1
 90
        0
176
     1
 90
        0
176
     1
 40
0.6
176
     1
 40
30.0
176
     1
 62
     7
420
 16777215
176
     1
 90
        1
176
     1
 90
        4
176
     1
 62
     7
176
     1
 62
   257
176
     1
 90
        1
176
     1
 90
        1
176
     1
 40
1.0
176
     1
 90
       12
176
     1
 62
     7
176
     1
 40
1.0
176
     1
 90
        1
176
     1
 90
        6
176
     1
 90
        2
176
     1
 62
     7
176
     1
 90
        5
176
     1
 90
        0
176
     1
 90
        0
176
     1
290
     0
176
     1
 90
        1
176
     1
 40
0.0
176
     1
 90
        0
176
     1
290
     0
176
     1
290
     1
176
     1
290
     1
176
     1
290
     0
176
     1
290
     0
176
     1
290
     0
176
     1
290
     0
176
     1
290
     0
176
     1
290
     0
176
     1
 90
       50
176
     1
 40
0.0
176
     1
 40
1.0
176
     1
 90
        0
176
     1
 62
    18
420
        0
176
     1
 90
       50
176
     1
 90
        3
176
     1
 62
     5
420
      255
176
     1
290
     0
176
     1
 90
       50
176
     1
 90
       50
176
     1
 90
       50
176
     1
290
     0
176
     1
 90
       50
176
     1
 62
   256
176
     0
 40
1.0
176
     0
 90
        2
176
     1
  1
strokes_ogs.tif
176
     1
290
     0
176
     1
 40
1.0
176
     1
 40
1.0
176
     1
  0
VISUALSTYLE
  5
30
102
{ACAD_REACTORS
330
2A
102
}
330
2A
100
AcDbVisualStyle
  2
Wireframe
 70
     5
177
     3
291
     0
 70
    58
 90
        0
176
     1
 90
        2
176
     1
 90
        0
176
     1
 90
        0
176
     1
 40
0.6
176
     1
 40
30.0
176
     1
 62
     7
420
 16777215
176
     1
 90
        1
176
     1
 90
        4
176
     1
 62
     7
176
     1
 62
   257
176
     1
 90
        1
176
     1
 90
        1
176
     1
 40
1.0
176
     1
 90
        0
176
     1
 62
   257
176
     1
 40
1.0
176
     1
 90
        1
176
     1
 90
        6
176
     1
 90
        2
176
     1
 62
     7
176
     1
 90
        3
176
     1
 90
        0
176
     1
 90
        0
176
     1
290
     0
176
     1
 90
        1
176
     1
 40
0.0
176
     1
 90
        0
176
     1
290
     0
176
     1
290
     1
176
     1
290
     1
176
     1
290
     0
176
     1
290
     0
176
     1
290
     0
176
     1
290
     0
176
     1
290
     0
176
     1
290
     0
176
     1
 90
       50
176
     1
 40
0.0
176
     1
 40
1.0
176
     1
 90
        0
176
     1
 62
    18
420
        0
176
     1
 90
       50
176
     1
 90
        3
176
     1
 62
     5
420
      255
176
     1
290
     0
176
     1
 90
       50
176
     1
 90
       50
176
     1
 90
       50
176
     1
290
     0
176
     1
 90
       50
176
     1
 62
   256
176
     0
 40
1.0
176
     0
 90
        2
176
     1
  1
strokes_ogs.tif
176
     1
290
     0
176
     1
 40
1.0
176
     1
 40
1.0
176
     1
  0
VISUALSTYLE
  5
40
102
{ACAD_REACTORS
330
2A
102
}
330
2A
100
AcDbVisualStyle
  2
X-Ray
 70
    25
177
     3
291
     0
 70
    58
 90
        2
176
     1
 90
        2
176
     1
 90
        1
176
     1
 90
        1
176
     1
 40
0.5
176
     1
 40
30.0
176
     1
 62
     7
420
 16777215
176
     1
 90
        1
176
     1
 90
        0
176
     1
 62
     7
176
     1
 62
   257
176
     1
 90
        1
176
     1
 90
        1
176
     1
 40
1.0
176
     1
 90
        8
176
     1
 62
     7
176
     1
 40
1.0
176
     1
 90
        1
176
     1
 90
        6
176
     1
 90
        2
176
     1
 62
     7
176
     1
 90
        3
176
     1
 90
        0
176
     1
 90
        0
176
     1
290
     0
176
     1
 90
       13
176
     1
 40
0.0
176
     1
 90
        0
176
     1
290
     0
176
     1
290
     1
176
     1
290
     1
176
     1
290
     0
176
     1
290
     0
176
     1
290
     0
176
     1
290
     0
176
     1
290
     0
176
     1
290
     0
176
     1
 90
       50
176
     1
 40
0.0
176
     1
 40
1.0
176
     1
 90
        0
176
     1
 62
    18
420
        0
176
     1
 90
       50
176
     1
 90
        3
176
     1
 62
     5
420
      255
176
     1
290
     0
176
     1
 90
       50
176
     1
 90
       50
176
     1
 90
       50
176
     1
290
     0
176
     1
 90
       50
176
     1
 62
   256
176
     0
 40
1.0
176
     0
 90
        2
176
     1
  1
strokes_ogs.tif
176
     1
290
     0
176
     1
 40
1.0
176
     1
 40
1.0
176
     1
  0
DICTIONARYVAR
  5
8D
102
{ACAD_REACTORS
330
8C
102
}
330
8C
100
DictionaryVariables
280
     0
  1
1:1
  0
DICTIONARYVAR
  5
92
102
{ACAD_REACTORS
330
8C
102
}
330
8C
100
DictionaryVariables
280
     0
  1
Standard
  0
DICTIONARYVAR
  5
91
102
{ACAD_REACTORS
330
8C
102
}
330
8C
100
DictionaryVariables
280
     0
  1
Standard
  0
DICTIONARY
  5
8E
330
5A
100
AcDbDictionary
280
     1
281
     1
  3
ACAD_ROUNDTRIP_2008_TABLESTYLE_CELLSTYLEMAP
360
8F
  0
CELLSTYLEMAP
  5
8F
102
{ACAD_REACTORS
330
8E
102
}
330
8E
100
AcDbCellStyleMap
 90
        3
300
CELLSTYLE
  1
TABLEFORMAT_BEGIN
 90
        5
170
     1
 91
        0
 92
    32768
 62
   257
 93
        1
300
CONTENTFORMAT
  1
CONTENTFORMAT_BEGIN
 90
        0
 91
        0
 92
        4
 93
        0
300

 40
0.0
140
1.0
 94
        5
 62
     0
340
11
144
0.25
309
CONTENTFORMAT_END
171
     1
301
MARGIN
  1
CELLMARGIN_BEGIN
 40
0.06
 40
0.06
 40
0.06
 40
0.06
 40
0.06
 40
0.06
309
CELLMARGIN_END
 94
        6
 95
        1
302
GRIDFORMAT
  1
GRIDFORMAT_BEGIN
 90
        0
 91
        1
 62
     0
 92
       -2
340
14
 93
        0
 40
0.045
309
GRIDFORMAT_END
 95
        2
302
GRIDFORMAT
  1
GRIDFORMAT_BEGIN
 90
        0
 91
        1
 62
     0
 92
       -2
340
14
 93
        0
 40
0.045
309
GRIDFORMAT_END
 95
        4
302
GRIDFORMAT
  1
GRIDFORMAT_BEGIN
 90
        0
 91
        1
 62
     0
 92
       -2
340
14
 93
        0
 40
0.045
309
GRIDFORMAT_END
 95
        8
302
GRIDFORMAT
  1
GRIDFORMAT_BEGIN
 90
        0
 91
        1
 62
     0
 92
       -2
340
14
 93
        0
 40
0.045
309
GRIDFORMAT_END
 95
       16
302
GRIDFORMAT
  1
GRIDFORMAT_BEGIN
 90
        0
 91
        1
 62
     0
 92
       -2
340
14
 93
        0
 40
0.045
309
GRIDFORMAT_END
 95
       32
302
GRIDFORMAT
  1
GRIDFORMAT_BEGIN
 90
        0
 91
        1
 62
     0
 92
       -2
340
14
 93
        0
 40
0.045
309
GRIDFORMAT_END
309
TABLEFORMAT_END
  1
CELLSTYLE_BEGIN
 90
        1
 91
        1
300
_TITLE
309
CELLSTYLE_END
300
CELLSTYLE
  1
TABLEFORMAT_BEGIN
 90
        5
170
     1
 91
        0
 92
        0
 62
   257
 93
        1
300
CONTENTFORMAT
  1
CONTENTFORMAT_BEGIN
 90
        0
 91
        0
 92
        4
 93
        0
300

 40
0.0
140
1.0
 94
        5
 62
     0
340
11
144
0.18
309
CONTENTFORMAT_END
171
     1
301
MARGIN
  1
CELLMARGIN_BEGIN
 40
0.06
 40
0.06
 40
0.06
 40
0.06
 40
0.06
 40
0.06
309
CELLMARGIN_END
 94
        6
 95
        1
302
GRIDFORMAT
  1
GRIDFORMAT_BEGIN
 90
        0
 91
        1
 62
     0
 92
       -2
340
14
 93
        0
 40
0.045
309
GRIDFORMAT_END
 95
        2
302
GRIDFORMAT
  1
GRIDFORMAT_BEGIN
 90
        0
 91
        1
 62
     0
 92
       -2
340
14
 93
        0
 40
0.045
309
GRIDFORMAT_END
 95
        4
302
GRIDFORMAT
  1
GRIDFORMAT_BEGIN
 90
        0
 91
        1
 62
     0
 92
       -2
340
14
 93
        0
 40
0.045
309
GRIDFORMAT_END
 95
        8
302
GRIDFORMAT
  1
GRIDFORMAT_BEGIN
 90
        0
 91
        1
 62
     0
 92
       -2
340
14
 93
        0
 40
0.045
309
GRIDFORMAT_END
 95
       16
302
GRIDFORMAT
  1
GRIDFORMAT_BEGIN
 90
        0
 91
        1
 62
     0
 92
       -2
340
14
 93
        0
 40
0.045
309
GRIDFORMAT_END
 95
       32
302
GRIDFORMAT
  1
GRIDFORMAT_BEGIN
 90
        0
 91
        1
 62
     0
 92
       -2
340
14
 93
        0
 40
0.045
309
GRIDFORMAT_END
309
TABLEFORMAT_END
  1
CELLSTYLE_BEGIN
 90
        2
 91
        1
300
_HEADER
309
CELLSTYLE_END
300
CELLSTYLE
  1
TABLEFORMAT_BEGIN
 90
        5
170
     1
 91
        0
 92
        0
 62
   257
 93
        1
300
CONTENTFORMAT
  1
CONTENTFORMAT_BEGIN
 90
        0
 91
        0
 92
        4
 93
        0
300

 40
0.0
140
1.0
 94
        2
 62
     0
340
11
144
0.18
309
CONTENTFORMAT_END
171
     1
301
MARGIN
  1
CELLMARGIN_BEGIN
 40
0.06
 40
0.06
 40
0.06
 40
0.06
 40
0.06
 40
0.06
309
CELLMARGIN_END
 94
        6
 95
        1
302
GRIDFORMAT
  1
GRIDFORMAT_BEGIN
 90
        0
 91
        1
 62
     0
 92
       -2
340
14
 93
        0
 40
0.045
309
GRIDFORMAT_END
 95
        2
302
GRIDFORMAT
  1
GRIDFORMAT_BEGIN
 90
        0
 91
        1
 62
     0
 92
       -2
340
14
 93
        0
 40
0.045
309
GRIDFORMAT_END
 95
        4
302
GRIDFORMAT
  1
GRIDFORMAT_BEGIN
 90
        0
 91
        1
 62
     0
 92
       -2
340
14
 93
        0
 40
0.045
309
GRIDFORMAT_END
 95
        8
302
GRIDFORMAT
  1
GRIDFORMAT_BEGIN
 90
        0
 91
        1
 62
     0
 92
       -2
340
14
 93
        0
 40
0.045
309
GRIDFORMAT_END
 95
       16
302
GRIDFORMAT
  1
GRIDFORMAT_BEGIN
 90
        0
 91
        1
 62
     0
 92
       -2
340
14
 93
        0
 40
0.045
309
GRIDFORMAT_END
 95
       32
302
GRIDFORMAT
  1
GRIDFORMAT_BEGIN
 90
        0
 91
        1
 62
     0
 92
       -2
340
14
 93
        0
 40
0.045
309
GRIDFORMAT_END
309
TABLEFORMAT_END
  1
CELLSTYLE_BEGIN
 90
        3
 91
        2
300
_DATA
309
CELLSTYLE_END
  0
ENDSEC
  0
EOF
