  0
SECTION
  2
HEADER
  9
$ACADVER
  1
AC1027
  9
$ACADMAINTVER
 70
   105
  9
$DWGCODEPAGE
  3
ANSI_1252
  9
$LASTSAVEDBY
  1
Office Desk
  9
$REQUIREDVERSIONS
160
                 0
  9
$INSBASE
 10
0.0
 20
0.0
 30
0.0
  9
$EXTMIN
 10
14.90436220472441
 20
-1.283893700787402
 30
0.0
  9
$EXTMAX
 10
22.28407874015748
 20
8.053011811023621
 30
0.0
  9
$LIMMIN
 10
0.0
 20
0.0
  9
$LIMMAX
 10
12.0
 20
9.0
  9
$ORTHOMODE
 70
     0
  9
$REGENMODE
 70
     1
  9
$FILLMODE
 70
     1
  9
$QTEXTMODE
 70
     0
  9
$MIRRTEXT
 70
     1
  9
$LTSCALE
 40
1.0
  9
$ATTMODE
 70
     1
  9
$TEXTSIZE
 40
0.2
  9
$TRACEWID
 40
0.05
  9
$TEXTSTYLE
  7
Standard
  9
$CLAYER
  8
0
  9
$CELTYPE
  6
ByLayer
  9
$CECOLOR
 62
   256
  9
$CELTSCALE
 40
1.0
  9
$DISPSILH
 70
     0
  9
$DIMSCALE
 40
1.0
  9
$DIMASZ
 40
0.18
  9
$DIMEXO
 40
0.0625
  9
$DIMDLI
 40
0.38
  9
$DIMRND
 40
0.0
  9
$DIMDLE
 40
0.0
  9
$DIMEXE
 40
0.18
  9
$DIMTP
 40
0.0
  9
$DIMTM
 40
0.0
  9
$DIMTXT
 40
0.18
  9
$DIMCEN
 40
0.09
  9
$DIMTSZ
 40
0.0
  9
$DIMTOL
 70
     0
  9
$DIMLIM
 70
     0
  9
$DIMTIH
 70
     1
  9
$DIMTOH
 70
     1
  9
$DIMSE1
 70
     0
  9
$DIMSE2
 70
     0
  9
$DIMTAD
 70
     0
  9
$DIMZIN
 70
     0
  9
$DIMBLK
  1

  9
$DIMASO
 70
     1
  9
$DIMSHO
 70
     1
  9
$DIMPOST
  1

  9
$DIMAPOST
  1

  9
$DIMALT
 70
     0
  9
$DIMALTD
 70
     2
  9
$DIMALTF
 40
25.4
  9
$DIMLFAC
 40
1.0
  9
$DIMTOFL
 70
     0
  9
$DIMTVP
 40
0.0
  9
$DIMTIX
 70
     0
  9
$DIMSOXD
 70
     0
  9
$DIMSAH
 70
     0
  9
$DIMBLK1
  1

  9
$DIMBLK2
  1

  9
$DIMSTYLE
  2
Standard
  9
$DIMCLRD
 70
     0
  9
$DIMCLRE
 70
     0
  9
$DIMCLRT
 70
     0
  9
$DIMTFAC
 40
1.0
  9
$DIMGAP
 40
0.09
  9
$DIMJUST
 70
     0
  9
$DIMSD1
 70
     0
  9
$DIMSD2
 70
     0
  9
$DIMTOLJ
 70
     1
  9
$DIMTZIN
 70
     0
  9
$DIMALTZ
 70
     0
  9
$DIMALTTZ
 70
     0
  9
$DIMUPT
 70
     0
  9
$DIMDEC
 70
     4
  9
$DIMTDEC
 70
     4
  9
$DIMALTU
 70
     2
  9
$DIMALTTD
 70
     2
  9
$DIMTXSTY
  7
Standard
  9
$DIMAUNIT
 70
     0
  9
$DIMADEC
 70
     0
  9
$DIMALTRND
 40
0.0
  9
$DIMAZIN
 70
     0
  9
$DIMDSEP
 70
    46
  9
$DIMATFIT
 70
     3
  9
$DIMFRAC
 70
     0
  9
$DIMLDRBLK
  1

  9
$DIMLUNIT
 70
     2
  9
$DIMLWD
 70
    -2
  9
$DIMLWE
 70
    -2
  9
$DIMTMOVE
 70
     0
  9
$DIMFXL
 40
1.0
  9
$DIMFXLON
 70
     0
  9
$DIMJOGANG
 40
0.7853981633974483
  9
$DIMTFILL
 70
     0
  9
$DIMTFILLCLR
 70
     0
  9
$DIMARCSYM
 70
     0
  9
$DIMLTYPE
  6

  9
$DIMLTEX1
  6

  9
$DIMLTEX2
  6

  9
$DIMTXTDIRECTION
 70
     0
  9
$LUNITS
 70
     2
  9
$LUPREC
 70
     4
  9
$SKETCHINC
 40
0.1
  9
$FILLETRAD
 40
0.0
  9
$AUNITS
 70
     0
  9
$AUPREC
 70
     0
  9
$MENU
  1
.
  9
$ELEVATION
 40
0.0
  9
$PELEVATION
 40
0.0
  9
$THICKNESS
 40
0.0
  9
$LIMCHECK
 70
     0
  9
$CHAMFERA
 40
0.0
  9
$CHAMFERB
 40
0.0
  9
$CHAMFERC
 40
0.0
  9
$CHAMFERD
 40
0.0
  9
$SKPOLY
 70
     0
  9
$TDCREATE
 40
2461020.620092512
  9
$TDUCREATE
 40
2461020.390925845
  9
$TDUPDATE
 40
2461020.620092755
  9
$TDUUPDATE
 40
2461020.390926088
  9
$TDINDWG
 40
0.0000000116
  9
$TDUSRTIMER
 40
0.0000000116
  9
$USRTIMER
 70
     1
  9
$ANGBASE
 50
0.0
  9
$ANGDIR
 70
     0
  9
$PDMODE
 70
     0
  9
$PDSIZE
 40
0.0
  9
$PLINEWID
 40
0.0
  9
$SPLFRAME
 70
     0
  9
$SPLINETYPE
 70
     6
  9
$SPLINESEGS
 70
     8
  9
$HANDSEED
  5
93
  9
$SURFTAB1
 70
     6
  9
$SURFTAB2
 70
     6
  9
$SURFTYPE
 70
     6
  9
$SURFU
 70
     6
  9
$SURFV
 70
     6
  9
$UCSBASE
  2

  9
$UCSNAME
  2

  9
$UCSORG
 10
0.0
 20
0.0
 30
0.0
  9
$UCSXDIR
 10
1.0
 20
0.0
 30
0.0
  9
$UCSYDIR
 10
0.0
 20
1.0
 30
0.0
  9
$UCSORTHOREF
  2

  9
$UCSORTHOVIEW
 70
     0
  9
$UCSORGTOP
 10
0.0
 20
0.0
 30
0.0
  9
$UCSORGBOTTOM
 10
0.0
 20
0.0
 30
0.0
  9
$UCSORGLEFT
 10
0.0
 20
0.0
 30
0.0
  9
$UCSORGRIGHT
 10
0.0
 20
0.0
 30
0.0
  9
$UCSORGFRONT
 10
0.0
 20
0.0
 30
0.0
  9
$UCSORGBACK
 10
0.0
 20
0.0
 30
0.0
  9
$PUCSBASE
  2

  9
$PUCSNAME
  2

  9
$PUCSORG
 10
0.0
 20
0.0
 30
0.0
  9
$PUCSXDIR
 10
1.0
 20
0.0
 30
0.0
  9
$PUCSYDIR
 10
0.0
 20
1.0
 30
0.0
  9
$PUCSORTHOREF
  2

  9
$PUCSORTHOVIEW
 70
     0
  9
$PUCSORGTOP
 10
0.0
 20
0.0
 30
0.0
  9
$PUCSORGBOTTOM
 10
0.0
 20
0.0
 30
0.0
  9
$PUCSORGLEFT
 10
0.0
 20
0.0
 30
0.0
  9
$PUCSORGRIGHT
 10
0.0
 20
0.0
 30
0.0
  9
$PUCSORGFRONT
 10
0.0
 20
0.0
 30
0.0
  9
$PUCSORGBACK
 10
0.0
 20
0.0
 30
0.0
  9
$USERI1
 70
     0
  9
$USERI2
 70
     0
  9
$USERI3
 70
     0
  9
$USERI4
 70
     0
  9
$USERI5
 70
     0
  9
$USERR1
 40
0.0
  9
$USERR2
 40
0.0
  9
$USERR3
 40
0.0
  9
$USERR4
 40
0.0
  9
$USERR5
 40
0.0
  9
$WORLDVIEW
 70
     1
  9
$SHADEDGE
 70
     3
  9
$SHADEDIF
 70
    70
  9
$TILEMODE
 70
     1
  9
$MAXACTVP
 70
    64
  9
$PINSBASE
 10
0.0
 20
0.0
 30
0.0
  9
$PLIMCHECK
 70
     0
  9
$PEXTMIN
 10
1.000000000000000E+20
 20
1.000000000000000E+20
 30
1.000000000000000E+20
  9
$PEXTMAX
 10
-1.000000000000000E+20
 20
-1.000000000000000E+20
 30
-1.000000000000000E+20
  9
$PLIMMIN
 10
0.0
 20
0.0
  9
$PLIMMAX
 10
12.0
 20
9.0
  9
$UNITMODE
 70
     0
  9
$VISRETAIN
 70
     1
  9
$PLINEGEN
 70
     0
  9
$PSLTSCALE
 70
     1
  9
$TREEDEPTH
 70
  3020
  9
$CMLSTYLE
  2
Standard
  9
$CMLJUST
 70
     0
  9
$CMLSCALE
 40
1.0
  9
$PROXYGRAPHICS
 70
     1
  9
$MEASUREMENT
 70
     0
  9
$CELWEIGHT
370
    -1
  9
$ENDCAPS
280
     0
  9
$JOINSTYLE
280
     0
  9
$LWDISPLAY
290
     0
  9
$INSUNITS
 70
     1
  9
$HYPERLINKBASE
  1

  9
$STYLESHEET
  1

  9
$XEDIT
290
     1
  9
$CEPSNTYPE
380
     0
  9
$PSTYLEMODE
290
     1
  9
$FINGERPRINTGUID
  2
{18631550-f31a-451c-a78e-6d41e30770b2}
  9
$VERSIONGUID
  2
{FAEB1C32-E019-11D5-929B-00C0DF256EC4}
  9
$EXTNAMES
290
     1
  9
$PSVPSCALE
 40
0.0
  9
$OLESTARTUP
290
     0
  9
$SORTENTS
280
   127
  9
$INDEXCTL
280
     0
  9
$HIDETEXT
280
     1
  9
$XCLIPFRAME
280
     2
  9
$HALOGAP
280
     0
  9
$OBSCOLOR
 70
   257
  9
$OBSLTYPE
280
     0
  9
$INTERSECTIONDISPLAY
280
     0
  9
$INTERSECTIONCOLOR
 70
   257
  9
$DIMASSOC
280
     2
  9
$PROJECTNAME
  1

  9
$CAMERADISPLAY
290
     0
  9
$LENSLENGTH
 40
50.0
  9
$CAMERAHEIGHT
 40
0.0
  9
$STEPSPERSEC
 40
2.0
  9
$STEPSIZE
 40
6.0
  9
$3DDWFPREC
 40
2.0
  9
$PSOLWIDTH
 40
0.25
  9
$PSOLHEIGHT
 40
4.0
  9
$LOFTANG1
 40
1.570796326794897
  9
$LOFTANG2
 40
1.570796326794897
  9
$LOFTMAG1
 40
0.0
  9
$LOFTMAG2
 40
0.0
  9
$LOFTPARAM
 70
     7
  9
$LOFTNORMALS
280
     1
  9
$LATITUDE
 40
37.795
  9
$LONGITUDE
 40
-122.394
  9
$NORTHDIRECTION
 40
0.0
  9
$TIMEZONE
 70
 -8000
  9
$LIGHTGLYPHDISPLAY
280
     1
  9
$TILEMODELIGHTSYNCH
280
     1
  9
$CMATERIAL
347
44
  9
$SOLIDHIST
280
     0
  9
$SHOWHIST
280
     1
  9
$DWFFRAME
280
     2
  9
$DGNFRAME
280
     2
  9
$REALWORLDSCALE
290
     1
  9
$INTERFERECOLOR
 62
   256
  9
$CSHADOW
280
     0
  9
$SHADOWPLANELOCATION
 40
0.0
  0
ENDSEC
  0
SECTION
  2
CLASSES
  0
CLASS
  1
ACDBDICTIONARYWDFLT
  2
AcDbDictionaryWithDefault
  3
ObjectDBX Classes
 90
        0
 91
        3
280
     0
281
     0
  0
CLASS
  1
VISUALSTYLE
  2
AcDbVisualStyle
  3
ObjectDBX Classes
 90
     4095
 91
        3
280
     0
281
     0
  0
CLASS
  1
MATERIAL
  2
AcDbMaterial
  3
ObjectDBX Classes
 90
     1153
 91
        3
280
     0
281
     0
  0
CLASS
  1
SCALE
  2
AcDbScale
  3
ObjectDBX Classes
 90
     1153
 91
        3
280
     0
281
     0
  0
CLASS
  1
TABLESTYLE
  2
AcDbTableStyle
  3
ObjectDBX Classes
 90
     4095
 91
        3
280
     0
281
     0
  0
CLASS
  1
MLEADERSTYLE
  2
AcDbMLeaderStyle
  3
ACDB_MLEADERSTYLE_CLASS
 90
     4095
 91
        3
280
     0
281
     0
  0
CLASS
  1
SUN
  2
AcDbSun
  3
SCENEOE
 90
     1153
 91
        3
280
     0
281
     0
  0
CLASS
  1
DICTIONARYVAR
  2
AcDbDictionaryVar
  3
ObjectDBX Classes
 90
        0
 91
        3
280
     0
281
     0
  0
CLASS
  1
CELLSTYLEMAP
  2
AcDbCellStyleMap
  3
ObjectDBX Classes
 90
     1152
 91
        3
280
     0
281
     0
  0
ENDSEC
  0
SECTION
  2
TABLES
  0
TABLE
  2
VPORT
  5
8
330
0
100
AcDbSymbolTable
 70
     1
  0
VPORT
  5
29
330
8
100
AcDbSymbolTableRecord
100
AcDbViewportTableRecord
  2
*Active
 70
     0
 10
0.0
 20
0.0
 11
1.0
 21
1.0
 12
10.42990654205607
 22
4.5
 13
0.0
 23
0.0
 14
0.5
 24
0.5
 15
0.5
 25
0.5
 16
0.0
 26
0.0
 36
1.0
 17
0.0
 27
0.0
 37
0.0
 40
9.0
 41
1.972972972850329
 42
50.0
 43
0.0
 44
0.0
 50
0.0
 51
0.0
 71
     0
 72
   100
 73
     1
 74
     3
 75
     0
 76
     0
 77
     0
 78
     0
281
     0
 65
     1
110
0.0
120
0.0
130
0.0
111
1.0
121
0.0
131
0.0
112
0.0
122
1.0
132
0.0
 79
     0
146
0.0
348
2F
 60
     3
 61
     5
292
     1
282
     1
141
0.0
142
0.0
 63
   250
361
5D
  0
ENDTAB
  0
TABLE
  2
LTYPE
  5
5
330
0
100
AcDbSymbolTable
 70
     1
  0
LTYPE
  5
14
330
5
100
AcDbSymbolTableRecord
100
AcDbLinetypeTableRecord
  2
ByBlock
 70
     0
  3

 72
    65
 73
     0
 40
0.0
  0
LTYPE
  5
15
330
5
100
AcDbSymbolTableRecord
100
AcDbLinetypeTableRecord
  2
ByLayer
 70
     0
  3

 72
    65
 73
     0
 40
0.0
  0
LTYPE
  5
16
330
5
100
AcDbSymbolTableRecord
100
AcDbLinetypeTableRecord
  2
Continuous
 70
     0
  3
Solid line
 72
    65
 73
     0
 40
0.0
  0
ENDTAB
  0
TABLE
  2
LAYER
  5
2
330
0
100
AcDbSymbolTable
 70
     2
  0
LAYER
  5
10
330
2
100
AcDbSymbolTableRecord
100
AcDbLayerTableRecord
  2
0
 70
     0
 62
     7
  6
Continuous
370
    -3
390
F
347
46
348
0
  0
LAYER
  5
5F
330
2
100
AcDbSymbolTableRecord
100
AcDbLayerTableRecord
  2
Layer 1
 70
     0
 62
     7
  6
Continuous
370
    -3
390
F
347
46
348
0
  0
ENDTAB
  0
TABLE
  2
STYLE
  5
3
330
0
100
AcDbSymbolTable
 70
     1
  0
STYLE
  5
11
330
3
100
AcDbSymbolTableRecord
100
AcDbTextStyleTableRecord
  2
Standard
 70
     0
 40
0.0
 41
1.0
 50
0.0
 71
     0
 42
0.2
  3
txt
  4

  0
ENDTAB
  0
TABLE
  2
VIEW
  5
6
330
0
100
AcDbSymbolTable
 70
     0
  0
ENDTAB
  0
TABLE
  2
UCS
  5
7
330
0
100
AcDbSymbolTable
 70
     0
  0
ENDTAB
  0
TABLE
  2
APPID
  5
9
330
0
100
AcDbSymbolTable
 70
     2
  0
APPID
  5
12
330
9
100
AcDbSymbolTableRecord
100
AcDbRegAppTableRecord
  2
ACAD
 70
     0
  0
APPID
  5
5E
330
9
100
AcDbSymbolTableRecord
100
AcDbRegAppTableRecord
  2
ODA
 70
     0
  0
ENDTAB
  0
TABLE
  2
DIMSTYLE
  5
A
330
0
100
AcDbSymbolTable
 70
     1
100
AcDbDimStyleTable
  0
DIMSTYLE
105
27
330
A
100
AcDbSymbolTableRecord
100
AcDbDimStyleTableRecord
  2
Standard
 70
     0
178
     0
340
11
  0
ENDTAB
  0
TABLE
  2
BLOCK_RECORD
  5
1
330
0
100
AcDbSymbolTable
 70
     1
  0
BLOCK_RECORD
  5
1F
330
1
100
AcDbSymbolTableRecord
100
AcDbBlockTableRecord
  2
*Model_Space
340
22
 70
     0
280
     1
281
     0
  0
BLOCK_RECORD
  5
1B
330
1
100
AcDbSymbolTableRecord
100
AcDbBlockTableRecord
  2
*Paper_Space
340
1E
 70
     0
280
     1
281
     0
  0
BLOCK_RECORD
  5
23
330
1
100
AcDbSymbolTableRecord
100
AcDbBlockTableRecord
  2
*Paper_Space0
340
26
 70
     0
280
     1
281
     0
  0
ENDTAB
  0
ENDSEC
  0
SECTION
  2
BLOCKS
  0
BLOCK
  5
20
330
1F
100
AcDbEntity
  8
0
100
AcDbBlockBegin
  2
*Model_Space
 70
     0
 10
0.0
 20
0.0
 30
0.0
  3
*Model_Space
  1

  0
ENDBLK
  5
21
330
1F
100
AcDbEntity
  8
0
100
AcDbBlockEnd
  0
BLOCK
  5
1C
330
1B
100
AcDbEntity
 67
     1
  8
0
100
AcDbBlockBegin
  2
*Paper_Space
 70
     0
 10
0.0
 20
0.0
 30
0.0
  3
*Paper_Space
  1

  0
ENDBLK
  5
1D
330
1B
100
AcDbEntity
 67
     1
  8
0
100
AcDbBlockEnd
  0
BLOCK
  5
24
330
23
100
AcDbEntity
  8
0
100
AcDbBlockBegin
  2
*Paper_Space0
 70
     0
 10
0.0
 20
0.0
 30
0.0
  3
*Paper_Space0
  1

  0
ENDBLK
  5
25
330
23
100
AcDbEntity
  8
0
100
AcDbBlockEnd
  0
ENDSEC
  0
SECTION
  2
ENTITIES
  0
LWPOLYLINE
  5
60
330
1F
100
AcDbEntity
  8
Layer 1
 62
   250
370
     9
100
AcDbPolyline
 90
        5
 70
     1
 43
0.0
 10
14.90586220472441
 20
-1.282393700787402
 10
22.28257874015748
 20
-1.282393700787402
 10
22.28257874015748
 20
8.051511811023621
 10
14.90586220472441
 20
8.051511811023621
 10
14.90586220472441
 20
-1.282393700787402
  0
LWPOLYLINE
  5
61
330
1F
100
AcDbEntity
  8
Layer 1
 62
     7
370
     9
100
AcDbPolyline
 90
      238
 70
     1
 43
0.0
 10
19.74322834645669
 20
5.363527559055118
 10
19.74973622047244
 20
6.060409448818898
 10
19.74981889763779
 20
6.063129921259843
 10
19.74936614173228
 20
6.070755905511811
 10
19.74730708661417
 20
6.082496062992126
 10
19.74259448818898
 20
6.097551181102363
 10
19.73415748031496
 20
6.115122047244094
 10
19.72094094488189
 20
6.134413385826772
 10
19.70188582677165
 20
6.154633858267717
 10
19.67592913385827
 20
6.174976377952756
 10
19.62735826771653
 20
6.199118110236221
 10
19.54359448818898
 20
6.227543307086614
 10
19.42826771653543
 20
6.254657480314961
 10
19.2850157480315
 20
6.274870078740157
 10
19.11747244094488
 20
6.28259842519685
 10
18.92926771653543
 20
6.272251968503937
 10
18.72403937007874
 20
6.238240157480315
 10
18.50542125984252
 20
6.174976377952756
 10
18.49694094488189
 20
6.175814960629921
 10
18.47092125984252
 20
6.177161417322835
 10
18.42649212598425
 20
6.177267716535433
 10
18.36277952755906
 20
6.174381889763779
 10
18.27891338582677
 20
6.166751968503937
 10
18.17401968503937
 20
6.152633858267716
 10
18.04723228346457
 20
6.130271653543307
 10
17.89767322834646
 20
6.097921259842519
 10
17.74520472440945
 20
6.062358267716536
 10
17.61074803149606
 20
6.031535433070866
 10
17.49501574803149
 20
6.005456692913386
 10
17.39872440944882
 20
5.984118110236221
 10
17.32258267716535
 20
5.96751968503937
 10
17.26731496062992
 20
5.955661417322835
 10
17.23362598425197
 20
5.948547244094488
 10
17.22224015748031
 20
5.946177165354331
 10
17.20906299212598
 20
5.94342125984252
 10
17.17705511811024
 20
5.93490157480315
 10
17.13751968503937
 20
5.920251968503937
 10
17.10175196850394
 20
5.899094488188976
 10
17.08103937007874
 20
5.87105905511811
 10
17.08668897637795
 20
5.835775590551181
 10
17.12998818897638
 20
5.792866141732284
 10
17.22224015748031
 20
5.741964566929134
 10
17.22723228346457
 20
5.73951968503937
 10
17.24192913385827
 20
5.733543307086614
 10
17.26592125984252
 20
5.72607874015748
 10
17.29879133858268
 20
5.719173228346457
 10
17.34012598425197
 20
5.714866141732283
 10
17.38951181102362
 20
5.715204724409449
 10
17.44652755905512
 20
5.722232283464567
 10
17.51076771653543
 20
5.737988188976378
 10
17.58101968503937
 20
5.760346456692913
 10
17.65834251968504
 20
5.78494094488189
 10
17.74570078740157
 20
5.81048031496063
 10
17.84607874015748
 20
5.835657480314961
 10
17.96244094488189
 20
5.859173228346457
 10
18.09775984251969
 20
5.879728346456693
 10
18.2550157480315
 20
5.896023622047244
 10
18.4371811023622
 20
5.906759842519685
 10
18.45233070866142
 20
5.242133858267716
 10
18.45212992125984
 20
5.239370078740158
 10
18.45223622047244
 20
5.231527559055118
 10
18.45371653543307
 20
5.219271653543307
 10
18.45763385826772
 20
5.203279527559055
 10
18.46505511811024
 20
5.184212598425197
 10
18.47704724409449
 20
5.162748031496063
 10
18.49466929133858
 20
5.139551181102362
 10
18.51899606299213
 20
5.115295275590551
 10
18.51637007874016
 20
5.080429133858268
 10
18.51353937007874
 20
5.080582677165355
 10
18.50603149606299
 20
5.080633858267716
 10
18.49533070866142
 20
5.079964566929134
 10
18.48291338582677
 20
5.077964566929134
 10
18.47026377952756
 20
5.07401968503937
 10
18.45886220472441
 20
5.067511811023622
 10
18.45018503937008
 20
5.057826771653543
 10
18.4457125984252
 20
5.044350393700787
 10
18.44009448818898
 20
5.00546062992126
 10
18.42838976377953
 20
4.928779527559055
 10
18.41270866141732
 20
4.827547244094488
 10
18.39515354330709
 20
4.71501968503937
 10
18.37783464566929
 20
4.604437007874016
 10
18.36285826771654
 20
4.509047244094488
 10
18.35232677165354
 20
4.442098425196851
 10
18.34834645669291
 20
4.416838582677165
 10
18.34850393700787
 20
4.413696850393701
 10
18.34833858267717
 20
4.405216535433071
 10
18.34688188976378
 20
4.392830708661418
 10
18.34317322834646
 20
4.37796062992126
 10
18.33625196850394
 20
4.362031496062992
 10
18.32515748031496
 20
4.346476377952756
 10
18.30892125984252
 20
4.332716535433071
 10
18.28658267716536
 20
4.322181102362205
 10
18.24591338582677
 20
4.307893700787401
 10
18.17662992125984
 20
4.283555118110236
 10
18.08067322834646
 20
4.251594488188976
 10
17.96
 20
4.214437007874015
 10
17.81656299212598
 20
4.174515748031496
 10
17.6523031496063
 20
4.134259842519685
 10
17.4691811023622
 20
4.096098425196851
 10
17.26914173228347
 20
4.06246062992126
 10
17.06187401574803
 20
4.020228346456693
 10
16.85887401574803
 20
3.95657874015748
 10
16.66479527559055
 20
3.87436220472441
 10
16.48429133858268
 20
3.776448818897638
 10
16.32201968503937
 20
3.665688976377953
 10
16.18263779527559
 20
3.54494094488189
 10
16.07079527559055
 20
3.417070866141732
 10
15.99114960629921
 20
3.284937007874016
 10
15.99061417322835
 20
3.283728346456693
 10
15.98946062992126
 20
3.280267716535433
 10
15.98836220472441
 20
3.274807086614173
 10
15.98799212598425
 20
3.26759842519685
 10
15.98902362204724
 20
3.258889763779528
 10
15.99213779527559
 20
3.248933070866142
 10
15.998
 20
3.23798031496063
 10
16.0072874015748
 20
3.226279527559055
 10
16.01750787401575
 20
3.21505905511811
 10
16.02570472440945
 20
3.205216535433071
 10
16.03184251968504
 20
3.19651968503937
 10
16.03589763779528
 20
3.188724409448819
 10
16.03783070866142
 20
3.18159842519685
 10
16.03761811023622
 20
3.17490157480315
 10
16.03523228346457
 20
3.168393700787401
 10
16.03063385826772
 20
3.161842519685039
 10
16.02374409448819
 20
3.151988188976378
 10
16.01499606299213
 20
3.136767716535433
 10
16.00511811023622
 20
3.117712598425197
 10
15.99485433070866
 20
3.096366141732283
 10
15.98492913385827
 20
3.074271653543307
 10
15.97608661417323
 20
3.052968503937008
 10
15.96905511811024
 20
3.033992125984252
 10
15.96457480314961
 20
3.018885826771653
 10
15.96357480314961
 20
3.006169291338582
 10
15.96584645669291
 20
2.993649606299213
 10
15.97042125984252
 20
2.981783464566929
 10
15.97633464566929
 20
2.97103937007874
 10
15.98261811023622
 20
2.961877952755906
 10
15.98830708661417
 20
2.954759842519685
 10
15.99242519685039
 20
2.950149606299213
 10
15.9940157480315
 20
2.948511811023622
 10
16.01211811023622
 20
2.93617716535433
 10
16.06133464566929
 20
2.903799212598425
 10
16.13401968503937
 20
2.858322834645669
 10
16.22253937007874
 20
2.806688976377953
 10
16.31924409448819
 20
2.755842519685039
 10
16.4165
 20
2.712724409448819
 10
16.50666141732284
 20
2.684275590551181
 10
16.5820905511811
 20
2.677444881889764
 10
16.58386220472441
 20
2.677728346456693
 10
16.58879133858268
 20
2.679003937007874
 10
16.59628346456693
 20
2.681893700787402
 10
16.60575984251969
 20
2.687035433070866
 10
16.61663385826771
 20
2.695051181102362
 10
16.62831496062992
 20
2.706574803149606
 10
16.64022047244094
 20
2.722236220472441
 10
16.65176377952756
 20
2.742661417322835
 10
16.72043307086614
 20
2.883645669291338
 10
16.72306299212599
 20
2.882338582677165
 10
16.7301968503937
 20
2.879177165354331
 10
16.74070472440945
 20
2.875311023622047
 10
16.75344881889764
 20
2.871874015748031
 10
16.76729921259842
 20
2.87001968503937
 10
16.78111811023622
 20
2.870881889763779
 10
16.79377952755906
 20
2.875614173228346
 10
16.80414173228347
 20
2.885350393700787
 10
16.81876771653543
 20
2.914342519685039
 10
16.85538976377953
 20
2.971212598425197
 10
16.92963779527559
 20
3.048657480314961
 10
17.05714566929134
 20
3.139374015748031
 10
17.25353937007874
 20
3.236062992125984
 10
17.53444881889764
 20
3.33142125984252
 10
17.91551181102362
 20
3.418149606299213
 10
18.41235433070866
 20
3.488944881889764
 10
18.41596456692913
 20
3.455472440944882
 10
18.42576771653543
 20
3.365968503937008
 10
18.44022440944882
 20
3.236791338582677
 10
18.45780708661417
 20
3.084303149606299
 10
18.47697244094488
 20
2.924866141732283
 10
18.49618897637795
 20
2.774842519685039
 10
18.51391732283465
 20
2.650594488188976
 10
18.5286220472441
 20
2.56848031496063
 10
18.54398818897638
 20
2.50194094488189
 10
18.56294881889764
 20
2.414708661417323
 10
18.58283858267717
 20
2.308582677165354
 10
18.601
 20
2.185362204724409
 10
18.61476771653543
 20
2.046858267716535
 10
18.62147637795276
 20
1.894862204724409
 10
18.61847244094488
 20
1.731185039370079
 10
18.60308661417323
 20
1.557625984251968
 10
18.58175984251968
 20
1.352771653543307
 10
18.56279921259842
 20
1.107850393700787
 10
18.54635433070866
 20
0.8436338582677165
 10
18.53257086614173
 20
0.5808858267716536
 10
18.52159448818898
 20
0.3403779527559055
 10
18.51357480314961
 20
0.1428740157480315
 10
18.50865354330709
 20
0.0091417322834646
 10
18.50698031496063
 20
-0.0400511811023622
 10
18.5419842519685
 20
-0.0469803149606299
 10
18.63905511811024
 20
-0.0636062992125984
 10
18.78629133858268
 20
-0.0836929133858268
 10
18.97177559055118
 20
-0.100996062992126
 10
19.18360236220472
 20
-0.1092834645669291
 10
19.40986614173228
 20
-0.1023110236220472
 10
19.63865748031496
 20
-0.0738464566929134
 10
19.85806692913386
 20
-0.0176417322834646
 10
19.85590157480315
 20
-0.0145433070866142
 10
19.84896062992126
 20
0.0070511811023622
 10
19.8365905511811
 20
0.0655748031496063
 10
19.81813385826772
 20
0.1794763779527559
 10
19.79292519685039
 20
0.3671889763779528
 10
19.76031102362205
 20
0.6471574803149607
 10
19.71963385826772
 20
1.037822834645669
 10
19.67022834645669
 20
1.557625984251968
 10
19.66890157480315
 20
1.588807086614173
 10
19.66603937007874
 20
1.673543307086614
 10
19.66332283464567
 20
1.79861811023622
 10
19.66243307086614
 20
1.950818897637795
 10
19.66505118110236
 20
2.116937007874016
 10
19.67285433070866
 20
2.283755905511811
 10
19.68752755905512
 20
2.438066929133858
 10
19.71074803149606
 20
2.566649606299213
 10
19.74417716535433
 20
2.721370078740157
 10
19.78335039370079
 20
2.952248031496063
 10
19.82075984251968
 20
3.243295275590551
 10
19.84888582677165
 20
3.578531496062992
 10
19.86022834645669
 20
3.941976377952756
 10
19.84726771653543
 20
4.317649606299213
 10
19.80249606299213
 20
4.689570866141732
 10
19.71840157480315
 20
5.041755905511811
 10
19.66954724409449
 20
5.215062992125985
 10
19.67286614173228
 20
5.219228346456693
 10
19.68158661417323
 20
5.230665354330709
 10
19.69385039370079
 20
5.247795275590551
 10
19.70779527559055
 20
5.26903937007874
 10
19.72156692913386
 20
5.292814960629921
 10
19.73329921259842
 20
5.317543307086614
 10
19.74114173228346
 20
5.341641732283464
 10
19.74322834645669
 20
5.363527559055118
  0
LWPOLYLINE
  5
62
330
1F
100
AcDbEntity
  8
Layer 1
 62
     7
370
     9
100
AcDbPolyline
 90
       25
 70
     0
 43
0.0
 10
18.90757480314961
 20
6.039433070866142
 10
18.83915748031496
 20
6.034952755905512
 10
18.70019291338583
 20
6.021874015748032
 10
18.51005905511811
 20
6.000744094488189
 10
18.28815354330709
 20
5.972110236220472
 10
18.05386220472441
 20
5.93651968503937
 10
17.82657480314961
 20
5.894523622047244
 10
17.6256811023622
 20
5.846665354330709
 10
17.47056692913386
 20
5.793496062992126
 10
17.46562598425197
 20
5.792834645669291
 10
17.4519842519685
 20
5.791358267716536
 10
17.43141732283464
 20
5.789814960629921
 10
17.4056968503937
 20
5.788960629921259
 10
17.37658661417323
 20
5.789547244094488
 10
17.34587007874016
 20
5.792326771653543
 10
17.31531496062992
 20
5.798055118110236
 10
17.28669291338583
 20
5.807484251968504
 10
17.25908267716536
 20
5.818783464566929
 10
17.23118503937008
 20
5.829437007874016
 10
17.20423228346457
 20
5.839181102362205
 10
17.17943700787401
 20
5.847748031496063
 10
17.15802755905512
 20
5.854877952755905
 10
17.14122047244095
 20
5.860299212598425
 10
17.13024409448819
 20
5.863744094488189
 10
17.12631102362205
 20
5.864952755905512
  0
LWPOLYLINE
  5
63
330
1F
100
AcDbEntity
  8
Layer 1
 62
     7
370
     9
100
AcDbPolyline
 90
       25
 70
     0
 43
0.0
 10
19.70216929133858
 20
6.063161417322835
 10
19.68365354330709
 20
6.056228346456693
 10
19.63353149606299
 20
6.038318897637796
 10
19.55995275590551
 20
6.013771653543307
 10
19.47106299212598
 20
5.98692125984252
 10
19.37500393700788
 20
5.962106299212598
 10
19.27992519685039
 20
5.943669291338582
 10
19.19396850393701
 20
5.93594094488189
 10
19.12527952755906
 20
5.943263779527559
 10
19.06967716535433
 20
5.964334645669291
 10
19.0155
 20
5.992933070866142
 10
18.95967716535433
 20
6.026003937007874
 10
18.89913779527559
 20
6.0605
 10
18.83081102362205
 20
6.093377952755906
 10
18.75162598425197
 20
6.121582677165354
 10
18.65850787401575
 20
6.142070866141732
 10
18.54838976377953
 20
6.151787401574803
 10
18.53352755905512
 20
6.151043307086614
 10
18.49344881889764
 20
6.148933070866142
 10
18.43492519685039
 20
6.145633858267717
 10
18.36472834645669
 20
6.141326771653543
 10
18.28962992125984
 20
6.136192913385827
 10
18.21639763779527
 20
6.130405511811023
 10
18.1518031496063
 20
6.124149606299213
 10
18.10261417322835
 20
6.117606299212598
  0
LWPOLYLINE
  5
64
330
1F
100
AcDbEntity
  8
Layer 1
 62
     7
370
     9
100
AcDbPolyline
 90
        9
 70
     0
 43
0.0
 10
19.62874015748032
 20
5.157944881889764
 10
19.61106692913386
 20
5.148885826771654
 10
19.55903543307087
 20
5.126271653543307
 10
19.47412204724409
 20
5.096933070866141
 10
19.3578031496063
 20
5.067716535433071
 10
19.21155511811024
 20
5.045460629921259
 10
19.03685826771654
 20
5.036996062992126
 10
18.83518503937008
 20
5.049169291338583
 10
18.60801968503937
 20
5.088814960629922
  0
LWPOLYLINE
  5
65
330
1F
100
AcDbEntity
  8
Layer 1
 62
     7
370
     9
100
AcDbPolyline
 90
        9
 70
     0
 43
0.0
 10
19.63706299212598
 20
5.045657480314961
 10
19.62345275590551
 20
5.034311023622047
 10
19.58079921259842
 20
5.006161417322835
 10
19.50635826771654
 20
4.970051181102362
 10
19.3973937007874
 20
4.93482283464567
 10
19.25116141732283
 20
4.909318897637795
 10
19.06492125984252
 20
4.902377952755906
 10
18.83593307086614
 20
4.922838582677166
 10
18.56145669291339
 20
4.979547244094488
  0
LWPOLYLINE
  5
66
330
1F
100
AcDbEntity
  8
Layer 1
 62
     7
370
     9
100
AcDbPolyline
 90
       17
 70
     0
 43
0.0
 10
18.91374803149606
 20
4.139771653543307
 10
18.90851968503937
 20
4.145185039370078
 10
18.89309842519685
 20
4.157968503937008
 10
18.86786220472441
 20
4.172948818897638
 10
18.83320472440945
 20
4.184948818897638
 10
18.78950393700788
 20
4.188791338582678
 10
18.73714960629921
 20
4.179303149606299
 10
18.67652755905512
 20
4.151303149606299
 10
18.60801968503937
 20
4.099618110236221
 10
18.48712598425197
 20
4.046165354330709
 10
18.2832125984252
 20
4.006251968503937
 10
18.01746062992126
 20
3.964799212598425
 10
17.71105905511811
 20
3.906720472440945
 10
17.3851968503937
 20
3.816933070866142
 10
17.06106299212598
 20
3.680358267716536
 10
16.75984251968504
 20
3.481905511811024
 10
16.50272834645669
 20
3.206496062992126
  0
LWPOLYLINE
  5
67
330
1F
100
AcDbEntity
  8
Layer 1
 62
     7
370
     9
100
AcDbPolyline
 90
        9
 70
     0
 43
0.0
 10
16.68944881889764
 20
2.923334645669291
 10
16.67634251968504
 20
2.933877952755906
 10
16.63868110236221
 20
2.962515748031496
 10
16.57893307086614
 20
3.004759842519685
 10
16.49957874015748
 20
3.056125984251969
 10
16.40309448818898
 20
3.112129921259843
 10
16.29195669291338
 20
3.168283464566929
 10
16.16864566929134
 20
3.22009842519685
 10
16.03562992125984
 20
3.263090551181103
  0
LWPOLYLINE
  5
68
330
1F
100
AcDbEntity
  8
Layer 1
 62
     7
370
     9
100
AcDbPolyline
 90
        9
 70
     0
 43
0.0
 10
16.57840157480315
 20
2.69944094488189
 10
16.5633031496063
 20
2.708350393700787
 10
16.52161417322835
 20
2.732437007874016
 10
16.45875984251969
 20
2.767744094488189
 10
16.38016141732284
 20
2.810307086614173
 10
16.29123622047244
 20
2.856169291338583
 10
16.19740551181102
 20
2.901370078740158
 10
16.1040905511811
 20
2.941948818897638
 10
16.01670866141732
 20
2.973944881889764
  0
LWPOLYLINE
  5
69
330
1F
100
AcDbEntity
  8
Layer 1
 62
     7
370
     9
100
AcDbPolyline
 90
       33
 70
     1
 43
0.0
 10
18.59462598425197
 20
5.615350393700788
 10
18.57591732283464
 20
5.612775590551181
 10
18.55863779527559
 20
5.605393700787402
 10
18.54314960629921
 20
5.593716535433071
 10
18.52980708661417
 20
5.578248031496063
 10
18.51897637795276
 20
5.559496062992126
 10
18.51101968503937
 20
5.537976377952756
 10
18.5062874015748
 20
5.514188976377953
 10
18.50514566929134
 20
5.488653543307087
 10
18.50779527559055
 20
5.463122047244094
 10
18.51392913385827
 20
5.43934251968504
 10
18.52316141732284
 20
5.417822834645669
 10
18.53509842519685
 20
5.399074803149606
 10
18.54935039370079
 20
5.383606299212598
 10
18.56552755905512
 20
5.371929133858267
 10
18.58324015748031
 20
5.364547244094489
 10
18.60210236220473
 20
5.361972440944882
 10
18.62081496062992
 20
5.364547244094489
 10
18.63809448818898
 20
5.371929133858267
 10
18.65358661417323
 20
5.383606299212598
 10
18.66692519685039
 20
5.399074803149606
 10
18.67775196850394
 20
5.417822834645669
 10
18.6857125984252
 20
5.43934251968504
 10
18.69044094488189
 20
5.463122047244094
 10
18.69158267716535
 20
5.488653543307087
 10
18.68893700787402
 20
5.514188976377953
 10
18.6828031496063
 20
5.537976377952756
 10
18.67357086614173
 20
5.559496062992126
 10
18.66163385826772
 20
5.578248031496063
 10
18.64738188976378
 20
5.593716535433071
 10
18.63120078740157
 20
5.605393700787402
 10
18.61348818897638
 20
5.612775590551181
 10
18.59462598425197
 20
5.615350393700788
  0
LWPOLYLINE
  5
6A
330
1F
100
AcDbEntity
  8
Layer 1
 62
     7
370
     9
100
AcDbPolyline
 90
       33
 70
     1
 43
0.0
 10
18.59112992125984
 20
5.506397637795276
 10
18.58779527559055
 20
5.50594094488189
 10
18.58468503937008
 20
5.504629921259842
 10
18.58187401574803
 20
5.50255905511811
 10
18.57942125984252
 20
5.499814960629921
 10
18.57740157480315
 20
5.496484251968504
 10
18.57587401574803
 20
5.492665354330708
 10
18.57490551181102
 20
5.488444881889764
 10
18.57457086614173
 20
5.483913385826772
 10
18.57490551181102
 20
5.479377952755906
 10
18.57587401574803
 20
5.475153543307087
 10
18.57740157480315
 20
5.471330708661418
 10
18.57942125984252
 20
5.468003937007874
 10
18.58187401574803
 20
5.465255905511811
 10
18.58468503937008
 20
5.463185039370079
 10
18.58779527559055
 20
5.461874015748031
 10
18.59112992125984
 20
5.461417322834646
 10
18.59446456692913
 20
5.461874015748031
 10
18.59757086614173
 20
5.463185039370079
 10
18.60038188976378
 20
5.465255905511811
 10
18.60283070866142
 20
5.468003937007874
 10
18.60485039370079
 20
5.471330708661418
 10
18.60637401574803
 20
5.475153543307087
 10
18.60733858267717
 20
5.479377952755906
 10
18.60767322834646
 20
5.483913385826772
 10
18.60733858267717
 20
5.488444881889764
 10
18.60637401574803
 20
5.492665354330708
 10
18.60485039370079
 20
5.496484251968504
 10
18.60283070866142
 20
5.499814960629921
 10
18.60038188976378
 20
5.50255905511811
 10
18.59757086614173
 20
5.504629921259842
 10
18.59446456692913
 20
5.50594094488189
 10
18.59112992125984
 20
5.506397637795276
  0
LWPOLYLINE
  5
6B
330
1F
100
AcDbEntity
  8
Layer 1
 62
     7
370
    18
100
AcDbPolyline
 90
        2
 70
     0
 43
0.0
 10
20.35143307086614
 20
6.282614173228346
 10
20.35143307086614
 20
0.0120354330708661
  0
LWPOLYLINE
  5
6C
330
1F
100
AcDbEntity
  8
Layer 1
 62
     7
370
    18
100
AcDbPolyline
 90
        2
 70
     0
 43
0.0
 10
18.41818503937008
 20
-0.2793425196850394
 10
19.95170078740157
 20
-0.2793425196850394
  0
LWPOLYLINE
  5
6D
330
1F
100
AcDbEntity
  8
Layer 1
 62
     7
370
    18
100
AcDbPolyline
 90
        2
 70
     0
 43
0.0
 10
20.27197637795276
 20
0.0120393700787402
 10
20.4309094488189
 20
0.0120393700787402
  0
LWPOLYLINE
  5
6E
330
1F
100
AcDbEntity
  8
Layer 1
 62
     7
370
    18
100
AcDbPolyline
 90
        2
 70
     0
 43
0.0
 10
20.27197637795276
 20
6.282586614173228
 10
20.4309094488189
 20
6.282586614173228
  0
LWPOLYLINE
  5
6F
330
1F
100
AcDbEntity
  8
Layer 1
 62
     7
370
    18
100
AcDbPolyline
 90
        2
 70
     0
 43
0.0
 10
19.95167322834646
 20
-0.3588149606299212
 10
19.95167322834646
 20
-0.1998779527559055
  0
LWPOLYLINE
  5
70
330
1F
100
AcDbEntity
  8
Layer 1
 62
     7
370
    18
100
AcDbPolyline
 90
        2
 70
     0
 43
0.0
 10
18.41820866141732
 20
-0.3588149606299212
 10
18.41820866141732
 20
-0.1998779527559055
  0
LWPOLYLINE
  5
71
330
1F
100
AcDbEntity
  8
Layer 1
 62
     7
370
     9
100
AcDbPolyline
 90
        7
 70
     1
 43
0.0
 10
20.62214566929134
 20
3.405956692913386
 10
20.62214566929134
 20
3.377066929133858
 10
20.9061811023622
 20
3.377066929133858
 10
20.89875196850394
 20
3.446417322834646
 10
20.87356299212598
 20
3.446417322834646
 10
20.87356299212598
 20
3.405956692913386
 10
20.62214566929134
 20
3.405956692913386
  0
LWPOLYLINE
  5
72
330
1F
100
AcDbEntity
  8
Layer 1
 62
     7
370
     9
100
AcDbPolyline
 90
       65
 70
     1
 43
0.0
 10
20.76499212598425
 20
3.24
 10
20.76472834645669
 20
3.233870078740158
 10
20.76393307086614
 20
3.227984251968504
 10
20.76261023622047
 20
3.222334645669291
 10
20.76075984251969
 20
3.216925196850394
 10
20.7583779527559
 20
3.211755905511811
 10
20.75546850393701
 20
3.206826771653543
 10
20.75203149606299
 20
3.202133858267716
 10
20.74806692913386
 20
3.197681102362205
 10
20.74376377952756
 20
3.193665354330709
 10
20.73921653543307
 20
3.190185039370079
 10
20.73442125984252
 20
3.187240157480315
 10
20.72938188976378
 20
3.184830708661417
 10
20.72409842519685
 20
3.18296062992126
 10
20.71857086614173
 20
3.181622047244094
 10
20.71279921259843
 20
3.180818897637795
 10
20.70678346456693
 20
3.180551181102362
 10
20.7008188976378
 20
3.180814960629921
 10
20.69505511811024
 20
3.181606299212599
 10
20.68948818897638
 20
3.182929133858268
 10
20.68412598425197
 20
3.184779527559055
 10
20.67896456692914
 20
3.187157480314961
 10
20.674
 20
3.190066929133858
 10
20.66923622047244
 20
3.193507874015748
 10
20.66466929133858
 20
3.197476377952756
 10
20.66050787401575
 20
3.201818897637795
 10
20.65690157480315
 20
3.206437007874016
 10
20.65385039370079
 20
3.211334645669291
 10
20.65135433070866
 20
3.216511811023622
 10
20.6494094488189
 20
3.221964566929134
 10
20.64802362204724
 20
3.227696850393701
 10
20.64718897637795
 20
3.233708661417323
 10
20.64691338582677
 20
3.24
 10
20.64718897637795
 20
3.246283464566929
 10
20.64802362204724
 20
3.252291338582677
 10
20.6494094488189
 20
3.258023622047244
 10
20.65135433070866
 20
3.263476377952756
 10
20.65385039370079
 20
3.268649606299213
 10
20.65690157480315
 20
3.273547244094488
 10
20.66050787401575
 20
3.278165354330709
 10
20.66466929133858
 20
3.282507874015748
 10
20.66923622047244
 20
3.28648031496063
 10
20.674
 20
3.28992125984252
 10
20.67896456692914
 20
3.292830708661417
 10
20.68412598425197
 20
3.295212598425197
 10
20.68948818897638
 20
3.297066929133858
 10
20.69505511811024
 20
3.298389763779527
 10
20.7008188976378
 20
3.299185039370079
 10
20.70678346456693
 20
3.299448818897638
 10
20.71279921259843
 20
3.299181102362205
 10
20.71857086614173
 20
3.298377952755906
 10
20.72409842519685
 20
3.297035433070866
 10
20.72938188976378
 20
3.295161417322835
 10
20.73442125984252
 20
3.292748031496063
 10
20.73921653543307
 20
3.289803149606299
 10
20.74376377952756
 20
3.286318897637795
 10
20.74806692913386
 20
3.282303149606299
 10
20.75203149606299
 20
3.277850393700787
 10
20.75546850393701
 20
3.273157480314961
 10
20.7583779527559
 20
3.268228346456693
 10
20.76075984251969
 20
3.26305905511811
 10
20.76261023622047
 20
3.257653543307087
 10
20.76393307086614
 20
3.252007874015748
 10
20.76472834645669
 20
3.246122047244095
 10
20.76499212598425
 20
3.24
  0
LWPOLYLINE
  5
73
330
1F
100
AcDbEntity
  8
Layer 1
 62
     7
370
     9
100
AcDbPolyline
 90
       65
 70
     1
 43
0.0
 10
20.87892913385827
 20
3.24
 10
20.87872440944882
 20
3.23505905511811
 10
20.87810236220473
 20
3.230307086614173
 10
20.87707086614173
 20
3.225740157480315
 10
20.87562598425197
 20
3.221366141732283
 10
20.87377165354331
 20
3.217177165354331
 10
20.8715
 20
3.213173228346457
 10
20.86881496062992
 20
3.209354330708662
 10
20.86572047244094
 20
3.205724409448819
 10
20.86224015748031
 20
3.202338582677165
 10
20.85856299212599
 20
3.199405511811024
 10
20.8546811023622
 20
3.19692125984252
 10
20.85060236220473
 20
3.194889763779527
 10
20.84632283464567
 20
3.193307086614173
 10
20.84184251968504
 20
3.192177165354331
 10
20.83716141732284
 20
3.191496062992126
 10
20.83227952755906
 20
3.191271653543307
 10
20.82750787401575
 20
3.191496062992126
 10
20.82288976377953
 20
3.192177165354331
 10
20.8184251968504
 20
3.193307086614173
 10
20.81411417322835
 20
3.194889763779527
 10
20.80996062992126
 20
3.19692125984252
 10
20.80596062992126
 20
3.199405511811024
 10
20.80211811023622
 20
3.202338582677165
 10
20.79842913385827
 20
3.205724409448819
 10
20.79513779527559
 20
3.209330708661417
 10
20.79228346456693
 20
3.213133858267716
 10
20.78987007874016
 20
3.217125984251969
 10
20.78789763779528
 20
3.221314960629921
 10
20.78636220472441
 20
3.225696850393701
 10
20.78526377952756
 20
3.230271653543307
 10
20.7846062992126
 20
3.23503937007874
 10
20.78438582677165
 20
3.24
 10
20.7846062992126
 20
3.24496062992126
 10
20.78526377952756
 20
3.249728346456693
 10
20.78636220472441
 20
3.254299212598425
 10
20.78789763779528
 20
3.258677165354331
 10
20.78987007874016
 20
3.26286220472441
 10
20.79228346456693
 20
3.266854330708661
 10
20.79513779527559
 20
3.270653543307087
 10
20.79842913385827
 20
3.274259842519685
 10
20.80211811023622
 20
3.277649606299212
 10
20.80596062992126
 20
3.280582677165354
 10
20.80996062992126
 20
3.283066929133858
 10
20.81411417322835
 20
3.285102362204725
 10
20.8184251968504
 20
3.286681102362205
 10
20.82288976377953
 20
3.287811023622047
 10
20.82750787401575
 20
3.288488188976378
 10
20.83227952755906
 20
3.288712598425197
 10
20.83716141732284
 20
3.288488188976378
 10
20.84184251968504
 20
3.287811023622047
 10
20.84632283464567
 20
3.286681102362205
 10
20.85060236220473
 20
3.285102362204725
 10
20.8546811023622
 20
3.283066929133858
 10
20.85856299212599
 20
3.280582677165354
 10
20.86224015748031
 20
3.277649606299212
 10
20.86572047244094
 20
3.274259842519685
 10
20.86881496062992
 20
3.270633858267717
 10
20.8715
 20
3.266818897637795
 10
20.87377165354331
 20
3.262814960629921
 10
20.87562598425197
 20
3.258625984251969
 10
20.87707086614173
 20
3.254251968503937
 10
20.87810236220473
 20
3.249688976377953
 10
20.87872440944882
 20
3.244937007874016
 10
20.87892913385827
 20
3.24
  0
LWPOLYLINE
  5
74
330
1F
100
AcDbEntity
  8
Layer 1
 62
     7
370
     9
100
AcDbPolyline
 90
      121
 70
     1
 43
0.0
 10
20.61801968503937
 20
3.24
 10
20.61837795275591
 20
3.230535433070866
 10
20.61945275590551
 20
3.221452755905512
 10
20.62124015748032
 20
3.212755905511811
 10
20.62374803149606
 20
3.204437007874016
 10
20.62696850393701
 20
3.1965
 10
20.63090551181102
 20
3.188944881889764
 10
20.63555905511811
 20
3.181771653543307
 10
20.64092913385827
 20
3.174976377952756
 10
20.64373622047244
 20
3.171909448818897
 10
20.64668503937008
 20
3.169011811023622
 10
20.64977559055118
 20
3.166283464566929
 10
20.65300787401575
 20
3.163720472440945
 10
20.65638188976378
 20
3.161326771653543
 10
20.6598937007874
 20
3.159102362204724
 10
20.66355118110236
 20
3.157043307086614
 10
20.66734645669291
 20
3.155153543307087
 10
20.67129133858268
 20
3.15346062992126
 10
20.67537401574803
 20
3.151996062992126
 10
20.67959842519685
 20
3.150751968503937
 10
20.68396850393701
 20
3.149736220472441
 10
20.68847637795276
 20
3.148944881889764
 10
20.69312598425197
 20
3.14838188976378
 10
20.69791732283464
 20
3.148043307086614
 10
20.70285039370079
 20
3.147929133858268
 10
20.70785039370079
 20
3.14811811023622
 10
20.71283858267716
 20
3.148692913385827
 10
20.71781496062992
 20
3.149645669291338
 10
20.72277559055118
 20
3.150976377952756
 10
20.72772440944882
 20
3.152692913385827
 10
20.73265748031496
 20
3.154787401574803
 10
20.73758267716535
 20
3.157259842519685
 10
20.74249212598425
 20
3.160114173228346
 10
20.74727952755905
 20
3.163322834645669
 10
20.75183858267717
 20
3.166862204724409
 10
20.75617716535433
 20
3.170728346456693
 10
20.7602874015748
 20
3.174925196850394
 10
20.76417322834646
 20
3.179448818897638
 10
20.76783464566929
 20
3.184299212598425
 10
20.77127165354331
 20
3.18948031496063
 10
20.7744842519685
 20
3.194988188976378
 10
20.78147637795276
 20
3.187149606299212
 10
20.78861023622047
 20
3.180358267716536
 10
20.79589763779527
 20
3.174610236220472
 10
20.80333070866142
 20
3.169905511811024
 10
20.8109094488189
 20
3.166248031496063
 10
20.81864173228346
 20
3.163637795275591
 10
20.82651968503937
 20
3.162070866141732
 10
20.83454724409449
 20
3.161547244094488
 10
20.84246456692913
 20
3.161905511811024
 10
20.8500157480315
 20
3.16298031496063
 10
20.85720078740157
 20
3.164771653543307
 10
20.86401574803149
 20
3.167279527559055
 10
20.87046456692913
 20
3.170503937007874
 10
20.87654724409449
 20
3.174444881889764
 10
20.88225984251968
 20
3.17909842519685
 10
20.8876062992126
 20
3.184468503937008
 10
20.89224803149606
 20
3.190145669291339
 10
20.89627165354331
 20
3.196185039370079
 10
20.89967716535433
 20
3.202582677165354
 10
20.90246456692913
 20
3.209342519685039
 10
20.90462992125984
 20
3.216464566929134
 10
20.90617716535433
 20
3.223948818897638
 10
20.90710236220472
 20
3.231795275590551
 10
20.90741338582677
 20
3.24
 10
20.90710236220472
 20
3.248200787401575
 10
20.90617716535433
 20
3.256043307086614
 10
20.90462992125984
 20
3.263527559055118
 10
20.90246456692913
 20
3.270645669291338
 10
20.89967716535433
 20
3.277405511811024
 10
20.89627165354331
 20
3.283803149606299
 10
20.89224803149606
 20
3.289838582677165
 10
20.8876062992126
 20
3.295511811023622
 10
20.88226377952756
 20
3.300885826771653
 10
20.87655905511811
 20
3.305543307086614
 10
20.87049606299212
 20
3.309484251968504
 10
20.86407086614173
 20
3.312708661417323
 10
20.85728346456693
 20
3.315212598425197
 10
20.85013385826772
 20
3.317003937007874
 10
20.84262598425197
 20
3.31807874015748
 10
20.83475196850394
 20
3.318437007874016
 10
20.82667716535433
 20
3.317913385826772
 10
20.81875984251969
 20
3.316346456692914
 10
20.81099606299212
 20
3.313732283464567
 10
20.80338582677165
 20
3.310074803149606
 10
20.79592913385827
 20
3.305374015748031
 10
20.78862598425197
 20
3.299625984251969
 10
20.78147637795276
 20
3.292834645669291
 10
20.7744842519685
 20
3.284996062992126
 10
20.77127165354331
 20
3.290507874015748
 10
20.76783464566929
 20
3.295692913385827
 10
20.76417322834646
 20
3.300547244094488
 10
20.7602874015748
 20
3.305070866141732
 10
20.75617716535433
 20
3.309267716535433
 10
20.75183858267717
 20
3.31313779527559
 10
20.74727952755905
 20
3.316677165354331
 10
20.74249212598425
 20
3.319885826771654
 10
20.73757086614173
 20
3.322740157480315
 10
20.7326220472441
 20
3.325212598425197
 10
20.72763779527559
 20
3.327303149606299
 10
20.72262204724409
 20
3.329015748031496
 10
20.71757480314961
 20
3.330346456692913
 10
20.71249212598425
 20
3.331295275590551
 10
20.70738188976378
 20
3.331866141732283
 10
20.70223622047244
 20
3.332055118110236
 10
20.6930157480315
 20
3.331633858267717
 10
20.68424409448819
 20
3.330366141732283
 10
20.67591338582677
 20
3.328251968503937
 10
20.66802755905512
 20
3.325295275590551
 10
20.66058661417323
 20
3.321496062992126
 10
20.6535905511811
 20
3.316846456692913
 10
20.64703937007874
 20
3.311354330708661
 10
20.64092913385827
 20
3.30501968503937
 10
20.63555905511811
 20
3.298220472440945
 10
20.63090551181102
 20
3.291043307086614
 10
20.62696850393701
 20
3.283484251968504
 10
20.62374803149606
 20
3.275547244094488
 10
20.62124015748032
 20
3.267232283464567
 10
20.61945275590551
 20
3.258535433070866
 10
20.61837795275591
 20
3.249456692913386
 10
20.61801968503937
 20
3.24
  0
LWPOLYLINE
  5
75
330
1F
100
AcDbEntity
  8
Layer 1
 62
     7
370
     9
100
AcDbPolyline
 90
       81
 70
     1
 43
0.0
 10
20.87025590551181
 20
2.99332283464567
 10
20.86701968503937
 20
2.988555118110236
 10
20.86334251968504
 20
2.984106299212598
 10
20.85922834645669
 20
2.979984251968504
 10
20.85467716535433
 20
2.976185039370079
 10
20.84968503937008
 20
2.972708661417323
 10
20.84425196850394
 20
2.969551181102362
 10
20.83838188976378
 20
2.966720472440945
 10
20.83207480314961
 20
2.964212598425197
 10
20.82370472440945
 20
2.961405511811023
 10
20.81520866141732
 20
2.958972440944882
 10
20.80659448818898
 20
2.956917322834645
 10
20.79785433070866
 20
2.955236220472441
 10
20.78899606299213
 20
2.953929133858268
 10
20.7800157480315
 20
2.952996062992126
 10
20.7709094488189
 20
2.952433070866142
 10
20.76168503937008
 20
2.952248031496063
 10
20.74124803149606
 20
2.953476377952756
 10
20.73014960629921
 20
2.954909448818898
 10
20.71966535433071
 20
2.956779527559055
 10
20.70979527559055
 20
2.959086614173228
 10
20.70053543307086
 20
2.961834645669291
 10
20.69188976377953
 20
2.965023622047244
 10
20.68385826771653
 20
2.968649606299213
 10
20.67643700787401
 20
2.972712598425197
 10
20.66962992125984
 20
2.977216535433071
 10
20.6645
 20
2.981326771653543
 10
20.66005118110236
 20
2.985653543307087
 10
20.65629133858268
 20
2.990200787401575
 10
20.6532125984252
 20
2.994968503937008
 10
20.65081889763779
 20
2.999956692913386
 10
20.64911023622047
 20
3.005161417322835
 10
20.64808661417323
 20
3.010586614173228
 10
20.64774409448819
 20
3.016232283464567
 10
20.64808267716536
 20
3.022531496062992
 10
20.64909842519685
 20
3.028527559055118
 10
20.65079133858268
 20
3.034220472440945
 10
20.65316141732283
 20
3.039610236220473
 10
20.65620866141732
 20
3.044696850393701
 10
20.65993307086614
 20
3.04948031496063
 10
20.66433464566929
 20
3.053964566929134
 10
20.6694094488189
 20
3.058141732283465
 10
20.67442125984252
 20
3.061594488188976
 10
20.67973622047244
 20
3.064744094488189
 10
20.68536220472441
 20
3.06757874015748
 10
20.69129527559055
 20
3.070106299212598
 10
20.69742125984252
 20
3.072338582677165
 10
20.70362992125984
 20
3.074287401574803
 10
20.70991338582677
 20
3.075952755905512
 10
20.71627952755906
 20
3.077334645669291
 10
20.74104330708661
 20
3.08084251968504
 10
20.76863385826772
 20
3.081866141732283
 10
20.77688976377953
 20
3.081582677165355
 10
20.78608661417323
 20
3.080736220472441
 10
20.79622440944882
 20
3.079318897637795
 10
20.80731102362205
 20
3.077334645669291
 10
20.83227952755906
 20
3.070311023622047
 10
20.83831496062992
 20
3.067874015748032
 10
20.84404330708661
 20
3.06509842519685
 10
20.84946062992126
 20
3.061992125984252
 10
20.85457480314961
 20
3.058551181102362
 10
20.8592874015748
 20
3.054755905511811
 10
20.86350787401575
 20
3.050598425196851
 10
20.86723622047244
 20
3.04607874015748
 10
20.87047637795276
 20
3.041200787401575
 10
20.87187401574803
 20
3.038618110236221
 10
20.87308661417323
 20
3.035917322834646
 10
20.87411417322835
 20
3.033102362204724
 10
20.87495669291339
 20
3.030169291338582
 10
20.87561417322835
 20
3.02711811023622
 10
20.87608267716535
 20
3.023948818897638
 10
20.87636220472441
 20
3.020665354330708
 10
20.87645669291339
 20
3.017267716535433
 10
20.87635826771654
 20
3.013866141732283
 10
20.87607086614173
 20
3.010582677165354
 10
20.87558661417323
 20
3.007413385826772
 10
20.8749094488189
 20
3.004362204724409
 10
20.87403543307087
 20
3.001429133858268
 10
20.87296850393701
 20
2.998610236220472
 10
20.87170866141732
 20
2.995909448818898
 10
20.87025590551181
 20
2.99332283464567
  0
LWPOLYLINE
  5
76
330
1F
100
AcDbEntity
  8
Layer 1
 62
     7
370
     9
100
AcDbPolyline
 90
       65
 70
     1
 43
0.0
 10
20.61842913385827
 20
3.015822834645669
 10
20.61919291338583
 20
3.003767716535433
 10
20.62148818897638
 20
2.992484251968504
 10
20.62531102362205
 20
2.981964566929134
 10
20.63066141732283
 20
2.972212598425197
 10
20.63753937007874
 20
2.963232283464567
 10
20.64594881889764
 20
2.955015748031496
 10
20.65588188976378
 20
2.947570866141732
 10
20.66734645669291
 20
2.940893700787401
 10
20.67735433070866
 20
2.936200787401575
 10
20.68791732283465
 20
2.932129921259842
 10
20.69903149606299
 20
2.928688976377953
 10
20.71070078740157
 20
2.925874015748032
 10
20.72292519685039
 20
2.923685039370079
 10
20.73570078740158
 20
2.922122047244094
 10
20.74903937007874
 20
2.921181102362205
 10
20.76292913385827
 20
2.920870078740157
 10
20.77681496062992
 20
2.921181102362205
 10
20.79014566929134
 20
2.922122047244094
 10
20.80292519685039
 20
2.923685039370079
 10
20.81514960629921
 20
2.925874015748032
 10
20.8268188976378
 20
2.928688976377953
 10
20.83793307086614
 20
2.932129921259842
 10
20.84849212598425
 20
2.936200787401575
 10
20.85849606299213
 20
2.940893700787401
 10
20.86996456692913
 20
2.947570866141732
 10
20.87990157480315
 20
2.955015748031496
 10
20.88830708661417
 20
2.963232283464567
 10
20.89518503937008
 20
2.972212598425197
 10
20.90053543307087
 20
2.981964566929134
 10
20.90435826771654
 20
2.992484251968504
 10
20.90664960629921
 20
3.003767716535433
 10
20.90741338582677
 20
3.015822834645669
 10
20.90664960629921
 20
3.027874015748031
 10
20.90435826771654
 20
3.039157480314961
 10
20.90053543307087
 20
3.049673228346457
 10
20.89518503937008
 20
3.05942125984252
 10
20.88830708661417
 20
3.068405511811024
 10
20.87990157480315
 20
3.07661811023622
 10
20.86996456692913
 20
3.084066929133858
 10
20.85849606299213
 20
3.090748031496063
 10
20.84849212598425
 20
3.09544094488189
 10
20.83793307086614
 20
3.099511811023622
 10
20.8268188976378
 20
3.102952755905512
 10
20.81514960629921
 20
3.105767716535433
 10
20.80292519685039
 20
3.107956692913386
 10
20.79014566929134
 20
3.10951968503937
 10
20.77681496062992
 20
3.11046062992126
 10
20.76292913385827
 20
3.110771653543307
 10
20.74903937007874
 20
3.11046062992126
 10
20.73570078740158
 20
3.10951968503937
 10
20.72292519685039
 20
3.107956692913386
 10
20.71070078740157
 20
3.105767716535433
 10
20.69903149606299
 20
3.102952755905512
 10
20.68791732283465
 20
3.099511811023622
 10
20.67735433070866
 20
3.09544094488189
 10
20.66734645669291
 20
3.090748031496063
 10
20.65588188976378
 20
3.084066929133858
 10
20.64594881889764
 20
3.07661811023622
 10
20.63753937007874
 20
3.068405511811024
 10
20.63066141732283
 20
3.05942125984252
 10
20.62531102362205
 20
3.049673228346457
 10
20.62148818897638
 20
3.039157480314961
 10
20.61919291338583
 20
3.027874015748031
 10
20.61842913385827
 20
3.015822834645669
  0
LWPOLYLINE
  5
77
330
1F
100
AcDbEntity
  8
Layer 1
 62
     7
370
     9
100
AcDbPolyline
 90
        4
 70
     1
 43
0.0
 10
19.12074409448819
 20
-0.5509291338582677
 10
19.12074409448819
 20
-0.7131692913385826
 10
19.01340157480315
 20
-0.7131692913385826
 10
19.12074409448819
 20
-0.5509291338582677
  0
LWPOLYLINE
  5
78
330
1F
100
AcDbEntity
  8
Layer 1
 62
     7
370
     9
100
AcDbPolyline
 90
       11
 70
     1
 43
0.0
 10
19.15087795275591
 20
-0.7428937007874016
 10
19.18638188976378
 20
-0.7428937007874016
 10
19.18638188976378
 20
-0.7131692913385826
 10
19.15087795275591
 20
-0.7131692913385826
 10
19.15046850393701
 20
-0.5195511811023622
 10
19.11000787401575
 20
-0.5195511811023622
 10
18.96220472440945
 20
-0.7428937007874016
 10
19.12074409448819
 20
-0.7428937007874016
 10
19.12074409448819
 20
-0.8002795275590551
 10
19.15087795275591
 20
-0.8002795275590551
 10
19.15087795275591
 20
-0.7428937007874016
  0
LWPOLYLINE
  5
79
330
1F
100
AcDbEntity
  8
Layer 1
 62
     7
370
     9
100
AcDbPolyline
 90
       81
 70
     1
 43
0.0
 10
19.34387007874016
 20
-0.5521692913385827
 10
19.34863779527559
 20
-0.5554055118110236
 10
19.35308661417323
 20
-0.5590826771653543
 10
19.35720866141732
 20
-0.5631968503937008
 10
19.36100787401575
 20
-0.567751968503937
 10
19.36448425196851
 20
-0.572744094488189
 10
19.36764173228346
 20
-0.5781732283464567
 10
19.37047244094488
 20
-0.5840433070866142
 10
19.37298031496063
 20
-0.5903503937007875
 10
19.3757874015748
 20
-0.5987204724409448
 10
19.37822047244094
 20
-0.6072165354330709
 10
19.38027559055118
 20
-0.6158307086614173
 10
19.38195669291338
 20
-0.6245708661417323
 10
19.38326377952756
 20
-0.6334291338582677
 10
19.3841968503937
 20
-0.6424094488188976
 10
19.38475984251968
 20
-0.651515748031496
 10
19.38494488188976
 20
-0.660740157480315
 10
19.38371653543307
 20
-0.6811771653543307
 10
19.38228346456693
 20
-0.6922755905511812
 10
19.38041338582677
 20
-0.702759842519685
 10
19.3781062992126
 20
-0.7126338582677165
 10
19.37535826771654
 20
-0.7218937007874016
 10
19.37216929133858
 20
-0.7305393700787401
 10
19.36854330708661
 20
-0.7385708661417323
 10
19.36448031496063
 20
-0.745992125984252
 10
19.35997637795275
 20
-0.7527992125984252
 10
19.35586614173228
 20
-0.7579291338582678
 10
19.35153937007874
 20
-0.7623779527559055
 10
19.34699212598425
 20
-0.7661377952755906
 10
19.34222440944882
 20
-0.7692165354330709
 10
19.33723622047244
 20
-0.7716062992125984
 10
19.33203149606299
 20
-0.7733149606299212
 10
19.3266062992126
 20
-0.7743385826771654
 10
19.32096062992126
 20
-0.7746811023622048
 10
19.31466141732284
 20
-0.7743425196850394
 10
19.30866535433071
 20
-0.7733267716535434
 10
19.30297244094488
 20
-0.7716338582677166
 10
19.29758267716536
 20
-0.7692637795275591
 10
19.29249606299213
 20
-0.7662165354330709
 10
19.2877125984252
 20
-0.762492125984252
 10
19.28322834645669
 20
-0.7580944881889764
 10
19.27905118110236
 20
-0.7530157480314961
 10
19.27559842519685
 20
-0.748003937007874
 10
19.27244881889764
 20
-0.7426889763779527
 10
19.26961417322835
 20
-0.7370669291338583
 10
19.26708661417323
 20
-0.7311338582677165
 10
19.26485433070866
 20
-0.7250078740157481
 10
19.26290551181102
 20
-0.7188031496062992
 10
19.26124015748032
 20
-0.7125157480314961
 10
19.25985826771653
 20
-0.7061496062992126
 10
19.25635039370079
 20
-0.6813818897637796
 10
19.25532677165354
 20
-0.6537952755905512
 10
19.25561023622047
 20
-0.6455393700787402
 10
19.25645669291339
 20
-0.6363425196850394
 10
19.25787401574803
 20
-0.6262047244094489
 10
19.25985826771653
 20
-0.6151181102362204
 10
19.26688188976378
 20
-0.5901456692913386
 10
19.2693188976378
 20
-0.5841141732283465
 10
19.27209448818898
 20
-0.5783858267716535
 10
19.27520078740157
 20
-0.5729645669291339
 10
19.27864173228346
 20
-0.5678543307086614
 10
19.28243700787402
 20
-0.5631417322834645
 10
19.28659448818898
 20
-0.5589212598425197
 10
19.29111417322835
 20
-0.5551929133858268
 10
19.29599212598425
 20
-0.5519527559055118
 10
19.29857480314961
 20
-0.5505511811023622
 10
19.30127559055118
 20
-0.5493385826771654
 10
19.3040905511811
 20
-0.5483110236220472
 10
19.30702755905512
 20
-0.5474685039370079
 10
19.31007480314961
 20
-0.5468110236220473
 10
19.31324409448819
 20
-0.5463425196850393
 10
19.31652755905512
 20
-0.5460629921259843
 10
19.3199251968504
 20
-0.5459685039370079
 10
19.32332677165354
 20
-0.5460669291338582
 10
19.32661023622047
 20
-0.5463543307086615
 10
19.32977952755905
 20
-0.5468385826771653
 10
19.33283070866142
 20
-0.547515748031496
 10
19.33576377952756
 20
-0.5483897637795275
 10
19.33858267716536
 20
-0.5494566929133858
 10
19.34128346456693
 20
-0.5507165354330709
 10
19.34387007874016
 20
-0.5521692913385827
  0
LWPOLYLINE
  5
7A
330
1F
100
AcDbEntity
  8
Layer 1
 62
     7
370
     9
100
AcDbPolyline
 90
       65
 70
     1
 43
0.0
 10
19.32137007874016
 20
-0.803996062992126
 10
19.33342519685039
 20
-0.8032322834645669
 10
19.34470866141732
 20
-0.8009370078740158
 10
19.35522834645669
 20
-0.7971141732283464
 10
19.36498031496063
 20
-0.791763779527559
 10
19.37396062992126
 20
-0.7848858267716535
 10
19.38217716535433
 20
-0.7764763779527559
 10
19.3896220472441
 20
-0.7665433070866142
 10
19.39629921259843
 20
-0.7550787401574803
 10
19.40099212598425
 20
-0.7450708661417322
 10
19.40506299212598
 20
-0.7345118110236221
 10
19.40850393700788
 20
-0.7233976377952755
 10
19.41131889763779
 20
-0.7117283464566929
 10
19.41350787401575
 20
-0.699503937007874
 10
19.41507086614173
 20
-0.6867244094488189
 10
19.41601181102362
 20
-0.6733897637795275
 10
19.41632283464567
 20
-0.6595
 10
19.41601181102362
 20
-0.6456141732283465
 10
19.41507086614173
 20
-0.6322795275590551
 10
19.41350787401575
 20
-0.619503937007874
 10
19.41131889763779
 20
-0.6072795275590551
 10
19.40850393700788
 20
-0.5956102362204725
 10
19.40506299212598
 20
-0.584496062992126
 10
19.40099212598425
 20
-0.5739370078740158
 10
19.39629921259843
 20
-0.5639330708661418
 10
19.3896220472441
 20
-0.5524645669291338
 10
19.38217716535433
 20
-0.5425275590551181
 10
19.37396062992126
 20
-0.5341181102362205
 10
19.36498031496063
 20
-0.5272401574803149
 10
19.35522834645669
 20
-0.5218937007874016
 10
19.34470866141732
 20
-0.5180708661417323
 10
19.33342519685039
 20
-0.5157795275590551
 10
19.32137007874016
 20
-0.5150157480314961
 10
19.30931889763779
 20
-0.5157795275590551
 10
19.29803543307086
 20
-0.5180708661417323
 10
19.28751968503937
 20
-0.5218937007874016
 10
19.27777165354331
 20
-0.5272401574803149
 10
19.2687874015748
 20
-0.5341181102362205
 10
19.26057480314961
 20
-0.5425275590551181
 10
19.25312598425197
 20
-0.5524645669291338
 10
19.24644488188977
 20
-0.5639330708661418
 10
19.24175196850394
 20
-0.5739370078740158
 10
19.23768110236221
 20
-0.584496062992126
 10
19.23424015748031
 20
-0.5956102362204725
 10
19.2314251968504
 20
-0.6072795275590551
 10
19.22923622047244
 20
-0.619503937007874
 10
19.22767322834646
 20
-0.6322795275590551
 10
19.22673228346457
 20
-0.6456141732283465
 10
19.22642125984252
 20
-0.6595
 10
19.22673228346457
 20
-0.6733897637795275
 10
19.22767322834646
 20
-0.6867244094488189
 10
19.22923622047244
 20
-0.699503937007874
 10
19.2314251968504
 20
-0.7117283464566929
 10
19.23424015748031
 20
-0.7233976377952755
 10
19.23768110236221
 20
-0.7345118110236221
 10
19.24175196850394
 20
-0.7450708661417322
 10
19.24644488188977
 20
-0.7550787401574803
 10
19.25312598425197
 20
-0.7665433070866142
 10
19.26057480314961
 20
-0.7764763779527559
 10
19.2687874015748
 20
-0.7848858267716535
 10
19.27777165354331
 20
-0.791763779527559
 10
19.28751968503937
 20
-0.7971141732283464
 10
19.29803543307086
 20
-0.8009370078740158
 10
19.30931889763779
 20
-0.8032322834645669
 10
19.32137007874016
 20
-0.803996062992126
  0
LWPOLYLINE
  5
7B
330
1F
100
AcDbEntity
  8
Layer 1
 62
     7
100
AcDbPolyline
 90
      147
 70
     1
 43
0.0
 10
17.30976771653543
 20
7.245267716535433
 10
17.26023228346457
 20
7.245267716535433
 10
17.25431496062992
 20
7.234913385826772
 10
17.24782677165354
 20
7.225082677165354
 10
17.24076377952756
 20
7.215771653543307
 10
17.23312992125984
 20
7.206988188976378
 10
17.22492125984252
 20
7.198724409448819
 10
17.21614173228346
 20
7.190984251968504
 10
17.2067874015748
 20
7.183763779527559
 10
17.19686220472441
 20
7.177070866141732
 10
17.18652362204724
 20
7.17103937007874
 10
17.17593307086614
 20
7.165811023622047
 10
17.1650905511811
 20
7.161389763779527
 10
17.154
 20
7.157771653543307
 10
17.14265354330709
 20
7.154956692913386
 10
17.13105905511811
 20
7.152944881889764
 10
17.1192125984252
 20
7.151740157480315
 10
17.10711417322835
 20
7.151338582677165
 10
17.08946062992126
 20
7.152173228346457
 10
17.07245275590551
 20
7.154677165354331
 10
17.0560905511811
 20
7.158846456692913
 10
17.04037007874016
 20
7.164685039370079
 10
17.02529133858268
 20
7.172196850393701
 10
17.01085826771654
 20
7.181374015748031
 10
16.99706692913386
 20
7.192220472440945
 10
16.98391732283465
 20
7.204736220472441
 10
16.97223228346457
 20
7.218051181102362
 10
16.9621062992126
 20
7.23201968503937
 10
16.95353543307086
 20
7.246637795275591
 10
16.94652362204724
 20
7.261913385826771
 10
16.94107086614173
 20
7.27784251968504
 10
16.93717716535433
 20
7.29442125984252
 10
16.93483858267717
 20
7.311657480314961
 10
16.93405905511811
 20
7.329543307086614
 10
16.93483858267717
 20
7.347582677165354
 10
16.93717716535433
 20
7.364948818897638
 10
16.94107086614173
 20
7.381641732283464
 10
16.94652362204724
 20
7.397657480314961
 10
16.95353543307086
 20
7.413003937007874
 10
16.9621062992126
 20
7.427673228346457
 10
16.97223228346457
 20
7.441669291338583
 10
16.98391732283465
 20
7.454992125984252
 10
16.98991338582677
 20
7.460948818897638
 10
16.99616141732283
 20
7.466594488188976
 10
17.00266141732283
 20
7.471925196850393
 10
17.0094094488189
 20
7.476948818897638
 10
17.01641338582677
 20
7.48165748031496
 10
17.02366535433071
 20
7.486055118110237
 10
17.03116929133858
 20
7.490141732283464
 10
17.03892519685039
 20
7.493917322834646
 10
17.04678346456693
 20
7.497311023622047
 10
17.0546062992126
 20
7.500251968503937
 10
17.06238582677165
 20
7.502740157480315
 10
17.07012598425197
 20
7.504775590551181
 10
17.07782677165354
 20
7.506358267716536
 10
17.0854842519685
 20
7.507488188976378
 10
17.0931062992126
 20
7.508169291338582
 10
17.10068503937008
 20
7.508393700787401
 10
17.10812992125984
 20
7.508287401574803
 10
17.11533858267716
 20
7.507972440944882
 10
17.12232283464567
 20
7.507444881889763
 10
17.12907086614173
 20
7.506704724409449
 10
17.1355905511811
 20
7.505755905511811
 10
17.14187795275591
 20
7.504594488188976
 10
17.14793307086614
 20
7.503220472440945
 10
17.15375984251968
 20
7.501637795275591
 10
17.1707874015748
 20
7.495755905511811
 10
17.18672834645669
 20
7.488488188976378
 10
17.20158661417323
 20
7.479834645669292
 10
17.21535826771654
 20
7.469791338582677
 10
17.22804330708662
 20
7.458362204724409
 10
17.23964566929134
 20
7.445547244094488
 10
17.25015748031496
 20
7.43134251968504
 10
17.25958661417323
 20
7.415751968503937
 10
17.30912598425197
 20
7.415751968503937
 10
17.30246062992126
 20
7.430976377952756
 10
17.29485039370079
 20
7.445444881889764
 10
17.28629527559055
 20
7.459161417322835
 10
17.27679921259843
 20
7.472125984251969
 10
17.26635433070866
 20
7.484334645669291
 10
17.25496456692913
 20
7.495787401574803
 10
17.24262992125984
 20
7.506488188976378
 10
17.22935039370079
 20
7.516433070866142
 10
17.21540551181102
 20
7.525405511811024
 10
17.20108267716535
 20
7.533181102362205
 10
17.1863779527559
 20
7.539759842519685
 10
17.1712874015748
 20
7.545141732283464
 10
17.1558188976378
 20
7.549330708661417
 10
17.13996456692913
 20
7.552318897637795
 10
17.12373228346457
 20
7.554114173228347
 10
17.10711417322835
 20
7.554712598425197
 10
17.08481496062992
 20
7.553665354330708
 10
17.06335039370079
 20
7.550531496062992
 10
17.04272047244094
 20
7.545303149606299
 10
17.02292125984252
 20
7.537984251968504
 10
17.00395669291338
 20
7.528574803149606
 10
16.98583070866142
 20
7.517074803149606
 10
16.96853543307087
 20
7.503484251968504
 10
16.95207480314961
 20
7.487803149606299
 10
16.94487795275591
 20
7.479929133858268
 10
16.93807874015748
 20
7.471740157480315
 10
16.93168503937008
 20
7.463240157480315
 10
16.9256968503937
 20
7.454429133858268
 10
16.9201062992126
 20
7.445307086614173
 10
16.91491732283465
 20
7.435874015748031
 10
16.91013385826772
 20
7.426129921259842
 10
16.90575196850394
 20
7.416070866141732
 10
16.90183070866142
 20
7.405783464566929
 10
16.89843307086614
 20
7.395346456692914
 10
16.89555905511811
 20
7.384755905511811
 10
16.89320866141732
 20
7.374015748031496
 10
16.89137795275591
 20
7.363122047244095
 10
16.89007086614173
 20
7.352082677165354
 10
16.88928346456693
 20
7.340885826771654
 10
16.88902362204724
 20
7.329543307086614
 10
16.89000787401575
 20
7.306992125984252
 10
16.89296456692913
 20
7.285251968503937
 10
16.89788976377953
 20
7.264330708661418
 10
16.9047874015748
 20
7.244220472440944
 10
16.91365354330709
 20
7.224925196850394
 10
16.92449212598425
 20
7.206444881889764
 10
16.93729921259843
 20
7.188779527559055
 10
16.95207480314961
 20
7.171925196850394
 10
16.96853543307087
 20
7.156244094488189
 10
16.98583070866142
 20
7.142653543307087
 10
17.00395669291338
 20
7.131153543307087
 10
17.02292125984252
 20
7.121744094488189
 10
17.04272047244094
 20
7.114425196850394
 10
17.06335039370079
 20
7.109196850393701
 10
17.08481496062992
 20
7.106062992125985
 10
17.10711417322835
 20
7.105015748031496
 10
17.12366929133858
 20
7.105622047244094
 10
17.13988582677165
 20
7.107448818897637
 10
17.15575590551181
 20
7.110488188976378
 10
17.1712874015748
 20
7.114748031496063
 10
17.18647637795275
 20
7.120220472440945
 10
17.20132283464567
 20
7.126913385826771
 10
17.21582677165354
 20
7.134818897637795
 10
17.22999212598425
 20
7.14394094488189
 10
17.24337795275591
 20
7.153968503937008
 10
17.2557874015748
 20
7.164748031496063
 10
17.26722440944882
 20
7.17628346456693
 10
17.27768110236221
 20
7.188574803149606
 10
17.28716535433071
 20
7.201618110236221
 10
17.29567716535433
 20
7.215413385826771
 10
17.30320866141732
 20
7.229964566929134
 10
17.30976771653543
 20
7.245267716535433
  0
LWPOLYLINE
  5
7C
330
1F
100
AcDbEntity
  8
Layer 1
 62
     7
100
AcDbPolyline
 90
      166
 70
     1
 43
0.0
 10
17.80900393700787
 20
7.316035433070867
 10
17.58125984251969
 20
7.316035433070867
 10
17.58125984251969
 20
7.276791338582677
 10
17.75881889763779
 20
7.276791338582677
 10
17.75350787401575
 20
7.262913385826772
 10
17.74729527559055
 20
7.249748031496063
 10
17.74018897637795
 20
7.237295275590551
 10
17.73217716535433
 20
7.225551181102362
 10
17.72325984251968
 20
7.214515748031496
 10
17.71343307086614
 20
7.204188976377953
 10
17.7026968503937
 20
7.194566929133858
 10
17.69105118110236
 20
7.185649606299212
 10
17.67877952755905
 20
7.177618110236221
 10
17.66616141732283
 20
7.170653543307087
 10
17.65320078740157
 20
7.164759842519685
 10
17.63989763779528
 20
7.159933070866142
 10
17.62624409448819
 20
7.156173228346456
 10
17.61224015748031
 20
7.153488188976378
 10
17.59788976377953
 20
7.151877952755905
 10
17.58318897637795
 20
7.151338582677165
 10
17.56479921259843
 20
7.152173228346457
 10
17.54710236220473
 20
7.154673228346457
 10
17.53010236220473
 20
7.158842519685039
 10
17.51379921259842
 20
7.164673228346457
 10
17.4981968503937
 20
7.172169291338583
 10
17.48329527559055
 20
7.181326771653543
 10
17.46909448818898
 20
7.192149606299212
 10
17.45559448818898
 20
7.204629921259842
 10
17.44327165354331
 20
7.218267716535433
 10
17.43259448818898
 20
7.232555118110236
 10
17.42356299212598
 20
7.247503937007874
 10
17.41617716535433
 20
7.263106299212598
 10
17.41043307086614
 20
7.279366141732283
 10
17.40633464566929
 20
7.296287401574803
 10
17.40387401574803
 20
7.313870078740157
 10
17.40305511811023
 20
7.332114173228346
 10
17.40387795275591
 20
7.350429133858268
 10
17.40635039370079
 20
7.368062992125984
 10
17.41047244094488
 20
7.385011811023622
 10
17.41624409448819
 20
7.401275590551181
 10
17.42366141732283
 20
7.416858267716536
 10
17.43272834645669
 20
7.431755905511811
 10
17.44344488188976
 20
7.445968503937008
 10
17.45580708661417
 20
7.4595
 10
17.46933858267716
 20
7.47186220472441
 10
17.48355118110236
 20
7.48257874015748
 10
17.49844881889764
 20
7.491645669291339
 10
17.51403149606299
 20
7.499062992125984
 10
17.53029527559055
 20
7.504834645669291
 10
17.54724409448819
 20
7.508952755905511
 10
17.56487401574803
 20
7.511429133858268
 10
17.58318897637795
 20
7.512251968503937
 10
17.59709448818898
 20
7.511759842519685
 10
17.61066929133858
 20
7.510279527559055
 10
17.62391338582677
 20
7.507814960629921
 10
17.63682677165354
 20
7.504358267716535
 10
17.64940551181103
 20
7.499913385826772
 10
17.66165354330709
 20
7.494476377952756
 10
17.67357086614173
 20
7.488047244094489
 10
17.68515748031496
 20
7.480622047244094
 10
17.69622440944882
 20
7.472366141732284
 10
17.70650787401575
 20
7.463433070866142
 10
17.71600787401575
 20
7.453834645669291
 10
17.72472440944882
 20
7.443562992125984
 10
17.73265354330709
 20
7.432622047244094
 10
17.7398031496063
 20
7.421015748031496
 10
17.74616535433071
 20
7.408744094488189
 10
17.75174409448819
 20
7.395807086614173
 10
17.79935039370079
 20
7.395807086614173
 10
17.79324803149606
 20
7.413468503937008
 10
17.78596062992126
 20
7.430263779527559
 10
17.77748818897638
 20
7.446192913385826
 10
17.76782677165354
 20
7.461251968503937
 10
17.75698031496063
 20
7.475444881889763
 10
17.74494881889764
 20
7.488763779527559
 10
17.73172834645669
 20
7.501212598425197
 10
17.71732283464567
 20
7.512787401574803
 10
17.702
 20
7.523228346456693
 10
17.68610236220472
 20
7.532271653543307
 10
17.66962992125984
 20
7.53992125984252
 10
17.65258661417323
 20
7.54617716535433
 10
17.63497244094488
 20
7.55103937007874
 10
17.61678346456693
 20
7.554511811023622
 10
17.59802362204724
 20
7.556594488188976
 10
17.57868897637795
 20
7.557287401574803
 10
17.56824409448819
 20
7.557011811023622
 10
17.55781889763779
 20
7.556181102362205
 10
17.54741338582677
 20
7.554799212598425
 10
17.53703149606299
 20
7.552862204724409
 10
17.52666535433071
 20
7.550374015748032
 10
17.51632283464567
 20
7.547334645669292
 10
17.506
 20
7.543740157480315
 10
17.4956968503937
 20
7.539590551181102
 10
17.48557086614173
 20
7.534968503937008
 10
17.47577165354331
 20
7.52994094488189
 10
17.46630708661417
 20
7.524515748031496
 10
17.45717716535433
 20
7.518685039370078
 10
17.44837401574803
 20
7.512452755905512
 10
17.43990551181102
 20
7.505818897637795
 10
17.43176771653543
 20
7.498783464566929
 10
17.42396456692913
 20
7.491342519685039
 10
17.41652362204724
 20
7.48353937007874
 10
17.40948818897638
 20
7.47540157480315
 10
17.40285039370079
 20
7.466933070866141
 10
17.39662204724409
 20
7.458129921259842
 10
17.39079133858268
 20
7.449
 10
17.38536220472441
 20
7.439535433070867
 10
17.38033858267717
 20
7.429736220472441
 10
17.3757125984252
 20
7.419610236220472
 10
17.37156692913386
 20
7.409232283464567
 10
17.36797244094488
 20
7.398681102362205
 10
17.36493307086614
 20
7.38796062992126
 10
17.36244488188976
 20
7.377070866141732
 10
17.36050787401575
 20
7.366007874015748
 10
17.35912598425197
 20
7.354775590551181
 10
17.35829527559055
 20
7.343370078740158
 10
17.35801968503937
 20
7.331795275590551
 10
17.35829527559055
 20
7.320220472440945
 10
17.35912598425197
 20
7.308814960629921
 10
17.36050787401575
 20
7.297582677165354
 10
17.36244488188976
 20
7.28651968503937
 10
17.36493307086614
 20
7.275629921259842
 10
17.36797244094488
 20
7.264909448818898
 10
17.37156692913386
 20
7.254358267716535
 10
17.3757125984252
 20
7.24398031496063
 10
17.38033858267717
 20
7.233854330708661
 10
17.38536220472441
 20
7.224055118110236
 10
17.39079133858268
 20
7.214590551181102
 10
17.39662204724409
 20
7.20546062992126
 10
17.40285039370079
 20
7.19665748031496
 10
17.40948818897638
 20
7.188188976377953
 10
17.41652362204724
 20
7.180051181102362
 10
17.42396456692913
 20
7.172248031496063
 10
17.43176771653543
 20
7.164811023622047
 10
17.43990551181102
 20
7.157775590551181
 10
17.44837401574803
 20
7.151137795275591
 10
17.45717716535433
 20
7.144905511811023
 10
17.46630708661417
 20
7.139074803149606
 10
17.47577165354331
 20
7.133645669291338
 10
17.48557086614173
 20
7.128622047244095
 10
17.4956968503937
 20
7.123996062992126
 10
17.50607086614173
 20
7.119850393700787
 10
17.5166062992126
 20
7.116255905511811
 10
17.52729921259843
 20
7.113216535433071
 10
17.53815748031496
 20
7.110728346456693
 10
17.54917322834646
 20
7.108795275590551
 10
17.56035039370079
 20
7.107413385826772
 10
17.57168897637795
 20
7.106582677165354
 10
17.58318897637795
 20
7.106307086614173
 10
17.60284251968504
 20
7.107110236220472
 10
17.62199212598425
 20
7.109523622047244
 10
17.64064960629921
 20
7.113543307086614
 10
17.65880708661417
 20
7.119173228346456
 10
17.67647637795276
 20
7.126409448818897
 10
17.69365354330709
 20
7.135255905511811
 10
17.71034251968504
 20
7.145708661417323
 10
17.72654724409449
 20
7.157771653543307
 10
17.74172834645669
 20
7.171082677165354
 10
17.75535826771653
 20
7.185275590551181
 10
17.76742913385827
 20
7.200354330708661
 10
17.77794488188976
 20
7.216318897637795
 10
17.7869094488189
 20
7.233165354330708
 10
17.79432283464567
 20
7.250897637795275
 10
17.80018503937008
 20
7.269515748031496
 10
17.80449606299213
 20
7.289015748031496
 10
17.80900393700787
 20
7.316035433070867
  0
LWPOLYLINE
  5
7D
330
1F
100
AcDbEntity
  8
Layer 1
 62
     7
100
AcDbPolyline
 90
       92
 70
     1
 43
0.0
 10
18.05314960629921
 20
7.498098425196851
 10
18.06057874015748
 20
7.493051181102362
 10
18.06750393700787
 20
7.48732283464567
 10
18.07392519685039
 20
7.480909448818898
 10
18.07984645669291
 20
7.473814960629921
 10
18.08526377952756
 20
7.466031496062993
 10
18.09017716535433
 20
7.457566929133859
 10
18.0945905511811
 20
7.44842125984252
 10
18.0985
 20
7.438590551181102
 10
18.10287401574803
 20
7.425547244094489
 10
18.10666535433071
 20
7.412314960629922
 10
18.10987007874016
 20
7.398889763779527
 10
18.11249606299213
 20
7.385271653543307
 10
18.11453543307087
 20
7.371464566929133
 10
18.11599606299212
 20
7.357468503937008
 10
18.11687007874016
 20
7.343279527559055
 10
18.11716141732283
 20
7.328901574803149
 10
18.11522834645669
 20
7.297055118110237
 10
18.11299606299212
 20
7.279759842519685
 10
18.11008267716536
 20
7.26342125984252
 10
18.1064842519685
 20
7.248035433070866
 10
18.10220078740157
 20
7.233606299212599
 10
18.09723622047244
 20
7.220129921259843
 10
18.09158661417323
 20
7.207610236220472
 10
18.08525590551181
 20
7.196047244094488
 10
18.07824015748032
 20
7.185437007874016
 10
18.07183464566929
 20
7.177444881889763
 10
18.0650905511811
 20
7.17051968503937
 10
18.05800393700788
 20
7.16465748031496
 10
18.0505748031496
 20
7.159862204724409
 10
18.0428031496063
 20
7.156133858267717
 10
18.03469291338583
 20
7.153468503937008
 10
18.02624015748032
 20
7.151870078740157
 10
18.01744488188976
 20
7.151338582677165
 10
18.00762992125984
 20
7.151866141732284
 10
17.99828346456693
 20
7.153448818897638
 10
17.98941338582677
 20
7.156086614173228
 10
17.9810157480315
 20
7.159783464566929
 10
17.97308661417323
 20
7.164531496062992
 10
17.96563385826772
 20
7.170334645669291
 10
17.95864960629921
 20
7.177196850393701
 10
17.95214173228347
 20
7.185114173228347
 10
17.94675590551181
 20
7.192917322834646
 10
17.94185039370079
 20
7.201200787401575
 10
17.93742519685039
 20
7.209964566929134
 10
17.93348818897638
 20
7.219212598425197
 10
17.93000787401575
 20
7.228763779527559
 10
17.92697244094488
 20
7.238433070866142
 10
17.9243779527559
 20
7.248220472440945
 10
17.92222834645669
 20
7.258133858267716
 10
17.91675590551181
 20
7.296732283464567
 10
17.91514960629921
 20
7.339728346456693
 10
17.91525984251968
 20
7.34598031496063
 10
17.9155905511811
 20
7.352598425196851
 10
17.91614566929134
 20
7.35957874015748
 10
17.91691732283465
 20
7.366925196850394
 10
17.91791338582677
 20
7.37463779527559
 10
17.91912992125984
 20
7.382716535433071
 10
17.92056692913386
 20
7.391169291338582
 10
17.92222834645669
 20
7.399992125984252
 10
17.92435826771653
 20
7.409779527559055
 10
17.92688976377953
 20
7.419531496062993
 10
17.92982677165354
 20
7.429240157480315
 10
17.93316535433071
 20
7.438909448818897
 10
17.93696456692913
 20
7.448318897637796
 10
17.9412874015748
 20
7.457248031496063
 10
17.94612992125984
 20
7.465692913385827
 10
17.9515
 20
7.473653543307087
 10
17.95438582677165
 20
7.477417322834646
 10
17.95741338582677
 20
7.480992125984252
 10
17.96057874015748
 20
7.484374015748031
 10
17.96388582677166
 20
7.487562992125985
 10
17.96733464566929
 20
7.490562992125985
 10
17.97092125984252
 20
7.493374015748032
 10
17.97465354330709
 20
7.495992125984252
 10
17.97852362204724
 20
7.49842125984252
 10
17.98255511811024
 20
7.500606299212598
 10
17.98676377952756
 20
7.5025
 10
17.99115748031496
 20
7.504106299212599
 10
17.99572834645669
 20
7.505417322834646
 10
18.0004842519685
 20
7.506437007874016
 10
18.00542125984252
 20
7.507169291338583
 10
18.01053543307087
 20
7.507606299212599
 10
18.01583464566929
 20
7.507751968503937
 10
18.02112992125984
 20
7.507602362204724
 10
18.02624803149606
 20
7.507149606299213
 10
18.03118503937008
 20
7.506393700787402
 10
18.03594094488189
 20
7.505338582677165
 10
18.04051181102362
 20
7.50398031496063
 10
18.04490551181102
 20
7.502318897637795
 10
18.04911811023622
 20
7.500358267716535
 10
18.05314960629921
 20
7.498098425196851
  0
LWPOLYLINE
  5
7E
330
1F
100
AcDbEntity
  8
Layer 1
 62
     7
100
AcDbPolyline
 90
       65
 70
     1
 43
0.0
 10
18.01808661417323
 20
7.105665354330709
 10
18.03686614173228
 20
7.106858267716535
 10
18.05445275590551
 20
7.110429133858267
 10
18.07084251968504
 20
7.116385826771653
 10
18.08603543307087
 20
7.124724409448818
 10
18.10003543307086
 20
7.135444881889764
 10
18.11283464566929
 20
7.148547244094488
 10
18.12444094488189
 20
7.164031496062992
 10
18.13485039370079
 20
7.181897637795275
 10
18.14216535433071
 20
7.197488188976378
 10
18.1485
 20
7.213944881889764
 10
18.15386614173228
 20
7.231263779527559
 10
18.15825196850394
 20
7.249448818897638
 10
18.16166535433071
 20
7.268496062992126
 10
18.16410236220472
 20
7.288409448818897
 10
18.16556299212598
 20
7.309188976377953
 10
18.16605118110236
 20
7.330830708661417
 10
18.16556299212598
 20
7.352472440944882
 10
18.16410236220472
 20
7.373251968503937
 10
18.16166535433071
 20
7.393165354330709
 10
18.15825196850394
 20
7.412212598425197
 10
18.15386614173228
 20
7.430397637795275
 10
18.1485
 20
7.447716535433071
 10
18.14216535433071
 20
7.464169291338583
 10
18.13485039370079
 20
7.479759842519685
 10
18.12444094488189
 20
7.497629921259843
 10
18.11283464566929
 20
7.513118110236221
 10
18.10003543307086
 20
7.526220472440944
 10
18.08603543307087
 20
7.53694094488189
 10
18.07084251968504
 20
7.545279527559055
 10
18.05445275590551
 20
7.551236220472441
 10
18.03686614173228
 20
7.554807086614173
 10
18.01808661417323
 20
7.556
 10
17.9993031496063
 20
7.554807086614173
 10
17.98171653543307
 20
7.551236220472441
 10
17.96532677165354
 20
7.545279527559055
 10
17.95012992125984
 20
7.53694094488189
 10
17.93613385826772
 20
7.526220472440944
 10
17.92333070866142
 20
7.513118110236221
 10
17.91172834645669
 20
7.497629921259843
 10
17.9013188976378
 20
7.479759842519685
 10
17.89400393700787
 20
7.464169291338583
 10
17.88766929133858
 20
7.447716535433071
 10
17.8823031496063
 20
7.430397637795275
 10
17.87791732283464
 20
7.412212598425197
 10
17.87450393700787
 20
7.393165354330709
 10
17.87206692913386
 20
7.373251968503937
 10
17.8706062992126
 20
7.352472440944882
 10
17.87011811023622
 20
7.330830708661417
 10
17.8706062992126
 20
7.309188976377953
 10
17.87206692913386
 20
7.288409448818897
 10
17.87450393700787
 20
7.268496062992126
 10
17.87791732283464
 20
7.249448818897638
 10
17.8823031496063
 20
7.231263779527559
 10
17.88766929133858
 20
7.213944881889764
 10
17.89400393700787
 20
7.197488188976378
 10
17.9013188976378
 20
7.181897637795275
 10
17.91172834645669
 20
7.164031496062992
 10
17.92333070866142
 20
7.148547244094488
 10
17.93613385826772
 20
7.135444881889764
 10
17.95012992125984
 20
7.124724409448818
 10
17.96532677165354
 20
7.116385826771653
 10
17.98171653543307
 20
7.110429133858267
 10
17.9993031496063
 20
7.106858267716535
 10
18.01808661417323
 20
7.105665354330709
  0
LWPOLYLINE
  5
7F
330
1F
100
AcDbEntity
  8
Layer 1
 62
     7
100
AcDbPolyline
 90
       92
 70
     1
 43
0.0
 10
18.41342125984252
 20
7.498098425196851
 10
18.42085039370079
 20
7.493051181102362
 10
18.42777559055118
 20
7.48732283464567
 10
18.4341968503937
 20
7.480909448818898
 10
18.44011811023622
 20
7.473814960629921
 10
18.44553543307087
 20
7.466031496062993
 10
18.45044881889764
 20
7.457566929133859
 10
18.45486220472441
 20
7.44842125984252
 10
18.45877165354331
 20
7.438590551181102
 10
18.46314566929134
 20
7.425547244094489
 10
18.46693700787402
 20
7.412314960629922
 10
18.47014173228347
 20
7.398889763779527
 10
18.47276771653543
 20
7.385271653543307
 10
18.47480708661417
 20
7.371464566929133
 10
18.47626377952756
 20
7.357468503937008
 10
18.47713779527559
 20
7.343279527559055
 10
18.47742913385827
 20
7.328901574803149
 10
18.4755
 20
7.297055118110237
 10
18.47326771653543
 20
7.279759842519685
 10
18.47035433070866
 20
7.26342125984252
 10
18.46675590551181
 20
7.248035433070866
 10
18.46247244094488
 20
7.233606299212599
 10
18.45750787401575
 20
7.220129921259843
 10
18.45185826771653
 20
7.207610236220472
 10
18.44552362204724
 20
7.196047244094488
 10
18.43850787401575
 20
7.185437007874016
 10
18.4321062992126
 20
7.177444881889763
 10
18.42535826771654
 20
7.17051968503937
 10
18.41827165354331
 20
7.16465748031496
 10
18.41084645669291
 20
7.159862204724409
 10
18.40307480314961
 20
7.156133858267717
 10
18.39496062992126
 20
7.153468503937008
 10
18.38650787401575
 20
7.151870078740157
 10
18.3777125984252
 20
7.151338582677165
 10
18.36789763779528
 20
7.151866141732284
 10
18.35855511811024
 20
7.153448818897638
 10
18.34968503937008
 20
7.156086614173228
 10
18.34128346456693
 20
7.159783464566929
 10
18.33335826771653
 20
7.164531496062992
 10
18.32590551181102
 20
7.170334645669291
 10
18.31892125984252
 20
7.177196850393701
 10
18.31241338582677
 20
7.185114173228347
 10
18.30702755905512
 20
7.192917322834646
 10
18.30212204724409
 20
7.201200787401575
 10
18.2976968503937
 20
7.209964566929134
 10
18.29375984251968
 20
7.219212598425197
 10
18.29027952755905
 20
7.228763779527559
 10
18.28724409448819
 20
7.238433070866142
 10
18.28464960629921
 20
7.248220472440945
 10
18.2825
 20
7.258133858267716
 10
18.27702755905512
 20
7.296732283464567
 10
18.27542125984252
 20
7.339728346456693
 10
18.27553149606299
 20
7.34598031496063
 10
18.27586220472441
 20
7.352598425196851
 10
18.27641732283465
 20
7.35957874015748
 10
18.27718897637795
 20
7.366925196850394
 10
18.27818503937008
 20
7.37463779527559
 10
18.27940157480315
 20
7.382716535433071
 10
18.28083858267717
 20
7.391169291338582
 10
18.2825
 20
7.399992125984252
 10
18.28462992125984
 20
7.409779527559055
 10
18.28716141732284
 20
7.419531496062993
 10
18.29009842519685
 20
7.429240157480315
 10
18.29343700787402
 20
7.438909448818897
 10
18.29723622047244
 20
7.448318897637796
 10
18.30155905511811
 20
7.457248031496063
 10
18.30640157480315
 20
7.465692913385827
 10
18.31176771653543
 20
7.473653543307087
 10
18.31465354330709
 20
7.477417322834646
 10
18.3176811023622
 20
7.480992125984252
 10
18.32084645669291
 20
7.484374015748031
 10
18.32415354330709
 20
7.487562992125985
 10
18.32760236220473
 20
7.490562992125985
 10
18.33118897637795
 20
7.493374015748032
 10
18.33492125984252
 20
7.495992125984252
 10
18.33879133858268
 20
7.49842125984252
 10
18.34282283464567
 20
7.500606299212598
 10
18.34703543307086
 20
7.5025
 10
18.35142519685039
 20
7.504106299212599
 10
18.356
 20
7.505417322834646
 10
18.36075590551181
 20
7.506437007874016
 10
18.36569291338583
 20
7.507169291338583
 10
18.37080708661417
 20
7.507606299212599
 10
18.3761062992126
 20
7.507751968503937
 10
18.38140157480315
 20
7.507602362204724
 10
18.38651968503937
 20
7.507149606299213
 10
18.39145669291339
 20
7.506393700787402
 10
18.3962125984252
 20
7.505338582677165
 10
18.40078346456693
 20
7.50398031496063
 10
18.40517716535433
 20
7.502318897637795
 10
18.40938976377953
 20
7.500358267716535
 10
18.41342125984252
 20
7.498098425196851
  0
LWPOLYLINE
  5
80
330
1F
100
AcDbEntity
  8
Layer 1
 62
     7
100
AcDbPolyline
 90
       65
 70
     1
 43
0.0
 10
18.37835826771654
 20
7.105665354330709
 10
18.39713779527559
 20
7.106858267716535
 10
18.41472440944882
 20
7.110429133858267
 10
18.43111417322835
 20
7.116385826771653
 10
18.44630708661417
 20
7.124724409448818
 10
18.46030708661417
 20
7.135444881889764
 10
18.4731062992126
 20
7.148547244094488
 10
18.48470866141732
 20
7.164031496062992
 10
18.49511811023622
 20
7.181897637795275
 10
18.50243307086614
 20
7.197488188976378
 10
18.50877165354331
 20
7.213944881889764
 10
18.51413385826772
 20
7.231263779527559
 10
18.51852362204724
 20
7.249448818897638
 10
18.52193700787402
 20
7.268496062992126
 10
18.52437401574803
 20
7.288409448818897
 10
18.52583464566929
 20
7.309188976377953
 10
18.52632283464567
 20
7.330830708661417
 10
18.52583464566929
 20
7.352472440944882
 10
18.52437401574803
 20
7.373251968503937
 10
18.52193700787402
 20
7.393165354330709
 10
18.51852362204724
 20
7.412212598425197
 10
18.51413385826772
 20
7.430397637795275
 10
18.50877165354331
 20
7.447716535433071
 10
18.50243307086614
 20
7.464169291338583
 10
18.49511811023622
 20
7.479759842519685
 10
18.48470866141732
 20
7.497629921259843
 10
18.4731062992126
 20
7.513118110236221
 10
18.46030708661417
 20
7.526220472440944
 10
18.44630708661417
 20
7.53694094488189
 10
18.43111417322835
 20
7.545279527559055
 10
18.41472440944882
 20
7.551236220472441
 10
18.39713779527559
 20
7.554807086614173
 10
18.37835826771654
 20
7.556
 10
18.35957480314961
 20
7.554807086614173
 10
18.34198818897638
 20
7.551236220472441
 10
18.32559842519685
 20
7.545279527559055
 10
18.31040157480315
 20
7.53694094488189
 10
18.29640551181102
 20
7.526220472440944
 10
18.28360236220473
 20
7.513118110236221
 10
18.272
 20
7.497629921259843
 10
18.2615905511811
 20
7.479759842519685
 10
18.25427559055118
 20
7.464169291338583
 10
18.24794094488189
 20
7.447716535433071
 10
18.2425748031496
 20
7.430397637795275
 10
18.23818897637795
 20
7.412212598425197
 10
18.23477559055118
 20
7.393165354330709
 10
18.23233858267717
 20
7.373251968503937
 10
18.2308779527559
 20
7.352472440944882
 10
18.23038976377953
 20
7.330830708661417
 10
18.2308779527559
 20
7.309188976377953
 10
18.23233858267717
 20
7.288409448818897
 10
18.23477559055118
 20
7.268496062992126
 10
18.23818897637795
 20
7.249448818897638
 10
18.2425748031496
 20
7.231263779527559
 10
18.24794094488189
 20
7.213944881889764
 10
18.25427559055118
 20
7.197488188976378
 10
18.2615905511811
 20
7.181897637795275
 10
18.272
 20
7.164031496062992
 10
18.28360236220473
 20
7.148547244094488
 10
18.29640551181102
 20
7.135444881889764
 10
18.31040157480315
 20
7.124724409448818
 10
18.32559842519685
 20
7.116385826771653
 10
18.34198818897638
 20
7.110429133858267
 10
18.35957480314961
 20
7.106858267716535
 10
18.37835826771654
 20
7.105665354330709
  0
LWPOLYLINE
  5
81
330
1F
100
AcDbEntity
  8
Layer 1
 62
     7
100
AcDbPolyline
 90
      137
 70
     1
 43
0.0
 10
18.78784251968504
 20
7.116275590551181
 10
18.79441732283465
 20
7.119220472440944
 10
18.80079133858268
 20
7.122429133858268
 10
18.80696456692914
 20
7.125897637795275
 10
18.81293307086614
 20
7.129625984251969
 10
18.81870472440945
 20
7.13361811023622
 10
18.82427165354331
 20
7.137870078740158
 10
18.82964173228346
 20
7.142381889763779
 10
18.83480708661417
 20
7.14715748031496
 10
18.8449842519685
 20
7.157952755905511
 10
18.8538031496063
 20
7.169350393700787
 10
18.86126771653543
 20
7.181354330708661
 10
18.86737401574803
 20
7.19396062992126
 10
18.87212204724409
 20
7.207165354330709
 10
18.8755157480315
 20
7.220976377952756
 10
18.87755118110236
 20
7.235393700787402
 10
18.87822834645669
 20
7.250409448818898
 10
18.87753937007874
 20
7.26544094488189
 10
18.87547637795275
 20
7.279885826771654
 10
18.87203149606299
 20
7.293748031496063
 10
18.8672125984252
 20
7.307027559055118
 10
18.86101574803149
 20
7.319724409448819
 10
18.85344488188976
 20
7.331834645669291
 10
18.84449212598425
 20
7.343366141732283
 10
18.83416535433071
 20
7.354311023622047
 10
18.82348818897638
 20
7.363759842519685
 10
18.81212992125984
 20
7.372082677165355
 10
18.80008661417323
 20
7.379279527559055
 10
18.78736220472441
 20
7.385354330708662
 10
18.77394881889764
 20
7.390299212598425
 10
18.75985826771653
 20
7.394118110236221
 10
18.74507874015748
 20
7.396814960629921
 10
18.72961811023622
 20
7.39838188976378
 10
18.71032283464567
 20
7.386803149606299
 10
18.84735039370079
 20
7.54892125984252
 10
18.61188582677165
 20
7.54892125984252
 10
18.61188582677165
 20
7.503885826771653
 10
18.75599606299212
 20
7.503885826771653
 10
18.62346850393701
 20
7.349488188976378
 10
18.65756692913386
 20
7.321822834645669
 10
18.66546850393701
 20
7.32905905511811
 10
18.67373228346457
 20
7.335334645669291
 10
18.68235433070866
 20
7.340641732283465
 10
18.69134251968504
 20
7.344984251968504
 10
18.70068897637795
 20
7.34836220472441
 10
18.71040157480315
 20
7.350775590551181
 10
18.72047244094488
 20
7.352220472440945
 10
18.73090551181102
 20
7.352704724409449
 10
18.74132677165354
 20
7.352236220472441
 10
18.75135433070866
 20
7.350834645669291
 10
18.76098818897638
 20
7.348496062992126
 10
18.77023228346457
 20
7.345224409448819
 10
18.77908267716536
 20
7.34101968503937
 10
18.78754330708662
 20
7.335877952755905
 10
18.79561023622047
 20
7.329799212598425
 10
18.80328346456693
 20
7.322787401574804
 10
18.81029527559055
 20
7.315122047244095
 10
18.81637401574803
 20
7.307086614173229
 10
18.82151574803149
 20
7.298677165354331
 10
18.82572047244095
 20
7.289897637795276
 10
18.82899212598425
 20
7.280744094488189
 10
18.83133070866142
 20
7.271220472440945
 10
18.83273228346457
 20
7.261326771653543
 10
18.83320078740158
 20
7.251059055118111
 10
18.83272440944882
 20
7.241015748031496
 10
18.83129133858268
 20
7.231314960629922
 10
18.82890157480315
 20
7.221956692913386
 10
18.82555905511811
 20
7.21294094488189
 10
18.82125984251968
 20
7.204263779527559
 10
18.81600787401575
 20
7.195933070866142
 10
18.80979921259842
 20
7.187940944881889
 10
18.80263779527559
 20
7.180291338582677
 10
18.7991062992126
 20
7.177
 10
18.79542125984252
 20
7.173877952755905
 10
18.79158661417323
 20
7.170925196850393
 10
18.78760236220472
 20
7.168145669291339
 10
18.78346456692913
 20
7.16553937007874
 10
18.77917716535433
 20
7.163098425196851
 10
18.77474015748032
 20
7.160830708661417
 10
18.77014960629921
 20
7.158736220472441
 10
18.76536614173228
 20
7.156850393700787
 10
18.76033858267716
 20
7.155216535433071
 10
18.75507480314961
 20
7.153834645669291
 10
18.74956692913386
 20
7.152704724409449
 10
18.74381496062992
 20
7.151822834645669
 10
18.73782283464567
 20
7.151196850393701
 10
18.7315905511811
 20
7.150818897637795
 10
18.72511811023622
 20
7.150692913385827
 10
18.71852362204724
 20
7.150968503937007
 10
18.71192913385827
 20
7.151799212598426
 10
18.70533464566929
 20
7.153181102362205
 10
18.69874015748032
 20
7.155118110236221
 10
18.69214566929134
 20
7.157606299212598
 10
18.68555118110236
 20
7.160645669291338
 10
18.67895669291338
 20
7.164240157480315
 10
18.67236220472441
 20
7.168389763779528
 10
18.66600787401575
 20
7.173007874015748
 10
18.66013779527559
 20
7.17801968503937
 10
18.65475196850394
 20
7.18342125984252
 10
18.64984645669291
 20
7.189216535433071
 10
18.64542125984252
 20
7.195405511811024
 10
18.64148031496063
 20
7.201984251968504
 10
18.63802362204724
 20
7.208956692913386
 10
18.63504724409449
 20
7.216318897637795
 10
18.5913031496063
 20
7.201515748031496
 10
18.59546062992126
 20
7.191031496062992
 10
18.60037007874016
 20
7.181051181102363
 10
18.60603543307086
 20
7.171570866141733
 10
18.61245275590551
 20
7.16259842519685
 10
18.61962204724409
 20
7.154122047244094
 10
18.62755118110236
 20
7.146153543307086
 10
18.63623228346457
 20
7.138685039370078
 10
18.64566535433071
 20
7.131720472440945
 10
18.6503031496063
 20
7.128669291338583
 10
18.65505118110236
 20
7.125787401574804
 10
18.65991338582677
 20
7.123078740157481
 10
18.66488188976378
 20
7.12053937007874
 10
18.66996456692913
 20
7.118173228346457
 10
18.67515748031496
 20
7.115976377952756
 10
18.68045669291338
 20
7.113948818897637
 10
18.68587007874016
 20
7.112094488188976
 10
18.69141338582677
 20
7.110433070866142
 10
18.69711023622047
 20
7.108996062992126
 10
18.70295275590551
 20
7.107779527559055
 10
18.70895275590551
 20
7.106783464566929
 10
18.71509842519685
 20
7.106011811023622
 10
18.7213937007874
 20
7.105456692913386
 10
18.72784251968504
 20
7.105125984251968
 10
18.73444094488189
 20
7.105015748031496
 10
18.74111811023622
 20
7.105192913385827
 10
18.74779527559055
 20
7.105720472440945
 10
18.75446850393701
 20
7.10659842519685
 10
18.76114566929134
 20
7.107830708661417
 10
18.7678188976378
 20
7.109413385826771
 10
18.77449212598425
 20
7.111350393700787
 10
18.78116929133858
 20
7.113637795275591
 10
18.78784251968504
 20
7.116275590551181
  0
LWPOLYLINE
  5
82
330
1F
100
AcDbEntity
  8
Layer 1
 62
     7
100
AcDbPolyline
 90
       67
 70
     1
 43
0.0
 10
19.2424842519685
 20
7.085807086614174
 10
19.23543307086614
 20
7.099334645669291
 10
19.22883858267717
 20
7.11305905511811
 10
19.2226968503937
 20
7.126976377952756
 10
19.21701181102362
 20
7.141090551181103
 10
19.21177952755906
 20
7.155397637795276
 10
19.20701181102362
 20
7.169897637795276
 10
19.2026968503937
 20
7.184594488188976
 10
19.19884645669291
 20
7.199488188976378
 10
19.19542125984252
 20
7.214610236220472
 10
19.19245669291339
 20
7.22994094488189
 10
19.18994881889764
 20
7.245472440944882
 10
19.18790157480315
 20
7.261204724409449
 10
19.18631102362205
 20
7.277141732283464
 10
19.18517322834646
 20
7.29328346456693
 10
19.18449606299212
 20
7.309625984251968
 10
19.18426771653543
 20
7.326169291338583
 10
19.18449212598425
 20
7.343531496062992
 10
19.18517322834646
 20
7.360582677165354
 10
19.1863031496063
 20
7.377318897637795
 10
19.18788188976378
 20
7.393744094488189
 10
19.1899094488189
 20
7.409846456692914
 10
19.19238582677165
 20
7.42563779527559
 10
19.19531102362205
 20
7.441106299212598
 10
19.1986811023622
 20
7.456259842519685
 10
19.20253149606299
 20
7.471157480314961
 10
19.20684645669292
 20
7.485807086614173
 10
19.2116220472441
 20
7.500208661417322
 10
19.21686220472441
 20
7.514362204724409
 10
19.22256692913386
 20
7.528271653543307
 10
19.22874015748031
 20
7.541933070866142
 10
19.2353779527559
 20
7.555350393700787
 10
19.2424842519685
 20
7.568527559055118
 10
19.28221653543307
 20
7.556531496062992
 10
19.27589763779527
 20
7.543531496062992
 10
19.27
 20
7.530393700787402
 10
19.26452362204724
 20
7.517110236220472
 10
19.25946850393701
 20
7.503688976377953
 10
19.25482677165354
 20
7.490125984251969
 10
19.25060236220472
 20
7.476425196850394
 10
19.24679921259843
 20
7.462582677165354
 10
19.24340551181102
 20
7.448598425196851
 10
19.24044488188976
 20
7.434370078740158
 10
19.23787401574803
 20
7.419858267716536
 10
19.23570078740158
 20
7.405062992125984
 10
19.23391732283465
 20
7.389972440944882
 10
19.23252755905512
 20
7.374594488188976
 10
19.23153543307087
 20
7.358917322834646
 10
19.23094094488189
 20
7.342944881889764
 10
19.23074015748032
 20
7.326669291338582
 10
19.23093700787402
 20
7.309665354330709
 10
19.23152362204724
 20
7.293078740157481
 10
19.2325
 20
7.27690157480315
 10
19.23387401574803
 20
7.261141732283464
 10
19.23564173228347
 20
7.245795275590551
 10
19.2378031496063
 20
7.230866141732283
 10
19.24036220472441
 20
7.216346456692913
 10
19.2433188976378
 20
7.202240157480315
 10
19.24666141732283
 20
7.188433070866142
 10
19.25044094488189
 20
7.174877952755906
 10
19.25465354330709
 20
7.161570866141732
 10
19.25929921259842
 20
7.148507874015748
 10
19.26438188976378
 20
7.135692913385827
 10
19.2698937007874
 20
7.123125984251969
 10
19.27583858267716
 20
7.110799212598425
 10
19.28221653543307
 20
7.098716535433071
 10
19.2424842519685
 20
7.085807086614174
  0
LWPOLYLINE
  5
83
330
1F
100
AcDbEntity
  8
Layer 1
 62
     7
100
AcDbPolyline
 90
        7
 70
     1
 43
0.0
 10
19.4267125984252
 20
7.194744094488189
 10
19.4267125984252
 20
7.502566929133859
 10
19.35275590551181
 20
7.502566929133859
 10
19.37523622047244
 20
7.548535433070866
 10
19.47967716535433
 20
7.548535433070866
 10
19.47967716535433
 20
7.194744094488189
 10
19.4267125984252
 20
7.194744094488189
  0
LWPOLYLINE
  5
84
330
1F
100
AcDbEntity
  8
Layer 1
 62
     7
100
AcDbPolyline
 90
      128
 70
     1
 43
0.0
 10
19.65415748031496
 20
7.280110236220472
 10
19.65738976377953
 20
7.274531496062992
 10
19.66084251968504
 20
7.269291338582677
 10
19.66451181102362
 20
7.264385826771654
 10
19.66840157480315
 20
7.259818897637795
 10
19.67250787401575
 20
7.255590551181102
 10
19.67683464566929
 20
7.251704724409449
 10
19.68137795275591
 20
7.248161417322835
 10
19.68614173228346
 20
7.24496062992126
 10
19.69111023622047
 20
7.242094488188976
 10
19.6962125984252
 20
7.239610236220472
 10
19.70144881889764
 20
7.237503937007874
 10
19.7068188976378
 20
7.235783464566929
 10
19.7123188976378
 20
7.234444881889764
 10
19.71795275590551
 20
7.233488188976378
 10
19.72372047244095
 20
7.232913385826771
 10
19.72961811023622
 20
7.232720472440945
 10
19.73827165354331
 20
7.233070866141732
 10
19.7465
 20
7.234125984251969
 10
19.7543031496063
 20
7.235885826771653
 10
19.7616811023622
 20
7.238354330708662
 10
19.76863779527559
 20
7.241523622047244
 10
19.77517322834646
 20
7.245405511811024
 10
19.78129527559055
 20
7.249992125984252
 10
19.787
 20
7.255291338582677
 10
19.79215354330709
 20
7.261169291338582
 10
19.79661811023622
 20
7.267488188976378
 10
19.80039763779527
 20
7.274255905511811
 10
19.80349212598425
 20
7.281464566929134
 10
19.80589763779528
 20
7.289122047244095
 10
19.80761417322835
 20
7.297220472440945
 10
19.80864566929134
 20
7.305767716535433
 10
19.80898818897638
 20
7.314755905511811
 10
19.80862992125984
 20
7.323417322834645
 10
19.80755118110236
 20
7.331657480314961
 10
19.80575196850394
 20
7.33948031496063
 10
19.80323228346457
 20
7.346885826771653
 10
19.79998818897638
 20
7.353877952755906
 10
19.79602362204724
 20
7.360456692913385
 10
19.79133464566929
 20
7.366625984251969
 10
19.78591732283465
 20
7.372389763779528
 10
19.77991732283465
 20
7.377602362204724
 10
19.77347244094488
 20
7.38211811023622
 10
19.76658267716535
 20
7.38594094488189
 10
19.75924409448819
 20
7.389066929133858
 10
19.75146456692913
 20
7.3915
 10
19.74323622047244
 20
7.393236220472441
 10
19.73456692913386
 20
7.394279527559055
 10
19.72545275590551
 20
7.394625984251968
 10
19.71988582677166
 20
7.394503937007874
 10
19.71442519685039
 20
7.394141732283464
 10
19.70907086614173
 20
7.39353937007874
 10
19.7038188976378
 20
7.392700787401575
 10
19.69866929133858
 20
7.39161811023622
 10
19.69361811023622
 20
7.390303149606299
 10
19.68866535433071
 20
7.388748031496063
 10
19.68381102362205
 20
7.38696062992126
 10
19.67910236220472
 20
7.384913385826771
 10
19.67453149606299
 20
7.382633858267717
 10
19.67010236220472
 20
7.380125984251968
 10
19.66581102362205
 20
7.377385826771653
 10
19.66165354330709
 20
7.374409448818898
 10
19.65763385826772
 20
7.371200787401575
 10
19.65374803149606
 20
7.367748031496063
 10
19.64999212598425
 20
7.36405905511811
 10
19.63558661417323
 20
7.367311023622047
 10
19.68005905511811
 20
7.548535433070866
 10
19.84888188976378
 20
7.548535433070866
 10
19.84888188976378
 20
7.501566929133858
 10
19.71495669291339
 20
7.501566929133858
 10
19.69397244094488
 20
7.422696850393701
 10
19.70123228346457
 20
7.425507874015748
 10
19.70837795275591
 20
7.427944881889764
 10
19.71540157480315
 20
7.430003937007874
 10
19.7222874015748
 20
7.431688976377953
 10
19.72909842519685
 20
7.432952755905512
 10
19.73591732283464
 20
7.433866141732284
 10
19.74274803149606
 20
7.434421259842519
 10
19.74960236220473
 20
7.434606299212598
 10
19.76204724409449
 20
7.434094488188976
 10
19.77390157480315
 20
7.43255905511811
 10
19.78515748031496
 20
7.43
 10
19.79581889763779
 20
7.426421259842519
 10
19.80588188976378
 20
7.421818897637795
 10
19.81534645669291
 20
7.416192913385827
 10
19.82420866141732
 20
7.409543307086614
 10
19.83247244094488
 20
7.401874015748032
 10
19.83996850393701
 20
7.393409448818898
 10
19.84646456692913
 20
7.384322834645669
 10
19.85196456692913
 20
7.374610236220472
 10
19.85646062992126
 20
7.364279527559055
 10
19.85996062992126
 20
7.353326771653543
 10
19.86245669291339
 20
7.341755905511811
 10
19.86395669291339
 20
7.329562992125984
 10
19.86445669291339
 20
7.316755905511811
 10
19.86387401574803
 20
7.30213779527559
 10
19.86212992125984
 20
7.288275590551181
 10
19.85921653543307
 20
7.275161417322835
 10
19.85513779527559
 20
7.262807086614173
 10
19.84988976377953
 20
7.251208661417323
 10
19.84347637795275
 20
7.240370078740158
 10
19.8358937007874
 20
7.230291338582677
 10
19.82713779527559
 20
7.220976377952756
 10
19.81740551181102
 20
7.212602362204724
 10
19.80688582677165
 20
7.205346456692913
 10
19.79557480314961
 20
7.199208661417323
 10
19.78346850393701
 20
7.194185039370079
 10
19.77057480314961
 20
7.190275590551181
 10
19.75688188976378
 20
7.187484251968504
 10
19.74239763779527
 20
7.185811023622048
 10
19.72711417322835
 20
7.185251968503937
 10
19.71799212598425
 20
7.185452755905512
 10
19.70917322834646
 20
7.186047244094488
 10
19.70065748031496
 20
7.187047244094488
 10
19.69244881889764
 20
7.188444881889763
 10
19.68454330708661
 20
7.190248031496063
 10
19.67694488188976
 20
7.192452755905512
 10
19.66964960629921
 20
7.195059055118111
 10
19.66265748031496
 20
7.198074803149606
 10
19.65596062992126
 20
7.20148031496063
 10
19.64949606299212
 20
7.20532283464567
 10
19.64325984251969
 20
7.209602362204724
 10
19.63725590551181
 20
7.214326771653544
 10
19.63148425196851
 20
7.219488188976378
 10
19.62595275590551
 20
7.225094488188977
 10
19.62065748031496
 20
7.231141732283464
 10
19.61560236220473
 20
7.237633858267716
 10
19.65415748031496
 20
7.280110236220472
  0
LWPOLYLINE
  5
85
330
1F
100
AcDbEntity
  8
Layer 1
 62
     7
100
AcDbPolyline
 90
       65
 70
     1
 43
0.0
 10
20.17777559055118
 20
7.366728346456693
 10
20.17724015748032
 20
7.346031496062992
 10
20.17563385826772
 20
7.326484251968504
 10
20.17295669291338
 20
7.308090551181103
 10
20.16920472440945
 20
7.290842519685039
 10
20.16437795275591
 20
7.274748031496063
 10
20.15848031496063
 20
7.259807086614173
 10
20.15150787401575
 20
7.24601968503937
 10
20.14345669291339
 20
7.233385826771654
 10
20.13449606299213
 20
7.222114173228347
 10
20.12473228346457
 20
7.212338582677165
 10
20.11416535433071
 20
7.204066929133858
 10
20.10279133858268
 20
7.197295275590551
 10
20.09061811023622
 20
7.192027559055118
 10
20.07763779527559
 20
7.188263779527559
 10
20.06385039370079
 20
7.186003937007874
 10
20.04926377952756
 20
7.185251968503937
 10
20.03448031496063
 20
7.186011811023622
 10
20.02054724409449
 20
7.188295275590551
 10
20.00746062992126
 20
7.192098425196851
 10
19.99522440944882
 20
7.197421259842519
 10
19.98383070866142
 20
7.204263779527559
 10
19.9732874015748
 20
7.212622047244095
 10
19.96358661417323
 20
7.2225
 10
19.95473228346457
 20
7.233889763779527
 10
19.94679921259842
 20
7.246681102362205
 10
19.93992913385827
 20
7.260704724409448
 10
19.93411811023622
 20
7.275948818897638
 10
19.92936614173228
 20
7.292429133858268
 10
19.92566929133858
 20
7.310133858267717
 10
19.92303149606299
 20
7.329070866141732
 10
19.92144881889764
 20
7.349240157480315
 10
19.92092125984252
 20
7.370641732283465
 10
19.92145669291338
 20
7.391870078740157
 10
19.92305905511811
 20
7.411897637795276
 10
19.92572834645669
 20
7.430720472440945
 10
19.92946850393701
 20
7.448338582677166
 10
19.93427165354331
 20
7.464748031496063
 10
19.94014173228346
 20
7.479948818897638
 10
19.94707086614173
 20
7.493944881889764
 10
19.95506692913386
 20
7.506728346456693
 10
19.96401181102362
 20
7.518177165354331
 10
19.9737874015748
 20
7.528094488188977
 10
19.98440157480315
 20
7.53648031496063
 10
19.99584645669291
 20
7.543342519685039
 10
20.00812204724409
 20
7.548677165354331
 10
20.02122834645669
 20
7.552484251968504
 10
20.03516141732284
 20
7.554771653543307
 10
20.04992519685039
 20
7.555531496062992
 10
20.06485039370079
 20
7.554767716535433
 10
20.0788937007874
 20
7.552472440944882
 10
20.09205511811023
 20
7.548649606299213
 10
20.10433464566929
 20
7.543299212598425
 10
20.11572834645669
 20
7.536425196850394
 10
20.12624409448819
 20
7.52801968503937
 10
20.13587401574803
 20
7.518094488188976
 10
20.14462204724409
 20
7.506645669291339
 10
20.15238188976378
 20
7.493748031496063
 10
20.15911417322835
 20
7.479535433070867
 10
20.16481102362205
 20
7.464011811023622
 10
20.16947637795275
 20
7.447177165354331
 10
20.1731062992126
 20
7.429031496062992
 10
20.17570078740157
 20
7.409574803149606
 10
20.17725590551181
 20
7.388807086614174
 10
20.17777559055118
 20
7.366728346456693
  0
LWPOLYLINE
  5
86
330
1F
100
AcDbEntity
  8
Layer 1
 62
     7
100
AcDbPolyline
 90
       65
 70
     1
 43
0.0
 10
20.04826377952756
 20
7.235216535433071
 10
20.05688976377953
 20
7.235748031496063
 10
20.06496850393701
 20
7.237342519685039
 10
20.0725
 20
7.24
 10
20.07947637795275
 20
7.243720472440945
 10
20.08589763779528
 20
7.248511811023622
 10
20.09175984251969
 20
7.254366141732284
 10
20.09706692913386
 20
7.261287401574803
 10
20.10181496062992
 20
7.269279527559055
 10
20.10603149606299
 20
7.278307086614173
 10
20.10968503937008
 20
7.288393700787402
 10
20.11277952755906
 20
7.299543307086614
 10
20.11530708661417
 20
7.311748031496063
 10
20.11727559055118
 20
7.325011811023622
 10
20.11868110236221
 20
7.339334645669291
 10
20.11952362204724
 20
7.354708661417323
 10
20.1198031496063
 20
7.371141732283465
 10
20.11952755905512
 20
7.387114173228347
 10
20.11869291338583
 20
7.402106299212599
 10
20.11730708661417
 20
7.416122047244095
 10
20.11537007874016
 20
7.42915748031496
 10
20.11287401574803
 20
7.441216535433071
 10
20.10982677165354
 20
7.452291338582677
 10
20.10622440944882
 20
7.462385826771653
 10
20.10206692913386
 20
7.4715
 10
20.09740551181102
 20
7.479610236220473
 10
20.09222834645669
 20
7.486633858267717
 10
20.08653937007874
 20
7.492574803149607
 10
20.08033858267716
 20
7.497437007874016
 10
20.07362598425197
 20
7.501212598425197
 10
20.06640157480315
 20
7.503909448818898
 10
20.05866929133858
 20
7.505527559055118
 10
20.05042519685039
 20
7.506066929133858
 10
20.04185826771653
 20
7.505527559055118
 10
20.03383070866142
 20
7.503913385826771
 10
20.02633858267717
 20
7.501220472440945
 10
20.01938582677165
 20
7.497456692913386
 10
20.01297244094488
 20
7.49261811023622
 10
20.00709842519685
 20
7.486704724409448
 10
20.00176377952756
 20
7.479724409448819
 10
19.99696456692913
 20
7.471669291338583
 10
19.99271653543307
 20
7.462539370078741
 10
19.98903937007874
 20
7.452393700787401
 10
19.98593307086614
 20
7.441232283464567
 10
19.9833937007874
 20
7.429055118110236
 10
19.98141732283464
 20
7.415858267716535
 10
19.98001181102362
 20
7.401641732283465
 10
19.97916535433071
 20
7.386401574803149
 10
19.97888582677165
 20
7.370141732283464
 10
19.97916535433071
 20
7.354338582677165
 10
19.98000787401575
 20
7.339476377952756
 10
19.98141338582677
 20
7.325551181102362
 10
19.98338188976378
 20
7.312570866141733
 10
19.9859094488189
 20
7.300535433070866
 10
19.98900393700787
 20
7.289444881889763
 10
19.99265748031496
 20
7.279303149606299
 10
19.99687401574803
 20
7.270114173228347
 10
20.00158661417323
 20
7.261944881889764
 10
20.0067874015748
 20
7.254858267716536
 10
20.01248031496063
 20
7.24886220472441
 10
20.01866535433071
 20
7.243952755905512
 10
20.02533464566929
 20
7.240129921259842
 10
20.03249212598425
 20
7.237401574803149
 10
20.04013385826772
 20
7.235763779527559
 10
20.04826377952756
 20
7.235216535433071
  0
LWPOLYLINE
  5
87
330
1F
100
AcDbEntity
  8
Layer 1
 62
     7
100
AcDbPolyline
 90
      157
 70
     1
 43
0.0
 10
20.28970866141732
 20
7.194744094488189
 10
20.23673622047244
 20
7.194744094488189
 10
20.23673622047244
 20
7.426106299212599
 10
20.28653543307087
 20
7.426106299212599
 10
20.28653543307087
 20
7.388129921259843
 10
20.29057086614173
 20
7.393984251968504
 10
20.29473622047244
 20
7.399433070866142
 10
20.29903543307087
 20
7.404472440944882
 10
20.30346850393701
 20
7.409106299212598
 10
20.30803149606299
 20
7.413326771653543
 10
20.31272834645669
 20
7.417137795275591
 10
20.31755511811023
 20
7.42053937007874
 10
20.3225157480315
 20
7.423523622047244
 10
20.32765748031496
 20
7.426129921259842
 10
20.33302755905512
 20
7.428385826771653
 10
20.33862204724409
 20
7.430291338582677
 10
20.34444094488189
 20
7.431846456692913
 10
20.35048818897638
 20
7.433055118110236
 10
20.35676377952756
 20
7.433917322834645
 10
20.36326377952756
 20
7.434433070866142
 10
20.36999212598425
 20
7.434606299212598
 10
20.37662598425197
 20
7.434429133858267
 10
20.38296850393701
 20
7.43390157480315
 10
20.38901968503937
 20
7.43301968503937
 10
20.39477952755906
 20
7.431783464566929
 10
20.40024803149606
 20
7.430192913385826
 10
20.40542125984252
 20
7.428244094488189
 10
20.4103031496063
 20
7.425937007874015
 10
20.41488582677165
 20
7.423275590551181
 10
20.41921653543307
 20
7.420248031496063
 10
20.42327165354331
 20
7.416846456692913
 10
20.42705905511811
 20
7.413070866141732
 10
20.43057480314961
 20
7.408925196850394
 10
20.4338188976378
 20
7.404405511811023
 10
20.43679527559055
 20
7.399515748031496
 10
20.43950393700787
 20
7.394255905511811
 10
20.44194881889764
 20
7.388629921259843
 10
20.44657480314961
 20
7.394421259842519
 10
20.45127165354331
 20
7.399811023622047
 10
20.45603937007874
 20
7.404791338582677
 10
20.4608779527559
 20
7.409366141732283
 10
20.46578346456693
 20
7.413535433070866
 10
20.47075984251968
 20
7.417299212598425
 10
20.47580708661417
 20
7.420657480314961
 10
20.48092519685039
 20
7.423610236220473
 10
20.48616929133858
 20
7.426188976377952
 10
20.4915905511811
 20
7.42842125984252
 10
20.49719291338583
 20
7.430311023622047
 10
20.50297637795276
 20
7.431858267716535
 10
20.50893700787402
 20
7.43305905511811
 10
20.51507874015748
 20
7.433917322834645
 10
20.52140157480315
 20
7.434433070866142
 10
20.52790157480315
 20
7.434606299212598
 10
20.53352755905512
 20
7.434472440944882
 10
20.53897244094488
 20
7.434078740157481
 10
20.54424015748031
 20
7.433417322834646
 10
20.54932677165354
 20
7.432492125984252
 10
20.55423228346457
 20
7.431307086614173
 10
20.55896062992126
 20
7.42986220472441
 10
20.56351181102362
 20
7.428157480314961
 10
20.56788188976378
 20
7.426192913385827
 10
20.57203937007874
 20
7.423952755905511
 10
20.57595275590551
 20
7.421476377952755
 10
20.57962992125984
 20
7.418763779527559
 10
20.58306692913386
 20
7.415814960629922
 10
20.58626377952756
 20
7.412625984251968
 10
20.58922440944882
 20
7.409200787401574
 10
20.59195275590551
 20
7.405531496062992
 10
20.59444094488189
 20
7.401622047244095
 10
20.59653543307087
 20
7.397677165354331
 10
20.5983188976378
 20
7.393338582677165
 10
20.5997874015748
 20
7.388625984251968
 10
20.60094488188976
 20
7.383551181102362
 10
20.60186614173228
 20
7.377744094488189
 10
20.6025157480315
 20
7.370811023622047
 10
20.60290157480315
 20
7.362751968503937
 10
20.60302755905512
 20
7.353566929133859
 10
20.60302755905512
 20
7.334996062992126
 10
20.60302755905512
 20
7.194744094488189
 10
20.55005511811024
 20
7.194744094488189
 10
20.55005511811024
 20
7.313507874015748
 10
20.54989763779528
 20
7.324661417322835
 10
20.54943307086614
 20
7.334822834645669
 10
20.54865354330709
 20
7.343988188976378
 10
20.54756692913386
 20
7.352161417322835
 10
20.54616929133858
 20
7.359338582677165
 10
20.54446850393701
 20
7.36551968503937
 10
20.54245669291339
 20
7.370700787401574
 10
20.54014173228347
 20
7.374885826771654
 10
20.53743307086614
 20
7.378342519685039
 10
20.53424015748032
 20
7.381338582677166
 10
20.53056299212598
 20
7.383874015748032
 10
20.52640157480315
 20
7.385948818897638
 10
20.52175196850394
 20
7.387559055118111
 10
20.51662204724409
 20
7.388712598425196
 10
20.51100787401575
 20
7.389401574803149
 10
20.5049094488189
 20
7.389633858267716
 10
20.49738188976378
 20
7.389322834645669
 10
20.49042125984252
 20
7.388385826771653
 10
20.48401968503937
 20
7.386826771653543
 10
20.4781811023622
 20
7.384649606299212
 10
20.47290157480315
 20
7.381846456692913
 10
20.46818503937008
 20
7.378425196850394
 10
20.46403149606299
 20
7.374385826771653
 10
20.46043700787402
 20
7.369728346456693
 10
20.45730708661417
 20
7.364295275590552
 10
20.45459842519685
 20
7.35792125984252
 10
20.45230708661417
 20
7.350618110236221
 10
20.45043307086614
 20
7.342377952755905
 10
20.44898031496063
 20
7.333204724409449
 10
20.44794488188976
 20
7.323102362204724
 10
20.44732283464567
 20
7.312066929133858
 10
20.44711417322835
 20
7.300102362204725
 10
20.44711417322835
 20
7.194744094488189
 10
20.39364566929134
 20
7.194744094488189
 10
20.39364566929134
 20
7.313507874015748
 10
20.39348425196851
 20
7.323838582677165
 10
20.39300393700787
 20
7.333342519685039
 10
20.39220078740157
 20
7.34201968503937
 10
20.39107480314961
 20
7.349870078740158
 10
20.38962598425197
 20
7.35690157480315
 10
20.38785039370079
 20
7.363106299212599
 10
20.38574803149606
 20
7.368492125984252
 10
20.3833188976378
 20
7.373059055118111
 10
20.38048818897638
 20
7.376952755905512
 10
20.3771811023622
 20
7.38032283464567
 10
20.37340551181102
 20
7.383169291338582
 10
20.36915748031496
 20
7.3855
 10
20.36444488188976
 20
7.387311023622047
 10
20.35925984251968
 20
7.388602362204725
 10
20.35361417322835
 20
7.389374015748031
 10
20.34750393700788
 20
7.389633858267716
 10
20.34364566929134
 20
7.389523622047244
 10
20.33987007874016
 20
7.389192913385827
 10
20.3361811023622
 20
7.388645669291338
 10
20.33257874015748
 20
7.387870078740158
 10
20.32905905511811
 20
7.386877952755905
 10
20.32562598425197
 20
7.38565748031496
 10
20.32227952755905
 20
7.384216535433071
 10
20.31901968503937
 20
7.382551181102362
 10
20.31585826771654
 20
7.380688976377953
 10
20.31286614173228
 20
7.378661417322834
 10
20.31004724409449
 20
7.376472440944882
 10
20.3073937007874
 20
7.37411811023622
 10
20.3049094488189
 20
7.371598425196851
 10
20.3025905511811
 20
7.368917322834646
 10
20.30044094488189
 20
7.366070866141732
 10
20.29845275590551
 20
7.363062992125984
 10
20.29620078740157
 20
7.358783464566929
 10
20.29431889763779
 20
7.354066929133858
 10
20.29279527559055
 20
7.348913385826772
 10
20.29162204724409
 20
7.343326771653543
 10
20.29079133858268
 20
7.336220472440945
 10
20.29019291338583
 20
7.326649606299212
 10
20.28983070866142
 20
7.314610236220473
 10
20.28970866141732
 20
7.300102362204725
 10
20.28970866141732
 20
7.194744094488189
  0
LWPOLYLINE
  5
88
330
1F
100
AcDbEntity
  8
Layer 1
 62
     7
100
AcDbPolyline
 90
      157
 70
     1
 43
0.0
 10
20.72695669291339
 20
7.194744094488189
 10
20.67398818897638
 20
7.194744094488189
 10
20.67398818897638
 20
7.426106299212599
 10
20.72378346456693
 20
7.426106299212599
 10
20.72378346456693
 20
7.388129921259843
 10
20.7278188976378
 20
7.393984251968504
 10
20.73198425196851
 20
7.399433070866142
 10
20.73628346456693
 20
7.404472440944882
 10
20.74071653543307
 20
7.409106299212598
 10
20.74527952755906
 20
7.413326771653543
 10
20.74997637795276
 20
7.417137795275591
 10
20.7548031496063
 20
7.42053937007874
 10
20.75976377952756
 20
7.423523622047244
 10
20.76490551181102
 20
7.426129921259842
 10
20.77027559055118
 20
7.428385826771653
 10
20.77587007874016
 20
7.430291338582677
 10
20.78168897637795
 20
7.431846456692913
 10
20.78773622047244
 20
7.433055118110236
 10
20.79401181102362
 20
7.433917322834645
 10
20.80051181102362
 20
7.434433070866142
 10
20.80724015748032
 20
7.434606299212598
 10
20.81387401574803
 20
7.434429133858267
 10
20.82021653543307
 20
7.43390157480315
 10
20.82626771653543
 20
7.43301968503937
 10
20.83202755905512
 20
7.431783464566929
 10
20.83749606299213
 20
7.430192913385826
 10
20.84266929133858
 20
7.428244094488189
 10
20.84755118110236
 20
7.425937007874015
 10
20.85213385826772
 20
7.423275590551181
 10
20.85646456692913
 20
7.420248031496063
 10
20.86051968503937
 20
7.416846456692913
 10
20.86430708661417
 20
7.413070866141732
 10
20.86782283464567
 20
7.408925196850394
 10
20.87106692913386
 20
7.404405511811023
 10
20.87404330708661
 20
7.399515748031496
 10
20.87675196850394
 20
7.394255905511811
 10
20.8791968503937
 20
7.388629921259843
 10
20.88382283464567
 20
7.394421259842519
 10
20.88851968503937
 20
7.399811023622047
 10
20.8932874015748
 20
7.404791338582677
 10
20.89812598425197
 20
7.409366141732283
 10
20.90303149606299
 20
7.413535433070866
 10
20.90800787401575
 20
7.417299212598425
 10
20.91305511811024
 20
7.420657480314961
 10
20.91817322834646
 20
7.423610236220473
 10
20.92341732283464
 20
7.426188976377952
 10
20.92883858267717
 20
7.42842125984252
 10
20.93444094488189
 20
7.430311023622047
 10
20.94022440944882
 20
7.431858267716535
 10
20.94618503937008
 20
7.43305905511811
 10
20.95232677165354
 20
7.433917322834645
 10
20.95864960629921
 20
7.434433070866142
 10
20.96514960629921
 20
7.434606299212598
 10
20.97077559055118
 20
7.434472440944882
 10
20.97622047244095
 20
7.434078740157481
 10
20.98148818897638
 20
7.433417322834646
 10
20.9865748031496
 20
7.432492125984252
 10
20.99148031496063
 20
7.431307086614173
 10
20.99620866141732
 20
7.42986220472441
 10
21.00075984251968
 20
7.428157480314961
 10
21.00512992125984
 20
7.426192913385827
 10
21.0092874015748
 20
7.423952755905511
 10
21.01320078740158
 20
7.421476377952755
 10
21.01687795275591
 20
7.418763779527559
 10
21.02031496062992
 20
7.415814960629922
 10
21.02351181102362
 20
7.412625984251968
 10
21.02647244094488
 20
7.409200787401574
 10
21.02920078740157
 20
7.405531496062992
 10
21.03168897637795
 20
7.401622047244095
 10
21.03378346456693
 20
7.397677165354331
 10
21.03556692913386
 20
7.393338582677165
 10
21.03703543307087
 20
7.388625984251968
 10
21.03819291338583
 20
7.383551181102362
 10
21.03911417322835
 20
7.377744094488189
 10
21.03976377952756
 20
7.370811023622047
 10
21.04014960629921
 20
7.362751968503937
 10
21.04027559055118
 20
7.353566929133859
 10
21.04027559055118
 20
7.334996062992126
 10
21.04027559055118
 20
7.194744094488189
 10
20.98730708661417
 20
7.194744094488189
 10
20.98730708661417
 20
7.313507874015748
 10
20.98714960629921
 20
7.324661417322835
 10
20.98668503937008
 20
7.334822834645669
 10
20.98590551181102
 20
7.343988188976378
 10
20.98481889763779
 20
7.352161417322835
 10
20.98342125984252
 20
7.359338582677165
 10
20.98171653543307
 20
7.36551968503937
 10
20.97970866141732
 20
7.370700787401574
 10
20.9773937007874
 20
7.374885826771654
 10
20.97468503937008
 20
7.378342519685039
 10
20.97148818897638
 20
7.381338582677166
 10
20.96781102362205
 20
7.383874015748032
 10
20.96364960629921
 20
7.385948818897638
 10
20.959
 20
7.387559055118111
 10
20.95387007874016
 20
7.388712598425196
 10
20.94825590551181
 20
7.389401574803149
 10
20.94215748031496
 20
7.389633858267716
 10
20.93462992125984
 20
7.389322834645669
 10
20.92766929133858
 20
7.388385826771653
 10
20.92126771653543
 20
7.386826771653543
 10
20.91542913385827
 20
7.384649606299212
 10
20.91014960629921
 20
7.381846456692913
 10
20.90543307086614
 20
7.378425196850394
 10
20.90127952755905
 20
7.374385826771653
 10
20.89768897637795
 20
7.369728346456693
 10
20.89455905511811
 20
7.364295275590552
 10
20.89184645669291
 20
7.35792125984252
 10
20.88955511811024
 20
7.350618110236221
 10
20.88768503937008
 20
7.342377952755905
 10
20.88622834645669
 20
7.333204724409449
 10
20.88519291338583
 20
7.323102362204724
 10
20.88457086614173
 20
7.312066929133858
 10
20.88436220472441
 20
7.300102362204725
 10
20.88436220472441
 20
7.194744094488189
 10
20.8308937007874
 20
7.194744094488189
 10
20.8308937007874
 20
7.313507874015748
 10
20.83073228346457
 20
7.323838582677165
 10
20.83025196850394
 20
7.333342519685039
 10
20.82944881889764
 20
7.34201968503937
 10
20.82832283464567
 20
7.349870078740158
 10
20.82687401574803
 20
7.35690157480315
 10
20.82509842519685
 20
7.363106299212599
 10
20.82299606299213
 20
7.368492125984252
 10
20.82056692913386
 20
7.373059055118111
 10
20.81773622047244
 20
7.376952755905512
 10
20.81442913385827
 20
7.38032283464567
 10
20.81065354330709
 20
7.383169291338582
 10
20.80640551181103
 20
7.3855
 10
20.80169291338583
 20
7.387311023622047
 10
20.79650787401575
 20
7.388602362204725
 10
20.79086220472441
 20
7.389374015748031
 10
20.78475196850394
 20
7.389633858267716
 10
20.7808937007874
 20
7.389523622047244
 10
20.77711811023622
 20
7.389192913385827
 10
20.77342913385827
 20
7.388645669291338
 10
20.76982677165354
 20
7.387870078740158
 10
20.76630708661417
 20
7.386877952755905
 10
20.76287401574803
 20
7.38565748031496
 10
20.75952755905512
 20
7.384216535433071
 10
20.75626771653543
 20
7.382551181102362
 10
20.7531062992126
 20
7.380688976377953
 10
20.75011417322835
 20
7.378661417322834
 10
20.74729527559055
 20
7.376472440944882
 10
20.74464173228347
 20
7.37411811023622
 10
20.74215748031496
 20
7.371598425196851
 10
20.73983858267717
 20
7.368917322834646
 10
20.73768897637795
 20
7.366070866141732
 10
20.73570078740158
 20
7.363062992125984
 10
20.73344881889764
 20
7.358783464566929
 10
20.73156692913386
 20
7.354066929133858
 10
20.73004330708661
 20
7.348913385826772
 10
20.72887007874016
 20
7.343326771653543
 10
20.72804330708662
 20
7.336220472440945
 10
20.72744488188976
 20
7.326649606299212
 10
20.72707874015748
 20
7.314610236220473
 10
20.72695669291339
 20
7.300102362204725
 10
20.72695669291339
 20
7.194744094488189
  0
LWPOLYLINE
  5
89
330
1F
100
AcDbEntity
  8
Layer 1
 62
     7
100
AcDbPolyline
 90
       67
 70
     1
 43
0.0
 10
21.12522834645669
 20
7.085807086614174
 10
21.08574803149606
 20
7.098716535433071
 10
21.09212204724409
 20
7.110799212598425
 10
21.09806692913386
 20
7.123125984251969
 10
21.10357874015748
 20
7.135692913385827
 10
21.10866141732284
 20
7.148507874015748
 10
21.11330708661417
 20
7.161570866141732
 10
21.11751968503937
 20
7.174877952755906
 10
21.12129921259843
 20
7.188433070866142
 10
21.12463779527559
 20
7.202240157480315
 10
21.12759448818898
 20
7.216346456692913
 10
21.13015354330709
 20
7.230866141732283
 10
21.13231496062992
 20
7.245795275590551
 10
21.13408267716536
 20
7.261141732283464
 10
21.13545669291339
 20
7.27690157480315
 10
21.13643307086614
 20
7.293078740157481
 10
21.13701968503937
 20
7.309665354330709
 10
21.13721653543307
 20
7.326669291338582
 10
21.13701968503937
 20
7.342944881889764
 10
21.13643307086614
 20
7.358917322834646
 10
21.13545669291339
 20
7.374594488188976
 10
21.13408267716536
 20
7.389972440944882
 10
21.13231496062992
 20
7.405062992125984
 10
21.13015354330709
 20
7.419858267716536
 10
21.12759448818898
 20
7.434370078740158
 10
21.12463779527559
 20
7.448598425196851
 10
21.12129921259843
 20
7.462582677165354
 10
21.11751968503937
 20
7.476425196850394
 10
21.11330708661417
 20
7.490125984251969
 10
21.10866141732284
 20
7.503688976377953
 10
21.10357874015748
 20
7.517110236220472
 10
21.09806692913386
 20
7.530393700787402
 10
21.09212204724409
 20
7.543531496062992
 10
21.08574803149606
 20
7.556531496062992
 10
21.12522834645669
 20
7.568527559055118
 10
21.13238976377953
 20
7.555350393700787
 10
21.13907874015748
 20
7.541933070866142
 10
21.14529133858268
 20
7.528271653543307
 10
21.15103149606299
 20
7.514362204724409
 10
21.15629921259843
 20
7.500208661417322
 10
21.16109842519685
 20
7.485807086614173
 10
21.16542519685039
 20
7.471157480314961
 10
21.16928346456693
 20
7.456259842519685
 10
21.17264960629921
 20
7.441106299212598
 10
21.1755748031496
 20
7.42563779527559
 10
21.17804724409449
 20
7.409846456692914
 10
21.18007874015748
 20
7.393744094488189
 10
21.18165748031496
 20
7.377318897637795
 10
21.18278346456693
 20
7.360582677165354
 10
21.18346456692914
 20
7.343531496062992
 10
21.18368897637795
 20
7.326169291338583
 10
21.18346062992126
 20
7.309625984251968
 10
21.18278346456693
 20
7.29328346456693
 10
21.18164566929134
 20
7.277141732283464
 10
21.18005511811024
 20
7.261204724409449
 10
21.17800787401575
 20
7.245472440944882
 10
21.17550393700787
 20
7.22994094488189
 10
21.17253937007874
 20
7.214610236220472
 10
21.16911811023622
 20
7.199488188976378
 10
21.16525984251968
 20
7.184594488188976
 10
21.16093307086614
 20
7.169897637795276
 10
21.15614566929134
 20
7.155397637795276
 10
21.15088976377953
 20
7.141090551181103
 10
21.14516929133858
 20
7.126976377952756
 10
21.13898425196851
 20
7.11305905511811
 10
21.13233858267716
 20
7.099334645669291
 10
21.12522834645669
 20
7.085807086614174
  0
ENDSEC
  0
SECTION
  2
OBJECTS
  0
DICTIONARY
  5
C
330
0
100
AcDbDictionary
281
     1
  3
ACAD_DETAILVIEWSTYLE
350
91
  3
ACAD_GROUP
350
D
  3
ACAD_LAYOUT
350
1A
  3
ACAD_MATERIAL
350
43
  3
ACAD_MLEADERSTYLE
350
5B
  3
ACAD_MLINESTYLE
350
17
  3
ACAD_PLOTSETTINGS
350
19
  3
ACAD_PLOTSTYLENAME
350
E
  3
ACAD_SCALELIST
350
47
  3
ACAD_SECTIONVIEWSTYLE
350
92
  3
ACAD_TABLESTYLE
350
59
  3
ACAD_VISUALSTYLE
350
2A
  3
ACDB_RECOMPOSE_DATA
350
8E
  3
AcDbVariableDictionary
350
8A
  0
SUN
  5
5D
330
29
100
AcDbSun
 90
        1
290
     0
 63
     7
421
 16777215
 40
1.0
291
     1
 91
  2455826
 92
 54000000
292
     0
 70
     2
 71
   256
280
     1
  0
DICTIONARY
  5
91
102
{ACAD_REACTORS
330
C
102
}
330
C
100
AcDbDictionary
281
     1
  0
DICTIONARY
  5
D
102
{ACAD_REACTORS
330
C
102
}
330
C
100
AcDbDictionary
281
     1
  0
DICTIONARY
  5
1A
102
{ACAD_REACTORS
330
C
102
}
330
C
100
AcDbDictionary
281
     1
  3
Layout1
350
1E
  3
Layout2
350
26
  3
Model
350
22
  0
DICTIONARY
  5
43
102
{ACAD_REACTORS
330
C
102
}
330
C
100
AcDbDictionary
281
     1
  3
ByBlock
350
45
  3
ByLayer
350
44
  3
Global
350
46
  0
DICTIONARY
  5
5B
102
{ACAD_REACTORS
330
C
102
}
330
C
100
AcDbDictionary
281
     1
  3
Standard
350
5C
  0
DICTIONARY
  5
17
102
{ACAD_REACTORS
330
C
102
}
330
C
100
AcDbDictionary
281
     1
  3
Standard
350
18
  0
DICTIONARY
  5
19
102
{ACAD_REACTORS
330
C
102
}
330
C
100
AcDbDictionary
281
     1
  0
ACDBDICTIONARYWDFLT
  5
E
102
{ACAD_REACTORS
330
C
102
}
330
C
100
AcDbDictionary
281
     1
  3
Normal
350
F
100
AcDbDictionaryWithDefault
340
F
  0
DICTIONARY
  5
47
102
{ACAD_REACTORS
330
C
102
}
330
C
100
AcDbDictionary
281
     1
  3
A0
350
48
  3
A1
350
49
  3
A2
350
4A
  3
A3
350
4B
  3
A4
350
4C
  3
A5
350
4D
  3
A6
350
4E
  3
A7
350
4F
  3
A8
350
50
  3
A9
350
51
  3
B1
350
52
  3
B2
350
53
  3
B3
350
54
  3
B4
350
55
  3
B5
350
56
  3
B6
350
57
  3
B7
350
58
  0
DICTIONARY
  5
92
102
{ACAD_REACTORS
330
C
102
}
330
C
100
AcDbDictionary
281
     1
  0
DICTIONARY
  5
59
102
{ACAD_REACTORS
330
C
102
}
330
C
100
AcDbDictionary
281
     1
  3
Standard
350
5A
  0
DICTIONARY
  5
2A
102
{ACAD_REACTORS
330
C
102
}
330
C
100
AcDbDictionary
281
     1
  3
2dWireframe
350
2F
  3
Basic
350
32
  3
Brighten
350
36
  3
ColorChange
350
3A
  3
Conceptual
350
34
  3
Dim
350
35
  3
EdgeColorOff
350
3D
  3
Facepattern
350
39
  3
Flat
350
2B
  3
FlatWithEdges
350
2C
  3
Gouraud
350
2D
  3
GouraudWithEdges
350
2E
  3
Hidden
350
31
  3
JitterOff
350
3B
  3
Linepattern
350
38
  3
OverhangOff
350
3C
  3
Realistic
350
33
  3
Shaded
350
42
  3
Shaded with edges
350
41
  3
Shades of Gray
350
3E
  3
Sketchy
350
3F
  3
Thicken
350
37
  3
Wireframe
350
30
  3
X-Ray
350
40
  0
XRECORD
  5
8E
102
{ACAD_REACTORS
330
C
102
}
330
C
100
AcDbXrecord
280
     1
 90
        1
330
5A
  0
DICTIONARY
  5
8A
102
{ACAD_REACTORS
330
C
102
}
330
C
100
AcDbDictionary
281
     1
  3
CANNOSCALE
350
8B
  3
CMLEADERSTYLE
350
90
  3
CTABLESTYLE
350
8F
  0
LAYOUT
  5
1E
102
{ACAD_REACTORS
330
1A
102
}
330
1A
100
AcDbPlotSettings
  1

  2
none_device
  4

  6

 40
0.0
 41
0.0
 42
0.0
 43
0.0
 44
0.0
 45
0.0
 46
0.0
 47
0.0
 48
0.0
 49
0.0
140
0.0
141
0.0
142
1.0
143
1.0
 70
   688
 72
     0
 73
     0
 74
     5
  7

 75
    16
 76
     0
 77
     2
 78
   300
147
1.0
148
0.0
149
0.0
100
AcDbLayout
  1
Layout1
 70
     1
 71
     1
 10
0.0
 20
0.0
 11
12.0
 21
9.0
 12
0.0
 22
0.0
 32
0.0
 14
1.000000000000000E+20
 24
1.000000000000000E+20
 34
1.000000000000000E+20
 15
-1.000000000000000E+20
 25
-1.000000000000000E+20
 35
-1.000000000000000E+20
146
0.0
 13
0.0
 23
0.0
 33
0.0
 16
1.0
 26
0.0
 36
0.0
 17
0.0
 27
1.0
 37
0.0
 76
     0
330
1B
  0
LAYOUT
  5
26
102
{ACAD_REACTORS
330
1A
102
}
330
1A
100
AcDbPlotSettings
  1

  2
none_device
  4

  6

 40
0.0
 41
0.0
 42
0.0
 43
0.0
 44
0.0
 45
0.0
 46
0.0
 47
0.0
 48
0.0
 49
0.0
140
0.0
141
0.0
142
1.0
143
1.0
 70
   688
 72
     0
 73
     0
 74
     5
  7

 75
    16
 76
     0
 77
     2
 78
   300
147
1.0
148
0.0
149
0.0
100
AcDbLayout
  1
Layout2
 70
     1
 71
     2
 10
0.0
 20
0.0
 11
0.0
 21
0.0
 12
0.0
 22
0.0
 32
0.0
 14
0.0
 24
0.0
 34
0.0
 15
0.0
 25
0.0
 35
0.0
146
0.0
 13
0.0
 23
0.0
 33
0.0
 16
1.0
 26
0.0
 36
0.0
 17
0.0
 27
1.0
 37
0.0
 76
     0
330
23
  0
LAYOUT
  5
22
102
{ACAD_REACTORS
330
1A
102
}
330
1A
100
AcDbPlotSettings
  1

  2
none_device
  4
Letter_(8.50_x_11.00_Inches)
  6

 40
6.35
 41
6.35
 42
6.35000508
 43
6.35000508
 44
215.9
 45
279.4
 46
0.0
 47
0.0
 48
0.0
 49
0.0
140
0.0
141
0.0
142
1.0
143
1.0
 70
  1712
 72
     0
 73
     0
 74
     0
  7

 75
     0
 76
     0
 77
     2
 78
   300
147
1.0
148
0.0
149
0.0
100
AcDbLayout
  1
Model
 70
     1
 71
     0
 10
0.0
 20
0.0
 11
12.0
 21
9.0
 12
0.0
 22
0.0
 32
0.0
 14
14.90436220472441
 24
-1.283893700787402
 34
0.0
 15
22.28407874015748
 25
8.053011811023621
 35
0.0
146
0.0
 13
0.0
 23
0.0
 33
0.0
 16
1.0
 26
0.0
 36
0.0
 17
0.0
 27
1.0
 37
0.0
 76
     0
330
1F
331
29
  0
MATERIAL
  5
45
102
{ACAD_REACTORS
330
43
102
}
330
43
100
AcDbMaterial
  1
ByBlock
 72
     1
 94
      127
  0
MATERIAL
  5
44
102
{ACAD_REACTORS
330
43
102
}
330
43
100
AcDbMaterial
  1
ByLayer
 72
     1
 94
      127
  0
MATERIAL
  5
46
102
{ACAD_REACTORS
330
43
102
}
330
43
100
AcDbMaterial
  1
Global
 72
     1
 94
      127
  0
MLEADERSTYLE
  5
5C
102
{ACAD_REACTORS
330
5B
102
}
330
5B
100
AcDbMLeaderStyle
179
     2
170
     2
171
     1
172
     0
 90
        2
 40
0.0
 41
0.0
173
     1
 91
-1056964608
340
14
 92
       -2
290
     1
 42
0.09
291
     1
 43
0.36
  3
Standard
341
0
 44
0.18
300

342
11
174
     1
178
     6
175
     1
176
     0
 93
-1056964608
 45
0.18
292
     0
297
     0
 46
0.18
343
0
 94
-1056964608
 47
1.0
 49
1.0
140
1.0
293
     1
141
0.0
294
     1
177
     0
142
1.0
295
     0
296
     0
143
0.125
271
     0
272
     9
273
     9
298
     0
  0
MLINESTYLE
  5
18
102
{ACAD_REACTORS
330
17
102
}
330
17
100
AcDbMlineStyle
  2
Standard
 70
     0
  3

 62
   256
 51
90.0
 52
90.0
 71
     2
 49
0.5
 62
   256
  6
BYLAYER
 49
-0.5
 62
   256
  6
BYLAYER
  0
ACDBPLACEHOLDER
  5
F
102
{ACAD_REACTORS
330
E
102
}
330
E
  0
SCALE
  5
48
102
{ACAD_REACTORS
330
47
102
}
330
47
100
AcDbScale
 70
     0
300
1:1
140
1.0
141
1.0
290
     1
  0
SCALE
  5
49
102
{ACAD_REACTORS
330
47
102
}
330
47
100
AcDbScale
 70
     0
300
1/128" = 1'-0"
140
0.0078125
141
12.0
290
     0
  0
SCALE
  5
4A
102
{ACAD_REACTORS
330
47
102
}
330
47
100
AcDbScale
 70
     0
300
1/64" = 1'-0"
140
0.015625
141
12.0
290
     0
  0
SCALE
  5
4B
102
{ACAD_REACTORS
330
47
102
}
330
47
100
AcDbScale
 70
     0
300
1/32" = 1'-0"
140
0.03125
141
12.0
290
     0
  0
SCALE
  5
4C
102
{ACAD_REACTORS
330
47
102
}
330
47
100
AcDbScale
 70
     0
300
1/16" = 1'-0"
140
0.0625
141
12.0
290
     0
  0
SCALE
  5
4D
102
{ACAD_REACTORS
330
47
102
}
330
47
100
AcDbScale
 70
     0
300
3/32" = 1'-0"
140
0.09375
141
12.0
290
     0
  0
SCALE
  5
4E
102
{ACAD_REACTORS
330
47
102
}
330
47
100
AcDbScale
 70
     0
300
1/8" = 1'-0"
140
0.125
141
12.0
290
     0
  0
SCALE
  5
4F
102
{ACAD_REACTORS
330
47
102
}
330
47
100
AcDbScale
 70
     0
300
3/16" = 1'-0"
140
0.1875
141
12.0
290
     0
  0
SCALE
  5
50
102
{ACAD_REACTORS
330
47
102
}
330
47
100
AcDbScale
 70
     0
300
1/4" = 1'-0"
140
0.25
141
12.0
290
     0
  0
SCALE
  5
51
102
{ACAD_REACTORS
330
47
102
}
330
47
100
AcDbScale
 70
     0
300
3/8" = 1'-0"
140
0.375
141
12.0
290
     0
  0
SCALE
  5
52
102
{ACAD_REACTORS
330
47
102
}
330
47
100
AcDbScale
 70
     0
300
1/2" = 1'-0"
140
0.5
141
12.0
290
     0
  0
SCALE
  5
53
102
{ACAD_REACTORS
330
47
102
}
330
47
100
AcDbScale
 70
     0
300
3/4" = 1'-0"
140
0.75
141
12.0
290
     0
  0
SCALE
  5
54
102
{ACAD_REACTORS
330
47
102
}
330
47
100
AcDbScale
 70
     0
300
1" = 1'-0"
140
1.0
141
12.0
290
     0
  0
SCALE
  5
55
102
{ACAD_REACTORS
330
47
102
}
330
47
100
AcDbScale
 70
     0
300
1-1/2" = 1'-0"
140
1.5
141
12.0
290
     0
  0
SCALE
  5
56
102
{ACAD_REACTORS
330
47
102
}
330
47
100
AcDbScale
 70
     0
300
3" = 1'-0"
140
3.0
141
12.0
290
     0
  0
SCALE
  5
57
102
{ACAD_REACTORS
330
47
102
}
330
47
100
AcDbScale
 70
     0
300
6" = 1'-0"
140
6.0
141
12.0
290
     0
  0
SCALE
  5
58
102
{ACAD_REACTORS
330
47
102
}
330
47
100
AcDbScale
 70
     0
300
1'-0" = 1'-0"
140
12.0
141
12.0
290
     0
  0
TABLESTYLE
  5
5A
102
{ACAD_REACTORS
330
59
102
}
102
{ACAD_XDICTIONARY
360
8C
102
}
330
59
100
AcDbTableStyle
  3
Standard
 70
     0
 71
     0
 40
0.06
 41
0.06
280
     0
281
     0
  7
Standard
140
0.18
170
     2
 62
     0
 63
   257
283
     0
 90
        4
 91
        0
  1

274
    -2
284
     1
 64
     0
275
    -2
285
     1
 65
     0
276
    -2
286
     1
 66
     0
277
    -2
287
     1
 67
     0
278
    -2
288
     1
 68
     0
279
    -2
289
     1
 69
     0
  7
Standard
140
0.25
170
     5
 62
     0
 63
   257
283
     0
 90
        4
 91
        0
  1

274
    -2
284
     1
 64
     0
275
    -2
285
     1
 65
     0
276
    -2
286
     1
 66
     0
277
    -2
287
     1
 67
     0
278
    -2
288
     1
 68
     0
279
    -2
289
     1
 69
     0
  7
Standard
140
0.18
170
     5
 62
     0
 63
   257
283
     0
 90
        4
 91
        0
  1

274
    -2
284
     1
 64
     0
275
    -2
285
     1
 65
     0
276
    -2
286
     1
 66
     0
277
    -2
287
     1
 67
     0
278
    -2
288
     1
 68
     0
279
    -2
289
     1
 69
     0
  0
VISUALSTYLE
  5
2F
102
{ACAD_REACTORS
330
2A
102
}
330
2A
100
AcDbVisualStyle
  2
2dWireframe
 70
     4
177
     3
291
     0
 70
    58
 90
        0
176
     1
 90
        2
176
     1
 90
        0
176
     1
 90
        0
176
     1
 40
0.6
176
     1
 40
30.0
176
     1
 62
     7
420
 16777215
176
     1
 90
        1
176
     1
 90
        4
176
     1
 62
     7
176
     1
 62
   257
176
     1
 90
        1
176
     1
 90
        1
176
     1
 40
1.0
176
     1
 90
        0
176
     1
 62
   257
176
     1
 40
1.0
176
     1
 90
        1
176
     1
 90
        6
176
     1
 90
        2
176
     1
 62
     7
176
     1
 90
        5
176
     1
 90
        0
176
     1
 90
        0
176
     1
290
     0
176
     1
 90
        1
176
     1
 40
0.0
176
     1
 90
        0
176
     1
290
     1
176
     1
290
     1
176
     1
290
     0
176
     1
290
     0
176
     1
290
     0
176
     1
290
     0
176
     1
290
     0
176
     1
290
     0
176
     1
290
     0
176
     1
 90
       50
176
     1
 40
0.0
176
     1
 40
1.0
176
     1
 90
        0
176
     1
 62
    18
420
        0
176
     1
 90
       50
176
     1
 90
        3
176
     1
 62
     5
420
      255
176
     1
290
     0
176
     1
 90
       50
176
     1
 90
       50
176
     1
 90
       50
176
     1
290
     0
176
     1
 90
       50
176
     1
 62
   256
176
     0
 40
1.0
176
     0
 90
        2
176
     1
  1
strokes_ogs.tif
176
     1
290
     0
176
     1
 40
1.0
176
     1
 40
1.0
176
     1
  0
VISUALSTYLE
  5
32
102
{ACAD_REACTORS
330
2A
102
}
330
2A
100
AcDbVisualStyle
  2
Basic
 70
     7
177
     3
291
     1
 70
    58
 90
        1
176
     1
 90
        0
176
     1
 90
        1
176
     1
 90
        0
176
     1
 40
0.6
176
     1
 40
30.0
176
     1
 62
     7
420
 16777215
176
     1
 90
        0
176
     1
 90
        4
176
     1
 62
     7
176
     1
 62
   257
176
     1
 90
        1
176
     1
 90
        1
176
     1
 40
1.0
176
     1
 90
        8
176
     1
 62
     7
176
     1
 40
1.0
176
     1
 90
        1
176
     1
 90
        6
176
     1
 90
        2
176
     1
 62
     7
176
     1
 90
        5
176
     1
 90
        0
176
     1
 90
        0
176
     1
290
     0
176
     1
 90
        1
176
     1
 40
0.0
176
     1
 90
        0
176
     1
290
     0
176
     1
290
     1
176
     1
290
     1
176
     1
290
     0
176
     1
290
     0
176
     1
290
     0
176
     1
290
     0
176
     1
290
     0
176
     1
290
     0
176
     1
 90
       50
176
     1
 40
0.0
176
     1
 40
1.0
176
     1
 90
        0
176
     1
 62
    18
420
        0
176
     1
 90
       50
176
     1
 90
        3
176
     1
 62
     5
420
      255
176
     1
290
     0
176
     1
 90
       50
176
     1
 90
       50
176
     1
 90
       50
176
     1
290
     0
176
     1
 90
       50
176
     1
 62
   256
176
     0
 40
1.0
176
     0
 90
        2
176
     1
  1
strokes_ogs.tif
176
     1
290
     0
176
     1
 40
1.0
176
     1
 40
1.0
176
     1
  0
VISUALSTYLE
  5
36
102
{ACAD_REACTORS
330
2A
102
}
330
2A
100
AcDbVisualStyle
  2
Brighten
 70
    12
177
     3
291
     1
 70
    58
 90
        2
176
     1
 90
        2
176
     1
 90
        0
176
     1
 90
        0
176
     1
 40
0.6
176
     1
 40
30.0
176
     1
 62
     7
420
 16777215
176
     1
 90
        1
176
     1
 90
        4
176
     1
 62
     7
176
     1
 62
   257
176
     1
 90
        1
176
     1
 90
        1
176
     1
 40
1.0
176
     1
 90
        8
176
     1
 62
     7
176
     1
 40
1.0
176
     1
 90
        1
176
     1
 90
        6
176
     1
 90
        2
176
     1
 62
     7
176
     1
 90
        5
176
     1
 90
        0
176
     1
 90
        0
176
     1
290
     0
176
     1
 90
        1
176
     1
 40
50.0
176
     1
 90
        0
176
     1
290
     0
176
     1
290
     1
176
     1
290
     1
176
     1
290
     0
176
     1
290
     0
176
     1
290
     0
176
     1
290
     0
176
     1
290
     0
176
     1
290
     0
176
     1
 90
       50
176
     1
 40
0.0
176
     1
 40
1.0
176
     1
 90
        0
176
     1
 62
    18
420
        0
176
     1
 90
       50
176
     1
 90
        3
176
     1
 62
     5
420
      255
176
     1
290
     0
176
     1
 90
       50
176
     1
 90
       50
176
     1
 90
       50
176
     1
290
     0
176
     1
 90
       50
176
     1
 62
   256
176
     0
 40
1.0
176
     0
 90
        2
176
     1
  1
strokes_ogs.tif
176
     1
290
     0
176
     1
 40
1.0
176
     1
 40
1.0
176
     1
  0
VISUALSTYLE
  5
3A
102
{ACAD_REACTORS
330
2A
102
}
330
2A
100
AcDbVisualStyle
  2
ColorChange
 70
    16
177
     3
291
     1
 70
    58
 90
        2
176
     1
 90
        2
176
     1
 90
        3
176
     1
 90
        0
176
     1
 40
0.6
176
     1
 40
30.0
176
     1
 62
     8
420
  8421504
176
     1
 90
        1
176
     1
 90
        4
176
     1
 62
     7
176
     1
 62
   257
176
     1
 90
        1
176
     1
 90
        1
176
     1
 40
1.0
176
     1
 90
        8
176
     1
 62
     8
420
  8421504
176
     1
 40
1.0
176
     1
 90
        1
176
     1
 90
        6
176
     1
 90
        2
176
     1
 62
     7
176
     1
 90
        5
176
     1
 90
        0
176
     1
 90
        0
176
     1
290
     0
176
     1
 90
        1
176
     1
 40
0.0
176
     1
 90
        0
176
     1
290
     0
176
     1
290
     1
176
     1
290
     1
176
     1
290
     0
176
     1
290
     0
176
     1
290
     0
176
     1
290
     0
176
     1
290
     0
176
     1
290
     0
176
     1
 90
       50
176
     1
 40
0.0
176
     1
 40
1.0
176
     1
 90
        0
176
     1
 62
    18
420
        0
176
     1
 90
       50
176
     1
 90
        3
176
     1
 62
     5
420
      255
176
     1
290
     0
176
     1
 90
       50
176
     1
 90
       50
176
     1
 90
       50
176
     1
290
     0
176
     1
 90
       50
176
     1
 62
   256
176
     0
 40
1.0
176
     0
 90
        2
176
     1
  1
strokes_ogs.tif
176
     1
290
     0
176
     1
 40
1.0
176
     1
 40
1.0
176
     1
  0
VISUALSTYLE
  5
34
102
{ACAD_REACTORS
330
2A
102
}
330
2A
100
AcDbVisualStyle
  2
Conceptual
 70
     9
177
     3
291
     0
 70
    58
 90
        3
176
     1
 90
        2
176
     1
 90
        0
176
     1
 90
        0
176
     1
 40
0.6
176
     1
 40
30.0
176
     1
 62
     7
420
 16777215
176
     1
 90
        2
176
     1
 90
        2
176
     1
 62
     7
176
     1
 62
   257
176
     1
 90
        1
176
     1
 90
        1
176
     1
 40
179.0
176
     1
 90
        8
176
     1
 62
     7
176
     1
 40
1.0
176
     1
 90
        1
176
     1
 90
        6
176
     1
 90
        2
176
     1
 62
     7
176
     1
 90
        3
176
     1
 90
        0
176
     1
 90
        0
176
     1
290
     0
176
     1
 90
        1
176
     1
 40
0.0
176
     1
 90
        0
176
     1
290
     0
176
     1
290
     1
176
     1
290
     1
176
     1
290
     0
176
     1
290
     0
176
     1
290
     0
176
     1
290
     0
176
     1
290
     0
176
     1
290
     0
176
     1
 90
       50
176
     1
 40
0.0
176
     1
 40
1.0
176
     1
 90
        0
176
     1
 62
    18
420
        0
176
     1
 90
       50
176
     1
 90
        3
176
     1
 62
     5
420
      255
176
     1
290
     0
176
     1
 90
       50
176
     1
 90
       50
176
     1
 90
       50
176
     1
290
     0
176
     1
 90
       50
176
     1
 62
   256
176
     0
 40
1.0
176
     0
 90
        2
176
     1
  1
strokes_ogs.tif
176
     1
290
     0
176
     1
 40
1.0
176
     1
 40
1.0
176
     1
  0
VISUALSTYLE
  5
35
102
{ACAD_REACTORS
330
2A
102
}
330
2A
100
AcDbVisualStyle
  2
Dim
 70
    11
177
     3
291
     1
 70
    58
 90
        2
176
     1
 90
        2
176
     1
 90
        0
176
     1
 90
        0
176
     1
 40
0.6
176
     1
 40
30.0
176
     1
 62
     7
420
 16777215
176
     1
 90
        1
176
     1
 90
        4
176
     1
 62
     7
176
     1
 62
   257
176
     1
 90
        1
176
     1
 90
        1
176
     1
 40
1.0
176
     1
 90
        8
176
     1
 62
     7
176
     1
 40
1.0
176
     1
 90
        1
176
     1
 90
        6
176
     1
 90
        2
176
     1
 62
     7
176
     1
 90
        5
176
     1
 90
        0
176
     1
 90
        0
176
     1
290
     0
176
     1
 90
        1
176
     1
 40
-50.0
176
     1
 90
        0
176
     1
290
     0
176
     1
290
     1
176
     1
290
     1
176
     1
290
     0
176
     1
290
     0
176
     1
290
     0
176
     1
290
     0
176
     1
290
     0
176
     1
290
     0
176
     1
 90
       50
176
     1
 40
0.0
176
     1
 40
1.0
176
     1
 90
        0
176
     1
 62
    18
420
        0
176
     1
 90
       50
176
     1
 90
        3
176
     1
 62
     5
420
      255
176
     1
290
     0
176
     1
 90
       50
176
     1
 90
       50
176
     1
 90
       50
176
     1
290
     0
176
     1
 90
       50
176
     1
 62
   256
176
     0
 40
1.0
176
     0
 90
        2
176
     1
  1
strokes_ogs.tif
176
     1
290
     0
176
     1
 40
1.0
176
     1
 40
1.0
176
     1
  0
VISUALSTYLE
  5
3D
102
{ACAD_REACTORS
330
2A
102
}
330
2A
100
AcDbVisualStyle
  2
EdgeColorOff
 70
    22
177
     3
291
     1
 70
    58
 90
        2
176
     0
 90
        2
176
     0
 90
        0
176
     0
 90
        0
176
     0
 40
0.6
176
     0
 40
30.0
176
     0
 62
     7
420
 16777215
176
     0
 90
        1
176
     0
 90
        4
176
     0
 62
     7
176
     0
 62
   257
176
     0
 90
        1
176
     0
 90
        1
176
     0
 40
1.0
176
     0
 90
        8
176
     2
 62
     7
176
     0
 40
1.0
176
     0
 90
        1
176
     0
 90
        6
176
     0
 90
        2
176
     0
 62
     7
176
     0
 90
        5
176
     0
 90
        0
176
     0
 90
        0
176
     0
290
     0
176
     0
 90
        1
176
     0
 40
0.0
176
     0
 90
        0
176
     0
290
     0
176
     0
290
     1
176
     0
290
     1
176
     0
290
     0
176
     0
290
     0
176
     0
290
     0
176
     0
290
     0
176
     0
290
     0
176
     0
290
     0
176
     0
 90
       50
176
     0
 40
0.0
176
     0
 40
1.0
176
     0
 90
        0
176
     0
 62
    18
420
        0
176
     0
 90
       50
176
     0
 90
        3
176
     0
 62
     5
420
      255
176
     0
290
     0
176
     0
 90
       50
176
     0
 90
       50
176
     0
 90
       50
176
     0
290
     0
176
     0
 90
       50
176
     0
 62
   256
176
     0
 40
1.0
176
     0
 90
        2
176
     0
  1
strokes_ogs.tif
176
     0
290
     0
176
     0
 40
1.0
176
     0
 40
1.0
176
     0
  0
VISUALSTYLE
  5
39
102
{ACAD_REACTORS
330
2A
102
}
330
2A
100
AcDbVisualStyle
  2
Facepattern
 70
    15
177
     3
291
     1
 70
    58
 90
        2
176
     1
 90
        2
176
     1
 90
        0
176
     1
 90
        0
176
     1
 40
0.6
176
     1
 40
30.0
176
     1
 62
     7
420
 16777215
176
     1
 90
        1
176
     1
 90
        4
176
     1
 62
     7
176
     1
 62
   257
176
     1
 90
        1
176
     1
 90
        1
176
     1
 40
1.0
176
     1
 90
        8
176
     1
 62
     7
176
     1
 40
1.0
176
     1
 90
        1
176
     1
 90
        6
176
     1
 90
        2
176
     1
 62
     7
176
     1
 90
        5
176
     1
 90
        0
176
     1
 90
        0
176
     1
290
     0
176
     1
 90
        1
176
     1
 40
0.0
176
     1
 90
        0
176
     1
290
     0
176
     1
290
     1
176
     1
290
     1
176
     1
290
     0
176
     1
290
     0
176
     1
290
     0
176
     1
290
     0
176
     1
290
     0
176
     1
290
     0
176
     1
 90
       50
176
     1
 40
0.0
176
     1
 40
1.0
176
     1
 90
        0
176
     1
 62
    18
420
        0
176
     1
 90
       50
176
     1
 90
        3
176
     1
 62
     5
420
      255
176
     1
290
     0
176
     1
 90
       50
176
     1
 90
       50
176
     1
 90
       50
176
     1
290
     0
176
     1
 90
       50
176
     1
 62
   256
176
     0
 40
1.0
176
     0
 90
        2
176
     1
  1
strokes_ogs.tif
176
     1
290
     0
176
     1
 40
1.0
176
     1
 40
1.0
176
     1
  0
VISUALSTYLE
  5
2B
102
{ACAD_REACTORS
330
2A
102
}
330
2A
100
AcDbVisualStyle
  2
Flat
 70
     0
177
     3
291
     1
 70
    58
 90
        2
176
     1
 90
        1
176
     1
 90
        1
176
     1
 90
        2
176
     1
 40
0.6
176
     1
 40
30.0
176
     1
 62
     7
420
 16777215
176
     1
 90
        0
176
     1
 90
        0
176
     1
 62
     7
176
     1
 62
   257
176
     1
 90
        1
176
     1
 90
        1
176
     1
 40
1.0
176
     1
 90
        8
176
     1
 62
     7
176
     1
 40
1.0
176
     1
 90
        1
176
     1
 90
        6
176
     1
 90
        2
176
     1
 62
     7
176
     1
 90
        5
176
     1
 90
        0
176
     1
 90
        0
176
     1
290
     0
176
     1
 90
       13
176
     1
 40
0.0
176
     1
 90
        0
176
     1
290
     0
176
     1
290
     1
176
     1
290
     1
176
     1
290
     0
176
     1
290
     0
176
     1
290
     0
176
     1
290
     0
176
     1
290
     0
176
     1
290
     0
176
     1
 90
       50
176
     1
 40
0.0
176
     1
 40
1.0
176
     1
 90
        0
176
     1
 62
    18
420
        0
176
     1
 90
       50
176
     1
 90
        3
176
     1
 62
     5
420
      255
176
     1
290
     0
176
     1
 90
       50
176
     1
 90
       50
176
     1
 90
       50
176
     1
290
     0
176
     1
 90
       50
176
     1
 62
   256
176
     0
 40
1.0
176
     0
 90
        2
176
     1
  1
strokes_ogs.tif
176
     1
290
     0
176
     1
 40
1.0
176
     1
 40
1.0
176
     1
  0
VISUALSTYLE
  5
2C
102
{ACAD_REACTORS
330
2A
102
}
330
2A
100
AcDbVisualStyle
  2
FlatWithEdges
 70
     1
177
     3
291
     1
 70
    58
 90
        2
176
     1
 90
        1
176
     1
 90
        1
176
     1
 90
        2
176
     1
 40
0.6
176
     1
 40
30.0
176
     1
 62
     7
420
 16777215
176
     1
 90
        1
176
     1
 90
        0
176
     1
 62
     7
176
     1
 62
   257
176
     1
 90
        1
176
     1
 90
        1
176
     1
 40
1.0
176
     1
 90
        0
176
     1
 62
   257
176
     1
 40
1.0
176
     1
 90
        1
176
     1
 90
        6
176
     1
 90
        2
176
     1
 62
     7
176
     1
 90
        5
176
     1
 90
        0
176
     1
 90
        0
176
     1
290
     0
176
     1
 90
       13
176
     1
 40
0.0
176
     1
 90
        0
176
     1
290
     0
176
     1
290
     1
176
     1
290
     1
176
     1
290
     0
176
     1
290
     0
176
     1
290
     0
176
     1
290
     0
176
     1
290
     0
176
     1
290
     0
176
     1
 90
       50
176
     1
 40
0.0
176
     1
 40
1.0
176
     1
 90
        0
176
     1
 62
    18
420
        0
176
     1
 90
       50
176
     1
 90
        3
176
     1
 62
     5
420
      255
176
     1
290
     0
176
     1
 90
       50
176
     1
 90
       50
176
     1
 90
       50
176
     1
290
     0
176
     1
 90
       50
176
     1
 62
   256
176
     0
 40
1.0
176
     0
 90
        2
176
     1
  1
strokes_ogs.tif
176
     1
290
     0
176
     1
 40
1.0
176
     1
 40
1.0
176
     1
  0
VISUALSTYLE
  5
2D
102
{ACAD_REACTORS
330
2A
102
}
330
2A
100
AcDbVisualStyle
  2
Gouraud
 70
     2
177
     3
291
     1
 70
    58
 90
        2
176
     1
 90
        2
176
     1
 90
        1
176
     1
 90
        2
176
     1
 40
0.6
176
     1
 40
30.0
176
     1
 62
     7
420
 16777215
176
     1
 90
        0
176
     1
 90
        0
176
     1
 62
     7
176
     1
 62
   257
176
     1
 90
        1
176
     1
 90
        1
176
     1
 40
1.0
176
     1
 90
        0
176
     1
 62
     7
176
     1
 40
1.0
176
     1
 90
        1
176
     1
 90
        6
176
     1
 90
        2
176
     1
 62
     7
176
     1
 90
        5
176
     1
 90
        0
176
     1
 90
        0
176
     1
290
     0
176
     1
 90
       13
176
     1
 40
0.0
176
     1
 90
        0
176
     1
290
     0
176
     1
290
     1
176
     1
290
     1
176
     1
290
     0
176
     1
290
     0
176
     1
290
     0
176
     1
290
     0
176
     1
290
     0
176
     1
290
     0
176
     1
 90
       50
176
     1
 40
0.0
176
     1
 40
1.0
176
     1
 90
        0
176
     1
 62
    18
420
        0
176
     1
 90
       50
176
     1
 90
        3
176
     1
 62
     5
420
      255
176
     1
290
     0
176
     1
 90
       50
176
     1
 90
       50
176
     1
 90
       50
176
     1
290
     0
176
     1
 90
       50
176
     1
 62
   256
176
     0
 40
1.0
176
     0
 90
        2
176
     1
  1
strokes_ogs.tif
176
     1
290
     0
176
     1
 40
1.0
176
     1
 40
1.0
176
     1
  0
VISUALSTYLE
  5
2E
102
{ACAD_REACTORS
330
2A
102
}
330
2A
100
AcDbVisualStyle
  2
GouraudWithEdges
 70
     3
177
     3
291
     1
 70
    58
 90
        2
176
     1
 90
        2
176
     1
 90
        1
176
     1
 90
        2
176
     1
 40
0.6
176
     1
 40
30.0
176
     1
 62
     7
420
 16777215
176
     1
 90
        1
176
     1
 90
        0
176
     1
 62
     7
176
     1
 62
   257
176
     1
 90
        1
176
     1
 90
        1
176
     1
 40
1.0
176
     1
 90
        0
176
     1
 62
   257
176
     1
 40
1.0
176
     1
 90
        1
176
     1
 90
        6
176
     1
 90
        2
176
     1
 62
     7
176
     1
 90
        5
176
     1
 90
        0
176
     1
 90
        0
176
     1
290
     0
176
     1
 90
       13
176
     1
 40
0.0
176
     1
 90
        0
176
     1
290
     0
176
     1
290
     1
176
     1
290
     1
176
     1
290
     0
176
     1
290
     0
176
     1
290
     0
176
     1
290
     0
176
     1
290
     0
176
     1
290
     0
176
     1
 90
       50
176
     1
 40
0.0
176
     1
 40
1.0
176
     1
 90
        0
176
     1
 62
    18
420
        0
176
     1
 90
       50
176
     1
 90
        3
176
     1
 62
     5
420
      255
176
     1
290
     0
176
     1
 90
       50
176
     1
 90
       50
176
     1
 90
       50
176
     1
290
     0
176
     1
 90
       50
176
     1
 62
   256
176
     0
 40
1.0
176
     0
 90
        2
176
     1
  1
strokes_ogs.tif
176
     1
290
     0
176
     1
 40
1.0
176
     1
 40
1.0
176
     1
  0
VISUALSTYLE
  5
31
102
{ACAD_REACTORS
330
2A
102
}
330
2A
100
AcDbVisualStyle
  2
Hidden
 70
     6
177
     3
291
     0
 70
    58
 90
        1
176
     1
 90
        2
176
     1
 90
        2
176
     1
 90
        0
176
     1
 40
0.6
176
     1
 40
30.0
176
     1
 62
     7
420
 16777215
176
     1
 90
        2
176
     1
 90
        2
176
     1
 62
     7
176
     1
 62
   257
176
     1
 90
        2
176
     1
 90
        1
176
     1
 40
40.0
176
     1
 90
        0
176
     1
 62
   257
176
     1
 40
1.0
176
     1
 90
        1
176
     1
 90
        6
176
     1
 90
        2
176
     1
 62
     7
176
     1
 90
        3
176
     1
 90
        0
176
     1
 90
        0
176
     1
290
     0
176
     1
 90
        1
176
     1
 40
0.0
176
     1
 90
        0
176
     1
290
     0
176
     1
290
     1
176
     1
290
     1
176
     1
290
     0
176
     1
290
     0
176
     1
290
     0
176
     1
290
     0
176
     1
290
     0
176
     1
290
     0
176
     1
 90
       50
176
     1
 40
0.0
176
     1
 40
1.0
176
     1
 90
        0
176
     1
 62
    18
420
        0
176
     1
 90
       50
176
     1
 90
        3
176
     1
 62
     5
420
      255
176
     1
290
     0
176
     1
 90
       50
176
     1
 90
       50
176
     1
 90
       50
176
     1
290
     0
176
     1
 90
       50
176
     1
 62
   256
176
     0
 40
1.0
176
     0
 90
        2
176
     1
  1
strokes_ogs.tif
176
     1
290
     0
176
     1
 40
1.0
176
     1
 40
1.0
176
     1
  0
VISUALSTYLE
  5
3B
102
{ACAD_REACTORS
330
2A
102
}
330
2A
100
AcDbVisualStyle
  2
JitterOff
 70
    20
177
     3
291
     1
 70
    58
 90
        2
176
     0
 90
        2
176
     0
 90
        0
176
     0
 90
        0
176
     0
 40
0.6
176
     0
 40
30.0
176
     0
 62
     7
420
 16777215
176
     0
 90
        1
176
     0
 90
        4
176
     0
 62
     7
176
     0
 62
   257
176
     0
 90
        1
176
     0
 90
        1
176
     0
 40
1.0
176
     0
 90
       10
176
     2
 62
     7
176
     0
 40
1.0
176
     0
 90
        1
176
     0
 90
        6
176
     0
 90
        2
176
     0
 62
     7
176
     0
 90
        5
176
     0
 90
        0
176
     0
 90
        0
176
     0
290
     0
176
     0
 90
        1
176
     0
 40
0.0
176
     0
 90
        0
176
     0
290
     0
176
     0
290
     1
176
     0
290
     1
176
     0
290
     0
176
     0
290
     0
176
     0
290
     0
176
     0
290
     0
176
     0
290
     0
176
     0
290
     0
176
     0
 90
       50
176
     0
 40
0.0
176
     0
 40
1.0
176
     0
 90
        0
176
     0
 62
    18
420
        0
176
     0
 90
       50
176
     0
 90
        3
176
     0
 62
     5
420
      255
176
     0
290
     0
176
     0
 90
       50
176
     0
 90
       50
176
     0
 90
       50
176
     0
290
     0
176
     0
 90
       50
176
     0
 62
   256
176
     0
 40
1.0
176
     0
 90
        2
176
     0
  1
strokes_ogs.tif
176
     0
290
     0
176
     0
 40
1.0
176
     0
 40
1.0
176
     0
  0
VISUALSTYLE
  5
38
102
{ACAD_REACTORS
330
2A
102
}
330
2A
100
AcDbVisualStyle
  2
Linepattern
 70
    14
177
     3
291
     1
 70
    58
 90
        2
176
     1
 90
        2
176
     1
 90
        0
176
     1
 90
        0
176
     1
 40
0.6
176
     1
 40
30.0
176
     1
 62
     7
420
 16777215
176
     1
 90
        1
176
     1
 90
        4
176
     1
 62
     7
176
     1
 62
   257
176
     1
 90
        7
176
     1
 90
        7
176
     1
 40
1.0
176
     1
 90
        8
176
     1
 62
     7
176
     1
 40
1.0
176
     1
 90
        1
176
     1
 90
        6
176
     1
 90
        2
176
     1
 62
     7
176
     1
 90
        5
176
     1
 90
        0
176
     1
 90
        0
176
     1
290
     0
176
     1
 90
        1
176
     1
 40
0.0
176
     1
 90
        0
176
     1
290
     0
176
     1
290
     1
176
     1
290
     1
176
     1
290
     0
176
     1
290
     0
176
     1
290
     0
176
     1
290
     0
176
     1
290
     0
176
     1
290
     0
176
     1
 90
       50
176
     1
 40
0.0
176
     1
 40
1.0
176
     1
 90
        0
176
     1
 62
    18
420
        0
176
     1
 90
       50
176
     1
 90
        3
176
     1
 62
     5
420
      255
176
     1
290
     0
176
     1
 90
       50
176
     1
 90
       50
176
     1
 90
       50
176
     1
290
     0
176
     1
 90
       50
176
     1
 62
   256
176
     0
 40
1.0
176
     0
 90
        2
176
     1
  1
strokes_ogs.tif
176
     1
290
     0
176
     1
 40
1.0
176
     1
 40
1.0
176
     1
  0
VISUALSTYLE
  5
3C
102
{ACAD_REACTORS
330
2A
102
}
330
2A
100
AcDbVisualStyle
  2
OverhangOff
 70
    21
177
     3
291
     1
 70
    58
 90
        2
176
     0
 90
        2
176
     0
 90
        0
176
     0
 90
        0
176
     0
 40
0.6
176
     0
 40
30.0
176
     0
 62
     7
420
 16777215
176
     0
 90
        1
176
     0
 90
        4
176
     0
 62
     7
176
     0
 62
   257
176
     0
 90
        1
176
     0
 90
        1
176
     0
 40
1.0
176
     0
 90
        9
176
     2
 62
     7
176
     0
 40
1.0
176
     0
 90
        1
176
     0
 90
        6
176
     0
 90
        2
176
     0
 62
     7
176
     0
 90
        5
176
     0
 90
        0
176
     0
 90
        0
176
     0
290
     0
176
     0
 90
        1
176
     0
 40
0.0
176
     0
 90
        0
176
     0
290
     0
176
     0
290
     1
176
     0
290
     1
176
     0
290
     0
176
     0
290
     0
176
     0
290
     0
176
     0
290
     0
176
     0
290
     0
176
     0
290
     0
176
     0
 90
       50
176
     0
 40
0.0
176
     0
 40
1.0
176
     0
 90
        0
176
     0
 62
    18
420
        0
176
     0
 90
       50
176
     0
 90
        3
176
     0
 62
     5
420
      255
176
     0
290
     0
176
     0
 90
       50
176
     0
 90
       50
176
     0
 90
       50
176
     0
290
     0
176
     0
 90
       50
176
     0
 62
   256
176
     0
 40
1.0
176
     0
 90
        2
176
     0
  1
strokes_ogs.tif
176
     0
290
     0
176
     0
 40
1.0
176
     0
 40
1.0
176
     0
  0
VISUALSTYLE
  5
33
102
{ACAD_REACTORS
330
2A
102
}
330
2A
100
AcDbVisualStyle
  2
Realistic
 70
     8
177
     3
291
     0
 70
    58
 90
        2
176
     1
 90
        3
176
     1
 90
        0
176
     1
 90
        2
176
     1
 40
0.6
176
     1
 40
30.0
176
     1
 62
     7
420
 16777215
176
     1
 90
        0
176
     1
 90
        0
176
     1
 62
     7
176
     1
 62
   257
176
     1
 90
        1
176
     1
 90
        1
176
     1
 40
1.0
176
     1
 90
        8
176
     1
 62
   257
176
     1
 40
1.0
176
     1
 90
        1
176
     1
 90
        6
176
     1
 90
        2
176
     1
 62
     7
176
     1
 90
        3
176
     1
 90
        0
176
     1
 90
        0
176
     1
290
     0
176
     1
 90
       13
176
     1
 40
0.0
176
     1
 90
        0
176
     1
290
     0
176
     1
290
     1
176
     1
290
     1
176
     1
290
     0
176
     1
290
     0
176
     1
290
     0
176
     1
290
     0
176
     1
290
     0
176
     1
290
     0
176
     1
 90
       50
176
     1
 40
0.0
176
     1
 40
1.0
176
     1
 90
        0
176
     1
 62
    18
420
        0
176
     1
 90
       50
176
     1
 90
        3
176
     1
 62
     5
420
      255
176
     1
290
     0
176
     1
 90
       50
176
     1
 90
       50
176
     1
 90
       50
176
     1
290
     0
176
     1
 90
       50
176
     1
 62
   256
176
     0
 40
1.0
176
     0
 90
        2
176
     1
  1
strokes_ogs.tif
176
     1
290
     0
176
     1
 40
1.0
176
     1
 40
1.0
176
     1
  0
VISUALSTYLE
  5
42
102
{ACAD_REACTORS
330
2A
102
}
330
2A
100
AcDbVisualStyle
  2
Shaded
 70
    27
177
     3
291
     0
 70
    58
 90
        2
176
     1
 90
        2
176
     1
 90
        1
176
     1
 90
        2
176
     1
 40
0.6
176
     1
 40
30.0
176
     1
 62
     7
420
 16777215
176
     1
 90
        0
176
     1
 90
        4
176
     1
 62
     7
176
     1
 62
   257
176
     1
 90
        1
176
     1
 90
        1
176
     1
 40
1.0
176
     1
 90
        8
176
     1
 62
   257
176
     1
 40
1.0
176
     1
 90
        1
176
     1
 90
        6
176
     1
 90
        2
176
     1
 62
     8
420
  7895160
176
     1
 90
        3
176
     1
 90
        0
176
     1
 90
        0
176
     1
290
     0
176
     1
 90
        5
176
     1
 40
0.0
176
     1
 90
        0
176
     1
290
     0
176
     1
290
     1
176
     1
290
     1
176
     1
290
     0
176
     1
290
     0
176
     1
290
     0
176
     1
290
     0
176
     1
290
     0
176
     1
290
     0
176
     1
 90
       50
176
     1
 40
0.0
176
     1
 40
1.0
176
     1
 90
        0
176
     1
 62
    18
420
        0
176
     1
 90
       50
176
     1
 90
        3
176
     1
 62
     5
420
      255
176
     1
290
     0
176
     1
 90
       50
176
     1
 90
       50
176
     1
 90
       50
176
     1
290
     0
176
     1
 90
       50
176
     1
 62
   256
176
     0
 40
1.0
176
     0
 90
        2
176
     1
  1
strokes_ogs.tif
176
     1
290
     0
176
     1
 40
1.0
176
     1
 40
1.0
176
     1
  0
VISUALSTYLE
  5
41
102
{ACAD_REACTORS
330
2A
102
}
330
2A
100
AcDbVisualStyle
  2
Shaded with edges
 70
    26
177
     3
291
     0
 70
    58
 90
        2
176
     1
 90
        2
176
     1
 90
        1
176
     1
 90
        2
176
     1
 40
0.6
176
     1
 40
30.0
176
     1
 62
     7
420
 16777215
176
     1
 90
        1
176
     1
 90
       10
176
     1
 62
     7
176
     1
 62
   257
176
     1
 90
        2
176
     1
 90
        1
176
     1
 40
1.0
176
     1
 90
        8
176
     1
 62
   257
176
     1
 40
1.0
176
     1
 90
        1
176
     1
 90
        6
176
     1
 90
        2
176
     1
 62
     7
176
     1
 90
        3
176
     1
 90
        0
176
     1
 90
        0
176
     1
290
     0
176
     1
 90
        5
176
     1
 40
0.0
176
     1
 90
        0
176
     1
290
     0
176
     1
290
     1
176
     1
290
     1
176
     1
290
     0
176
     1
290
     0
176
     1
290
     0
176
     1
290
     0
176
     1
290
     0
176
     1
290
     0
176
     1
 90
       50
176
     1
 40
0.0
176
     1
 40
1.0
176
     1
 90
        0
176
     1
 62
    18
420
        0
176
     1
 90
       50
176
     1
 90
        3
176
     1
 62
     5
420
      255
176
     1
290
     0
176
     1
 90
       50
176
     1
 90
       50
176
     1
 90
       50
176
     1
290
     0
176
     1
 90
       50
176
     1
 62
   256
176
     0
 40
1.0
176
     0
 90
        2
176
     1
  1
strokes_ogs.tif
176
     1
290
     0
176
     1
 40
1.0
176
     1
 40
1.0
176
     1
  0
VISUALSTYLE
  5
3E
102
{ACAD_REACTORS
330
2A
102
}
330
2A
100
AcDbVisualStyle
  2
Shades of Gray
 70
    23
177
     3
291
     0
 70
    58
 90
        2
176
     1
 90
        2
176
     1
 90
        3
176
     1
 90
        0
176
     1
 40
0.6
176
     1
 40
30.0
176
     1
 62
     7
420
 16777215
176
     1
 90
        2
176
     1
 90
        2
176
     1
 62
     7
176
     1
 62
     7
176
     1
 90
        1
176
     1
 90
        1
176
     1
 40
40.0
176
     1
 90
        8
176
     1
 62
     7
176
     1
 40
1.0
176
     1
 90
        1
176
     1
 90
        6
176
     1
 90
        2
176
     1
 62
     7
176
     1
 90
        3
176
     1
 90
        0
176
     1
 90
        0
176
     1
290
     0
176
     1
 90
        1
176
     1
 40
0.0
176
     1
 90
        0
176
     1
290
     0
176
     1
290
     1
176
     1
290
     1
176
     1
290
     0
176
     1
290
     0
176
     1
290
     0
176
     1
290
     0
176
     1
290
     0
176
     1
290
     0
176
     1
 90
       50
176
     1
 40
0.0
176
     1
 40
1.0
176
     1
 90
        0
176
     1
 62
    18
420
        0
176
     1
 90
       50
176
     1
 90
        3
176
     1
 62
     5
420
      255
176
     1
290
     0
176
     1
 90
       50
176
     1
 90
       50
176
     1
 90
       50
176
     1
290
     0
176
     1
 90
       50
176
     1
 62
   256
176
     0
 40
1.0
176
     0
 90
        2
176
     1
  1
strokes_ogs.tif
176
     1
290
     0
176
     1
 40
1.0
176
     1
 40
1.0
176
     1
  0
VISUALSTYLE
  5
3F
102
{ACAD_REACTORS
330
2A
102
}
330
2A
100
AcDbVisualStyle
  2
Sketchy
 70
    24
177
     3
291
     0
 70
    58
 90
        1
176
     1
 90
        2
176
     1
 90
        2
176
     1
 90
        0
176
     1
 40
0.6
176
     1
 40
30.0
176
     1
 62
     7
420
 16777215
176
     1
 90
        2
176
     1
 90
        2
176
     1
 62
     7
176
     1
 62
     7
176
     1
 90
        1
176
     1
 90
        1
176
     1
 40
40.0
176
     1
 90
       11
176
     1
 62
     7
176
     1
 40
1.0
176
     1
 90
        1
176
     1
 90
        6
176
     1
 90
        2
176
     1
 62
     7
176
     1
 90
        6
176
     1
 90
        0
176
     1
 90
        0
176
     1
290
     0
176
     1
 90
        1
176
     1
 40
0.0
176
     1
 90
        0
176
     1
290
     0
176
     1
290
     1
176
     1
290
     1
176
     1
290
     0
176
     1
290
     0
176
     1
290
     0
176
     1
290
     0
176
     1
290
     0
176
     1
290
     0
176
     1
 90
       50
176
     1
 40
0.0
176
     1
 40
1.0
176
     1
 90
        0
176
     1
 62
    18
420
        0
176
     1
 90
       50
176
     1
 90
        3
176
     1
 62
     5
420
      255
176
     1
290
     0
176
     1
 90
       50
176
     1
 90
       50
176
     1
 90
       50
176
     1
290
     0
176
     1
 90
       50
176
     1
 62
   256
176
     0
 40
1.0
176
     0
 90
        2
176
     1
  1
strokes_ogs.tif
176
     1
290
     0
176
     1
 40
1.0
176
     1
 40
1.0
176
     1
  0
VISUALSTYLE
  5
37
102
{ACAD_REACTORS
330
2A
102
}
330
2A
100
AcDbVisualStyle
  2
Thicken
 70
    13
177
     3
291
     1
 70
    58
 90
        2
176
     1
 90
        2
176
     1
 90
        0
176
     1
 90
        0
176
     1
 40
0.6
176
     1
 40
30.0
176
     1
 62
     7
420
 16777215
176
     1
 90
        1
176
     1
 90
        4
176
     1
 62
     7
176
     1
 62
   257
176
     1
 90
        1
176
     1
 90
        1
176
     1
 40
1.0
176
     1
 90
       12
176
     1
 62
     7
176
     1
 40
1.0
176
     1
 90
        1
176
     1
 90
        6
176
     1
 90
        2
176
     1
 62
     7
176
     1
 90
        5
176
     1
 90
        0
176
     1
 90
        0
176
     1
290
     0
176
     1
 90
        1
176
     1
 40
0.0
176
     1
 90
        0
176
     1
290
     0
176
     1
290
     1
176
     1
290
     1
176
     1
290
     0
176
     1
290
     0
176
     1
290
     0
176
     1
290
     0
176
     1
290
     0
176
     1
290
     0
176
     1
 90
       50
176
     1
 40
0.0
176
     1
 40
1.0
176
     1
 90
        0
176
     1
 62
    18
420
        0
176
     1
 90
       50
176
     1
 90
        3
176
     1
 62
     5
420
      255
176
     1
290
     0
176
     1
 90
       50
176
     1
 90
       50
176
     1
 90
       50
176
     1
290
     0
176
     1
 90
       50
176
     1
 62
   256
176
     0
 40
1.0
176
     0
 90
        2
176
     1
  1
strokes_ogs.tif
176
     1
290
     0
176
     1
 40
1.0
176
     1
 40
1.0
176
     1
  0
VISUALSTYLE
  5
30
102
{ACAD_REACTORS
330
2A
102
}
330
2A
100
AcDbVisualStyle
  2
Wireframe
 70
     5
177
     3
291
     0
 70
    58
 90
        0
176
     1
 90
        2
176
     1
 90
        0
176
     1
 90
        0
176
     1
 40
0.6
176
     1
 40
30.0
176
     1
 62
     7
420
 16777215
176
     1
 90
        1
176
     1
 90
        4
176
     1
 62
     7
176
     1
 62
   257
176
     1
 90
        1
176
     1
 90
        1
176
     1
 40
1.0
176
     1
 90
        0
176
     1
 62
   257
176
     1
 40
1.0
176
     1
 90
        1
176
     1
 90
        6
176
     1
 90
        2
176
     1
 62
     7
176
     1
 90
        3
176
     1
 90
        0
176
     1
 90
        0
176
     1
290
     0
176
     1
 90
        1
176
     1
 40
0.0
176
     1
 90
        0
176
     1
290
     0
176
     1
290
     1
176
     1
290
     1
176
     1
290
     0
176
     1
290
     0
176
     1
290
     0
176
     1
290
     0
176
     1
290
     0
176
     1
290
     0
176
     1
 90
       50
176
     1
 40
0.0
176
     1
 40
1.0
176
     1
 90
        0
176
     1
 62
    18
420
        0
176
     1
 90
       50
176
     1
 90
        3
176
     1
 62
     5
420
      255
176
     1
290
     0
176
     1
 90
       50
176
     1
 90
       50
176
     1
 90
       50
176
     1
290
     0
176
     1
 90
       50
176
     1
 62
   256
176
     0
 40
1.0
176
     0
 90
        2
176
     1
  1
strokes_ogs.tif
176
     1
290
     0
176
     1
 40
1.0
176
     1
 40
1.0
176
     1
  0
VISUALSTYLE
  5
40
102
{ACAD_REACTORS
330
2A
102
}
330
2A
100
AcDbVisualStyle
  2
X-Ray
 70
    25
177
     3
291
     0
 70
    58
 90
        2
176
     1
 90
        2
176
     1
 90
        1
176
     1
 90
        1
176
     1
 40
0.5
176
     1
 40
30.0
176
     1
 62
     7
420
 16777215
176
     1
 90
        1
176
     1
 90
        0
176
     1
 62
     7
176
     1
 62
   257
176
     1
 90
        1
176
     1
 90
        1
176
     1
 40
1.0
176
     1
 90
        8
176
     1
 62
     7
176
     1
 40
1.0
176
     1
 90
        1
176
     1
 90
        6
176
     1
 90
        2
176
     1
 62
     7
176
     1
 90
        3
176
     1
 90
        0
176
     1
 90
        0
176
     1
290
     0
176
     1
 90
       13
176
     1
 40
0.0
176
     1
 90
        0
176
     1
290
     0
176
     1
290
     1
176
     1
290
     1
176
     1
290
     0
176
     1
290
     0
176
     1
290
     0
176
     1
290
     0
176
     1
290
     0
176
     1
290
     0
176
     1
 90
       50
176
     1
 40
0.0
176
     1
 40
1.0
176
     1
 90
        0
176
     1
 62
    18
420
        0
176
     1
 90
       50
176
     1
 90
        3
176
     1
 62
     5
420
      255
176
     1
290
     0
176
     1
 90
       50
176
     1
 90
       50
176
     1
 90
       50
176
     1
290
     0
176
     1
 90
       50
176
     1
 62
   256
176
     0
 40
1.0
176
     0
 90
        2
176
     1
  1
strokes_ogs.tif
176
     1
290
     0
176
     1
 40
1.0
176
     1
 40
1.0
176
     1
  0
DICTIONARYVAR
  5
8B
102
{ACAD_REACTORS
330
8A
102
}
330
8A
100
DictionaryVariables
280
     0
  1
1:1
  0
DICTIONARYVAR
  5
90
102
{ACAD_REACTORS
330
8A
102
}
330
8A
100
DictionaryVariables
280
     0
  1
Standard
  0
DICTIONARYVAR
  5
8F
102
{ACAD_REACTORS
330
8A
102
}
330
8A
100
DictionaryVariables
280
     0
  1
Standard
  0
DICTIONARY
  5
8C
330
5A
100
AcDbDictionary
280
     1
281
     1
  3
ACAD_ROUNDTRIP_2008_TABLESTYLE_CELLSTYLEMAP
360
8D
  0
CELLSTYLEMAP
  5
8D
102
{ACAD_REACTORS
330
8C
102
}
330
8C
100
AcDbCellStyleMap
 90
        3
300
CELLSTYLE
  1
TABLEFORMAT_BEGIN
 90
        5
170
     1
 91
        0
 92
    32768
 62
   257
 93
        1
300
CONTENTFORMAT
  1
CONTENTFORMAT_BEGIN
 90
        0
 91
        0
 92
        4
 93
        0
300

 40
0.0
140
1.0
 94
        5
 62
     0
340
11
144
0.25
309
CONTENTFORMAT_END
171
     1
301
MARGIN
  1
CELLMARGIN_BEGIN
 40
0.06
 40
0.06
 40
0.06
 40
0.06
 40
0.06
 40
0.06
309
CELLMARGIN_END
 94
        6
 95
        1
302
GRIDFORMAT
  1
GRIDFORMAT_BEGIN
 90
        0
 91
        1
 62
     0
 92
       -2
340
14
 93
        0
 40
0.045
309
GRIDFORMAT_END
 95
        2
302
GRIDFORMAT
  1
GRIDFORMAT_BEGIN
 90
        0
 91
        1
 62
     0
 92
       -2
340
14
 93
        0
 40
0.045
309
GRIDFORMAT_END
 95
        4
302
GRIDFORMAT
  1
GRIDFORMAT_BEGIN
 90
        0
 91
        1
 62
     0
 92
       -2
340
14
 93
        0
 40
0.045
309
GRIDFORMAT_END
 95
        8
302
GRIDFORMAT
  1
GRIDFORMAT_BEGIN
 90
        0
 91
        1
 62
     0
 92
       -2
340
14
 93
        0
 40
0.045
309
GRIDFORMAT_END
 95
       16
302
GRIDFORMAT
  1
GRIDFORMAT_BEGIN
 90
        0
 91
        1
 62
     0
 92
       -2
340
14
 93
        0
 40
0.045
309
GRIDFORMAT_END
 95
       32
302
GRIDFORMAT
  1
GRIDFORMAT_BEGIN
 90
        0
 91
        1
 62
     0
 92
       -2
340
14
 93
        0
 40
0.045
309
GRIDFORMAT_END
309
TABLEFORMAT_END
  1
CELLSTYLE_BEGIN
 90
        1
 91
        1
300
_TITLE
309
CELLSTYLE_END
300
CELLSTYLE
  1
TABLEFORMAT_BEGIN
 90
        5
170
     1
 91
        0
 92
        0
 62
   257
 93
        1
300
CONTENTFORMAT
  1
CONTENTFORMAT_BEGIN
 90
        0
 91
        0
 92
        4
 93
        0
300

 40
0.0
140
1.0
 94
        5
 62
     0
340
11
144
0.18
309
CONTENTFORMAT_END
171
     1
301
MARGIN
  1
CELLMARGIN_BEGIN
 40
0.06
 40
0.06
 40
0.06
 40
0.06
 40
0.06
 40
0.06
309
CELLMARGIN_END
 94
        6
 95
        1
302
GRIDFORMAT
  1
GRIDFORMAT_BEGIN
 90
        0
 91
        1
 62
     0
 92
       -2
340
14
 93
        0
 40
0.045
309
GRIDFORMAT_END
 95
        2
302
GRIDFORMAT
  1
GRIDFORMAT_BEGIN
 90
        0
 91
        1
 62
     0
 92
       -2
340
14
 93
        0
 40
0.045
309
GRIDFORMAT_END
 95
        4
302
GRIDFORMAT
  1
GRIDFORMAT_BEGIN
 90
        0
 91
        1
 62
     0
 92
       -2
340
14
 93
        0
 40
0.045
309
GRIDFORMAT_END
 95
        8
302
GRIDFORMAT
  1
GRIDFORMAT_BEGIN
 90
        0
 91
        1
 62
     0
 92
       -2
340
14
 93
        0
 40
0.045
309
GRIDFORMAT_END
 95
       16
302
GRIDFORMAT
  1
GRIDFORMAT_BEGIN
 90
        0
 91
        1
 62
     0
 92
       -2
340
14
 93
        0
 40
0.045
309
GRIDFORMAT_END
 95
       32
302
GRIDFORMAT
  1
GRIDFORMAT_BEGIN
 90
        0
 91
        1
 62
     0
 92
       -2
340
14
 93
        0
 40
0.045
309
GRIDFORMAT_END
309
TABLEFORMAT_END
  1
CELLSTYLE_BEGIN
 90
        2
 91
        1
300
_HEADER
309
CELLSTYLE_END
300
CELLSTYLE
  1
TABLEFORMAT_BEGIN
 90
        5
170
     1
 91
        0
 92
        0
 62
   257
 93
        1
300
CONTENTFORMAT
  1
CONTENTFORMAT_BEGIN
 90
        0
 91
        0
 92
        4
 93
        0
300

 40
0.0
140
1.0
 94
        2
 62
     0
340
11
144
0.18
309
CONTENTFORMAT_END
171
     1
301
MARGIN
  1
CELLMARGIN_BEGIN
 40
0.06
 40
0.06
 40
0.06
 40
0.06
 40
0.06
 40
0.06
309
CELLMARGIN_END
 94
        6
 95
        1
302
GRIDFORMAT
  1
GRIDFORMAT_BEGIN
 90
        0
 91
        1
 62
     0
 92
       -2
340
14
 93
        0
 40
0.045
309
GRIDFORMAT_END
 95
        2
302
GRIDFORMAT
  1
GRIDFORMAT_BEGIN
 90
        0
 91
        1
 62
     0
 92
       -2
340
14
 93
        0
 40
0.045
309
GRIDFORMAT_END
 95
        4
302
GRIDFORMAT
  1
GRIDFORMAT_BEGIN
 90
        0
 91
        1
 62
     0
 92
       -2
340
14
 93
        0
 40
0.045
309
GRIDFORMAT_END
 95
        8
302
GRIDFORMAT
  1
GRIDFORMAT_BEGIN
 90
        0
 91
        1
 62
     0
 92
       -2
340
14
 93
        0
 40
0.045
309
GRIDFORMAT_END
 95
       16
302
GRIDFORMAT
  1
GRIDFORMAT_BEGIN
 90
        0
 91
        1
 62
     0
 92
       -2
340
14
 93
        0
 40
0.045
309
GRIDFORMAT_END
 95
       32
302
GRIDFORMAT
  1
GRIDFORMAT_BEGIN
 90
        0
 91
        1
 62
     0
 92
       -2
340
14
 93
        0
 40
0.045
309
GRIDFORMAT_END
309
TABLEFORMAT_END
  1
CELLSTYLE_BEGIN
 90
        3
 91
        2
300
_DATA
309
CELLSTYLE_END
  0
ENDSEC
  0
EOF
