  0
SECTION
  2
HEADER
  9
$ACADVER
  1
AC1027
  9
$ACADMAINTVER
 70
   105
  9
$DWGCODEPAGE
  3
ANSI_1252
  9
$LASTSAVEDBY
  1
Office Desk
  9
$REQUIREDVERSIONS
160
                 0
  9
$INSBASE
 10
0.0
 20
0.0
 30
0.0
  9
$EXTMIN
 10
-23.65424015748032
 20
-5.16653937007874
 30
0.0
  9
$EXTMAX
 10
-13.67581889763779
 20
8.798051181102363
 30
0.0
  9
$LIMMIN
 10
0.0
 20
0.0
  9
$LIMMAX
 10
12.0
 20
9.0
  9
$ORTHOMODE
 70
     0
  9
$REGENMODE
 70
     1
  9
$FILLMODE
 70
     1
  9
$QTEXTMODE
 70
     0
  9
$MIRRTEXT
 70
     1
  9
$LTSCALE
 40
1.0
  9
$ATTMODE
 70
     1
  9
$TEXTSIZE
 40
0.2
  9
$TRACEWID
 40
0.05
  9
$TEXTSTYLE
  7
Standard
  9
$CLAYER
  8
0
  9
$CELTYPE
  6
ByLayer
  9
$CECOLOR
 62
   256
  9
$CELTSCALE
 40
1.0
  9
$DISPSILH
 70
     0
  9
$DIMSCALE
 40
1.0
  9
$DIMASZ
 40
0.18
  9
$DIMEXO
 40
0.0625
  9
$DIMDLI
 40
0.38
  9
$DIMRND
 40
0.0
  9
$DIMDLE
 40
0.0
  9
$DIMEXE
 40
0.18
  9
$DIMTP
 40
0.0
  9
$DIMTM
 40
0.0
  9
$DIMTXT
 40
0.18
  9
$DIMCEN
 40
0.09
  9
$DIMTSZ
 40
0.0
  9
$DIMTOL
 70
     0
  9
$DIMLIM
 70
     0
  9
$DIMTIH
 70
     1
  9
$DIMTOH
 70
     1
  9
$DIMSE1
 70
     0
  9
$DIMSE2
 70
     0
  9
$DIMTAD
 70
     0
  9
$DIMZIN
 70
     0
  9
$DIMBLK
  1

  9
$DIMASO
 70
     1
  9
$DIMSHO
 70
     1
  9
$DIMPOST
  1

  9
$DIMAPOST
  1

  9
$DIMALT
 70
     0
  9
$DIMALTD
 70
     2
  9
$DIMALTF
 40
25.4
  9
$DIMLFAC
 40
1.0
  9
$DIMTOFL
 70
     0
  9
$DIMTVP
 40
0.0
  9
$DIMTIX
 70
     0
  9
$DIMSOXD
 70
     0
  9
$DIMSAH
 70
     0
  9
$DIMBLK1
  1

  9
$DIMBLK2
  1

  9
$DIMSTYLE
  2
Standard
  9
$DIMCLRD
 70
     0
  9
$DIMCLRE
 70
     0
  9
$DIMCLRT
 70
     0
  9
$DIMTFAC
 40
1.0
  9
$DIMGAP
 40
0.09
  9
$DIMJUST
 70
     0
  9
$DIMSD1
 70
     0
  9
$DIMSD2
 70
     0
  9
$DIMTOLJ
 70
     1
  9
$DIMTZIN
 70
     0
  9
$DIMALTZ
 70
     0
  9
$DIMALTTZ
 70
     0
  9
$DIMUPT
 70
     0
  9
$DIMDEC
 70
     4
  9
$DIMTDEC
 70
     4
  9
$DIMALTU
 70
     2
  9
$DIMALTTD
 70
     2
  9
$DIMTXSTY
  7
Standard
  9
$DIMAUNIT
 70
     0
  9
$DIMADEC
 70
     0
  9
$DIMALTRND
 40
0.0
  9
$DIMAZIN
 70
     0
  9
$DIMDSEP
 70
    46
  9
$DIMATFIT
 70
     3
  9
$DIMFRAC
 70
     0
  9
$DIMLDRBLK
  1

  9
$DIMLUNIT
 70
     2
  9
$DIMLWD
 70
    -2
  9
$DIMLWE
 70
    -2
  9
$DIMTMOVE
 70
     0
  9
$DIMFXL
 40
1.0
  9
$DIMFXLON
 70
     0
  9
$DIMJOGANG
 40
0.7853981633974483
  9
$DIMTFILL
 70
     0
  9
$DIMTFILLCLR
 70
     0
  9
$DIMARCSYM
 70
     0
  9
$DIMLTYPE
  6

  9
$DIMLTEX1
  6

  9
$DIMLTEX2
  6

  9
$DIMTXTDIRECTION
 70
     0
  9
$LUNITS
 70
     2
  9
$LUPREC
 70
     4
  9
$SKETCHINC
 40
0.1
  9
$FILLETRAD
 40
0.0
  9
$AUNITS
 70
     0
  9
$AUPREC
 70
     0
  9
$MENU
  1
.
  9
$ELEVATION
 40
0.0
  9
$PELEVATION
 40
0.0
  9
$THICKNESS
 40
0.0
  9
$LIMCHECK
 70
     0
  9
$CHAMFERA
 40
0.0
  9
$CHAMFERB
 40
0.0
  9
$CHAMFERC
 40
0.0
  9
$CHAMFERD
 40
0.0
  9
$SKPOLY
 70
     0
  9
$TDCREATE
 40
2461020.616653519
  9
$TDUCREATE
 40
2461020.387486852
  9
$TDUPDATE
 40
2461020.616653716
  9
$TDUUPDATE
 40
2461020.387487049
  9
$TDINDWG
 40
0.0000000116
  9
$TDUSRTIMER
 40
0.0000000116
  9
$USRTIMER
 70
     1
  9
$ANGBASE
 50
0.0
  9
$ANGDIR
 70
     0
  9
$PDMODE
 70
     0
  9
$PDSIZE
 40
0.0
  9
$PLINEWID
 40
0.0
  9
$SPLFRAME
 70
     0
  9
$SPLINETYPE
 70
     6
  9
$SPLINESEGS
 70
     8
  9
$HANDSEED
  5
93
  9
$SURFTAB1
 70
     6
  9
$SURFTAB2
 70
     6
  9
$SURFTYPE
 70
     6
  9
$SURFU
 70
     6
  9
$SURFV
 70
     6
  9
$UCSBASE
  2

  9
$UCSNAME
  2

  9
$UCSORG
 10
0.0
 20
0.0
 30
0.0
  9
$UCSXDIR
 10
1.0
 20
0.0
 30
0.0
  9
$UCSYDIR
 10
0.0
 20
1.0
 30
0.0
  9
$UCSORTHOREF
  2

  9
$UCSORTHOVIEW
 70
     0
  9
$UCSORGTOP
 10
0.0
 20
0.0
 30
0.0
  9
$UCSORGBOTTOM
 10
0.0
 20
0.0
 30
0.0
  9
$UCSORGLEFT
 10
0.0
 20
0.0
 30
0.0
  9
$UCSORGRIGHT
 10
0.0
 20
0.0
 30
0.0
  9
$UCSORGFRONT
 10
0.0
 20
0.0
 30
0.0
  9
$UCSORGBACK
 10
0.0
 20
0.0
 30
0.0
  9
$PUCSBASE
  2

  9
$PUCSNAME
  2

  9
$PUCSORG
 10
0.0
 20
0.0
 30
0.0
  9
$PUCSXDIR
 10
1.0
 20
0.0
 30
0.0
  9
$PUCSYDIR
 10
0.0
 20
1.0
 30
0.0
  9
$PUCSORTHOREF
  2

  9
$PUCSORTHOVIEW
 70
     0
  9
$PUCSORGTOP
 10
0.0
 20
0.0
 30
0.0
  9
$PUCSORGBOTTOM
 10
0.0
 20
0.0
 30
0.0
  9
$PUCSORGLEFT
 10
0.0
 20
0.0
 30
0.0
  9
$PUCSORGRIGHT
 10
0.0
 20
0.0
 30
0.0
  9
$PUCSORGFRONT
 10
0.0
 20
0.0
 30
0.0
  9
$PUCSORGBACK
 10
0.0
 20
0.0
 30
0.0
  9
$USERI1
 70
     0
  9
$USERI2
 70
     0
  9
$USERI3
 70
     0
  9
$USERI4
 70
     0
  9
$USERI5
 70
     0
  9
$USERR1
 40
0.0
  9
$USERR2
 40
0.0
  9
$USERR3
 40
0.0
  9
$USERR4
 40
0.0
  9
$USERR5
 40
0.0
  9
$WORLDVIEW
 70
     1
  9
$SHADEDGE
 70
     3
  9
$SHADEDIF
 70
    70
  9
$TILEMODE
 70
     1
  9
$MAXACTVP
 70
    64
  9
$PINSBASE
 10
0.0
 20
0.0
 30
0.0
  9
$PLIMCHECK
 70
     0
  9
$PEXTMIN
 10
1.000000000000000E+20
 20
1.000000000000000E+20
 30
1.000000000000000E+20
  9
$PEXTMAX
 10
-1.000000000000000E+20
 20
-1.000000000000000E+20
 30
-1.000000000000000E+20
  9
$PLIMMIN
 10
0.0
 20
0.0
  9
$PLIMMAX
 10
12.0
 20
9.0
  9
$UNITMODE
 70
     0
  9
$VISRETAIN
 70
     1
  9
$PLINEGEN
 70
     0
  9
$PSLTSCALE
 70
     1
  9
$TREEDEPTH
 70
  3020
  9
$CMLSTYLE
  2
Standard
  9
$CMLJUST
 70
     0
  9
$CMLSCALE
 40
1.0
  9
$PROXYGRAPHICS
 70
     1
  9
$MEASUREMENT
 70
     0
  9
$CELWEIGHT
370
    -1
  9
$ENDCAPS
280
     0
  9
$JOINSTYLE
280
     0
  9
$LWDISPLAY
290
     0
  9
$INSUNITS
 70
     1
  9
$HYPERLINKBASE
  1

  9
$STYLESHEET
  1

  9
$XEDIT
290
     1
  9
$CEPSNTYPE
380
     0
  9
$PSTYLEMODE
290
     1
  9
$FINGERPRINTGUID
  2
{3b8f836e-e206-411d-94eb-3c3e67545f62}
  9
$VERSIONGUID
  2
{FAEB1C32-E019-11D5-929B-00C0DF256EC4}
  9
$EXTNAMES
290
     1
  9
$PSVPSCALE
 40
0.0
  9
$OLESTARTUP
290
     0
  9
$SORTENTS
280
   127
  9
$INDEXCTL
280
     0
  9
$HIDETEXT
280
     1
  9
$XCLIPFRAME
280
     2
  9
$HALOGAP
280
     0
  9
$OBSCOLOR
 70
   257
  9
$OBSLTYPE
280
     0
  9
$INTERSECTIONDISPLAY
280
     0
  9
$INTERSECTIONCOLOR
 70
   257
  9
$DIMASSOC
280
     2
  9
$PROJECTNAME
  1

  9
$CAMERADISPLAY
290
     0
  9
$LENSLENGTH
 40
50.0
  9
$CAMERAHEIGHT
 40
0.0
  9
$STEPSPERSEC
 40
2.0
  9
$STEPSIZE
 40
6.0
  9
$3DDWFPREC
 40
2.0
  9
$PSOLWIDTH
 40
0.25
  9
$PSOLHEIGHT
 40
4.0
  9
$LOFTANG1
 40
1.570796326794897
  9
$LOFTANG2
 40
1.570796326794897
  9
$LOFTMAG1
 40
0.0
  9
$LOFTMAG2
 40
0.0
  9
$LOFTPARAM
 70
     7
  9
$LOFTNORMALS
280
     1
  9
$LATITUDE
 40
37.795
  9
$LONGITUDE
 40
-122.394
  9
$NORTHDIRECTION
 40
0.0
  9
$TIMEZONE
 70
 -8000
  9
$LIGHTGLYPHDISPLAY
280
     1
  9
$TILEMODELIGHTSYNCH
280
     1
  9
$CMATERIAL
347
44
  9
$SOLIDHIST
280
     0
  9
$SHOWHIST
280
     1
  9
$DWFFRAME
280
     2
  9
$DGNFRAME
280
     2
  9
$REALWORLDSCALE
290
     1
  9
$INTERFERECOLOR
 62
   256
  9
$CSHADOW
280
     0
  9
$SHADOWPLANELOCATION
 40
0.0
  0
ENDSEC
  0
SECTION
  2
CLASSES
  0
CLASS
  1
ACDBDICTIONARYWDFLT
  2
AcDbDictionaryWithDefault
  3
ObjectDBX Classes
 90
        0
 91
        3
280
     0
281
     0
  0
CLASS
  1
VISUALSTYLE
  2
AcDbVisualStyle
  3
ObjectDBX Classes
 90
     4095
 91
        3
280
     0
281
     0
  0
CLASS
  1
MATERIAL
  2
AcDbMaterial
  3
ObjectDBX Classes
 90
     1153
 91
        3
280
     0
281
     0
  0
CLASS
  1
SCALE
  2
AcDbScale
  3
ObjectDBX Classes
 90
     1153
 91
        3
280
     0
281
     0
  0
CLASS
  1
TABLESTYLE
  2
AcDbTableStyle
  3
ObjectDBX Classes
 90
     4095
 91
        3
280
     0
281
     0
  0
CLASS
  1
MLEADERSTYLE
  2
AcDbMLeaderStyle
  3
ACDB_MLEADERSTYLE_CLASS
 90
     4095
 91
        3
280
     0
281
     0
  0
CLASS
  1
SUN
  2
AcDbSun
  3
SCENEOE
 90
     1153
 91
        3
280
     0
281
     0
  0
CLASS
  1
DICTIONARYVAR
  2
AcDbDictionaryVar
  3
ObjectDBX Classes
 90
        0
 91
        3
280
     0
281
     0
  0
CLASS
  1
CELLSTYLEMAP
  2
AcDbCellStyleMap
  3
ObjectDBX Classes
 90
     1152
 91
        3
280
     0
281
     0
  0
ENDSEC
  0
SECTION
  2
TABLES
  0
TABLE
  2
VPORT
  5
8
330
0
100
AcDbSymbolTable
 70
     1
  0
VPORT
  5
29
330
8
100
AcDbSymbolTableRecord
100
AcDbViewportTableRecord
  2
*Active
 70
     0
 10
0.0
 20
0.0
 11
1.0
 21
1.0
 12
10.42990654205607
 22
4.5
 13
0.0
 23
0.0
 14
0.5
 24
0.5
 15
0.5
 25
0.5
 16
0.0
 26
0.0
 36
1.0
 17
0.0
 27
0.0
 37
0.0
 40
9.0
 41
1.972972972850329
 42
50.0
 43
0.0
 44
0.0
 50
0.0
 51
0.0
 71
     0
 72
   100
 73
     1
 74
     3
 75
     0
 76
     0
 77
     0
 78
     0
281
     0
 65
     1
110
0.0
120
0.0
130
0.0
111
1.0
121
0.0
131
0.0
112
0.0
122
1.0
132
0.0
 79
     0
146
0.0
348
2F
 60
     3
 61
     5
292
     1
282
     1
141
0.0
142
0.0
 63
   250
361
5D
  0
ENDTAB
  0
TABLE
  2
LTYPE
  5
5
330
0
100
AcDbSymbolTable
 70
     1
  0
LTYPE
  5
14
330
5
100
AcDbSymbolTableRecord
100
AcDbLinetypeTableRecord
  2
ByBlock
 70
     0
  3

 72
    65
 73
     0
 40
0.0
  0
LTYPE
  5
15
330
5
100
AcDbSymbolTableRecord
100
AcDbLinetypeTableRecord
  2
ByLayer
 70
     0
  3

 72
    65
 73
     0
 40
0.0
  0
LTYPE
  5
16
330
5
100
AcDbSymbolTableRecord
100
AcDbLinetypeTableRecord
  2
Continuous
 70
     0
  3
Solid line
 72
    65
 73
     0
 40
0.0
  0
ENDTAB
  0
TABLE
  2
LAYER
  5
2
330
0
100
AcDbSymbolTable
 70
     2
  0
LAYER
  5
10
330
2
100
AcDbSymbolTableRecord
100
AcDbLayerTableRecord
  2
0
 70
     0
 62
     7
  6
Continuous
370
    -3
390
F
347
46
348
0
  0
LAYER
  5
5F
330
2
100
AcDbSymbolTableRecord
100
AcDbLayerTableRecord
  2
Layer 1
 70
     0
 62
     7
  6
Continuous
370
    -3
390
F
347
46
348
0
  0
ENDTAB
  0
TABLE
  2
STYLE
  5
3
330
0
100
AcDbSymbolTable
 70
     1
  0
STYLE
  5
11
330
3
100
AcDbSymbolTableRecord
100
AcDbTextStyleTableRecord
  2
Standard
 70
     0
 40
0.0
 41
1.0
 50
0.0
 71
     0
 42
0.2
  3
txt
  4

  0
ENDTAB
  0
TABLE
  2
VIEW
  5
6
330
0
100
AcDbSymbolTable
 70
     0
  0
ENDTAB
  0
TABLE
  2
UCS
  5
7
330
0
100
AcDbSymbolTable
 70
     0
  0
ENDTAB
  0
TABLE
  2
APPID
  5
9
330
0
100
AcDbSymbolTable
 70
     2
  0
APPID
  5
12
330
9
100
AcDbSymbolTableRecord
100
AcDbRegAppTableRecord
  2
ACAD
 70
     0
  0
APPID
  5
5E
330
9
100
AcDbSymbolTableRecord
100
AcDbRegAppTableRecord
  2
ODA
 70
     0
  0
ENDTAB
  0
TABLE
  2
DIMSTYLE
  5
A
330
0
100
AcDbSymbolTable
 70
     1
100
AcDbDimStyleTable
  0
DIMSTYLE
105
27
330
A
100
AcDbSymbolTableRecord
100
AcDbDimStyleTableRecord
  2
Standard
 70
     0
178
     0
340
11
  0
ENDTAB
  0
TABLE
  2
BLOCK_RECORD
  5
1
330
0
100
AcDbSymbolTable
 70
     1
  0
BLOCK_RECORD
  5
1F
330
1
100
AcDbSymbolTableRecord
100
AcDbBlockTableRecord
  2
*Model_Space
340
22
 70
     0
280
     1
281
     0
  0
BLOCK_RECORD
  5
1B
330
1
100
AcDbSymbolTableRecord
100
AcDbBlockTableRecord
  2
*Paper_Space
340
1E
 70
     0
280
     1
281
     0
  0
BLOCK_RECORD
  5
23
330
1
100
AcDbSymbolTableRecord
100
AcDbBlockTableRecord
  2
*Paper_Space0
340
26
 70
     0
280
     1
281
     0
  0
ENDTAB
  0
ENDSEC
  0
SECTION
  2
BLOCKS
  0
BLOCK
  5
20
330
1F
100
AcDbEntity
  8
0
100
AcDbBlockBegin
  2
*Model_Space
 70
     0
 10
0.0
 20
0.0
 30
0.0
  3
*Model_Space
  1

  0
ENDBLK
  5
21
330
1F
100
AcDbEntity
  8
0
100
AcDbBlockEnd
  0
BLOCK
  5
1C
330
1B
100
AcDbEntity
 67
     1
  8
0
100
AcDbBlockBegin
  2
*Paper_Space
 70
     0
 10
0.0
 20
0.0
 30
0.0
  3
*Paper_Space
  1

  0
ENDBLK
  5
1D
330
1B
100
AcDbEntity
 67
     1
  8
0
100
AcDbBlockEnd
  0
BLOCK
  5
24
330
23
100
AcDbEntity
  8
0
100
AcDbBlockBegin
  2
*Paper_Space0
 70
     0
 10
0.0
 20
0.0
 30
0.0
  3
*Paper_Space0
  1

  0
ENDBLK
  5
25
330
23
100
AcDbEntity
  8
0
100
AcDbBlockEnd
  0
ENDSEC
  0
SECTION
  2
ENTITIES
  0
LWPOLYLINE
  5
60
330
1F
100
AcDbEntity
  8
Layer 1
 62
   250
370
     9
100
AcDbPolyline
 90
        5
 70
     1
 43
0.0
 10
-23.65274015748032
 20
-5.16503937007874
 10
-13.67732283464567
 20
-5.16503937007874
 10
-13.67732283464567
 20
8.796551181102362
 10
-23.65274015748032
 20
8.796551181102362
 10
-23.65274015748032
 20
-5.16503937007874
  0
LWPOLYLINE
  5
61
330
1F
100
AcDbEntity
  8
Layer 1
 62
     7
370
     9
100
AcDbPolyline
 90
      238
 70
     1
 43
0.0
 10
-19.94904724409449
 20
5.235905511811024
 10
-19.95714173228346
 20
6.10282283464567
 10
-19.95724409448819
 20
6.106204724409449
 10
-19.95667716535433
 20
6.115696850393701
 10
-19.95412204724409
 20
6.130299212598425
 10
-19.94825590551181
 20
6.149027559055118
 10
-19.93775984251969
 20
6.170885826771654
 10
-19.9213188976378
 20
6.194885826771653
 10
-19.89761417322835
 20
6.220035433070866
 10
-19.86532283464567
 20
6.245342519685039
 10
-19.80490157480315
 20
6.275377952755906
 10
-19.70070078740158
 20
6.310736220472441
 10
-19.55723622047244
 20
6.344464566929134
 10
-19.37903543307086
 20
6.369614173228347
 10
-19.17061023622047
 20
6.379224409448819
 10
-18.93648818897638
 20
6.366354330708662
 10
-18.68118503937008
 20
6.324043307086614
 10
-18.40922440944882
 20
6.245342519685039
 10
-18.39867716535433
 20
6.246385826771654
 10
-18.36630708661417
 20
6.248059055118111
 10
-18.31103937007874
 20
6.248188976377953
 10
-18.23177952755906
 20
6.24459842519685
 10
-18.12744881889764
 20
6.235110236220472
 10
-17.99696456692913
 20
6.217547244094488
 10
-17.83924015748032
 20
6.189732283464567
 10
-17.65318897637795
 20
6.149484251968504
 10
-17.46352362204724
 20
6.105248031496063
 10
-17.29625984251969
 20
6.066905511811024
 10
-17.15229133858268
 20
6.03446062992126
 10
-17.03250393700787
 20
6.007917322834646
 10
-16.9377874015748
 20
5.987267716535433
 10
-16.86903149606299
 20
5.97251968503937
 10
-16.82712598425197
 20
5.963669291338583
 10
-16.81296062992126
 20
5.960720472440945
 10
-16.79656692913386
 20
5.957291338582677
 10
-16.75675196850394
 20
5.946696850393701
 10
-16.70757086614173
 20
5.928468503937008
 10
-16.66307086614173
 20
5.902149606299212
 10
-16.63731102362205
 20
5.867275590551182
 10
-16.64433464566929
 20
5.823381889763779
 10
-16.69820078740157
 20
5.770003937007874
 10
-16.81296062992126
 20
5.706681102362205
 10
-16.81916929133858
 20
5.703637795275591
 10
-16.83745669291338
 20
5.696204724409449
 10
-16.86729921259843
 20
5.686917322834645
 10
-16.90818897637795
 20
5.678326771653543
 10
-16.9596062992126
 20
5.672972440944882
 10
-17.02103937007874
 20
5.673389763779528
 10
-17.09196850393701
 20
5.682129921259842
 10
-17.17188188976378
 20
5.701732283464567
 10
-17.25927559055118
 20
5.729543307086614
 10
-17.35546456692913
 20
5.760141732283465
 10
-17.46413779527559
 20
5.791913385826772
 10
-17.58900393700787
 20
5.823232283464567
 10
-17.73375984251969
 20
5.852488188976378
 10
-17.90209842519685
 20
5.87805905511811
 10
-18.09772440944882
 20
5.898326771653544
 10
-18.32433464566929
 20
5.911681102362205
 10
-18.34318110236221
 20
5.084893700787402
 10
-18.34292913385827
 20
5.081456692913386
 10
-18.34306299212598
 20
5.071696850393701
 10
-18.34490157480315
 20
5.056456692913386
 10
-18.34977559055118
 20
5.036559055118111
 10
-18.35900787401575
 20
5.012842519685039
 10
-18.37392125984252
 20
4.986141732283465
 10
-18.39585039370079
 20
4.957283464566929
 10
-18.42611023622047
 20
4.927110236220472
 10
-18.42284251968504
 20
4.883732283464567
 10
-18.41931889763779
 20
4.88392125984252
 10
-18.4099842519685
 20
4.883984251968504
 10
-18.39666929133858
 20
4.883157480314961
 10
-18.38122440944882
 20
4.880669291338583
 10
-18.36548818897638
 20
4.875759842519685
 10
-18.3513031496063
 20
4.867665354330708
 10
-18.34050787401575
 20
4.855618110236221
 10
-18.33494488188976
 20
4.838854330708662
 10
-18.32795669291339
 20
4.790476377952756
 10
-18.31339763779528
 20
4.695082677165354
 10
-18.29388976377953
 20
4.569153543307086
 10
-18.27205511811024
 20
4.429165354330709
 10
-18.25051181102362
 20
4.291602362204724
 10
-18.23187795275591
 20
4.172937007874015
 10
-18.21877559055118
 20
4.089653543307087
 10
-18.21382677165354
 20
4.058232283464567
 10
-18.21402362204724
 20
4.054322834645669
 10
-18.21381496062992
 20
4.043775590551181
 10
-18.21200393700788
 20
4.028366141732284
 10
-18.2073937007874
 20
4.009866141732283
 10
-18.19878346456693
 20
3.990055118110236
 10
-18.18497637795275
 20
3.970704724409449
 10
-18.16477952755906
 20
3.953586614173228
 10
-18.13699212598425
 20
3.940476377952756
 10
-18.08640157480315
 20
3.922704724409449
 10
-18.00020866141732
 20
3.892429133858267
 10
-17.88083858267716
 20
3.852669291338583
 10
-17.73072440944882
 20
3.806448818897638
 10
-17.5522874015748
 20
3.756787401574803
 10
-17.34795275590551
 20
3.706708661417323
 10
-17.12014566929134
 20
3.659236220472441
 10
-16.87129921259843
 20
3.617389763779527
 10
-16.61346062992126
 20
3.564854330708661
 10
-16.36093307086614
 20
3.485673228346457
 10
-16.1195
 20
3.383397637795276
 10
-15.89495669291339
 20
3.261590551181103
 10
-15.6930905511811
 20
3.123807086614173
 10
-15.5196968503937
 20
2.973602362204725
 10
-15.38056692913386
 20
2.814531496062992
 10
-15.28149212598425
 20
2.650157480314961
 10
-15.28082677165354
 20
2.648653543307087
 10
-15.2793937007874
 20
2.644350393700787
 10
-15.27802362204724
 20
2.637555118110236
 10
-15.27756299212598
 20
2.628586614173228
 10
-15.27885039370079
 20
2.617751968503937
 10
-15.28271653543307
 20
2.605366141732283
 10
-15.29000787401575
 20
2.591740157480315
 10
-15.30156299212598
 20
2.577185039370079
 10
-15.31427952755906
 20
2.563228346456693
 10
-15.32447637795276
 20
2.550984251968504
 10
-15.33211417322835
 20
2.540165354330709
 10
-15.33715748031496
 20
2.530468503937008
 10
-15.33956299212598
 20
2.521602362204725
 10
-15.33929921259842
 20
2.513271653543307
 10
-15.33632677165354
 20
2.505177165354331
 10
-15.3306062992126
 20
2.497027559055118
 10
-15.32203937007874
 20
2.484771653543307
 10
-15.31115354330709
 20
2.465830708661418
 10
-15.29887007874016
 20
2.442129921259843
 10
-15.28609448818898
 20
2.41557874015748
 10
-15.27375196850394
 20
2.388090551181103
 10
-15.26274803149606
 20
2.361586614173228
 10
-15.25400393700787
 20
2.33798031496063
 10
-15.24842913385827
 20
2.319188976377953
 10
-15.24718503937008
 20
2.303374015748032
 10
-15.25000787401575
 20
2.287795275590551
 10
-15.25570472440945
 20
2.27303937007874
 10
-15.26305905511811
 20
2.259673228346457
 10
-15.2708779527559
 20
2.248275590551181
 10
-15.27795275590551
 20
2.23942125984252
 10
-15.28307874015748
 20
2.233685039370079
 10
-15.28505511811024
 20
2.231645669291339
 10
-15.30757480314961
 20
2.216299212598425
 10
-15.36879921259843
 20
2.176023622047244
 10
-15.45922047244095
 20
2.119448818897638
 10
-15.56933464566929
 20
2.055220472440945
 10
-15.68963779527559
 20
1.991964566929134
 10
-15.8106220472441
 20
1.938326771653543
 10
-15.92278346456693
 20
1.90294094488189
 10
-16.01661811023622
 20
1.89444094488189
 10
-16.01882283464567
 20
1.894795275590551
 10
-16.02495275590551
 20
1.896377952755905
 10
-16.03427559055118
 20
1.899976377952756
 10
-16.04606299212599
 20
1.906370078740157
 10
-16.0595905511811
 20
1.916346456692913
 10
-16.0741220472441
 20
1.930681102362205
 10
-16.08893307086614
 20
1.950161417322835
 10
-16.10329133858268
 20
1.975570866141732
 10
-16.18871653543307
 20
2.150952755905512
 10
-16.19198818897638
 20
2.149326771653543
 10
-16.20086220472441
 20
2.145397637795276
 10
-16.21393307086614
 20
2.140582677165354
 10
-16.2297874015748
 20
2.136311023622047
 10
-16.2470157480315
 20
2.134
 10
-16.26420866141732
 20
2.135074803149606
 10
-16.27995275590551
 20
2.140956692913386
 10
-16.29284645669291
 20
2.153070866141732
 10
-16.31104330708661
 20
2.18913779527559
 10
-16.35659842519685
 20
2.259885826771654
 10
-16.44896456692913
 20
2.356224409448819
 10
-16.60757874015748
 20
2.469074803149606
 10
-16.85188976377953
 20
2.589354330708662
 10
-17.20134251968504
 20
2.70798031496063
 10
-17.67538188976378
 20
2.815870078740157
 10
-18.29344881889764
 20
2.903937007874016
 10
-18.29793700787402
 20
2.862299212598425
 10
-18.31013385826772
 20
2.750956692913386
 10
-18.32812204724409
 20
2.590259842519685
 10
-18.34999212598425
 20
2.400566929133858
 10
-18.37383464566929
 20
2.202228346456693
 10
-18.39774015748031
 20
2.015602362204724
 10
-18.41979527559055
 20
1.861035433070866
 10
-18.43808661417323
 20
1.758889763779528
 10
-18.45720472440945
 20
1.64605905511811
 10
-18.48079527559055
 20
1.458303149606299
 10
-18.50554330708662
 20
1.214255905511811
 10
-18.52813779527559
 20
0.9325511811023622
 10
-18.54526771653543
 20
0.6318267716535433
 10
-18.55361417322835
 20
0.3307204724409449
 10
-18.54987007874016
 20
0.0478661417322835
 10
-18.53071653543307
 20
-0.1980984251968504
 10
-18.50417322834646
 20
-0.5143149606299212
 10
-18.48058267716535
 20
-0.9808149606299212
 10
-18.46012598425197
 20
-1.538275590551181
 10
-18.4429842519685
 20
-2.127385826771654
 10
-18.42933464566929
 20
-2.688834645669291
 10
-18.41936220472441
 20
-3.163307086614173
 10
-18.41324409448819
 20
-3.491484251968504
 10
-18.41116535433071
 20
-3.61405905511811
 10
-18.45470866141732
 20
-3.622677165354331
 10
-18.57546850393701
 20
-3.64336220472441
 10
-18.75862598425197
 20
-3.668350393700787
 10
-18.98936614173228
 20
-3.689877952755905
 10
-19.25287795275591
 20
-3.700185039370079
 10
-19.53434645669291
 20
-3.691515748031496
 10
-19.81896062992126
 20
-3.656102362204725
 10
-20.09190157480315
 20
-3.586185039370079
 10
-20.08920472440945
 20
-3.520948818897638
 10
-20.08057480314961
 20
-3.332271653543307
 10
-20.06518897637795
 20
-3.030688976377953
 10
-20.04222834645669
 20
-2.626740157480315
 10
-20.01087007874016
 20
-2.130968503937008
 10
-19.97029921259843
 20
-1.553909448818898
 10
-19.91969291338583
 20
-0.9061062992125984
 10
-19.85823622047244
 20
-0.1980984251968504
 10
-19.85658661417323
 20
-0.129251968503937
 10
-19.85302362204724
 20
0.0553976377952756
 10
-19.84964566929134
 20
0.3230157480314961
 10
-19.84853937007874
 20
0.6407795275590551
 10
-19.85179527559055
 20
0.9758503937007874
 10
-19.86150393700787
 20
1.29540157480315
 10
-19.87975590551181
 20
1.56659842519685
 10
-19.90864173228346
 20
1.756614173228346
 10
-19.95022834645669
 20
1.949086614173228
 10
-19.99896062992126
 20
2.236291338582677
 10
-20.04549212598425
 20
2.598350393700787
 10
-20.0804842519685
 20
3.015385826771654
 10
-20.0945905511811
 20
3.467507874015748
 10
-20.07846850393701
 20
3.934842519685039
 10
-20.02277165354331
 20
4.397507874015748
 10
-19.91816141732284
 20
4.835625984251968
 10
-19.85738582677165
 20
5.05121653543307
 10
-19.8615157480315
 20
5.056397637795276
 10
-19.87236614173228
 20
5.070625984251969
 10
-19.88761811023622
 20
5.091937007874016
 10
-19.90496850393701
 20
5.118362204724409
 10
-19.92209842519685
 20
5.147940944881889
 10
-19.9366968503937
 20
5.178700787401575
 10
-19.94644881889764
 20
5.208677165354331
 10
-19.94904724409449
 20
5.235905511811024
  0
LWPOLYLINE
  5
62
330
1F
100
AcDbEntity
  8
Layer 1
 62
     7
370
     9
100
AcDbPolyline
 90
       25
 70
     0
 43
0.0
 10
-18.90949606299213
 20
6.076728346456693
 10
-18.82438976377953
 20
6.071153543307086
 10
-18.6515157480315
 20
6.05488188976378
 10
-18.41499212598425
 20
6.028598425196851
 10
-18.13894488188976
 20
5.992976377952756
 10
-17.84748818897638
 20
5.948704724409449
 10
-17.56474409448819
 20
5.896460629921259
 10
-17.31483464566929
 20
5.836929133858268
 10
-17.12187401574803
 20
5.770783464566929
 10
-17.11572834645669
 20
5.76996062992126
 10
-17.09875984251968
 20
5.768122047244095
 10
-17.07317322834646
 20
5.766204724409449
 10
-17.04117322834646
 20
5.765141732283465
 10
-17.00496456692913
 20
5.765870078740157
 10
-16.96675196850394
 20
5.769330708661418
 10
-16.92874409448819
 20
5.776456692913386
 10
-16.89313779527559
 20
5.788185039370079
 10
-16.8587874015748
 20
5.802236220472441
 10
-16.82408661417323
 20
5.815492125984252
 10
-16.79055511811024
 20
5.827614173228347
 10
-16.7597125984252
 20
5.838271653543307
 10
-16.73307874015748
 20
5.84713779527559
 10
-16.71216929133858
 20
5.853881889763779
 10
-16.69851181102362
 20
5.858169291338583
 10
-16.69362204724409
 20
5.859673228346456
  0
LWPOLYLINE
  5
63
330
1F
100
AcDbEntity
  8
Layer 1
 62
     7
370
     9
100
AcDbPolyline
 90
       25
 70
     0
 43
0.0
 10
-19.89796850393701
 20
6.106248031496063
 10
-19.87493307086614
 20
6.097622047244094
 10
-19.81258661417323
 20
6.075342519685039
 10
-19.72105511811024
 20
6.044807086614173
 10
-19.61047637795276
 20
6.011405511811024
 10
-19.49098031496063
 20
5.98053937007874
 10
-19.37270078740157
 20
5.95759842519685
 10
-19.26577165354331
 20
5.947988188976378
 10
-19.18032283464567
 20
5.957094488188976
 10
-19.11115354330709
 20
5.983307086614174
 10
-19.04375984251968
 20
6.018877952755905
 10
-18.97431496062992
 20
6.06001968503937
 10
-18.89900393700787
 20
6.102937007874016
 10
-18.81400787401575
 20
6.143834645669291
 10
-18.7155
 20
6.178925196850393
 10
-18.59966535433071
 20
6.204409448818898
 10
-18.46267716535433
 20
6.2165
 10
-18.44418503937008
 20
6.215574803149607
 10
-18.39433070866142
 20
6.212948818897638
 10
-18.32152755905512
 20
6.20884251968504
 10
-18.23420472440945
 20
6.203484251968504
 10
-18.14078346456693
 20
6.197094488188976
 10
-18.0496811023622
 20
6.189897637795275
 10
-17.96932677165354
 20
6.182114173228347
 10
-17.90813779527559
 20
6.173972440944882
  0
LWPOLYLINE
  5
64
330
1F
100
AcDbEntity
  8
Layer 1
 62
     7
370
     9
100
AcDbPolyline
 90
        9
 70
     0
 43
0.0
 10
-19.80662598425197
 20
4.980165354330708
 10
-19.78464173228346
 20
4.968897637795275
 10
-19.71991338582677
 20
4.940763779527559
 10
-19.61428346456693
 20
4.904267716535433
 10
-19.46958267716536
 20
4.867925196850393
 10
-19.28764960629921
 20
4.840232283464567
 10
-19.07032677165354
 20
4.829704724409448
 10
-18.81944881889764
 20
4.844846456692913
 10
-18.53685433070866
 20
4.894165354330709
  0
LWPOLYLINE
  5
65
330
1F
100
AcDbEntity
  8
Layer 1
 62
     7
370
     9
100
AcDbPolyline
 90
        9
 70
     0
 43
0.0
 10
-19.81698031496063
 20
4.840476377952756
 10
-19.80005118110236
 20
4.826358267716535
 10
-19.74698818897638
 20
4.791342519685039
 10
-19.65438582677166
 20
4.746425196850394
 10
-19.51883464566929
 20
4.702602362204725
 10
-19.33692125984252
 20
4.670874015748032
 10
-19.10523622047244
 20
4.662240157480315
 10
-18.8203779527559
 20
4.687696850393701
 10
-18.47892913385827
 20
4.758240157480315
  0
LWPOLYLINE
  5
66
330
1F
100
AcDbEntity
  8
Layer 1
 62
     7
370
     9
100
AcDbPolyline
 90
       17
 70
     0
 43
0.0
 10
-18.91717716535433
 20
3.713562992125984
 10
-18.91067322834646
 20
3.720295275590551
 10
-18.89148818897638
 20
3.736200787401575
 10
-18.86009448818898
 20
3.754834645669291
 10
-18.81698031496063
 20
3.769763779527559
 10
-18.76261811023622
 20
3.774543307086614
 10
-18.69748818897638
 20
3.762740157480315
 10
-18.62207480314961
 20
3.727909448818898
 10
-18.53685433070866
 20
3.663614173228346
 10
-18.38646456692913
 20
3.597118110236221
 10
-18.13279527559055
 20
3.547468503937008
 10
-17.80220078740157
 20
3.495901574803149
 10
-17.42103937007874
 20
3.423653543307087
 10
-17.01567322834646
 20
3.311956692913386
 10
-16.61245275590551
 20
3.14205905511811
 10
-16.23774015748031
 20
2.895185039370079
 10
-15.91788976377953
 20
2.55257874015748
  0
LWPOLYLINE
  5
67
330
1F
100
AcDbEntity
  8
Layer 1
 62
     7
370
     9
100
AcDbPolyline
 90
        9
 70
     0
 43
0.0
 10
-16.15016929133858
 20
2.200326771653543
 10
-16.13386614173228
 20
2.21344094488189
 10
-16.08701181102362
 20
2.249066929133858
 10
-16.01268897637795
 20
2.301618110236221
 10
-15.91397244094488
 20
2.36551968503937
 10
-15.79394881889764
 20
2.435185039370079
 10
-15.65569291338583
 20
2.50503937007874
 10
-15.50229133858268
 20
2.569496062992126
 10
-15.33682283464567
 20
2.622976377952756
  0
LWPOLYLINE
  5
68
330
1F
100
AcDbEntity
  8
Layer 1
 62
     7
370
     9
100
AcDbPolyline
 90
        9
 70
     0
 43
0.0
 10
-16.01202362204724
 20
1.921803149606299
 10
-15.99324015748032
 20
1.932885826771654
 10
-15.94138188976378
 20
1.962850393700788
 10
-15.86319291338583
 20
2.006771653543307
 10
-15.76541732283465
 20
2.059720472440945
 10
-15.65479527559055
 20
2.116775590551181
 10
-15.53807086614173
 20
2.173003937007874
 10
-15.4219842519685
 20
2.22348031496063
 10
-15.31328346456693
 20
2.263283464566929
  0
LWPOLYLINE
  5
69
330
1F
100
AcDbEntity
  8
Layer 1
 62
     7
370
     9
100
AcDbPolyline
 90
       33
 70
     1
 43
0.0
 10
-18.52019291338583
 20
5.549185039370078
 10
-18.49691732283464
 20
5.545984251968504
 10
-18.47542125984252
 20
5.536799212598425
 10
-18.45614960629921
 20
5.522267716535433
 10
-18.43955511811023
 20
5.50301968503937
 10
-18.42608267716535
 20
5.479692913385827
 10
-18.41618503937008
 20
5.45292125984252
 10
-18.4103031496063
 20
5.423334645669291
 10
-18.40888582677166
 20
5.391570866141732
 10
-18.4121811023622
 20
5.359807086614174
 10
-18.41981102362205
 20
5.330224409448819
 10
-18.43129133858268
 20
5.303448818897638
 10
-18.44613779527559
 20
5.280125984251969
 10
-18.46386614173228
 20
5.260877952755905
 10
-18.48399212598425
 20
5.246346456692914
 10
-18.50603149606299
 20
5.237161417322834
 10
-18.52949606299213
 20
5.23396062992126
 10
-18.55277165354331
 20
5.237161417322834
 10
-18.57427165354331
 20
5.246346456692914
 10
-18.59353937007874
 20
5.260877952755905
 10
-18.61013385826772
 20
5.280125984251969
 10
-18.6236062992126
 20
5.303448818897638
 10
-18.63350787401575
 20
5.330224409448819
 10
-18.63938582677165
 20
5.359807086614174
 10
-18.6408031496063
 20
5.391570866141732
 10
-18.6375157480315
 20
5.423334645669291
 10
-18.62988582677165
 20
5.45292125984252
 10
-18.61840551181102
 20
5.479692913385827
 10
-18.60355905511811
 20
5.50301968503937
 10
-18.58582677165354
 20
5.522267716535433
 10
-18.56570078740157
 20
5.536799212598425
 10
-18.54365748031496
 20
5.545984251968504
 10
-18.52019291338583
 20
5.549185039370078
  0
LWPOLYLINE
  5
6A
330
1F
100
AcDbEntity
  8
Layer 1
 62
     7
370
     9
100
AcDbPolyline
 90
       33
 70
     1
 43
0.0
 10
-18.51583858267717
 20
5.413649606299213
 10
-18.51168897637795
 20
5.413082677165354
 10
-18.50782677165354
 20
5.411448818897638
 10
-18.50433070866142
 20
5.408870078740158
 10
-18.50128346456693
 20
5.405452755905512
 10
-18.49877165354331
 20
5.401311023622047
 10
-18.49687401574803
 20
5.396555118110236
 10
-18.49567322834646
 20
5.3913031496063
 10
-18.49525590551181
 20
5.385665354330708
 10
-18.49567322834646
 20
5.380023622047244
 10
-18.49687401574803
 20
5.374771653543307
 10
-18.49877165354331
 20
5.370015748031496
 10
-18.50128346456693
 20
5.365874015748031
 10
-18.50433070866142
 20
5.362456692913386
 10
-18.50782677165354
 20
5.359877952755905
 10
-18.51168897637795
 20
5.358244094488189
 10
-18.51583858267717
 20
5.357677165354331
 10
-18.51998818897638
 20
5.358244094488189
 10
-18.52385039370079
 20
5.359877952755905
 10
-18.52734645669291
 20
5.362456692913386
 10
-18.5303937007874
 20
5.365874015748031
 10
-18.5329094488189
 20
5.370015748031496
 10
-18.53480708661417
 20
5.374771653543307
 10
-18.53600787401575
 20
5.380023622047244
 10
-18.5364251968504
 20
5.385665354330708
 10
-18.53600787401575
 20
5.3913031496063
 10
-18.53480708661417
 20
5.396555118110236
 10
-18.5329094488189
 20
5.401311023622047
 10
-18.5303937007874
 20
5.405452755905512
 10
-18.52734645669291
 20
5.408870078740158
 10
-18.52385039370079
 20
5.411448818897638
 10
-18.51998818897638
 20
5.413082677165354
 10
-18.51583858267717
 20
5.413649606299213
  0
LWPOLYLINE
  5
6B
330
1F
100
AcDbEntity
  8
Layer 1
 62
     7
370
    18
100
AcDbPolyline
 90
        2
 70
     0
 43
0.0
 10
-20.72759842519685
 20
6.379228346456693
 10
-20.72759842519685
 20
-3.699791338582677
  0
LWPOLYLINE
  5
6C
330
1F
100
AcDbEntity
  8
Layer 1
 62
     7
370
    18
100
AcDbPolyline
 90
        2
 70
     0
 43
0.0
 10
-20.13492125984252
 20
-3.939657480314961
 10
-18.39953937007874
 20
-3.939657480314961
  0
LWPOLYLINE
  5
6D
330
1F
100
AcDbEntity
  8
Layer 1
 62
     7
370
    18
100
AcDbPolyline
 90
        2
 70
     0
 43
0.0
 10
-20.83864173228346
 20
-3.699744094488189
 10
-20.61653149606299
 20
-3.699744094488189
  0
LWPOLYLINE
  5
6E
330
1F
100
AcDbEntity
  8
Layer 1
 62
     7
370
    18
100
AcDbPolyline
 90
        2
 70
     0
 43
0.0
 10
-20.83864173228346
 20
6.379232283464566
 10
-20.61653149606299
 20
6.379232283464566
  0
LWPOLYLINE
  5
6F
330
1F
100
AcDbEntity
  8
Layer 1
 62
     7
370
    18
100
AcDbPolyline
 90
        2
 70
     0
 43
0.0
 10
-20.12942913385827
 20
-4.050720472440945
 10
-20.12942913385827
 20
-3.828614173228346
  0
LWPOLYLINE
  5
70
330
1F
100
AcDbEntity
  8
Layer 1
 62
     7
370
    18
100
AcDbPolyline
 90
        2
 70
     0
 43
0.0
 10
-18.39958267716536
 20
-4.050720472440945
 10
-18.39958267716536
 20
-3.828614173228346
  0
LWPOLYLINE
  5
71
330
1F
100
AcDbEntity
  8
Layer 1
 62
     7
370
     9
100
AcDbPolyline
 90
       87
 70
     1
 43
0.0
 10
-21.11369291338583
 20
0.405236220472441
 10
-21.11369291338583
 20
0.6815787401574803
 10
-21.15408661417323
 20
0.6815787401574803
 10
-21.15408661417323
 20
0.502744094488189
 10
-21.28966141732283
 20
0.6394645669291339
 10
-21.29942125984252
 20
0.6483897637795275
 10
-21.30966535433071
 20
0.6561259842519686
 10
-21.32040157480315
 20
0.6626732283464567
 10
-21.3316220472441
 20
0.6680275590551181
 10
-21.34333464566929
 20
0.6721968503937008
 10
-21.35553149606299
 20
0.6751692913385827
 10
-21.36821653543307
 20
0.6769566929133858
 10
-21.38138976377953
 20
0.6775511811023622
 10
-21.39485433070866
 20
0.6769409448818897
 10
-21.40778346456693
 20
0.6751181102362205
 10
-21.42016929133858
 20
0.6720748031496063
 10
-21.4320157480315
 20
0.6678149606299213
 10
-21.44331889763779
 20
0.6623385826771654
 10
-21.45408267716535
 20
0.6556417322834646
 10
-21.46430708661417
 20
0.6477322834645669
 10
-21.47399212598425
 20
0.6386062992125984
 10
-21.4829842519685
 20
0.6284606299212598
 10
-21.49077559055118
 20
0.6178700787401575
 10
-21.49736614173228
 20
0.6068267716535433
 10
-21.50275984251968
 20
0.5953346456692913
 10
-21.50695275590551
 20
0.5833937007874016
 10
-21.50994488188976
 20
0.571
 10
-21.51174409448819
 20
0.5581535433070867
 10
-21.51234251968504
 20
0.5448582677165354
 10
-21.5117125984252
 20
0.5310472440944882
 10
-21.5098188976378
 20
0.517755905511811
 10
-21.50666535433071
 20
0.5049763779527559
 10
-21.50225196850394
 20
0.4927125984251968
 10
-21.49657480314961
 20
0.4809606299212598
 10
-21.48963385826772
 20
0.4697244094488189
 10
-21.48143307086614
 20
0.459003937007874
 10
-21.47196850393701
 20
0.4487992125984252
 10
-21.46178346456693
 20
0.4397047244094488
 10
-21.45106692913386
 20
0.4319015748031496
 10
-21.4398188976378
 20
0.4253858267716535
 10
-21.42804330708661
 20
0.4201614173228346
 10
-21.41573228346457
 20
0.4162283464566929
 10
-21.4028937007874
 20
0.4135826771653544
 10
-21.38952362204724
 20
0.4122283464566929
 10
-21.37562204724409
 20
0.4121653543307087
 10
-21.37562204724409
 20
0.4531102362204724
 10
-21.38464173228347
 20
0.4527716535433071
 10
-21.39345275590551
 20
0.4534015748031496
 10
-21.40205511811024
 20
0.455007874015748
 10
-21.41045275590551
 20
0.4575866141732283
 10
-21.41864173228347
 20
0.4611417322834646
 10
-21.42662204724409
 20
0.4656692913385827
 10
-21.43439763779527
 20
0.4711692913385827
 10
-21.44196062992126
 20
0.4776417322834646
 10
-21.44872440944882
 20
0.4845629921259842
 10
-21.45458267716536
 20
0.4918425196850394
 10
-21.45953937007874
 20
0.4994842519685039
 10
-21.46359448818898
 20
0.507492125984252
 10
-21.46674803149606
 20
0.5158582677165354
 10
-21.469
 20
0.5245826771653543
 10
-21.47035433070866
 20
0.5336692913385827
 10
-21.4708031496063
 20
0.5431181102362205
 10
-21.47039763779528
 20
0.5523858267716536
 10
-21.4691811023622
 20
0.5613070866141733
 10
-21.46715354330709
 20
0.5698740157480315
 10
-21.46431496062992
 20
0.5780905511811023
 10
-21.46066535433071
 20
0.5859566929133858
 10
-21.45620472440945
 20
0.5934724409448819
 10
-21.45092913385827
 20
0.6006377952755906
 10
-21.44484251968504
 20
0.6074527559055118
 10
-21.43811811023622
 20
0.613740157480315
 10
-21.43107086614173
 20
0.6191889763779528
 10
-21.4236968503937
 20
0.6237992125984252
 10
-21.416
 20
0.6275708661417323
 10
-21.40797637795276
 20
0.630503937007874
 10
-21.39962992125984
 20
0.6325944881889763
 10
-21.39095669291338
 20
0.6338543307086614
 10
-21.38196062992126
 20
0.6342716535433071
 10
-21.37276771653543
 20
0.6338661417322835
 10
-21.36393307086614
 20
0.6326496062992126
 10
-21.35545669291339
 20
0.6306220472440945
 10
-21.34734645669291
 20
0.6277834645669291
 10
-21.33959448818898
 20
0.6241338582677165
 10
-21.33220472440945
 20
0.6196732283464567
 10
-21.32517322834646
 20
0.6143976377952756
 10
-21.31850787401575
 20
0.6083110236220473
 10
-21.11369291338583
 20
0.405236220472441
  0
LWPOLYLINE
  5
72
330
1F
100
AcDbEntity
  8
Layer 1
 62
     7
370
     9
100
AcDbPolyline
 90
       65
 70
     1
 43
0.0
 10
-21.31331496062992
 20
0.8754330708661417
 10
-21.31294488188976
 20
0.883996062992126
 10
-21.31183464566929
 20
0.8922244094488189
 10
-21.30998818897638
 20
0.9001181102362205
 10
-21.30740157480315
 20
0.9076811023622047
 10
-21.30407480314961
 20
0.9149055118110236
 10
-21.30000787401575
 20
0.9217952755905512
 10
-21.29520472440945
 20
0.9283503937007874
 10
-21.28966141732283
 20
0.9345748031496063
 10
-21.28364960629921
 20
0.9401850393700787
 10
-21.27729527559055
 20
0.9450511811023622
 10
-21.27059448818898
 20
0.9491653543307087
 10
-21.26355511811024
 20
0.9525314960629921
 10
-21.25617322834646
 20
0.9551456692913386
 10
-21.24844881889764
 20
0.957015748031496
 10
-21.24038188976378
 20
0.9581377952755905
 10
-21.23197244094488
 20
0.958511811023622
 10
-21.22363385826772
 20
0.9581417322834646
 10
-21.21557874015748
 20
0.9570354330708661
 10
-21.2078031496063
 20
0.9551889763779527
 10
-21.20030708661417
 20
0.9526023622047244
 10
-21.19309448818898
 20
0.9492795275590551
 10
-21.18615748031496
 20
0.9452125984251969
 10
-21.17949606299213
 20
0.9404055118110236
 10
-21.17311811023622
 20
0.9348582677165355
 10
-21.1673031496063
 20
0.9287913385826772
 10
-21.16226377952756
 20
0.9223385826771654
 10
-21.158
 20
0.915492125984252
 10
-21.15451181102362
 20
0.9082598425196851
 10
-21.15179527559055
 20
0.9006377952755905
 10
-21.14985433070866
 20
0.8926259842519685
 10
-21.14869291338583
 20
0.8842244094488189
 10
-21.1483031496063
 20
0.8754330708661417
 10
-21.14869291338583
 20
0.8666496062992126
 10
-21.14985433070866
 20
0.8582559055118111
 10
-21.15179527559055
 20
0.8502440944881889
 10
-21.15451181102362
 20
0.8426259842519686
 10
-21.158
 20
0.8353937007874016
 10
-21.16226377952756
 20
0.8285472440944882
 10
-21.1673031496063
 20
0.8220944881889763
 10
-21.17311811023622
 20
0.8160275590551181
 10
-21.17949606299213
 20
0.8104803149606299
 10
-21.18615748031496
 20
0.8056692913385827
 10
-21.19309448818898
 20
0.8016023622047244
 10
-21.20030708661417
 20
0.7982716535433071
 10
-21.2078031496063
 20
0.7956811023622047
 10
-21.21557874015748
 20
0.7938346456692913
 10
-21.22363385826772
 20
0.792724409448819
 10
-21.23197244094488
 20
0.7923543307086615
 10
-21.24038188976378
 20
0.7927283464566929
 10
-21.24844881889764
 20
0.7938543307086614
 10
-21.25617322834646
 20
0.795724409448819
 10
-21.26355511811024
 20
0.7983464566929134
 10
-21.27059448818898
 20
0.8017165354330709
 10
-21.27729527559055
 20
0.8058346456692913
 10
-21.28364960629921
 20
0.8107007874015748
 10
-21.28966141732283
 20
0.8163149606299213
 10
-21.29520472440945
 20
0.8225393700787401
 10
-21.30000787401575
 20
0.8290944881889764
 10
-21.30407480314961
 20
0.8359842519685039
 10
-21.30740157480315
 20
0.8432047244094488
 10
-21.30998818897638
 20
0.8507637795275591
 10
-21.31183464566929
 20
0.8586535433070867
 10
-21.31294488188976
 20
0.8668740157480315
 10
-21.31331496062992
 20
0.8754330708661417
  0
LWPOLYLINE
  5
73
330
1F
100
AcDbEntity
  8
Layer 1
 62
     7
370
     9
100
AcDbPolyline
 90
       65
 70
     1
 43
0.0
 10
-21.47254330708661
 20
0.8754330708661417
 10
-21.47225590551181
 20
0.8823385826771654
 10
-21.47138976377953
 20
0.8889803149606299
 10
-21.46994881889764
 20
0.8953582677165355
 10
-21.46792913385827
 20
0.9014763779527559
 10
-21.46533070866142
 20
0.9073307086614173
 10
-21.46215748031496
 20
0.9129251968503937
 10
-21.4584094488189
 20
0.918255905511811
 10
-21.45408267716535
 20
0.9233307086614173
 10
-21.44922047244095
 20
0.9280590551181103
 10
-21.44407874015748
 20
0.9321614173228346
 10
-21.43865748031496
 20
0.9356299212598426
 10
-21.43295669291339
 20
0.9384724409448819
 10
-21.42697244094488
 20
0.9406850393700787
 10
-21.4207125984252
 20
0.942263779527559
 10
-21.41417322834646
 20
0.9432125984251969
 10
-21.40735039370079
 20
0.9435275590551181
 10
-21.40068110236221
 20
0.9432125984251969
 10
-21.39422834645669
 20
0.942263779527559
 10
-21.38798818897638
 20
0.9406850393700787
 10
-21.38196456692913
 20
0.9384724409448819
 10
-21.37616141732283
 20
0.9356299212598426
 10
-21.37057086614173
 20
0.9321614173228346
 10
-21.36520078740158
 20
0.9280590551181103
 10
-21.36004724409449
 20
0.9233307086614173
 10
-21.35544881889764
 20
0.9182913385826772
 10
-21.35146062992126
 20
0.9129763779527559
 10
-21.34808661417323
 20
0.9073937007874016
 10
-21.34532677165354
 20
0.9015433070866141
 10
-21.34318110236221
 20
0.8954212598425196
 10
-21.34164960629921
 20
0.8890275590551181
 10
-21.34072834645669
 20
0.8823661417322834
 10
-21.34042125984252
 20
0.8754330708661417
 10
-21.34072834645669
 20
0.8685
 10
-21.34164960629921
 20
0.8618425196850393
 10
-21.34318110236221
 20
0.8554527559055118
 10
-21.34532677165354
 20
0.8493346456692913
 10
-21.34808661417323
 20
0.843484251968504
 10
-21.35146062992126
 20
0.8379055118110236
 10
-21.35544881889764
 20
0.8325984251968503
 10
-21.36004724409449
 20
0.8275551181102362
 10
-21.36520078740158
 20
0.8228188976377953
 10
-21.37057086614173
 20
0.8187165354330709
 10
-21.37616141732283
 20
0.815244094488189
 10
-21.38196456692913
 20
0.8124055118110236
 10
-21.38798818897638
 20
0.8101968503937008
 10
-21.39422834645669
 20
0.8086181102362204
 10
-21.40068110236221
 20
0.8076732283464567
 10
-21.40735039370079
 20
0.8073582677165354
 10
-21.41417322834646
 20
0.8076732283464567
 10
-21.4207125984252
 20
0.8086181102362204
 10
-21.42697244094488
 20
0.8101968503937008
 10
-21.43295669291339
 20
0.8124055118110236
 10
-21.43865748031496
 20
0.815244094488189
 10
-21.44407874015748
 20
0.8187165354330709
 10
-21.44922047244095
 20
0.8228188976377953
 10
-21.45408267716535
 20
0.8275551181102362
 10
-21.4584094488189
 20
0.8326220472440945
 10
-21.46215748031496
 20
0.8379527559055118
 10
-21.46533070866142
 20
0.8435472440944882
 10
-21.46792913385827
 20
0.8494015748031496
 10
-21.46994881889764
 20
0.85551968503937
 10
-21.47138976377953
 20
0.8618976377952756
 10
-21.47225590551181
 20
0.8685354330708661
 10
-21.47254330708661
 20
0.8754330708661417
  0
LWPOLYLINE
  5
74
330
1F
100
AcDbEntity
  8
Layer 1
 62
     7
370
     9
100
AcDbPolyline
 90
      121
 70
     1
 43
0.0
 10
-21.10792913385827
 20
0.8754330708661417
 10
-21.10842913385827
 20
0.8886574803149606
 10
-21.10992913385827
 20
0.9013503937007874
 10
-21.11242913385827
 20
0.9135078740157481
 10
-21.11593307086614
 20
0.9251299212598425
 10
-21.12043307086614
 20
0.9362204724409449
 10
-21.12593700787401
 20
0.9467795275590551
 10
-21.13243700787402
 20
0.9568031496062992
 10
-21.13994094488189
 20
0.9662992125984252
 10
-21.14386614173228
 20
0.9705826771653543
 10
-21.14798818897638
 20
0.9746338582677165
 10
-21.15230708661417
 20
0.9784488188976378
 10
-21.15682283464567
 20
0.9820275590551181
 10
-21.16153543307087
 20
0.9853740157480315
 10
-21.16644881889764
 20
0.988484251968504
 10
-21.17155511811024
 20
0.9913622047244095
 10
-21.17686220472441
 20
0.994
 10
-21.18237401574803
 20
0.9963661417322834
 10
-21.18808267716535
 20
0.9984133858267716
 10
-21.19398818897638
 20
1.000149606299213
 10
-21.2000905511811
 20
1.001570866141732
 10
-21.20638976377953
 20
1.002677165354331
 10
-21.21288582677165
 20
1.003464566929134
 10
-21.21958267716536
 20
1.00394094488189
 10
-21.22647637795276
 20
1.00409842519685
 10
-21.23346456692913
 20
1.003830708661417
 10
-21.24043700787401
 20
1.003031496062992
 10
-21.24738582677166
 20
1.001700787401575
 10
-21.25431889763779
 20
0.9998385826771653
 10
-21.26123622047244
 20
0.9974448818897638
 10
-21.26813385826772
 20
0.9945157480314961
 10
-21.27501181102362
 20
0.9910590551181102
 10
-21.28187401574803
 20
0.9870708661417322
 10
-21.28856299212599
 20
0.9825866141732283
 10
-21.29493700787402
 20
0.9776417322834645
 10
-21.30099606299213
 20
0.972236220472441
 10
-21.30674409448819
 20
0.9663740157480315
 10
-21.31217322834646
 20
0.9600511811023622
 10
-21.31729133858268
 20
0.9532716535433071
 10
-21.32209448818898
 20
0.9460314960629921
 10
-21.32658267716536
 20
0.9383346456692914
 10
-21.33635039370079
 20
0.9492874015748032
 10
-21.34632677165354
 20
0.9587795275590552
 10
-21.35650787401575
 20
0.9668110236220473
 10
-21.3668937007874
 20
0.9733818897637795
 10
-21.37748818897638
 20
0.978496062992126
 10
-21.38829133858268
 20
0.9821456692913386
 10
-21.3993031496063
 20
0.9843385826771653
 10
-21.41051968503937
 20
0.9850669291338583
 10
-21.42158661417323
 20
0.9845669291338582
 10
-21.43213779527559
 20
0.9830629921259842
 10
-21.44217716535433
 20
0.9805590551181103
 10
-21.45170078740157
 20
0.9770511811023622
 10
-21.4607125984252
 20
0.9725472440944882
 10
-21.4692125984252
 20
0.9670393700787402
 10
-21.4771968503937
 20
0.9605354330708662
 10
-21.48466535433071
 20
0.9530314960629921
 10
-21.49115354330709
 20
0.9450984251968504
 10
-21.49677559055118
 20
0.9366614173228347
 10
-21.50153149606299
 20
0.9277204724409449
 10
-21.50542519685039
 20
0.9182716535433071
 10
-21.50845275590551
 20
0.9083228346456693
 10
-21.51061417322835
 20
0.8978622047244095
 10
-21.5119094488189
 20
0.8869015748031496
 10
-21.51234251968504
 20
0.8754330708661417
 10
-21.5119094488189
 20
0.8639724409448819
 10
-21.51061417322835
 20
0.853011811023622
 10
-21.50845275590551
 20
0.8425551181102362
 10
-21.50542519685039
 20
0.8326023622047244
 10
-21.50153149606299
 20
0.8231574803149606
 10
-21.49677559055118
 20
0.8142165354330708
 10
-21.49115354330709
 20
0.8057795275590551
 10
-21.48466535433071
 20
0.7978543307086614
 10
-21.47720078740157
 20
0.7903464566929134
 10
-21.46922834645669
 20
0.7838385826771653
 10
-21.46075590551181
 20
0.7783307086614173
 10
-21.45177559055118
 20
0.7738267716535433
 10
-21.44229133858268
 20
0.7703228346456693
 10
-21.43229921259843
 20
0.7678188976377953
 10
-21.4218031496063
 20
0.7663188976377953
 10
-21.4108031496063
 20
0.7658188976377953
 10
-21.39951968503937
 20
0.7665472440944882
 10
-21.38845275590551
 20
0.768740157480315
 10
-21.37760236220472
 20
0.7723897637795275
 10
-21.36696850393701
 20
0.777503937007874
 10
-21.35654724409449
 20
0.7840748031496063
 10
-21.34634645669291
 20
0.7921062992125985
 10
-21.33635433070866
 20
0.8015984251968504
 10
-21.32658267716536
 20
0.8125511811023622
 10
-21.32209448818898
 20
0.8048464566929134
 10
-21.31729133858268
 20
0.7976023622047244
 10
-21.31217322834646
 20
0.7908188976377952
 10
-21.30674409448819
 20
0.7844960629921259
 10
-21.30099606299213
 20
0.7786299212598425
 10
-21.29493700787402
 20
0.7732244094488189
 10
-21.28856299212599
 20
0.7682795275590552
 10
-21.28187401574803
 20
0.7637952755905512
 10
-21.275
 20
0.7598070866141732
 10
-21.26807874015748
 20
0.7563543307086614
 10
-21.26111417322835
 20
0.7534291338582677
 10
-21.2541062992126
 20
0.7510393700787401
 10
-21.24705118110236
 20
0.7491771653543307
 10
-21.23995275590551
 20
0.7478503937007874
 10
-21.23280708661417
 20
0.7470511811023622
 10
-21.22561811023622
 20
0.7467874015748032
 10
-21.21273622047244
 20
0.7473779527559055
 10
-21.20047244094488
 20
0.7491496062992126
 10
-21.18883070866142
 20
0.7521023622047244
 10
-21.17781102362205
 20
0.756232283464567
 10
-21.16741338582677
 20
0.7615472440944882
 10
-21.15763385826772
 20
0.7680393700787401
 10
-21.14847637795276
 20
0.7757125984251968
 10
-21.13994094488189
 20
0.7845669291338583
 10
-21.13243700787402
 20
0.7940708661417323
 10
-21.12593700787401
 20
0.8041023622047244
 10
-21.12043307086614
 20
0.8146614173228346
 10
-21.11593307086614
 20
0.825755905511811
 10
-21.11242913385827
 20
0.8373779527559055
 10
-21.10992913385827
 20
0.8495314960629922
 10
-21.10842913385827
 20
0.8622165354330709
 10
-21.10792913385827
 20
0.8754330708661417
  0
LWPOLYLINE
  5
75
330
1F
100
AcDbEntity
  8
Layer 1
 62
     7
370
     9
100
AcDbPolyline
 90
       88
 70
     1
 43
0.0
 10
-21.46041732283464
 20
1.220153543307087
 10
-21.4558937007874
 20
1.226818897637795
 10
-21.45075984251968
 20
1.233031496062992
 10
-21.44501181102362
 20
1.238795275590551
 10
-21.43864960629921
 20
1.244106299212598
 10
-21.43167322834646
 20
1.248964566929134
 10
-21.42408267716536
 20
1.253374015748032
 10
-21.41587795275591
 20
1.257330708661417
 10
-21.40706299212598
 20
1.260834645669291
 10
-21.39536614173228
 20
1.264755905511811
 10
-21.38349606299213
 20
1.268157480314961
 10
-21.37145275590551
 20
1.271031496062992
 10
-21.35924409448819
 20
1.273381889763779
 10
-21.34686220472441
 20
1.275208661417323
 10
-21.33431102362205
 20
1.276515748031496
 10
-21.32158661417323
 20
1.277299212598425
 10
-21.30869291338583
 20
1.27755905511811
 10
-21.28013779527559
 20
1.275842519685039
 10
-21.26462992125984
 20
1.273842519685039
 10
-21.24997637795276
 20
1.271228346456693
 10
-21.23618110236221
 20
1.268
 10
-21.22324015748032
 20
1.264157480314961
 10
-21.21115748031496
 20
1.259704724409449
 10
-21.19993307086614
 20
1.25463779527559
 10
-21.18956299212599
 20
1.248956692913386
 10
-21.18005118110236
 20
1.242661417322835
 10
-21.1728779527559
 20
1.23692125984252
 10
-21.16666535433071
 20
1.230870078740157
 10
-21.1614094488189
 20
1.224515748031496
 10
-21.15711023622047
 20
1.217854330708661
 10
-21.15376377952756
 20
1.210885826771654
 10
-21.1513779527559
 20
1.203610236220472
 10
-21.14994488188976
 20
1.196031496062992
 10
-21.14946850393701
 20
1.188141732283465
 10
-21.14994094488189
 20
1.179338582677165
 10
-21.15136220472441
 20
1.17096062992126
 10
-21.15372834645669
 20
1.163003937007874
 10
-21.15703937007874
 20
1.155468503937008
 10
-21.16129921259843
 20
1.14836220472441
 10
-21.1665
 20
1.141673228346457
 10
-21.17264960629921
 20
1.135413385826772
 10
-21.17974409448819
 20
1.129574803149606
 10
-21.18674803149606
 20
1.124744094488189
 10
-21.19417716535433
 20
1.120346456692913
 10
-21.20203543307086
 20
1.11638188976378
 10
-21.21032677165354
 20
1.112854330708661
 10
-21.21888976377953
 20
1.109736220472441
 10
-21.22755905511811
 20
1.107011811023622
 10
-21.23634251968504
 20
1.104685039370079
 10
-21.24524015748031
 20
1.102751968503937
 10
-21.27985039370079
 20
1.097846456692913
 10
-21.31840551181102
 20
1.096417322834646
 10
-21.32994488188976
 20
1.096811023622047
 10
-21.34279133858268
 20
1.098
 10
-21.35696062992126
 20
1.09998031496063
 10
-21.37245669291339
 20
1.102751968503937
 10
-21.38122834645669
 20
1.104665354330709
 10
-21.38997244094488
 20
1.10694094488189
 10
-21.3986811023622
 20
1.109574803149606
 10
-21.40735039370079
 20
1.112566929133858
 10
-21.41578346456693
 20
1.115976377952756
 10
-21.42378346456693
 20
1.119850393700787
 10
-21.43135826771654
 20
1.124192913385827
 10
-21.43850393700787
 20
1.129003937007874
 10
-21.44188188976378
 20
1.131590551181102
 10
-21.4450905511811
 20
1.134303149606299
 10
-21.44812598425197
 20
1.137145669291339
 10
-21.45098818897638
 20
1.140114173228346
 10
-21.45367716535433
 20
1.143208661417323
 10
-21.4561968503937
 20
1.146429133858268
 10
-21.45854724409449
 20
1.149775590551181
 10
-21.46072440944882
 20
1.153248031496063
 10
-21.4626811023622
 20
1.156854330708661
 10
-21.46437795275591
 20
1.160629921259843
 10
-21.46581496062992
 20
1.164562992125984
 10
-21.46699212598425
 20
1.168665354330709
 10
-21.4679094488189
 20
1.172929133858268
 10
-21.46856299212599
 20
1.177354330708661
 10
-21.46895669291339
 20
1.18194094488189
 10
-21.46908661417323
 20
1.186688976377953
 10
-21.46895275590551
 20
1.191444881889764
 10
-21.46854724409449
 20
1.196035433070866
 10
-21.46787007874016
 20
1.200464566929134
 10
-21.46692125984252
 20
1.204728346456693
 10
-21.46570472440945
 20
1.208826771653543
 10
-21.4642125984252
 20
1.212763779527559
 10
-21.46245275590551
 20
1.21653937007874
 10
-21.46041732283464
 20
1.220153543307087
  0
LWPOLYLINE
  5
76
330
1F
100
AcDbEntity
  8
Layer 1
 62
     7
370
     9
100
AcDbPolyline
 90
       65
 70
     1
 43
0.0
 10
-21.1085
 20
1.188716535433071
 10
-21.10956692913386
 20
1.20555905511811
 10
-21.11277559055118
 20
1.221330708661417
 10
-21.11811417322835
 20
1.236027559055118
 10
-21.12559448818898
 20
1.249653543307087
 10
-21.13520866141732
 20
1.262204724409449
 10
-21.14695669291338
 20
1.273685039370079
 10
-21.16084251968504
 20
1.284090551181102
 10
-21.17686220472441
 20
1.29342125984252
 10
-21.19084645669291
 20
1.299984251968504
 10
-21.2056062992126
 20
1.305669291338583
 10
-21.22113779527559
 20
1.310476377952756
 10
-21.23744488188976
 20
1.314413385826772
 10
-21.25452755905512
 20
1.317472440944882
 10
-21.27238582677165
 20
1.319657480314961
 10
-21.29101968503937
 20
1.320968503937008
 10
-21.31043307086614
 20
1.321405511811024
 10
-21.32983858267717
 20
1.320968503937008
 10
-21.34847244094488
 20
1.319657480314961
 10
-21.36633070866142
 20
1.317472440944882
 10
-21.3834094488189
 20
1.314413385826772
 10
-21.39971653543307
 20
1.310476377952756
 10
-21.41524803149606
 20
1.305669291338583
 10
-21.43000393700787
 20
1.299984251968504
 10
-21.44398425196851
 20
1.29342125984252
 10
-21.46001181102362
 20
1.284090551181102
 10
-21.47389763779528
 20
1.273685039370079
 10
-21.48564566929134
 20
1.262204724409449
 10
-21.49525984251969
 20
1.249653543307087
 10
-21.50273228346457
 20
1.236027559055118
 10
-21.50807086614173
 20
1.221330708661417
 10
-21.51127559055118
 20
1.20555905511811
 10
-21.51234251968504
 20
1.188716535433071
 10
-21.51127559055118
 20
1.171874015748031
 10
-21.50807086614173
 20
1.156102362204724
 10
-21.50273228346457
 20
1.141405511811024
 10
-21.49525984251969
 20
1.127783464566929
 10
-21.48564566929134
 20
1.115232283464567
 10
-21.47389763779528
 20
1.103751968503937
 10
-21.46001181102362
 20
1.093342519685039
 10
-21.44398425196851
 20
1.084007874015748
 10
-21.43000393700787
 20
1.077444881889764
 10
-21.41524803149606
 20
1.071759842519685
 10
-21.39971653543307
 20
1.066952755905512
 10
-21.3834094488189
 20
1.063015748031496
 10
-21.36633070866142
 20
1.059956692913386
 10
-21.34847244094488
 20
1.057771653543307
 10
-21.32983858267717
 20
1.05646062992126
 10
-21.31043307086614
 20
1.056023622047244
 10
-21.29101968503937
 20
1.05646062992126
 10
-21.27238582677165
 20
1.057771653543307
 10
-21.25452755905512
 20
1.059956692913386
 10
-21.23744488188976
 20
1.063015748031496
 10
-21.22113779527559
 20
1.066952755905512
 10
-21.2056062992126
 20
1.071759842519685
 10
-21.19084645669291
 20
1.077444881889764
 10
-21.17686220472441
 20
1.084007874015748
 10
-21.16084251968504
 20
1.093342519685039
 10
-21.14695669291338
 20
1.103751968503937
 10
-21.13520866141732
 20
1.115232283464567
 10
-21.12559448818898
 20
1.127783464566929
 10
-21.11811417322835
 20
1.141405511811024
 10
-21.11277559055118
 20
1.156102362204724
 10
-21.10956692913386
 20
1.171874015748031
 10
-21.1085
 20
1.188716535433071
  0
LWPOLYLINE
  5
77
330
1F
100
AcDbEntity
  8
Layer 1
 62
     7
370
     9
100
AcDbPolyline
 90
      132
 70
     1
 43
0.0
 10
-19.47667716535433
 20
-4.390496062992126
 10
-19.45014566929134
 20
-4.285503937007874
 10
-19.3082125984252
 20
-4.285503937007874
 10
-19.3082125984252
 20
-4.245106299212599
 10
-19.48072440944882
 20
-4.245106299212599
 10
-19.52572047244094
 20
-4.421078740157481
 10
-19.48187007874016
 20
-4.440681102362205
 10
-19.47551181102362
 20
-4.436354330708661
 10
-19.46883858267717
 20
-4.432606299212599
 10
-19.46185039370079
 20
-4.429433070866142
 10
-19.45454330708661
 20
-4.426834645669292
 10
-19.44692125984252
 20
-4.424814960629921
 10
-19.4389842519685
 20
-4.423374015748031
 10
-19.43072834645669
 20
-4.422507874015748
 10
-19.42215748031496
 20
-4.422220472440945
 10
-19.41353937007874
 20
-4.422645669291339
 10
-19.4052125984252
 20
-4.423913385826772
 10
-19.39717322834646
 20
-4.426035433070866
 10
-19.38942125984252
 20
-4.429
 10
-19.38195669291338
 20
-4.432814960629921
 10
-19.37478346456693
 20
-4.437476377952756
 10
-19.36789763779528
 20
-4.442988188976378
 10
-19.36129921259842
 20
-4.449350393700787
 10
-19.35507874015748
 20
-4.456433070866142
 10
-19.34968503937008
 20
-4.463783464566929
 10
-19.34512598425197
 20
-4.471393700787401
 10
-19.34139763779527
 20
-4.479267716535433
 10
-19.33849606299212
 20
-4.487405511811024
 10
-19.33642519685039
 20
-4.495799212598425
 10
-19.33518110236221
 20
-4.504456692913386
 10
-19.33476771653543
 20
-4.513374015748031
 10
-19.33519291338583
 20
-4.522602362204724
 10
-19.33646062992126
 20
-4.531464566929134
 10
-19.33857874015748
 20
-4.539952755905512
 10
-19.34154330708661
 20
-4.548070866141733
 10
-19.34535433070866
 20
-4.555822834645669
 10
-19.3500157480315
 20
-4.563200787401575
 10
-19.35551968503937
 20
-4.570212598425197
 10
-19.36187401574803
 20
-4.576850393700788
 10
-19.36845275590551
 20
-4.58259842519685
 10
-19.37550393700787
 20
-4.587736220472441
 10
-19.38301968503937
 20
-4.592259842519685
 10
-19.39100393700787
 20
-4.596169291338582
 10
-19.39523622047244
 20
-4.597858267716536
 10
-19.39970078740157
 20
-4.599322834645669
 10
-19.40439763779527
 20
-4.600562992125984
 10
-19.40933070866142
 20
-4.60157874015748
 10
-19.41449606299213
 20
-4.602366141732284
 10
-19.4198937007874
 20
-4.602929133858268
 10
-19.42552755905512
 20
-4.603267716535433
 10
-19.43139763779527
 20
-4.60338188976378
 10
-19.43737795275591
 20
-4.603129921259843
 10
-19.44335433070866
 20
-4.602370078740157
 10
-19.44931496062992
 20
-4.601106299212598
 10
-19.45527165354331
 20
-4.599342519685039
 10
-19.4612125984252
 20
-4.597066929133859
 10
-19.46714960629921
 20
-4.594295275590551
 10
-19.47307480314961
 20
-4.591015748031496
 10
-19.47898818897638
 20
-4.587232283464567
 10
-19.48468897637795
 20
-4.58303937007874
 10
-19.48995669291338
 20
-4.57853937007874
 10
-19.4947874015748
 20
-4.573732283464567
 10
-19.49918503937008
 20
-4.568622047244094
 10
-19.50314960629921
 20
-4.563200787401575
 10
-19.5066811023622
 20
-4.557476377952756
 10
-19.50978346456693
 20
-4.55144094488189
 10
-19.51245275590551
 20
-4.545102362204724
 10
-19.55168110236221
 20
-4.557795275590551
 10
-19.54782677165354
 20
-4.567291338582677
 10
-19.54333464566929
 20
-4.576314960629921
 10
-19.53820078740157
 20
-4.584854330708661
 10
-19.53242519685039
 20
-4.59292125984252
 10
-19.52601181102362
 20
-4.600503937007874
 10
-19.51895669291338
 20
-4.607614173228346
 10
-19.51125984251969
 20
-4.614244094488189
 10
-19.50292519685039
 20
-4.620393700787401
 10
-19.49406299212598
 20
-4.626007874015748
 10
-19.48500787401575
 20
-4.630870078740157
 10
-19.47574803149606
 20
-4.634988188976378
 10
-19.46629527559055
 20
-4.638358267716535
 10
-19.45664173228347
 20
-4.64098031496063
 10
-19.44679133858268
 20
-4.642850393700788
 10
-19.43674015748032
 20
-4.643976377952756
 10
-19.42649212598425
 20
-4.644350393700788
 10
-19.41283464566929
 20
-4.643732283464567
 10
-19.39970078740157
 20
-4.641877952755905
 10
-19.3870905511811
 20
-4.638787401574803
 10
-19.37500393700788
 20
-4.634464566929134
 10
-19.36344094488189
 20
-4.628905511811023
 10
-19.35240157480315
 20
-4.622110236220473
 10
-19.34188188976378
 20
-4.61407874015748
 10
-19.33188582677165
 20
-4.604814960629922
 10
-19.32282283464567
 20
-4.594763779527559
 10
-19.31496850393701
 20
-4.584212598425196
 10
-19.30832677165354
 20
-4.573165354330708
 10
-19.30288976377953
 20
-4.561625984251968
 10
-19.29866141732283
 20
-4.549586614173228
 10
-19.29564173228346
 20
-4.537051181102362
 10
-19.29383070866142
 20
-4.52401968503937
 10
-19.29322834645669
 20
-4.510492125984252
 10
-19.29382283464567
 20
-4.49703937007874
 10
-19.2956062992126
 20
-4.484153543307086
 10
-19.29858267716535
 20
-4.471834645669292
 10
-19.30274803149606
 20
-4.460082677165354
 10
-19.30809842519685
 20
-4.448901574803149
 10
-19.31464173228347
 20
-4.438287401574804
 10
-19.32237007874016
 20
-4.428244094488189
 10
-19.33129133858268
 20
-4.418767716535433
 10
-19.33585826771654
 20
-4.414551181102362
 10
-19.34060236220472
 20
-4.41055905511811
 10
-19.34552362204725
 20
-4.406795275590551
 10
-19.35062598425197
 20
-4.403259842519685
 10
-19.3559094488189
 20
-4.399944881889764
 10
-19.36137007874016
 20
-4.396858267716535
 10
-19.36701181102362
 20
-4.393996062992126
 10
-19.37283070866142
 20
-4.391354330708661
 10
-19.37877559055118
 20
-4.388988188976378
 10
-19.38476771653543
 20
-4.38694094488189
 10
-19.39081496062992
 20
-4.385204724409449
 10
-19.3969094488189
 20
-4.383783464566929
 10
-19.40305118110236
 20
-4.38267716535433
 10
-19.40924409448819
 20
-4.381889763779528
 10
-19.4154842519685
 20
-4.381413385826772
 10
-19.42177165354331
 20
-4.381255905511811
 10
-19.42818110236221
 20
-4.381401574803149
 10
-19.43472047244094
 20
-4.381834645669291
 10
-19.44138582677165
 20
-4.382555118110236
 10
-19.44818110236221
 20
-4.383566929133858
 10
-19.4551062992126
 20
-4.384870078740158
 10
-19.46216535433071
 20
-4.386456692913386
 10
-19.46935433070866
 20
-4.388330708661417
 10
-19.47667716535433
 20
-4.390496062992126
  0
LWPOLYLINE
  5
78
330
1F
100
AcDbEntity
  8
Layer 1
 62
     7
370
     9
100
AcDbPolyline
 90
       88
 70
     1
 43
0.0
 10
-19.06966929133858
 20
-4.290696850393701
 10
-19.06300393700787
 20
-4.295220472440945
 10
-19.05679133858268
 20
-4.300354330708662
 10
-19.05102755905512
 20
-4.306102362204724
 10
-19.04571653543307
 20
-4.312468503937008
 10
-19.04085826771654
 20
-4.319440944881889
 10
-19.03645275590551
 20
-4.327031496062992
 10
-19.03249212598425
 20
-4.335236220472441
 10
-19.02898818897638
 20
-4.344051181102362
 10
-19.02506692913386
 20
-4.355748031496063
 10
-19.02166535433071
 20
-4.36761811023622
 10
-19.01879133858268
 20
-4.379661417322835
 10
-19.01644094488189
 20
-4.391870078740157
 10
-19.01461417322835
 20
-4.404251968503937
 10
-19.01330708661417
 20
-4.4168031496063
 10
-19.01252362204724
 20
-4.429527559055118
 10
-19.01226377952756
 20
-4.442421259842519
 10
-19.01398425196851
 20
-4.470976377952756
 10
-19.0159842519685
 20
-4.486484251968504
 10
-19.01859842519685
 20
-4.50113779527559
 10
-19.02182677165354
 20
-4.514933070866141
 10
-19.02566535433071
 20
-4.527874015748031
 10
-19.03011811023622
 20
-4.539956692913385
 10
-19.03518503937008
 20
-4.551181102362205
 10
-19.04086614173228
 20
-4.561551181102362
 10
-19.04716141732283
 20
-4.571062992125984
 10
-19.05290157480315
 20
-4.578236220472441
 10
-19.05895275590551
 20
-4.584448818897638
 10
-19.06530708661417
 20
-4.589704724409449
 10
-19.07196850393701
 20
-4.594003937007874
 10
-19.07893700787401
 20
-4.597350393700787
 10
-19.0862125984252
 20
-4.599736220472441
 10
-19.09379133858268
 20
-4.601169291338583
 10
-19.1016811023622
 20
-4.601645669291338
 10
-19.1104842519685
 20
-4.601173228346457
 10
-19.11886220472441
 20
-4.599751968503937
 10
-19.12681889763779
 20
-4.597385826771654
 10
-19.13435433070866
 20
-4.594074803149606
 10
-19.14146062992126
 20
-4.589814960629921
 10
-19.14814960629921
 20
-4.584614173228347
 10
-19.1544094488189
 20
-4.578464566929134
 10
-19.16024803149606
 20
-4.571370078740157
 10
-19.16507874015748
 20
-4.564366141732283
 10
-19.16947637795275
 20
-4.556937007874016
 10
-19.17344094488189
 20
-4.54907874015748
 10
-19.17697244094488
 20
-4.540787401574804
 10
-19.18008661417323
 20
-4.532224409448819
 10
-19.18281102362205
 20
-4.523555118110236
 10
-19.18513779527559
 20
-4.514771653543307
 10
-19.18707086614173
 20
-4.505874015748032
 10
-19.19197637795276
 20
-4.471263779527559
 10
-19.19340551181102
 20
-4.432708661417323
 10
-19.19301181102362
 20
-4.421169291338582
 10
-19.19182283464567
 20
-4.408322834645669
 10
-19.18984645669291
 20
-4.394153543307087
 10
-19.18707086614173
 20
-4.378657480314961
 10
-19.18515748031496
 20
-4.369885826771654
 10
-19.18288582677165
 20
-4.361141732283465
 10
-19.18025196850394
 20
-4.352433070866142
 10
-19.17725590551181
 20
-4.343763779527559
 10
-19.17384645669291
 20
-4.335330708661417
 10
-19.16997244094488
 20
-4.327326771653543
 10
-19.16563385826772
 20
-4.319755905511811
 10
-19.16082283464567
 20
-4.312610236220473
 10
-19.15823622047244
 20
-4.309232283464567
 10
-19.15551968503937
 20
-4.306023622047245
 10
-19.15267716535433
 20
-4.302988188976378
 10
-19.14970866141732
 20
-4.300125984251968
 10
-19.14661417322835
 20
-4.297437007874016
 10
-19.1433937007874
 20
-4.294917322834646
 10
-19.14004724409449
 20
-4.292566929133859
 10
-19.13657480314961
 20
-4.290389763779528
 10
-19.13296850393701
 20
-4.288433070866142
 10
-19.12919291338583
 20
-4.286736220472441
 10
-19.12525984251969
 20
-4.285299212598425
 10
-19.12115748031496
 20
-4.284122047244095
 10
-19.1168937007874
 20
-4.283204724409448
 10
-19.11246850393701
 20
-4.282551181102362
 10
-19.10788188976378
 20
-4.282157480314961
 10
-19.10313385826772
 20
-4.282027559055118
 10
-19.09837795275591
 20
-4.282161417322834
 10
-19.0937874015748
 20
-4.282566929133858
 10
-19.08935826771653
 20
-4.283244094488189
 10
-19.08509842519685
 20
-4.284192913385827
 10
-19.08099606299212
 20
-4.285409448818898
 10
-19.07705905511811
 20
-4.286901574803149
 10
-19.07328346456693
 20
-4.288661417322834
 10
-19.06966929133858
 20
-4.290696850393701
  0
LWPOLYLINE
  5
79
330
1F
100
AcDbEntity
  8
Layer 1
 62
     7
370
     9
100
AcDbPolyline
 90
       65
 70
     1
 43
0.0
 10
-19.10111023622047
 20
-4.642614173228346
 10
-19.08426771653543
 20
-4.641547244094488
 10
-19.06849606299212
 20
-4.638338582677165
 10
-19.05379527559055
 20
-4.633
 10
-19.04016929133858
 20
-4.62551968503937
 10
-19.02761811023622
 20
-4.615905511811023
 10
-19.01613779527559
 20
-4.604157480314961
 10
-19.00573228346457
 20
-4.590271653543307
 10
-18.99640157480315
 20
-4.574251968503937
 10
-18.98984251968504
 20
-4.560267716535433
 10
-18.98415748031496
 20
-4.545507874015748
 10
-18.97934645669291
 20
-4.529976377952756
 10
-18.97541338582677
 20
-4.513669291338583
 10
-18.97235039370079
 20
-4.496586614173228
 10
-18.97016535433071
 20
-4.478728346456693
 10
-18.96885433070866
 20
-4.460094488188976
 10
-18.96841732283465
 20
-4.440681102362205
 10
-18.96885433070866
 20
-4.421275590551181
 10
-18.97016535433071
 20
-4.402641732283465
 10
-18.97235039370079
 20
-4.384783464566929
 10
-18.97541338582677
 20
-4.367704724409449
 10
-18.97934645669291
 20
-4.351397637795276
 10
-18.98415748031496
 20
-4.335866141732284
 10
-18.98984251968504
 20
-4.321110236220473
 10
-18.99640157480315
 20
-4.307129921259842
 10
-19.00573228346457
 20
-4.291102362204724
 10
-19.01613779527559
 20
-4.27721653543307
 10
-19.02761811023622
 20
-4.265468503937008
 10
-19.04016929133858
 20
-4.255854330708662
 10
-19.05379527559055
 20
-4.248381889763779
 10
-19.06849606299212
 20
-4.243043307086614
 10
-19.08426771653543
 20
-4.239838582677165
 10
-19.10111023622047
 20
-4.238771653543307
 10
-19.11795275590551
 20
-4.239838582677165
 10
-19.13372047244095
 20
-4.243043307086614
 10
-19.14841732283465
 20
-4.248381889763779
 10
-19.16203937007874
 20
-4.255854330708662
 10
-19.1745905511811
 20
-4.265468503937008
 10
-19.18607086614173
 20
-4.27721653543307
 10
-19.19648031496063
 20
-4.291102362204724
 10
-19.20581496062992
 20
-4.307129921259842
 10
-19.2123779527559
 20
-4.321110236220473
 10
-19.21806299212598
 20
-4.335866141732284
 10
-19.22287007874016
 20
-4.351397637795276
 10
-19.22680708661417
 20
-4.367704724409449
 10
-19.22986614173228
 20
-4.384783464566929
 10
-19.23205118110236
 20
-4.402641732283465
 10
-19.23336220472441
 20
-4.421275590551181
 10
-19.23379921259842
 20
-4.440681102362205
 10
-19.23336220472441
 20
-4.460094488188976
 10
-19.23205118110236
 20
-4.478728346456693
 10
-19.22986614173228
 20
-4.496586614173228
 10
-19.22680708661417
 20
-4.513669291338583
 10
-19.22287007874016
 20
-4.529976377952756
 10
-19.21806299212598
 20
-4.545507874015748
 10
-19.2123779527559
 20
-4.560267716535433
 10
-19.20581496062992
 20
-4.574251968503937
 10
-19.19648031496063
 20
-4.590271653543307
 10
-19.18607086614173
 20
-4.604157480314961
 10
-19.1745905511811
 20
-4.615905511811023
 10
-19.16203937007874
 20
-4.62551968503937
 10
-19.14841732283465
 20
-4.633
 10
-19.13372047244095
 20
-4.638338582677165
 10
-19.11795275590551
 20
-4.641547244094488
 10
-19.10111023622047
 20
-4.642614173228346
  0
LWPOLYLINE
  5
7A
330
1F
100
AcDbEntity
  8
Layer 1
 62
     7
100
AcDbPolyline
 90
      147
 70
     1
 43
0.0
 10
-20.64737795275591
 20
7.766251968503937
 10
-20.70242913385827
 20
7.766251968503937
 10
-20.70900393700787
 20
7.754744094488189
 10
-20.7162125984252
 20
7.743818897637795
 10
-20.72405905511811
 20
7.733476377952756
 10
-20.73254724409449
 20
7.723712598425196
 10
-20.74166535433071
 20
7.714531496062992
 10
-20.75142519685039
 20
7.705929133858268
 10
-20.76182283464567
 20
7.697909448818898
 10
-20.77285433070866
 20
7.690468503937008
 10
-20.78434251968504
 20
7.683763779527559
 10
-20.79611417322835
 20
7.677956692913386
 10
-20.80816141732284
 20
7.67303937007874
 10
-20.82048818897638
 20
7.66901968503937
 10
-20.83309448818898
 20
7.665889763779528
 10
-20.84598031496063
 20
7.663657480314961
 10
-20.85914173228347
 20
7.662314960629922
 10
-20.87258661417323
 20
7.661870078740158
 10
-20.89220472440945
 20
7.662799212598425
 10
-20.9111062992126
 20
7.66557874015748
 10
-20.92929527559055
 20
7.670216535433071
 10
-20.94676771653543
 20
7.676704724409449
 10
-20.96352362204724
 20
7.685051181102362
 10
-20.97956299212598
 20
7.695248031496063
 10
-20.99488976377953
 20
7.707303149606299
 10
-21.0095
 20
7.721212598425197
 10
-21.0224842519685
 20
7.736007874015748
 10
-21.03374015748032
 20
7.751531496062992
 10
-21.04326377952756
 20
7.767779527559055
 10
-21.05105905511811
 20
7.784755905511811
 10
-21.05711811023622
 20
7.802456692913386
 10
-21.06144881889764
 20
7.82088188976378
 10
-21.06404724409449
 20
7.840031496062992
 10
-21.06491338582677
 20
7.859909448818898
 10
-21.06404724409449
 20
7.879956692913386
 10
-21.06144881889764
 20
7.899255905511811
 10
-21.05711811023622
 20
7.917803149606299
 10
-21.05105905511811
 20
7.935606299212599
 10
-21.04326377952756
 20
7.952657480314961
 10
-21.03374015748032
 20
7.96896062992126
 10
-21.0224842519685
 20
7.98451968503937
 10
-21.0095
 20
7.999326771653544
 10
-21.00283858267716
 20
8.005944881889764
 10
-20.9958937007874
 20
8.01221653543307
 10
-20.98867322834646
 20
8.018141732283464
 10
-20.98117322834646
 20
8.02372440944882
 10
-20.97338976377953
 20
8.028956692913386
 10
-20.96533070866142
 20
8.03384251968504
 10
-20.95698818897638
 20
8.038385826771654
 10
-20.94837007874016
 20
8.04257874015748
 10
-20.93963385826772
 20
8.046350393700788
 10
-20.93094488188976
 20
8.04961811023622
 10
-20.92229921259842
 20
8.05238188976378
 10
-20.9136968503937
 20
8.054645669291338
 10
-20.90513779527559
 20
8.056405511811024
 10
-20.89662598425197
 20
8.057661417322835
 10
-20.88815748031496
 20
8.058413385826771
 10
-20.87973622047244
 20
8.058665354330708
 10
-20.87146456692913
 20
8.058547244094488
 10
-20.86344881889764
 20
8.058196850393701
 10
-20.85569291338583
 20
8.057610236220473
 10
-20.84818897637795
 20
8.056791338582677
 10
-20.84094488188977
 20
8.055736220472442
 10
-20.83395669291339
 20
8.054444881889763
 10
-20.82722440944882
 20
8.05292125984252
 10
-20.82075196850394
 20
8.051161417322835
 10
-20.80182677165354
 20
8.044625984251969
 10
-20.78411023622047
 20
8.036547244094487
 10
-20.76760236220472
 20
8.026929133858268
 10
-20.75229527559055
 20
8.015771653543307
 10
-20.7381968503937
 20
8.003066929133858
 10
-20.72530708661417
 20
7.988826771653543
 10
-20.71362204724409
 20
7.973043307086614
 10
-20.70314566929134
 20
7.955716535433071
 10
-20.64809448818898
 20
7.955716535433071
 10
-20.6555
 20
7.972633858267717
 10
-20.66395669291338
 20
7.98871653543307
 10
-20.67346456692913
 20
8.003956692913386
 10
-20.68401968503937
 20
8.01836220472441
 10
-20.69562598425197
 20
8.031929133858268
 10
-20.70828346456693
 20
8.04465748031496
 10
-20.72199212598425
 20
8.056547244094489
 10
-20.73674803149606
 20
8.067602362204724
 10
-20.75224409448819
 20
8.077570866141732
 10
-20.76816141732283
 20
8.086212598425197
 10
-20.78450393700787
 20
8.093523622047243
 10
-20.80127165354331
 20
8.099507874015748
 10
-20.81846456692913
 20
8.10415748031496
 10
-20.83607874015748
 20
8.107484251968504
 10
-20.85412204724409
 20
8.109476377952756
 10
-20.87258661417323
 20
8.110141732283465
 10
-20.89737007874016
 20
8.10898031496063
 10
-20.92122440944882
 20
8.105496062992126
 10
-20.94415354330709
 20
8.099685039370078
 10
-20.96615748031496
 20
8.091551181102362
 10
-20.98723228346457
 20
8.081094488188976
 10
-21.00737795275591
 20
8.068314960629921
 10
-21.02659842519685
 20
8.053212598425198
 10
-21.04488976377953
 20
8.035787401574803
 10
-21.05288976377953
 20
8.027035433070866
 10
-21.06044094488189
 20
8.017937007874016
 10
-21.06754330708661
 20
8.008492125984253
 10
-21.07420472440945
 20
7.998700787401575
 10
-21.08041338582677
 20
7.988562992125984
 10
-21.0861811023622
 20
7.97807874015748
 10
-21.09149606299212
 20
7.967248031496063
 10
-21.09637007874016
 20
7.956070866141732
 10
-21.10072834645669
 20
7.94463779527559
 10
-21.10450393700787
 20
7.933035433070867
 10
-21.1076968503937
 20
7.921267716535433
 10
-21.11031102362205
 20
7.909330708661417
 10
-21.11234251968504
 20
7.897228346456693
 10
-21.11379527559055
 20
7.884956692913386
 10
-21.11466535433071
 20
7.872515748031496
 10
-21.11495669291338
 20
7.859909448818898
 10
-21.11386220472441
 20
7.834846456692913
 10
-21.11057874015748
 20
7.810692913385827
 10
-21.10510236220473
 20
7.78744094488189
 10
-21.09744094488189
 20
7.765090551181102
 10
-21.08758661417323
 20
7.743649606299212
 10
-21.07554330708662
 20
7.723110236220473
 10
-21.06131102362205
 20
7.703476377952756
 10
-21.04488976377953
 20
7.684748031496063
 10
-21.02659842519685
 20
7.667322834645669
 10
-21.00737795275591
 20
7.652220472440945
 10
-20.98723228346457
 20
7.63944094488189
 10
-20.96615748031496
 20
7.628984251968504
 10
-20.94415354330709
 20
7.620850393700787
 10
-20.92122440944882
 20
7.61503937007874
 10
-20.89737007874016
 20
7.611555118110236
 10
-20.87258661417323
 20
7.610393700787402
 10
-20.85418897637795
 20
7.611070866141732
 10
-20.83616929133858
 20
7.61309842519685
 10
-20.81853149606299
 20
7.616476377952756
 10
-20.80127165354331
 20
7.621208661417323
 10
-20.7843937007874
 20
7.627291338582677
 10
-20.7678937007874
 20
7.634724409448819
 10
-20.75177559055118
 20
7.643511811023622
 10
-20.73603543307087
 20
7.653649606299212
 10
-20.72116141732284
 20
7.664791338582678
 10
-20.70737007874016
 20
7.676771653543307
 10
-20.69466141732283
 20
7.689590551181102
 10
-20.68303937007874
 20
7.703248031496063
 10
-20.67249606299213
 20
7.717740157480315
 10
-20.66303937007874
 20
7.733074803149607
 10
-20.65466535433071
 20
7.749244094488189
 10
-20.64737795275591
 20
7.766251968503937
  0
LWPOLYLINE
  5
7B
330
1F
100
AcDbEntity
  8
Layer 1
 62
     7
100
AcDbPolyline
 90
      166
 70
     1
 43
0.0
 10
-20.09257874015748
 20
7.844897637795276
 10
-20.34567322834646
 20
7.844897637795276
 10
-20.34567322834646
 20
7.80128346456693
 10
-20.14834645669291
 20
7.80128346456693
 10
-20.15425196850394
 20
7.78586220472441
 10
-20.16115354330709
 20
7.771232283464567
 10
-20.16905511811024
 20
7.757393700787402
 10
-20.17796062992126
 20
7.74434251968504
 10
-20.18786614173228
 20
7.732078740157481
 10
-20.1987874015748
 20
7.720602362204724
 10
-20.2107125984252
 20
7.709909448818897
 10
-20.22365748031496
 20
7.7
 10
-20.23729527559055
 20
7.691074803149606
 10
-20.25131889763779
 20
7.683334645669292
 10
-20.26572047244094
 20
7.676779527559055
 10
-20.28050787401575
 20
7.671417322834646
 10
-20.29568110236221
 20
7.667244094488189
 10
-20.31124409448819
 20
7.664259842519685
 10
-20.32719291338583
 20
7.662468503937008
 10
-20.34353149606299
 20
7.661870078740158
 10
-20.36396850393701
 20
7.662795275590551
 10
-20.38363385826772
 20
7.66557874015748
 10
-20.40252362204724
 20
7.670208661417323
 10
-20.42063779527559
 20
7.676688976377953
 10
-20.43798031496063
 20
7.68501968503937
 10
-20.45454330708661
 20
7.695200787401575
 10
-20.47032677165354
 20
7.707224409448819
 10
-20.48533070866142
 20
7.721094488188976
 10
-20.49902362204724
 20
7.736248031496063
 10
-20.51088976377953
 20
7.752125984251968
 10
-20.52092519685039
 20
7.768736220472441
 10
-20.52913385826772
 20
7.78607874015748
 10
-20.5355157480315
 20
7.804149606299212
 10
-20.54007086614173
 20
7.822956692913386
 10
-20.54280708661417
 20
7.842496062992126
 10
-20.54371653543307
 20
7.862771653543307
 10
-20.54279921259842
 20
7.883125984251969
 10
-20.54005118110236
 20
7.902720472440945
 10
-20.53547244094488
 20
7.921551181102362
 10
-20.52905905511811
 20
7.939629921259843
 10
-20.52081496062992
 20
7.956944881889764
 10
-20.51073622047244
 20
7.9735
 10
-20.49883070866142
 20
7.989295275590552
 10
-20.4850905511811
 20
8.004330708661417
 10
-20.47005511811023
 20
8.018070866141732
 10
-20.45425590551181
 20
8.02998031496063
 10
-20.43770078740157
 20
8.040055118110237
 10
-20.42038582677165
 20
8.0483031496063
 10
-20.40231102362205
 20
8.054712598425198
 10
-20.38347637795276
 20
8.059291338582677
 10
-20.36388582677165
 20
8.06203937007874
 10
-20.34353149606299
 20
8.062956692913385
 10
-20.3280748031496
 20
8.062409448818897
 10
-20.31298818897638
 20
8.060763779527559
 10
-20.29827165354331
 20
8.058023622047244
 10
-20.28392125984252
 20
8.05418503937008
 10
-20.26994094488189
 20
8.04924409448819
 10
-20.25632677165354
 20
8.043200787401576
 10
-20.24308267716535
 20
8.036055118110236
 10
-20.23020866141732
 20
8.027807086614173
 10
-20.2179094488189
 20
8.018629921259842
 10
-20.20648031496063
 20
8.00870472440945
 10
-20.19592519685039
 20
7.998035433070866
 10
-20.18624015748032
 20
7.986622047244095
 10
-20.17742519685039
 20
7.974464566929134
 10
-20.16948425196851
 20
7.961566929133858
 10
-20.16241338582677
 20
7.947929133858268
 10
-20.1562125984252
 20
7.933551181102362
 10
-20.10330708661417
 20
7.933551181102362
 10
-20.11008661417323
 20
7.95317716535433
 10
-20.11818503937008
 20
7.97184251968504
 10
-20.12760236220472
 20
7.989547244094489
 10
-20.13833858267716
 20
8.006283464566929
 10
-20.15038976377953
 20
8.022051181102363
 10
-20.16376377952756
 20
8.036854330708662
 10
-20.17845275590551
 20
8.050688976377952
 10
-20.19446062992126
 20
8.063555118110235
 10
-20.21149212598425
 20
8.07515748031496
 10
-20.22915748031496
 20
8.085204724409449
 10
-20.24746062992126
 20
8.093704724409449
 10
-20.26640157480315
 20
8.100657480314961
 10
-20.28598031496063
 20
8.106059055118111
 10
-20.30619291338583
 20
8.109917322834646
 10
-20.32704724409449
 20
8.112232283464566
 10
-20.34853543307086
 20
8.113003937007875
 10
-20.36014173228346
 20
8.1126968503937
 10
-20.37172440944882
 20
8.111775590551181
 10
-20.3832874015748
 20
8.110240157480314
 10
-20.39482677165354
 20
8.108086614173228
 10
-20.40634251968504
 20
8.10532283464567
 10
-20.41783858267717
 20
8.101944881889764
 10
-20.42931102362205
 20
8.097948818897638
 10
-20.44076377952756
 20
8.09334251968504
 10
-20.45201968503937
 20
8.088204724409449
 10
-20.46290551181102
 20
8.08261811023622
 10
-20.47342125984252
 20
8.076586614173229
 10
-20.48357086614173
 20
8.070106299212599
 10
-20.49335039370079
 20
8.063181102362204
 10
-20.50276377952756
 20
8.055807086614173
 10
-20.51180708661417
 20
8.047988188976378
 10
-20.52048031496063
 20
8.039720472440944
 10
-20.52874409448819
 20
8.031047244094488
 10
-20.53656299212598
 20
8.022003937007874
 10
-20.54393700787401
 20
8.012590551181102
 10
-20.55086220472441
 20
8.002811023622048
 10
-20.55733858267716
 20
7.992661417322835
 10
-20.56337007874016
 20
7.982145669291339
 10
-20.56895669291339
 20
7.971259842519685
 10
-20.57409448818898
 20
7.960003937007874
 10
-20.57870472440945
 20
7.948468503937008
 10
-20.58270078740157
 20
7.936744094488189
 10
-20.58607874015748
 20
7.924830708661418
 10
-20.58884645669291
 20
7.912728346456693
 10
-20.59099606299213
 20
7.900433070866142
 10
-20.59253149606299
 20
7.887948818897637
 10
-20.59345275590551
 20
7.875275590551182
 10
-20.59375984251968
 20
7.862413385826772
 10
-20.59345275590551
 20
7.849551181102362
 10
-20.59253149606299
 20
7.836877952755906
 10
-20.59099606299213
 20
7.824393700787401
 10
-20.58884645669291
 20
7.812102362204724
 10
-20.58607874015748
 20
7.799996062992126
 10
-20.58270078740157
 20
7.788082677165354
 10
-20.57870472440945
 20
7.776358267716535
 10
-20.57409448818898
 20
7.76482283464567
 10
-20.56895669291339
 20
7.753566929133858
 10
-20.56337007874016
 20
7.742681102362205
 10
-20.55733858267716
 20
7.732165354330709
 10
-20.55086220472441
 20
7.722015748031496
 10
-20.54393700787401
 20
7.712236220472441
 10
-20.53656299212598
 20
7.702822834645669
 10
-20.52874409448819
 20
7.693779527559055
 10
-20.52048031496063
 20
7.685106299212598
 10
-20.51180708661417
 20
7.676838582677165
 10
-20.50276377952756
 20
7.66901968503937
 10
-20.49335039370079
 20
7.661645669291339
 10
-20.48357086614173
 20
7.654720472440945
 10
-20.47342125984252
 20
7.648240157480315
 10
-20.46290551181102
 20
7.642208661417323
 10
-20.45201968503937
 20
7.636622047244095
 10
-20.44076377952756
 20
7.631484251968504
 10
-20.42923228346457
 20
7.626874015748031
 10
-20.41752755905512
 20
7.62288188976378
 10
-20.40564173228346
 20
7.619503937007874
 10
-20.3935748031496
 20
7.616740157480315
 10
-20.38133070866142
 20
7.614590551181102
 10
-20.3689094488189
 20
7.613055118110236
 10
-20.35631102362205
 20
7.612133858267716
 10
-20.34353149606299
 20
7.611826771653543
 10
-20.32169291338583
 20
7.612720472440945
 10
-20.30040551181103
 20
7.615401574803149
 10
-20.27967322834646
 20
7.619870078740157
 10
-20.25949212598425
 20
7.626125984251969
 10
-20.23985826771654
 20
7.634169291338583
 10
-20.22076771653543
 20
7.644
 10
-20.20222047244095
 20
7.655618110236221
 10
-20.1842125984252
 20
7.669023622047244
 10
-20.16733858267716
 20
7.683811023622047
 10
-20.1521968503937
 20
7.699586614173229
 10
-20.13877952755906
 20
7.716342519685039
 10
-20.1270905511811
 20
7.734082677165354
 10
-20.11712992125984
 20
7.752803149606299
 10
-20.10888976377953
 20
7.772507874015748
 10
-20.1023779527559
 20
7.7931968503937
 10
-20.09758267716536
 20
7.814870078740157
 10
-20.09257874015748
 20
7.844897637795276
  0
LWPOLYLINE
  5
7C
330
1F
100
AcDbEntity
  8
Layer 1
 62
     7
100
AcDbPolyline
 90
       92
 70
     1
 43
0.0
 10
-19.82125590551181
 20
8.047228346456693
 10
-19.813
 20
8.04161811023622
 10
-19.80530708661417
 20
8.035251968503937
 10
-19.79816535433071
 20
8.028125984251968
 10
-19.79158661417323
 20
8.020240157480314
 10
-19.78556692913386
 20
8.011594488188976
 10
-19.78010236220473
 20
8.002188976377953
 10
-19.7751968503937
 20
7.992023622047244
 10
-19.77085039370079
 20
7.98109842519685
 10
-19.76599212598425
 20
7.966602362204725
 10
-19.76177952755906
 20
7.951893700787402
 10
-19.75821653543307
 20
7.936972440944882
 10
-19.75529921259843
 20
7.92184251968504
 10
-19.75303149606299
 20
7.9065
 10
-19.75141338582677
 20
7.890944881889764
 10
-19.75044094488189
 20
7.875177165354331
 10
-19.75011811023622
 20
7.859196850393701
 10
-19.75226377952756
 20
7.823807086614173
 10
-19.75474409448819
 20
7.804586614173228
 10
-19.75798425196851
 20
7.786429133858268
 10
-19.7619842519685
 20
7.769330708661418
 10
-19.76674409448819
 20
7.753291338582677
 10
-19.77226377952756
 20
7.738318897637796
 10
-19.77853937007874
 20
7.724401574803149
 10
-19.78557874015748
 20
7.711551181102362
 10
-19.79337401574803
 20
7.699759842519685
 10
-19.80048818897638
 20
7.690877952755906
 10
-19.8079842519685
 20
7.683185039370079
 10
-19.81586220472441
 20
7.676669291338583
 10
-19.82411417322835
 20
7.671342519685039
 10
-19.83275196850394
 20
7.667196850393701
 10
-19.84176771653543
 20
7.664240157480315
 10
-19.85116141732284
 20
7.662460629921259
 10
-19.86093700787401
 20
7.661870078740158
 10
-19.87184645669291
 20
7.662456692913386
 10
-19.88222834645669
 20
7.664216535433071
 10
-19.89208661417323
 20
7.667149606299213
 10
-19.90142125984252
 20
7.671255905511811
 10
-19.91022834645669
 20
7.676531496062992
 10
-19.91851181102362
 20
7.682984251968504
 10
-19.92626771653543
 20
7.690606299212599
 10
-19.9335
 20
7.69940157480315
 10
-19.93948818897638
 20
7.708070866141732
 10
-19.94494094488189
 20
7.717279527559056
 10
-19.94985433070866
 20
7.72701968503937
 10
-19.95423622047244
 20
7.737299212598425
 10
-19.95810236220472
 20
7.747909448818898
 10
-19.96147637795276
 20
7.758657480314961
 10
-19.96435826771653
 20
7.769535433070867
 10
-19.96674803149606
 20
7.780551181102362
 10
-19.97282283464567
 20
7.823448818897638
 10
-19.97461023622047
 20
7.871232283464566
 10
-19.97448818897638
 20
7.878181102362205
 10
-19.97411811023622
 20
7.885531496062992
 10
-19.97350393700787
 20
7.893291338582677
 10
-19.97264566929134
 20
7.901452755905511
 10
-19.97153937007874
 20
7.910023622047244
 10
-19.97018897637795
 20
7.919003937007874
 10
-19.9685905511811
 20
7.928393700787401
 10
-19.96674803149606
 20
7.938196850393701
 10
-19.96438188976378
 20
7.94907874015748
 10
-19.96156692913386
 20
7.959917322834646
 10
-19.9583031496063
 20
7.970708661417323
 10
-19.95459448818898
 20
7.981452755905512
 10
-19.95037007874016
 20
7.991909448818897
 10
-19.94556692913386
 20
8.001826771653544
 10
-19.9401811023622
 20
8.011212598425196
 10
-19.93421653543307
 20
8.02005905511811
 10
-19.93101181102362
 20
8.02424409448819
 10
-19.92764960629921
 20
8.02821653543307
 10
-19.92412992125984
 20
8.031972440944882
 10
-19.92045669291339
 20
8.03551968503937
 10
-19.91662204724409
 20
8.038854330708661
 10
-19.91263385826772
 20
8.041976377952755
 10
-19.90848818897638
 20
8.044889763779528
 10
-19.90418897637795
 20
8.047586614173229
 10
-19.89970866141732
 20
8.050015748031496
 10
-19.89502755905512
 20
8.052122047244094
 10
-19.89014566929134
 20
8.053901574803149
 10
-19.88506299212598
 20
8.055362204724409
 10
-19.87977952755906
 20
8.056496062992126
 10
-19.87429527559055
 20
8.0573031496063
 10
-19.86861023622047
 20
8.057791338582676
 10
-19.86272440944882
 20
8.057952755905513
 10
-19.85683858267717
 20
8.05778346456693
 10
-19.85114960629921
 20
8.057283464566929
 10
-19.84566535433071
 20
8.056444881889764
 10
-19.84038188976378
 20
8.055271653543308
 10
-19.83529921259843
 20
8.053763779527559
 10
-19.83041732283464
 20
8.05192125984252
 10
-19.82573622047244
 20
8.049740157480315
 10
-19.82125590551181
 20
8.047228346456693
  0
LWPOLYLINE
  5
7D
330
1F
100
AcDbEntity
  8
Layer 1
 62
     7
100
AcDbPolyline
 90
       65
 70
     1
 43
0.0
 10
-19.86022047244094
 20
7.611110236220473
 10
-19.83934645669291
 20
7.612433070866142
 10
-19.8198031496063
 20
7.616405511811023
 10
-19.8015905511811
 20
7.623023622047244
 10
-19.78470472440945
 20
7.632291338582677
 10
-19.76914960629921
 20
7.644204724409449
 10
-19.75492125984252
 20
7.658763779527559
 10
-19.74202362204725
 20
7.675972440944882
 10
-19.73045669291339
 20
7.695830708661417
 10
-19.72233070866142
 20
7.713157480314961
 10
-19.7152874015748
 20
7.731444881889764
 10
-19.70932677165354
 20
7.750688976377953
 10
-19.70445275590551
 20
7.770897637795276
 10
-19.70066141732283
 20
7.792066929133858
 10
-19.69794881889764
 20
7.814196850393701
 10
-19.69632677165354
 20
7.837287401574804
 10
-19.69578346456693
 20
7.861338582677165
 10
-19.69632677165354
 20
7.885389763779528
 10
-19.69794881889764
 20
7.908484251968504
 10
-19.70066141732283
 20
7.930614173228347
 10
-19.70445275590551
 20
7.951783464566929
 10
-19.70932677165354
 20
7.971992125984252
 10
-19.7152874015748
 20
7.991236220472441
 10
-19.72233070866142
 20
8.009523622047244
 10
-19.73045669291339
 20
8.026850393700787
 10
-19.74202362204725
 20
8.046708661417323
 10
-19.75492125984252
 20
8.063917322834646
 10
-19.76914960629921
 20
8.07848031496063
 10
-19.78470472440945
 20
8.090393700787402
 10
-19.8015905511811
 20
8.099661417322835
 10
-19.8198031496063
 20
8.106279527559055
 10
-19.83934645669291
 20
8.110251968503936
 10
-19.86022047244094
 20
8.111574803149606
 10
-19.88109448818897
 20
8.110251968503936
 10
-19.90063779527559
 20
8.106279527559055
 10
-19.91885039370079
 20
8.099661417322835
 10
-19.93573622047244
 20
8.090393700787402
 10
-19.95129133858268
 20
8.07848031496063
 10
-19.96551968503937
 20
8.063917322834646
 10
-19.97841732283464
 20
8.046708661417323
 10
-19.9899842519685
 20
8.026850393700787
 10
-19.99811023622047
 20
8.009523622047244
 10
-20.00515354330709
 20
7.991236220472441
 10
-20.01111417322835
 20
7.971992125984252
 10
-20.01599212598425
 20
7.951783464566929
 10
-20.01978346456693
 20
7.930614173228347
 10
-20.02249212598425
 20
7.908484251968504
 10
-20.02411811023622
 20
7.885389763779528
 10
-20.02466141732284
 20
7.861338582677165
 10
-20.02411811023622
 20
7.837287401574804
 10
-20.02249212598425
 20
7.814196850393701
 10
-20.01978346456693
 20
7.792066929133858
 10
-20.01599212598425
 20
7.770897637795276
 10
-20.01111417322835
 20
7.750688976377953
 10
-20.00515354330709
 20
7.731444881889764
 10
-19.99811023622047
 20
7.713157480314961
 10
-19.9899842519685
 20
7.695830708661417
 10
-19.97841732283464
 20
7.675972440944882
 10
-19.96551968503937
 20
7.658763779527559
 10
-19.95129133858268
 20
7.644204724409449
 10
-19.93573622047244
 20
7.632291338582677
 10
-19.91885039370079
 20
7.623023622047244
 10
-19.90063779527559
 20
7.616405511811023
 10
-19.88109448818897
 20
7.612433070866142
 10
-19.86022047244094
 20
7.611110236220473
  0
LWPOLYLINE
  5
7E
330
1F
100
AcDbEntity
  8
Layer 1
 62
     7
100
AcDbPolyline
 90
       92
 70
     1
 43
0.0
 10
-19.42088582677165
 20
8.047228346456693
 10
-19.41262992125984
 20
8.04161811023622
 10
-19.40493307086614
 20
8.035251968503937
 10
-19.39779527559055
 20
8.028125984251968
 10
-19.3912125984252
 20
8.020240157480314
 10
-19.38519291338583
 20
8.011594488188976
 10
-19.37972834645669
 20
8.002188976377953
 10
-19.37482283464567
 20
7.992023622047244
 10
-19.37047637795276
 20
7.98109842519685
 10
-19.36561811023622
 20
7.966602362204725
 10
-19.3614094488189
 20
7.951893700787402
 10
-19.35784645669291
 20
7.936972440944882
 10
-19.35492913385827
 20
7.92184251968504
 10
-19.35266141732284
 20
7.9065
 10
-19.35104330708661
 20
7.890944881889764
 10
-19.35007086614173
 20
7.875177165354331
 10
-19.34974803149606
 20
7.859196850393701
 10
-19.3518937007874
 20
7.823807086614173
 10
-19.35437401574803
 20
7.804586614173228
 10
-19.35761417322835
 20
7.786429133858268
 10
-19.36161023622047
 20
7.769330708661418
 10
-19.36637007874016
 20
7.753291338582677
 10
-19.37188976377953
 20
7.738318897637796
 10
-19.37816535433071
 20
7.724401574803149
 10
-19.38520472440945
 20
7.711551181102362
 10
-19.393
 20
7.699759842519685
 10
-19.40011417322835
 20
7.690877952755906
 10
-19.40761023622047
 20
7.683185039370079
 10
-19.41548818897638
 20
7.676669291338583
 10
-19.42374409448819
 20
7.671342519685039
 10
-19.43237795275591
 20
7.667196850393701
 10
-19.4413937007874
 20
7.664240157480315
 10
-19.4507874015748
 20
7.662460629921259
 10
-19.46056299212598
 20
7.661870078740158
 10
-19.47147244094488
 20
7.662456692913386
 10
-19.48185433070866
 20
7.664216535433071
 10
-19.4917125984252
 20
7.667149606299213
 10
-19.50104724409449
 20
7.671255905511811
 10
-19.50985433070866
 20
7.676531496062992
 10
-19.51813779527559
 20
7.682984251968504
 10
-19.52589763779527
 20
7.690606299212599
 10
-19.53312992125984
 20
7.69940157480315
 10
-19.53911811023622
 20
7.708070866141732
 10
-19.54457086614173
 20
7.717279527559056
 10
-19.5494842519685
 20
7.72701968503937
 10
-19.55386614173228
 20
7.737299212598425
 10
-19.55772834645669
 20
7.747909448818898
 10
-19.56110236220472
 20
7.758657480314961
 10
-19.5639842519685
 20
7.769535433070867
 10
-19.56637401574803
 20
7.780551181102362
 10
-19.57245275590551
 20
7.823448818897638
 10
-19.57423622047244
 20
7.871232283464566
 10
-19.57411417322835
 20
7.878181102362205
 10
-19.57374409448819
 20
7.885531496062992
 10
-19.57312992125984
 20
7.893291338582677
 10
-19.57227165354331
 20
7.901452755905511
 10
-19.57116535433071
 20
7.910023622047244
 10
-19.56981496062992
 20
7.919003937007874
 10
-19.56821653543307
 20
7.928393700787401
 10
-19.56637401574803
 20
7.938196850393701
 10
-19.56400787401575
 20
7.94907874015748
 10
-19.56119291338583
 20
7.959917322834646
 10
-19.55793307086614
 20
7.970708661417323
 10
-19.55422440944882
 20
7.981452755905512
 10
-19.55
 20
7.991909448818897
 10
-19.5451968503937
 20
8.001826771653544
 10
-19.53981102362205
 20
8.011212598425196
 10
-19.53384645669291
 20
8.02005905511811
 10
-19.53064173228346
 20
8.02424409448819
 10
-19.52727952755906
 20
8.02821653543307
 10
-19.52375984251968
 20
8.031972440944882
 10
-19.52008267716536
 20
8.03551968503937
 10
-19.51625196850394
 20
8.038854330708661
 10
-19.51225984251969
 20
8.041976377952755
 10
-19.50811417322835
 20
8.044889763779528
 10
-19.50381496062992
 20
8.047586614173229
 10
-19.49933464566929
 20
8.050015748031496
 10
-19.49465354330709
 20
8.052122047244094
 10
-19.48977165354331
 20
8.053901574803149
 10
-19.48468897637795
 20
8.055362204724409
 10
-19.47940551181102
 20
8.056496062992126
 10
-19.47392125984252
 20
8.0573031496063
 10
-19.46823622047244
 20
8.057791338582676
 10
-19.46235039370079
 20
8.057952755905513
 10
-19.45646456692914
 20
8.05778346456693
 10
-19.45077952755906
 20
8.057283464566929
 10
-19.44529527559055
 20
8.056444881889764
 10
-19.44001181102362
 20
8.055271653543308
 10
-19.43492913385827
 20
8.053763779527559
 10
-19.43004724409449
 20
8.05192125984252
 10
-19.42536614173228
 20
8.049740157480315
 10
-19.42088582677165
 20
8.047228346456693
  0
LWPOLYLINE
  5
7F
330
1F
100
AcDbEntity
  8
Layer 1
 62
     7
100
AcDbPolyline
 90
       65
 70
     1
 43
0.0
 10
-19.45984645669291
 20
7.611110236220473
 10
-19.43897637795276
 20
7.612433070866142
 10
-19.41943307086614
 20
7.616405511811023
 10
-19.40121653543307
 20
7.623023622047244
 10
-19.38433070866142
 20
7.632291338582677
 10
-19.36877559055118
 20
7.644204724409449
 10
-19.35454724409449
 20
7.658763779527559
 10
-19.34164960629921
 20
7.675972440944882
 10
-19.33008267716535
 20
7.695830708661417
 10
-19.32195669291339
 20
7.713157480314961
 10
-19.31491338582677
 20
7.731444881889764
 10
-19.30895275590551
 20
7.750688976377953
 10
-19.30407874015748
 20
7.770897637795276
 10
-19.3002874015748
 20
7.792066929133858
 10
-19.2975748031496
 20
7.814196850393701
 10
-19.29595275590551
 20
7.837287401574804
 10
-19.2954094488189
 20
7.861338582677165
 10
-19.29595275590551
 20
7.885389763779528
 10
-19.2975748031496
 20
7.908484251968504
 10
-19.3002874015748
 20
7.930614173228347
 10
-19.30407874015748
 20
7.951783464566929
 10
-19.30895275590551
 20
7.971992125984252
 10
-19.31491338582677
 20
7.991236220472441
 10
-19.32195669291339
 20
8.009523622047244
 10
-19.33008267716535
 20
8.026850393700787
 10
-19.34164960629921
 20
8.046708661417323
 10
-19.35454724409449
 20
8.063917322834646
 10
-19.36877559055118
 20
8.07848031496063
 10
-19.38433070866142
 20
8.090393700787402
 10
-19.40121653543307
 20
8.099661417322835
 10
-19.41943307086614
 20
8.106279527559055
 10
-19.43897637795276
 20
8.110251968503936
 10
-19.45984645669291
 20
8.111574803149606
 10
-19.48072047244095
 20
8.110251968503936
 10
-19.50026377952756
 20
8.106279527559055
 10
-19.51848031496063
 20
8.099661417322835
 10
-19.53536614173228
 20
8.090393700787402
 10
-19.55092125984252
 20
8.07848031496063
 10
-19.56514960629921
 20
8.063917322834646
 10
-19.57804724409449
 20
8.046708661417323
 10
-19.58961417322835
 20
8.026850393700787
 10
-19.59774015748032
 20
8.009523622047244
 10
-19.60478346456693
 20
7.991236220472441
 10
-19.61074409448819
 20
7.971992125984252
 10
-19.61561811023622
 20
7.951783464566929
 10
-19.6194094488189
 20
7.930614173228347
 10
-19.62212204724409
 20
7.908484251968504
 10
-19.62374409448819
 20
7.885389763779528
 10
-19.6242874015748
 20
7.861338582677165
 10
-19.62374409448819
 20
7.837287401574804
 10
-19.62212204724409
 20
7.814196850393701
 10
-19.6194094488189
 20
7.792066929133858
 10
-19.61561811023622
 20
7.770897637795276
 10
-19.61074409448819
 20
7.750688976377953
 10
-19.60478346456693
 20
7.731444881889764
 10
-19.59774015748032
 20
7.713157480314961
 10
-19.58961417322835
 20
7.695830708661417
 10
-19.57804724409449
 20
7.675972440944882
 10
-19.56514960629921
 20
7.658763779527559
 10
-19.55092125984252
 20
7.644204724409449
 10
-19.53536614173228
 20
7.632291338582677
 10
-19.51848031496063
 20
7.623023622047244
 10
-19.50026377952756
 20
7.616405511811023
 10
-19.48072047244095
 20
7.612433070866142
 10
-19.45984645669291
 20
7.611110236220473
  0
LWPOLYLINE
  5
80
330
1F
100
AcDbEntity
  8
Layer 1
 62
     7
100
AcDbPolyline
 90
        4
 70
     1
 43
0.0
 10
-18.97440157480315
 20
8.04937401574803
 10
-18.97440157480315
 20
7.768393700787402
 10
-19.16028346456693
 20
7.768393700787402
 10
-18.97440157480315
 20
8.04937401574803
  0
LWPOLYLINE
  5
81
330
1F
100
AcDbEntity
  8
Layer 1
 62
     7
100
AcDbPolyline
 90
       11
 70
     1
 43
0.0
 10
-18.92220472440945
 20
7.71692125984252
 10
-18.86072047244095
 20
7.71692125984252
 10
-18.86072047244095
 20
7.768393700787402
 10
-18.92220472440945
 20
7.768393700787402
 10
-18.92292125984252
 20
8.103708661417324
 10
-18.9929842519685
 20
8.103708661417324
 10
-19.24894094488189
 20
7.71692125984252
 10
-18.97440157480315
 20
7.71692125984252
 10
-18.97440157480315
 20
7.617543307086614
 10
-18.92220472440945
 20
7.617543307086614
 10
-18.92220472440945
 20
7.71692125984252
  0
LWPOLYLINE
  5
82
330
1F
100
AcDbEntity
  8
Layer 1
 62
     7
100
AcDbPolyline
 90
       67
 70
     1
 43
0.0
 10
-18.47074015748031
 20
7.600055118110236
 10
-18.47821653543307
 20
7.61440157480315
 10
-18.4852125984252
 20
7.628952755905511
 10
-18.49172440944882
 20
7.643708661417323
 10
-18.49775196850394
 20
7.658673228346457
 10
-18.50329527559055
 20
7.673846456692913
 10
-18.50835433070866
 20
7.689224409448819
 10
-18.51292519685039
 20
7.704807086614173
 10
-18.51701181102362
 20
7.72059842519685
 10
-18.52064173228347
 20
7.736633858267717
 10
-18.5237874015748
 20
7.752885826771654
 10
-18.52644488188976
 20
7.769354330708661
 10
-18.52861811023622
 20
7.78603937007874
 10
-18.53030708661417
 20
7.802937007874016
 10
-18.53151181102362
 20
7.820051181102362
 10
-18.53223228346457
 20
7.83738188976378
 10
-18.53247244094488
 20
7.854925196850393
 10
-18.53223228346457
 20
7.873338582677166
 10
-18.53151181102362
 20
7.891417322834646
 10
-18.53031496062992
 20
7.909165354330709
 10
-18.52864173228346
 20
7.92657874015748
 10
-18.52648818897638
 20
7.943653543307087
 10
-18.52386220472441
 20
7.960397637795276
 10
-18.52076377952756
 20
7.976799212598425
 10
-18.51718897637795
 20
7.992866141732283
 10
-18.51310236220472
 20
8.00866535433071
 10
-18.50852755905512
 20
8.0241968503937
 10
-18.50346456692913
 20
8.039468503937007
 10
-18.49790551181102
 20
8.054476377952756
 10
-18.49185826771653
 20
8.069224409448818
 10
-18.48531496062992
 20
8.083712598425198
 10
-18.47827559055118
 20
8.09794094488189
 10
-18.47074015748031
 20
8.111913385826771
 10
-18.42861023622047
 20
8.099192913385826
 10
-18.43531102362205
 20
8.085409448818897
 10
-18.44156299212598
 20
8.071476377952756
 10
-18.44737007874016
 20
8.057389763779527
 10
-18.45273228346457
 20
8.043161417322835
 10
-18.45765354330709
 20
8.028779527559054
 10
-18.46212992125984
 20
8.014248031496063
 10
-18.46616929133858
 20
7.999566929133858
 10
-18.46976377952756
 20
7.984740157480315
 10
-18.47290157480315
 20
7.969653543307087
 10
-18.47562598425197
 20
7.954267716535433
 10
-18.47793700787402
 20
7.93857874015748
 10
-18.47982677165354
 20
7.922582677165354
 10
-18.48129527559055
 20
7.906275590551181
 10
-18.48235039370079
 20
7.889653543307086
 10
-18.48298031496063
 20
7.872712598425196
 10
-18.48319291338583
 20
7.855456692913386
 10
-18.4829842519685
 20
7.837425196850393
 10
-18.48236220472441
 20
7.819838582677165
 10
-18.48132283464567
 20
7.802685039370079
 10
-18.47987007874016
 20
7.785972440944882
 10
-18.47799606299213
 20
7.769700787401574
 10
-18.47570078740157
 20
7.753866141732283
 10
-18.47298818897638
 20
7.738472440944882
 10
-18.46985433070866
 20
7.723515748031496
 10
-18.46631102362205
 20
7.708874015748031
 10
-18.46230708661417
 20
7.6945
 10
-18.45783858267717
 20
7.680389763779528
 10
-18.4529094488189
 20
7.66653937007874
 10
-18.44752362204724
 20
7.652952755905511
 10
-18.44167716535433
 20
7.639622047244094
 10
-18.43537007874016
 20
7.626555118110236
 10
-18.42861023622047
 20
7.613744094488189
 10
-18.47074015748031
 20
7.600055118110236
  0
LWPOLYLINE
  5
83
330
1F
100
AcDbEntity
  8
Layer 1
 62
     7
100
AcDbPolyline
 90
      103
 70
     1
 43
0.0
 10
-18.15034645669291
 20
7.764846456692913
 10
-18.15034645669291
 20
7.715566929133859
 10
-18.40415354330709
 20
7.715566929133859
 10
-18.26250393700787
 20
7.885035433070867
 10
-18.25613385826772
 20
7.892862204724409
 10
-18.2502125984252
 20
7.900452755905512
 10
-18.24473622047244
 20
7.907799212598425
 10
-18.23970472440945
 20
7.914909448818897
 10
-18.23511811023622
 20
7.921775590551182
 10
-18.23096850393701
 20
7.928405511811023
 10
-18.22726377952756
 20
7.934791338582677
 10
-18.22399606299212
 20
7.94094094488189
 10
-18.22113779527559
 20
7.946870078740157
 10
-18.21866535433071
 20
7.952665354330708
 10
-18.21657086614173
 20
7.958326771653543
 10
-18.21485826771654
 20
7.963854330708662
 10
-18.21352755905512
 20
7.969251968503937
 10
-18.21257480314961
 20
7.974515748031496
 10
-18.21200393700788
 20
7.979649606299213
 10
-18.21181496062992
 20
7.984649606299213
 10
-18.2120748031496
 20
7.991488188976378
 10
-18.21285826771653
 20
7.99796062992126
 10
-18.21416141732283
 20
8.004062992125984
 10
-18.21598818897638
 20
8.009795275590552
 10
-18.21833464566929
 20
8.015157480314961
 10
-18.22120078740157
 20
8.020145669291338
 10
-18.2245905511811
 20
8.02475590551181
 10
-18.22850393700788
 20
8.028988188976378
 10
-18.23287007874016
 20
8.03277559055118
 10
-18.23762598425197
 20
8.03605905511811
 10
-18.24276377952756
 20
8.038838582677165
 10
-18.2482874015748
 20
8.041110236220472
 10
-18.25418897637795
 20
8.042877952755905
 10
-18.26046850393701
 20
8.04413779527559
 10
-18.26712598425197
 20
8.044897637795275
 10
-18.27416141732283
 20
8.045149606299212
 10
-18.28050787401575
 20
8.044897637795275
 10
-18.28656299212598
 20
8.04413779527559
 10
-18.29233464566929
 20
8.042877952755905
 10
-18.29781496062992
 20
8.041110236220472
 10
-18.30301181102362
 20
8.038838582677165
 10
-18.30792519685039
 20
8.03605905511811
 10
-18.31255118110236
 20
8.03277559055118
 10
-18.31689763779528
 20
8.028988188976378
 10
-18.32087401574803
 20
8.024759842519686
 10
-18.32438582677165
 20
8.020224409448819
 10
-18.32743700787401
 20
8.015374015748032
 10
-18.33002755905512
 20
8.010208661417323
 10
-18.33215748031496
 20
8.00472440944882
 10
-18.33383070866142
 20
7.998917322834646
 10
-18.33504330708661
 20
7.992787401574803
 10
-18.33579921259842
 20
7.986326771653543
 10
-18.39514566929134
 20
7.986326771653543
 10
-18.39461023622047
 20
7.998755905511811
 10
-18.39301181102362
 20
8.01053937007874
 10
-18.39033858267717
 20
8.021677165354332
 10
-18.38660236220472
 20
8.032173228346457
 10
-18.38179527559055
 20
8.042031496062991
 10
-18.37592125984252
 20
8.051244094488188
 10
-18.36898031496063
 20
8.059818897637795
 10
-18.36096850393701
 20
8.067755905511811
 10
-18.35205905511811
 20
8.074866141732283
 10
-18.34242125984252
 20
8.081035433070866
 10
-18.33204724409449
 20
8.08625590551181
 10
-18.32094094488189
 20
8.090527559055118
 10
-18.30909842519685
 20
8.093850393700787
 10
-18.2965157480315
 20
8.096228346456693
 10
-18.28319291338583
 20
8.097653543307086
 10
-18.26912992125984
 20
8.098129921259842
 10
-18.25577559055118
 20
8.097692913385826
 10
-18.24314566929134
 20
8.096374015748031
 10
-18.23124015748031
 20
8.094177165354331
 10
-18.22005905511811
 20
8.09109842519685
 10
-18.20959842519685
 20
8.087141732283465
 10
-18.19986614173228
 20
8.082299212598425
 10
-18.19086220472441
 20
8.076574803149606
 10
-18.18258267716535
 20
8.069964566929134
 10
-18.17515748031496
 20
8.062590551181103
 10
-18.16872440944882
 20
8.05457874015748
 10
-18.16327559055118
 20
8.045933070866141
 10
-18.15881496062992
 20
8.036645669291339
 10
-18.15534251968504
 20
8.02672440944882
 10
-18.15286220472441
 20
8.016165354330708
 10
-18.15137401574803
 20
8.004964566929134
 10
-18.15087795275591
 20
7.993129921259842
 10
-18.15116535433071
 20
7.984476377952756
 10
-18.15201968503937
 20
7.975795275590551
 10
-18.15344488188977
 20
7.967090551181102
 10
-18.15543700787402
 20
7.958358267716536
 10
-18.15799606299213
 20
7.949602362204724
 10
-18.1611220472441
 20
7.940822834645669
 10
-18.16481102362205
 20
7.93201968503937
 10
-18.16906692913386
 20
7.923188976377952
 10
-18.17427165354331
 20
7.913877952755906
 10
-18.18074409448819
 20
7.903566929133858
 10
-18.1884842519685
 20
7.892251968503937
 10
-18.19749212598425
 20
7.879937007874016
 10
-18.20777559055118
 20
7.86661811023622
 10
-18.21932677165354
 20
7.852299212598425
 10
-18.23215354330708
 20
7.83698031496063
 10
-18.24625196850394
 20
7.820657480314961
 10
-18.29438188976378
 20
7.764846456692913
 10
-18.15034645669291
 20
7.764846456692913
  0
LWPOLYLINE
  5
84
330
1F
100
AcDbEntity
  8
Layer 1
 62
     7
100
AcDbPolyline
 90
      128
 70
     1
 43
0.0
 10
-18.03421653543307
 20
7.806082677165354
 10
-18.0307874015748
 20
7.800169291338583
 10
-18.02712992125984
 20
7.794610236220472
 10
-18.02323622047244
 20
7.789409448818898
 10
-18.01911417322835
 20
7.784570866141732
 10
-18.01475984251968
 20
7.780086614173229
 10
-18.01017322834646
 20
7.775968503937007
 10
-18.00535433070866
 20
7.772208661417323
 10
-18.00030708661417
 20
7.768814960629921
 10
-17.99503543307087
 20
7.765775590551181
 10
-17.98962598425197
 20
7.763137795275591
 10
-17.98407480314961
 20
7.760905511811024
 10
-17.97838188976378
 20
7.759082677165354
 10
-17.97254724409449
 20
7.757661417322835
 10
-17.96657480314961
 20
7.756645669291339
 10
-17.96046062992126
 20
7.75603937007874
 10
-17.95420472440945
 20
7.755834645669291
 10
-17.94502755905512
 20
7.756208661417323
 10
-17.9363031496063
 20
7.757326771653544
 10
-17.92803149606299
 20
7.759192913385827
 10
-17.92020472440945
 20
7.761807086614173
 10
-17.91282677165354
 20
7.765169291338583
 10
-17.90589763779527
 20
7.76928346456693
 10
-17.89940551181103
 20
7.774149606299213
 10
-17.89335826771654
 20
7.779767716535433
 10
-17.8878937007874
 20
7.786
 10
-17.88315748031496
 20
7.792700787401575
 10
-17.87914960629921
 20
7.799874015748031
 10
-17.87587401574803
 20
7.80751968503937
 10
-17.87332283464567
 20
7.815637795275591
 10
-17.8715
 20
7.824228346456693
 10
-17.8704094488189
 20
7.833287401574803
 10
-17.87004330708661
 20
7.842818897637795
 10
-17.87042519685039
 20
7.852003937007874
 10
-17.87156692913386
 20
7.860740157480315
 10
-17.87347637795276
 20
7.869035433070867
 10
-17.87614960629921
 20
7.876889763779528
 10
-17.87958661417323
 20
7.884303149606299
 10
-17.88379133858268
 20
7.891279527559055
 10
-17.88876377952756
 20
7.897826771653543
 10
-17.89450393700787
 20
7.903937007874016
 10
-17.90086614173228
 20
7.909464566929134
 10
-17.90770078740157
 20
7.914251968503937
 10
-17.91501181102362
 20
7.918303149606299
 10
-17.92279133858268
 20
7.921618110236221
 10
-17.93103937007874
 20
7.924196850393701
 10
-17.93976377952756
 20
7.92603937007874
 10
-17.94895669291338
 20
7.927141732283465
 10
-17.95862204724409
 20
7.927511811023622
 10
-17.96452755905512
 20
7.92738188976378
 10
-17.97031496062992
 20
7.927
 10
-17.97599212598425
 20
7.926362204724409
 10
-17.98156299212598
 20
7.925468503937008
 10
-17.98701968503937
 20
7.924326771653543
 10
-17.99237401574803
 20
7.922929133858267
 10
-17.99762598425197
 20
7.921283464566929
 10
-18.00277559055118
 20
7.919385826771654
 10
-18.00776771653543
 20
7.917212598425197
 10
-18.01261417322835
 20
7.914799212598425
 10
-18.01731102362205
 20
7.912137795275591
 10
-18.02186220472441
 20
7.909232283464567
 10
-18.02626771653543
 20
7.90607874015748
 10
-18.03053149606299
 20
7.902673228346456
 10
-18.03465354330709
 20
7.899015748031496
 10
-18.03863385826772
 20
7.895102362204724
 10
-18.0539094488189
 20
7.898547244094488
 10
-18.00675590551181
 20
8.090712598425197
 10
-17.82774409448819
 20
8.090712598425197
 10
-17.82774409448819
 20
8.040909448818898
 10
-17.96974803149606
 20
8.040909448818898
 10
-17.99200393700787
 20
7.957279527559055
 10
-17.98430708661417
 20
7.960259842519685
 10
-17.97672440944882
 20
7.962842519685039
 10
-17.96927559055118
 20
7.965027559055118
 10
-17.96197637795276
 20
7.966811023622047
 10
-17.95475590551181
 20
7.968153543307086
 10
-17.94752755905512
 20
7.969122047244094
 10
-17.94027952755906
 20
7.969708661417322
 10
-17.93301181102362
 20
7.969905511811024
 10
-17.91981496062992
 20
7.969362204724409
 10
-17.90724803149606
 20
7.967736220472441
 10
-17.89531496062992
 20
7.965023622047244
 10
-17.88401181102362
 20
7.961228346456693
 10
-17.87333858267716
 20
7.956346456692914
 10
-17.8633031496063
 20
7.950381889763779
 10
-17.85390551181102
 20
7.943334645669291
 10
-17.84514173228347
 20
7.935200787401575
 10
-17.83719291338583
 20
7.926224409448819
 10
-17.8303031496063
 20
7.916586614173228
 10
-17.82447637795276
 20
7.906291338582677
 10
-17.81970472440945
 20
7.895334645669291
 10
-17.81599606299213
 20
7.883724409448819
 10
-17.81334645669291
 20
7.871452755905512
 10
-17.81175984251968
 20
7.858527559055118
 10
-17.81122834645669
 20
7.844944881889764
 10
-17.81184645669291
 20
7.829444881889764
 10
-17.8136968503937
 20
7.814744094488189
 10
-17.81678346456693
 20
7.800838582677166
 10
-17.82111023622047
 20
7.787736220472441
 10
-17.82666929133858
 20
7.775437007874015
 10
-17.83347244094488
 20
7.763944881889763
 10
-17.84151181102362
 20
7.753259842519685
 10
-17.85079527559055
 20
7.743385826771654
 10
-17.86111417322835
 20
7.734507874015748
 10
-17.87227165354331
 20
7.726811023622047
 10
-17.88426771653543
 20
7.720299212598425
 10
-17.89710236220472
 20
7.714972440944882
 10
-17.91077559055118
 20
7.710826771653544
 10
-17.92529527559055
 20
7.707866141732284
 10
-17.94065354330709
 20
7.706090551181102
 10
-17.95685826771653
 20
7.7055
 10
-17.96653149606299
 20
7.705712598425197
 10
-17.97588188976378
 20
7.706346456692914
 10
-17.9849094488189
 20
7.707405511811023
 10
-17.99361417322835
 20
7.708889763779528
 10
-18.002
 20
7.710799212598425
 10
-18.01005905511811
 20
7.713137795275591
 10
-18.01779527559055
 20
7.71590157480315
 10
-18.02520866141732
 20
7.71909842519685
 10
-18.03230708661417
 20
7.722708661417323
 10
-18.03916535433071
 20
7.726783464566929
 10
-18.04577559055118
 20
7.731322834645669
 10
-18.05214173228346
 20
7.736330708661417
 10
-18.05825984251969
 20
7.741807086614173
 10
-18.06412598425197
 20
7.747748031496063
 10
-18.06974409448819
 20
7.754161417322835
 10
-18.07510236220472
 20
7.761043307086614
 10
-18.03421653543307
 20
7.806082677165354
  0
LWPOLYLINE
  5
85
330
1F
100
AcDbEntity
  8
Layer 1
 62
     7
100
AcDbPolyline
 90
       65
 70
     1
 43
0.0
 10
-17.479
 20
7.897933070866141
 10
-17.47956692913386
 20
7.875988188976378
 10
-17.48127165354331
 20
7.855259842519685
 10
-17.48411023622047
 20
7.835755905511811
 10
-17.48808661417323
 20
7.817468503937008
 10
-17.49320078740157
 20
7.80040157480315
 10
-17.49945669291339
 20
7.78455905511811
 10
-17.50685433070866
 20
7.76994094488189
 10
-17.51538976377953
 20
7.756543307086615
 10
-17.52488976377953
 20
7.744590551181102
 10
-17.53524015748032
 20
7.734224409448819
 10
-17.54644488188976
 20
7.725452755905512
 10
-17.55850393700787
 20
7.718271653543307
 10
-17.57141732283464
 20
7.712685039370078
 10
-17.58517716535433
 20
7.708692913385827
 10
-17.59979527559055
 20
7.706299212598426
 10
-17.61526377952756
 20
7.7055
 10
-17.63094094488189
 20
7.706307086614173
 10
-17.64571653543307
 20
7.708728346456692
 10
-17.6595905511811
 20
7.712759842519685
 10
-17.67256692913386
 20
7.718405511811024
 10
-17.68464566929134
 20
7.72565748031496
 10
-17.69582677165354
 20
7.734523622047244
 10
-17.70611023622047
 20
7.744996062992126
 10
-17.7155
 20
7.757074803149607
 10
-17.72391338582677
 20
7.770641732283464
 10
-17.73120078740158
 20
7.785507874015748
 10
-17.73736220472441
 20
7.801673228346456
 10
-17.74240157480315
 20
7.819145669291339
 10
-17.7463188976378
 20
7.83792125984252
 10
-17.74911811023622
 20
7.858
 10
-17.75079527559055
 20
7.879385826771654
 10
-17.75135433070866
 20
7.902078740157481
 10
-17.7507874015748
 20
7.924590551181103
 10
-17.74908661417323
 20
7.945826771653543
 10
-17.74625590551181
 20
7.965783464566929
 10
-17.74229133858268
 20
7.984464566929134
 10
-17.7371968503937
 20
8.001866141732284
 10
-17.73097637795276
 20
8.017984251968503
 10
-17.7236220472441
 20
8.03282283464567
 10
-17.71514566929134
 20
8.046377952755906
 10
-17.70566141732283
 20
8.05851968503937
 10
-17.69529527559055
 20
8.069035433070866
 10
-17.68404330708661
 20
8.077929133858268
 10
-17.6719094488189
 20
8.085204724409449
 10
-17.6588937007874
 20
8.09086220472441
 10
-17.64499606299212
 20
8.09490157480315
 10
-17.63021653543307
 20
8.09732283464567
 10
-17.61456299212598
 20
8.098129921259842
 10
-17.59873622047244
 20
8.097318897637795
 10
-17.58384645669291
 20
8.094885826771653
 10
-17.56988976377953
 20
8.090834645669291
 10
-17.55687007874016
 20
8.085161417322835
 10
-17.5447874015748
 20
8.077870078740158
 10
-17.53363779527559
 20
8.06896062992126
 10
-17.52342519685039
 20
8.058437007874016
 10
-17.51414960629921
 20
8.046295275590552
 10
-17.50592125984252
 20
8.032618110236221
 10
-17.49878346456693
 20
8.017547244094489
 10
-17.49274409448819
 20
8.001086614173229
 10
-17.48779921259842
 20
7.983236220472441
 10
-17.48395275590551
 20
7.963996062992126
 10
-17.48120078740158
 20
7.943366141732284
 10
-17.47955118110236
 20
7.921342519685039
 10
-17.479
 20
7.897933070866141
  0
LWPOLYLINE
  5
86
330
1F
100
AcDbEntity
  8
Layer 1
 62
     7
100
AcDbPolyline
 90
       65
 70
     1
 43
0.0
 10
-17.61632677165354
 20
7.75848031496063
 10
-17.60717716535433
 20
7.759043307086614
 10
-17.59861023622047
 20
7.760732283464567
 10
-17.59062598425197
 20
7.763551181102362
 10
-17.58322834645669
 20
7.7675
 10
-17.57642125984252
 20
7.77257874015748
 10
-17.57020078740157
 20
7.778787401574803
 10
-17.56457480314961
 20
7.786129921259842
 10
-17.55954330708661
 20
7.794602362204724
 10
-17.55507086614173
 20
7.804173228346457
 10
-17.5511968503937
 20
7.814870078740157
 10
-17.54791732283465
 20
7.826688976377953
 10
-17.54523622047244
 20
7.839633858267717
 10
-17.54314960629921
 20
7.853696850393701
 10
-17.54166141732284
 20
7.868881889763779
 10
-17.54076771653543
 20
7.885185039370079
 10
-17.54046850393701
 20
7.902610236220473
 10
-17.54076377952756
 20
7.919547244094488
 10
-17.54164566929134
 20
7.935444881889763
 10
-17.54311417322835
 20
7.950307086614173
 10
-17.54517322834646
 20
7.964129921259842
 10
-17.54781496062992
 20
7.976917322834645
 10
-17.55104724409449
 20
7.988661417322835
 10
-17.55487007874016
 20
7.999366141732284
 10
-17.55927559055118
 20
8.009027559055118
 10
-17.56422047244094
 20
8.017625984251968
 10
-17.56970866141732
 20
8.025074803149606
 10
-17.57574015748031
 20
8.031377952755905
 10
-17.58231496062992
 20
8.036527559055118
 10
-17.58943307086614
 20
8.040535433070866
 10
-17.59709448818898
 20
8.043393700787401
 10
-17.60529133858268
 20
8.045110236220472
 10
-17.61403149606299
 20
8.045681102362204
 10
-17.62311811023622
 20
8.045110236220472
 10
-17.63162992125984
 20
8.043397637795275
 10
-17.63957480314961
 20
8.040543307086613
 10
-17.64694488188976
 20
8.036551181102363
 10
-17.65374803149606
 20
8.031417322834645
 10
-17.65997637795276
 20
8.025149606299212
 10
-17.66563779527559
 20
8.017744094488188
 10
-17.67072440944882
 20
8.009204724409448
 10
-17.67522440944882
 20
7.999523622047244
 10
-17.6791220472441
 20
7.988767716535433
 10
-17.68241732283465
 20
7.976933070866142
 10
-17.68511023622047
 20
7.964019685039371
 10
-17.68720472440945
 20
7.950027559055118
 10
-17.6886968503937
 20
7.934952755905512
 10
-17.6895905511811
 20
7.918791338582677
 10
-17.68988976377953
 20
7.901551181102362
 10
-17.6895905511811
 20
7.884795275590551
 10
-17.6886968503937
 20
7.869031496062992
 10
-17.68720866141732
 20
7.854267716535433
 10
-17.68512204724409
 20
7.840503937007874
 10
-17.68244094488189
 20
7.827744094488189
 10
-17.67916141732283
 20
7.815984251968504
 10
-17.6752874015748
 20
7.805232283464567
 10
-17.67081496062992
 20
7.795488188976378
 10
-17.6658188976378
 20
7.786822834645669
 10
-17.6603031496063
 20
7.779311023622047
 10
-17.65426771653543
 20
7.772948818897638
 10
-17.6477125984252
 20
7.767744094488189
 10
-17.64063779527559
 20
7.763692913385826
 10
-17.63305118110236
 20
7.760799212598426
 10
-17.62494488188976
 20
7.759059055118111
 10
-17.61632677165354
 20
7.75848031496063
  0
LWPOLYLINE
  5
87
330
1F
100
AcDbEntity
  8
Layer 1
 62
     7
100
AcDbPolyline
 90
      157
 70
     1
 43
0.0
 10
-17.36030708661417
 20
7.715566929133859
 10
-17.41647637795275
 20
7.715566929133859
 10
-17.41647637795275
 20
7.960893700787402
 10
-17.36366929133858
 20
7.960893700787402
 10
-17.36366929133858
 20
7.920625984251968
 10
-17.3593937007874
 20
7.926834645669292
 10
-17.35497637795276
 20
7.932610236220472
 10
-17.35041732283464
 20
7.937956692913386
 10
-17.34571653543307
 20
7.942870078740158
 10
-17.34087795275591
 20
7.947346456692913
 10
-17.33589763779528
 20
7.951385826771654
 10
-17.33077952755906
 20
7.954988188976378
 10
-17.32551968503937
 20
7.958153543307087
 10
-17.32006692913386
 20
7.960917322834645
 10
-17.31437401574803
 20
7.963307086614173
 10
-17.30844094488189
 20
7.965330708661417
 10
-17.30227165354331
 20
7.96698031496063
 10
-17.29585826771654
 20
7.968259842519685
 10
-17.28920472440945
 20
7.96917716535433
 10
-17.28231102362205
 20
7.969724409448819
 10
-17.27517716535433
 20
7.969905511811024
 10
-17.26814566929134
 20
7.969720472440945
 10
-17.26142125984252
 20
7.96915748031496
 10
-17.25500393700787
 20
7.968224409448819
 10
-17.2488937007874
 20
7.966913385826771
 10
-17.24309448818898
 20
7.965224409448819
 10
-17.23761023622047
 20
7.963161417322834
 10
-17.23243700787402
 20
7.960716535433071
 10
-17.22757480314961
 20
7.957893700787402
 10
-17.22298425196851
 20
7.954681102362205
 10
-17.21868503937008
 20
7.951074803149607
 10
-17.21466929133858
 20
7.947070866141733
 10
-17.21094094488189
 20
7.942673228346457
 10
-17.2075
 20
7.93788188976378
 10
-17.20434251968504
 20
7.932696850393701
 10
-17.20146850393701
 20
7.927122047244095
 10
-17.1988779527559
 20
7.92115748031496
 10
-17.19397244094488
 20
7.927299212598426
 10
-17.18899212598425
 20
7.933011811023622
 10
-17.18393700787401
 20
7.938295275590551
 10
-17.17880708661417
 20
7.943145669291338
 10
-17.17360236220473
 20
7.947566929133858
 10
-17.16832677165354
 20
7.951559055118111
 10
-17.16297244094488
 20
7.955118110236221
 10
-17.15754724409449
 20
7.958248031496063
 10
-17.15198818897638
 20
7.96098031496063
 10
-17.14623622047244
 20
7.963346456692913
 10
-17.14029527559055
 20
7.965350393700787
 10
-17.13416535433071
 20
7.966992125984252
 10
-17.12784645669291
 20
7.968267716535433
 10
-17.12133464566929
 20
7.96917716535433
 10
-17.11463385826772
 20
7.969724409448819
 10
-17.10774015748031
 20
7.969905511811024
 10
-17.10177559055118
 20
7.969763779527559
 10
-17.096
 20
7.969342519685039
 10
-17.09041732283465
 20
7.968645669291338
 10
-17.08501968503937
 20
7.967665354330709
 10
-17.0798188976378
 20
7.966409448818897
 10
-17.0748031496063
 20
7.964877952755906
 10
-17.06998031496063
 20
7.963070866141733
 10
-17.06534645669291
 20
7.960988188976378
 10
-17.06093700787402
 20
7.958610236220473
 10
-17.05678346456693
 20
7.955984251968504
 10
-17.05288582677165
 20
7.953106299212599
 10
-17.04924409448819
 20
7.94998031496063
 10
-17.04585039370079
 20
7.94659842519685
 10
-17.0427125984252
 20
7.942964566929134
 10
-17.03982283464567
 20
7.93907874015748
 10
-17.0371811023622
 20
7.934933070866141
 10
-17.03496062992126
 20
7.930748031496063
 10
-17.03307086614173
 20
7.926149606299212
 10
-17.03151181102362
 20
7.921149606299212
 10
-17.0302874015748
 20
7.915771653543307
 10
-17.02931102362205
 20
7.909610236220472
 10
-17.0286220472441
 20
7.902259842519685
 10
-17.0282125984252
 20
7.893712598425197
 10
-17.02807874015748
 20
7.883972440944881
 10
-17.02807874015748
 20
7.864283464566929
 10
-17.02807874015748
 20
7.715566929133859
 10
-17.08424409448819
 20
7.715566929133859
 10
-17.08424409448819
 20
7.841496062992126
 10
-17.0844094488189
 20
7.853322834645669
 10
-17.08490551181102
 20
7.86409842519685
 10
-17.08572834645669
 20
7.873818897637795
 10
-17.08688188976378
 20
7.882484251968504
 10
-17.08836220472441
 20
7.890094488188977
 10
-17.09016929133858
 20
7.896649606299213
 10
-17.09229921259843
 20
7.902145669291339
 10
-17.09475590551181
 20
7.906582677165354
 10
-17.09762992125984
 20
7.910248031496063
 10
-17.1010157480315
 20
7.913425196850394
 10
-17.10491732283464
 20
7.916110236220472
 10
-17.10933070866142
 20
7.918311023622048
 10
-17.11425590551181
 20
7.92001968503937
 10
-17.1196968503937
 20
7.921244094488189
 10
-17.12564960629921
 20
7.921976377952756
 10
-17.13211811023622
 20
7.922220472440945
 10
-17.14009842519685
 20
7.921889763779528
 10
-17.14748031496063
 20
7.920897637795275
 10
-17.15426771653543
 20
7.919244094488189
 10
-17.16046062992126
 20
7.916933070866142
 10
-17.16605511811024
 20
7.913960629921259
 10
-17.17105511811024
 20
7.910334645669291
 10
-17.17546062992126
 20
7.906051181102362
 10
-17.17927165354331
 20
7.901110236220473
 10
-17.1825905511811
 20
7.895346456692914
 10
-17.18546456692913
 20
7.888594488188977
 10
-17.1878937007874
 20
7.880846456692914
 10
-17.18988188976378
 20
7.872110236220473
 10
-17.19142125984252
 20
7.862385826771654
 10
-17.19252362204724
 20
7.851669291338583
 10
-17.1931811023622
 20
7.839968503937008
 10
-17.19340157480315
 20
7.827283464566929
 10
-17.19340157480315
 20
7.715566929133859
 10
-17.25009842519685
 20
7.715566929133859
 10
-17.25009842519685
 20
7.841496062992126
 10
-17.25026771653543
 20
7.852448818897638
 10
-17.25077952755905
 20
7.862527559055118
 10
-17.25162992125984
 20
7.871728346456693
 10
-17.25282283464567
 20
7.880055118110236
 10
-17.25436220472441
 20
7.887511811023622
 10
-17.25624409448819
 20
7.894090551181102
 10
-17.25847244094488
 20
7.899803149606299
 10
-17.26104724409449
 20
7.904641732283465
 10
-17.26405118110236
 20
7.908767716535433
 10
-17.26755511811024
 20
7.91234251968504
 10
-17.27155905511811
 20
7.915366141732283
 10
-17.27606299212598
 20
7.917834645669291
 10
-17.28106299212599
 20
7.919755905511811
 10
-17.28655905511811
 20
7.921125984251969
 10
-17.29254330708661
 20
7.921944881889764
 10
-17.29902362204724
 20
7.922220472440945
 10
-17.30311811023622
 20
7.922102362204725
 10
-17.30711811023622
 20
7.921755905511811
 10
-17.31103149606299
 20
7.921169291338582
 10
-17.31485433070866
 20
7.920350393700788
 10
-17.31858267716536
 20
7.919295275590551
 10
-17.32222440944882
 20
7.918003937007874
 10
-17.32577165354331
 20
7.916476377952756
 10
-17.32922834645669
 20
7.914708661417323
 10
-17.33257874015748
 20
7.912736220472441
 10
-17.33575196850394
 20
7.910586614173228
 10
-17.33874409448819
 20
7.908263779527559
 10
-17.34155511811024
 20
7.905767716535433
 10
-17.34418897637795
 20
7.90309842519685
 10
-17.34664566929134
 20
7.900255905511811
 10
-17.34892913385827
 20
7.897236220472441
 10
-17.35103543307087
 20
7.894047244094488
 10
-17.3534251968504
 20
7.889507874015748
 10
-17.35542125984252
 20
7.884507874015748
 10
-17.35703543307087
 20
7.879043307086614
 10
-17.35827559055118
 20
7.873118110236221
 10
-17.35915354330709
 20
7.865582677165355
 10
-17.35979133858268
 20
7.855433070866142
 10
-17.36017716535433
 20
7.842665354330709
 10
-17.36030708661417
 20
7.827283464566929
 10
-17.36030708661417
 20
7.715566929133859
  0
LWPOLYLINE
  5
88
330
1F
100
AcDbEntity
  8
Layer 1
 62
     7
100
AcDbPolyline
 90
      157
 70
     1
 43
0.0
 10
-16.89666929133858
 20
7.715566929133859
 10
-16.95283464566929
 20
7.715566929133859
 10
-16.95283464566929
 20
7.960893700787402
 10
-16.90003149606299
 20
7.960893700787402
 10
-16.90003149606299
 20
7.920625984251968
 10
-16.89575196850394
 20
7.926834645669292
 10
-16.89133464566929
 20
7.932610236220472
 10
-16.88677559055118
 20
7.937956692913386
 10
-16.88207874015748
 20
7.942870078740158
 10
-16.87723622047244
 20
7.947346456692913
 10
-16.87225590551181
 20
7.951385826771654
 10
-16.86713779527559
 20
7.954988188976378
 10
-16.8618779527559
 20
7.958153543307087
 10
-16.8564251968504
 20
7.960917322834645
 10
-16.85073228346457
 20
7.963307086614173
 10
-16.84479921259842
 20
7.965330708661417
 10
-16.83862992125984
 20
7.96698031496063
 10
-16.83221653543307
 20
7.968259842519685
 10
-16.82556299212598
 20
7.96917716535433
 10
-16.81866929133858
 20
7.969724409448819
 10
-16.81153543307087
 20
7.969905511811024
 10
-16.80450393700787
 20
7.969720472440945
 10
-16.79777952755905
 20
7.96915748031496
 10
-16.79136220472441
 20
7.968224409448819
 10
-16.78525196850394
 20
7.966913385826771
 10
-16.77945275590551
 20
7.965224409448819
 10
-16.77396850393701
 20
7.963161417322834
 10
-16.76879527559055
 20
7.960716535433071
 10
-16.76393307086614
 20
7.957893700787402
 10
-16.75934251968504
 20
7.954681102362205
 10
-16.75504330708661
 20
7.951074803149607
 10
-16.75102755905512
 20
7.947070866141733
 10
-16.7473031496063
 20
7.942673228346457
 10
-16.74385826771654
 20
7.93788188976378
 10
-16.74070472440945
 20
7.932696850393701
 10
-16.73783070866142
 20
7.927122047244095
 10
-16.73524015748032
 20
7.92115748031496
 10
-16.73033464566929
 20
7.927299212598426
 10
-16.72535433070866
 20
7.933011811023622
 10
-16.72029921259843
 20
7.938295275590551
 10
-16.71516929133858
 20
7.943145669291338
 10
-16.70996456692913
 20
7.947566929133858
 10
-16.70468503937008
 20
7.951559055118111
 10
-16.69933464566929
 20
7.955118110236221
 10
-16.6939094488189
 20
7.958248031496063
 10
-16.68835039370079
 20
7.96098031496063
 10
-16.68259842519685
 20
7.963346456692913
 10
-16.67665748031496
 20
7.965350393700787
 10
-16.67052755905512
 20
7.966992125984252
 10
-16.66420472440945
 20
7.968267716535433
 10
-16.65769291338583
 20
7.96917716535433
 10
-16.65099212598425
 20
7.969724409448819
 10
-16.64409842519685
 20
7.969905511811024
 10
-16.63813385826772
 20
7.969763779527559
 10
-16.63235826771654
 20
7.969342519685039
 10
-16.62677559055118
 20
7.968645669291338
 10
-16.62138188976378
 20
7.967665354330709
 10
-16.61617716535433
 20
7.966409448818897
 10
-16.61116535433071
 20
7.964877952755906
 10
-16.60633858267716
 20
7.963070866141733
 10
-16.60170472440945
 20
7.960988188976378
 10
-16.59729921259843
 20
7.958610236220473
 10
-16.59314566929134
 20
7.955984251968504
 10
-16.58924803149606
 20
7.953106299212599
 10
-16.58560236220472
 20
7.94998031496063
 10
-16.5822125984252
 20
7.94659842519685
 10
-16.57907086614173
 20
7.942964566929134
 10
-16.57618110236221
 20
7.93907874015748
 10
-16.57353937007874
 20
7.934933070866141
 10
-16.57131889763779
 20
7.930748031496063
 10
-16.56942913385827
 20
7.926149606299212
 10
-16.56787401574803
 20
7.921149606299212
 10
-16.56664566929134
 20
7.915771653543307
 10
-16.56566929133858
 20
7.909610236220472
 10
-16.56498031496063
 20
7.902259842519685
 10
-16.56457086614173
 20
7.893712598425197
 10
-16.56443700787402
 20
7.883972440944881
 10
-16.56443700787402
 20
7.864283464566929
 10
-16.56443700787402
 20
7.715566929133859
 10
-16.6206062992126
 20
7.715566929133859
 10
-16.6206062992126
 20
7.841496062992126
 10
-16.62077165354331
 20
7.853322834645669
 10
-16.62126771653543
 20
7.86409842519685
 10
-16.6220905511811
 20
7.873818897637795
 10
-16.62324409448819
 20
7.882484251968504
 10
-16.62472440944882
 20
7.890094488188977
 10
-16.62653149606299
 20
7.896649606299213
 10
-16.62866141732284
 20
7.902145669291339
 10
-16.63111811023622
 20
7.906582677165354
 10
-16.63399212598425
 20
7.910248031496063
 10
-16.63737795275591
 20
7.913425196850394
 10
-16.64127559055118
 20
7.916110236220472
 10
-16.64568897637795
 20
7.918311023622048
 10
-16.65061811023622
 20
7.92001968503937
 10
-16.65605511811023
 20
7.921244094488189
 10
-16.66200787401575
 20
7.921976377952756
 10
-16.66847637795276
 20
7.922220472440945
 10
-16.67645669291339
 20
7.921889763779528
 10
-16.68384251968504
 20
7.920897637795275
 10
-16.69062992125984
 20
7.919244094488189
 10
-16.69682283464567
 20
7.916933070866142
 10
-16.70241732283464
 20
7.913960629921259
 10
-16.70741732283465
 20
7.910334645669291
 10
-16.71182283464567
 20
7.906051181102362
 10
-16.71563385826772
 20
7.901110236220473
 10
-16.71895275590551
 20
7.895346456692914
 10
-16.72182677165354
 20
7.888594488188977
 10
-16.72425590551181
 20
7.880846456692914
 10
-16.72624015748032
 20
7.872110236220473
 10
-16.72778346456693
 20
7.862385826771654
 10
-16.72888188976378
 20
7.851669291338583
 10
-16.72953937007874
 20
7.839968503937008
 10
-16.72975984251968
 20
7.827283464566929
 10
-16.72975984251968
 20
7.715566929133859
 10
-16.78645669291339
 20
7.715566929133859
 10
-16.78645669291339
 20
7.841496062992126
 10
-16.78662598425197
 20
7.852448818897638
 10
-16.78713779527559
 20
7.862527559055118
 10
-16.78798818897638
 20
7.871728346456693
 10
-16.7891811023622
 20
7.880055118110236
 10
-16.79072047244095
 20
7.887511811023622
 10
-16.79260236220473
 20
7.894090551181102
 10
-16.79483464566929
 20
7.899803149606299
 10
-16.7974094488189
 20
7.904641732283465
 10
-16.8004094488189
 20
7.908767716535433
 10
-16.80391338582677
 20
7.91234251968504
 10
-16.80791732283464
 20
7.915366141732283
 10
-16.81242125984252
 20
7.917834645669291
 10
-16.81742125984252
 20
7.919755905511811
 10
-16.82291732283464
 20
7.921125984251969
 10
-16.82890551181102
 20
7.921944881889764
 10
-16.83538582677165
 20
7.922220472440945
 10
-16.83947637795276
 20
7.922102362204725
 10
-16.84348031496063
 20
7.921755905511811
 10
-16.84738976377953
 20
7.921169291338582
 10
-16.8512125984252
 20
7.920350393700788
 10
-16.85494488188976
 20
7.919295275590551
 10
-16.85858267716536
 20
7.918003937007874
 10
-16.86212992125984
 20
7.916476377952756
 10
-16.86558661417323
 20
7.914708661417323
 10
-16.86893700787402
 20
7.912736220472441
 10
-16.87211023622047
 20
7.910586614173228
 10
-16.87510236220472
 20
7.908263779527559
 10
-16.87791338582677
 20
7.905767716535433
 10
-16.88054724409449
 20
7.90309842519685
 10
-16.88300393700787
 20
7.900255905511811
 10
-16.8852874015748
 20
7.897236220472441
 10
-16.8873937007874
 20
7.894047244094488
 10
-16.88978346456693
 20
7.889507874015748
 10
-16.89177952755906
 20
7.884507874015748
 10
-16.89339763779527
 20
7.879043307086614
 10
-16.89463779527559
 20
7.873118110236221
 10
-16.8955157480315
 20
7.865582677165355
 10
-16.89615354330709
 20
7.855433070866142
 10
-16.89653937007874
 20
7.842665354330709
 10
-16.89666929133858
 20
7.827283464566929
 10
-16.89666929133858
 20
7.715566929133859
  0
LWPOLYLINE
  5
89
330
1F
100
AcDbEntity
  8
Layer 1
 62
     7
100
AcDbPolyline
 90
       67
 70
     1
 43
0.0
 10
-16.47435826771654
 20
7.600055118110236
 10
-16.51622047244095
 20
7.613744094488189
 10
-16.50946062992126
 20
7.626555118110236
 10
-16.50315748031496
 20
7.639622047244094
 10
-16.49731102362205
 20
7.652952755905511
 10
-16.49192519685039
 20
7.66653937007874
 10
-16.48699606299213
 20
7.680389763779528
 10
-16.48252755905512
 20
7.6945
 10
-16.47852362204724
 20
7.708874015748031
 10
-16.47498031496063
 20
7.723515748031496
 10
-16.47184645669291
 20
7.738472440944882
 10
-16.46913385826772
 20
7.753866141732283
 10
-16.46684251968504
 20
7.769700787401574
 10
-16.46496850393701
 20
7.785972440944882
 10
-16.46351181102362
 20
7.802685039370079
 10
-16.46247637795276
 20
7.819838582677165
 10
-16.46185433070866
 20
7.837425196850393
 10
-16.46164566929134
 20
7.855456692913386
 10
-16.46185433070866
 20
7.872712598425196
 10
-16.46247637795276
 20
7.889653543307086
 10
-16.46351181102362
 20
7.906275590551181
 10
-16.46496850393701
 20
7.922582677165354
 10
-16.46684251968504
 20
7.93857874015748
 10
-16.46913385826772
 20
7.954267716535433
 10
-16.47184645669291
 20
7.969653543307087
 10
-16.47498031496063
 20
7.984740157480315
 10
-16.47852362204724
 20
7.999566929133858
 10
-16.48252755905512
 20
8.014248031496063
 10
-16.48699606299213
 20
8.028779527559054
 10
-16.49192519685039
 20
8.043161417322835
 10
-16.49731102362205
 20
8.057389763779527
 10
-16.50315748031496
 20
8.071476377952756
 10
-16.50946062992126
 20
8.085409448818897
 10
-16.51622047244095
 20
8.099192913385826
 10
-16.47435826771654
 20
8.111913385826771
 10
-16.46676377952756
 20
8.09794094488189
 10
-16.45966929133858
 20
8.083712598425198
 10
-16.45308267716536
 20
8.069224409448818
 10
-16.44699606299213
 20
8.054476377952756
 10
-16.4414094488189
 20
8.039468503937007
 10
-16.43632283464567
 20
8.0241968503937
 10
-16.43173228346457
 20
8.00866535433071
 10
-16.42764173228347
 20
7.992866141732283
 10
-16.42407086614173
 20
7.976799212598425
 10
-16.42097244094488
 20
7.960397637795276
 10
-16.41834645669291
 20
7.943653543307087
 10
-16.4161968503937
 20
7.92657874015748
 10
-16.41452362204724
 20
7.909165354330709
 10
-16.41332677165354
 20
7.891417322834646
 10
-16.4126062992126
 20
7.873338582677166
 10
-16.41236614173229
 20
7.854925196850393
 10
-16.4126062992126
 20
7.83738188976378
 10
-16.41332677165354
 20
7.820051181102362
 10
-16.41453149606299
 20
7.802937007874016
 10
-16.41622047244094
 20
7.78603937007874
 10
-16.41838976377953
 20
7.769354330708661
 10
-16.42104724409449
 20
7.752885826771654
 10
-16.42418897637795
 20
7.736633858267717
 10
-16.4278188976378
 20
7.72059842519685
 10
-16.4319094488189
 20
7.704807086614173
 10
-16.43649606299213
 20
7.689224409448819
 10
-16.44157480314961
 20
7.673846456692913
 10
-16.44714960629921
 20
7.658673228346457
 10
-16.45321653543307
 20
7.643708661417323
 10
-16.45977165354331
 20
7.628952755905511
 10
-16.4668188976378
 20
7.61440157480315
 10
-16.47435826771654
 20
7.600055118110236
  0
ENDSEC
  0
SECTION
  2
OBJECTS
  0
DICTIONARY
  5
C
330
0
100
AcDbDictionary
281
     1
  3
ACAD_DETAILVIEWSTYLE
350
91
  3
ACAD_GROUP
350
D
  3
ACAD_LAYOUT
350
1A
  3
ACAD_MATERIAL
350
43
  3
ACAD_MLEADERSTYLE
350
5B
  3
ACAD_MLINESTYLE
350
17
  3
ACAD_PLOTSETTINGS
350
19
  3
ACAD_PLOTSTYLENAME
350
E
  3
ACAD_SCALELIST
350
47
  3
ACAD_SECTIONVIEWSTYLE
350
92
  3
ACAD_TABLESTYLE
350
59
  3
ACAD_VISUALSTYLE
350
2A
  3
ACDB_RECOMPOSE_DATA
350
8E
  3
AcDbVariableDictionary
350
8A
  0
SUN
  5
5D
330
29
100
AcDbSun
 90
        1
290
     0
 63
     7
421
 16777215
 40
1.0
291
     1
 91
  2455826
 92
 54000000
292
     0
 70
     2
 71
   256
280
     1
  0
DICTIONARY
  5
91
102
{ACAD_REACTORS
330
C
102
}
330
C
100
AcDbDictionary
281
     1
  0
DICTIONARY
  5
D
102
{ACAD_REACTORS
330
C
102
}
330
C
100
AcDbDictionary
281
     1
  0
DICTIONARY
  5
1A
102
{ACAD_REACTORS
330
C
102
}
330
C
100
AcDbDictionary
281
     1
  3
Layout1
350
1E
  3
Layout2
350
26
  3
Model
350
22
  0
DICTIONARY
  5
43
102
{ACAD_REACTORS
330
C
102
}
330
C
100
AcDbDictionary
281
     1
  3
ByBlock
350
45
  3
ByLayer
350
44
  3
Global
350
46
  0
DICTIONARY
  5
5B
102
{ACAD_REACTORS
330
C
102
}
330
C
100
AcDbDictionary
281
     1
  3
Standard
350
5C
  0
DICTIONARY
  5
17
102
{ACAD_REACTORS
330
C
102
}
330
C
100
AcDbDictionary
281
     1
  3
Standard
350
18
  0
DICTIONARY
  5
19
102
{ACAD_REACTORS
330
C
102
}
330
C
100
AcDbDictionary
281
     1
  0
ACDBDICTIONARYWDFLT
  5
E
102
{ACAD_REACTORS
330
C
102
}
330
C
100
AcDbDictionary
281
     1
  3
Normal
350
F
100
AcDbDictionaryWithDefault
340
F
  0
DICTIONARY
  5
47
102
{ACAD_REACTORS
330
C
102
}
330
C
100
AcDbDictionary
281
     1
  3
A0
350
48
  3
A1
350
49
  3
A2
350
4A
  3
A3
350
4B
  3
A4
350
4C
  3
A5
350
4D
  3
A6
350
4E
  3
A7
350
4F
  3
A8
350
50
  3
A9
350
51
  3
B1
350
52
  3
B2
350
53
  3
B3
350
54
  3
B4
350
55
  3
B5
350
56
  3
B6
350
57
  3
B7
350
58
  0
DICTIONARY
  5
92
102
{ACAD_REACTORS
330
C
102
}
330
C
100
AcDbDictionary
281
     1
  0
DICTIONARY
  5
59
102
{ACAD_REACTORS
330
C
102
}
330
C
100
AcDbDictionary
281
     1
  3
Standard
350
5A
  0
DICTIONARY
  5
2A
102
{ACAD_REACTORS
330
C
102
}
330
C
100
AcDbDictionary
281
     1
  3
2dWireframe
350
2F
  3
Basic
350
32
  3
Brighten
350
36
  3
ColorChange
350
3A
  3
Conceptual
350
34
  3
Dim
350
35
  3
EdgeColorOff
350
3D
  3
Facepattern
350
39
  3
Flat
350
2B
  3
FlatWithEdges
350
2C
  3
Gouraud
350
2D
  3
GouraudWithEdges
350
2E
  3
Hidden
350
31
  3
JitterOff
350
3B
  3
Linepattern
350
38
  3
OverhangOff
350
3C
  3
Realistic
350
33
  3
Shaded
350
42
  3
Shaded with edges
350
41
  3
Shades of Gray
350
3E
  3
Sketchy
350
3F
  3
Thicken
350
37
  3
Wireframe
350
30
  3
X-Ray
350
40
  0
XRECORD
  5
8E
102
{ACAD_REACTORS
330
C
102
}
330
C
100
AcDbXrecord
280
     1
 90
        1
330
5A
  0
DICTIONARY
  5
8A
102
{ACAD_REACTORS
330
C
102
}
330
C
100
AcDbDictionary
281
     1
  3
CANNOSCALE
350
8B
  3
CMLEADERSTYLE
350
90
  3
CTABLESTYLE
350
8F
  0
LAYOUT
  5
1E
102
{ACAD_REACTORS
330
1A
102
}
330
1A
100
AcDbPlotSettings
  1

  2
none_device
  4

  6

 40
0.0
 41
0.0
 42
0.0
 43
0.0
 44
0.0
 45
0.0
 46
0.0
 47
0.0
 48
0.0
 49
0.0
140
0.0
141
0.0
142
1.0
143
1.0
 70
   688
 72
     0
 73
     0
 74
     5
  7

 75
    16
 76
     0
 77
     2
 78
   300
147
1.0
148
0.0
149
0.0
100
AcDbLayout
  1
Layout1
 70
     1
 71
     1
 10
0.0
 20
0.0
 11
12.0
 21
9.0
 12
0.0
 22
0.0
 32
0.0
 14
1.000000000000000E+20
 24
1.000000000000000E+20
 34
1.000000000000000E+20
 15
-1.000000000000000E+20
 25
-1.000000000000000E+20
 35
-1.000000000000000E+20
146
0.0
 13
0.0
 23
0.0
 33
0.0
 16
1.0
 26
0.0
 36
0.0
 17
0.0
 27
1.0
 37
0.0
 76
     0
330
1B
  0
LAYOUT
  5
26
102
{ACAD_REACTORS
330
1A
102
}
330
1A
100
AcDbPlotSettings
  1

  2
none_device
  4

  6

 40
0.0
 41
0.0
 42
0.0
 43
0.0
 44
0.0
 45
0.0
 46
0.0
 47
0.0
 48
0.0
 49
0.0
140
0.0
141
0.0
142
1.0
143
1.0
 70
   688
 72
     0
 73
     0
 74
     5
  7

 75
    16
 76
     0
 77
     2
 78
   300
147
1.0
148
0.0
149
0.0
100
AcDbLayout
  1
Layout2
 70
     1
 71
     2
 10
0.0
 20
0.0
 11
0.0
 21
0.0
 12
0.0
 22
0.0
 32
0.0
 14
0.0
 24
0.0
 34
0.0
 15
0.0
 25
0.0
 35
0.0
146
0.0
 13
0.0
 23
0.0
 33
0.0
 16
1.0
 26
0.0
 36
0.0
 17
0.0
 27
1.0
 37
0.0
 76
     0
330
23
  0
LAYOUT
  5
22
102
{ACAD_REACTORS
330
1A
102
}
330
1A
100
AcDbPlotSettings
  1

  2
none_device
  4
Letter_(8.50_x_11.00_Inches)
  6

 40
6.35
 41
6.35
 42
6.35000508
 43
6.35000508
 44
215.9
 45
279.4
 46
0.0
 47
0.0
 48
0.0
 49
0.0
140
0.0
141
0.0
142
1.0
143
1.0
 70
  1712
 72
     0
 73
     0
 74
     0
  7

 75
     0
 76
     0
 77
     2
 78
   300
147
1.0
148
0.0
149
0.0
100
AcDbLayout
  1
Model
 70
     1
 71
     0
 10
0.0
 20
0.0
 11
12.0
 21
9.0
 12
0.0
 22
0.0
 32
0.0
 14
-23.65424015748032
 24
-5.16653937007874
 34
0.0
 15
-13.67581889763779
 25
8.798051181102363
 35
0.0
146
0.0
 13
0.0
 23
0.0
 33
0.0
 16
1.0
 26
0.0
 36
0.0
 17
0.0
 27
1.0
 37
0.0
 76
     0
330
1F
331
29
  0
MATERIAL
  5
45
102
{ACAD_REACTORS
330
43
102
}
330
43
100
AcDbMaterial
  1
ByBlock
 72
     1
 94
      127
  0
MATERIAL
  5
44
102
{ACAD_REACTORS
330
43
102
}
330
43
100
AcDbMaterial
  1
ByLayer
 72
     1
 94
      127
  0
MATERIAL
  5
46
102
{ACAD_REACTORS
330
43
102
}
330
43
100
AcDbMaterial
  1
Global
 72
     1
 94
      127
  0
MLEADERSTYLE
  5
5C
102
{ACAD_REACTORS
330
5B
102
}
330
5B
100
AcDbMLeaderStyle
179
     2
170
     2
171
     1
172
     0
 90
        2
 40
0.0
 41
0.0
173
     1
 91
-1056964608
340
14
 92
       -2
290
     1
 42
0.09
291
     1
 43
0.36
  3
Standard
341
0
 44
0.18
300

342
11
174
     1
178
     6
175
     1
176
     0
 93
-1056964608
 45
0.18
292
     0
297
     0
 46
0.18
343
0
 94
-1056964608
 47
1.0
 49
1.0
140
1.0
293
     1
141
0.0
294
     1
177
     0
142
1.0
295
     0
296
     0
143
0.125
271
     0
272
     9
273
     9
298
     0
  0
MLINESTYLE
  5
18
102
{ACAD_REACTORS
330
17
102
}
330
17
100
AcDbMlineStyle
  2
Standard
 70
     0
  3

 62
   256
 51
90.0
 52
90.0
 71
     2
 49
0.5
 62
   256
  6
BYLAYER
 49
-0.5
 62
   256
  6
BYLAYER
  0
ACDBPLACEHOLDER
  5
F
102
{ACAD_REACTORS
330
E
102
}
330
E
  0
SCALE
  5
48
102
{ACAD_REACTORS
330
47
102
}
330
47
100
AcDbScale
 70
     0
300
1:1
140
1.0
141
1.0
290
     1
  0
SCALE
  5
49
102
{ACAD_REACTORS
330
47
102
}
330
47
100
AcDbScale
 70
     0
300
1/128" = 1'-0"
140
0.0078125
141
12.0
290
     0
  0
SCALE
  5
4A
102
{ACAD_REACTORS
330
47
102
}
330
47
100
AcDbScale
 70
     0
300
1/64" = 1'-0"
140
0.015625
141
12.0
290
     0
  0
SCALE
  5
4B
102
{ACAD_REACTORS
330
47
102
}
330
47
100
AcDbScale
 70
     0
300
1/32" = 1'-0"
140
0.03125
141
12.0
290
     0
  0
SCALE
  5
4C
102
{ACAD_REACTORS
330
47
102
}
330
47
100
AcDbScale
 70
     0
300
1/16" = 1'-0"
140
0.0625
141
12.0
290
     0
  0
SCALE
  5
4D
102
{ACAD_REACTORS
330
47
102
}
330
47
100
AcDbScale
 70
     0
300
3/32" = 1'-0"
140
0.09375
141
12.0
290
     0
  0
SCALE
  5
4E
102
{ACAD_REACTORS
330
47
102
}
330
47
100
AcDbScale
 70
     0
300
1/8" = 1'-0"
140
0.125
141
12.0
290
     0
  0
SCALE
  5
4F
102
{ACAD_REACTORS
330
47
102
}
330
47
100
AcDbScale
 70
     0
300
3/16" = 1'-0"
140
0.1875
141
12.0
290
     0
  0
SCALE
  5
50
102
{ACAD_REACTORS
330
47
102
}
330
47
100
AcDbScale
 70
     0
300
1/4" = 1'-0"
140
0.25
141
12.0
290
     0
  0
SCALE
  5
51
102
{ACAD_REACTORS
330
47
102
}
330
47
100
AcDbScale
 70
     0
300
3/8" = 1'-0"
140
0.375
141
12.0
290
     0
  0
SCALE
  5
52
102
{ACAD_REACTORS
330
47
102
}
330
47
100
AcDbScale
 70
     0
300
1/2" = 1'-0"
140
0.5
141
12.0
290
     0
  0
SCALE
  5
53
102
{ACAD_REACTORS
330
47
102
}
330
47
100
AcDbScale
 70
     0
300
3/4" = 1'-0"
140
0.75
141
12.0
290
     0
  0
SCALE
  5
54
102
{ACAD_REACTORS
330
47
102
}
330
47
100
AcDbScale
 70
     0
300
1" = 1'-0"
140
1.0
141
12.0
290
     0
  0
SCALE
  5
55
102
{ACAD_REACTORS
330
47
102
}
330
47
100
AcDbScale
 70
     0
300
1-1/2" = 1'-0"
140
1.5
141
12.0
290
     0
  0
SCALE
  5
56
102
{ACAD_REACTORS
330
47
102
}
330
47
100
AcDbScale
 70
     0
300
3" = 1'-0"
140
3.0
141
12.0
290
     0
  0
SCALE
  5
57
102
{ACAD_REACTORS
330
47
102
}
330
47
100
AcDbScale
 70
     0
300
6" = 1'-0"
140
6.0
141
12.0
290
     0
  0
SCALE
  5
58
102
{ACAD_REACTORS
330
47
102
}
330
47
100
AcDbScale
 70
     0
300
1'-0" = 1'-0"
140
12.0
141
12.0
290
     0
  0
TABLESTYLE
  5
5A
102
{ACAD_REACTORS
330
59
102
}
102
{ACAD_XDICTIONARY
360
8C
102
}
330
59
100
AcDbTableStyle
  3
Standard
 70
     0
 71
     0
 40
0.06
 41
0.06
280
     0
281
     0
  7
Standard
140
0.18
170
     2
 62
     0
 63
   257
283
     0
 90
        4
 91
        0
  1

274
    -2
284
     1
 64
     0
275
    -2
285
     1
 65
     0
276
    -2
286
     1
 66
     0
277
    -2
287
     1
 67
     0
278
    -2
288
     1
 68
     0
279
    -2
289
     1
 69
     0
  7
Standard
140
0.25
170
     5
 62
     0
 63
   257
283
     0
 90
        4
 91
        0
  1

274
    -2
284
     1
 64
     0
275
    -2
285
     1
 65
     0
276
    -2
286
     1
 66
     0
277
    -2
287
     1
 67
     0
278
    -2
288
     1
 68
     0
279
    -2
289
     1
 69
     0
  7
Standard
140
0.18
170
     5
 62
     0
 63
   257
283
     0
 90
        4
 91
        0
  1

274
    -2
284
     1
 64
     0
275
    -2
285
     1
 65
     0
276
    -2
286
     1
 66
     0
277
    -2
287
     1
 67
     0
278
    -2
288
     1
 68
     0
279
    -2
289
     1
 69
     0
  0
VISUALSTYLE
  5
2F
102
{ACAD_REACTORS
330
2A
102
}
330
2A
100
AcDbVisualStyle
  2
2dWireframe
 70
     4
177
     3
291
     0
 70
    58
 90
        0
176
     1
 90
        2
176
     1
 90
        0
176
     1
 90
        0
176
     1
 40
0.6
176
     1
 40
30.0
176
     1
 62
     7
420
 16777215
176
     1
 90
        1
176
     1
 90
        4
176
     1
 62
     7
176
     1
 62
   257
176
     1
 90
        1
176
     1
 90
        1
176
     1
 40
1.0
176
     1
 90
        0
176
     1
 62
   257
176
     1
 40
1.0
176
     1
 90
        1
176
     1
 90
        6
176
     1
 90
        2
176
     1
 62
     7
176
     1
 90
        5
176
     1
 90
        0
176
     1
 90
        0
176
     1
290
     0
176
     1
 90
        1
176
     1
 40
0.0
176
     1
 90
        0
176
     1
290
     1
176
     1
290
     1
176
     1
290
     0
176
     1
290
     0
176
     1
290
     0
176
     1
290
     0
176
     1
290
     0
176
     1
290
     0
176
     1
290
     0
176
     1
 90
       50
176
     1
 40
0.0
176
     1
 40
1.0
176
     1
 90
        0
176
     1
 62
    18
420
        0
176
     1
 90
       50
176
     1
 90
        3
176
     1
 62
     5
420
      255
176
     1
290
     0
176
     1
 90
       50
176
     1
 90
       50
176
     1
 90
       50
176
     1
290
     0
176
     1
 90
       50
176
     1
 62
   256
176
     0
 40
1.0
176
     0
 90
        2
176
     1
  1
strokes_ogs.tif
176
     1
290
     0
176
     1
 40
1.0
176
     1
 40
1.0
176
     1
  0
VISUALSTYLE
  5
32
102
{ACAD_REACTORS
330
2A
102
}
330
2A
100
AcDbVisualStyle
  2
Basic
 70
     7
177
     3
291
     1
 70
    58
 90
        1
176
     1
 90
        0
176
     1
 90
        1
176
     1
 90
        0
176
     1
 40
0.6
176
     1
 40
30.0
176
     1
 62
     7
420
 16777215
176
     1
 90
        0
176
     1
 90
        4
176
     1
 62
     7
176
     1
 62
   257
176
     1
 90
        1
176
     1
 90
        1
176
     1
 40
1.0
176
     1
 90
        8
176
     1
 62
     7
176
     1
 40
1.0
176
     1
 90
        1
176
     1
 90
        6
176
     1
 90
        2
176
     1
 62
     7
176
     1
 90
        5
176
     1
 90
        0
176
     1
 90
        0
176
     1
290
     0
176
     1
 90
        1
176
     1
 40
0.0
176
     1
 90
        0
176
     1
290
     0
176
     1
290
     1
176
     1
290
     1
176
     1
290
     0
176
     1
290
     0
176
     1
290
     0
176
     1
290
     0
176
     1
290
     0
176
     1
290
     0
176
     1
 90
       50
176
     1
 40
0.0
176
     1
 40
1.0
176
     1
 90
        0
176
     1
 62
    18
420
        0
176
     1
 90
       50
176
     1
 90
        3
176
     1
 62
     5
420
      255
176
     1
290
     0
176
     1
 90
       50
176
     1
 90
       50
176
     1
 90
       50
176
     1
290
     0
176
     1
 90
       50
176
     1
 62
   256
176
     0
 40
1.0
176
     0
 90
        2
176
     1
  1
strokes_ogs.tif
176
     1
290
     0
176
     1
 40
1.0
176
     1
 40
1.0
176
     1
  0
VISUALSTYLE
  5
36
102
{ACAD_REACTORS
330
2A
102
}
330
2A
100
AcDbVisualStyle
  2
Brighten
 70
    12
177
     3
291
     1
 70
    58
 90
        2
176
     1
 90
        2
176
     1
 90
        0
176
     1
 90
        0
176
     1
 40
0.6
176
     1
 40
30.0
176
     1
 62
     7
420
 16777215
176
     1
 90
        1
176
     1
 90
        4
176
     1
 62
     7
176
     1
 62
   257
176
     1
 90
        1
176
     1
 90
        1
176
     1
 40
1.0
176
     1
 90
        8
176
     1
 62
     7
176
     1
 40
1.0
176
     1
 90
        1
176
     1
 90
        6
176
     1
 90
        2
176
     1
 62
     7
176
     1
 90
        5
176
     1
 90
        0
176
     1
 90
        0
176
     1
290
     0
176
     1
 90
        1
176
     1
 40
50.0
176
     1
 90
        0
176
     1
290
     0
176
     1
290
     1
176
     1
290
     1
176
     1
290
     0
176
     1
290
     0
176
     1
290
     0
176
     1
290
     0
176
     1
290
     0
176
     1
290
     0
176
     1
 90
       50
176
     1
 40
0.0
176
     1
 40
1.0
176
     1
 90
        0
176
     1
 62
    18
420
        0
176
     1
 90
       50
176
     1
 90
        3
176
     1
 62
     5
420
      255
176
     1
290
     0
176
     1
 90
       50
176
     1
 90
       50
176
     1
 90
       50
176
     1
290
     0
176
     1
 90
       50
176
     1
 62
   256
176
     0
 40
1.0
176
     0
 90
        2
176
     1
  1
strokes_ogs.tif
176
     1
290
     0
176
     1
 40
1.0
176
     1
 40
1.0
176
     1
  0
VISUALSTYLE
  5
3A
102
{ACAD_REACTORS
330
2A
102
}
330
2A
100
AcDbVisualStyle
  2
ColorChange
 70
    16
177
     3
291
     1
 70
    58
 90
        2
176
     1
 90
        2
176
     1
 90
        3
176
     1
 90
        0
176
     1
 40
0.6
176
     1
 40
30.0
176
     1
 62
     8
420
  8421504
176
     1
 90
        1
176
     1
 90
        4
176
     1
 62
     7
176
     1
 62
   257
176
     1
 90
        1
176
     1
 90
        1
176
     1
 40
1.0
176
     1
 90
        8
176
     1
 62
     8
420
  8421504
176
     1
 40
1.0
176
     1
 90
        1
176
     1
 90
        6
176
     1
 90
        2
176
     1
 62
     7
176
     1
 90
        5
176
     1
 90
        0
176
     1
 90
        0
176
     1
290
     0
176
     1
 90
        1
176
     1
 40
0.0
176
     1
 90
        0
176
     1
290
     0
176
     1
290
     1
176
     1
290
     1
176
     1
290
     0
176
     1
290
     0
176
     1
290
     0
176
     1
290
     0
176
     1
290
     0
176
     1
290
     0
176
     1
 90
       50
176
     1
 40
0.0
176
     1
 40
1.0
176
     1
 90
        0
176
     1
 62
    18
420
        0
176
     1
 90
       50
176
     1
 90
        3
176
     1
 62
     5
420
      255
176
     1
290
     0
176
     1
 90
       50
176
     1
 90
       50
176
     1
 90
       50
176
     1
290
     0
176
     1
 90
       50
176
     1
 62
   256
176
     0
 40
1.0
176
     0
 90
        2
176
     1
  1
strokes_ogs.tif
176
     1
290
     0
176
     1
 40
1.0
176
     1
 40
1.0
176
     1
  0
VISUALSTYLE
  5
34
102
{ACAD_REACTORS
330
2A
102
}
330
2A
100
AcDbVisualStyle
  2
Conceptual
 70
     9
177
     3
291
     0
 70
    58
 90
        3
176
     1
 90
        2
176
     1
 90
        0
176
     1
 90
        0
176
     1
 40
0.6
176
     1
 40
30.0
176
     1
 62
     7
420
 16777215
176
     1
 90
        2
176
     1
 90
        2
176
     1
 62
     7
176
     1
 62
   257
176
     1
 90
        1
176
     1
 90
        1
176
     1
 40
179.0
176
     1
 90
        8
176
     1
 62
     7
176
     1
 40
1.0
176
     1
 90
        1
176
     1
 90
        6
176
     1
 90
        2
176
     1
 62
     7
176
     1
 90
        3
176
     1
 90
        0
176
     1
 90
        0
176
     1
290
     0
176
     1
 90
        1
176
     1
 40
0.0
176
     1
 90
        0
176
     1
290
     0
176
     1
290
     1
176
     1
290
     1
176
     1
290
     0
176
     1
290
     0
176
     1
290
     0
176
     1
290
     0
176
     1
290
     0
176
     1
290
     0
176
     1
 90
       50
176
     1
 40
0.0
176
     1
 40
1.0
176
     1
 90
        0
176
     1
 62
    18
420
        0
176
     1
 90
       50
176
     1
 90
        3
176
     1
 62
     5
420
      255
176
     1
290
     0
176
     1
 90
       50
176
     1
 90
       50
176
     1
 90
       50
176
     1
290
     0
176
     1
 90
       50
176
     1
 62
   256
176
     0
 40
1.0
176
     0
 90
        2
176
     1
  1
strokes_ogs.tif
176
     1
290
     0
176
     1
 40
1.0
176
     1
 40
1.0
176
     1
  0
VISUALSTYLE
  5
35
102
{ACAD_REACTORS
330
2A
102
}
330
2A
100
AcDbVisualStyle
  2
Dim
 70
    11
177
     3
291
     1
 70
    58
 90
        2
176
     1
 90
        2
176
     1
 90
        0
176
     1
 90
        0
176
     1
 40
0.6
176
     1
 40
30.0
176
     1
 62
     7
420
 16777215
176
     1
 90
        1
176
     1
 90
        4
176
     1
 62
     7
176
     1
 62
   257
176
     1
 90
        1
176
     1
 90
        1
176
     1
 40
1.0
176
     1
 90
        8
176
     1
 62
     7
176
     1
 40
1.0
176
     1
 90
        1
176
     1
 90
        6
176
     1
 90
        2
176
     1
 62
     7
176
     1
 90
        5
176
     1
 90
        0
176
     1
 90
        0
176
     1
290
     0
176
     1
 90
        1
176
     1
 40
-50.0
176
     1
 90
        0
176
     1
290
     0
176
     1
290
     1
176
     1
290
     1
176
     1
290
     0
176
     1
290
     0
176
     1
290
     0
176
     1
290
     0
176
     1
290
     0
176
     1
290
     0
176
     1
 90
       50
176
     1
 40
0.0
176
     1
 40
1.0
176
     1
 90
        0
176
     1
 62
    18
420
        0
176
     1
 90
       50
176
     1
 90
        3
176
     1
 62
     5
420
      255
176
     1
290
     0
176
     1
 90
       50
176
     1
 90
       50
176
     1
 90
       50
176
     1
290
     0
176
     1
 90
       50
176
     1
 62
   256
176
     0
 40
1.0
176
     0
 90
        2
176
     1
  1
strokes_ogs.tif
176
     1
290
     0
176
     1
 40
1.0
176
     1
 40
1.0
176
     1
  0
VISUALSTYLE
  5
3D
102
{ACAD_REACTORS
330
2A
102
}
330
2A
100
AcDbVisualStyle
  2
EdgeColorOff
 70
    22
177
     3
291
     1
 70
    58
 90
        2
176
     0
 90
        2
176
     0
 90
        0
176
     0
 90
        0
176
     0
 40
0.6
176
     0
 40
30.0
176
     0
 62
     7
420
 16777215
176
     0
 90
        1
176
     0
 90
        4
176
     0
 62
     7
176
     0
 62
   257
176
     0
 90
        1
176
     0
 90
        1
176
     0
 40
1.0
176
     0
 90
        8
176
     2
 62
     7
176
     0
 40
1.0
176
     0
 90
        1
176
     0
 90
        6
176
     0
 90
        2
176
     0
 62
     7
176
     0
 90
        5
176
     0
 90
        0
176
     0
 90
        0
176
     0
290
     0
176
     0
 90
        1
176
     0
 40
0.0
176
     0
 90
        0
176
     0
290
     0
176
     0
290
     1
176
     0
290
     1
176
     0
290
     0
176
     0
290
     0
176
     0
290
     0
176
     0
290
     0
176
     0
290
     0
176
     0
290
     0
176
     0
 90
       50
176
     0
 40
0.0
176
     0
 40
1.0
176
     0
 90
        0
176
     0
 62
    18
420
        0
176
     0
 90
       50
176
     0
 90
        3
176
     0
 62
     5
420
      255
176
     0
290
     0
176
     0
 90
       50
176
     0
 90
       50
176
     0
 90
       50
176
     0
290
     0
176
     0
 90
       50
176
     0
 62
   256
176
     0
 40
1.0
176
     0
 90
        2
176
     0
  1
strokes_ogs.tif
176
     0
290
     0
176
     0
 40
1.0
176
     0
 40
1.0
176
     0
  0
VISUALSTYLE
  5
39
102
{ACAD_REACTORS
330
2A
102
}
330
2A
100
AcDbVisualStyle
  2
Facepattern
 70
    15
177
     3
291
     1
 70
    58
 90
        2
176
     1
 90
        2
176
     1
 90
        0
176
     1
 90
        0
176
     1
 40
0.6
176
     1
 40
30.0
176
     1
 62
     7
420
 16777215
176
     1
 90
        1
176
     1
 90
        4
176
     1
 62
     7
176
     1
 62
   257
176
     1
 90
        1
176
     1
 90
        1
176
     1
 40
1.0
176
     1
 90
        8
176
     1
 62
     7
176
     1
 40
1.0
176
     1
 90
        1
176
     1
 90
        6
176
     1
 90
        2
176
     1
 62
     7
176
     1
 90
        5
176
     1
 90
        0
176
     1
 90
        0
176
     1
290
     0
176
     1
 90
        1
176
     1
 40
0.0
176
     1
 90
        0
176
     1
290
     0
176
     1
290
     1
176
     1
290
     1
176
     1
290
     0
176
     1
290
     0
176
     1
290
     0
176
     1
290
     0
176
     1
290
     0
176
     1
290
     0
176
     1
 90
       50
176
     1
 40
0.0
176
     1
 40
1.0
176
     1
 90
        0
176
     1
 62
    18
420
        0
176
     1
 90
       50
176
     1
 90
        3
176
     1
 62
     5
420
      255
176
     1
290
     0
176
     1
 90
       50
176
     1
 90
       50
176
     1
 90
       50
176
     1
290
     0
176
     1
 90
       50
176
     1
 62
   256
176
     0
 40
1.0
176
     0
 90
        2
176
     1
  1
strokes_ogs.tif
176
     1
290
     0
176
     1
 40
1.0
176
     1
 40
1.0
176
     1
  0
VISUALSTYLE
  5
2B
102
{ACAD_REACTORS
330
2A
102
}
330
2A
100
AcDbVisualStyle
  2
Flat
 70
     0
177
     3
291
     1
 70
    58
 90
        2
176
     1
 90
        1
176
     1
 90
        1
176
     1
 90
        2
176
     1
 40
0.6
176
     1
 40
30.0
176
     1
 62
     7
420
 16777215
176
     1
 90
        0
176
     1
 90
        0
176
     1
 62
     7
176
     1
 62
   257
176
     1
 90
        1
176
     1
 90
        1
176
     1
 40
1.0
176
     1
 90
        8
176
     1
 62
     7
176
     1
 40
1.0
176
     1
 90
        1
176
     1
 90
        6
176
     1
 90
        2
176
     1
 62
     7
176
     1
 90
        5
176
     1
 90
        0
176
     1
 90
        0
176
     1
290
     0
176
     1
 90
       13
176
     1
 40
0.0
176
     1
 90
        0
176
     1
290
     0
176
     1
290
     1
176
     1
290
     1
176
     1
290
     0
176
     1
290
     0
176
     1
290
     0
176
     1
290
     0
176
     1
290
     0
176
     1
290
     0
176
     1
 90
       50
176
     1
 40
0.0
176
     1
 40
1.0
176
     1
 90
        0
176
     1
 62
    18
420
        0
176
     1
 90
       50
176
     1
 90
        3
176
     1
 62
     5
420
      255
176
     1
290
     0
176
     1
 90
       50
176
     1
 90
       50
176
     1
 90
       50
176
     1
290
     0
176
     1
 90
       50
176
     1
 62
   256
176
     0
 40
1.0
176
     0
 90
        2
176
     1
  1
strokes_ogs.tif
176
     1
290
     0
176
     1
 40
1.0
176
     1
 40
1.0
176
     1
  0
VISUALSTYLE
  5
2C
102
{ACAD_REACTORS
330
2A
102
}
330
2A
100
AcDbVisualStyle
  2
FlatWithEdges
 70
     1
177
     3
291
     1
 70
    58
 90
        2
176
     1
 90
        1
176
     1
 90
        1
176
     1
 90
        2
176
     1
 40
0.6
176
     1
 40
30.0
176
     1
 62
     7
420
 16777215
176
     1
 90
        1
176
     1
 90
        0
176
     1
 62
     7
176
     1
 62
   257
176
     1
 90
        1
176
     1
 90
        1
176
     1
 40
1.0
176
     1
 90
        0
176
     1
 62
   257
176
     1
 40
1.0
176
     1
 90
        1
176
     1
 90
        6
176
     1
 90
        2
176
     1
 62
     7
176
     1
 90
        5
176
     1
 90
        0
176
     1
 90
        0
176
     1
290
     0
176
     1
 90
       13
176
     1
 40
0.0
176
     1
 90
        0
176
     1
290
     0
176
     1
290
     1
176
     1
290
     1
176
     1
290
     0
176
     1
290
     0
176
     1
290
     0
176
     1
290
     0
176
     1
290
     0
176
     1
290
     0
176
     1
 90
       50
176
     1
 40
0.0
176
     1
 40
1.0
176
     1
 90
        0
176
     1
 62
    18
420
        0
176
     1
 90
       50
176
     1
 90
        3
176
     1
 62
     5
420
      255
176
     1
290
     0
176
     1
 90
       50
176
     1
 90
       50
176
     1
 90
       50
176
     1
290
     0
176
     1
 90
       50
176
     1
 62
   256
176
     0
 40
1.0
176
     0
 90
        2
176
     1
  1
strokes_ogs.tif
176
     1
290
     0
176
     1
 40
1.0
176
     1
 40
1.0
176
     1
  0
VISUALSTYLE
  5
2D
102
{ACAD_REACTORS
330
2A
102
}
330
2A
100
AcDbVisualStyle
  2
Gouraud
 70
     2
177
     3
291
     1
 70
    58
 90
        2
176
     1
 90
        2
176
     1
 90
        1
176
     1
 90
        2
176
     1
 40
0.6
176
     1
 40
30.0
176
     1
 62
     7
420
 16777215
176
     1
 90
        0
176
     1
 90
        0
176
     1
 62
     7
176
     1
 62
   257
176
     1
 90
        1
176
     1
 90
        1
176
     1
 40
1.0
176
     1
 90
        0
176
     1
 62
     7
176
     1
 40
1.0
176
     1
 90
        1
176
     1
 90
        6
176
     1
 90
        2
176
     1
 62
     7
176
     1
 90
        5
176
     1
 90
        0
176
     1
 90
        0
176
     1
290
     0
176
     1
 90
       13
176
     1
 40
0.0
176
     1
 90
        0
176
     1
290
     0
176
     1
290
     1
176
     1
290
     1
176
     1
290
     0
176
     1
290
     0
176
     1
290
     0
176
     1
290
     0
176
     1
290
     0
176
     1
290
     0
176
     1
 90
       50
176
     1
 40
0.0
176
     1
 40
1.0
176
     1
 90
        0
176
     1
 62
    18
420
        0
176
     1
 90
       50
176
     1
 90
        3
176
     1
 62
     5
420
      255
176
     1
290
     0
176
     1
 90
       50
176
     1
 90
       50
176
     1
 90
       50
176
     1
290
     0
176
     1
 90
       50
176
     1
 62
   256
176
     0
 40
1.0
176
     0
 90
        2
176
     1
  1
strokes_ogs.tif
176
     1
290
     0
176
     1
 40
1.0
176
     1
 40
1.0
176
     1
  0
VISUALSTYLE
  5
2E
102
{ACAD_REACTORS
330
2A
102
}
330
2A
100
AcDbVisualStyle
  2
GouraudWithEdges
 70
     3
177
     3
291
     1
 70
    58
 90
        2
176
     1
 90
        2
176
     1
 90
        1
176
     1
 90
        2
176
     1
 40
0.6
176
     1
 40
30.0
176
     1
 62
     7
420
 16777215
176
     1
 90
        1
176
     1
 90
        0
176
     1
 62
     7
176
     1
 62
   257
176
     1
 90
        1
176
     1
 90
        1
176
     1
 40
1.0
176
     1
 90
        0
176
     1
 62
   257
176
     1
 40
1.0
176
     1
 90
        1
176
     1
 90
        6
176
     1
 90
        2
176
     1
 62
     7
176
     1
 90
        5
176
     1
 90
        0
176
     1
 90
        0
176
     1
290
     0
176
     1
 90
       13
176
     1
 40
0.0
176
     1
 90
        0
176
     1
290
     0
176
     1
290
     1
176
     1
290
     1
176
     1
290
     0
176
     1
290
     0
176
     1
290
     0
176
     1
290
     0
176
     1
290
     0
176
     1
290
     0
176
     1
 90
       50
176
     1
 40
0.0
176
     1
 40
1.0
176
     1
 90
        0
176
     1
 62
    18
420
        0
176
     1
 90
       50
176
     1
 90
        3
176
     1
 62
     5
420
      255
176
     1
290
     0
176
     1
 90
       50
176
     1
 90
       50
176
     1
 90
       50
176
     1
290
     0
176
     1
 90
       50
176
     1
 62
   256
176
     0
 40
1.0
176
     0
 90
        2
176
     1
  1
strokes_ogs.tif
176
     1
290
     0
176
     1
 40
1.0
176
     1
 40
1.0
176
     1
  0
VISUALSTYLE
  5
31
102
{ACAD_REACTORS
330
2A
102
}
330
2A
100
AcDbVisualStyle
  2
Hidden
 70
     6
177
     3
291
     0
 70
    58
 90
        1
176
     1
 90
        2
176
     1
 90
        2
176
     1
 90
        0
176
     1
 40
0.6
176
     1
 40
30.0
176
     1
 62
     7
420
 16777215
176
     1
 90
        2
176
     1
 90
        2
176
     1
 62
     7
176
     1
 62
   257
176
     1
 90
        2
176
     1
 90
        1
176
     1
 40
40.0
176
     1
 90
        0
176
     1
 62
   257
176
     1
 40
1.0
176
     1
 90
        1
176
     1
 90
        6
176
     1
 90
        2
176
     1
 62
     7
176
     1
 90
        3
176
     1
 90
        0
176
     1
 90
        0
176
     1
290
     0
176
     1
 90
        1
176
     1
 40
0.0
176
     1
 90
        0
176
     1
290
     0
176
     1
290
     1
176
     1
290
     1
176
     1
290
     0
176
     1
290
     0
176
     1
290
     0
176
     1
290
     0
176
     1
290
     0
176
     1
290
     0
176
     1
 90
       50
176
     1
 40
0.0
176
     1
 40
1.0
176
     1
 90
        0
176
     1
 62
    18
420
        0
176
     1
 90
       50
176
     1
 90
        3
176
     1
 62
     5
420
      255
176
     1
290
     0
176
     1
 90
       50
176
     1
 90
       50
176
     1
 90
       50
176
     1
290
     0
176
     1
 90
       50
176
     1
 62
   256
176
     0
 40
1.0
176
     0
 90
        2
176
     1
  1
strokes_ogs.tif
176
     1
290
     0
176
     1
 40
1.0
176
     1
 40
1.0
176
     1
  0
VISUALSTYLE
  5
3B
102
{ACAD_REACTORS
330
2A
102
}
330
2A
100
AcDbVisualStyle
  2
JitterOff
 70
    20
177
     3
291
     1
 70
    58
 90
        2
176
     0
 90
        2
176
     0
 90
        0
176
     0
 90
        0
176
     0
 40
0.6
176
     0
 40
30.0
176
     0
 62
     7
420
 16777215
176
     0
 90
        1
176
     0
 90
        4
176
     0
 62
     7
176
     0
 62
   257
176
     0
 90
        1
176
     0
 90
        1
176
     0
 40
1.0
176
     0
 90
       10
176
     2
 62
     7
176
     0
 40
1.0
176
     0
 90
        1
176
     0
 90
        6
176
     0
 90
        2
176
     0
 62
     7
176
     0
 90
        5
176
     0
 90
        0
176
     0
 90
        0
176
     0
290
     0
176
     0
 90
        1
176
     0
 40
0.0
176
     0
 90
        0
176
     0
290
     0
176
     0
290
     1
176
     0
290
     1
176
     0
290
     0
176
     0
290
     0
176
     0
290
     0
176
     0
290
     0
176
     0
290
     0
176
     0
290
     0
176
     0
 90
       50
176
     0
 40
0.0
176
     0
 40
1.0
176
     0
 90
        0
176
     0
 62
    18
420
        0
176
     0
 90
       50
176
     0
 90
        3
176
     0
 62
     5
420
      255
176
     0
290
     0
176
     0
 90
       50
176
     0
 90
       50
176
     0
 90
       50
176
     0
290
     0
176
     0
 90
       50
176
     0
 62
   256
176
     0
 40
1.0
176
     0
 90
        2
176
     0
  1
strokes_ogs.tif
176
     0
290
     0
176
     0
 40
1.0
176
     0
 40
1.0
176
     0
  0
VISUALSTYLE
  5
38
102
{ACAD_REACTORS
330
2A
102
}
330
2A
100
AcDbVisualStyle
  2
Linepattern
 70
    14
177
     3
291
     1
 70
    58
 90
        2
176
     1
 90
        2
176
     1
 90
        0
176
     1
 90
        0
176
     1
 40
0.6
176
     1
 40
30.0
176
     1
 62
     7
420
 16777215
176
     1
 90
        1
176
     1
 90
        4
176
     1
 62
     7
176
     1
 62
   257
176
     1
 90
        7
176
     1
 90
        7
176
     1
 40
1.0
176
     1
 90
        8
176
     1
 62
     7
176
     1
 40
1.0
176
     1
 90
        1
176
     1
 90
        6
176
     1
 90
        2
176
     1
 62
     7
176
     1
 90
        5
176
     1
 90
        0
176
     1
 90
        0
176
     1
290
     0
176
     1
 90
        1
176
     1
 40
0.0
176
     1
 90
        0
176
     1
290
     0
176
     1
290
     1
176
     1
290
     1
176
     1
290
     0
176
     1
290
     0
176
     1
290
     0
176
     1
290
     0
176
     1
290
     0
176
     1
290
     0
176
     1
 90
       50
176
     1
 40
0.0
176
     1
 40
1.0
176
     1
 90
        0
176
     1
 62
    18
420
        0
176
     1
 90
       50
176
     1
 90
        3
176
     1
 62
     5
420
      255
176
     1
290
     0
176
     1
 90
       50
176
     1
 90
       50
176
     1
 90
       50
176
     1
290
     0
176
     1
 90
       50
176
     1
 62
   256
176
     0
 40
1.0
176
     0
 90
        2
176
     1
  1
strokes_ogs.tif
176
     1
290
     0
176
     1
 40
1.0
176
     1
 40
1.0
176
     1
  0
VISUALSTYLE
  5
3C
102
{ACAD_REACTORS
330
2A
102
}
330
2A
100
AcDbVisualStyle
  2
OverhangOff
 70
    21
177
     3
291
     1
 70
    58
 90
        2
176
     0
 90
        2
176
     0
 90
        0
176
     0
 90
        0
176
     0
 40
0.6
176
     0
 40
30.0
176
     0
 62
     7
420
 16777215
176
     0
 90
        1
176
     0
 90
        4
176
     0
 62
     7
176
     0
 62
   257
176
     0
 90
        1
176
     0
 90
        1
176
     0
 40
1.0
176
     0
 90
        9
176
     2
 62
     7
176
     0
 40
1.0
176
     0
 90
        1
176
     0
 90
        6
176
     0
 90
        2
176
     0
 62
     7
176
     0
 90
        5
176
     0
 90
        0
176
     0
 90
        0
176
     0
290
     0
176
     0
 90
        1
176
     0
 40
0.0
176
     0
 90
        0
176
     0
290
     0
176
     0
290
     1
176
     0
290
     1
176
     0
290
     0
176
     0
290
     0
176
     0
290
     0
176
     0
290
     0
176
     0
290
     0
176
     0
290
     0
176
     0
 90
       50
176
     0
 40
0.0
176
     0
 40
1.0
176
     0
 90
        0
176
     0
 62
    18
420
        0
176
     0
 90
       50
176
     0
 90
        3
176
     0
 62
     5
420
      255
176
     0
290
     0
176
     0
 90
       50
176
     0
 90
       50
176
     0
 90
       50
176
     0
290
     0
176
     0
 90
       50
176
     0
 62
   256
176
     0
 40
1.0
176
     0
 90
        2
176
     0
  1
strokes_ogs.tif
176
     0
290
     0
176
     0
 40
1.0
176
     0
 40
1.0
176
     0
  0
VISUALSTYLE
  5
33
102
{ACAD_REACTORS
330
2A
102
}
330
2A
100
AcDbVisualStyle
  2
Realistic
 70
     8
177
     3
291
     0
 70
    58
 90
        2
176
     1
 90
        3
176
     1
 90
        0
176
     1
 90
        2
176
     1
 40
0.6
176
     1
 40
30.0
176
     1
 62
     7
420
 16777215
176
     1
 90
        0
176
     1
 90
        0
176
     1
 62
     7
176
     1
 62
   257
176
     1
 90
        1
176
     1
 90
        1
176
     1
 40
1.0
176
     1
 90
        8
176
     1
 62
   257
176
     1
 40
1.0
176
     1
 90
        1
176
     1
 90
        6
176
     1
 90
        2
176
     1
 62
     7
176
     1
 90
        3
176
     1
 90
        0
176
     1
 90
        0
176
     1
290
     0
176
     1
 90
       13
176
     1
 40
0.0
176
     1
 90
        0
176
     1
290
     0
176
     1
290
     1
176
     1
290
     1
176
     1
290
     0
176
     1
290
     0
176
     1
290
     0
176
     1
290
     0
176
     1
290
     0
176
     1
290
     0
176
     1
 90
       50
176
     1
 40
0.0
176
     1
 40
1.0
176
     1
 90
        0
176
     1
 62
    18
420
        0
176
     1
 90
       50
176
     1
 90
        3
176
     1
 62
     5
420
      255
176
     1
290
     0
176
     1
 90
       50
176
     1
 90
       50
176
     1
 90
       50
176
     1
290
     0
176
     1
 90
       50
176
     1
 62
   256
176
     0
 40
1.0
176
     0
 90
        2
176
     1
  1
strokes_ogs.tif
176
     1
290
     0
176
     1
 40
1.0
176
     1
 40
1.0
176
     1
  0
VISUALSTYLE
  5
42
102
{ACAD_REACTORS
330
2A
102
}
330
2A
100
AcDbVisualStyle
  2
Shaded
 70
    27
177
     3
291
     0
 70
    58
 90
        2
176
     1
 90
        2
176
     1
 90
        1
176
     1
 90
        2
176
     1
 40
0.6
176
     1
 40
30.0
176
     1
 62
     7
420
 16777215
176
     1
 90
        0
176
     1
 90
        4
176
     1
 62
     7
176
     1
 62
   257
176
     1
 90
        1
176
     1
 90
        1
176
     1
 40
1.0
176
     1
 90
        8
176
     1
 62
   257
176
     1
 40
1.0
176
     1
 90
        1
176
     1
 90
        6
176
     1
 90
        2
176
     1
 62
     8
420
  7895160
176
     1
 90
        3
176
     1
 90
        0
176
     1
 90
        0
176
     1
290
     0
176
     1
 90
        5
176
     1
 40
0.0
176
     1
 90
        0
176
     1
290
     0
176
     1
290
     1
176
     1
290
     1
176
     1
290
     0
176
     1
290
     0
176
     1
290
     0
176
     1
290
     0
176
     1
290
     0
176
     1
290
     0
176
     1
 90
       50
176
     1
 40
0.0
176
     1
 40
1.0
176
     1
 90
        0
176
     1
 62
    18
420
        0
176
     1
 90
       50
176
     1
 90
        3
176
     1
 62
     5
420
      255
176
     1
290
     0
176
     1
 90
       50
176
     1
 90
       50
176
     1
 90
       50
176
     1
290
     0
176
     1
 90
       50
176
     1
 62
   256
176
     0
 40
1.0
176
     0
 90
        2
176
     1
  1
strokes_ogs.tif
176
     1
290
     0
176
     1
 40
1.0
176
     1
 40
1.0
176
     1
  0
VISUALSTYLE
  5
41
102
{ACAD_REACTORS
330
2A
102
}
330
2A
100
AcDbVisualStyle
  2
Shaded with edges
 70
    26
177
     3
291
     0
 70
    58
 90
        2
176
     1
 90
        2
176
     1
 90
        1
176
     1
 90
        2
176
     1
 40
0.6
176
     1
 40
30.0
176
     1
 62
     7
420
 16777215
176
     1
 90
        1
176
     1
 90
       10
176
     1
 62
     7
176
     1
 62
   257
176
     1
 90
        2
176
     1
 90
        1
176
     1
 40
1.0
176
     1
 90
        8
176
     1
 62
   257
176
     1
 40
1.0
176
     1
 90
        1
176
     1
 90
        6
176
     1
 90
        2
176
     1
 62
     7
176
     1
 90
        3
176
     1
 90
        0
176
     1
 90
        0
176
     1
290
     0
176
     1
 90
        5
176
     1
 40
0.0
176
     1
 90
        0
176
     1
290
     0
176
     1
290
     1
176
     1
290
     1
176
     1
290
     0
176
     1
290
     0
176
     1
290
     0
176
     1
290
     0
176
     1
290
     0
176
     1
290
     0
176
     1
 90
       50
176
     1
 40
0.0
176
     1
 40
1.0
176
     1
 90
        0
176
     1
 62
    18
420
        0
176
     1
 90
       50
176
     1
 90
        3
176
     1
 62
     5
420
      255
176
     1
290
     0
176
     1
 90
       50
176
     1
 90
       50
176
     1
 90
       50
176
     1
290
     0
176
     1
 90
       50
176
     1
 62
   256
176
     0
 40
1.0
176
     0
 90
        2
176
     1
  1
strokes_ogs.tif
176
     1
290
     0
176
     1
 40
1.0
176
     1
 40
1.0
176
     1
  0
VISUALSTYLE
  5
3E
102
{ACAD_REACTORS
330
2A
102
}
330
2A
100
AcDbVisualStyle
  2
Shades of Gray
 70
    23
177
     3
291
     0
 70
    58
 90
        2
176
     1
 90
        2
176
     1
 90
        3
176
     1
 90
        0
176
     1
 40
0.6
176
     1
 40
30.0
176
     1
 62
     7
420
 16777215
176
     1
 90
        2
176
     1
 90
        2
176
     1
 62
     7
176
     1
 62
     7
176
     1
 90
        1
176
     1
 90
        1
176
     1
 40
40.0
176
     1
 90
        8
176
     1
 62
     7
176
     1
 40
1.0
176
     1
 90
        1
176
     1
 90
        6
176
     1
 90
        2
176
     1
 62
     7
176
     1
 90
        3
176
     1
 90
        0
176
     1
 90
        0
176
     1
290
     0
176
     1
 90
        1
176
     1
 40
0.0
176
     1
 90
        0
176
     1
290
     0
176
     1
290
     1
176
     1
290
     1
176
     1
290
     0
176
     1
290
     0
176
     1
290
     0
176
     1
290
     0
176
     1
290
     0
176
     1
290
     0
176
     1
 90
       50
176
     1
 40
0.0
176
     1
 40
1.0
176
     1
 90
        0
176
     1
 62
    18
420
        0
176
     1
 90
       50
176
     1
 90
        3
176
     1
 62
     5
420
      255
176
     1
290
     0
176
     1
 90
       50
176
     1
 90
       50
176
     1
 90
       50
176
     1
290
     0
176
     1
 90
       50
176
     1
 62
   256
176
     0
 40
1.0
176
     0
 90
        2
176
     1
  1
strokes_ogs.tif
176
     1
290
     0
176
     1
 40
1.0
176
     1
 40
1.0
176
     1
  0
VISUALSTYLE
  5
3F
102
{ACAD_REACTORS
330
2A
102
}
330
2A
100
AcDbVisualStyle
  2
Sketchy
 70
    24
177
     3
291
     0
 70
    58
 90
        1
176
     1
 90
        2
176
     1
 90
        2
176
     1
 90
        0
176
     1
 40
0.6
176
     1
 40
30.0
176
     1
 62
     7
420
 16777215
176
     1
 90
        2
176
     1
 90
        2
176
     1
 62
     7
176
     1
 62
     7
176
     1
 90
        1
176
     1
 90
        1
176
     1
 40
40.0
176
     1
 90
       11
176
     1
 62
     7
176
     1
 40
1.0
176
     1
 90
        1
176
     1
 90
        6
176
     1
 90
        2
176
     1
 62
     7
176
     1
 90
        6
176
     1
 90
        0
176
     1
 90
        0
176
     1
290
     0
176
     1
 90
        1
176
     1
 40
0.0
176
     1
 90
        0
176
     1
290
     0
176
     1
290
     1
176
     1
290
     1
176
     1
290
     0
176
     1
290
     0
176
     1
290
     0
176
     1
290
     0
176
     1
290
     0
176
     1
290
     0
176
     1
 90
       50
176
     1
 40
0.0
176
     1
 40
1.0
176
     1
 90
        0
176
     1
 62
    18
420
        0
176
     1
 90
       50
176
     1
 90
        3
176
     1
 62
     5
420
      255
176
     1
290
     0
176
     1
 90
       50
176
     1
 90
       50
176
     1
 90
       50
176
     1
290
     0
176
     1
 90
       50
176
     1
 62
   256
176
     0
 40
1.0
176
     0
 90
        2
176
     1
  1
strokes_ogs.tif
176
     1
290
     0
176
     1
 40
1.0
176
     1
 40
1.0
176
     1
  0
VISUALSTYLE
  5
37
102
{ACAD_REACTORS
330
2A
102
}
330
2A
100
AcDbVisualStyle
  2
Thicken
 70
    13
177
     3
291
     1
 70
    58
 90
        2
176
     1
 90
        2
176
     1
 90
        0
176
     1
 90
        0
176
     1
 40
0.6
176
     1
 40
30.0
176
     1
 62
     7
420
 16777215
176
     1
 90
        1
176
     1
 90
        4
176
     1
 62
     7
176
     1
 62
   257
176
     1
 90
        1
176
     1
 90
        1
176
     1
 40
1.0
176
     1
 90
       12
176
     1
 62
     7
176
     1
 40
1.0
176
     1
 90
        1
176
     1
 90
        6
176
     1
 90
        2
176
     1
 62
     7
176
     1
 90
        5
176
     1
 90
        0
176
     1
 90
        0
176
     1
290
     0
176
     1
 90
        1
176
     1
 40
0.0
176
     1
 90
        0
176
     1
290
     0
176
     1
290
     1
176
     1
290
     1
176
     1
290
     0
176
     1
290
     0
176
     1
290
     0
176
     1
290
     0
176
     1
290
     0
176
     1
290
     0
176
     1
 90
       50
176
     1
 40
0.0
176
     1
 40
1.0
176
     1
 90
        0
176
     1
 62
    18
420
        0
176
     1
 90
       50
176
     1
 90
        3
176
     1
 62
     5
420
      255
176
     1
290
     0
176
     1
 90
       50
176
     1
 90
       50
176
     1
 90
       50
176
     1
290
     0
176
     1
 90
       50
176
     1
 62
   256
176
     0
 40
1.0
176
     0
 90
        2
176
     1
  1
strokes_ogs.tif
176
     1
290
     0
176
     1
 40
1.0
176
     1
 40
1.0
176
     1
  0
VISUALSTYLE
  5
30
102
{ACAD_REACTORS
330
2A
102
}
330
2A
100
AcDbVisualStyle
  2
Wireframe
 70
     5
177
     3
291
     0
 70
    58
 90
        0
176
     1
 90
        2
176
     1
 90
        0
176
     1
 90
        0
176
     1
 40
0.6
176
     1
 40
30.0
176
     1
 62
     7
420
 16777215
176
     1
 90
        1
176
     1
 90
        4
176
     1
 62
     7
176
     1
 62
   257
176
     1
 90
        1
176
     1
 90
        1
176
     1
 40
1.0
176
     1
 90
        0
176
     1
 62
   257
176
     1
 40
1.0
176
     1
 90
        1
176
     1
 90
        6
176
     1
 90
        2
176
     1
 62
     7
176
     1
 90
        3
176
     1
 90
        0
176
     1
 90
        0
176
     1
290
     0
176
     1
 90
        1
176
     1
 40
0.0
176
     1
 90
        0
176
     1
290
     0
176
     1
290
     1
176
     1
290
     1
176
     1
290
     0
176
     1
290
     0
176
     1
290
     0
176
     1
290
     0
176
     1
290
     0
176
     1
290
     0
176
     1
 90
       50
176
     1
 40
0.0
176
     1
 40
1.0
176
     1
 90
        0
176
     1
 62
    18
420
        0
176
     1
 90
       50
176
     1
 90
        3
176
     1
 62
     5
420
      255
176
     1
290
     0
176
     1
 90
       50
176
     1
 90
       50
176
     1
 90
       50
176
     1
290
     0
176
     1
 90
       50
176
     1
 62
   256
176
     0
 40
1.0
176
     0
 90
        2
176
     1
  1
strokes_ogs.tif
176
     1
290
     0
176
     1
 40
1.0
176
     1
 40
1.0
176
     1
  0
VISUALSTYLE
  5
40
102
{ACAD_REACTORS
330
2A
102
}
330
2A
100
AcDbVisualStyle
  2
X-Ray
 70
    25
177
     3
291
     0
 70
    58
 90
        2
176
     1
 90
        2
176
     1
 90
        1
176
     1
 90
        1
176
     1
 40
0.5
176
     1
 40
30.0
176
     1
 62
     7
420
 16777215
176
     1
 90
        1
176
     1
 90
        0
176
     1
 62
     7
176
     1
 62
   257
176
     1
 90
        1
176
     1
 90
        1
176
     1
 40
1.0
176
     1
 90
        8
176
     1
 62
     7
176
     1
 40
1.0
176
     1
 90
        1
176
     1
 90
        6
176
     1
 90
        2
176
     1
 62
     7
176
     1
 90
        3
176
     1
 90
        0
176
     1
 90
        0
176
     1
290
     0
176
     1
 90
       13
176
     1
 40
0.0
176
     1
 90
        0
176
     1
290
     0
176
     1
290
     1
176
     1
290
     1
176
     1
290
     0
176
     1
290
     0
176
     1
290
     0
176
     1
290
     0
176
     1
290
     0
176
     1
290
     0
176
     1
 90
       50
176
     1
 40
0.0
176
     1
 40
1.0
176
     1
 90
        0
176
     1
 62
    18
420
        0
176
     1
 90
       50
176
     1
 90
        3
176
     1
 62
     5
420
      255
176
     1
290
     0
176
     1
 90
       50
176
     1
 90
       50
176
     1
 90
       50
176
     1
290
     0
176
     1
 90
       50
176
     1
 62
   256
176
     0
 40
1.0
176
     0
 90
        2
176
     1
  1
strokes_ogs.tif
176
     1
290
     0
176
     1
 40
1.0
176
     1
 40
1.0
176
     1
  0
DICTIONARYVAR
  5
8B
102
{ACAD_REACTORS
330
8A
102
}
330
8A
100
DictionaryVariables
280
     0
  1
1:1
  0
DICTIONARYVAR
  5
90
102
{ACAD_REACTORS
330
8A
102
}
330
8A
100
DictionaryVariables
280
     0
  1
Standard
  0
DICTIONARYVAR
  5
8F
102
{ACAD_REACTORS
330
8A
102
}
330
8A
100
DictionaryVariables
280
     0
  1
Standard
  0
DICTIONARY
  5
8C
330
5A
100
AcDbDictionary
280
     1
281
     1
  3
ACAD_ROUNDTRIP_2008_TABLESTYLE_CELLSTYLEMAP
360
8D
  0
CELLSTYLEMAP
  5
8D
102
{ACAD_REACTORS
330
8C
102
}
330
8C
100
AcDbCellStyleMap
 90
        3
300
CELLSTYLE
  1
TABLEFORMAT_BEGIN
 90
        5
170
     1
 91
        0
 92
    32768
 62
   257
 93
        1
300
CONTENTFORMAT
  1
CONTENTFORMAT_BEGIN
 90
        0
 91
        0
 92
        4
 93
        0
300

 40
0.0
140
1.0
 94
        5
 62
     0
340
11
144
0.25
309
CONTENTFORMAT_END
171
     1
301
MARGIN
  1
CELLMARGIN_BEGIN
 40
0.06
 40
0.06
 40
0.06
 40
0.06
 40
0.06
 40
0.06
309
CELLMARGIN_END
 94
        6
 95
        1
302
GRIDFORMAT
  1
GRIDFORMAT_BEGIN
 90
        0
 91
        1
 62
     0
 92
       -2
340
14
 93
        0
 40
0.045
309
GRIDFORMAT_END
 95
        2
302
GRIDFORMAT
  1
GRIDFORMAT_BEGIN
 90
        0
 91
        1
 62
     0
 92
       -2
340
14
 93
        0
 40
0.045
309
GRIDFORMAT_END
 95
        4
302
GRIDFORMAT
  1
GRIDFORMAT_BEGIN
 90
        0
 91
        1
 62
     0
 92
       -2
340
14
 93
        0
 40
0.045
309
GRIDFORMAT_END
 95
        8
302
GRIDFORMAT
  1
GRIDFORMAT_BEGIN
 90
        0
 91
        1
 62
     0
 92
       -2
340
14
 93
        0
 40
0.045
309
GRIDFORMAT_END
 95
       16
302
GRIDFORMAT
  1
GRIDFORMAT_BEGIN
 90
        0
 91
        1
 62
     0
 92
       -2
340
14
 93
        0
 40
0.045
309
GRIDFORMAT_END
 95
       32
302
GRIDFORMAT
  1
GRIDFORMAT_BEGIN
 90
        0
 91
        1
 62
     0
 92
       -2
340
14
 93
        0
 40
0.045
309
GRIDFORMAT_END
309
TABLEFORMAT_END
  1
CELLSTYLE_BEGIN
 90
        1
 91
        1
300
_TITLE
309
CELLSTYLE_END
300
CELLSTYLE
  1
TABLEFORMAT_BEGIN
 90
        5
170
     1
 91
        0
 92
        0
 62
   257
 93
        1
300
CONTENTFORMAT
  1
CONTENTFORMAT_BEGIN
 90
        0
 91
        0
 92
        4
 93
        0
300

 40
0.0
140
1.0
 94
        5
 62
     0
340
11
144
0.18
309
CONTENTFORMAT_END
171
     1
301
MARGIN
  1
CELLMARGIN_BEGIN
 40
0.06
 40
0.06
 40
0.06
 40
0.06
 40
0.06
 40
0.06
309
CELLMARGIN_END
 94
        6
 95
        1
302
GRIDFORMAT
  1
GRIDFORMAT_BEGIN
 90
        0
 91
        1
 62
     0
 92
       -2
340
14
 93
        0
 40
0.045
309
GRIDFORMAT_END
 95
        2
302
GRIDFORMAT
  1
GRIDFORMAT_BEGIN
 90
        0
 91
        1
 62
     0
 92
       -2
340
14
 93
        0
 40
0.045
309
GRIDFORMAT_END
 95
        4
302
GRIDFORMAT
  1
GRIDFORMAT_BEGIN
 90
        0
 91
        1
 62
     0
 92
       -2
340
14
 93
        0
 40
0.045
309
GRIDFORMAT_END
 95
        8
302
GRIDFORMAT
  1
GRIDFORMAT_BEGIN
 90
        0
 91
        1
 62
     0
 92
       -2
340
14
 93
        0
 40
0.045
309
GRIDFORMAT_END
 95
       16
302
GRIDFORMAT
  1
GRIDFORMAT_BEGIN
 90
        0
 91
        1
 62
     0
 92
       -2
340
14
 93
        0
 40
0.045
309
GRIDFORMAT_END
 95
       32
302
GRIDFORMAT
  1
GRIDFORMAT_BEGIN
 90
        0
 91
        1
 62
     0
 92
       -2
340
14
 93
        0
 40
0.045
309
GRIDFORMAT_END
309
TABLEFORMAT_END
  1
CELLSTYLE_BEGIN
 90
        2
 91
        1
300
_HEADER
309
CELLSTYLE_END
300
CELLSTYLE
  1
TABLEFORMAT_BEGIN
 90
        5
170
     1
 91
        0
 92
        0
 62
   257
 93
        1
300
CONTENTFORMAT
  1
CONTENTFORMAT_BEGIN
 90
        0
 91
        0
 92
        4
 93
        0
300

 40
0.0
140
1.0
 94
        2
 62
     0
340
11
144
0.18
309
CONTENTFORMAT_END
171
     1
301
MARGIN
  1
CELLMARGIN_BEGIN
 40
0.06
 40
0.06
 40
0.06
 40
0.06
 40
0.06
 40
0.06
309
CELLMARGIN_END
 94
        6
 95
        1
302
GRIDFORMAT
  1
GRIDFORMAT_BEGIN
 90
        0
 91
        1
 62
     0
 92
       -2
340
14
 93
        0
 40
0.045
309
GRIDFORMAT_END
 95
        2
302
GRIDFORMAT
  1
GRIDFORMAT_BEGIN
 90
        0
 91
        1
 62
     0
 92
       -2
340
14
 93
        0
 40
0.045
309
GRIDFORMAT_END
 95
        4
302
GRIDFORMAT
  1
GRIDFORMAT_BEGIN
 90
        0
 91
        1
 62
     0
 92
       -2
340
14
 93
        0
 40
0.045
309
GRIDFORMAT_END
 95
        8
302
GRIDFORMAT
  1
GRIDFORMAT_BEGIN
 90
        0
 91
        1
 62
     0
 92
       -2
340
14
 93
        0
 40
0.045
309
GRIDFORMAT_END
 95
       16
302
GRIDFORMAT
  1
GRIDFORMAT_BEGIN
 90
        0
 91
        1
 62
     0
 92
       -2
340
14
 93
        0
 40
0.045
309
GRIDFORMAT_END
 95
       32
302
GRIDFORMAT
  1
GRIDFORMAT_BEGIN
 90
        0
 91
        1
 62
     0
 92
       -2
340
14
 93
        0
 40
0.045
309
GRIDFORMAT_END
309
TABLEFORMAT_END
  1
CELLSTYLE_BEGIN
 90
        3
 91
        2
300
_DATA
309
CELLSTYLE_END
  0
ENDSEC
  0
EOF
