  0
SECTION
  2
HEADER
  9
$ACADVER
  1
AC1027
  9
$ACADMAINTVER
 70
   105
  9
$DWGCODEPAGE
  3
ANSI_1252
  9
$LASTSAVEDBY
  1
Office Desk
  9
$REQUIREDVERSIONS
160
                 0
  9
$INSBASE
 10
0.0
 20
0.0
 30
0.0
  9
$EXTMIN
 10
-14.48675196850394
 20
-14.33483464566929
 30
0.0
  9
$EXTMAX
 10
-8.178051181102362
 20
-7.413590551181103
 30
0.0
  9
$LIMMIN
 10
0.0
 20
0.0
  9
$LIMMAX
 10
12.0
 20
9.0
  9
$ORTHOMODE
 70
     0
  9
$REGENMODE
 70
     1
  9
$FILLMODE
 70
     1
  9
$QTEXTMODE
 70
     0
  9
$MIRRTEXT
 70
     1
  9
$LTSCALE
 40
1.0
  9
$ATTMODE
 70
     1
  9
$TEXTSIZE
 40
0.2
  9
$TRACEWID
 40
0.05
  9
$TEXTSTYLE
  7
Standard
  9
$CLAYER
  8
0
  9
$CELTYPE
  6
ByLayer
  9
$CECOLOR
 62
   256
  9
$CELTSCALE
 40
1.0
  9
$DISPSILH
 70
     0
  9
$DIMSCALE
 40
1.0
  9
$DIMASZ
 40
0.18
  9
$DIMEXO
 40
0.0625
  9
$DIMDLI
 40
0.38
  9
$DIMRND
 40
0.0
  9
$DIMDLE
 40
0.0
  9
$DIMEXE
 40
0.18
  9
$DIMTP
 40
0.0
  9
$DIMTM
 40
0.0
  9
$DIMTXT
 40
0.18
  9
$DIMCEN
 40
0.09
  9
$DIMTSZ
 40
0.0
  9
$DIMTOL
 70
     0
  9
$DIMLIM
 70
     0
  9
$DIMTIH
 70
     1
  9
$DIMTOH
 70
     1
  9
$DIMSE1
 70
     0
  9
$DIMSE2
 70
     0
  9
$DIMTAD
 70
     0
  9
$DIMZIN
 70
     0
  9
$DIMBLK
  1

  9
$DIMASO
 70
     1
  9
$DIMSHO
 70
     1
  9
$DIMPOST
  1

  9
$DIMAPOST
  1

  9
$DIMALT
 70
     0
  9
$DIMALTD
 70
     2
  9
$DIMALTF
 40
25.4
  9
$DIMLFAC
 40
1.0
  9
$DIMTOFL
 70
     0
  9
$DIMTVP
 40
0.0
  9
$DIMTIX
 70
     0
  9
$DIMSOXD
 70
     0
  9
$DIMSAH
 70
     0
  9
$DIMBLK1
  1

  9
$DIMBLK2
  1

  9
$DIMSTYLE
  2
Standard
  9
$DIMCLRD
 70
     0
  9
$DIMCLRE
 70
     0
  9
$DIMCLRT
 70
     0
  9
$DIMTFAC
 40
1.0
  9
$DIMGAP
 40
0.09
  9
$DIMJUST
 70
     0
  9
$DIMSD1
 70
     0
  9
$DIMSD2
 70
     0
  9
$DIMTOLJ
 70
     1
  9
$DIMTZIN
 70
     0
  9
$DIMALTZ
 70
     0
  9
$DIMALTTZ
 70
     0
  9
$DIMUPT
 70
     0
  9
$DIMDEC
 70
     4
  9
$DIMTDEC
 70
     4
  9
$DIMALTU
 70
     2
  9
$DIMALTTD
 70
     2
  9
$DIMTXSTY
  7
Standard
  9
$DIMAUNIT
 70
     0
  9
$DIMADEC
 70
     0
  9
$DIMALTRND
 40
0.0
  9
$DIMAZIN
 70
     0
  9
$DIMDSEP
 70
    46
  9
$DIMATFIT
 70
     3
  9
$DIMFRAC
 70
     0
  9
$DIMLDRBLK
  1

  9
$DIMLUNIT
 70
     2
  9
$DIMLWD
 70
    -2
  9
$DIMLWE
 70
    -2
  9
$DIMTMOVE
 70
     0
  9
$DIMFXL
 40
1.0
  9
$DIMFXLON
 70
     0
  9
$DIMJOGANG
 40
0.7853981633974483
  9
$DIMTFILL
 70
     0
  9
$DIMTFILLCLR
 70
     0
  9
$DIMARCSYM
 70
     0
  9
$DIMLTYPE
  6

  9
$DIMLTEX1
  6

  9
$DIMLTEX2
  6

  9
$DIMTXTDIRECTION
 70
     0
  9
$LUNITS
 70
     2
  9
$LUPREC
 70
     4
  9
$SKETCHINC
 40
0.1
  9
$FILLETRAD
 40
0.0
  9
$AUNITS
 70
     0
  9
$AUPREC
 70
     0
  9
$MENU
  1
.
  9
$ELEVATION
 40
0.0
  9
$PELEVATION
 40
0.0
  9
$THICKNESS
 40
0.0
  9
$LIMCHECK
 70
     0
  9
$CHAMFERA
 40
0.0
  9
$CHAMFERB
 40
0.0
  9
$CHAMFERC
 40
0.0
  9
$CHAMFERD
 40
0.0
  9
$SKPOLY
 70
     0
  9
$TDCREATE
 40
2461020.61819301
  9
$TDUCREATE
 40
2461020.389026343
  9
$TDUPDATE
 40
2461020.618193091
  9
$TDUUPDATE
 40
2461020.389026424
  9
$TDINDWG
 40
0.0000000116
  9
$TDUSRTIMER
 40
0.0000000116
  9
$USRTIMER
 70
     1
  9
$ANGBASE
 50
0.0
  9
$ANGDIR
 70
     0
  9
$PDMODE
 70
     0
  9
$PDSIZE
 40
0.0
  9
$PLINEWID
 40
0.0
  9
$SPLFRAME
 70
     0
  9
$SPLINETYPE
 70
     6
  9
$SPLINESEGS
 70
     8
  9
$HANDSEED
  5
91
  9
$SURFTAB1
 70
     6
  9
$SURFTAB2
 70
     6
  9
$SURFTYPE
 70
     6
  9
$SURFU
 70
     6
  9
$SURFV
 70
     6
  9
$UCSBASE
  2

  9
$UCSNAME
  2

  9
$UCSORG
 10
0.0
 20
0.0
 30
0.0
  9
$UCSXDIR
 10
1.0
 20
0.0
 30
0.0
  9
$UCSYDIR
 10
0.0
 20
1.0
 30
0.0
  9
$UCSORTHOREF
  2

  9
$UCSORTHOVIEW
 70
     0
  9
$UCSORGTOP
 10
0.0
 20
0.0
 30
0.0
  9
$UCSORGBOTTOM
 10
0.0
 20
0.0
 30
0.0
  9
$UCSORGLEFT
 10
0.0
 20
0.0
 30
0.0
  9
$UCSORGRIGHT
 10
0.0
 20
0.0
 30
0.0
  9
$UCSORGFRONT
 10
0.0
 20
0.0
 30
0.0
  9
$UCSORGBACK
 10
0.0
 20
0.0
 30
0.0
  9
$PUCSBASE
  2

  9
$PUCSNAME
  2

  9
$PUCSORG
 10
0.0
 20
0.0
 30
0.0
  9
$PUCSXDIR
 10
1.0
 20
0.0
 30
0.0
  9
$PUCSYDIR
 10
0.0
 20
1.0
 30
0.0
  9
$PUCSORTHOREF
  2

  9
$PUCSORTHOVIEW
 70
     0
  9
$PUCSORGTOP
 10
0.0
 20
0.0
 30
0.0
  9
$PUCSORGBOTTOM
 10
0.0
 20
0.0
 30
0.0
  9
$PUCSORGLEFT
 10
0.0
 20
0.0
 30
0.0
  9
$PUCSORGRIGHT
 10
0.0
 20
0.0
 30
0.0
  9
$PUCSORGFRONT
 10
0.0
 20
0.0
 30
0.0
  9
$PUCSORGBACK
 10
0.0
 20
0.0
 30
0.0
  9
$USERI1
 70
     0
  9
$USERI2
 70
     0
  9
$USERI3
 70
     0
  9
$USERI4
 70
     0
  9
$USERI5
 70
     0
  9
$USERR1
 40
0.0
  9
$USERR2
 40
0.0
  9
$USERR3
 40
0.0
  9
$USERR4
 40
0.0
  9
$USERR5
 40
0.0
  9
$WORLDVIEW
 70
     1
  9
$SHADEDGE
 70
     3
  9
$SHADEDIF
 70
    70
  9
$TILEMODE
 70
     1
  9
$MAXACTVP
 70
    64
  9
$PINSBASE
 10
0.0
 20
0.0
 30
0.0
  9
$PLIMCHECK
 70
     0
  9
$PEXTMIN
 10
1.000000000000000E+20
 20
1.000000000000000E+20
 30
1.000000000000000E+20
  9
$PEXTMAX
 10
-1.000000000000000E+20
 20
-1.000000000000000E+20
 30
-1.000000000000000E+20
  9
$PLIMMIN
 10
0.0
 20
0.0
  9
$PLIMMAX
 10
12.0
 20
9.0
  9
$UNITMODE
 70
     0
  9
$VISRETAIN
 70
     1
  9
$PLINEGEN
 70
     0
  9
$PSLTSCALE
 70
     1
  9
$TREEDEPTH
 70
  3020
  9
$CMLSTYLE
  2
Standard
  9
$CMLJUST
 70
     0
  9
$CMLSCALE
 40
1.0
  9
$PROXYGRAPHICS
 70
     1
  9
$MEASUREMENT
 70
     0
  9
$CELWEIGHT
370
    -1
  9
$ENDCAPS
280
     0
  9
$JOINSTYLE
280
     0
  9
$LWDISPLAY
290
     0
  9
$INSUNITS
 70
     1
  9
$HYPERLINKBASE
  1

  9
$STYLESHEET
  1

  9
$XEDIT
290
     1
  9
$CEPSNTYPE
380
     0
  9
$PSTYLEMODE
290
     1
  9
$FINGERPRINTGUID
  2
{132f255e-6c0e-4d1f-97af-aaea9e051315}
  9
$VERSIONGUID
  2
{FAEB1C32-E019-11D5-929B-00C0DF256EC4}
  9
$EXTNAMES
290
     1
  9
$PSVPSCALE
 40
0.0
  9
$OLESTARTUP
290
     0
  9
$SORTENTS
280
   127
  9
$INDEXCTL
280
     0
  9
$HIDETEXT
280
     1
  9
$XCLIPFRAME
280
     2
  9
$HALOGAP
280
     0
  9
$OBSCOLOR
 70
   257
  9
$OBSLTYPE
280
     0
  9
$INTERSECTIONDISPLAY
280
     0
  9
$INTERSECTIONCOLOR
 70
   257
  9
$DIMASSOC
280
     2
  9
$PROJECTNAME
  1

  9
$CAMERADISPLAY
290
     0
  9
$LENSLENGTH
 40
50.0
  9
$CAMERAHEIGHT
 40
0.0
  9
$STEPSPERSEC
 40
2.0
  9
$STEPSIZE
 40
6.0
  9
$3DDWFPREC
 40
2.0
  9
$PSOLWIDTH
 40
0.25
  9
$PSOLHEIGHT
 40
4.0
  9
$LOFTANG1
 40
1.570796326794897
  9
$LOFTANG2
 40
1.570796326794897
  9
$LOFTMAG1
 40
0.0
  9
$LOFTMAG2
 40
0.0
  9
$LOFTPARAM
 70
     7
  9
$LOFTNORMALS
280
     1
  9
$LATITUDE
 40
37.795
  9
$LONGITUDE
 40
-122.394
  9
$NORTHDIRECTION
 40
0.0
  9
$TIMEZONE
 70
 -8000
  9
$LIGHTGLYPHDISPLAY
280
     1
  9
$TILEMODELIGHTSYNCH
280
     1
  9
$CMATERIAL
347
44
  9
$SOLIDHIST
280
     0
  9
$SHOWHIST
280
     1
  9
$DWFFRAME
280
     2
  9
$DGNFRAME
280
     2
  9
$REALWORLDSCALE
290
     1
  9
$INTERFERECOLOR
 62
   256
  9
$CSHADOW
280
     0
  9
$SHADOWPLANELOCATION
 40
0.0
  0
ENDSEC
  0
SECTION
  2
CLASSES
  0
CLASS
  1
ACDBDICTIONARYWDFLT
  2
AcDbDictionaryWithDefault
  3
ObjectDBX Classes
 90
        0
 91
        3
280
     0
281
     0
  0
CLASS
  1
VISUALSTYLE
  2
AcDbVisualStyle
  3
ObjectDBX Classes
 90
     4095
 91
        3
280
     0
281
     0
  0
CLASS
  1
MATERIAL
  2
AcDbMaterial
  3
ObjectDBX Classes
 90
     1153
 91
        3
280
     0
281
     0
  0
CLASS
  1
SCALE
  2
AcDbScale
  3
ObjectDBX Classes
 90
     1153
 91
        3
280
     0
281
     0
  0
CLASS
  1
TABLESTYLE
  2
AcDbTableStyle
  3
ObjectDBX Classes
 90
     4095
 91
        3
280
     0
281
     0
  0
CLASS
  1
MLEADERSTYLE
  2
AcDbMLeaderStyle
  3
ACDB_MLEADERSTYLE_CLASS
 90
     4095
 91
        3
280
     0
281
     0
  0
CLASS
  1
SUN
  2
AcDbSun
  3
SCENEOE
 90
     1153
 91
        3
280
     0
281
     0
  0
CLASS
  1
DICTIONARYVAR
  2
AcDbDictionaryVar
  3
ObjectDBX Classes
 90
        0
 91
        3
280
     0
281
     0
  0
CLASS
  1
CELLSTYLEMAP
  2
AcDbCellStyleMap
  3
ObjectDBX Classes
 90
     1152
 91
        3
280
     0
281
     0
  0
ENDSEC
  0
SECTION
  2
TABLES
  0
TABLE
  2
VPORT
  5
8
330
0
100
AcDbSymbolTable
 70
     1
  0
VPORT
  5
29
330
8
100
AcDbSymbolTableRecord
100
AcDbViewportTableRecord
  2
*Active
 70
     0
 10
0.0
 20
0.0
 11
1.0
 21
1.0
 12
10.42990654205607
 22
4.5
 13
0.0
 23
0.0
 14
0.5
 24
0.5
 15
0.5
 25
0.5
 16
0.0
 26
0.0
 36
1.0
 17
0.0
 27
0.0
 37
0.0
 40
9.0
 41
1.972972972850329
 42
50.0
 43
0.0
 44
0.0
 50
0.0
 51
0.0
 71
     0
 72
   100
 73
     1
 74
     3
 75
     0
 76
     0
 77
     0
 78
     0
281
     0
 65
     1
110
0.0
120
0.0
130
0.0
111
1.0
121
0.0
131
0.0
112
0.0
122
1.0
132
0.0
 79
     0
146
0.0
348
2F
 60
     3
 61
     5
292
     1
282
     1
141
0.0
142
0.0
 63
   250
361
5D
  0
ENDTAB
  0
TABLE
  2
LTYPE
  5
5
330
0
100
AcDbSymbolTable
 70
     1
  0
LTYPE
  5
14
330
5
100
AcDbSymbolTableRecord
100
AcDbLinetypeTableRecord
  2
ByBlock
 70
     0
  3

 72
    65
 73
     0
 40
0.0
  0
LTYPE
  5
15
330
5
100
AcDbSymbolTableRecord
100
AcDbLinetypeTableRecord
  2
ByLayer
 70
     0
  3

 72
    65
 73
     0
 40
0.0
  0
LTYPE
  5
16
330
5
100
AcDbSymbolTableRecord
100
AcDbLinetypeTableRecord
  2
Continuous
 70
     0
  3
Solid line
 72
    65
 73
     0
 40
0.0
  0
ENDTAB
  0
TABLE
  2
LAYER
  5
2
330
0
100
AcDbSymbolTable
 70
     2
  0
LAYER
  5
10
330
2
100
AcDbSymbolTableRecord
100
AcDbLayerTableRecord
  2
0
 70
     0
 62
     7
  6
Continuous
370
    -3
390
F
347
46
348
0
  0
LAYER
  5
5F
330
2
100
AcDbSymbolTableRecord
100
AcDbLayerTableRecord
  2
Layer 1
 70
     0
 62
     7
  6
Continuous
370
    -3
390
F
347
46
348
0
  0
ENDTAB
  0
TABLE
  2
STYLE
  5
3
330
0
100
AcDbSymbolTable
 70
     1
  0
STYLE
  5
11
330
3
100
AcDbSymbolTableRecord
100
AcDbTextStyleTableRecord
  2
Standard
 70
     0
 40
0.0
 41
1.0
 50
0.0
 71
     0
 42
0.2
  3
txt
  4

  0
ENDTAB
  0
TABLE
  2
VIEW
  5
6
330
0
100
AcDbSymbolTable
 70
     0
  0
ENDTAB
  0
TABLE
  2
UCS
  5
7
330
0
100
AcDbSymbolTable
 70
     0
  0
ENDTAB
  0
TABLE
  2
APPID
  5
9
330
0
100
AcDbSymbolTable
 70
     2
  0
APPID
  5
12
330
9
100
AcDbSymbolTableRecord
100
AcDbRegAppTableRecord
  2
ACAD
 70
     0
  0
APPID
  5
5E
330
9
100
AcDbSymbolTableRecord
100
AcDbRegAppTableRecord
  2
ODA
 70
     0
  0
ENDTAB
  0
TABLE
  2
DIMSTYLE
  5
A
330
0
100
AcDbSymbolTable
 70
     1
100
AcDbDimStyleTable
  0
DIMSTYLE
105
27
330
A
100
AcDbSymbolTableRecord
100
AcDbDimStyleTableRecord
  2
Standard
 70
     0
178
     0
340
11
  0
ENDTAB
  0
TABLE
  2
BLOCK_RECORD
  5
1
330
0
100
AcDbSymbolTable
 70
     1
  0
BLOCK_RECORD
  5
1F
330
1
100
AcDbSymbolTableRecord
100
AcDbBlockTableRecord
  2
*Model_Space
340
22
 70
     0
280
     1
281
     0
  0
BLOCK_RECORD
  5
1B
330
1
100
AcDbSymbolTableRecord
100
AcDbBlockTableRecord
  2
*Paper_Space
340
1E
 70
     0
280
     1
281
     0
  0
BLOCK_RECORD
  5
23
330
1
100
AcDbSymbolTableRecord
100
AcDbBlockTableRecord
  2
*Paper_Space0
340
26
 70
     0
280
     1
281
     0
  0
ENDTAB
  0
ENDSEC
  0
SECTION
  2
BLOCKS
  0
BLOCK
  5
20
330
1F
100
AcDbEntity
  8
0
100
AcDbBlockBegin
  2
*Model_Space
 70
     0
 10
0.0
 20
0.0
 30
0.0
  3
*Model_Space
  1

  0
ENDBLK
  5
21
330
1F
100
AcDbEntity
  8
0
100
AcDbBlockEnd
  0
BLOCK
  5
1C
330
1B
100
AcDbEntity
 67
     1
  8
0
100
AcDbBlockBegin
  2
*Paper_Space
 70
     0
 10
0.0
 20
0.0
 30
0.0
  3
*Paper_Space
  1

  0
ENDBLK
  5
1D
330
1B
100
AcDbEntity
 67
     1
  8
0
100
AcDbBlockEnd
  0
BLOCK
  5
24
330
23
100
AcDbEntity
  8
0
100
AcDbBlockBegin
  2
*Paper_Space0
 70
     0
 10
0.0
 20
0.0
 30
0.0
  3
*Paper_Space0
  1

  0
ENDBLK
  5
25
330
23
100
AcDbEntity
  8
0
100
AcDbBlockEnd
  0
ENDSEC
  0
SECTION
  2
ENTITIES
  0
LWPOLYLINE
  5
60
330
1F
100
AcDbEntity
  8
Layer 1
 62
   250
370
     9
100
AcDbPolyline
 90
        5
 70
     1
 43
0.0
 10
-14.48525196850394
 20
-14.33333464566929
 10
-8.179551181102362
 20
-14.33333464566929
 10
-8.179551181102362
 20
-7.415090551181103
 10
-14.48525196850394
 20
-7.415090551181103
 10
-14.48525196850394
 20
-14.33333464566929
  0
LWPOLYLINE
  5
61
330
1F
100
AcDbEntity
  8
Layer 1
 62
     7
370
     9
100
AcDbPolyline
 90
      112
 70
     1
 43
0.0
 10
-11.90103149606299
 20
-9.149129921259842
 10
-11.78557086614173
 20
-9.151669291338584
 10
-11.67803149606299
 20
-9.158956692913385
 10
-11.58071653543307
 20
-9.170488188976378
 10
-11.49592519685039
 20
-9.185755905511812
 10
-11.42596850393701
 20
-9.20426377952756
 10
-11.37314960629921
 20
-9.225503937007874
 10
-11.33976377952756
 20
-9.248976377952756
 10
-11.32812598425197
 20
-9.274177165354331
 10
-11.32812598425197
 20
-9.465102362204725
 10
-10.019
 20
-9.665535433070866
 10
-10.00068897637795
 20
-9.667799212598425
 10
-9.983633858267716
 20
-9.674287401574803
 10
-9.968200787401575
 20
-9.684555118110236
 10
-9.954755905511812
 20
-9.698153543307086
 10
-9.943665354330708
 20
-9.714633858267717
 10
-9.935287401574803
 20
-9.733547244094488
 10
-9.929996062992126
 20
-9.754452755905511
 10
-9.928149606299213
 20
-9.7768937007874
 10
-9.929996062992126
 20
-9.79933464566929
 10
-9.935287401574803
 20
-9.820240157480315
 10
-9.943665354330708
 20
-9.839153543307086
 10
-9.954755905511812
 20
-9.855633858267716
 10
-9.968200787401575
 20
-9.869232283464568
 10
-9.983633858267716
 20
-9.8795
 10
-10.00068897637795
 20
-9.885988188976379
 10
-10.019
 20
-9.888251968503937
 10
-10.02501181102362
 20
-9.888011811023622
 10
-10.03092125984252
 20
-9.887299212598425
 10
-10.0367125984252
 20
-9.886129921259842
 10
-10.04237795275591
 20
-9.88451968503937
 10
-11.32812598425197
 20
-9.6793937007874
 10
-11.32812598425197
 20
-9.817712598425198
 10
-11.33005905511811
 20
-9.833106299212599
 10
-11.33546456692913
 20
-9.846188976377952
 10
-11.34375590551181
 20
-9.857212598425196
 10
-11.35433858267717
 20
-9.866429133858269
 10
-11.36662204724409
 20
-9.874086614173228
 10
-11.3800157480315
 20
-9.88044094488189
 10
-11.39393307086614
 20
-9.885736220472442
 10
-11.40777952755906
 20
-9.89022440944882
 10
-11.40777952755906
 20
-9.935570866141733
 10
-11.38983464566929
 20
-9.942704724409449
 10
-11.37399606299213
 20
-9.950110236220473
 10
-11.36034645669291
 20
-9.957771653543308
 10
-11.3489842519685
 20
-9.965665354330708
 10
-11.33999212598425
 20
-9.973775590551181
 10
-11.33346062992126
 20
-9.98207874015748
 10
-11.32947244094488
 20
-9.990562992125984
 10
-11.32812598425197
 20
-9.999204724409449
 10
-11.32812598425197
 20
-12.77868503937008
 10
-11.31192519685039
 20
-12.78903937007874
 10
-11.29765748031496
 20
-12.79971653543307
 10
-11.28538976377953
 20
-12.8106968503937
 10
-11.27520078740157
 20
-12.82195275590551
 10
-11.26714960629921
 20
-12.83347244094488
 10
-11.26131496062992
 20
-12.84522440944882
 10
-11.25776377952756
 20
-12.8571968503937
 10
-11.25656299212598
 20
-12.86936220472441
 10
-11.25656299212598
 20
-12.9662874015748
 10
-11.27994488188976
 20
-13.02283858267717
 10
-11.3424842519685
 20
-13.0678031496063
 10
-11.43277165354331
 20
-13.10242519685039
 10
-11.5393937007874
 20
-13.12795669291339
 10
-11.65093700787402
 20
-13.14563779527559
 10
-11.756
 20
-13.15672440944882
 10
-11.84316535433071
 20
-13.16246456692913
 10
-11.90102362204724
 20
-13.16409842519685
 10
-12.02383858267716
 20
-13.16051181102362
 10
-12.13884251968504
 20
-13.15019291338583
 10
-12.24385433070866
 20
-13.13381102362205
 10
-12.3366968503937
 20
-13.11204330708661
 10
-12.41518503937008
 20
-13.08554724409449
 10
-12.47714566929134
 20
-13.05500393700787
 10
-12.52039763779528
 20
-13.02107086614173
 10
-12.54275984251968
 20
-12.98442913385827
 10
-12.54548031496063
 20
-12.86936220472441
 10
-12.54427952755906
 20
-12.85720078740158
 10
-12.54072834645669
 20
-12.84523228346457
 10
-12.5348937007874
 20
-12.83348031496063
 10
-12.52684645669291
 20
-12.82196456692913
 10
-12.51665354330709
 20
-12.81070472440945
 10
-12.5043937007874
 20
-12.79972834645669
 10
-12.49012598425197
 20
-12.78905118110236
 10
-12.47392913385827
 20
-12.7786968503937
 10
-12.47392913385827
 20
-9.999204724409449
 10
-12.47211023622047
 20
-9.989165354330709
 10
-12.46674409448819
 20
-9.979346456692914
 10
-12.45797244094488
 20
-9.969775590551182
 10
-12.44592913385827
 20
-9.96048031496063
 10
-12.43075196850394
 20
-9.951496062992126
 10
-12.41257874015748
 20
-9.942850393700787
 10
-12.39155118110236
 20
-9.934574803149607
 10
-12.3678031496063
 20
-9.926692913385827
 10
-12.3678031496063
 20
-9.89022440944882
 10
-12.39154724409449
 20
-9.882346456692913
 10
-12.41257086614173
 20
-9.874070866141732
 10
-12.43074409448819
 20
-9.865425196850394
 10
-12.44592125984252
 20
-9.856437007874016
 10
-12.45796456692913
 20
-9.847145669291338
 10
-12.46674409448819
 20
-9.837570866141732
 10
-12.47211023622047
 20
-9.827751968503938
 10
-12.47392913385827
 20
-9.817712598425198
 10
-12.47392913385827
 20
-9.274177165354331
 10
-12.46229133858268
 20
-9.248976377952756
 10
-12.42890551181102
 20
-9.225503937007874
 10
-12.37608661417323
 20
-9.20426377952756
 10
-12.30612992125984
 20
-9.185755905511812
 10
-12.22134251968504
 20
-9.170488188976378
 10
-12.12402755905512
 20
-9.158956692913385
 10
-12.01648818897638
 20
-9.151669291338584
 10
-11.90103149606299
 20
-9.149129921259842
  0
LWPOLYLINE
  5
62
330
1F
100
AcDbEntity
  8
Layer 1
 62
     7
370
    18
100
AcDbPolyline
 90
        9
 70
     0
 43
0.0
 10
-10.03159842519685
 20
-9.683606299212599
 10
-10.03608661417323
 20
-9.685574803149606
 10
-10.0475157480315
 20
-9.69182283464567
 10
-10.06282283464567
 20
-9.702881889763779
 10
-10.07894488188976
 20
-9.719267716535432
 10
-10.09281496062992
 20
-9.741515748031496
 10
-10.10137795275591
 20
-9.770137795275591
 10
-10.10157086614173
 20
-9.805669291338583
 10
-10.09032677165354
 20
-9.848625984251969
  0
LWPOLYLINE
  5
63
330
1F
100
AcDbEntity
  8
Layer 1
 62
     7
370
    18
100
AcDbPolyline
 90
       34
 70
     1
 43
0.0
 10
-11.44625984251969
 20
-9.662444881889764
 10
-11.43902362204724
 20
-9.668791338582677
 10
-11.4325157480315
 20
-9.676055118110236
 10
-11.4268031496063
 20
-9.684161417322835
 10
-11.42196456692913
 20
-9.693015748031495
 10
-11.41807086614173
 20
-9.702535433070866
 10
-11.4151968503937
 20
-9.712641732283464
 10
-11.41342125984252
 20
-9.723244094488189
 10
-11.41281102362205
 20
-9.73426377952756
 10
-11.41436220472441
 20
-9.75175590551181
 10
-11.41880708661417
 20
-9.768047244094488
 10
-11.42584645669291
 20
-9.782791338582678
 10
-11.43516535433071
 20
-9.79563779527559
 10
-11.44646062992126
 20
-9.80623622047244
 10
-11.45942913385827
 20
-9.814240157480315
 10
-11.47375984251969
 20
-9.819295275590552
 10
-11.48914960629921
 20
-9.821059055118111
 10
-11.50453937007874
 20
-9.819295275590552
 10
-11.51887007874016
 20
-9.814240157480315
 10
-11.53183858267717
 20
-9.80623622047244
 10
-11.54313385826772
 20
-9.79563779527559
 10
-11.55245275590551
 20
-9.782791338582678
 10
-11.55949212598425
 20
-9.768047244094488
 10
-11.56393700787402
 20
-9.75175590551181
 10
-11.56548818897638
 20
-9.73426377952756
 10
-11.56444094488189
 20
-9.719846456692913
 10
-11.5614094488189
 20
-9.706192913385827
 10
-11.55656299212598
 20
-9.6935
 10
-11.55007086614173
 20
-9.681952755905511
 10
-11.54210236220472
 20
-9.671744094488188
 10
-11.53282677165354
 20
-9.663070866141732
 10
-11.5224094488189
 20
-9.656122047244095
 10
-11.51102362204724
 20
-9.651090551181102
 10
-11.44625984251969
 20
-9.662444881889764
  0
LWPOLYLINE
  5
64
330
1F
100
AcDbEntity
  8
Layer 1
 62
     7
370
     9
100
AcDbPolyline
 90
       45
 70
     0
 43
0.0
 10
-11.43542125984252
 20
-10.25545669291339
 10
-11.43415748031496
 20
-10.25993700787402
 10
-11.42898031496063
 20
-10.27195669291339
 10
-11.41782283464567
 20
-10.28938188976378
 10
-11.39862204724409
 20
-10.31007874015748
 10
-11.3693031496063
 20
-10.33191338582677
 10
-11.3278031496063
 20
-10.35275590551181
 10
-11.27204724409449
 20
-10.37046850393701
 10
-11.19996850393701
 20
-10.38292125984252
 10
-11.08335826771654
 20
-10.39944094488189
 10
-10.91020472440945
 20
-10.4278779527559
 10
-10.70272047244094
 20
-10.46387795275591
 10
-10.48312992125984
 20
-10.5030905511811
 10
-10.27365748031496
 20
-10.54116535433071
 10
-10.09652362204724
 20
-10.57374803149606
 10
-9.973944881889764
 20
-10.59649212598425
 10
-9.928149606299213
 20
-10.60503937007874
 10
-9.90201968503937
 20
-10.60840551181102
 10
-9.831511811023622
 20
-10.62124015748032
 10
-9.728448818897638
 20
-10.64762992125984
 10
-9.604661417322834
 20
-10.69167322834646
 10
-9.471968503937008
 20
-10.75746456692913
 10
-9.342196850393702
 20
-10.84909448818898
 10
-9.227169291338583
 20
-10.97065748031496
 10
-9.138712598425197
 20
-11.12625196850394
 10
-9.138712598425197
 20
-11.18196456692913
 10
-9.667807086614173
 20
-11.39438188976378
 10
-9.694507874015748
 20
-11.37644094488189
 10
-9.698834645669292
 20
-11.36550393700787
 10
-9.711913385826772
 20
-11.33655511811024
 10
-9.733874015748032
 20
-11.29538188976378
 10
-9.764862204724409
 20
-11.24778346456693
 10
-9.805011811023622
 20
-11.19954724409449
 10
-9.85446062992126
 20
-11.15646850393701
 10
-9.913350393700787
 20
-11.12433464566929
 10
-9.98181496062992
 20
-11.10894094488189
 10
-11.53225196850394
 20
-10.81870472440945
 10
-11.53593700787401
 20
-10.81811811023622
 10
-11.54593700787402
 20
-10.81605905511811
 10
-11.56066535433071
 20
-10.81205511811024
 10
-11.57853149606299
 20
-10.80564566929134
 10
-11.59794881889764
 20
-10.79637401574803
 10
-11.61733070866142
 20
-10.78377559055118
 10
-11.6350905511811
 20
-10.76738188976378
 10
-11.64964173228346
 20
-10.74673622047244
  0
LWPOLYLINE
  5
65
330
1F
100
AcDbEntity
  8
Layer 1
 62
     7
370
     9
100
AcDbPolyline
 90
       28
 70
     1
 43
0.0
 10
-9.679799212598425
 20
-11.39918897637795
 10
-9.454055118110237
 20
-11.73575590551181
 10
-9.452846456692914
 20
-11.73713779527559
 10
-9.449311023622048
 20
-11.74064566929134
 10
-9.443590551181103
 20
-11.74531102362205
 10
-9.435814960629921
 20
-11.75016929133858
 10
-9.426129921259843
 20
-11.75425196850394
 10
-9.414669291338583
 20
-11.75660236220472
 10
-9.401566929133859
 20
-11.75624803149606
 10
-9.386968503937007
 20
-11.75222834645669
 10
-8.938106299212599
 20
-11.5780157480315
 10
-8.936405511811024
 20
-11.57693307086614
 10
-8.932
 20
-11.57381889763779
 10
-8.925956692913386
 20
-11.5688779527559
 10
-8.91932283464567
 20
-11.56230708661417
 10
-8.913157480314961
 20
-11.55431496062992
 10
-8.908515748031496
 20
-11.54509448818898
 10
-8.906456692913386
 20
-11.53485826771653
 10
-8.908035433070866
 20
-11.52379921259842
 10
-8.920220472440946
 20
-11.50014173228347
 10
-8.94611811023622
 20
-11.45668503937008
 10
-8.981003937007873
 20
-11.40050393700787
 10
-9.020153543307087
 20
-11.33867716535433
 10
-9.058830708661418
 20
-11.27827559055118
 10
-9.092311023622047
 20
-11.22637007874016
 10
-9.115866141732283
 20
-11.19003937007874
 10
-9.124767716535434
 20
-11.17635826771654
 10
-9.679799212598425
 20
-11.39918897637795
  0
LWPOLYLINE
  5
66
330
1F
100
AcDbEntity
  8
Layer 1
 62
     7
370
    18
100
AcDbPolyline
 90
        9
 70
     0
 43
0.0
 10
-12.44135039370079
 20
-9.306751968503937
 10
-12.42000787401575
 20
-9.313870078740157
 10
-12.35898818897638
 20
-9.331566929133858
 10
-12.26281496062992
 20
-9.354342519685039
 10
-12.13600787401575
 20
-9.376700787401575
 10
-11.98308661417323
 20
-9.393141732283464
 10
-11.80856299212598
 20
-9.398181102362205
 10
-11.61696850393701
 20
-9.386311023622048
 10
-11.41281102362205
 20
-9.35203937007874
  0
LWPOLYLINE
  5
67
330
1F
100
AcDbEntity
  8
Layer 1
 62
     7
370
    18
100
AcDbPolyline
 90
        9
 70
     0
 43
0.0
 10
-12.31516535433071
 20
-9.908547244094489
 10
-12.29290551181102
 20
-9.912133858267717
 10
-12.23123228346457
 20
-9.920850393700787
 10
-12.13778346456693
 20
-9.93161811023622
 10
-12.02021653543307
 20
-9.941358267716536
 10
-11.88617322834646
 20
-9.946996062992126
 10
-11.74330708661417
 20
-9.945456692913385
 10
-11.59926377952756
 20
-9.933665354330708
 10
-11.46168897637795
 20
-9.908547244094489
  0
LWPOLYLINE
  5
68
330
1F
100
AcDbEntity
  8
Layer 1
 62
     7
370
    18
100
AcDbPolyline
 90
       17
 70
     0
 43
0.0
 10
-12.40556299212598
 20
-10.02655905511811
 10
-12.39627165354331
 20
-10.03077952755905
 10
-12.36896850393701
 20
-10.04191732283465
 10
-12.32453543307087
 20
-10.05768897637795
 10
-12.26383070866142
 20
-10.07581102362205
 10
-12.18773228346457
 20
-10.09400393700787
 10
-12.0971062992126
 20
-10.10997637795276
 10
-11.99282283464567
 20
-10.12144881889764
 10
-11.87575590551181
 20
-10.12613779527559
 10
-11.76323228346457
 20
-10.12457086614173
 10
-11.67042519685039
 20
-10.11922834645669
 10
-11.5949842519685
 20
-10.11077559055118
 10
-11.53454330708662
 20
-10.09985433070866
 10
-11.48675196850394
 20
-10.08712204724409
 10
-11.44924803149606
 20
-10.07323622047244
 10
-11.41967716535433
 20
-10.05884645669291
 10
-11.39568110236221
 20
-10.0446062992126
  0
LWPOLYLINE
  5
69
330
1F
100
AcDbEntity
  8
Layer 1
 62
     7
370
    18
100
AcDbPolyline
 90
        9
 70
     0
 43
0.0
 10
-12.5446811023622
 20
-12.85554724409449
 10
-12.41696456692913
 20
-12.90615354330709
 10
-12.26179921259843
 20
-12.94277165354331
 10
-12.08815354330709
 20
-12.96522440944882
 10
-11.90499606299213
 20
-12.97332677165354
 10
-11.7212874015748
 20
-12.96690157480315
 10
-11.54600393700787
 20
-12.94576377952756
 10
-11.3881062992126
 20
-12.90973228346457
 10
-11.25656692913386
 20
-12.85862598425197
  0
LWPOLYLINE
  5
6A
330
1F
100
AcDbEntity
  8
Layer 1
 62
     7
370
    18
100
AcDbPolyline
 90
        9
 70
     0
 43
0.0
 10
-12.41637795275591
 20
-12.78888976377953
 10
-12.32107086614173
 20
-12.82237795275591
 10
-12.2002125984252
 20
-12.8477874015748
 10
-12.06238582677165
 20
-12.86437401574803
 10
-11.91618897637795
 20
-12.87140157480315
 10
-11.77020472440945
 20
-12.86811417322835
 10
-11.63303543307087
 20
-12.85377559055118
 10
-11.51325984251969
 20
-12.82763779527559
 10
-11.41948031496063
 20
-12.78895669291339
  0
LWPOLYLINE
  5
6B
330
1F
100
AcDbEntity
  8
Layer 1
 62
     7
370
    18
100
AcDbPolyline
 90
        2
 70
     0
 43
0.0
 10
-12.87451181102362
 20
-9.217677165354331
 10
-12.87451181102362
 20
-13.15984645669291
  0
LWPOLYLINE
  5
6C
330
1F
100
AcDbEntity
  8
Layer 1
 62
     7
370
    18
100
AcDbPolyline
 90
        2
 70
     0
 43
0.0
 10
-12.56256692913386
 20
-13.30946456692913
 10
-11.23602362204724
 20
-13.30946456692913
  0
LWPOLYLINE
  5
6D
330
1F
100
AcDbEntity
  8
Layer 1
 62
     7
370
    18
100
AcDbPolyline
 90
        2
 70
     0
 43
0.0
 10
-12.56257874015748
 20
-13.36738188976378
 10
-12.56257874015748
 20
-13.25155511811024
  0
LWPOLYLINE
  5
6E
330
1F
100
AcDbEntity
  8
Layer 1
 62
     7
370
    18
100
AcDbPolyline
 90
        2
 70
     0
 43
0.0
 10
-12.93242913385827
 20
-13.15984645669291
 10
-12.81660236220472
 20
-13.15984645669291
  0
LWPOLYLINE
  5
6F
330
1F
100
AcDbEntity
  8
Layer 1
 62
     7
370
    18
100
AcDbPolyline
 90
        2
 70
     0
 43
0.0
 10
-11.23601968503937
 20
-13.36738188976378
 10
-11.23601968503937
 20
-13.25155511811024
  0
LWPOLYLINE
  5
70
330
1F
100
AcDbEntity
  8
Layer 1
 62
     7
370
    18
100
AcDbPolyline
 90
        2
 70
     0
 43
0.0
 10
-12.93242913385827
 20
-9.217677165354331
 10
-12.81660236220472
 20
-9.217677165354331
  0
LWPOLYLINE
  5
71
330
1F
100
AcDbEntity
  8
Layer 1
 62
     7
370
     9
100
AcDbPolyline
 90
      116
 70
     1
 43
0.0
 10
-12.01226377952756
 20
-13.54431102362205
 10
-11.99842519685039
 20
-13.48955905511811
 10
-11.9244094488189
 20
-13.48955905511811
 10
-11.9244094488189
 20
-13.46849212598425
 10
-12.01437401574803
 20
-13.46849212598425
 10
-12.03783464566929
 20
-13.56025590551181
 10
-12.01496850393701
 20
-13.57048031496063
 10
-12.01165354330709
 20
-13.56822440944882
 10
-12.00817322834646
 20
-13.56626771653543
 10
-12.00452755905512
 20
-13.56461417322835
 10
-12.00072047244094
 20
-13.56325984251968
 10
-11.99674409448819
 20
-13.56220866141732
 10
-11.9926062992126
 20
-13.56145669291339
 10
-11.98829921259843
 20
-13.56100393700787
 10
-11.98383070866142
 20
-13.56085433070866
 10
-11.97933858267717
 20
-13.56107480314961
 10
-11.97499212598425
 20
-13.56173622047244
 10
-11.9708031496063
 20
-13.56284251968504
 10
-11.96675984251969
 20
-13.56438976377953
 10
-11.96286614173228
 20
-13.56637795275591
 10
-11.95912598425197
 20
-13.56881102362205
 10
-11.95553543307087
 20
-13.57168503937008
 10
-11.95209448818898
 20
-13.575
 10
-11.94885039370079
 20
-13.5786968503937
 10
-11.94603937007874
 20
-13.58252755905512
 10
-11.94366141732283
 20
-13.58649606299213
 10
-11.94171653543307
 20
-13.59060236220472
 10
-11.94020472440945
 20
-13.59484645669291
 10
-11.93912204724409
 20
-13.59922440944882
 10
-11.93847637795276
 20
-13.60374015748032
 10
-11.93825984251968
 20
-13.60838976377953
 10
-11.93848031496063
 20
-13.61320078740157
 10
-11.93914173228347
 20
-13.61782283464567
 10
-11.94024803149606
 20
-13.62224803149606
 10
-11.94179133858268
 20
-13.62648031496063
 10
-11.94377952755906
 20
-13.63052362204724
 10
-11.94620866141732
 20
-13.63437007874016
 10
-11.94907874015748
 20
-13.63802755905512
 10
-11.9523937007874
 20
-13.64148818897638
 10
-11.95582677165354
 20
-13.64448818897638
 10
-11.9595
 20
-13.64716535433071
 10
-11.96342125984252
 20
-13.64952362204724
 10
-11.96758661417323
 20
-13.65156299212599
 10
-11.97212204724409
 20
-13.65320866141732
 10
-11.97714173228346
 20
-13.65438582677165
 10
-11.98264960629921
 20
-13.6550905511811
 10
-11.98864960629921
 20
-13.65532677165354
 10
-11.99176771653543
 20
-13.65519291338583
 10
-11.99488582677165
 20
-13.65479921259842
 10
-11.99799606299213
 20
-13.65414173228347
 10
-12.00109842519685
 20
-13.65322047244094
 10
-12.0041968503937
 20
-13.65203543307087
 10
-12.00729527559055
 20
-13.65058661417323
 10
-12.01038188976378
 20
-13.6488779527559
 10
-12.01346850393701
 20
-13.64690551181102
 10
-12.01644094488189
 20
-13.64472047244094
 10
-12.01918503937008
 20
-13.64237007874016
 10
-12.02170472440945
 20
-13.63986614173228
 10
-12.024
 20
-13.6371968503937
 10
-12.02606692913386
 20
-13.63437007874016
 10
-12.0279094488189
 20
-13.63138582677165
 10
-12.02952755905512
 20
-13.62824015748031
 10
-12.03091732283464
 20
-13.62493307086614
 10
-12.05137401574803
 20
-13.63155511811024
 10
-12.04936614173228
 20
-13.63650787401575
 10
-12.04701968503937
 20
-13.64120866141732
 10
-12.04434251968504
 20
-13.64566535433071
 10
-12.04133070866142
 20
-13.64987007874016
 10
-12.03798818897638
 20
-13.65382677165354
 10
-12.03430708661417
 20
-13.65753149606299
 10
-12.03029527559055
 20
-13.66098818897638
 10
-12.02594881889764
 20
-13.6641968503937
 10
-12.02132677165354
 20
-13.66712204724409
 10
-12.0166062992126
 20
-13.66966141732284
 10
-12.01177952755905
 20
-13.67180708661417
 10
-12.00684645669291
 20
-13.67356299212598
 10
-12.00181496062992
 20
-13.67492913385827
 10
-11.99667716535433
 20
-13.6759094488189
 10
-11.99143700787402
 20
-13.67649212598425
 10
-11.9860905511811
 20
-13.67668897637795
 10
-11.97896850393701
 20
-13.67636614173228
 10
-11.97211811023622
 20
-13.67540157480315
 10
-11.96554330708661
 20
-13.6737874015748
 10
-11.95924015748031
 20
-13.67153543307087
 10
-11.9532125984252
 20
-13.66863385826772
 10
-11.94745275590551
 20
-13.6650905511811
 10
-11.94196850393701
 20
-13.66090157480315
 10
-11.93675590551181
 20
-13.65607086614173
 10
-11.93203149606299
 20
-13.65083070866142
 10
-11.92793307086614
 20
-13.64532677165354
 10
-11.92446850393701
 20
-13.63956692913386
 10
-11.92163385826772
 20
-13.63355118110236
 10
-11.91943307086614
 20
-13.62727165354331
 10
-11.91785826771654
 20
-13.62073622047244
 10
-11.91691338582677
 20
-13.61394094488189
 10
-11.91659842519685
 20
-13.60688582677165
 10
-11.9169094488189
 20
-13.59987007874016
 10
-11.91783858267716
 20
-13.59314960629921
 10
-11.91938976377953
 20
-13.58672834645669
 10
-11.92156299212598
 20
-13.58059842519685
 10
-11.92435039370079
 20
-13.57476771653543
 10
-11.92776377952756
 20
-13.56923228346457
 10
-11.93179527559055
 20
-13.56399212598425
 10
-11.93644488188976
 20
-13.55905118110236
 10
-11.9413031496063
 20
-13.55477165354331
 10
-11.94653149606299
 20
-13.55096456692913
 10
-11.95212992125984
 20
-13.54762598425197
 10
-11.9581062992126
 20
-13.54475590551181
 10
-11.96433464566929
 20
-13.54245275590551
 10
-11.97066535433071
 20
-13.54080708661417
 10
-11.97709842519685
 20
-13.53982283464567
 10
-11.98362992125984
 20
-13.53949212598425
 10
-11.99038188976378
 20
-13.53979527559055
 10
-11.99740157480315
 20
-13.5406968503937
 10
-12.00469291338583
 20
-13.54220472440945
 10
-12.01226377952756
 20
-13.54431102362205
  0
LWPOLYLINE
  5
72
330
1F
100
AcDbEntity
  8
Layer 1
 62
     7
370
     9
100
AcDbPolyline
 90
       70
 70
     1
 43
0.0
 10
-11.8000157480315
 20
-13.49226377952756
 10
-11.79653937007874
 20
-13.49462204724409
 10
-11.79329921259843
 20
-13.4973031496063
 10
-11.79029527559055
 20
-13.50029921259843
 10
-11.78752755905512
 20
-13.50361811023622
 10
-11.78499212598425
 20
-13.50725590551181
 10
-11.78269291338583
 20
-13.5112125984252
 10
-11.78062992125984
 20
-13.51549212598425
 10
-11.7788031496063
 20
-13.5200905511811
 10
-11.77675590551181
 20
-13.52619291338583
 10
-11.7749842519685
 20
-13.53238188976378
 10
-11.7734842519685
 20
-13.53865748031496
 10
-11.77225984251968
 20
-13.54502755905512
 10
-11.77130708661417
 20
-13.5514842519685
 10
-11.77062598425197
 20
-13.55802755905512
 10
-11.77022047244095
 20
-13.56466141732284
 10
-11.77008267716535
 20
-13.57138582677165
 10
-11.77097637795276
 20
-13.58627952755906
 10
-11.77201968503937
 20
-13.59436614173228
 10
-11.77338188976378
 20
-13.60200787401575
 10
-11.77506692913386
 20
-13.60920078740157
 10
-11.77707086614173
 20
-13.61594881889764
 10
-11.7793937007874
 20
-13.62224803149606
 10
-11.78203543307087
 20
-13.62810236220473
 10
-11.78499606299213
 20
-13.63351181102362
 10
-11.78827952755906
 20
-13.63847244094488
 10
-11.79127559055118
 20
-13.6422125984252
 10
-11.79442913385827
 20
-13.64545275590551
 10
-11.79774015748031
 20
-13.64819291338583
 10
-11.80121653543307
 20
-13.65043700787402
 10
-11.80485039370079
 20
-13.6521811023622
 10
-11.80864173228346
 20
-13.65342519685039
 10
-11.81259448818898
 20
-13.65417322834646
 10
-11.81670866141732
 20
-13.65442125984252
 10
-11.82129921259843
 20
-13.65417322834646
 10
-11.82566929133858
 20
-13.65343307086614
 10
-11.82981889763779
 20
-13.65220078740158
 10
-11.83374803149606
 20
-13.65047244094488
 10
-11.83745275590551
 20
-13.64825196850394
 10
-11.84094094488189
 20
-13.64553543307087
 10
-11.84420866141732
 20
-13.64233070866142
 10
-11.84725196850394
 20
-13.63862992125984
 10
-11.84977165354331
 20
-13.63498031496063
 10
-11.85206299212599
 20
-13.6311062992126
 10
-11.85412992125984
 20
-13.62700787401575
 10
-11.85597244094488
 20
-13.62268503937008
 10
-11.86123622047244
 20
-13.60447637795276
 10
-11.86379527559055
 20
-13.58642913385827
 10
-11.86454330708661
 20
-13.56632283464567
 10
-11.86433858267717
 20
-13.56030708661417
 10
-11.86371653543307
 20
-13.5536062992126
 10
-11.86268503937008
 20
-13.54621653543307
 10
-11.86123622047244
 20
-13.53813779527559
 10
-11.85612204724409
 20
-13.51994094488189
 10
-11.85434251968504
 20
-13.51554330708661
 10
-11.85232283464567
 20
-13.51137007874016
 10
-11.85005905511811
 20
-13.50741732283465
 10
-11.84755118110236
 20
-13.50369291338583
 10
-11.8447874015748
 20
-13.50025984251969
 10
-11.84175590551181
 20
-13.49718503937008
 10
-11.83846456692913
 20
-13.49446456692913
 10
-11.83490551181102
 20
-13.4921062992126
 10
-11.83105511811024
 20
-13.49020078740157
 10
-11.82686614173228
 20
-13.48883858267716
 10
-11.82233464566929
 20
-13.4880157480315
 10
-11.81746456692913
 20
-13.48774409448819
 10
-11.8125905511811
 20
-13.48802755905512
 10
-11.80806299212598
 20
-13.48887401574803
 10
-11.80387007874016
 20
-13.49028346456693
 10
-11.8000157480315
 20
-13.49226377952756
  0
LWPOLYLINE
  5
73
330
1F
100
AcDbEntity
  8
Layer 1
 62
     7
370
     9
100
AcDbPolyline
 90
       65
 70
     1
 43
0.0
 10
-11.8164094488189
 20
-13.67578346456693
 10
-11.80762598425197
 20
-13.67522440944882
 10
-11.79940157480315
 20
-13.67355511811024
 10
-11.79173622047244
 20
-13.67076771653543
 10
-11.78463385826772
 20
-13.66687007874016
 10
-11.77808661417323
 20
-13.66185826771654
 10
-11.77209842519685
 20
-13.65572834645669
 10
-11.76667322834646
 20
-13.64848818897638
 10
-11.76180708661417
 20
-13.64013385826772
 10
-11.75838582677165
 20
-13.63284251968504
 10
-11.75542125984252
 20
-13.62514566929134
 10
-11.75291338582677
 20
-13.61704724409449
 10
-11.75086220472441
 20
-13.60854330708661
 10
-11.74926771653543
 20
-13.59963385826772
 10
-11.74812598425197
 20
-13.59032283464567
 10
-11.74744488188976
 20
-13.58060236220472
 10
-11.74721653543307
 20
-13.57048031496063
 10
-11.74744488188976
 20
-13.56036220472441
 10
-11.74812598425197
 20
-13.55064566929134
 10
-11.74926771653543
 20
-13.54133070866142
 10
-11.75086220472441
 20
-13.53242519685039
 10
-11.75291338582677
 20
-13.52392125984252
 10
-11.75542125984252
 20
-13.51581889763779
 10
-11.75838582677165
 20
-13.50812598425197
 10
-11.76180708661417
 20
-13.50083464566929
 10
-11.76667322834646
 20
-13.49247637795276
 10
-11.77209842519685
 20
-13.48523622047244
 10
-11.77808661417323
 20
-13.47911023622047
 10
-11.78463385826772
 20
-13.47409842519685
 10
-11.79173622047244
 20
-13.47020078740158
 10
-11.79940157480315
 20
-13.46741732283465
 10
-11.80762598425197
 20
-13.46574409448819
 10
-11.8164094488189
 20
-13.46518897637795
 10
-11.82519291338583
 20
-13.46574409448819
 10
-11.83341732283465
 20
-13.46741732283465
 10
-11.84108267716536
 20
-13.47020078740158
 10
-11.84818503937008
 20
-13.47409842519685
 10
-11.85473228346457
 20
-13.47911023622047
 10
-11.86071653543307
 20
-13.48523622047244
 10
-11.86614566929134
 20
-13.49247637795276
 10
-11.87101181102362
 20
-13.50083464566929
 10
-11.87443307086614
 20
-13.50812598425197
 10
-11.87739763779528
 20
-13.51581889763779
 10
-11.87990551181102
 20
-13.52392125984252
 10
-11.88196062992126
 20
-13.53242519685039
 10
-11.88355511811024
 20
-13.54133070866142
 10
-11.88469291338583
 20
-13.55064566929134
 10
-11.88537795275591
 20
-13.56036220472441
 10
-11.8856062992126
 20
-13.57048031496063
 10
-11.88537795275591
 20
-13.58060236220472
 10
-11.88469291338583
 20
-13.59032283464567
 10
-11.88355511811024
 20
-13.59963385826772
 10
-11.88196062992126
 20
-13.60854330708661
 10
-11.87990551181102
 20
-13.61704724409449
 10
-11.87739763779528
 20
-13.62514566929134
 10
-11.87443307086614
 20
-13.63284251968504
 10
-11.87101181102362
 20
-13.64013385826772
 10
-11.86614566929134
 20
-13.64848818897638
 10
-11.86071653543307
 20
-13.65572834645669
 10
-11.85473228346457
 20
-13.66185826771654
 10
-11.84818503937008
 20
-13.66687007874016
 10
-11.84108267716536
 20
-13.67076771653543
 10
-11.83341732283465
 20
-13.67355511811024
 10
-11.82519291338583
 20
-13.67522440944882
 10
-11.8164094488189
 20
-13.67578346456693
  0
LWPOLYLINE
  5
74
330
1F
100
AcDbEntity
  8
Layer 1
 62
     7
370
     9
100
AcDbPolyline
 90
        7
 70
     1
 43
0.0
 10
-13.07585039370079
 20
-11.31286220472441
 10
-13.07585039370079
 20
-11.29180708661417
 10
-13.28284251968504
 20
-11.29180708661417
 10
-13.27742519685039
 20
-11.34235039370079
 10
-13.25907086614173
 20
-11.34235039370079
 10
-13.25907086614173
 20
-11.31286220472441
 10
-13.07585039370079
 20
-11.31286220472441
  0
LWPOLYLINE
  5
75
330
1F
100
AcDbEntity
  8
Layer 1
 62
     7
370
     9
100
AcDbPolyline
 90
        7
 70
     1
 43
0.0
 10
-13.07585039370079
 20
-11.2265157480315
 10
-13.07585039370079
 20
-11.20546062992126
 10
-13.28284251968504
 20
-11.20546062992126
 10
-13.27742519685039
 20
-11.256
 10
-13.25907086614173
 20
-11.256
 10
-13.25907086614173
 20
-11.2265157480315
 10
-13.07585039370079
 20
-11.2265157480315
  0
LWPOLYLINE
  5
76
330
1F
100
AcDbEntity
  8
Layer 1
 62
     7
370
     9
100
AcDbPolyline
 90
      116
 70
     1
 43
0.0
 10
-13.20461811023622
 20
-11.13083858267717
 10
-13.25937007874016
 20
-11.117
 10
-13.25937007874016
 20
-11.04298818897638
 10
-13.28043307086614
 20
-11.04298818897638
 10
-13.28043307086614
 20
-11.13294881889764
 10
-13.18866929133858
 20
-11.15641338582677
 10
-13.17844488188976
 20
-11.13354724409449
 10
-13.18070078740157
 20
-11.13023228346457
 10
-13.18265748031496
 20
-11.12674803149606
 10
-13.18431102362205
 20
-11.1231062992126
 10
-13.18566535433071
 20
-11.11929527559055
 10
-13.18671653543307
 20
-11.1153188976378
 10
-13.18746850393701
 20
-11.1111811023622
 10
-13.18792125984252
 20
-11.10687401574803
 10
-13.18807086614173
 20
-11.10240551181102
 10
-13.18785039370079
 20
-11.09791338582677
 10
-13.18718897637795
 20
-11.09356692913386
 10
-13.18608267716535
 20
-11.08937795275591
 10
-13.18453543307087
 20
-11.08533464566929
 10
-13.18254724409449
 20
-11.08144094488189
 10
-13.18011811023622
 20
-11.07770078740158
 10
-13.17724409448819
 20
-11.07411023622047
 10
-13.17392519685039
 20
-11.07066929133858
 10
-13.17023228346457
 20
-11.06742519685039
 10
-13.16639763779528
 20
-11.06461417322835
 10
-13.16242913385827
 20
-11.06223622047244
 10
-13.15832283464567
 20
-11.06029133858268
 10
-13.15408267716535
 20
-11.05877952755906
 10
-13.14970472440945
 20
-11.0576968503937
 10
-13.14518897637795
 20
-11.05705118110236
 10
-13.14053937007874
 20
-11.05683464566929
 10
-13.13572834645669
 20
-11.05705511811024
 10
-13.1311062992126
 20
-11.05771653543307
 10
-13.12668110236221
 20
-11.05882283464567
 10
-13.12244488188976
 20
-11.06037007874016
 10
-13.11840551181102
 20
-11.06235433070866
 10
-13.11455511811024
 20
-11.0647874015748
 10
-13.11090157480315
 20
-11.06765748031496
 10
-13.10743700787402
 20
-11.07096850393701
 10
-13.10444094488189
 20
-11.07440157480315
 10
-13.10176377952756
 20
-11.07807480314961
 10
-13.09940157480315
 20
-11.08199606299213
 10
-13.09736220472441
 20
-11.08616141732283
 10
-13.09571653543307
 20
-11.0906968503937
 10
-13.09454330708661
 20
-11.09571653543307
 10
-13.09383858267717
 20
-11.10122440944882
 10
-13.09360236220472
 20
-11.10722440944882
 10
-13.09373228346457
 20
-11.11034251968504
 10
-13.09412992125984
 20
-11.11346062992126
 10
-13.0947874015748
 20
-11.11657086614173
 10
-13.09570866141732
 20
-11.11967322834646
 10
-13.0968937007874
 20
-11.12277165354331
 10
-13.09834251968504
 20
-11.12587007874016
 10
-13.10005118110236
 20
-11.12895669291339
 10
-13.10202362204724
 20
-11.13204330708661
 10
-13.10420866141732
 20
-11.1350157480315
 10
-13.10655511811024
 20
-11.13775984251969
 10
-13.10906299212598
 20
-11.14027952755906
 10
-13.11172834645669
 20
-11.14257480314961
 10
-13.11455511811024
 20
-11.14464173228346
 10
-13.11753937007874
 20
-11.1464842519685
 10
-13.12068503937008
 20
-11.14810236220472
 10
-13.12399212598425
 20
-11.14949212598425
 10
-13.11737401574803
 20
-11.16994881889764
 10
-13.11242125984252
 20
-11.16794094488189
 10
-13.10771653543307
 20
-11.16559448818898
 10
-13.10326377952756
 20
-11.16292125984252
 10
-13.09905905511811
 20
-11.1599094488189
 10
-13.09510236220472
 20
-11.15656299212598
 10
-13.0913937007874
 20
-11.15288582677165
 10
-13.08793700787402
 20
-11.14887401574803
 10
-13.08473228346457
 20
-11.14452755905512
 10
-13.0818031496063
 20
-11.13990551181102
 10
-13.07926771653543
 20
-11.13518110236221
 10
-13.07711811023622
 20
-11.13035433070866
 10
-13.07536220472441
 20
-11.12542519685039
 10
-13.07399606299213
 20
-11.12038976377953
 10
-13.07301968503937
 20
-11.11525196850394
 10
-13.07243307086614
 20
-11.11001181102362
 10
-13.07223622047244
 20
-11.10466535433071
 10
-13.07255905511811
 20
-11.09754330708661
 10
-13.07352755905512
 20
-11.09069291338583
 10
-13.07513779527559
 20
-11.08411811023622
 10
-13.0773937007874
 20
-11.07781496062992
 10
-13.08029133858268
 20
-11.0717874015748
 10
-13.08383464566929
 20
-11.06602755905512
 10
-13.08802362204724
 20
-11.06054330708661
 10
-13.09285433070866
 20
-11.05533070866142
 10
-13.09809842519685
 20
-11.0506062992126
 10
-13.10359842519685
 20
-11.04651181102362
 10
-13.10935826771654
 20
-11.04304724409449
 10
-13.1153779527559
 20
-11.0402125984252
 10
-13.12165354330709
 20
-11.03800787401575
 10
-13.12819291338583
 20
-11.03643307086614
 10
-13.1349842519685
 20
-11.03548818897638
 10
-13.14203937007874
 20
-11.03517322834646
 10
-13.14905511811024
 20
-11.0354842519685
 10
-13.15577559055118
 20
-11.03641338582677
 10
-13.16220078740158
 20
-11.03796456692913
 10
-13.16832677165354
 20
-11.04013779527559
 10
-13.17415748031496
 20
-11.04292913385827
 10
-13.17969291338583
 20
-11.04633858267717
 10
-13.18493307086614
 20
-11.05037007874016
 10
-13.18987401574803
 20
-11.05502362204724
 10
-13.19415354330709
 20
-11.05987795275591
 10
-13.19796062992126
 20
-11.0651062992126
 10
-13.20129921259842
 20
-11.07070866141732
 10
-13.20416929133858
 20
-11.07668503937008
 10
-13.20647244094488
 20
-11.0829094488189
 10
-13.20811811023622
 20
-11.08924015748032
 10
-13.2091062992126
 20
-11.09567322834646
 10
-13.20943700787402
 20
-11.10220472440945
 10
-13.20913385826772
 20
-11.10895669291339
 10
-13.20823228346457
 20
-11.11598031496063
 10
-13.20672440944882
 20
-11.12327165354331
 10
-13.20461811023622
 20
-11.13083858267717
  0
LWPOLYLINE
  5
77
330
1F
100
AcDbEntity
  8
Layer 1
 62
     7
100
AcDbPolyline
 90
      147
 70
     1
 43
0.0
 10
-12.5050157480315
 20
-8.156212598425197
 10
-12.54855511811024
 20
-8.156212598425197
 10
-12.55375590551181
 20
-8.165314960629921
 10
-12.55946062992126
 20
-8.173956692913386
 10
-12.56566929133858
 20
-8.18213779527559
 10
-12.57237795275591
 20
-8.189858267716536
 10
-12.57959448818898
 20
-8.197122047244095
 10
-12.58731102362205
 20
-8.203925196850394
 10
-12.59553149606299
 20
-8.210267716535434
 10
-12.60425590551181
 20
-8.216153543307087
 10
-12.61334251968504
 20
-8.221452755905512
 10
-12.62265354330709
 20
-8.226047244094488
 10
-12.63218110236221
 20
-8.229937007874016
 10
-12.64193307086614
 20
-8.233118110236221
 10
-12.65190551181102
 20
-8.235590551181103
 10
-12.66209448818898
 20
-8.237358267716536
 10
-12.67250787401575
 20
-8.238417322834646
 10
-12.68314173228346
 20
-8.238771653543306
 10
-12.69865748031496
 20
-8.23803937007874
 10
-12.7136062992126
 20
-8.235838582677165
 10
-12.72799212598425
 20
-8.232173228346456
 10
-12.74181102362205
 20
-8.22703937007874
 10
-12.75506299212598
 20
-8.220437007874017
 10
-12.76775196850394
 20
-8.212370078740157
 10
-12.77987401574803
 20
-8.202838582677165
 10
-12.79143307086614
 20
-8.191838582677166
 10
-12.80170472440945
 20
-8.180133858267716
 10
-12.8106062992126
 20
-8.167858267716536
 10
-12.81813779527559
 20
-8.155007874015748
 10
-12.82429921259843
 20
-8.141582677165355
 10
-12.82909448818898
 20
-8.127582677165355
 10
-12.8325157480315
 20
-8.113007874015748
 10
-12.83457086614173
 20
-8.097858267716536
 10
-12.83525590551181
 20
-8.082133858267717
 10
-12.83457086614173
 20
-8.066279527559056
 10
-12.8325157480315
 20
-8.051015748031496
 10
-12.82909448818898
 20
-8.03634251968504
 10
-12.82429921259843
 20
-8.02226377952756
 10
-12.81813779527559
 20
-8.008775590551181
 10
-12.8106062992126
 20
-7.99588188976378
 10
-12.80170472440945
 20
-7.983578740157481
 10
-12.79143307086614
 20
-7.971870078740158
 10
-12.78616141732283
 20
-7.966633858267716
 10
-12.78066929133858
 20
-7.961673228346457
 10
-12.77495669291339
 20
-7.956984251968504
 10
-12.76902362204724
 20
-7.952570866141732
 10
-12.76287007874016
 20
-7.948433070866142
 10
-12.75649606299213
 20
-7.944566929133858
 10
-12.74989763779528
 20
-7.940976377952756
 10
-12.74308267716535
 20
-7.937657480314961
 10
-12.73617322834646
 20
-7.934673228346456
 10
-12.72929921259843
 20
-7.932090551181102
 10
-12.72246062992126
 20
-7.929901574803149
 10
-12.71565748031496
 20
-7.928114173228346
 10
-12.70888976377953
 20
-7.926720472440945
 10
-12.70215748031496
 20
-7.925728346456693
 10
-12.69546062992126
 20
-7.925129921259843
 10
-12.68879921259843
 20
-7.924933070866142
 10
-12.68225590551181
 20
-7.925027559055118
 10
-12.67591732283465
 20
-7.925303149606299
 10
-12.66977952755905
 20
-7.925767716535433
 10
-12.66384645669291
 20
-7.926417322834646
 10
-12.65811417322835
 20
-7.927251968503937
 10
-12.6525905511811
 20
-7.928271653543307
 10
-12.64726377952756
 20
-7.92948031496063
 10
-12.64214566929134
 20
-7.930870078740157
 10
-12.62717716535433
 20
-7.93603937007874
 10
-12.61316535433071
 20
-7.942425196850394
 10
-12.6001062992126
 20
-7.950035433070866
 10
-12.588
 20
-7.95886220472441
 10
-12.57685039370079
 20
-7.968905511811023
 10
-12.56665354330709
 20
-7.980173228346457
 10
-12.55741338582677
 20
-7.992657480314961
 10
-12.54912598425197
 20
-8.00636220472441
 10
-12.50558267716535
 20
-8.00636220472441
 10
-12.51144094488189
 20
-7.99298031496063
 10
-12.51812992125984
 20
-7.980263779527559
 10
-12.52564960629921
 20
-7.968204724409449
 10
-12.534
 20
-7.956811023622048
 10
-12.5431811023622
 20
-7.946082677165355
 10
-12.55319291338583
 20
-7.936011811023622
 10
-12.56403149606299
 20
-7.926610236220473
 10
-12.57570472440945
 20
-7.917866141732284
 10
-12.58796062992126
 20
-7.90998031496063
 10
-12.60055118110236
 20
-7.903145669291338
 10
-12.61347637795276
 20
-7.897362204724409
 10
-12.62673622047244
 20
-7.892629921259842
 10
-12.64033464566929
 20
-7.888948818897638
 10
-12.65426771653543
 20
-7.886318897637795
 10
-12.66853543307087
 20
-7.884744094488189
 10
-12.68314173228346
 20
-7.884216535433071
 10
-12.70274409448819
 20
-7.885133858267716
 10
-12.72161417322835
 20
-7.887893700787401
 10
-12.73974803149606
 20
-7.892488188976378
 10
-12.75714960629921
 20
-7.898917322834646
 10
-12.7738188976378
 20
-7.907188976377952
 10
-12.78975196850394
 20
-7.917295275590551
 10
-12.80495275590551
 20
-7.929244094488189
 10
-12.81942125984252
 20
-7.943027559055118
 10
-12.82574803149606
 20
-7.949952755905512
 10
-12.83172047244095
 20
-7.957149606299213
 10
-12.83734251968504
 20
-7.964618110236221
 10
-12.8426062992126
 20
-7.972362204724409
 10
-12.84751968503937
 20
-7.980381889763779
 10
-12.85207874015748
 20
-7.988673228346457
 10
-12.85628346456693
 20
-7.997236220472441
 10
-12.86013779527559
 20
-8.006074803149607
 10
-12.86358267716535
 20
-8.015118110236221
 10
-12.86656692913386
 20
-8.024295275590552
 10
-12.86909448818898
 20
-8.033606299212599
 10
-12.87116141732283
 20
-8.043047244094488
 10
-12.87277165354331
 20
-8.05261811023622
 10
-12.87392125984252
 20
-8.062326771653543
 10
-12.87461023622047
 20
-8.072165354330709
 10
-12.87483858267717
 20
-8.082133858267717
 10
-12.87397244094488
 20
-8.101956692913387
 10
-12.87137401574803
 20
-8.121066929133859
 10
-12.86704724409449
 20
-8.139456692913386
 10
-12.8609842519685
 20
-8.157133858267716
 10
-12.85319291338583
 20
-8.174090551181102
 10
-12.84366929133858
 20
-8.19033464566929
 10
-12.8324094488189
 20
-8.205866141732283
 10
-12.81942125984252
 20
-8.220677165354331
 10
-12.80495275590551
 20
-8.23446062992126
 10
-12.78975196850394
 20
-8.246405511811023
 10
-12.7738188976378
 20
-8.256511811023621
 10
-12.75714960629921
 20
-8.264783464566928
 10
-12.73974803149606
 20
-8.271212598425198
 10
-12.72161417322835
 20
-8.275807086614174
 10
-12.70274409448819
 20
-8.278566929133857
 10
-12.68314173228346
 20
-8.279484251968505
 10
-12.6685905511811
 20
-8.278948818897637
 10
-12.65433858267717
 20
-8.277346456692914
 10
-12.64038976377953
 20
-8.274673228346456
 10
-12.62673622047244
 20
-8.270933070866143
 10
-12.61338582677165
 20
-8.266122047244094
 10
-12.60033464566929
 20
-8.26024409448819
 10
-12.58758661417323
 20
-8.25329527559055
 10
-12.57513385826772
 20
-8.24527559055118
 10
-12.56337007874016
 20
-8.23646062992126
 10
-12.55246456692913
 20
-8.226984251968505
 10
-12.54241338582677
 20
-8.216846456692913
 10
-12.53322047244095
 20
-8.206043307086615
 10
-12.52488188976378
 20
-8.19457874015748
 10
-12.51740551181102
 20
-8.182452755905512
 10
-12.51077952755906
 20
-8.169665354330709
 10
-12.5050157480315
 20
-8.156212598425197
  0
LWPOLYLINE
  5
78
330
1F
100
AcDbEntity
  8
Layer 1
 62
     7
100
AcDbPolyline
 90
        4
 70
     1
 43
0.0
 10
-12.40775590551181
 20
-8.132464566929134
 10
-12.33763779527559
 20
-7.955464566929134
 10
-12.26779921259842
 20
-8.132464566929134
 10
-12.40775590551181
 20
-8.132464566929134
  0
LWPOLYLINE
  5
79
330
1F
100
AcDbEntity
  8
Layer 1
 62
     7
100
AcDbPolyline
 90
        8
 70
     1
 43
0.0
 10
-12.16912204724409
 20
-8.273830708661418
 10
-12.33763779527559
 20
-7.862728346456693
 10
-12.50671653543307
 20
-8.273830708661418
 10
-12.46374015748031
 20
-8.273830708661418
 10
-12.42226771653543
 20
-8.169220472440944
 10
-12.25338188976378
 20
-8.169220472440944
 10
-12.21209842519685
 20
-8.273830708661418
 10
-12.16912204724409
 20
-8.273830708661418
  0
LWPOLYLINE
  5
7A
330
1F
100
AcDbEntity
  8
Layer 1
 62
     7
100
AcDbPolyline
 90
       88
 70
     1
 43
0.0
 10
-11.97431496062992
 20
-7.933976377952756
 10
-11.9677874015748
 20
-7.938413385826772
 10
-11.9616968503937
 20
-7.943448818897638
 10
-11.95605118110236
 20
-7.949086614173228
 10
-11.95085039370079
 20
-7.955326771653543
 10
-11.94608661417323
 20
-7.962165354330708
 10
-11.94176771653543
 20
-7.969606299212598
 10
-11.93788582677165
 20
-7.977645669291339
 10
-11.93444881889764
 20
-7.986287401574804
 10
-11.9306062992126
 20
-7.997751968503937
 10
-11.92727559055118
 20
-8.00938188976378
 10
-11.92445669291339
 20
-8.021181102362204
 10
-11.92215354330709
 20
-8.033149606299213
 10
-11.92035826771654
 20
-8.045287401574804
 10
-11.91907480314961
 20
-8.057590551181102
 10
-11.91830708661417
 20
-8.070062992125985
 10
-11.91805118110236
 20
-8.082700787401574
 10
-11.91974803149606
 20
-8.110692913385828
 10
-11.92170866141732
 20
-8.125893700787401
 10
-11.92427165354331
 20
-8.140255905511811
 10
-11.92743307086614
 20
-8.153779527559054
 10
-11.93120078740158
 20
-8.166464566929134
 10
-11.93556299212598
 20
-8.178307086614174
 10
-11.94053149606299
 20
-8.189311023622047
 10
-11.94609448818898
 20
-8.199476377952756
 10
-11.95226377952756
 20
-8.208803149606299
 10
-11.95788976377953
 20
-8.215826771653543
 10
-11.9638188976378
 20
-8.221913385826772
 10
-11.97004724409449
 20
-8.227066929133859
 10
-11.97657874015748
 20
-8.231279527559055
 10
-11.98340551181102
 20
-8.23455905511811
 10
-11.99053937007874
 20
-8.236897637795275
 10
-11.99796850393701
 20
-8.238303149606299
 10
-12.00570078740157
 20
-8.238771653543306
 10
-12.01432677165354
 20
-8.238307086614173
 10
-12.02253937007874
 20
-8.236917322834646
 10
-12.03033858267717
 20
-8.23459842519685
 10
-12.03772047244095
 20
-8.231350393700787
 10
-12.04468897637795
 20
-8.227173228346457
 10
-12.05124015748031
 20
-8.222070866141733
 10
-12.05737795275591
 20
-8.216043307086615
 10
-12.06309842519685
 20
-8.209086614173229
 10
-12.06783464566929
 20
-8.202228346456693
 10
-12.07214566929134
 20
-8.194948818897638
 10
-12.07603149606299
 20
-8.18724409448819
 10
-12.07949606299213
 20
-8.179114173228346
 10
-12.08255118110236
 20
-8.170720472440944
 10
-12.08522047244094
 20
-8.162220472440945
 10
-12.0875
 20
-8.153614173228346
 10
-12.08938976377953
 20
-8.14490157480315
 10
-12.09420078740157
 20
-8.110976377952756
 10
-12.09561023622047
 20
-8.073181102362204
 10
-12.09522047244094
 20
-8.061870078740158
 10
-12.09405511811024
 20
-8.049275590551181
 10
-12.09211023622047
 20
-8.035393700787402
 10
-12.08938976377953
 20
-8.020216535433072
 10
-12.0875157480315
 20
-8.011610236220472
 10
-12.08529133858268
 20
-8.00303937007874
 10
-12.08270866141732
 20
-7.994503937007874
 10
-12.07977559055118
 20
-7.986003937007874
 10
-12.07643700787402
 20
-7.977732283464567
 10
-12.07263779527559
 20
-7.969885826771653
 10
-12.06838188976378
 20
-7.962464566929134
 10
-12.06366141732283
 20
-7.955464566929134
 10
-12.06112598425197
 20
-7.952157480314961
 10
-12.05846850393701
 20
-7.949015748031496
 10
-12.05568503937008
 20
-7.946043307086614
 10
-12.05277559055118
 20
-7.943240157480315
 10
-12.04974409448819
 20
-7.940602362204724
 10
-12.0465905511811
 20
-7.938133858267716
 10
-12.04331102362205
 20
-7.935830708661418
 10
-12.0399094488189
 20
-7.933696850393701
 10
-12.03636614173228
 20
-7.931775590551181
 10
-12.03266535433071
 20
-7.930110236220473
 10
-12.0288031496063
 20
-7.928700787401575
 10
-12.02478346456693
 20
-7.927547244094488
 10
-12.0206062992126
 20
-7.926653543307086
 10
-12.01626771653543
 20
-7.926011811023622
 10
-12.01177165354331
 20
-7.925625984251968
 10
-12.00711417322835
 20
-7.9255
 10
-12.00245669291339
 20
-7.925633858267717
 10
-11.99796062992126
 20
-7.926027559055118
 10
-11.9936220472441
 20
-7.926692913385827
 10
-11.98944094488189
 20
-7.927618110236221
 10
-11.98542125984252
 20
-7.928811023622047
 10
-11.98155905511811
 20
-7.930267716535433
 10
-11.97785826771653
 20
-7.931988188976378
 10
-11.97431496062992
 20
-7.933976377952756
  0
LWPOLYLINE
  5
7B
330
1F
100
AcDbEntity
  8
Layer 1
 62
     7
100
AcDbPolyline
 90
       65
 70
     1
 43
0.0
 10
-12.00513385826772
 20
-8.27892125984252
 10
-11.98862204724409
 20
-8.277874015748031
 10
-11.97316535433071
 20
-8.274732283464568
 10
-11.95875984251968
 20
-8.2695
 10
-11.94540551181102
 20
-8.262169291338582
 10
-11.93310236220472
 20
-8.252748031496063
 10
-11.92185039370079
 20
-8.241228346456692
 10
-11.91164960629921
 20
-8.22761811023622
 10
-11.9025
 20
-8.211913385826772
 10
-11.89607086614173
 20
-8.198208661417322
 10
-11.8905
 20
-8.183744094488189
 10
-11.8857874015748
 20
-8.16851968503937
 10
-11.88193307086614
 20
-8.152535433070867
 10
-11.87893307086614
 20
-8.135791338582678
 10
-11.8767874015748
 20
-8.118291338582678
 10
-11.87550393700787
 20
-8.100027559055118
 10
-11.87507480314961
 20
-8.081003937007875
 10
-11.87550393700787
 20
-8.06198031496063
 10
-11.8767874015748
 20
-8.043720472440945
 10
-11.87893307086614
 20
-8.02621653543307
 10
-11.88193307086614
 20
-8.009472440944881
 10
-11.8857874015748
 20
-7.993488188976378
 10
-11.8905
 20
-7.978263779527559
 10
-11.89607086614173
 20
-7.963799212598425
 10
-11.9025
 20
-7.950094488188976
 10
-11.91164960629921
 20
-7.934389763779528
 10
-11.92185039370079
 20
-7.920779527559055
 10
-11.93310236220472
 20
-7.909263779527559
 10
-11.94540551181102
 20
-7.899838582677165
 10
-11.95875984251968
 20
-7.892511811023622
 10
-11.97316535433071
 20
-7.887275590551181
 10
-11.98862204724409
 20
-7.884133858267717
 10
-12.00513385826772
 20
-7.883086614173228
 10
-12.02164566929134
 20
-7.884133858267717
 10
-12.03710236220472
 20
-7.887275590551181
 10
-12.05150787401575
 20
-7.892511811023622
 10
-12.06486220472441
 20
-7.899838582677165
 10
-12.07716535433071
 20
-7.909263779527559
 10
-12.08841732283465
 20
-7.920779527559055
 10
-12.09861811023622
 20
-7.934389763779528
 10
-12.10776771653543
 20
-7.950094488188976
 10
-12.1141968503937
 20
-7.963799212598425
 10
-12.11976771653543
 20
-7.978263779527559
 10
-12.1244842519685
 20
-7.993488188976378
 10
-12.12833858267716
 20
-8.009472440944881
 10
-12.13133858267716
 20
-8.02621653543307
 10
-12.1334842519685
 20
-8.043720472440945
 10
-12.13476771653543
 20
-8.06198031496063
 10
-12.1351968503937
 20
-8.081003937007875
 10
-12.13476771653543
 20
-8.100027559055118
 10
-12.1334842519685
 20
-8.118291338582678
 10
-12.13133858267716
 20
-8.135791338582678
 10
-12.12833858267716
 20
-8.152535433070867
 10
-12.1244842519685
 20
-8.16851968503937
 10
-12.11976771653543
 20
-8.183744094488189
 10
-12.1141968503937
 20
-8.198208661417322
 10
-12.10776771653543
 20
-8.211913385826772
 10
-12.09861811023622
 20
-8.22761811023622
 10
-12.08841732283465
 20
-8.241228346456692
 10
-12.07716535433071
 20
-8.252748031496063
 10
-12.06486220472441
 20
-8.262169291338582
 10
-12.05150787401575
 20
-8.2695
 10
-12.03710236220472
 20
-8.274732283464568
 10
-12.02164566929134
 20
-8.277874015748031
 10
-12.00513385826772
 20
-8.27892125984252
  0
LWPOLYLINE
  5
7C
330
1F
100
AcDbEntity
  8
Layer 1
 62
     7
100
AcDbPolyline
 90
       88
 70
     1
 43
0.0
 10
-11.65764566929134
 20
-7.933976377952756
 10
-11.65111811023622
 20
-7.938413385826772
 10
-11.64502755905512
 20
-7.943448818897638
 10
-11.63938188976378
 20
-7.949086614173228
 10
-11.6341811023622
 20
-7.955326771653543
 10
-11.62941732283465
 20
-7.962165354330708
 10
-11.62509842519685
 20
-7.969606299212598
 10
-11.62121653543307
 20
-7.977645669291339
 10
-11.61777952755905
 20
-7.986287401574804
 10
-11.61393700787402
 20
-7.997751968503937
 10
-11.6106062992126
 20
-8.00938188976378
 10
-11.6077874015748
 20
-8.021181102362204
 10
-11.6054842519685
 20
-8.033149606299213
 10
-11.60368897637795
 20
-8.045287401574804
 10
-11.60240551181102
 20
-8.057590551181102
 10
-11.60163779527559
 20
-8.070062992125985
 10
-11.60138188976378
 20
-8.082700787401574
 10
-11.60308267716535
 20
-8.110692913385828
 10
-11.60504330708661
 20
-8.125893700787401
 10
-11.60760236220472
 20
-8.140255905511811
 10
-11.61076771653543
 20
-8.153779527559054
 10
-11.61453149606299
 20
-8.166464566929134
 10
-11.6188937007874
 20
-8.178307086614174
 10
-11.62386220472441
 20
-8.189311023622047
 10
-11.62942519685039
 20
-8.199476377952756
 10
-11.63559448818898
 20
-8.208803149606299
 10
-11.64122440944882
 20
-8.215826771653543
 10
-11.64715354330709
 20
-8.221913385826772
 10
-11.65338188976378
 20
-8.227066929133859
 10
-11.65991338582677
 20
-8.231279527559055
 10
-11.66674015748032
 20
-8.23455905511811
 10
-11.67387401574803
 20
-8.236897637795275
 10
-11.6813031496063
 20
-8.238303149606299
 10
-11.68903543307087
 20
-8.238771653543306
 10
-11.69766141732283
 20
-8.238307086614173
 10
-11.70587401574803
 20
-8.236917322834646
 10
-11.71366929133858
 20
-8.23459842519685
 10
-11.72105118110236
 20
-8.231350393700787
 10
-11.72801968503937
 20
-8.227173228346457
 10
-11.73457086614173
 20
-8.222070866141733
 10
-11.74070866141732
 20
-8.216043307086615
 10
-11.74642913385827
 20
-8.209086614173229
 10
-11.75116535433071
 20
-8.202228346456693
 10
-11.75547637795276
 20
-8.194948818897638
 10
-11.75936220472441
 20
-8.18724409448819
 10
-11.76282677165354
 20
-8.179114173228346
 10
-11.76588582677165
 20
-8.170720472440944
 10
-11.76855511811024
 20
-8.162220472440945
 10
-11.77083070866142
 20
-8.153614173228346
 10
-11.77272047244094
 20
-8.14490157480315
 10
-11.77753149606299
 20
-8.110976377952756
 10
-11.77894488188976
 20
-8.073181102362204
 10
-11.77855511811024
 20
-8.061870078740158
 10
-11.77738976377953
 20
-8.049275590551181
 10
-11.77544488188976
 20
-8.035393700787402
 10
-11.77272047244094
 20
-8.020216535433072
 10
-11.77085039370079
 20
-8.011610236220472
 10
-11.76862204724409
 20
-8.00303937007874
 10
-11.76604330708661
 20
-7.994503937007874
 10
-11.76311023622047
 20
-7.986003937007874
 10
-11.75977165354331
 20
-7.977732283464567
 10
-11.75597244094488
 20
-7.969885826771653
 10
-11.7517125984252
 20
-7.962464566929134
 10
-11.74699212598425
 20
-7.955464566929134
 10
-11.74445669291339
 20
-7.952157480314961
 10
-11.74179921259842
 20
-7.949015748031496
 10
-11.7390157480315
 20
-7.946043307086614
 10
-11.73611023622047
 20
-7.943240157480315
 10
-11.73307874015748
 20
-7.940602362204724
 10
-11.72992519685039
 20
-7.938133858267716
 10
-11.72664566929134
 20
-7.935830708661418
 10
-11.72324409448819
 20
-7.933696850393701
 10
-11.71970078740157
 20
-7.931775590551181
 10
-11.716
 20
-7.930110236220473
 10
-11.71213779527559
 20
-7.928700787401575
 10
-11.70811811023622
 20
-7.927547244094488
 10
-11.70393700787402
 20
-7.926653543307086
 10
-11.69959842519685
 20
-7.926011811023622
 10
-11.69510236220473
 20
-7.925625984251968
 10
-11.69044488188976
 20
-7.9255
 10
-11.6857874015748
 20
-7.925633858267717
 10
-11.68129133858268
 20
-7.926027559055118
 10
-11.67695275590551
 20
-7.926692913385827
 10
-11.67277559055118
 20
-7.927618110236221
 10
-11.66875196850394
 20
-7.928811023622047
 10
-11.66488976377953
 20
-7.930267716535433
 10
-11.66118897637795
 20
-7.931988188976378
 10
-11.65764566929134
 20
-7.933976377952756
  0
LWPOLYLINE
  5
7D
330
1F
100
AcDbEntity
  8
Layer 1
 62
     7
100
AcDbPolyline
 90
       65
 70
     1
 43
0.0
 10
-11.68846850393701
 20
-8.27892125984252
 10
-11.67195669291339
 20
-8.277874015748031
 10
-11.6565
 20
-8.274732283464568
 10
-11.64209448818898
 20
-8.2695
 10
-11.62874015748032
 20
-8.262169291338582
 10
-11.61643700787402
 20
-8.252748031496063
 10
-11.60518503937008
 20
-8.241228346456692
 10
-11.5949842519685
 20
-8.22761811023622
 10
-11.58583464566929
 20
-8.211913385826772
 10
-11.57940551181102
 20
-8.198208661417322
 10
-11.57383464566929
 20
-8.183744094488189
 10
-11.56911811023622
 20
-8.16851968503937
 10
-11.56526377952756
 20
-8.152535433070867
 10
-11.56226377952756
 20
-8.135791338582678
 10
-11.56011811023622
 20
-8.118291338582678
 10
-11.55883464566929
 20
-8.100027559055118
 10
-11.55840551181102
 20
-8.081003937007875
 10
-11.55883464566929
 20
-8.06198031496063
 10
-11.56011811023622
 20
-8.043720472440945
 10
-11.56226377952756
 20
-8.02621653543307
 10
-11.56526377952756
 20
-8.009472440944881
 10
-11.56911811023622
 20
-7.993488188976378
 10
-11.57383464566929
 20
-7.978263779527559
 10
-11.57940551181102
 20
-7.963799212598425
 10
-11.58583464566929
 20
-7.950094488188976
 10
-11.5949842519685
 20
-7.934389763779528
 10
-11.60518503937008
 20
-7.920779527559055
 10
-11.61643700787402
 20
-7.909263779527559
 10
-11.62874015748032
 20
-7.899838582677165
 10
-11.64209448818898
 20
-7.892511811023622
 10
-11.6565
 20
-7.887275590551181
 10
-11.67195669291339
 20
-7.884133858267717
 10
-11.68846850393701
 20
-7.883086614173228
 10
-11.70497637795276
 20
-7.884133858267717
 10
-11.72043700787402
 20
-7.887275590551181
 10
-11.73484251968504
 20
-7.892511811023622
 10
-11.7481968503937
 20
-7.899838582677165
 10
-11.7605
 20
-7.909263779527559
 10
-11.77174803149606
 20
-7.920779527559055
 10
-11.78194881889764
 20
-7.934389763779528
 10
-11.79109842519685
 20
-7.950094488188976
 10
-11.79752755905512
 20
-7.963799212598425
 10
-11.80309842519685
 20
-7.978263779527559
 10
-11.80781496062992
 20
-7.993488188976378
 10
-11.81166929133858
 20
-8.009472440944881
 10
-11.81466929133858
 20
-8.02621653543307
 10
-11.81681496062992
 20
-8.043720472440945
 10
-11.81809842519685
 20
-8.06198031496063
 10
-11.81852755905512
 20
-8.081003937007875
 10
-11.81809842519685
 20
-8.100027559055118
 10
-11.81681496062992
 20
-8.118291338582678
 10
-11.81466929133858
 20
-8.135791338582678
 10
-11.81166929133858
 20
-8.152535433070867
 10
-11.80781496062992
 20
-8.16851968503937
 10
-11.80309842519685
 20
-8.183744094488189
 10
-11.79752755905512
 20
-8.198208661417322
 10
-11.79109842519685
 20
-8.211913385826772
 10
-11.78194881889764
 20
-8.22761811023622
 10
-11.77174803149606
 20
-8.241228346456692
 10
-11.7605
 20
-8.252748031496063
 10
-11.7481968503937
 20
-8.262169291338582
 10
-11.73484251968504
 20
-8.2695
 10
-11.72043700787402
 20
-8.274732283464568
 10
-11.70497637795276
 20
-8.277874015748031
 10
-11.68846850393701
 20
-8.27892125984252
  0
LWPOLYLINE
  5
7E
330
1F
100
AcDbEntity
  8
Layer 1
 62
     7
100
AcDbPolyline
 90
        7
 70
     1
 43
0.0
 10
-11.44644094488189
 20
-8.273830708661418
 10
-11.40686220472441
 20
-8.273830708661418
 10
-11.40686220472441
 20
-7.884783464566929
 10
-11.50186220472441
 20
-7.89496062992126
 10
-11.50186220472441
 20
-7.929456692913385
 10
-11.44644094488189
 20
-7.929456692913385
 10
-11.44644094488189
 20
-8.273830708661418
  0
LWPOLYLINE
  5
7F
330
1F
100
AcDbEntity
  8
Layer 1
 62
     7
100
AcDbPolyline
 90
       67
 70
     1
 43
0.0
 10
-11.13197637795276
 20
-8.266212598425197
 10
-11.13683858267717
 20
-8.256885826771654
 10
-11.14138582677165
 20
-8.247425196850394
 10
-11.14561811023622
 20
-8.237830708661418
 10
-11.14953937007874
 20
-8.228102362204725
 10
-11.15314566929134
 20
-8.218236220472441
 10
-11.15643307086614
 20
-8.208240157480315
 10
-11.1594094488189
 20
-8.198106299212599
 10
-11.16206299212598
 20
-8.187838582677164
 10
-11.16442125984252
 20
-8.177413385826771
 10
-11.16646456692913
 20
-8.166846456692914
 10
-11.16819291338583
 20
-8.156141732283464
 10
-11.1696062992126
 20
-8.14529527559055
 10
-11.17070078740158
 20
-8.134307086614173
 10
-11.1714842519685
 20
-8.123181102362205
 10
-11.17195275590551
 20
-8.111913385826771
 10
-11.17211023622047
 20
-8.100507874015747
 10
-11.17195275590551
 20
-8.088535433070867
 10
-11.17148818897638
 20
-8.076779527559054
 10
-11.17070866141732
 20
-8.065240157480314
 10
-11.16961811023622
 20
-8.05392125984252
 10
-11.16822047244094
 20
-8.042818897637796
 10
-11.1665157480315
 20
-8.031933070866142
 10
-11.1645
 20
-8.021267716535434
 10
-11.16217716535433
 20
-8.01082283464567
 10
-11.15951968503937
 20
-8.000555118110237
 10
-11.15654724409449
 20
-7.990456692913386
 10
-11.15325590551181
 20
-7.980527559055118
 10
-11.14964173228346
 20
-7.970767716535433
 10
-11.14570866141732
 20
-7.961181102362205
 10
-11.14145275590551
 20
-7.951759842519685
 10
-11.13687401574803
 20
-7.942507874015748
 10
-11.13197637795276
 20
-7.933425196850393
 10
-11.1045905511811
 20
-7.941696850393701
 10
-11.10894488188976
 20
-7.950657480314961
 10
-11.11301181102362
 20
-7.959716535433071
 10
-11.11678346456693
 20
-7.968874015748032
 10
-11.12027165354331
 20
-7.978125984251968
 10
-11.12346850393701
 20
-7.987476377952756
 10
-11.12638188976378
 20
-7.996921259842519
 10
-11.12900787401575
 20
-8.006464566929134
 10
-11.13134645669291
 20
-8.016106299212598
 10
-11.13338582677165
 20
-8.025913385826772
 10
-11.13515748031496
 20
-8.035917322834646
 10
-11.13665354330709
 20
-8.046122047244095
 10
-11.13788188976378
 20
-8.056523622047244
 10
-11.13883858267716
 20
-8.067125984251968
 10
-11.13952362204724
 20
-8.077933070866141
 10
-11.13993307086614
 20
-8.088944881889764
 10
-11.14007086614173
 20
-8.10016535433071
 10
-11.13993700787402
 20
-8.111885826771653
 10
-11.13953149606299
 20
-8.12332283464567
 10
-11.13885826771654
 20
-8.134472440944881
 10
-11.1379094488189
 20
-8.145338582677166
 10
-11.13669291338583
 20
-8.155917322834645
 10
-11.13520078740157
 20
-8.166212598425197
 10
-11.13344094488189
 20
-8.176220472440946
 10
-11.13140157480315
 20
-8.185944881889764
 10
-11.12909842519685
 20
-8.19546062992126
 10
-11.12649606299213
 20
-8.204807086614172
 10
-11.1235905511811
 20
-8.21398031496063
 10
-11.12038582677165
 20
-8.222984251968503
 10
-11.11688188976378
 20
-8.231818897637796
 10
-11.11308267716535
 20
-8.240488188976379
 10
-11.1089842519685
 20
-8.248984251968505
 10
-11.1045905511811
 20
-8.257314960629921
 10
-11.13197637795276
 20
-8.266212598425197
  0
LWPOLYLINE
  5
80
330
1F
100
AcDbEntity
  8
Layer 1
 62
     7
100
AcDbPolyline
 90
        7
 70
     1
 43
0.0
 10
-11.00497244094488
 20
-8.191114173228346
 10
-11.00497244094488
 20
-7.978897637795275
 10
-11.05595669291339
 20
-7.978897637795275
 10
-11.04045275590551
 20
-7.947204724409449
 10
-10.96845669291339
 20
-7.947204724409449
 10
-10.96845669291339
 20
-8.191114173228346
 10
-11.00497244094488
 20
-8.191114173228346
  0
LWPOLYLINE
  5
81
330
1F
100
AcDbEntity
  8
Layer 1
 62
     7
100
AcDbPolyline
 90
       65
 70
     1
 43
0.0
 10
-10.69526771653543
 20
-8.072547244094489
 10
-10.69563779527559
 20
-8.086814960629921
 10
-10.69674409448819
 20
-8.100291338582677
 10
-10.6985905511811
 20
-8.112972440944882
 10
-10.70117322834646
 20
-8.12486220472441
 10
-10.7045
 20
-8.135956692913386
 10
-10.70856692913386
 20
-8.146255905511811
 10
-10.71337401574803
 20
-8.155759842519686
 10
-10.71892125984252
 20
-8.164468503937007
 10
-10.72509842519685
 20
-8.172240157480315
 10
-10.73183070866142
 20
-8.17898031496063
 10
-10.73911811023622
 20
-8.184685039370079
 10
-10.74695669291339
 20
-8.189354330708662
 10
-10.75535433070866
 20
-8.192984251968504
 10
-10.7643031496063
 20
-8.19557874015748
 10
-10.7738031496063
 20
-8.19713779527559
 10
-10.78386220472441
 20
-8.19765748031496
 10
-10.79405511811024
 20
-8.197133858267717
 10
-10.80366141732283
 20
-8.19555905511811
 10
-10.81268110236221
 20
-8.192937007874015
 10
-10.82111811023622
 20
-8.189267716535433
 10
-10.82896850393701
 20
-8.184551181102362
 10
-10.83624015748032
 20
-8.178787401574803
 10
-10.84292519685039
 20
-8.17198031496063
 10
-10.84902755905512
 20
-8.16412598425197
 10
-10.85449606299213
 20
-8.155307086614172
 10
-10.85923622047244
 20
-8.145641732283465
 10
-10.86324409448819
 20
-8.135129921259843
 10
-10.86651968503937
 20
-8.123767716535433
 10
-10.86907086614173
 20
-8.111562992125984
 10
-10.87088976377953
 20
-8.098507874015748
 10
-10.87198031496063
 20
-8.084602362204725
 10
-10.87234251968504
 20
-8.069850393700788
 10
-10.87197244094488
 20
-8.055212598425197
 10
-10.87087007874016
 20
-8.041405511811023
 10
-10.86902755905512
 20
-8.028433070866141
 10
-10.86644881889764
 20
-8.016287401574804
 10
-10.86313779527559
 20
-8.004972440944881
 10
-10.85909448818898
 20
-7.994492125984252
 10
-10.85431496062992
 20
-7.984842519685039
 10
-10.8488031496063
 20
-7.976027559055118
 10
-10.84263385826772
 20
-7.968137795275591
 10
-10.8358937007874
 20
-7.961299212598425
 10
-10.82857480314961
 20
-7.955515748031496
 10
-10.82068897637795
 20
-7.950787401574803
 10
-10.81222440944882
 20
-7.947110236220473
 10
-10.80318897637795
 20
-7.94448031496063
 10
-10.79358267716535
 20
-7.942905511811023
 10
-10.78340551181102
 20
-7.942381889763779
 10
-10.77311417322835
 20
-7.942909448818898
 10
-10.76343307086614
 20
-7.944492125984252
 10
-10.75436220472441
 20
-7.947125984251969
 10
-10.74589763779528
 20
-7.950814960629922
 10
-10.73803937007874
 20
-7.955555118110237
 10
-10.73079133858268
 20
-7.961350393700787
 10
-10.72414960629921
 20
-7.968192913385827
 10
-10.71811811023622
 20
-7.976086614173228
 10
-10.71276771653543
 20
-7.984976377952756
 10
-10.70812992125984
 20
-7.994775590551181
 10
-10.70420078740158
 20
-8.005476377952755
 10
-10.70098818897638
 20
-8.017082677165355
 10
-10.6984842519685
 20
-8.029590551181103
 10
-10.6966968503937
 20
-8.043003937007875
 10
-10.69562598425197
 20
-8.05732283464567
 10
-10.69526771653543
 20
-8.072547244094489
  0
LWPOLYLINE
  5
82
330
1F
100
AcDbEntity
  8
Layer 1
 62
     7
100
AcDbPolyline
 90
       65
 70
     1
 43
0.0
 10
-10.78455118110236
 20
-8.163208661417324
 10
-10.77860236220472
 20
-8.16284251968504
 10
-10.77303543307087
 20
-8.161744094488188
 10
-10.76784251968504
 20
-8.159913385826771
 10
-10.76303543307087
 20
-8.157346456692913
 10
-10.7586062992126
 20
-8.154047244094489
 10
-10.75456299212598
 20
-8.150007874015747
 10
-10.75090157480315
 20
-8.145236220472441
 10
-10.74762992125984
 20
-8.139728346456693
 10
-10.74472440944882
 20
-8.133503937007873
 10
-10.74220472440945
 20
-8.126551181102363
 10
-10.74007480314961
 20
-8.118866141732283
 10
-10.73833070866142
 20
-8.110448818897638
 10
-10.73697244094488
 20
-8.101307086614174
 10
-10.73600393700787
 20
-8.091433070866142
 10
-10.73542125984252
 20
-8.080830708661418
 10
-10.73522834645669
 20
-8.069503937007873
 10
-10.73542125984252
 20
-8.058496062992125
 10
-10.73599212598425
 20
-8.048157480314961
 10
-10.73694881889764
 20
-8.038496062992126
 10
-10.7382874015748
 20
-8.029507874015748
 10
-10.74000787401575
 20
-8.0211968503937
 10
-10.74211023622047
 20
-8.01355905511811
 10
-10.74459448818898
 20
-8.006602362204724
 10
-10.74746062992126
 20
-8.000318897637795
 10
-10.75067322834646
 20
-7.994728346456693
 10
-10.75424409448819
 20
-7.989885826771654
 10
-10.75816535433071
 20
-7.985787401574803
 10
-10.76243700787402
 20
-7.98244094488189
 10
-10.76706692913386
 20
-7.979834645669292
 10
-10.77204330708661
 20
-7.977976377952756
 10
-10.77737795275591
 20
-7.976858267716535
 10
-10.78305905511811
 20
-7.976488188976378
 10
-10.78896850393701
 20
-7.976858267716535
 10
-10.79450393700787
 20
-7.977972440944882
 10
-10.79966929133858
 20
-7.979826771653543
 10
-10.80446062992126
 20
-7.982425196850394
 10
-10.80888188976378
 20
-7.985759842519685
 10
-10.81293307086614
 20
-7.989834645669291
 10
-10.81661417322835
 20
-7.994649606299213
 10
-10.81992125984252
 20
-8.000200787401575
 10
-10.82284645669291
 20
-8.006496062992126
 10
-10.82537795275591
 20
-8.013488188976378
 10
-10.82751968503937
 20
-8.021185039370078
 10
-10.82927165354331
 20
-8.029578740157481
 10
-10.83062992125984
 20
-8.038677165354331
 10
-10.83160236220473
 20
-8.04848031496063
 10
-10.83218503937008
 20
-8.058988188976379
 10
-10.83237795275591
 20
-8.070196850393701
 10
-10.83218503937008
 20
-8.081090551181102
 10
-10.83160236220473
 20
-8.091334645669292
 10
-10.83063385826772
 20
-8.100933070866141
 10
-10.82927952755906
 20
-8.109881889763779
 10
-10.82753543307087
 20
-8.11817716535433
 10
-10.82540551181102
 20
-8.12582283464567
 10
-10.82288582677165
 20
-8.132814960629922
 10
-10.81998031496063
 20
-8.139149606299213
 10
-10.81673228346457
 20
-8.14478346456693
 10
-10.81314566929134
 20
-8.14966535433071
 10
-10.80922047244094
 20
-8.153803149606299
 10
-10.80495669291339
 20
-8.157185039370079
 10
-10.80035826771654
 20
-8.159818897637795
 10
-10.79542519685039
 20
-8.161700787401575
 10
-10.79015354330709
 20
-8.162830708661417
 10
-10.78455118110236
 20
-8.163208661417324
  0
LWPOLYLINE
  5
83
330
1F
100
AcDbEntity
  8
Layer 1
 62
     7
100
AcDbPolyline
 90
       65
 70
     1
 43
0.0
 10
-10.48719291338583
 20
-8.072547244094489
 10
-10.48756299212598
 20
-8.086814960629921
 10
-10.48866929133858
 20
-8.100291338582677
 10
-10.4905157480315
 20
-8.112972440944882
 10
-10.49309842519685
 20
-8.12486220472441
 10
-10.49642519685039
 20
-8.135956692913386
 10
-10.50049212598425
 20
-8.146255905511811
 10
-10.50529921259843
 20
-8.155759842519686
 10
-10.51084645669291
 20
-8.164468503937007
 10
-10.51702362204724
 20
-8.172240157480315
 10
-10.52375590551181
 20
-8.17898031496063
 10
-10.53103937007874
 20
-8.184685039370079
 10
-10.53888188976378
 20
-8.189354330708662
 10
-10.54727559055118
 20
-8.192984251968504
 10
-10.55622440944882
 20
-8.19557874015748
 10
-10.56572834645669
 20
-8.19713779527559
 10
-10.5757874015748
 20
-8.19765748031496
 10
-10.58598031496063
 20
-8.197133858267717
 10
-10.59558267716536
 20
-8.19555905511811
 10
-10.6046062992126
 20
-8.192937007874015
 10
-10.61304330708662
 20
-8.189267716535433
 10
-10.6208937007874
 20
-8.184551181102362
 10
-10.62816141732283
 20
-8.178787401574803
 10
-10.63485039370079
 20
-8.17198031496063
 10
-10.64095275590551
 20
-8.16412598425197
 10
-10.64642125984252
 20
-8.155307086614172
 10
-10.65116141732283
 20
-8.145641732283465
 10
-10.65516535433071
 20
-8.135129921259843
 10
-10.65844488188976
 20
-8.123767716535433
 10
-10.66099212598425
 20
-8.111562992125984
 10
-10.66281102362205
 20
-8.098507874015748
 10
-10.66390551181102
 20
-8.084602362204725
 10
-10.66426771653543
 20
-8.069850393700788
 10
-10.66389763779527
 20
-8.055212598425197
 10
-10.66279527559055
 20
-8.041405511811023
 10
-10.66095275590551
 20
-8.028433070866141
 10
-10.65837401574803
 20
-8.016287401574804
 10
-10.65506299212598
 20
-8.004972440944881
 10
-10.6510157480315
 20
-7.994492125984252
 10
-10.64623622047244
 20
-7.984842519685039
 10
-10.64072440944882
 20
-7.976027559055118
 10
-10.63455905511811
 20
-7.968137795275591
 10
-10.62781496062992
 20
-7.961299212598425
 10
-10.6205
 20
-7.955515748031496
 10
-10.61261023622047
 20
-7.950787401574803
 10
-10.60414960629921
 20
-7.947110236220473
 10
-10.59511417322835
 20
-7.94448031496063
 10
-10.58550393700787
 20
-7.942905511811023
 10
-10.57532677165354
 20
-7.942381889763779
 10
-10.56503937007874
 20
-7.942909448818898
 10
-10.55535826771654
 20
-7.944492125984252
 10
-10.54628346456693
 20
-7.947125984251969
 10
-10.53781889763779
 20
-7.950814960629922
 10
-10.52996456692913
 20
-7.955555118110237
 10
-10.52271653543307
 20
-7.961350393700787
 10
-10.51607480314961
 20
-7.968192913385827
 10
-10.51004330708661
 20
-7.976086614173228
 10
-10.50469291338583
 20
-7.984976377952756
 10
-10.50005511811024
 20
-7.994775590551181
 10
-10.49612598425197
 20
-8.005476377952755
 10
-10.49291338582677
 20
-8.017082677165355
 10
-10.4904094488189
 20
-8.029590551181103
 10
-10.48862204724409
 20
-8.043003937007875
 10
-10.48755118110236
 20
-8.05732283464567
 10
-10.48719291338583
 20
-8.072547244094489
  0
LWPOLYLINE
  5
84
330
1F
100
AcDbEntity
  8
Layer 1
 62
     7
100
AcDbPolyline
 90
       65
 70
     1
 43
0.0
 10
-10.57647637795276
 20
-8.163208661417324
 10
-10.57052755905512
 20
-8.16284251968504
 10
-10.56496062992126
 20
-8.161744094488188
 10
-10.55976771653543
 20
-8.159913385826771
 10
-10.55496062992126
 20
-8.157346456692913
 10
-10.55053149606299
 20
-8.154047244094489
 10
-10.54648818897638
 20
-8.150007874015747
 10
-10.54282677165354
 20
-8.145236220472441
 10
-10.53955511811024
 20
-8.139728346456693
 10
-10.53664960629921
 20
-8.133503937007873
 10
-10.53412992125984
 20
-8.126551181102363
 10
-10.532
 20
-8.118866141732283
 10
-10.53025590551181
 20
-8.110448818897638
 10
-10.52889763779527
 20
-8.101307086614174
 10
-10.52792913385827
 20
-8.091433070866142
 10
-10.52734645669291
 20
-8.080830708661418
 10
-10.52715354330709
 20
-8.069503937007873
 10
-10.52734645669291
 20
-8.058496062992125
 10
-10.52791732283465
 20
-8.048157480314961
 10
-10.52887401574803
 20
-8.038496062992126
 10
-10.5302125984252
 20
-8.029507874015748
 10
-10.53193307086614
 20
-8.0211968503937
 10
-10.53403149606299
 20
-8.01355905511811
 10
-10.5365157480315
 20
-8.006602362204724
 10
-10.53938188976378
 20
-8.000318897637795
 10
-10.54259448818898
 20
-7.994728346456693
 10
-10.54616535433071
 20
-7.989885826771654
 10
-10.55008661417323
 20
-7.985787401574803
 10
-10.55436220472441
 20
-7.98244094488189
 10
-10.55898818897638
 20
-7.979834645669292
 10
-10.56396850393701
 20
-7.977976377952756
 10
-10.56929921259843
 20
-7.976858267716535
 10
-10.57498031496063
 20
-7.976488188976378
 10
-10.58088976377953
 20
-7.976858267716535
 10
-10.58642519685039
 20
-7.977972440944882
 10
-10.5915905511811
 20
-7.979826771653543
 10
-10.59638582677165
 20
-7.982425196850394
 10
-10.60080708661417
 20
-7.985759842519685
 10
-10.60485826771654
 20
-7.989834645669291
 10
-10.60853543307087
 20
-7.994649606299213
 10
-10.61184251968504
 20
-8.000200787401575
 10
-10.61476771653543
 20
-8.006496062992126
 10
-10.6173031496063
 20
-8.013488188976378
 10
-10.61944488188976
 20
-8.021185039370078
 10
-10.6211968503937
 20
-8.029578740157481
 10
-10.62255511811024
 20
-8.038677165354331
 10
-10.62352755905512
 20
-8.04848031496063
 10
-10.62411023622047
 20
-8.058988188976379
 10
-10.6243031496063
 20
-8.070196850393701
 10
-10.62411023622047
 20
-8.081090551181102
 10
-10.62352755905512
 20
-8.091334645669292
 10
-10.62255905511811
 20
-8.100933070866141
 10
-10.62120472440945
 20
-8.109881889763779
 10
-10.61946062992126
 20
-8.11817716535433
 10
-10.61732677165354
 20
-8.12582283464567
 10
-10.61480708661417
 20
-8.132814960629922
 10
-10.61190157480315
 20
-8.139149606299213
 10
-10.60865354330709
 20
-8.14478346456693
 10
-10.60506692913386
 20
-8.14966535433071
 10
-10.60114173228346
 20
-8.153803149606299
 10
-10.59688188976378
 20
-8.157185039370079
 10
-10.59228346456693
 20
-8.159818897637795
 10
-10.58735039370079
 20
-8.161700787401575
 10
-10.58207874015748
 20
-8.162830708661417
 10
-10.57647637795276
 20
-8.163208661417324
  0
LWPOLYLINE
  5
85
330
1F
100
AcDbEntity
  8
Layer 1
 62
     7
100
AcDbPolyline
 90
      141
 70
     1
 43
0.0
 10
-10.41002755905512
 20
-8.191114173228346
 10
-10.44654330708661
 20
-8.191114173228346
 10
-10.44654330708661
 20
-8.031606299212598
 10
-10.41220472440945
 20
-8.031606299212598
 10
-10.41220472440945
 20
-8.057791338582676
 10
-10.40942519685039
 20
-8.05375590551181
 10
-10.40655511811024
 20
-8.049996062992125
 10
-10.4035905511811
 20
-8.046523622047244
 10
-10.40053543307087
 20
-8.043326771653543
 10
-10.39738976377953
 20
-8.040417322834646
 10
-10.39415354330709
 20
-8.037787401574803
 10
-10.39082283464567
 20
-8.035444881889763
 10
-10.38740157480315
 20
-8.033385826771653
 10
-10.38385826771654
 20
-8.031590551181102
 10
-10.38015748031496
 20
-8.03003937007874
 10
-10.3763031496063
 20
-8.028728346456694
 10
-10.37229133858268
 20
-8.027653543307087
 10
-10.36812204724409
 20
-8.02682283464567
 10
-10.36379527559055
 20
-8.026228346456692
 10
-10.35931102362205
 20
-8.025870078740157
 10
-10.35467322834646
 20
-8.025751968503936
 10
-10.35010236220472
 20
-8.025874015748032
 10
-10.34572834645669
 20
-8.026236220472441
 10
-10.34155905511811
 20
-8.026846456692914
 10
-10.3375905511811
 20
-8.027696850393701
 10
-10.3338188976378
 20
-8.028795275590552
 10
-10.33025196850394
 20
-8.030137795275591
 10
-10.32688976377953
 20
-8.031724409448818
 10
-10.32372834645669
 20
-8.03355905511811
 10
-10.32074409448819
 20
-8.035649606299213
 10
-10.31794881889764
 20
-8.037996062992127
 10
-10.31533464566929
 20
-8.040598425196851
 10
-10.31291338582677
 20
-8.04346062992126
 10
-10.31067322834646
 20
-8.046574803149607
 10
-10.30862204724409
 20
-8.049944881889763
 10
-10.30675196850394
 20
-8.053566929133858
 10
-10.30506692913386
 20
-8.057444881889763
 10
-10.30187795275591
 20
-8.053452755905512
 10
-10.29864173228346
 20
-8.049736220472441
 10
-10.29535433070866
 20
-8.046303149606299
 10
-10.29201968503937
 20
-8.043149606299213
 10
-10.28863779527559
 20
-8.04027559055118
 10
-10.28520866141732
 20
-8.037681102362205
 10
-10.28172834645669
 20
-8.035366141732283
 10
-10.27820078740158
 20
-8.03333464566929
 10
-10.27458661417323
 20
-8.03155905511811
 10
-10.27084645669291
 20
-8.030015748031497
 10
-10.2669842519685
 20
-8.028712598425196
 10
-10.26299606299213
 20
-8.027649606299212
 10
-10.25888582677165
 20
-8.026818897637796
 10
-10.25465354330709
 20
-8.026224409448819
 10
-10.25029527559055
 20
-8.025870078740157
 10
-10.24581496062992
 20
-8.025751968503936
 10
-10.2381811023622
 20
-8.02611811023622
 10
-10.23104330708661
 20
-8.027208661417323
 10
-10.22766141732284
 20
-8.028027559055118
 10
-10.22440157480315
 20
-8.029023622047244
 10
-10.22126771653543
 20
-8.0301968503937
 10
-10.21825590551181
 20
-8.031551181102362
 10
-10.21538976377953
 20
-8.033094488188976
 10
-10.21268897637795
 20
-8.034803149606299
 10
-10.21015354330709
 20
-8.036673228346457
 10
-10.20778346456693
 20
-8.038704724409449
 10
-10.20557874015748
 20
-8.040905511811024
 10
-10.20353543307087
 20
-8.043267716535434
 10
-10.20165354330709
 20
-8.045795275590551
 10
-10.19993700787402
 20
-8.048488188976378
 10
-10.19849606299213
 20
-8.051212598425197
 10
-10.19726771653543
 20
-8.054204724409448
 10
-10.19625590551181
 20
-8.057452755905512
 10
-10.19546062992126
 20
-8.060948818897637
 10
-10.19402362204724
 20
-8.08161811023622
 10
-10.19402362204724
 20
-8.09442125984252
 10
-10.19402362204724
 20
-8.191114173228346
 10
-10.23053937007874
 20
-8.191114173228346
 10
-10.23053937007874
 20
-8.109236220472441
 10
-10.23064566929134
 20
-8.101547244094489
 10
-10.23096850393701
 20
-8.094543307086614
 10
-10.23150787401575
 20
-8.088224409448818
 10
-10.23225590551181
 20
-8.082590551181102
 10
-10.23321653543307
 20
-8.077641732283464
 10
-10.2343937007874
 20
-8.07338188976378
 10
-10.23577952755906
 20
-8.069807086614173
 10
-10.23737401574803
 20
-8.06692125984252
 10
-10.23924015748032
 20
-8.06453937007874
 10
-10.24144488188976
 20
-8.062476377952756
 10
-10.24398031496063
 20
-8.060728346456694
 10
-10.24685039370079
 20
-8.059299212598425
 10
-10.25005118110236
 20
-8.058188976377952
 10
-10.25358661417323
 20
-8.0573937007874
 10
-10.25745669291339
 20
-8.056917322834646
 10
-10.26166141732283
 20
-8.056759842519686
 10
-10.26685039370079
 20
-8.056976377952756
 10
-10.27164960629921
 20
-8.05761811023622
 10
-10.27606299212598
 20
-8.058692913385826
 10
-10.2800905511811
 20
-8.060196850393702
 10
-10.28372834645669
 20
-8.062125984251969
 10
-10.28698031496063
 20
-8.064484251968503
 10
-10.28984251968504
 20
-8.067267716535433
 10
-10.2923188976378
 20
-8.07048031496063
 10
-10.29447637795276
 20
-8.074228346456692
 10
-10.29634645669291
 20
-8.07861811023622
 10
-10.29792519685039
 20
-8.083653543307086
 10
-10.29921653543307
 20
-8.089334645669291
 10
-10.30022047244094
 20
-8.09565748031496
 10
-10.30093700787402
 20
-8.102625984251969
 10
-10.30136614173228
 20
-8.110232283464567
 10
-10.30150787401575
 20
-8.11848031496063
 10
-10.30150787401575
 20
-8.191114173228346
 10
-10.33837007874016
 20
-8.191114173228346
 10
-10.33837007874016
 20
-8.109236220472441
 10
-10.33848031496063
 20
-8.102114173228346
 10
-10.33881102362205
 20
-8.095562992125984
 10
-10.33936614173228
 20
-8.089582677165355
 10
-10.34014173228347
 20
-8.084169291338583
 10
-10.34114173228346
 20
-8.07932283464567
 10
-10.34236614173228
 20
-8.075043307086615
 10
-10.34381496062992
 20
-8.071330708661417
 10
-10.34549212598425
 20
-8.068181102362205
 10
-10.34744094488189
 20
-8.0655
 10
-10.34972047244094
 20
-8.06317716535433
 10
-10.35232283464567
 20
-8.061212598425197
 10
-10.35525196850394
 20
-8.059606299212598
 10
-10.35850393700787
 20
-8.058362204724409
 10
-10.36207480314961
 20
-8.057472440944881
 10
-10.36596850393701
 20
-8.056937007874016
 10
-10.3701811023622
 20
-8.056759842519686
 10
-10.37544488188976
 20
-8.057062992125985
 10
-10.38047244094488
 20
-8.057972440944882
 10
-10.38525984251969
 20
-8.059492125984251
 10
-10.38981496062992
 20
-8.06163779527559
 10
-10.39405905511811
 20
-8.064318897637795
 10
-10.39783070866142
 20
-8.067452755905512
 10
-10.40114173228346
 20
-8.07103937007874
 10
-10.40399606299213
 20
-8.075074803149606
 10
-10.40555118110236
 20
-8.078023622047244
 10
-10.40684645669291
 20
-8.081275590551181
 10
-10.40789763779528
 20
-8.084826771653542
 10
-10.40870472440945
 20
-8.088681102362205
 10
-10.41002755905512
 20
-8.11848031496063
 10
-10.41002755905512
 20
-8.191114173228346
  0
LWPOLYLINE
  5
86
330
1F
100
AcDbEntity
  8
Layer 1
 62
     7
100
AcDbPolyline
 90
      141
 70
     1
 43
0.0
 10
-10.10858661417323
 20
-8.191114173228346
 10
-10.14510236220472
 20
-8.191114173228346
 10
-10.14510236220472
 20
-8.031606299212598
 10
-10.11076771653543
 20
-8.031606299212598
 10
-10.11076771653543
 20
-8.057791338582676
 10
-10.10798818897638
 20
-8.05375590551181
 10
-10.10511811023622
 20
-8.049996062992125
 10
-10.10215354330709
 20
-8.046523622047244
 10
-10.09909842519685
 20
-8.043326771653543
 10
-10.09595275590551
 20
-8.040417322834646
 10
-10.09271653543307
 20
-8.037787401574803
 10
-10.08938582677165
 20
-8.035444881889763
 10
-10.08596456692913
 20
-8.033385826771653
 10
-10.08242125984252
 20
-8.031590551181102
 10
-10.07872047244095
 20
-8.03003937007874
 10
-10.07486220472441
 20
-8.028728346456694
 10
-10.07085039370079
 20
-8.027653543307087
 10
-10.0666811023622
 20
-8.02682283464567
 10
-10.06235433070866
 20
-8.026228346456692
 10
-10.05787401574803
 20
-8.025870078740157
 10
-10.05323622047244
 20
-8.025751968503936
 10
-10.04866535433071
 20
-8.025874015748032
 10
-10.04429133858268
 20
-8.026236220472441
 10
-10.0401220472441
 20
-8.026846456692914
 10
-10.03614960629921
 20
-8.027696850393701
 10
-10.03238188976378
 20
-8.028795275590552
 10
-10.02881102362205
 20
-8.030137795275591
 10
-10.02544881889764
 20
-8.031724409448818
 10
-10.0222874015748
 20
-8.03355905511811
 10
-10.0193031496063
 20
-8.035649606299213
 10
-10.01650787401575
 20
-8.037996062992127
 10
-10.01389763779528
 20
-8.040598425196851
 10
-10.01147637795276
 20
-8.04346062992126
 10
-10.00923622047244
 20
-8.046574803149607
 10
-10.00718503937008
 20
-8.049944881889763
 10
-10.00531496062992
 20
-8.053566929133858
 10
-10.00362992125984
 20
-8.057444881889763
 10
-10.00044094488189
 20
-8.053452755905512
 10
-9.997204724409448
 20
-8.049736220472441
 10
-9.993917322834646
 20
-8.046303149606299
 10
-9.990582677165355
 20
-8.043149606299213
 10
-9.987196850393701
 20
-8.04027559055118
 10
-9.983767716535434
 20
-8.037681102362205
 10
-9.980287401574802
 20
-8.035366141732283
 10
-9.976759842519686
 20
-8.03333464566929
 10
-9.97314566929134
 20
-8.03155905511811
 10
-9.969405511811024
 20
-8.030015748031497
 10
-9.965543307086614
 20
-8.028712598425196
 10
-9.96155905511811
 20
-8.027649606299212
 10
-9.957448818897637
 20
-8.026818897637796
 10
-9.953216535433071
 20
-8.026224409448819
 10
-9.948858267716535
 20
-8.025870078740157
 10
-9.944377952755906
 20
-8.025751968503936
 10
-9.936744094488189
 20
-8.02611811023622
 10
-9.9296062992126
 20
-8.027208661417323
 10
-9.92622440944882
 20
-8.028027559055118
 10
-9.922964566929133
 20
-8.029023622047244
 10
-9.919826771653543
 20
-8.0301968503937
 10
-9.916814960629921
 20
-8.031551181102362
 10
-9.913948818897637
 20
-8.033094488188976
 10
-9.911248031496063
 20
-8.034803149606299
 10
-9.908712598425197
 20
-8.036673228346457
 10
-9.906342519685039
 20
-8.038704724409449
 10
-9.90413779527559
 20
-8.040905511811024
 10
-9.902094488188977
 20
-8.043267716535434
 10
-9.90021653543307
 20
-8.045795275590551
 10
-9.8985
 20
-8.048488188976378
 10
-9.897055118110236
 20
-8.051212598425197
 10
-9.895830708661418
 20
-8.054204724409448
 10
-9.89481496062992
 20
-8.057452755905512
 10
-9.89401968503937
 20
-8.060948818897637
 10
-9.892586614173227
 20
-8.08161811023622
 10
-9.892586614173227
 20
-8.09442125984252
 10
-9.892586614173227
 20
-8.191114173228346
 10
-9.929102362204725
 20
-8.191114173228346
 10
-9.929102362204725
 20
-8.109236220472441
 10
-9.929208661417324
 20
-8.101547244094489
 10
-9.929531496062992
 20
-8.094543307086614
 10
-9.930066929133858
 20
-8.088224409448818
 10
-9.930818897637796
 20
-8.082590551181102
 10
-9.931779527559055
 20
-8.077641732283464
 10
-9.932952755905513
 20
-8.07338188976378
 10
-9.934338582677166
 20
-8.069807086614173
 10
-9.935933070866142
 20
-8.06692125984252
 10
-9.9378031496063
 20
-8.06453937007874
 10
-9.940003937007875
 20
-8.062476377952756
 10
-9.942539370078741
 20
-8.060728346456694
 10
-9.945409448818898
 20
-8.059299212598425
 10
-9.948614173228346
 20
-8.058188976377952
 10
-9.952149606299212
 20
-8.0573937007874
 10
-9.95601968503937
 20
-8.056917322834646
 10
-9.960224409448818
 20
-8.056759842519686
 10
-9.965413385826771
 20
-8.056976377952756
 10
-9.970212598425197
 20
-8.05761811023622
 10
-9.974625984251968
 20
-8.058692913385826
 10
-9.978653543307086
 20
-8.060196850393702
 10
-9.982291338582677
 20
-8.062125984251969
 10
-9.985543307086614
 20
-8.064484251968503
 10
-9.988405511811024
 20
-8.067267716535433
 10
-9.990881889763779
 20
-8.07048031496063
 10
-9.99303937007874
 20
-8.074228346456692
 10
-9.994909448818898
 20
-8.07861811023622
 10
-9.996488188976379
 20
-8.083653543307086
 10
-9.997779527559056
 20
-8.089334645669291
 10
-9.998783464566928
 20
-8.09565748031496
 10
-9.9995
 20
-8.102625984251969
 10
-9.999929133858268
 20
-8.110232283464567
 10
-10.00007086614173
 20
-8.11848031496063
 10
-10.00007086614173
 20
-8.191114173228346
 10
-10.03692913385827
 20
-8.191114173228346
 10
-10.03692913385827
 20
-8.109236220472441
 10
-10.03703937007874
 20
-8.102114173228346
 10
-10.03737007874016
 20
-8.095562992125984
 10
-10.03792519685039
 20
-8.089582677165355
 10
-10.03870078740158
 20
-8.084169291338583
 10
-10.03970078740157
 20
-8.07932283464567
 10
-10.04092519685039
 20
-8.075043307086615
 10
-10.04237795275591
 20
-8.071330708661417
 10
-10.04405118110236
 20
-8.068181102362205
 10
-10.046
 20
-8.0655
 10
-10.04827952755906
 20
-8.06317716535433
 10
-10.05088188976378
 20
-8.061212598425197
 10
-10.05381102362205
 20
-8.059606299212598
 10
-10.05706299212599
 20
-8.058362204724409
 10
-10.06063385826772
 20
-8.057472440944881
 10
-10.06452755905512
 20
-8.056937007874016
 10
-10.06874015748032
 20
-8.056759842519686
 10
-10.07400393700787
 20
-8.057062992125985
 10
-10.07903149606299
 20
-8.057972440944882
 10
-10.08382283464567
 20
-8.059492125984251
 10
-10.08837795275591
 20
-8.06163779527559
 10
-10.0926220472441
 20
-8.064318897637795
 10
-10.0963937007874
 20
-8.067452755905512
 10
-10.09970472440945
 20
-8.07103937007874
 10
-10.10255511811024
 20
-8.075074803149606
 10
-10.10411023622047
 20
-8.078023622047244
 10
-10.1054094488189
 20
-8.081275590551181
 10
-10.10646062992126
 20
-8.084826771653542
 10
-10.10726771653543
 20
-8.088681102362205
 10
-10.10858661417323
 20
-8.11848031496063
 10
-10.10858661417323
 20
-8.191114173228346
  0
LWPOLYLINE
  5
87
330
1F
100
AcDbEntity
  8
Layer 1
 62
     7
100
AcDbPolyline
 90
       67
 70
     1
 43
0.0
 10
-9.83401968503937
 20
-8.266212598425197
 10
-9.861232283464567
 20
-8.257314960629921
 10
-9.856838582677165
 20
-8.248984251968505
 10
-9.852740157480316
 20
-8.240488188976379
 10
-9.848940944881889
 20
-8.231818897637796
 10
-9.84544094488189
 20
-8.222984251968503
 10
-9.84223622047244
 20
-8.21398031496063
 10
-9.839330708661418
 20
-8.204807086614172
 10
-9.836724409448818
 20
-8.19546062992126
 10
-9.83442125984252
 20
-8.185944881889764
 10
-9.832381889763779
 20
-8.176220472440946
 10
-9.830622047244095
 20
-8.166212598425197
 10
-9.829129921259842
 20
-8.155917322834645
 10
-9.827913385826772
 20
-8.145338582677166
 10
-9.826964566929133
 20
-8.134472440944881
 10
-9.826291338582678
 20
-8.12332283464567
 10
-9.825885826771653
 20
-8.111885826771653
 10
-9.825751968503937
 20
-8.10016535433071
 10
-9.825885826771653
 20
-8.088944881889764
 10
-9.826291338582678
 20
-8.077933070866141
 10
-9.826964566929133
 20
-8.067125984251968
 10
-9.827913385826772
 20
-8.056523622047244
 10
-9.829129921259842
 20
-8.046122047244095
 10
-9.830622047244095
 20
-8.035917322834646
 10
-9.832381889763779
 20
-8.025913385826772
 10
-9.83442125984252
 20
-8.016106299212598
 10
-9.836724409448818
 20
-8.006464566929134
 10
-9.839330708661418
 20
-7.996921259842519
 10
-9.84223622047244
 20
-7.987476377952756
 10
-9.84544094488189
 20
-7.978125984251968
 10
-9.848940944881889
 20
-7.968874015748032
 10
-9.852740157480316
 20
-7.959716535433071
 10
-9.856838582677165
 20
-7.950657480314961
 10
-9.861232283464567
 20
-7.941696850393701
 10
-9.83401968503937
 20
-7.933425196850393
 10
-9.829078740157481
 20
-7.942507874015748
 10
-9.824468503937007
 20
-7.951759842519685
 10
-9.82018503937008
 20
-7.961181102362205
 10
-9.816228346456693
 20
-7.970767716535433
 10
-9.812594488188976
 20
-7.980527559055118
 10
-9.809287401574803
 20
-7.990456692913386
 10
-9.806307086614174
 20
-8.000555118110237
 10
-9.803645669291338
 20
-8.01082283464567
 10
-9.801322834645669
 20
-8.021267716535434
 10
-9.799307086614172
 20
-8.031933070866142
 10
-9.797602362204724
 20
-8.042818897637796
 10
-9.79620472440945
 20
-8.05392125984252
 10
-9.795114173228347
 20
-8.065240157480314
 10
-9.794334645669291
 20
-8.076779527559054
 10
-9.793870078740158
 20
-8.088535433070867
 10
-9.793712598425197
 20
-8.100507874015747
 10
-9.793870078740158
 20
-8.111913385826771
 10
-9.794338582677165
 20
-8.123181102362205
 10
-9.795122047244094
 20
-8.134307086614173
 10
-9.796216535433071
 20
-8.14529527559055
 10
-9.797629921259842
 20
-8.156141732283464
 10
-9.799358267716535
 20
-8.166846456692914
 10
-9.80140157480315
 20
-8.177413385826771
 10
-9.803759842519685
 20
-8.187838582677164
 10
-9.806417322834646
 20
-8.198106299212599
 10
-9.809397637795275
 20
-8.208240157480315
 10
-9.812700787401575
 20
-8.218236220472441
 10
-9.816326771653543
 20
-8.228102362204725
 10
-9.820271653543307
 20
-8.237830708661418
 10
-9.824535433070865
 20
-8.247425196850394
 10
-9.829118110236221
 20
-8.256885826771654
 10
-9.83401968503937
 20
-8.266212598425197
  0
ENDSEC
  0
SECTION
  2
OBJECTS
  0
DICTIONARY
  5
C
330
0
100
AcDbDictionary
281
     1
  3
ACAD_DETAILVIEWSTYLE
350
8F
  3
ACAD_GROUP
350
D
  3
ACAD_LAYOUT
350
1A
  3
ACAD_MATERIAL
350
43
  3
ACAD_MLEADERSTYLE
350
5B
  3
ACAD_MLINESTYLE
350
17
  3
ACAD_PLOTSETTINGS
350
19
  3
ACAD_PLOTSTYLENAME
350
E
  3
ACAD_SCALELIST
350
47
  3
ACAD_SECTIONVIEWSTYLE
350
90
  3
ACAD_TABLESTYLE
350
59
  3
ACAD_VISUALSTYLE
350
2A
  3
ACDB_RECOMPOSE_DATA
350
8C
  3
AcDbVariableDictionary
350
88
  0
SUN
  5
5D
330
29
100
AcDbSun
 90
        1
290
     0
 63
     7
421
 16777215
 40
1.0
291
     1
 91
  2455826
 92
 54000000
292
     0
 70
     2
 71
   256
280
     1
  0
DICTIONARY
  5
8F
102
{ACAD_REACTORS
330
C
102
}
330
C
100
AcDbDictionary
281
     1
  0
DICTIONARY
  5
D
102
{ACAD_REACTORS
330
C
102
}
330
C
100
AcDbDictionary
281
     1
  0
DICTIONARY
  5
1A
102
{ACAD_REACTORS
330
C
102
}
330
C
100
AcDbDictionary
281
     1
  3
Layout1
350
1E
  3
Layout2
350
26
  3
Model
350
22
  0
DICTIONARY
  5
43
102
{ACAD_REACTORS
330
C
102
}
330
C
100
AcDbDictionary
281
     1
  3
ByBlock
350
45
  3
ByLayer
350
44
  3
Global
350
46
  0
DICTIONARY
  5
5B
102
{ACAD_REACTORS
330
C
102
}
330
C
100
AcDbDictionary
281
     1
  3
Standard
350
5C
  0
DICTIONARY
  5
17
102
{ACAD_REACTORS
330
C
102
}
330
C
100
AcDbDictionary
281
     1
  3
Standard
350
18
  0
DICTIONARY
  5
19
102
{ACAD_REACTORS
330
C
102
}
330
C
100
AcDbDictionary
281
     1
  0
ACDBDICTIONARYWDFLT
  5
E
102
{ACAD_REACTORS
330
C
102
}
330
C
100
AcDbDictionary
281
     1
  3
Normal
350
F
100
AcDbDictionaryWithDefault
340
F
  0
DICTIONARY
  5
47
102
{ACAD_REACTORS
330
C
102
}
330
C
100
AcDbDictionary
281
     1
  3
A0
350
48
  3
A1
350
49
  3
A2
350
4A
  3
A3
350
4B
  3
A4
350
4C
  3
A5
350
4D
  3
A6
350
4E
  3
A7
350
4F
  3
A8
350
50
  3
A9
350
51
  3
B1
350
52
  3
B2
350
53
  3
B3
350
54
  3
B4
350
55
  3
B5
350
56
  3
B6
350
57
  3
B7
350
58
  0
DICTIONARY
  5
90
102
{ACAD_REACTORS
330
C
102
}
330
C
100
AcDbDictionary
281
     1
  0
DICTIONARY
  5
59
102
{ACAD_REACTORS
330
C
102
}
330
C
100
AcDbDictionary
281
     1
  3
Standard
350
5A
  0
DICTIONARY
  5
2A
102
{ACAD_REACTORS
330
C
102
}
330
C
100
AcDbDictionary
281
     1
  3
2dWireframe
350
2F
  3
Basic
350
32
  3
Brighten
350
36
  3
ColorChange
350
3A
  3
Conceptual
350
34
  3
Dim
350
35
  3
EdgeColorOff
350
3D
  3
Facepattern
350
39
  3
Flat
350
2B
  3
FlatWithEdges
350
2C
  3
Gouraud
350
2D
  3
GouraudWithEdges
350
2E
  3
Hidden
350
31
  3
JitterOff
350
3B
  3
Linepattern
350
38
  3
OverhangOff
350
3C
  3
Realistic
350
33
  3
Shaded
350
42
  3
Shaded with edges
350
41
  3
Shades of Gray
350
3E
  3
Sketchy
350
3F
  3
Thicken
350
37
  3
Wireframe
350
30
  3
X-Ray
350
40
  0
XRECORD
  5
8C
102
{ACAD_REACTORS
330
C
102
}
330
C
100
AcDbXrecord
280
     1
 90
        1
330
5A
  0
DICTIONARY
  5
88
102
{ACAD_REACTORS
330
C
102
}
330
C
100
AcDbDictionary
281
     1
  3
CANNOSCALE
350
89
  3
CMLEADERSTYLE
350
8E
  3
CTABLESTYLE
350
8D
  0
LAYOUT
  5
1E
102
{ACAD_REACTORS
330
1A
102
}
330
1A
100
AcDbPlotSettings
  1

  2
none_device
  4

  6

 40
0.0
 41
0.0
 42
0.0
 43
0.0
 44
0.0
 45
0.0
 46
0.0
 47
0.0
 48
0.0
 49
0.0
140
0.0
141
0.0
142
1.0
143
1.0
 70
   688
 72
     0
 73
     0
 74
     5
  7

 75
    16
 76
     0
 77
     2
 78
   300
147
1.0
148
0.0
149
0.0
100
AcDbLayout
  1
Layout1
 70
     1
 71
     1
 10
0.0
 20
0.0
 11
12.0
 21
9.0
 12
0.0
 22
0.0
 32
0.0
 14
1.000000000000000E+20
 24
1.000000000000000E+20
 34
1.000000000000000E+20
 15
-1.000000000000000E+20
 25
-1.000000000000000E+20
 35
-1.000000000000000E+20
146
0.0
 13
0.0
 23
0.0
 33
0.0
 16
1.0
 26
0.0
 36
0.0
 17
0.0
 27
1.0
 37
0.0
 76
     0
330
1B
  0
LAYOUT
  5
26
102
{ACAD_REACTORS
330
1A
102
}
330
1A
100
AcDbPlotSettings
  1

  2
none_device
  4

  6

 40
0.0
 41
0.0
 42
0.0
 43
0.0
 44
0.0
 45
0.0
 46
0.0
 47
0.0
 48
0.0
 49
0.0
140
0.0
141
0.0
142
1.0
143
1.0
 70
   688
 72
     0
 73
     0
 74
     5
  7

 75
    16
 76
     0
 77
     2
 78
   300
147
1.0
148
0.0
149
0.0
100
AcDbLayout
  1
Layout2
 70
     1
 71
     2
 10
0.0
 20
0.0
 11
0.0
 21
0.0
 12
0.0
 22
0.0
 32
0.0
 14
0.0
 24
0.0
 34
0.0
 15
0.0
 25
0.0
 35
0.0
146
0.0
 13
0.0
 23
0.0
 33
0.0
 16
1.0
 26
0.0
 36
0.0
 17
0.0
 27
1.0
 37
0.0
 76
     0
330
23
  0
LAYOUT
  5
22
102
{ACAD_REACTORS
330
1A
102
}
330
1A
100
AcDbPlotSettings
  1

  2
none_device
  4
Letter_(8.50_x_11.00_Inches)
  6

 40
6.35
 41
6.35
 42
6.35000508
 43
6.35000508
 44
215.9
 45
279.4
 46
0.0
 47
0.0
 48
0.0
 49
0.0
140
0.0
141
0.0
142
1.0
143
1.0
 70
  1712
 72
     0
 73
     0
 74
     0
  7

 75
     0
 76
     0
 77
     2
 78
   300
147
1.0
148
0.0
149
0.0
100
AcDbLayout
  1
Model
 70
     1
 71
     0
 10
0.0
 20
0.0
 11
12.0
 21
9.0
 12
0.0
 22
0.0
 32
0.0
 14
-14.48675196850394
 24
-14.33483464566929
 34
0.0
 15
-8.178051181102362
 25
-7.413590551181103
 35
0.0
146
0.0
 13
0.0
 23
0.0
 33
0.0
 16
1.0
 26
0.0
 36
0.0
 17
0.0
 27
1.0
 37
0.0
 76
     0
330
1F
331
29
  0
MATERIAL
  5
45
102
{ACAD_REACTORS
330
43
102
}
330
43
100
AcDbMaterial
  1
ByBlock
 72
     1
 94
      127
  0
MATERIAL
  5
44
102
{ACAD_REACTORS
330
43
102
}
330
43
100
AcDbMaterial
  1
ByLayer
 72
     1
 94
      127
  0
MATERIAL
  5
46
102
{ACAD_REACTORS
330
43
102
}
330
43
100
AcDbMaterial
  1
Global
 72
     1
 94
      127
  0
MLEADERSTYLE
  5
5C
102
{ACAD_REACTORS
330
5B
102
}
330
5B
100
AcDbMLeaderStyle
179
     2
170
     2
171
     1
172
     0
 90
        2
 40
0.0
 41
0.0
173
     1
 91
-1056964608
340
14
 92
       -2
290
     1
 42
0.09
291
     1
 43
0.36
  3
Standard
341
0
 44
0.18
300

342
11
174
     1
178
     6
175
     1
176
     0
 93
-1056964608
 45
0.18
292
     0
297
     0
 46
0.18
343
0
 94
-1056964608
 47
1.0
 49
1.0
140
1.0
293
     1
141
0.0
294
     1
177
     0
142
1.0
295
     0
296
     0
143
0.125
271
     0
272
     9
273
     9
298
     0
  0
MLINESTYLE
  5
18
102
{ACAD_REACTORS
330
17
102
}
330
17
100
AcDbMlineStyle
  2
Standard
 70
     0
  3

 62
   256
 51
90.0
 52
90.0
 71
     2
 49
0.5
 62
   256
  6
BYLAYER
 49
-0.5
 62
   256
  6
BYLAYER
  0
ACDBPLACEHOLDER
  5
F
102
{ACAD_REACTORS
330
E
102
}
330
E
  0
SCALE
  5
48
102
{ACAD_REACTORS
330
47
102
}
330
47
100
AcDbScale
 70
     0
300
1:1
140
1.0
141
1.0
290
     1
  0
SCALE
  5
49
102
{ACAD_REACTORS
330
47
102
}
330
47
100
AcDbScale
 70
     0
300
1/128" = 1'-0"
140
0.0078125
141
12.0
290
     0
  0
SCALE
  5
4A
102
{ACAD_REACTORS
330
47
102
}
330
47
100
AcDbScale
 70
     0
300
1/64" = 1'-0"
140
0.015625
141
12.0
290
     0
  0
SCALE
  5
4B
102
{ACAD_REACTORS
330
47
102
}
330
47
100
AcDbScale
 70
     0
300
1/32" = 1'-0"
140
0.03125
141
12.0
290
     0
  0
SCALE
  5
4C
102
{ACAD_REACTORS
330
47
102
}
330
47
100
AcDbScale
 70
     0
300
1/16" = 1'-0"
140
0.0625
141
12.0
290
     0
  0
SCALE
  5
4D
102
{ACAD_REACTORS
330
47
102
}
330
47
100
AcDbScale
 70
     0
300
3/32" = 1'-0"
140
0.09375
141
12.0
290
     0
  0
SCALE
  5
4E
102
{ACAD_REACTORS
330
47
102
}
330
47
100
AcDbScale
 70
     0
300
1/8" = 1'-0"
140
0.125
141
12.0
290
     0
  0
SCALE
  5
4F
102
{ACAD_REACTORS
330
47
102
}
330
47
100
AcDbScale
 70
     0
300
3/16" = 1'-0"
140
0.1875
141
12.0
290
     0
  0
SCALE
  5
50
102
{ACAD_REACTORS
330
47
102
}
330
47
100
AcDbScale
 70
     0
300
1/4" = 1'-0"
140
0.25
141
12.0
290
     0
  0
SCALE
  5
51
102
{ACAD_REACTORS
330
47
102
}
330
47
100
AcDbScale
 70
     0
300
3/8" = 1'-0"
140
0.375
141
12.0
290
     0
  0
SCALE
  5
52
102
{ACAD_REACTORS
330
47
102
}
330
47
100
AcDbScale
 70
     0
300
1/2" = 1'-0"
140
0.5
141
12.0
290
     0
  0
SCALE
  5
53
102
{ACAD_REACTORS
330
47
102
}
330
47
100
AcDbScale
 70
     0
300
3/4" = 1'-0"
140
0.75
141
12.0
290
     0
  0
SCALE
  5
54
102
{ACAD_REACTORS
330
47
102
}
330
47
100
AcDbScale
 70
     0
300
1" = 1'-0"
140
1.0
141
12.0
290
     0
  0
SCALE
  5
55
102
{ACAD_REACTORS
330
47
102
}
330
47
100
AcDbScale
 70
     0
300
1-1/2" = 1'-0"
140
1.5
141
12.0
290
     0
  0
SCALE
  5
56
102
{ACAD_REACTORS
330
47
102
}
330
47
100
AcDbScale
 70
     0
300
3" = 1'-0"
140
3.0
141
12.0
290
     0
  0
SCALE
  5
57
102
{ACAD_REACTORS
330
47
102
}
330
47
100
AcDbScale
 70
     0
300
6" = 1'-0"
140
6.0
141
12.0
290
     0
  0
SCALE
  5
58
102
{ACAD_REACTORS
330
47
102
}
330
47
100
AcDbScale
 70
     0
300
1'-0" = 1'-0"
140
12.0
141
12.0
290
     0
  0
TABLESTYLE
  5
5A
102
{ACAD_REACTORS
330
59
102
}
102
{ACAD_XDICTIONARY
360
8A
102
}
330
59
100
AcDbTableStyle
  3
Standard
 70
     0
 71
     0
 40
0.06
 41
0.06
280
     0
281
     0
  7
Standard
140
0.18
170
     2
 62
     0
 63
   257
283
     0
 90
        4
 91
        0
  1

274
    -2
284
     1
 64
     0
275
    -2
285
     1
 65
     0
276
    -2
286
     1
 66
     0
277
    -2
287
     1
 67
     0
278
    -2
288
     1
 68
     0
279
    -2
289
     1
 69
     0
  7
Standard
140
0.25
170
     5
 62
     0
 63
   257
283
     0
 90
        4
 91
        0
  1

274
    -2
284
     1
 64
     0
275
    -2
285
     1
 65
     0
276
    -2
286
     1
 66
     0
277
    -2
287
     1
 67
     0
278
    -2
288
     1
 68
     0
279
    -2
289
     1
 69
     0
  7
Standard
140
0.18
170
     5
 62
     0
 63
   257
283
     0
 90
        4
 91
        0
  1

274
    -2
284
     1
 64
     0
275
    -2
285
     1
 65
     0
276
    -2
286
     1
 66
     0
277
    -2
287
     1
 67
     0
278
    -2
288
     1
 68
     0
279
    -2
289
     1
 69
     0
  0
VISUALSTYLE
  5
2F
102
{ACAD_REACTORS
330
2A
102
}
330
2A
100
AcDbVisualStyle
  2
2dWireframe
 70
     4
177
     3
291
     0
 70
    58
 90
        0
176
     1
 90
        2
176
     1
 90
        0
176
     1
 90
        0
176
     1
 40
0.6
176
     1
 40
30.0
176
     1
 62
     7
420
 16777215
176
     1
 90
        1
176
     1
 90
        4
176
     1
 62
     7
176
     1
 62
   257
176
     1
 90
        1
176
     1
 90
        1
176
     1
 40
1.0
176
     1
 90
        0
176
     1
 62
   257
176
     1
 40
1.0
176
     1
 90
        1
176
     1
 90
        6
176
     1
 90
        2
176
     1
 62
     7
176
     1
 90
        5
176
     1
 90
        0
176
     1
 90
        0
176
     1
290
     0
176
     1
 90
        1
176
     1
 40
0.0
176
     1
 90
        0
176
     1
290
     1
176
     1
290
     1
176
     1
290
     0
176
     1
290
     0
176
     1
290
     0
176
     1
290
     0
176
     1
290
     0
176
     1
290
     0
176
     1
290
     0
176
     1
 90
       50
176
     1
 40
0.0
176
     1
 40
1.0
176
     1
 90
        0
176
     1
 62
    18
420
        0
176
     1
 90
       50
176
     1
 90
        3
176
     1
 62
     5
420
      255
176
     1
290
     0
176
     1
 90
       50
176
     1
 90
       50
176
     1
 90
       50
176
     1
290
     0
176
     1
 90
       50
176
     1
 62
   256
176
     0
 40
1.0
176
     0
 90
        2
176
     1
  1
strokes_ogs.tif
176
     1
290
     0
176
     1
 40
1.0
176
     1
 40
1.0
176
     1
  0
VISUALSTYLE
  5
32
102
{ACAD_REACTORS
330
2A
102
}
330
2A
100
AcDbVisualStyle
  2
Basic
 70
     7
177
     3
291
     1
 70
    58
 90
        1
176
     1
 90
        0
176
     1
 90
        1
176
     1
 90
        0
176
     1
 40
0.6
176
     1
 40
30.0
176
     1
 62
     7
420
 16777215
176
     1
 90
        0
176
     1
 90
        4
176
     1
 62
     7
176
     1
 62
   257
176
     1
 90
        1
176
     1
 90
        1
176
     1
 40
1.0
176
     1
 90
        8
176
     1
 62
     7
176
     1
 40
1.0
176
     1
 90
        1
176
     1
 90
        6
176
     1
 90
        2
176
     1
 62
     7
176
     1
 90
        5
176
     1
 90
        0
176
     1
 90
        0
176
     1
290
     0
176
     1
 90
        1
176
     1
 40
0.0
176
     1
 90
        0
176
     1
290
     0
176
     1
290
     1
176
     1
290
     1
176
     1
290
     0
176
     1
290
     0
176
     1
290
     0
176
     1
290
     0
176
     1
290
     0
176
     1
290
     0
176
     1
 90
       50
176
     1
 40
0.0
176
     1
 40
1.0
176
     1
 90
        0
176
     1
 62
    18
420
        0
176
     1
 90
       50
176
     1
 90
        3
176
     1
 62
     5
420
      255
176
     1
290
     0
176
     1
 90
       50
176
     1
 90
       50
176
     1
 90
       50
176
     1
290
     0
176
     1
 90
       50
176
     1
 62
   256
176
     0
 40
1.0
176
     0
 90
        2
176
     1
  1
strokes_ogs.tif
176
     1
290
     0
176
     1
 40
1.0
176
     1
 40
1.0
176
     1
  0
VISUALSTYLE
  5
36
102
{ACAD_REACTORS
330
2A
102
}
330
2A
100
AcDbVisualStyle
  2
Brighten
 70
    12
177
     3
291
     1
 70
    58
 90
        2
176
     1
 90
        2
176
     1
 90
        0
176
     1
 90
        0
176
     1
 40
0.6
176
     1
 40
30.0
176
     1
 62
     7
420
 16777215
176
     1
 90
        1
176
     1
 90
        4
176
     1
 62
     7
176
     1
 62
   257
176
     1
 90
        1
176
     1
 90
        1
176
     1
 40
1.0
176
     1
 90
        8
176
     1
 62
     7
176
     1
 40
1.0
176
     1
 90
        1
176
     1
 90
        6
176
     1
 90
        2
176
     1
 62
     7
176
     1
 90
        5
176
     1
 90
        0
176
     1
 90
        0
176
     1
290
     0
176
     1
 90
        1
176
     1
 40
50.0
176
     1
 90
        0
176
     1
290
     0
176
     1
290
     1
176
     1
290
     1
176
     1
290
     0
176
     1
290
     0
176
     1
290
     0
176
     1
290
     0
176
     1
290
     0
176
     1
290
     0
176
     1
 90
       50
176
     1
 40
0.0
176
     1
 40
1.0
176
     1
 90
        0
176
     1
 62
    18
420
        0
176
     1
 90
       50
176
     1
 90
        3
176
     1
 62
     5
420
      255
176
     1
290
     0
176
     1
 90
       50
176
     1
 90
       50
176
     1
 90
       50
176
     1
290
     0
176
     1
 90
       50
176
     1
 62
   256
176
     0
 40
1.0
176
     0
 90
        2
176
     1
  1
strokes_ogs.tif
176
     1
290
     0
176
     1
 40
1.0
176
     1
 40
1.0
176
     1
  0
VISUALSTYLE
  5
3A
102
{ACAD_REACTORS
330
2A
102
}
330
2A
100
AcDbVisualStyle
  2
ColorChange
 70
    16
177
     3
291
     1
 70
    58
 90
        2
176
     1
 90
        2
176
     1
 90
        3
176
     1
 90
        0
176
     1
 40
0.6
176
     1
 40
30.0
176
     1
 62
     8
420
  8421504
176
     1
 90
        1
176
     1
 90
        4
176
     1
 62
     7
176
     1
 62
   257
176
     1
 90
        1
176
     1
 90
        1
176
     1
 40
1.0
176
     1
 90
        8
176
     1
 62
     8
420
  8421504
176
     1
 40
1.0
176
     1
 90
        1
176
     1
 90
        6
176
     1
 90
        2
176
     1
 62
     7
176
     1
 90
        5
176
     1
 90
        0
176
     1
 90
        0
176
     1
290
     0
176
     1
 90
        1
176
     1
 40
0.0
176
     1
 90
        0
176
     1
290
     0
176
     1
290
     1
176
     1
290
     1
176
     1
290
     0
176
     1
290
     0
176
     1
290
     0
176
     1
290
     0
176
     1
290
     0
176
     1
290
     0
176
     1
 90
       50
176
     1
 40
0.0
176
     1
 40
1.0
176
     1
 90
        0
176
     1
 62
    18
420
        0
176
     1
 90
       50
176
     1
 90
        3
176
     1
 62
     5
420
      255
176
     1
290
     0
176
     1
 90
       50
176
     1
 90
       50
176
     1
 90
       50
176
     1
290
     0
176
     1
 90
       50
176
     1
 62
   256
176
     0
 40
1.0
176
     0
 90
        2
176
     1
  1
strokes_ogs.tif
176
     1
290
     0
176
     1
 40
1.0
176
     1
 40
1.0
176
     1
  0
VISUALSTYLE
  5
34
102
{ACAD_REACTORS
330
2A
102
}
330
2A
100
AcDbVisualStyle
  2
Conceptual
 70
     9
177
     3
291
     0
 70
    58
 90
        3
176
     1
 90
        2
176
     1
 90
        0
176
     1
 90
        0
176
     1
 40
0.6
176
     1
 40
30.0
176
     1
 62
     7
420
 16777215
176
     1
 90
        2
176
     1
 90
        2
176
     1
 62
     7
176
     1
 62
   257
176
     1
 90
        1
176
     1
 90
        1
176
     1
 40
179.0
176
     1
 90
        8
176
     1
 62
     7
176
     1
 40
1.0
176
     1
 90
        1
176
     1
 90
        6
176
     1
 90
        2
176
     1
 62
     7
176
     1
 90
        3
176
     1
 90
        0
176
     1
 90
        0
176
     1
290
     0
176
     1
 90
        1
176
     1
 40
0.0
176
     1
 90
        0
176
     1
290
     0
176
     1
290
     1
176
     1
290
     1
176
     1
290
     0
176
     1
290
     0
176
     1
290
     0
176
     1
290
     0
176
     1
290
     0
176
     1
290
     0
176
     1
 90
       50
176
     1
 40
0.0
176
     1
 40
1.0
176
     1
 90
        0
176
     1
 62
    18
420
        0
176
     1
 90
       50
176
     1
 90
        3
176
     1
 62
     5
420
      255
176
     1
290
     0
176
     1
 90
       50
176
     1
 90
       50
176
     1
 90
       50
176
     1
290
     0
176
     1
 90
       50
176
     1
 62
   256
176
     0
 40
1.0
176
     0
 90
        2
176
     1
  1
strokes_ogs.tif
176
     1
290
     0
176
     1
 40
1.0
176
     1
 40
1.0
176
     1
  0
VISUALSTYLE
  5
35
102
{ACAD_REACTORS
330
2A
102
}
330
2A
100
AcDbVisualStyle
  2
Dim
 70
    11
177
     3
291
     1
 70
    58
 90
        2
176
     1
 90
        2
176
     1
 90
        0
176
     1
 90
        0
176
     1
 40
0.6
176
     1
 40
30.0
176
     1
 62
     7
420
 16777215
176
     1
 90
        1
176
     1
 90
        4
176
     1
 62
     7
176
     1
 62
   257
176
     1
 90
        1
176
     1
 90
        1
176
     1
 40
1.0
176
     1
 90
        8
176
     1
 62
     7
176
     1
 40
1.0
176
     1
 90
        1
176
     1
 90
        6
176
     1
 90
        2
176
     1
 62
     7
176
     1
 90
        5
176
     1
 90
        0
176
     1
 90
        0
176
     1
290
     0
176
     1
 90
        1
176
     1
 40
-50.0
176
     1
 90
        0
176
     1
290
     0
176
     1
290
     1
176
     1
290
     1
176
     1
290
     0
176
     1
290
     0
176
     1
290
     0
176
     1
290
     0
176
     1
290
     0
176
     1
290
     0
176
     1
 90
       50
176
     1
 40
0.0
176
     1
 40
1.0
176
     1
 90
        0
176
     1
 62
    18
420
        0
176
     1
 90
       50
176
     1
 90
        3
176
     1
 62
     5
420
      255
176
     1
290
     0
176
     1
 90
       50
176
     1
 90
       50
176
     1
 90
       50
176
     1
290
     0
176
     1
 90
       50
176
     1
 62
   256
176
     0
 40
1.0
176
     0
 90
        2
176
     1
  1
strokes_ogs.tif
176
     1
290
     0
176
     1
 40
1.0
176
     1
 40
1.0
176
     1
  0
VISUALSTYLE
  5
3D
102
{ACAD_REACTORS
330
2A
102
}
330
2A
100
AcDbVisualStyle
  2
EdgeColorOff
 70
    22
177
     3
291
     1
 70
    58
 90
        2
176
     0
 90
        2
176
     0
 90
        0
176
     0
 90
        0
176
     0
 40
0.6
176
     0
 40
30.0
176
     0
 62
     7
420
 16777215
176
     0
 90
        1
176
     0
 90
        4
176
     0
 62
     7
176
     0
 62
   257
176
     0
 90
        1
176
     0
 90
        1
176
     0
 40
1.0
176
     0
 90
        8
176
     2
 62
     7
176
     0
 40
1.0
176
     0
 90
        1
176
     0
 90
        6
176
     0
 90
        2
176
     0
 62
     7
176
     0
 90
        5
176
     0
 90
        0
176
     0
 90
        0
176
     0
290
     0
176
     0
 90
        1
176
     0
 40
0.0
176
     0
 90
        0
176
     0
290
     0
176
     0
290
     1
176
     0
290
     1
176
     0
290
     0
176
     0
290
     0
176
     0
290
     0
176
     0
290
     0
176
     0
290
     0
176
     0
290
     0
176
     0
 90
       50
176
     0
 40
0.0
176
     0
 40
1.0
176
     0
 90
        0
176
     0
 62
    18
420
        0
176
     0
 90
       50
176
     0
 90
        3
176
     0
 62
     5
420
      255
176
     0
290
     0
176
     0
 90
       50
176
     0
 90
       50
176
     0
 90
       50
176
     0
290
     0
176
     0
 90
       50
176
     0
 62
   256
176
     0
 40
1.0
176
     0
 90
        2
176
     0
  1
strokes_ogs.tif
176
     0
290
     0
176
     0
 40
1.0
176
     0
 40
1.0
176
     0
  0
VISUALSTYLE
  5
39
102
{ACAD_REACTORS
330
2A
102
}
330
2A
100
AcDbVisualStyle
  2
Facepattern
 70
    15
177
     3
291
     1
 70
    58
 90
        2
176
     1
 90
        2
176
     1
 90
        0
176
     1
 90
        0
176
     1
 40
0.6
176
     1
 40
30.0
176
     1
 62
     7
420
 16777215
176
     1
 90
        1
176
     1
 90
        4
176
     1
 62
     7
176
     1
 62
   257
176
     1
 90
        1
176
     1
 90
        1
176
     1
 40
1.0
176
     1
 90
        8
176
     1
 62
     7
176
     1
 40
1.0
176
     1
 90
        1
176
     1
 90
        6
176
     1
 90
        2
176
     1
 62
     7
176
     1
 90
        5
176
     1
 90
        0
176
     1
 90
        0
176
     1
290
     0
176
     1
 90
        1
176
     1
 40
0.0
176
     1
 90
        0
176
     1
290
     0
176
     1
290
     1
176
     1
290
     1
176
     1
290
     0
176
     1
290
     0
176
     1
290
     0
176
     1
290
     0
176
     1
290
     0
176
     1
290
     0
176
     1
 90
       50
176
     1
 40
0.0
176
     1
 40
1.0
176
     1
 90
        0
176
     1
 62
    18
420
        0
176
     1
 90
       50
176
     1
 90
        3
176
     1
 62
     5
420
      255
176
     1
290
     0
176
     1
 90
       50
176
     1
 90
       50
176
     1
 90
       50
176
     1
290
     0
176
     1
 90
       50
176
     1
 62
   256
176
     0
 40
1.0
176
     0
 90
        2
176
     1
  1
strokes_ogs.tif
176
     1
290
     0
176
     1
 40
1.0
176
     1
 40
1.0
176
     1
  0
VISUALSTYLE
  5
2B
102
{ACAD_REACTORS
330
2A
102
}
330
2A
100
AcDbVisualStyle
  2
Flat
 70
     0
177
     3
291
     1
 70
    58
 90
        2
176
     1
 90
        1
176
     1
 90
        1
176
     1
 90
        2
176
     1
 40
0.6
176
     1
 40
30.0
176
     1
 62
     7
420
 16777215
176
     1
 90
        0
176
     1
 90
        0
176
     1
 62
     7
176
     1
 62
   257
176
     1
 90
        1
176
     1
 90
        1
176
     1
 40
1.0
176
     1
 90
        8
176
     1
 62
     7
176
     1
 40
1.0
176
     1
 90
        1
176
     1
 90
        6
176
     1
 90
        2
176
     1
 62
     7
176
     1
 90
        5
176
     1
 90
        0
176
     1
 90
        0
176
     1
290
     0
176
     1
 90
       13
176
     1
 40
0.0
176
     1
 90
        0
176
     1
290
     0
176
     1
290
     1
176
     1
290
     1
176
     1
290
     0
176
     1
290
     0
176
     1
290
     0
176
     1
290
     0
176
     1
290
     0
176
     1
290
     0
176
     1
 90
       50
176
     1
 40
0.0
176
     1
 40
1.0
176
     1
 90
        0
176
     1
 62
    18
420
        0
176
     1
 90
       50
176
     1
 90
        3
176
     1
 62
     5
420
      255
176
     1
290
     0
176
     1
 90
       50
176
     1
 90
       50
176
     1
 90
       50
176
     1
290
     0
176
     1
 90
       50
176
     1
 62
   256
176
     0
 40
1.0
176
     0
 90
        2
176
     1
  1
strokes_ogs.tif
176
     1
290
     0
176
     1
 40
1.0
176
     1
 40
1.0
176
     1
  0
VISUALSTYLE
  5
2C
102
{ACAD_REACTORS
330
2A
102
}
330
2A
100
AcDbVisualStyle
  2
FlatWithEdges
 70
     1
177
     3
291
     1
 70
    58
 90
        2
176
     1
 90
        1
176
     1
 90
        1
176
     1
 90
        2
176
     1
 40
0.6
176
     1
 40
30.0
176
     1
 62
     7
420
 16777215
176
     1
 90
        1
176
     1
 90
        0
176
     1
 62
     7
176
     1
 62
   257
176
     1
 90
        1
176
     1
 90
        1
176
     1
 40
1.0
176
     1
 90
        0
176
     1
 62
   257
176
     1
 40
1.0
176
     1
 90
        1
176
     1
 90
        6
176
     1
 90
        2
176
     1
 62
     7
176
     1
 90
        5
176
     1
 90
        0
176
     1
 90
        0
176
     1
290
     0
176
     1
 90
       13
176
     1
 40
0.0
176
     1
 90
        0
176
     1
290
     0
176
     1
290
     1
176
     1
290
     1
176
     1
290
     0
176
     1
290
     0
176
     1
290
     0
176
     1
290
     0
176
     1
290
     0
176
     1
290
     0
176
     1
 90
       50
176
     1
 40
0.0
176
     1
 40
1.0
176
     1
 90
        0
176
     1
 62
    18
420
        0
176
     1
 90
       50
176
     1
 90
        3
176
     1
 62
     5
420
      255
176
     1
290
     0
176
     1
 90
       50
176
     1
 90
       50
176
     1
 90
       50
176
     1
290
     0
176
     1
 90
       50
176
     1
 62
   256
176
     0
 40
1.0
176
     0
 90
        2
176
     1
  1
strokes_ogs.tif
176
     1
290
     0
176
     1
 40
1.0
176
     1
 40
1.0
176
     1
  0
VISUALSTYLE
  5
2D
102
{ACAD_REACTORS
330
2A
102
}
330
2A
100
AcDbVisualStyle
  2
Gouraud
 70
     2
177
     3
291
     1
 70
    58
 90
        2
176
     1
 90
        2
176
     1
 90
        1
176
     1
 90
        2
176
     1
 40
0.6
176
     1
 40
30.0
176
     1
 62
     7
420
 16777215
176
     1
 90
        0
176
     1
 90
        0
176
     1
 62
     7
176
     1
 62
   257
176
     1
 90
        1
176
     1
 90
        1
176
     1
 40
1.0
176
     1
 90
        0
176
     1
 62
     7
176
     1
 40
1.0
176
     1
 90
        1
176
     1
 90
        6
176
     1
 90
        2
176
     1
 62
     7
176
     1
 90
        5
176
     1
 90
        0
176
     1
 90
        0
176
     1
290
     0
176
     1
 90
       13
176
     1
 40
0.0
176
     1
 90
        0
176
     1
290
     0
176
     1
290
     1
176
     1
290
     1
176
     1
290
     0
176
     1
290
     0
176
     1
290
     0
176
     1
290
     0
176
     1
290
     0
176
     1
290
     0
176
     1
 90
       50
176
     1
 40
0.0
176
     1
 40
1.0
176
     1
 90
        0
176
     1
 62
    18
420
        0
176
     1
 90
       50
176
     1
 90
        3
176
     1
 62
     5
420
      255
176
     1
290
     0
176
     1
 90
       50
176
     1
 90
       50
176
     1
 90
       50
176
     1
290
     0
176
     1
 90
       50
176
     1
 62
   256
176
     0
 40
1.0
176
     0
 90
        2
176
     1
  1
strokes_ogs.tif
176
     1
290
     0
176
     1
 40
1.0
176
     1
 40
1.0
176
     1
  0
VISUALSTYLE
  5
2E
102
{ACAD_REACTORS
330
2A
102
}
330
2A
100
AcDbVisualStyle
  2
GouraudWithEdges
 70
     3
177
     3
291
     1
 70
    58
 90
        2
176
     1
 90
        2
176
     1
 90
        1
176
     1
 90
        2
176
     1
 40
0.6
176
     1
 40
30.0
176
     1
 62
     7
420
 16777215
176
     1
 90
        1
176
     1
 90
        0
176
     1
 62
     7
176
     1
 62
   257
176
     1
 90
        1
176
     1
 90
        1
176
     1
 40
1.0
176
     1
 90
        0
176
     1
 62
   257
176
     1
 40
1.0
176
     1
 90
        1
176
     1
 90
        6
176
     1
 90
        2
176
     1
 62
     7
176
     1
 90
        5
176
     1
 90
        0
176
     1
 90
        0
176
     1
290
     0
176
     1
 90
       13
176
     1
 40
0.0
176
     1
 90
        0
176
     1
290
     0
176
     1
290
     1
176
     1
290
     1
176
     1
290
     0
176
     1
290
     0
176
     1
290
     0
176
     1
290
     0
176
     1
290
     0
176
     1
290
     0
176
     1
 90
       50
176
     1
 40
0.0
176
     1
 40
1.0
176
     1
 90
        0
176
     1
 62
    18
420
        0
176
     1
 90
       50
176
     1
 90
        3
176
     1
 62
     5
420
      255
176
     1
290
     0
176
     1
 90
       50
176
     1
 90
       50
176
     1
 90
       50
176
     1
290
     0
176
     1
 90
       50
176
     1
 62
   256
176
     0
 40
1.0
176
     0
 90
        2
176
     1
  1
strokes_ogs.tif
176
     1
290
     0
176
     1
 40
1.0
176
     1
 40
1.0
176
     1
  0
VISUALSTYLE
  5
31
102
{ACAD_REACTORS
330
2A
102
}
330
2A
100
AcDbVisualStyle
  2
Hidden
 70
     6
177
     3
291
     0
 70
    58
 90
        1
176
     1
 90
        2
176
     1
 90
        2
176
     1
 90
        0
176
     1
 40
0.6
176
     1
 40
30.0
176
     1
 62
     7
420
 16777215
176
     1
 90
        2
176
     1
 90
        2
176
     1
 62
     7
176
     1
 62
   257
176
     1
 90
        2
176
     1
 90
        1
176
     1
 40
40.0
176
     1
 90
        0
176
     1
 62
   257
176
     1
 40
1.0
176
     1
 90
        1
176
     1
 90
        6
176
     1
 90
        2
176
     1
 62
     7
176
     1
 90
        3
176
     1
 90
        0
176
     1
 90
        0
176
     1
290
     0
176
     1
 90
        1
176
     1
 40
0.0
176
     1
 90
        0
176
     1
290
     0
176
     1
290
     1
176
     1
290
     1
176
     1
290
     0
176
     1
290
     0
176
     1
290
     0
176
     1
290
     0
176
     1
290
     0
176
     1
290
     0
176
     1
 90
       50
176
     1
 40
0.0
176
     1
 40
1.0
176
     1
 90
        0
176
     1
 62
    18
420
        0
176
     1
 90
       50
176
     1
 90
        3
176
     1
 62
     5
420
      255
176
     1
290
     0
176
     1
 90
       50
176
     1
 90
       50
176
     1
 90
       50
176
     1
290
     0
176
     1
 90
       50
176
     1
 62
   256
176
     0
 40
1.0
176
     0
 90
        2
176
     1
  1
strokes_ogs.tif
176
     1
290
     0
176
     1
 40
1.0
176
     1
 40
1.0
176
     1
  0
VISUALSTYLE
  5
3B
102
{ACAD_REACTORS
330
2A
102
}
330
2A
100
AcDbVisualStyle
  2
JitterOff
 70
    20
177
     3
291
     1
 70
    58
 90
        2
176
     0
 90
        2
176
     0
 90
        0
176
     0
 90
        0
176
     0
 40
0.6
176
     0
 40
30.0
176
     0
 62
     7
420
 16777215
176
     0
 90
        1
176
     0
 90
        4
176
     0
 62
     7
176
     0
 62
   257
176
     0
 90
        1
176
     0
 90
        1
176
     0
 40
1.0
176
     0
 90
       10
176
     2
 62
     7
176
     0
 40
1.0
176
     0
 90
        1
176
     0
 90
        6
176
     0
 90
        2
176
     0
 62
     7
176
     0
 90
        5
176
     0
 90
        0
176
     0
 90
        0
176
     0
290
     0
176
     0
 90
        1
176
     0
 40
0.0
176
     0
 90
        0
176
     0
290
     0
176
     0
290
     1
176
     0
290
     1
176
     0
290
     0
176
     0
290
     0
176
     0
290
     0
176
     0
290
     0
176
     0
290
     0
176
     0
290
     0
176
     0
 90
       50
176
     0
 40
0.0
176
     0
 40
1.0
176
     0
 90
        0
176
     0
 62
    18
420
        0
176
     0
 90
       50
176
     0
 90
        3
176
     0
 62
     5
420
      255
176
     0
290
     0
176
     0
 90
       50
176
     0
 90
       50
176
     0
 90
       50
176
     0
290
     0
176
     0
 90
       50
176
     0
 62
   256
176
     0
 40
1.0
176
     0
 90
        2
176
     0
  1
strokes_ogs.tif
176
     0
290
     0
176
     0
 40
1.0
176
     0
 40
1.0
176
     0
  0
VISUALSTYLE
  5
38
102
{ACAD_REACTORS
330
2A
102
}
330
2A
100
AcDbVisualStyle
  2
Linepattern
 70
    14
177
     3
291
     1
 70
    58
 90
        2
176
     1
 90
        2
176
     1
 90
        0
176
     1
 90
        0
176
     1
 40
0.6
176
     1
 40
30.0
176
     1
 62
     7
420
 16777215
176
     1
 90
        1
176
     1
 90
        4
176
     1
 62
     7
176
     1
 62
   257
176
     1
 90
        7
176
     1
 90
        7
176
     1
 40
1.0
176
     1
 90
        8
176
     1
 62
     7
176
     1
 40
1.0
176
     1
 90
        1
176
     1
 90
        6
176
     1
 90
        2
176
     1
 62
     7
176
     1
 90
        5
176
     1
 90
        0
176
     1
 90
        0
176
     1
290
     0
176
     1
 90
        1
176
     1
 40
0.0
176
     1
 90
        0
176
     1
290
     0
176
     1
290
     1
176
     1
290
     1
176
     1
290
     0
176
     1
290
     0
176
     1
290
     0
176
     1
290
     0
176
     1
290
     0
176
     1
290
     0
176
     1
 90
       50
176
     1
 40
0.0
176
     1
 40
1.0
176
     1
 90
        0
176
     1
 62
    18
420
        0
176
     1
 90
       50
176
     1
 90
        3
176
     1
 62
     5
420
      255
176
     1
290
     0
176
     1
 90
       50
176
     1
 90
       50
176
     1
 90
       50
176
     1
290
     0
176
     1
 90
       50
176
     1
 62
   256
176
     0
 40
1.0
176
     0
 90
        2
176
     1
  1
strokes_ogs.tif
176
     1
290
     0
176
     1
 40
1.0
176
     1
 40
1.0
176
     1
  0
VISUALSTYLE
  5
3C
102
{ACAD_REACTORS
330
2A
102
}
330
2A
100
AcDbVisualStyle
  2
OverhangOff
 70
    21
177
     3
291
     1
 70
    58
 90
        2
176
     0
 90
        2
176
     0
 90
        0
176
     0
 90
        0
176
     0
 40
0.6
176
     0
 40
30.0
176
     0
 62
     7
420
 16777215
176
     0
 90
        1
176
     0
 90
        4
176
     0
 62
     7
176
     0
 62
   257
176
     0
 90
        1
176
     0
 90
        1
176
     0
 40
1.0
176
     0
 90
        9
176
     2
 62
     7
176
     0
 40
1.0
176
     0
 90
        1
176
     0
 90
        6
176
     0
 90
        2
176
     0
 62
     7
176
     0
 90
        5
176
     0
 90
        0
176
     0
 90
        0
176
     0
290
     0
176
     0
 90
        1
176
     0
 40
0.0
176
     0
 90
        0
176
     0
290
     0
176
     0
290
     1
176
     0
290
     1
176
     0
290
     0
176
     0
290
     0
176
     0
290
     0
176
     0
290
     0
176
     0
290
     0
176
     0
290
     0
176
     0
 90
       50
176
     0
 40
0.0
176
     0
 40
1.0
176
     0
 90
        0
176
     0
 62
    18
420
        0
176
     0
 90
       50
176
     0
 90
        3
176
     0
 62
     5
420
      255
176
     0
290
     0
176
     0
 90
       50
176
     0
 90
       50
176
     0
 90
       50
176
     0
290
     0
176
     0
 90
       50
176
     0
 62
   256
176
     0
 40
1.0
176
     0
 90
        2
176
     0
  1
strokes_ogs.tif
176
     0
290
     0
176
     0
 40
1.0
176
     0
 40
1.0
176
     0
  0
VISUALSTYLE
  5
33
102
{ACAD_REACTORS
330
2A
102
}
330
2A
100
AcDbVisualStyle
  2
Realistic
 70
     8
177
     3
291
     0
 70
    58
 90
        2
176
     1
 90
        3
176
     1
 90
        0
176
     1
 90
        2
176
     1
 40
0.6
176
     1
 40
30.0
176
     1
 62
     7
420
 16777215
176
     1
 90
        0
176
     1
 90
        0
176
     1
 62
     7
176
     1
 62
   257
176
     1
 90
        1
176
     1
 90
        1
176
     1
 40
1.0
176
     1
 90
        8
176
     1
 62
   257
176
     1
 40
1.0
176
     1
 90
        1
176
     1
 90
        6
176
     1
 90
        2
176
     1
 62
     7
176
     1
 90
        3
176
     1
 90
        0
176
     1
 90
        0
176
     1
290
     0
176
     1
 90
       13
176
     1
 40
0.0
176
     1
 90
        0
176
     1
290
     0
176
     1
290
     1
176
     1
290
     1
176
     1
290
     0
176
     1
290
     0
176
     1
290
     0
176
     1
290
     0
176
     1
290
     0
176
     1
290
     0
176
     1
 90
       50
176
     1
 40
0.0
176
     1
 40
1.0
176
     1
 90
        0
176
     1
 62
    18
420
        0
176
     1
 90
       50
176
     1
 90
        3
176
     1
 62
     5
420
      255
176
     1
290
     0
176
     1
 90
       50
176
     1
 90
       50
176
     1
 90
       50
176
     1
290
     0
176
     1
 90
       50
176
     1
 62
   256
176
     0
 40
1.0
176
     0
 90
        2
176
     1
  1
strokes_ogs.tif
176
     1
290
     0
176
     1
 40
1.0
176
     1
 40
1.0
176
     1
  0
VISUALSTYLE
  5
42
102
{ACAD_REACTORS
330
2A
102
}
330
2A
100
AcDbVisualStyle
  2
Shaded
 70
    27
177
     3
291
     0
 70
    58
 90
        2
176
     1
 90
        2
176
     1
 90
        1
176
     1
 90
        2
176
     1
 40
0.6
176
     1
 40
30.0
176
     1
 62
     7
420
 16777215
176
     1
 90
        0
176
     1
 90
        4
176
     1
 62
     7
176
     1
 62
   257
176
     1
 90
        1
176
     1
 90
        1
176
     1
 40
1.0
176
     1
 90
        8
176
     1
 62
   257
176
     1
 40
1.0
176
     1
 90
        1
176
     1
 90
        6
176
     1
 90
        2
176
     1
 62
     8
420
  7895160
176
     1
 90
        3
176
     1
 90
        0
176
     1
 90
        0
176
     1
290
     0
176
     1
 90
        5
176
     1
 40
0.0
176
     1
 90
        0
176
     1
290
     0
176
     1
290
     1
176
     1
290
     1
176
     1
290
     0
176
     1
290
     0
176
     1
290
     0
176
     1
290
     0
176
     1
290
     0
176
     1
290
     0
176
     1
 90
       50
176
     1
 40
0.0
176
     1
 40
1.0
176
     1
 90
        0
176
     1
 62
    18
420
        0
176
     1
 90
       50
176
     1
 90
        3
176
     1
 62
     5
420
      255
176
     1
290
     0
176
     1
 90
       50
176
     1
 90
       50
176
     1
 90
       50
176
     1
290
     0
176
     1
 90
       50
176
     1
 62
   256
176
     0
 40
1.0
176
     0
 90
        2
176
     1
  1
strokes_ogs.tif
176
     1
290
     0
176
     1
 40
1.0
176
     1
 40
1.0
176
     1
  0
VISUALSTYLE
  5
41
102
{ACAD_REACTORS
330
2A
102
}
330
2A
100
AcDbVisualStyle
  2
Shaded with edges
 70
    26
177
     3
291
     0
 70
    58
 90
        2
176
     1
 90
        2
176
     1
 90
        1
176
     1
 90
        2
176
     1
 40
0.6
176
     1
 40
30.0
176
     1
 62
     7
420
 16777215
176
     1
 90
        1
176
     1
 90
       10
176
     1
 62
     7
176
     1
 62
   257
176
     1
 90
        2
176
     1
 90
        1
176
     1
 40
1.0
176
     1
 90
        8
176
     1
 62
   257
176
     1
 40
1.0
176
     1
 90
        1
176
     1
 90
        6
176
     1
 90
        2
176
     1
 62
     7
176
     1
 90
        3
176
     1
 90
        0
176
     1
 90
        0
176
     1
290
     0
176
     1
 90
        5
176
     1
 40
0.0
176
     1
 90
        0
176
     1
290
     0
176
     1
290
     1
176
     1
290
     1
176
     1
290
     0
176
     1
290
     0
176
     1
290
     0
176
     1
290
     0
176
     1
290
     0
176
     1
290
     0
176
     1
 90
       50
176
     1
 40
0.0
176
     1
 40
1.0
176
     1
 90
        0
176
     1
 62
    18
420
        0
176
     1
 90
       50
176
     1
 90
        3
176
     1
 62
     5
420
      255
176
     1
290
     0
176
     1
 90
       50
176
     1
 90
       50
176
     1
 90
       50
176
     1
290
     0
176
     1
 90
       50
176
     1
 62
   256
176
     0
 40
1.0
176
     0
 90
        2
176
     1
  1
strokes_ogs.tif
176
     1
290
     0
176
     1
 40
1.0
176
     1
 40
1.0
176
     1
  0
VISUALSTYLE
  5
3E
102
{ACAD_REACTORS
330
2A
102
}
330
2A
100
AcDbVisualStyle
  2
Shades of Gray
 70
    23
177
     3
291
     0
 70
    58
 90
        2
176
     1
 90
        2
176
     1
 90
        3
176
     1
 90
        0
176
     1
 40
0.6
176
     1
 40
30.0
176
     1
 62
     7
420
 16777215
176
     1
 90
        2
176
     1
 90
        2
176
     1
 62
     7
176
     1
 62
     7
176
     1
 90
        1
176
     1
 90
        1
176
     1
 40
40.0
176
     1
 90
        8
176
     1
 62
     7
176
     1
 40
1.0
176
     1
 90
        1
176
     1
 90
        6
176
     1
 90
        2
176
     1
 62
     7
176
     1
 90
        3
176
     1
 90
        0
176
     1
 90
        0
176
     1
290
     0
176
     1
 90
        1
176
     1
 40
0.0
176
     1
 90
        0
176
     1
290
     0
176
     1
290
     1
176
     1
290
     1
176
     1
290
     0
176
     1
290
     0
176
     1
290
     0
176
     1
290
     0
176
     1
290
     0
176
     1
290
     0
176
     1
 90
       50
176
     1
 40
0.0
176
     1
 40
1.0
176
     1
 90
        0
176
     1
 62
    18
420
        0
176
     1
 90
       50
176
     1
 90
        3
176
     1
 62
     5
420
      255
176
     1
290
     0
176
     1
 90
       50
176
     1
 90
       50
176
     1
 90
       50
176
     1
290
     0
176
     1
 90
       50
176
     1
 62
   256
176
     0
 40
1.0
176
     0
 90
        2
176
     1
  1
strokes_ogs.tif
176
     1
290
     0
176
     1
 40
1.0
176
     1
 40
1.0
176
     1
  0
VISUALSTYLE
  5
3F
102
{ACAD_REACTORS
330
2A
102
}
330
2A
100
AcDbVisualStyle
  2
Sketchy
 70
    24
177
     3
291
     0
 70
    58
 90
        1
176
     1
 90
        2
176
     1
 90
        2
176
     1
 90
        0
176
     1
 40
0.6
176
     1
 40
30.0
176
     1
 62
     7
420
 16777215
176
     1
 90
        2
176
     1
 90
        2
176
     1
 62
     7
176
     1
 62
     7
176
     1
 90
        1
176
     1
 90
        1
176
     1
 40
40.0
176
     1
 90
       11
176
     1
 62
     7
176
     1
 40
1.0
176
     1
 90
        1
176
     1
 90
        6
176
     1
 90
        2
176
     1
 62
     7
176
     1
 90
        6
176
     1
 90
        0
176
     1
 90
        0
176
     1
290
     0
176
     1
 90
        1
176
     1
 40
0.0
176
     1
 90
        0
176
     1
290
     0
176
     1
290
     1
176
     1
290
     1
176
     1
290
     0
176
     1
290
     0
176
     1
290
     0
176
     1
290
     0
176
     1
290
     0
176
     1
290
     0
176
     1
 90
       50
176
     1
 40
0.0
176
     1
 40
1.0
176
     1
 90
        0
176
     1
 62
    18
420
        0
176
     1
 90
       50
176
     1
 90
        3
176
     1
 62
     5
420
      255
176
     1
290
     0
176
     1
 90
       50
176
     1
 90
       50
176
     1
 90
       50
176
     1
290
     0
176
     1
 90
       50
176
     1
 62
   256
176
     0
 40
1.0
176
     0
 90
        2
176
     1
  1
strokes_ogs.tif
176
     1
290
     0
176
     1
 40
1.0
176
     1
 40
1.0
176
     1
  0
VISUALSTYLE
  5
37
102
{ACAD_REACTORS
330
2A
102
}
330
2A
100
AcDbVisualStyle
  2
Thicken
 70
    13
177
     3
291
     1
 70
    58
 90
        2
176
     1
 90
        2
176
     1
 90
        0
176
     1
 90
        0
176
     1
 40
0.6
176
     1
 40
30.0
176
     1
 62
     7
420
 16777215
176
     1
 90
        1
176
     1
 90
        4
176
     1
 62
     7
176
     1
 62
   257
176
     1
 90
        1
176
     1
 90
        1
176
     1
 40
1.0
176
     1
 90
       12
176
     1
 62
     7
176
     1
 40
1.0
176
     1
 90
        1
176
     1
 90
        6
176
     1
 90
        2
176
     1
 62
     7
176
     1
 90
        5
176
     1
 90
        0
176
     1
 90
        0
176
     1
290
     0
176
     1
 90
        1
176
     1
 40
0.0
176
     1
 90
        0
176
     1
290
     0
176
     1
290
     1
176
     1
290
     1
176
     1
290
     0
176
     1
290
     0
176
     1
290
     0
176
     1
290
     0
176
     1
290
     0
176
     1
290
     0
176
     1
 90
       50
176
     1
 40
0.0
176
     1
 40
1.0
176
     1
 90
        0
176
     1
 62
    18
420
        0
176
     1
 90
       50
176
     1
 90
        3
176
     1
 62
     5
420
      255
176
     1
290
     0
176
     1
 90
       50
176
     1
 90
       50
176
     1
 90
       50
176
     1
290
     0
176
     1
 90
       50
176
     1
 62
   256
176
     0
 40
1.0
176
     0
 90
        2
176
     1
  1
strokes_ogs.tif
176
     1
290
     0
176
     1
 40
1.0
176
     1
 40
1.0
176
     1
  0
VISUALSTYLE
  5
30
102
{ACAD_REACTORS
330
2A
102
}
330
2A
100
AcDbVisualStyle
  2
Wireframe
 70
     5
177
     3
291
     0
 70
    58
 90
        0
176
     1
 90
        2
176
     1
 90
        0
176
     1
 90
        0
176
     1
 40
0.6
176
     1
 40
30.0
176
     1
 62
     7
420
 16777215
176
     1
 90
        1
176
     1
 90
        4
176
     1
 62
     7
176
     1
 62
   257
176
     1
 90
        1
176
     1
 90
        1
176
     1
 40
1.0
176
     1
 90
        0
176
     1
 62
   257
176
     1
 40
1.0
176
     1
 90
        1
176
     1
 90
        6
176
     1
 90
        2
176
     1
 62
     7
176
     1
 90
        3
176
     1
 90
        0
176
     1
 90
        0
176
     1
290
     0
176
     1
 90
        1
176
     1
 40
0.0
176
     1
 90
        0
176
     1
290
     0
176
     1
290
     1
176
     1
290
     1
176
     1
290
     0
176
     1
290
     0
176
     1
290
     0
176
     1
290
     0
176
     1
290
     0
176
     1
290
     0
176
     1
 90
       50
176
     1
 40
0.0
176
     1
 40
1.0
176
     1
 90
        0
176
     1
 62
    18
420
        0
176
     1
 90
       50
176
     1
 90
        3
176
     1
 62
     5
420
      255
176
     1
290
     0
176
     1
 90
       50
176
     1
 90
       50
176
     1
 90
       50
176
     1
290
     0
176
     1
 90
       50
176
     1
 62
   256
176
     0
 40
1.0
176
     0
 90
        2
176
     1
  1
strokes_ogs.tif
176
     1
290
     0
176
     1
 40
1.0
176
     1
 40
1.0
176
     1
  0
VISUALSTYLE
  5
40
102
{ACAD_REACTORS
330
2A
102
}
330
2A
100
AcDbVisualStyle
  2
X-Ray
 70
    25
177
     3
291
     0
 70
    58
 90
        2
176
     1
 90
        2
176
     1
 90
        1
176
     1
 90
        1
176
     1
 40
0.5
176
     1
 40
30.0
176
     1
 62
     7
420
 16777215
176
     1
 90
        1
176
     1
 90
        0
176
     1
 62
     7
176
     1
 62
   257
176
     1
 90
        1
176
     1
 90
        1
176
     1
 40
1.0
176
     1
 90
        8
176
     1
 62
     7
176
     1
 40
1.0
176
     1
 90
        1
176
     1
 90
        6
176
     1
 90
        2
176
     1
 62
     7
176
     1
 90
        3
176
     1
 90
        0
176
     1
 90
        0
176
     1
290
     0
176
     1
 90
       13
176
     1
 40
0.0
176
     1
 90
        0
176
     1
290
     0
176
     1
290
     1
176
     1
290
     1
176
     1
290
     0
176
     1
290
     0
176
     1
290
     0
176
     1
290
     0
176
     1
290
     0
176
     1
290
     0
176
     1
 90
       50
176
     1
 40
0.0
176
     1
 40
1.0
176
     1
 90
        0
176
     1
 62
    18
420
        0
176
     1
 90
       50
176
     1
 90
        3
176
     1
 62
     5
420
      255
176
     1
290
     0
176
     1
 90
       50
176
     1
 90
       50
176
     1
 90
       50
176
     1
290
     0
176
     1
 90
       50
176
     1
 62
   256
176
     0
 40
1.0
176
     0
 90
        2
176
     1
  1
strokes_ogs.tif
176
     1
290
     0
176
     1
 40
1.0
176
     1
 40
1.0
176
     1
  0
DICTIONARYVAR
  5
89
102
{ACAD_REACTORS
330
88
102
}
330
88
100
DictionaryVariables
280
     0
  1
1:1
  0
DICTIONARYVAR
  5
8E
102
{ACAD_REACTORS
330
88
102
}
330
88
100
DictionaryVariables
280
     0
  1
Standard
  0
DICTIONARYVAR
  5
8D
102
{ACAD_REACTORS
330
88
102
}
330
88
100
DictionaryVariables
280
     0
  1
Standard
  0
DICTIONARY
  5
8A
330
5A
100
AcDbDictionary
280
     1
281
     1
  3
ACAD_ROUNDTRIP_2008_TABLESTYLE_CELLSTYLEMAP
360
8B
  0
CELLSTYLEMAP
  5
8B
102
{ACAD_REACTORS
330
8A
102
}
330
8A
100
AcDbCellStyleMap
 90
        3
300
CELLSTYLE
  1
TABLEFORMAT_BEGIN
 90
        5
170
     1
 91
        0
 92
    32768
 62
   257
 93
        1
300
CONTENTFORMAT
  1
CONTENTFORMAT_BEGIN
 90
        0
 91
        0
 92
        4
 93
        0
300

 40
0.0
140
1.0
 94
        5
 62
     0
340
11
144
0.25
309
CONTENTFORMAT_END
171
     1
301
MARGIN
  1
CELLMARGIN_BEGIN
 40
0.06
 40
0.06
 40
0.06
 40
0.06
 40
0.06
 40
0.06
309
CELLMARGIN_END
 94
        6
 95
        1
302
GRIDFORMAT
  1
GRIDFORMAT_BEGIN
 90
        0
 91
        1
 62
     0
 92
       -2
340
14
 93
        0
 40
0.045
309
GRIDFORMAT_END
 95
        2
302
GRIDFORMAT
  1
GRIDFORMAT_BEGIN
 90
        0
 91
        1
 62
     0
 92
       -2
340
14
 93
        0
 40
0.045
309
GRIDFORMAT_END
 95
        4
302
GRIDFORMAT
  1
GRIDFORMAT_BEGIN
 90
        0
 91
        1
 62
     0
 92
       -2
340
14
 93
        0
 40
0.045
309
GRIDFORMAT_END
 95
        8
302
GRIDFORMAT
  1
GRIDFORMAT_BEGIN
 90
        0
 91
        1
 62
     0
 92
       -2
340
14
 93
        0
 40
0.045
309
GRIDFORMAT_END
 95
       16
302
GRIDFORMAT
  1
GRIDFORMAT_BEGIN
 90
        0
 91
        1
 62
     0
 92
       -2
340
14
 93
        0
 40
0.045
309
GRIDFORMAT_END
 95
       32
302
GRIDFORMAT
  1
GRIDFORMAT_BEGIN
 90
        0
 91
        1
 62
     0
 92
       -2
340
14
 93
        0
 40
0.045
309
GRIDFORMAT_END
309
TABLEFORMAT_END
  1
CELLSTYLE_BEGIN
 90
        1
 91
        1
300
_TITLE
309
CELLSTYLE_END
300
CELLSTYLE
  1
TABLEFORMAT_BEGIN
 90
        5
170
     1
 91
        0
 92
        0
 62
   257
 93
        1
300
CONTENTFORMAT
  1
CONTENTFORMAT_BEGIN
 90
        0
 91
        0
 92
        4
 93
        0
300

 40
0.0
140
1.0
 94
        5
 62
     0
340
11
144
0.18
309
CONTENTFORMAT_END
171
     1
301
MARGIN
  1
CELLMARGIN_BEGIN
 40
0.06
 40
0.06
 40
0.06
 40
0.06
 40
0.06
 40
0.06
309
CELLMARGIN_END
 94
        6
 95
        1
302
GRIDFORMAT
  1
GRIDFORMAT_BEGIN
 90
        0
 91
        1
 62
     0
 92
       -2
340
14
 93
        0
 40
0.045
309
GRIDFORMAT_END
 95
        2
302
GRIDFORMAT
  1
GRIDFORMAT_BEGIN
 90
        0
 91
        1
 62
     0
 92
       -2
340
14
 93
        0
 40
0.045
309
GRIDFORMAT_END
 95
        4
302
GRIDFORMAT
  1
GRIDFORMAT_BEGIN
 90
        0
 91
        1
 62
     0
 92
       -2
340
14
 93
        0
 40
0.045
309
GRIDFORMAT_END
 95
        8
302
GRIDFORMAT
  1
GRIDFORMAT_BEGIN
 90
        0
 91
        1
 62
     0
 92
       -2
340
14
 93
        0
 40
0.045
309
GRIDFORMAT_END
 95
       16
302
GRIDFORMAT
  1
GRIDFORMAT_BEGIN
 90
        0
 91
        1
 62
     0
 92
       -2
340
14
 93
        0
 40
0.045
309
GRIDFORMAT_END
 95
       32
302
GRIDFORMAT
  1
GRIDFORMAT_BEGIN
 90
        0
 91
        1
 62
     0
 92
       -2
340
14
 93
        0
 40
0.045
309
GRIDFORMAT_END
309
TABLEFORMAT_END
  1
CELLSTYLE_BEGIN
 90
        2
 91
        1
300
_HEADER
309
CELLSTYLE_END
300
CELLSTYLE
  1
TABLEFORMAT_BEGIN
 90
        5
170
     1
 91
        0
 92
        0
 62
   257
 93
        1
300
CONTENTFORMAT
  1
CONTENTFORMAT_BEGIN
 90
        0
 91
        0
 92
        4
 93
        0
300

 40
0.0
140
1.0
 94
        2
 62
     0
340
11
144
0.18
309
CONTENTFORMAT_END
171
     1
301
MARGIN
  1
CELLMARGIN_BEGIN
 40
0.06
 40
0.06
 40
0.06
 40
0.06
 40
0.06
 40
0.06
309
CELLMARGIN_END
 94
        6
 95
        1
302
GRIDFORMAT
  1
GRIDFORMAT_BEGIN
 90
        0
 91
        1
 62
     0
 92
       -2
340
14
 93
        0
 40
0.045
309
GRIDFORMAT_END
 95
        2
302
GRIDFORMAT
  1
GRIDFORMAT_BEGIN
 90
        0
 91
        1
 62
     0
 92
       -2
340
14
 93
        0
 40
0.045
309
GRIDFORMAT_END
 95
        4
302
GRIDFORMAT
  1
GRIDFORMAT_BEGIN
 90
        0
 91
        1
 62
     0
 92
       -2
340
14
 93
        0
 40
0.045
309
GRIDFORMAT_END
 95
        8
302
GRIDFORMAT
  1
GRIDFORMAT_BEGIN
 90
        0
 91
        1
 62
     0
 92
       -2
340
14
 93
        0
 40
0.045
309
GRIDFORMAT_END
 95
       16
302
GRIDFORMAT
  1
GRIDFORMAT_BEGIN
 90
        0
 91
        1
 62
     0
 92
       -2
340
14
 93
        0
 40
0.045
309
GRIDFORMAT_END
 95
       32
302
GRIDFORMAT
  1
GRIDFORMAT_BEGIN
 90
        0
 91
        1
 62
     0
 92
       -2
340
14
 93
        0
 40
0.045
309
GRIDFORMAT_END
309
TABLEFORMAT_END
  1
CELLSTYLE_BEGIN
 90
        3
 91
        2
300
_DATA
309
CELLSTYLE_END
  0
ENDSEC
  0
EOF
