  0
SECTION
  2
HEADER
  9
$ACADVER
  1
AC1027
  9
$ACADMAINTVER
 70
   105
  9
$DWGCODEPAGE
  3
ANSI_1252
  9
$LASTSAVEDBY
  1
Office Desk
  9
$REQUIREDVERSIONS
160
                 0
  9
$INSBASE
 10
0.0
 20
0.0
 30
0.0
  9
$EXTMIN
 10
10.14720866141732
 20
-17.43631496062992
 30
0.0
  9
$EXTMAX
 10
20.76421653543307
 20
-3.311574803149606
 30
0.0
  9
$LIMMIN
 10
0.0
 20
0.0
  9
$LIMMAX
 10
12.0
 20
9.0
  9
$ORTHOMODE
 70
     0
  9
$REGENMODE
 70
     1
  9
$FILLMODE
 70
     1
  9
$QTEXTMODE
 70
     0
  9
$MIRRTEXT
 70
     1
  9
$LTSCALE
 40
1.0
  9
$ATTMODE
 70
     1
  9
$TEXTSIZE
 40
0.2
  9
$TRACEWID
 40
0.05
  9
$TEXTSTYLE
  7
Standard
  9
$CLAYER
  8
0
  9
$CELTYPE
  6
ByLayer
  9
$CECOLOR
 62
   256
  9
$CELTSCALE
 40
1.0
  9
$DISPSILH
 70
     0
  9
$DIMSCALE
 40
1.0
  9
$DIMASZ
 40
0.18
  9
$DIMEXO
 40
0.0625
  9
$DIMDLI
 40
0.38
  9
$DIMRND
 40
0.0
  9
$DIMDLE
 40
0.0
  9
$DIMEXE
 40
0.18
  9
$DIMTP
 40
0.0
  9
$DIMTM
 40
0.0
  9
$DIMTXT
 40
0.18
  9
$DIMCEN
 40
0.09
  9
$DIMTSZ
 40
0.0
  9
$DIMTOL
 70
     0
  9
$DIMLIM
 70
     0
  9
$DIMTIH
 70
     1
  9
$DIMTOH
 70
     1
  9
$DIMSE1
 70
     0
  9
$DIMSE2
 70
     0
  9
$DIMTAD
 70
     0
  9
$DIMZIN
 70
     0
  9
$DIMBLK
  1

  9
$DIMASO
 70
     1
  9
$DIMSHO
 70
     1
  9
$DIMPOST
  1

  9
$DIMAPOST
  1

  9
$DIMALT
 70
     0
  9
$DIMALTD
 70
     2
  9
$DIMALTF
 40
25.4
  9
$DIMLFAC
 40
1.0
  9
$DIMTOFL
 70
     0
  9
$DIMTVP
 40
0.0
  9
$DIMTIX
 70
     0
  9
$DIMSOXD
 70
     0
  9
$DIMSAH
 70
     0
  9
$DIMBLK1
  1

  9
$DIMBLK2
  1

  9
$DIMSTYLE
  2
Standard
  9
$DIMCLRD
 70
     0
  9
$DIMCLRE
 70
     0
  9
$DIMCLRT
 70
     0
  9
$DIMTFAC
 40
1.0
  9
$DIMGAP
 40
0.09
  9
$DIMJUST
 70
     0
  9
$DIMSD1
 70
     0
  9
$DIMSD2
 70
     0
  9
$DIMTOLJ
 70
     1
  9
$DIMTZIN
 70
     0
  9
$DIMALTZ
 70
     0
  9
$DIMALTTZ
 70
     0
  9
$DIMUPT
 70
     0
  9
$DIMDEC
 70
     4
  9
$DIMTDEC
 70
     4
  9
$DIMALTU
 70
     2
  9
$DIMALTTD
 70
     2
  9
$DIMTXSTY
  7
Standard
  9
$DIMAUNIT
 70
     0
  9
$DIMADEC
 70
     0
  9
$DIMALTRND
 40
0.0
  9
$DIMAZIN
 70
     0
  9
$DIMDSEP
 70
    46
  9
$DIMATFIT
 70
     3
  9
$DIMFRAC
 70
     0
  9
$DIMLDRBLK
  1

  9
$DIMLUNIT
 70
     2
  9
$DIMLWD
 70
    -2
  9
$DIMLWE
 70
    -2
  9
$DIMTMOVE
 70
     0
  9
$DIMFXL
 40
1.0
  9
$DIMFXLON
 70
     0
  9
$DIMJOGANG
 40
0.7853981633974483
  9
$DIMTFILL
 70
     0
  9
$DIMTFILLCLR
 70
     0
  9
$DIMARCSYM
 70
     0
  9
$DIMLTYPE
  6

  9
$DIMLTEX1
  6

  9
$DIMLTEX2
  6

  9
$DIMTXTDIRECTION
 70
     0
  9
$LUNITS
 70
     2
  9
$LUPREC
 70
     4
  9
$SKETCHINC
 40
0.1
  9
$FILLETRAD
 40
0.0
  9
$AUNITS
 70
     0
  9
$AUPREC
 70
     0
  9
$MENU
  1
.
  9
$ELEVATION
 40
0.0
  9
$PELEVATION
 40
0.0
  9
$THICKNESS
 40
0.0
  9
$LIMCHECK
 70
     0
  9
$CHAMFERA
 40
0.0
  9
$CHAMFERB
 40
0.0
  9
$CHAMFERC
 40
0.0
  9
$CHAMFERD
 40
0.0
  9
$SKPOLY
 70
     0
  9
$TDCREATE
 40
2461020.621944885
  9
$TDUCREATE
 40
2461020.392778218
  9
$TDUPDATE
 40
2461020.621944931
  9
$TDUUPDATE
 40
2461020.392778264
  9
$TDINDWG
 40
0.0000000116
  9
$TDUSRTIMER
 40
0.0000000116
  9
$USRTIMER
 70
     1
  9
$ANGBASE
 50
0.0
  9
$ANGDIR
 70
     0
  9
$PDMODE
 70
     0
  9
$PDSIZE
 40
0.0
  9
$PLINEWID
 40
0.0
  9
$SPLFRAME
 70
     0
  9
$SPLINETYPE
 70
     6
  9
$SPLINESEGS
 70
     8
  9
$HANDSEED
  5
92
  9
$SURFTAB1
 70
     6
  9
$SURFTAB2
 70
     6
  9
$SURFTYPE
 70
     6
  9
$SURFU
 70
     6
  9
$SURFV
 70
     6
  9
$UCSBASE
  2

  9
$UCSNAME
  2

  9
$UCSORG
 10
0.0
 20
0.0
 30
0.0
  9
$UCSXDIR
 10
1.0
 20
0.0
 30
0.0
  9
$UCSYDIR
 10
0.0
 20
1.0
 30
0.0
  9
$UCSORTHOREF
  2

  9
$UCSORTHOVIEW
 70
     0
  9
$UCSORGTOP
 10
0.0
 20
0.0
 30
0.0
  9
$UCSORGBOTTOM
 10
0.0
 20
0.0
 30
0.0
  9
$UCSORGLEFT
 10
0.0
 20
0.0
 30
0.0
  9
$UCSORGRIGHT
 10
0.0
 20
0.0
 30
0.0
  9
$UCSORGFRONT
 10
0.0
 20
0.0
 30
0.0
  9
$UCSORGBACK
 10
0.0
 20
0.0
 30
0.0
  9
$PUCSBASE
  2

  9
$PUCSNAME
  2

  9
$PUCSORG
 10
0.0
 20
0.0
 30
0.0
  9
$PUCSXDIR
 10
1.0
 20
0.0
 30
0.0
  9
$PUCSYDIR
 10
0.0
 20
1.0
 30
0.0
  9
$PUCSORTHOREF
  2

  9
$PUCSORTHOVIEW
 70
     0
  9
$PUCSORGTOP
 10
0.0
 20
0.0
 30
0.0
  9
$PUCSORGBOTTOM
 10
0.0
 20
0.0
 30
0.0
  9
$PUCSORGLEFT
 10
0.0
 20
0.0
 30
0.0
  9
$PUCSORGRIGHT
 10
0.0
 20
0.0
 30
0.0
  9
$PUCSORGFRONT
 10
0.0
 20
0.0
 30
0.0
  9
$PUCSORGBACK
 10
0.0
 20
0.0
 30
0.0
  9
$USERI1
 70
     0
  9
$USERI2
 70
     0
  9
$USERI3
 70
     0
  9
$USERI4
 70
     0
  9
$USERI5
 70
     0
  9
$USERR1
 40
0.0
  9
$USERR2
 40
0.0
  9
$USERR3
 40
0.0
  9
$USERR4
 40
0.0
  9
$USERR5
 40
0.0
  9
$WORLDVIEW
 70
     1
  9
$SHADEDGE
 70
     3
  9
$SHADEDIF
 70
    70
  9
$TILEMODE
 70
     1
  9
$MAXACTVP
 70
    64
  9
$PINSBASE
 10
0.0
 20
0.0
 30
0.0
  9
$PLIMCHECK
 70
     0
  9
$PEXTMIN
 10
1.000000000000000E+20
 20
1.000000000000000E+20
 30
1.000000000000000E+20
  9
$PEXTMAX
 10
-1.000000000000000E+20
 20
-1.000000000000000E+20
 30
-1.000000000000000E+20
  9
$PLIMMIN
 10
0.0
 20
0.0
  9
$PLIMMAX
 10
12.0
 20
9.0
  9
$UNITMODE
 70
     0
  9
$VISRETAIN
 70
     1
  9
$PLINEGEN
 70
     0
  9
$PSLTSCALE
 70
     1
  9
$TREEDEPTH
 70
  3020
  9
$CMLSTYLE
  2
Standard
  9
$CMLJUST
 70
     0
  9
$CMLSCALE
 40
1.0
  9
$PROXYGRAPHICS
 70
     1
  9
$MEASUREMENT
 70
     0
  9
$CELWEIGHT
370
    -1
  9
$ENDCAPS
280
     0
  9
$JOINSTYLE
280
     0
  9
$LWDISPLAY
290
     0
  9
$INSUNITS
 70
     1
  9
$HYPERLINKBASE
  1

  9
$STYLESHEET
  1

  9
$XEDIT
290
     1
  9
$CEPSNTYPE
380
     0
  9
$PSTYLEMODE
290
     1
  9
$FINGERPRINTGUID
  2
{01a7d588-d652-4a67-9a9d-b6f11993ee76}
  9
$VERSIONGUID
  2
{FAEB1C32-E019-11D5-929B-00C0DF256EC4}
  9
$EXTNAMES
290
     1
  9
$PSVPSCALE
 40
0.0
  9
$OLESTARTUP
290
     0
  9
$SORTENTS
280
   127
  9
$INDEXCTL
280
     0
  9
$HIDETEXT
280
     1
  9
$XCLIPFRAME
280
     2
  9
$HALOGAP
280
     0
  9
$OBSCOLOR
 70
   257
  9
$OBSLTYPE
280
     0
  9
$INTERSECTIONDISPLAY
280
     0
  9
$INTERSECTIONCOLOR
 70
   257
  9
$DIMASSOC
280
     2
  9
$PROJECTNAME
  1

  9
$CAMERADISPLAY
290
     0
  9
$LENSLENGTH
 40
50.0
  9
$CAMERAHEIGHT
 40
0.0
  9
$STEPSPERSEC
 40
2.0
  9
$STEPSIZE
 40
6.0
  9
$3DDWFPREC
 40
2.0
  9
$PSOLWIDTH
 40
0.25
  9
$PSOLHEIGHT
 40
4.0
  9
$LOFTANG1
 40
1.570796326794897
  9
$LOFTANG2
 40
1.570796326794897
  9
$LOFTMAG1
 40
0.0
  9
$LOFTMAG2
 40
0.0
  9
$LOFTPARAM
 70
     7
  9
$LOFTNORMALS
280
     1
  9
$LATITUDE
 40
37.795
  9
$LONGITUDE
 40
-122.394
  9
$NORTHDIRECTION
 40
0.0
  9
$TIMEZONE
 70
 -8000
  9
$LIGHTGLYPHDISPLAY
280
     1
  9
$TILEMODELIGHTSYNCH
280
     1
  9
$CMATERIAL
347
44
  9
$SOLIDHIST
280
     0
  9
$SHOWHIST
280
     1
  9
$DWFFRAME
280
     2
  9
$DGNFRAME
280
     2
  9
$REALWORLDSCALE
290
     1
  9
$INTERFERECOLOR
 62
   256
  9
$CSHADOW
280
     0
  9
$SHADOWPLANELOCATION
 40
0.0
  0
ENDSEC
  0
SECTION
  2
CLASSES
  0
CLASS
  1
ACDBDICTIONARYWDFLT
  2
AcDbDictionaryWithDefault
  3
ObjectDBX Classes
 90
        0
 91
        3
280
     0
281
     0
  0
CLASS
  1
VISUALSTYLE
  2
AcDbVisualStyle
  3
ObjectDBX Classes
 90
     4095
 91
        3
280
     0
281
     0
  0
CLASS
  1
MATERIAL
  2
AcDbMaterial
  3
ObjectDBX Classes
 90
     1153
 91
        3
280
     0
281
     0
  0
CLASS
  1
SCALE
  2
AcDbScale
  3
ObjectDBX Classes
 90
     1153
 91
        3
280
     0
281
     0
  0
CLASS
  1
TABLESTYLE
  2
AcDbTableStyle
  3
ObjectDBX Classes
 90
     4095
 91
        3
280
     0
281
     0
  0
CLASS
  1
MLEADERSTYLE
  2
AcDbMLeaderStyle
  3
ACDB_MLEADERSTYLE_CLASS
 90
     4095
 91
        3
280
     0
281
     0
  0
CLASS
  1
SUN
  2
AcDbSun
  3
SCENEOE
 90
     1153
 91
        3
280
     0
281
     0
  0
CLASS
  1
DICTIONARYVAR
  2
AcDbDictionaryVar
  3
ObjectDBX Classes
 90
        0
 91
        3
280
     0
281
     0
  0
CLASS
  1
CELLSTYLEMAP
  2
AcDbCellStyleMap
  3
ObjectDBX Classes
 90
     1152
 91
        3
280
     0
281
     0
  0
ENDSEC
  0
SECTION
  2
TABLES
  0
TABLE
  2
VPORT
  5
8
330
0
100
AcDbSymbolTable
 70
     1
  0
VPORT
  5
29
330
8
100
AcDbSymbolTableRecord
100
AcDbViewportTableRecord
  2
*Active
 70
     0
 10
0.0
 20
0.0
 11
1.0
 21
1.0
 12
10.42990654205607
 22
4.5
 13
0.0
 23
0.0
 14
0.5
 24
0.5
 15
0.5
 25
0.5
 16
0.0
 26
0.0
 36
1.0
 17
0.0
 27
0.0
 37
0.0
 40
9.0
 41
1.972972972850329
 42
50.0
 43
0.0
 44
0.0
 50
0.0
 51
0.0
 71
     0
 72
   100
 73
     1
 74
     3
 75
     0
 76
     0
 77
     0
 78
     0
281
     0
 65
     1
110
0.0
120
0.0
130
0.0
111
1.0
121
0.0
131
0.0
112
0.0
122
1.0
132
0.0
 79
     0
146
0.0
348
2F
 60
     3
 61
     5
292
     1
282
     1
141
0.0
142
0.0
 63
   250
361
5D
  0
ENDTAB
  0
TABLE
  2
LTYPE
  5
5
330
0
100
AcDbSymbolTable
 70
     1
  0
LTYPE
  5
14
330
5
100
AcDbSymbolTableRecord
100
AcDbLinetypeTableRecord
  2
ByBlock
 70
     0
  3

 72
    65
 73
     0
 40
0.0
  0
LTYPE
  5
15
330
5
100
AcDbSymbolTableRecord
100
AcDbLinetypeTableRecord
  2
ByLayer
 70
     0
  3

 72
    65
 73
     0
 40
0.0
  0
LTYPE
  5
16
330
5
100
AcDbSymbolTableRecord
100
AcDbLinetypeTableRecord
  2
Continuous
 70
     0
  3
Solid line
 72
    65
 73
     0
 40
0.0
  0
ENDTAB
  0
TABLE
  2
LAYER
  5
2
330
0
100
AcDbSymbolTable
 70
     2
  0
LAYER
  5
10
330
2
100
AcDbSymbolTableRecord
100
AcDbLayerTableRecord
  2
0
 70
     0
 62
     7
  6
Continuous
370
    -3
390
F
347
46
348
0
  0
LAYER
  5
5F
330
2
100
AcDbSymbolTableRecord
100
AcDbLayerTableRecord
  2
Layer 1
 70
     0
 62
     7
  6
Continuous
370
    -3
390
F
347
46
348
0
  0
ENDTAB
  0
TABLE
  2
STYLE
  5
3
330
0
100
AcDbSymbolTable
 70
     1
  0
STYLE
  5
11
330
3
100
AcDbSymbolTableRecord
100
AcDbTextStyleTableRecord
  2
Standard
 70
     0
 40
0.0
 41
1.0
 50
0.0
 71
     0
 42
0.2
  3
txt
  4

  0
ENDTAB
  0
TABLE
  2
VIEW
  5
6
330
0
100
AcDbSymbolTable
 70
     0
  0
ENDTAB
  0
TABLE
  2
UCS
  5
7
330
0
100
AcDbSymbolTable
 70
     0
  0
ENDTAB
  0
TABLE
  2
APPID
  5
9
330
0
100
AcDbSymbolTable
 70
     2
  0
APPID
  5
12
330
9
100
AcDbSymbolTableRecord
100
AcDbRegAppTableRecord
  2
ACAD
 70
     0
  0
APPID
  5
5E
330
9
100
AcDbSymbolTableRecord
100
AcDbRegAppTableRecord
  2
ODA
 70
     0
  0
ENDTAB
  0
TABLE
  2
DIMSTYLE
  5
A
330
0
100
AcDbSymbolTable
 70
     1
100
AcDbDimStyleTable
  0
DIMSTYLE
105
27
330
A
100
AcDbSymbolTableRecord
100
AcDbDimStyleTableRecord
  2
Standard
 70
     0
178
     0
340
11
  0
ENDTAB
  0
TABLE
  2
BLOCK_RECORD
  5
1
330
0
100
AcDbSymbolTable
 70
     1
  0
BLOCK_RECORD
  5
1F
330
1
100
AcDbSymbolTableRecord
100
AcDbBlockTableRecord
  2
*Model_Space
340
22
 70
     0
280
     1
281
     0
  0
BLOCK_RECORD
  5
1B
330
1
100
AcDbSymbolTableRecord
100
AcDbBlockTableRecord
  2
*Paper_Space
340
1E
 70
     0
280
     1
281
     0
  0
BLOCK_RECORD
  5
23
330
1
100
AcDbSymbolTableRecord
100
AcDbBlockTableRecord
  2
*Paper_Space0
340
26
 70
     0
280
     1
281
     0
  0
ENDTAB
  0
ENDSEC
  0
SECTION
  2
BLOCKS
  0
BLOCK
  5
20
330
1F
100
AcDbEntity
  8
0
100
AcDbBlockBegin
  2
*Model_Space
 70
     0
 10
0.0
 20
0.0
 30
0.0
  3
*Model_Space
  1

  0
ENDBLK
  5
21
330
1F
100
AcDbEntity
  8
0
100
AcDbBlockEnd
  0
BLOCK
  5
1C
330
1B
100
AcDbEntity
 67
     1
  8
0
100
AcDbBlockBegin
  2
*Paper_Space
 70
     0
 10
0.0
 20
0.0
 30
0.0
  3
*Paper_Space
  1

  0
ENDBLK
  5
1D
330
1B
100
AcDbEntity
 67
     1
  8
0
100
AcDbBlockEnd
  0
BLOCK
  5
24
330
23
100
AcDbEntity
  8
0
100
AcDbBlockBegin
  2
*Paper_Space0
 70
     0
 10
0.0
 20
0.0
 30
0.0
  3
*Paper_Space0
  1

  0
ENDBLK
  5
25
330
23
100
AcDbEntity
  8
0
100
AcDbBlockEnd
  0
ENDSEC
  0
SECTION
  2
ENTITIES
  0
LWPOLYLINE
  5
60
330
1F
100
AcDbEntity
  8
Layer 1
 62
   250
370
     9
100
AcDbPolyline
 90
        5
 70
     1
 43
0.0
 10
10.14870866141732
 20
-17.43481496062992
 10
20.76271653543307
 20
-17.43481496062992
 10
20.76271653543307
 20
-3.313074803149606
 10
10.14870866141732
 20
-3.313074803149606
 10
10.14870866141732
 20
-17.43481496062992
  0
LWPOLYLINE
  5
61
330
1F
100
AcDbEntity
  8
Layer 1
 62
     7
370
     9
100
AcDbPolyline
 90
      116
 70
     1
 43
0.0
 10
16.85923228346457
 20
-5.437401574803149
 10
16.62946062992126
 20
-5.442456692913386
 10
16.41545275590551
 20
-5.456956692913386
 10
16.22179133858268
 20
-5.47990157480315
 10
16.05305905511811
 20
-5.510287401574804
 10
15.91384251968504
 20
-5.54711811023622
 10
15.80872834645669
 20
-5.589385826771654
 10
15.74229527559055
 20
-5.636094488188976
 10
15.71913385826772
 20
-5.686244094488189
 10
15.71913385826772
 20
-6.066192913385827
 10
13.11393700787402
 20
-6.465062992125985
 10
13.0775
 20
-6.469566929133858
 10
13.04355905511811
 20
-6.48248031496063
 10
13.01285039370079
 20
-6.502909448818897
 10
12.98609448818898
 20
-6.529972440944882
 10
12.96401968503937
 20
-6.562767716535433
 10
12.94735039370079
 20
-6.600413385826772
 10
12.9368188976378
 20
-6.642007874015748
 10
12.93314566929134
 20
-6.686669291338583
 10
12.9368188976378
 20
-6.731330708661417
 10
12.94735039370079
 20
-6.772925196850394
 10
12.96401968503937
 20
-6.810566929133858
 10
12.98609448818898
 20
-6.843366141732283
 10
13.01285039370079
 20
-6.870425196850394
 10
13.04355905511811
 20
-6.890858267716536
 10
13.0775
 20
-6.903767716535433
 10
13.11393700787402
 20
-6.908271653543308
 10
13.11994488188976
 20
-6.908149606299212
 10
13.12590157480315
 20
-6.907791338582677
 10
13.13180708661417
 20
-6.907196850393701
 10
13.13765748031496
 20
-6.906374015748032
 10
13.14345275590551
 20
-6.905322834645669
 10
13.14918503937008
 20
-6.904047244094488
 10
13.15485433070866
 20
-6.902555118110236
 10
13.16045669291339
 20
-6.900846456692913
 10
15.71913385826772
 20
-6.492641732283465
 10
15.71913385826772
 20
-6.767897637795276
 10
15.72298031496063
 20
-6.798527559055118
 10
15.73374015748031
 20
-6.824562992125984
 10
15.75023622047244
 20
-6.846503937007874
 10
15.77129527559055
 20
-6.864846456692914
 10
15.79574015748032
 20
-6.880086614173228
 10
15.8223937007874
 20
-6.892724409448819
 10
15.8500905511811
 20
-6.903263779527559
 10
15.87764566929134
 20
-6.912196850393701
 10
15.87764566929134
 20
-7.002444881889764
 10
15.84193307086614
 20
-7.016641732283465
 10
15.81041338582677
 20
-7.031377952755905
 10
15.78325590551181
 20
-7.046622047244094
 10
15.76064173228346
 20
-7.062326771653543
 10
15.74274803149606
 20
-7.078464566929134
 10
15.72974409448819
 20
-7.094992125984252
 10
15.72181496062992
 20
-7.111874015748032
 10
15.71913385826772
 20
-7.129070866141732
 10
15.71913385826772
 20
-15.01385039370079
 10
15.68688976377953
 20
-15.03445669291339
 10
15.65849606299213
 20
-15.05570078740157
 10
15.6340905511811
 20
-15.07754724409449
 10
15.61380708661417
 20
-15.09995275590551
 10
15.59779133858268
 20
-15.12287401574803
 10
15.5861811023622
 20
-15.14626377952756
 10
15.57911023622047
 20
-15.17008661417323
 10
15.57672440944882
 20
-15.19429921259843
 10
15.57672440944882
 20
-15.38717716535433
 10
15.62325590551181
 20
-15.49972047244094
 10
15.74770866141732
 20
-15.5891968503937
 10
15.92738188976378
 20
-15.65809842519685
 10
16.13955905511811
 20
-15.70890551181102
 10
16.36153937007874
 20
-15.74409842519685
 10
16.57061417322835
 20
-15.76616141732283
 10
16.7440748031496
 20
-15.77757874015748
 10
16.8592125984252
 20
-15.78083070866142
 10
17.10362204724409
 20
-15.77368897637795
 10
17.33248031496063
 20
-15.75315748031496
 10
17.54145669291339
 20
-15.72055905511811
 10
17.7262125984252
 20
-15.67723622047244
 10
17.8824094488189
 20
-15.62451181102362
 10
18.0057125984252
 20
-15.56372440944882
 10
18.0917874015748
 20
-15.49620472440945
 10
18.13629133858268
 20
-15.42328346456693
 10
18.14170078740158
 20
-15.19429921259843
 10
18.13931496062992
 20
-15.17009448818898
 10
18.13224409448819
 20
-15.14627559055118
 10
18.12063385826772
 20
-15.12288976377953
 10
18.10461811023622
 20
-15.09997244094488
 10
18.08433858267717
 20
-15.07756692913386
 10
18.05993307086614
 20
-15.05572440944882
 10
18.03154330708661
 20
-15.03447637795276
 10
17.99930708661417
 20
-15.01387007874016
 10
17.99930708661417
 20
-7.129070866141732
 10
17.99568897637795
 20
-7.109094488188976
 10
17.98501181102362
 20
-7.089551181102363
 10
17.96755118110236
 20
-7.070503937007874
 10
17.94358661417323
 20
-7.052011811023622
 10
17.91338582677165
 20
-7.034133858267716
 10
17.87722440944882
 20
-7.016925196850393
 10
17.83537795275591
 20
-7.000452755905512
 10
17.78812204724409
 20
-6.984771653543307
 10
17.78812204724409
 20
-6.912196850393701
 10
17.83536614173228
 20
-6.89651968503937
 10
17.87720866141732
 20
-6.880051181102362
 10
17.91336614173228
 20
-6.86284251968504
 10
17.94357086614173
 20
-6.844964566929134
 10
17.96754330708661
 20
-6.826468503937008
 10
17.98500393700787
 20
-6.807417322834645
 10
17.99568503937008
 20
-6.787874015748032
 10
17.99930708661417
 20
-6.767897637795276
 10
17.99930708661417
 20
-5.686244094488189
 10
17.97614566929134
 20
-5.636094488188976
 10
17.9097125984252
 20
-5.589385826771654
 10
17.80459842519685
 20
-5.54711811023622
 10
17.66538582677165
 20
-5.510287401574804
 10
17.49665748031496
 20
-5.47990157480315
 10
17.303
 20
-5.456956692913386
 10
17.08899606299213
 20
-5.442456692913386
 10
16.85923228346457
 20
-5.437401574803149
  0
LWPOLYLINE
  5
62
330
1F
100
AcDbEntity
  8
Layer 1
 62
     7
370
    18
100
AcDbPolyline
 90
        9
 70
     0
 43
0.0
 10
13.13901181102362
 20
-6.501023622047244
 10
13.14794881889764
 20
-6.504937007874016
 10
13.17069291338583
 20
-6.517374015748032
 10
13.20114960629921
 20
-6.539377952755905
 10
13.23322834645669
 20
-6.571992125984252
 10
13.26083858267716
 20
-6.616259842519685
 10
13.27787795275591
 20
-6.673224409448819
 10
13.27825590551181
 20
-6.743929133858268
 10
13.25588188976378
 20
-6.829417322834646
  0
LWPOLYLINE
  5
63
330
1F
100
AcDbEntity
  8
Layer 1
 62
     7
370
    18
100
AcDbPolyline
 90
       34
 70
     1
 43
0.0
 10
15.95422047244094
 20
-6.458913385826771
 10
15.93982283464567
 20
-6.47153937007874
 10
15.92686614173228
 20
-6.486
 10
15.9155
 20
-6.502122047244095
 10
15.90587007874016
 20
-6.519744094488189
 10
15.89812598425197
 20
-6.538692913385827
 10
15.8924094488189
 20
-6.558803149606299
 10
15.88887401574803
 20
-6.579905511811024
 10
15.88766141732284
 20
-6.601830708661417
 10
15.89074803149606
 20
-6.636641732283465
 10
15.89959448818898
 20
-6.669066929133859
 10
15.91359842519685
 20
-6.698409448818897
 10
15.93214566929134
 20
-6.723972440944882
 10
15.95462598425197
 20
-6.745062992125984
 10
15.98043307086614
 20
-6.760984251968504
 10
16.00895275590551
 20
-6.771051181102362
 10
16.03957480314961
 20
-6.77455905511811
 10
16.0701968503937
 20
-6.771051181102362
 10
16.09871653543307
 20
-6.760984251968504
 10
16.12452362204725
 20
-6.745062992125984
 10
16.14700393700787
 20
-6.723972440944882
 10
16.16555511811024
 20
-6.698409448818897
 10
16.17955511811024
 20
-6.669066929133859
 10
16.18840551181102
 20
-6.636641732283465
 10
16.19149212598425
 20
-6.601830708661417
 10
16.18940551181102
 20
-6.573141732283465
 10
16.18337401574803
 20
-6.545972440944882
 10
16.17372834645669
 20
-6.520708661417323
 10
16.16081102362205
 20
-6.497732283464567
 10
16.14495275590551
 20
-6.47742125984252
 10
16.12649212598425
 20
-6.460161417322834
 10
16.10575984251969
 20
-6.446330708661417
 10
16.08310236220472
 20
-6.436318897637795
 10
15.95422047244094
 20
-6.458913385826771
  0
LWPOLYLINE
  5
64
330
1F
100
AcDbEntity
  8
Layer 1
 62
     7
370
     9
100
AcDbPolyline
 90
       45
 70
     0
 43
0.0
 10
15.93265748031496
 20
-7.63901968503937
 10
15.93013779527559
 20
-7.647937007874016
 10
15.91983858267717
 20
-7.671854330708661
 10
15.89763779527559
 20
-7.706531496062992
 10
15.85942519685039
 20
-7.747720472440945
 10
15.80107874015748
 20
-7.791173228346457
 10
15.71848818897638
 20
-7.832649606299213
 10
15.60753149606299
 20
-7.86790157480315
 10
15.46409448818898
 20
-7.892681102362205
 10
15.23203937007874
 20
-7.925555118110236
 10
14.88745669291339
 20
-7.982141732283464
 10
14.47455905511811
 20
-8.05378346456693
 10
14.03757086614173
 20
-8.13182283464567
 10
13.62071653543307
 20
-8.207590551181102
 10
13.2682125984252
 20
-8.27243307086614
 10
13.02428346456693
 20
-8.317688976377953
 10
12.93314566929134
 20
-8.334700787401575
 10
12.88114566929134
 20
-8.34140157480315
 10
12.74083070866142
 20
-8.36694094488189
 10
12.53574015748032
 20
-8.419456692913386
 10
12.2893937007874
 20
-8.507106299212598
 10
12.02533070866142
 20
-8.638031496062991
 10
11.76708267716536
 20
-8.820377952755905
 10
11.53817716535433
 20
-9.062295275590552
 10
11.36214566929134
 20
-9.371929133858268
 10
11.36214566929134
 20
-9.48279527559055
 10
12.41505118110236
 20
-9.905511811023622
 10
12.46819291338583
 20
-9.869807086614173
 10
12.47680708661417
 20
-9.848043307086614
 10
12.50282677165354
 20
-9.790433070866142
 10
12.54653149606299
 20
-9.7085
 10
12.6081968503937
 20
-9.613779527559055
 10
12.68809448818898
 20
-9.517787401574804
 10
12.7865
 20
-9.432055118110236
 10
12.90369291338583
 20
-9.368114173228346
 10
13.03994094488189
 20
-9.33748031496063
 10
16.12534645669291
 20
-8.759897637795275
 10
16.13268110236221
 20
-8.758732283464568
 10
16.15258267716536
 20
-8.754629921259843
 10
16.18188976377953
 20
-8.746661417322835
 10
16.21744488188977
 20
-8.73391338582677
 10
16.25608661417323
 20
-8.71546062992126
 10
16.29465748031496
 20
-8.690385826771653
 10
16.33
 20
-8.657767716535433
 10
16.35895669291338
 20
-8.616681102362204
  0
LWPOLYLINE
  5
65
330
1F
100
AcDbEntity
  8
Layer 1
 62
     7
370
     9
100
AcDbPolyline
 90
       35
 70
     1
 43
0.0
 10
12.43891732283465
 20
-9.91507874015748
 10
11.98968503937008
 20
-10.58485826771654
 10
11.98727952755906
 20
-10.58761023622047
 10
11.98024409448819
 20
-10.59458661417323
 10
11.96885433070866
 20
-10.60387007874016
 10
11.95338582677165
 20
-10.61353543307087
 10
11.93411023622047
 20
-10.62166535433071
 10
11.91129921259843
 20
-10.62633858267717
 10
11.88523228346457
 20
-10.62563385826772
 10
11.85618110236221
 20
-10.61763385826772
 10
11.7944842519685
 20
-10.59332677165354
 10
11.68235039370079
 20
-10.54963779527559
 10
11.53786614173228
 20
-10.49353543307087
 10
11.37910236220472
 20
-10.432
 10
11.22414960629921
 20
-10.372
 10
11.09108267716536
 20
-10.32050787401575
 10
10.9979842519685
 20
-10.2845
 10
10.96293307086614
 20
-10.27094881889764
 10
10.95954724409449
 20
-10.26879527559055
 10
10.95078346456693
 20
-10.26259842519685
 10
10.93875196850394
 20
-10.25276377952756
 10
10.92554724409449
 20
-10.23968897637795
 10
10.91327952755906
 20
-10.22377952755905
 10
10.90404330708661
 20
-10.20543700787402
 10
10.89994488188976
 20
-10.18506299212598
 10
10.90308661417323
 20
-10.16305511811024
 10
10.92733464566929
 20
-10.11597637795276
 10
10.97887401574803
 20
-10.02949606299213
 10
11.0483031496063
 20
-9.917696850393702
 10
11.12620472440945
 20
-9.79465748031496
 10
11.20317716535433
 20
-9.674452755905511
 10
11.2698031496063
 20
-9.57116535433071
 10
11.3166811023622
 20
-9.498866141732284
 10
11.33439763779528
 20
-9.47163779527559
 10
12.43891732283465
 20
-9.91507874015748
  0
LWPOLYLINE
  5
66
330
1F
100
AcDbEntity
  8
Layer 1
 62
     7
370
    18
100
AcDbPolyline
 90
        9
 70
     0
 43
0.0
 10
17.93607086614173
 20
-5.703830708661418
 10
17.89359842519685
 20
-5.718
 10
17.77216929133858
 20
-5.753212598425197
 10
17.58078346456693
 20
-5.798535433070866
 10
17.32843307086614
 20
-5.843027559055118
 10
17.02411023622047
 20
-5.875751968503937
 10
16.67680708661417
 20
-5.885771653543307
 10
16.29552362204725
 20
-5.862149606299212
 10
15.88925196850394
 20
-5.793948818897638
  0
LWPOLYLINE
  5
67
330
1F
100
AcDbEntity
  8
Layer 1
 62
     7
370
    18
100
AcDbPolyline
 90
        9
 70
     0
 43
0.0
 10
17.68495669291339
 20
-6.90142125984252
 10
17.64066141732284
 20
-6.908562992125984
 10
17.51792519685039
 20
-6.925905511811024
 10
17.33196456692913
 20
-6.947326771653543
 10
17.09800393700787
 20
-6.966712598425197
 10
16.83125590551181
 20
-6.977933070866142
 10
16.54694881889764
 20
-6.974874015748031
 10
16.26029527559055
 20
-6.951409448818898
 10
15.98651968503937
 20
-6.90142125984252
  0
LWPOLYLINE
  5
68
330
1F
100
AcDbEntity
  8
Layer 1
 62
     7
370
    18
100
AcDbPolyline
 90
       17
 70
     0
 43
0.0
 10
17.86485433070866
 20
-7.136263779527559
 10
17.84636220472441
 20
-7.144661417322834
 10
17.79203149606299
 20
-7.166826771653543
 10
17.70360236220472
 20
-7.198212598425197
 10
17.5828031496063
 20
-7.234279527559055
 10
17.43136220472441
 20
-7.270476377952756
 10
17.2510157480315
 20
-7.302263779527559
 10
17.04349212598425
 20
-7.325094488188976
 10
16.81052362204725
 20
-7.334425196850393
 10
16.58659448818898
 20
-7.331307086614173
 10
16.4019094488189
 20
-7.320681102362204
 10
16.25177559055118
 20
-7.303854330708662
 10
16.1315
 20
-7.282125984251969
 10
16.0363937007874
 20
-7.256791338582677
 10
15.96175984251968
 20
-7.229153543307087
 10
15.90291338582677
 20
-7.200515748031496
 10
15.85516141732283
 20
-7.172177165354331
  0
LWPOLYLINE
  5
69
330
1F
100
AcDbEntity
  8
Layer 1
 62
     7
370
    18
100
AcDbPolyline
 90
        9
 70
     0
 43
0.0
 10
18.14170078740158
 20
-15.10604724409449
 10
17.88753937007874
 20
-15.20675590551181
 10
17.57875590551181
 20
-15.27962992125984
 10
17.2331968503937
 20
-15.32430708661417
 10
16.86870472440945
 20
-15.34043307086614
 10
16.50312598425197
 20
-15.32764173228346
 10
16.15430708661417
 20
-15.28557874015748
 10
15.84008661417323
 20
-15.21387401574803
 10
15.57831496062992
 20
-15.11217322834646
  0
LWPOLYLINE
  5
6A
330
1F
100
AcDbEntity
  8
Layer 1
 62
     7
370
    18
100
AcDbPolyline
 90
        9
 70
     0
 43
0.0
 10
17.8863779527559
 20
-14.9733937007874
 10
17.69671653543307
 20
-15.04003149606299
 10
17.4561968503937
 20
-15.09059842519685
 10
17.18191732283465
 20
-15.12361417322835
 10
16.89098031496063
 20
-15.1375905511811
 10
16.60047244094488
 20
-15.13105118110236
 10
16.32749606299213
 20
-15.1025157480315
 10
16.08914960629921
 20
-15.05050393700787
 10
15.90252362204724
 20
-14.97352755905512
  0
LWPOLYLINE
  5
6B
330
1F
100
AcDbEntity
  8
Layer 1
 62
     7
370
    18
100
AcDbPolyline
 90
        2
 70
     0
 43
0.0
 10
15.51164960629921
 20
-16.17738188976378
 10
18.20677952755905
 20
-16.17738188976378
  0
LWPOLYLINE
  5
6C
330
1F
100
AcDbEntity
  8
Layer 1
 62
     7
370
    18
100
AcDbPolyline
 90
        2
 70
     0
 43
0.0
 10
18.56907480314961
 20
-5.614909448818898
 10
18.56907480314961
 20
-15.58562992125984
  0
LWPOLYLINE
  5
6D
330
1F
100
AcDbEntity
  8
Layer 1
 62
     7
370
    18
100
AcDbPolyline
 90
        2
 70
     0
 43
0.0
 10
18.44775984251968
 20
-15.58562204724409
 10
18.69041732283464
 20
-15.58562204724409
  0
LWPOLYLINE
  5
6E
330
1F
100
AcDbEntity
  8
Layer 1
 62
     7
370
    18
100
AcDbPolyline
 90
        2
 70
     0
 43
0.0
 10
18.20677559055118
 20
-16.29872047244094
 10
18.20677559055118
 20
-16.05606299212598
  0
LWPOLYLINE
  5
6F
330
1F
100
AcDbEntity
  8
Layer 1
 62
     7
370
    18
100
AcDbPolyline
 90
        2
 70
     0
 43
0.0
 10
15.51164173228346
 20
-16.29872047244094
 10
15.51164173228346
 20
-16.05606299212598
  0
LWPOLYLINE
  5
70
330
1F
100
AcDbEntity
  8
Layer 1
 62
     7
370
    18
100
AcDbPolyline
 90
        2
 70
     0
 43
0.0
 10
18.44775984251968
 20
-5.614905511811024
 10
18.69041732283464
 20
-5.614905511811024
  0
LWPOLYLINE
  5
71
330
1F
100
AcDbEntity
  8
Layer 1
 62
     7
370
     9
100
AcDbPolyline
 90
       87
 70
     1
 43
0.0
 10
18.88288976377953
 20
-9.799751968503937
 10
18.88288976377953
 20
-10.10166141732283
 10
18.92701968503937
 20
-10.10166141732283
 10
18.92701968503937
 20
-9.906287401574803
 10
19.07513779527559
 20
-10.05565354330709
 10
19.08579921259842
 20
-10.06540551181102
 10
19.09699212598425
 20
-10.07385826771653
 10
19.10872047244094
 20
-10.08100787401575
 10
19.12098031496063
 20
-10.08686220472441
 10
19.13377559055118
 20
-10.09141338582677
 10
19.14710236220472
 20
-10.09466141732283
 10
19.16096062992126
 20
-10.09661417322835
 10
19.17535039370079
 20
-10.09726377952756
 10
19.19006299212598
 20
-10.09659842519685
 10
19.20418503937008
 20
-10.09460236220472
 10
19.21771653543307
 20
-10.09127952755905
 10
19.23066141732284
 20
-10.08662598425197
 10
19.24301181102362
 20
-10.08064173228346
 10
19.25477165354331
 20
-10.07333070866142
 10
19.26594094488189
 20
-10.06468897637795
 10
19.27652362204724
 20
-10.05471653543307
 10
19.28634645669291
 20
-10.04363385826772
 10
19.29485433070866
 20
-10.03205905511811
 10
19.30205905511811
 20
-10.01999606299213
 10
19.30794881889764
 20
-10.00744094488189
 10
19.31253149606299
 20
-9.994393700787402
 10
19.3158031496063
 20
-9.980854330708661
 10
19.31776771653543
 20
-9.966822834645669
 10
19.31842125984252
 20
-9.95229527559055
 10
19.31773228346457
 20
-9.937208661417323
 10
19.31566535433071
 20
-9.922685039370078
 10
19.31222047244094
 20
-9.908720472440946
 10
19.30739763779528
 20
-9.89532283464567
 10
19.30119291338583
 20
-9.882484251968505
 10
19.29361023622047
 20
-9.870212598425196
 10
19.28464960629921
 20
-9.858496062992126
 10
19.27431102362205
 20
-9.847346456692913
 10
19.26318503937008
 20
-9.837413385826771
 10
19.25147637795276
 20
-9.828889763779527
 10
19.23918897637795
 20
-9.821771653543307
 10
19.22632283464567
 20
-9.816062992125984
 10
19.21287401574803
 20
-9.81176377952756
 10
19.19884645669291
 20
-9.808874015748032
 10
19.18424015748031
 20
-9.8073937007874
 10
19.16905118110236
 20
-9.80732283464567
 10
19.16905118110236
 20
-9.85205905511811
 10
19.17890551181102
 20
-9.851685039370079
 10
19.18853149606299
 20
-9.852377952755905
 10
19.19793307086614
 20
-9.854129921259842
 10
19.2071062992126
 20
-9.856948818897639
 10
19.21605118110236
 20
-9.860830708661418
 10
19.22477165354331
 20
-9.86577559055118
 10
19.23325984251969
 20
-9.87178346456693
 10
19.24152362204724
 20
-9.878858267716536
 10
19.24891338582677
 20
-9.886417322834646
 10
19.25531496062992
 20
-9.894374015748031
 10
19.26073228346457
 20
-9.902724409448819
 10
19.26516535433071
 20
-9.911468503937009
 10
19.26861023622047
 20
-9.920610236220472
 10
19.27107086614173
 20
-9.930141732283465
 10
19.27254724409449
 20
-9.940070866141733
 10
19.27303937007874
 20
-9.950393700787401
 10
19.27259448818898
 20
-9.96051968503937
 10
19.27126771653543
 20
-9.97026377952756
 10
19.26905118110236
 20
-9.97962598425197
 10
19.26594881889764
 20
-9.988602362204725
 10
19.26196062992126
 20
-9.997196850393701
 10
19.25708661417323
 20
-10.0054094488189
 10
19.25132283464567
 20
-10.01323622047244
 10
19.24467322834646
 20
-10.02068110236221
 10
19.23732677165354
 20
-10.02755118110236
 10
19.22962598425197
 20
-10.03350393700787
 10
19.22157086614173
 20
-10.03853937007874
 10
19.21316535433071
 20
-10.04265748031496
 10
19.20440157480315
 20
-10.04586220472441
 10
19.19527952755906
 20
-10.04814960629921
 10
19.18580708661417
 20
-10.04952362204724
 10
19.17597637795276
 20
-10.04998031496063
 10
19.16592913385827
 20
-10.04953937007874
 10
19.15627952755905
 20
-10.04820866141732
 10
19.14701968503937
 20
-10.04599606299213
 10
19.13815748031496
 20
-10.0428937007874
 10
19.12968897637795
 20
-10.03890551181102
 10
19.12161417322835
 20
-10.03403149606299
 10
19.11393307086614
 20
-10.02826771653543
 10
19.10664960629921
 20
-10.02161811023622
 10
18.88288976377953
 20
-9.799751968503937
  0
LWPOLYLINE
  5
72
330
1F
100
AcDbEntity
  8
Layer 1
 62
     7
370
     9
100
AcDbPolyline
 90
       73
 70
     1
 43
0.0
 10
19.07766141732283
 20
-10.30809448818898
 10
19.07812598425197
 20
-10.29804724409449
 10
19.07951181102362
 20
-10.28837007874016
 10
19.08182677165354
 20
-10.27906299212598
 10
19.08506692913386
 20
-10.27012992125984
 10
19.08923228346457
 20
-10.26157086614173
 10
19.09431889763779
 20
-10.25338582677165
 10
19.10033464566929
 20
-10.24557874015748
 10
19.10727559055118
 20
-10.23814566929134
 10
19.11477952755905
 20
-10.23142519685039
 10
19.12264173228347
 20
-10.22559842519685
 10
19.13085433070866
 20
-10.22066929133858
 10
19.13942125984252
 20
-10.21663779527559
 10
19.14834645669291
 20
-10.2135
 10
19.15762598425197
 20
-10.21125984251968
 10
19.16725984251968
 20
-10.20991732283465
 10
19.17724803149606
 20
-10.20946850393701
 10
19.18700393700787
 20
-10.20992125984252
 10
19.19642913385827
 20
-10.21127952755906
 10
19.20551574803149
 20
-10.21353937007874
 10
19.21426771653543
 20
-10.21670866141732
 10
19.22268897637795
 20
-10.22078346456693
 10
19.23077559055118
 20
-10.22576771653543
 10
19.23852755905512
 20
-10.23165748031496
 10
19.24594881889764
 20
-10.23845669291339
 10
19.25259842519685
 20
-10.24575590551181
 10
19.25835826771653
 20
-10.25346850393701
 10
19.26323622047244
 20
-10.26159448818898
 10
19.26722440944882
 20
-10.27013385826772
 10
19.27032283464567
 20
-10.27908661417323
 10
19.27253937007874
 20
-10.28845275590551
 10
19.27386614173228
 20
-10.29823228346457
 10
19.27431102362205
 20
-10.30842913385827
 10
19.27385433070866
 20
-10.31842125984252
 10
19.27247637795276
 20
-10.32807874015748
 10
19.27018503937008
 20
-10.33740551181102
 10
19.26698031496063
 20
-10.34639763779528
 10
19.26285826771653
 20
-10.35505118110236
 10
19.25782283464567
 20
-10.36337007874016
 10
19.25187007874016
 20
-10.37135433070866
 10
19.24500787401575
 20
-10.37900393700787
 10
19.23757480314961
 20
-10.38595275590551
 10
19.22977952755906
 20
-10.39197244094488
 10
19.22161811023622
 20
-10.39706692913386
 10
19.21309448818898
 20
-10.40123622047244
 10
19.20420866141732
 20
-10.40447637795276
 10
19.19495275590551
 20
-10.40679133858268
 10
19.18533464566929
 20
-10.40817716535433
 10
19.17535039370079
 20
-10.40864173228347
 10
19.16565748031496
 20
-10.40817322834646
 10
19.15628346456693
 20
-10.40677165354331
 10
19.14722440944882
 20
-10.40442913385827
 10
19.13848031496063
 20
-10.40115354330709
 10
19.13005118110236
 20
-10.39694094488189
 10
19.12193700787402
 20
-10.39179527559055
 10
19.11413385826772
 20
-10.38570866141732
 10
19.10664960629921
 20
-10.37868897637795
 10
19.1034251968504
 20
-10.37523228346457
 10
19.10037007874016
 20
-10.37162598425197
 10
19.09748031496063
 20
-10.36787007874016
 10
19.09475590551181
 20
-10.36396850393701
 10
19.09220078740157
 20
-10.35991338582677
 10
19.08980708661417
 20
-10.3557125984252
 10
19.08758267716535
 20
-10.35136614173228
 10
19.08552362204724
 20
-10.34686614173228
 10
19.08367716535433
 20
-10.34226771653543
 10
19.08208267716535
 20
-10.33759448818898
 10
19.08072834645669
 20
-10.33285433070866
 10
19.07962598425197
 20
-10.32804330708661
 10
19.07876377952756
 20
-10.32315748031496
 10
19.07815354330709
 20
-10.31820866141732
 10
19.07778346456693
 20
-10.31318503937008
 10
19.07766141732283
 20
-10.30809448818898
  0
LWPOLYLINE
  5
73
330
1F
100
AcDbEntity
  8
Layer 1
 62
     7
370
     9
100
AcDbPolyline
 90
       69
 70
     1
 43
0.0
 10
19.17409842519685
 20
-10.16470866141732
 10
19.15891732283465
 20
-10.16539763779527
 10
19.14442519685039
 20
-10.16746850393701
 10
19.13062598425197
 20
-10.17091732283465
 10
19.1175157480315
 20
-10.17574409448819
 10
19.10509842519685
 20
-10.18195275590551
 10
19.09337007874016
 20
-10.18953937007874
 10
19.08233464566929
 20
-10.1985
 10
19.07198818897638
 20
-10.20884251968504
 10
19.06326377952756
 20
-10.21941338582677
 10
19.05561417322835
 20
-10.23072047244094
 10
19.04903937007874
 20
-10.24277165354331
 10
19.04354330708662
 20
-10.25555905511811
 10
19.03911811023622
 20
-10.26908661417323
 10
19.03576377952756
 20
-10.28335039370079
 10
19.0334842519685
 20
-10.29835826771654
 10
19.03227952755906
 20
-10.31410236220472
 10
19.04047637795276
 20
-10.3266968503937
 10
18.88288976377953
 20
-10.19559842519685
 10
18.88288976377953
 20
-10.25357874015748
 10
19.0852125984252
 20
-10.42123622047244
 10
19.09507086614173
 20
-10.42877559055118
 10
19.10532677165354
 20
-10.43530708661417
 10
19.11599212598425
 20
-10.44083464566929
 10
19.12705511811023
 20
-10.44535826771654
 10
19.13852362204724
 20
-10.44887401574803
 10
19.1503937007874
 20
-10.45138582677165
 10
19.16266929133858
 20
-10.4528937007874
 10
19.17535039370079
 20
-10.45339763779528
 10
19.18996062992126
 20
-10.45273622047244
 10
19.20401181102362
 20
-10.45075590551181
 10
19.2175
 20
-10.44745275590551
 10
19.23042519685039
 20
-10.44283464566929
 10
19.24279133858268
 20
-10.4368937007874
 10
19.25459842519685
 20
-10.42963385826772
 10
19.26584251968504
 20
-10.42105905511811
 10
19.27652362204724
 20
-10.41116535433071
 10
19.28634645669291
 20
-10.40026377952756
 10
19.29485433070866
 20
-10.38882677165354
 10
19.30205905511811
 20
-10.37686220472441
 10
19.30794881889764
 20
-10.36436220472441
 10
19.31253149606299
 20
-10.35133464566929
 10
19.3158031496063
 20
-10.33777165354331
 10
19.31776771653543
 20
-10.3236811023622
 10
19.31842125984252
 20
-10.30905511811024
 10
19.31777165354331
 20
-10.29422440944882
 10
19.31582283464567
 20
-10.2799842519685
 10
19.31257874015748
 20
-10.26633464566929
 10
19.30803149606299
 20
-10.25327559055118
 10
19.30218503937008
 20
-10.24080708661417
 10
19.29503543307086
 20
-10.22892913385827
 10
19.28658661417323
 20
-10.21764173228346
 10
19.27683464566929
 20
-10.20694488188976
 10
19.27184645669291
 20
-10.20218897637795
 10
19.26666141732283
 20
-10.19768897637795
 10
19.26128346456693
 20
-10.19344488188976
 10
19.25570866141732
 20
-10.18945669291339
 10
19.24994094488189
 20
-10.18572047244094
 10
19.24397244094488
 20
-10.18224409448819
 10
19.23781102362205
 20
-10.17902362204724
 10
19.23145275590551
 20
-10.17605511811024
 10
19.22490157480315
 20
-10.1733937007874
 10
19.21816929133858
 20
-10.17108661417323
 10
19.21126377952756
 20
-10.16913779527559
 10
19.20418503937008
 20
-10.16754330708661
 10
19.19692519685039
 20
-10.1663031496063
 10
19.18949212598425
 20
-10.16541732283465
 10
19.18188582677165
 20
-10.16488582677165
 10
19.17409842519685
 20
-10.16470866141732
  0
LWPOLYLINE
  5
74
330
1F
100
AcDbEntity
  8
Layer 1
 62
     7
370
     9
100
AcDbPolyline
 90
       88
 70
     1
 43
0.0
 10
19.26169291338583
 20
-10.68124803149606
 10
19.25675196850394
 20
-10.68853149606299
 10
19.25114173228346
 20
-10.6953188976378
 10
19.24485826771653
 20
-10.70161417322835
 10
19.2379094488189
 20
-10.70741732283465
 10
19.2302874015748
 20
-10.71272440944882
 10
19.22199606299213
 20
-10.71753937007874
 10
19.21303543307087
 20
-10.72186220472441
 10
19.20340157480315
 20
-10.72569291338583
 10
19.19062204724409
 20
-10.72998031496063
 10
19.17765354330709
 20
-10.73369291338583
 10
19.1645
 20
-10.73683070866142
 10
19.15115748031496
 20
-10.73939763779528
 10
19.13762992125984
 20
-10.7413937007874
 10
19.12391732283465
 20
-10.74282283464567
 10
19.1100157480315
 20
-10.74367716535433
 10
19.09592913385827
 20
-10.74396062992126
 10
19.06473228346457
 20
-10.74208661417323
 10
19.0477874015748
 20
-10.73990157480315
 10
19.03177952755906
 20
-10.73704330708661
 10
19.01670866141732
 20
-10.73351968503937
 10
19.00257086614173
 20
-10.72932283464567
 10
18.98937007874016
 20
-10.72445669291339
 10
18.9771062992126
 20
-10.71892125984252
 10
18.96577952755905
 20
-10.7127125984252
 10
18.95538582677165
 20
-10.70583858267717
 10
18.94755118110236
 20
-10.69956299212598
 10
18.94075984251969
 20
-10.69295669291339
 10
18.9350157480315
 20
-10.68601181102362
 10
18.9303188976378
 20
-10.67873622047244
 10
18.92666535433071
 20
-10.6711220472441
 10
18.92405905511811
 20
-10.66317322834646
 10
18.92249212598425
 20
-10.65488976377953
 10
18.92197244094488
 20
-10.64627165354331
 10
18.92248818897638
 20
-10.63665354330709
 10
18.92403937007874
 20
-10.6275
 10
18.92662598425197
 20
-10.61880708661417
 10
18.93024409448819
 20
-10.61057874015748
 10
18.93489763779528
 20
-10.60281102362205
 10
18.94058267716536
 20
-10.59550787401575
 10
18.94729921259842
 20
-10.58866535433071
 10
18.95505118110236
 20
-10.5822874015748
 10
18.96270078740157
 20
-10.57701181102362
 10
18.97081889763779
 20
-10.57220472440945
 10
18.97940157480315
 20
-10.56787401574803
 10
18.98846062992126
 20
-10.5640157480315
 10
18.99781496062992
 20
-10.56061417322835
 10
19.00729133858268
 20
-10.55763779527559
 10
19.01688582677165
 20
-10.55509448818898
 10
19.0266062992126
 20
-10.5529842519685
 10
19.06441732283465
 20
-10.54762598425197
 10
19.10653937007874
 20
-10.54605905511811
 10
19.11914566929134
 20
-10.54649212598425
 10
19.13318503937008
 20
-10.5477874015748
 10
19.14866141732283
 20
-10.54995275590551
 10
19.1655905511811
 20
-10.5529842519685
 10
19.17517322834646
 20
-10.55507480314961
 10
19.18472834645669
 20
-10.55755905511811
 10
19.19424015748032
 20
-10.56043307086614
 10
19.2037125984252
 20
-10.56370472440945
 10
19.21292519685039
 20
-10.56742519685039
 10
19.22167322834646
 20
-10.57166141732283
 10
19.22994488188976
 20
-10.57640551181102
 10
19.23775196850394
 20
-10.58166141732283
 10
19.24144488188976
 20
-10.58448818897638
 10
19.24494488188977
 20
-10.58745275590551
 10
19.24825984251968
 20
-10.59055511811024
 10
19.25138976377953
 20
-10.59379921259842
 10
19.25432677165354
 20
-10.5971811023622
 10
19.25708267716535
 20
-10.60070078740157
 10
19.25964566929134
 20
-10.60435826771653
 10
19.26202755905512
 20
-10.60814960629921
 10
19.26416535433071
 20
-10.6120905511811
 10
19.2660157480315
 20
-10.6162125984252
 10
19.26758661417323
 20
-10.6205157480315
 10
19.26887401574803
 20
-10.62499606299213
 10
19.26987401574803
 20
-10.62965354330709
 10
19.27058661417323
 20
-10.63448818897638
 10
19.27101968503937
 20
-10.63949606299213
 10
19.27116141732283
 20
-10.64468503937008
 10
19.27101181102362
 20
-10.64988188976378
 10
19.27057086614173
 20
-10.65489763779528
 10
19.26983070866142
 20
-10.65973228346457
 10
19.26879527559055
 20
-10.66438976377953
 10
19.26746456692914
 20
-10.66887007874016
 10
19.26583858267717
 20
-10.67317322834646
 10
19.26391338582677
 20
-10.67729921259843
 10
19.26169291338583
 20
-10.68124803149606
  0
LWPOLYLINE
  5
75
330
1F
100
AcDbEntity
  8
Layer 1
 62
     7
370
     9
100
AcDbPolyline
 90
       65
 70
     1
 43
0.0
 10
18.87721653543307
 20
-10.64689763779528
 10
18.87838188976378
 20
-10.66529921259843
 10
18.88188582677165
 20
-10.68252755905512
 10
18.88772047244095
 20
-10.69858661417323
 10
18.89588976377953
 20
-10.71347244094488
 10
18.9063937007874
 20
-10.72718897637795
 10
18.91922834645669
 20
-10.73972834645669
 10
18.93439763779527
 20
-10.75109842519685
 10
18.95190157480315
 20
-10.76129133858268
 10
18.9671811023622
 20
-10.76846062992126
 10
18.9833031496063
 20
-10.77466929133858
 10
19.00027559055118
 20
-10.77992519685039
 10
19.0180905511811
 20
-10.78422440944882
 10
19.03675196850394
 20
-10.78756692913386
 10
19.05626377952756
 20
-10.78995669291339
 10
19.07662204724409
 20
-10.79138976377953
 10
19.09783070866142
 20
-10.79186614173228
 10
19.11903149606299
 20
-10.79138976377953
 10
19.13938582677165
 20
-10.78995669291339
 10
19.15889763779527
 20
-10.78756692913386
 10
19.17755905511811
 20
-10.78422440944882
 10
19.19537401574803
 20
-10.77992519685039
 10
19.21234251968504
 20
-10.77466929133858
 10
19.22846456692913
 20
-10.76846062992126
 10
19.24373622047244
 20
-10.76129133858268
 10
19.26124409448819
 20
-10.75109842519685
 10
19.27641732283465
 20
-10.73972834645669
 10
19.28925196850394
 20
-10.72718897637795
 10
19.29975590551181
 20
-10.71347244094488
 10
19.30792125984252
 20
-10.69858661417323
 10
19.31375590551181
 20
-10.68252755905512
 10
19.31725590551181
 20
-10.66529921259843
 10
19.31842125984252
 20
-10.64689763779528
 10
19.31725590551181
 20
-10.62849606299213
 10
19.31375590551181
 20
-10.61126771653543
 10
19.30792125984252
 20
-10.5952125984252
 10
19.29975590551181
 20
-10.58033070866142
 10
19.28925196850394
 20
-10.56661417322835
 10
19.27641732283465
 20
-10.55407480314961
 10
19.26124409448819
 20
-10.54270472440945
 10
19.24373622047244
 20
-10.53250393700787
 10
19.22846456692913
 20
-10.52533464566929
 10
19.21234251968504
 20
-10.51912598425197
 10
19.19537401574803
 20
-10.51387007874016
 10
19.17755905511811
 20
-10.50957086614173
 10
19.15889763779527
 20
-10.50622834645669
 10
19.13938582677165
 20
-10.50383858267717
 10
19.11903149606299
 20
-10.50240551181102
 10
19.09783070866142
 20
-10.50192913385827
 10
19.07662204724409
 20
-10.50240551181102
 10
19.05626377952756
 20
-10.50383858267717
 10
19.03675196850394
 20
-10.50622834645669
 10
19.0180905511811
 20
-10.50957086614173
 10
19.00027559055118
 20
-10.51387007874016
 10
18.9833031496063
 20
-10.51912598425197
 10
18.9671811023622
 20
-10.52533464566929
 10
18.95190157480315
 20
-10.53250393700787
 10
18.93439763779527
 20
-10.54270472440945
 10
18.91922834645669
 20
-10.55407480314961
 10
18.9063937007874
 20
-10.56661417322835
 10
18.89588976377953
 20
-10.58033070866142
 10
18.88772047244095
 20
-10.5952125984252
 10
18.88188582677165
 20
-10.61126771653543
 10
18.87838188976378
 20
-10.62849606299213
 10
18.87721653543307
 20
-10.64689763779528
  0
LWPOLYLINE
  5
76
330
1F
100
AcDbEntity
  8
Layer 1
 62
     7
370
     9
100
AcDbPolyline
 90
      136
 70
     1
 43
0.0
 10
16.62252755905512
 20
-16.57737795275591
 10
16.6515157480315
 20
-16.46267322834646
 10
16.80657874015748
 20
-16.46267322834646
 10
16.80657874015748
 20
-16.41853937007874
 10
16.6181062992126
 20
-16.41853937007874
 10
16.56894881889764
 20
-16.61079133858268
 10
16.61685433070866
 20
-16.63220866141732
 10
16.6238031496063
 20
-16.62748031496063
 10
16.6310905511811
 20
-16.62338582677165
 10
16.63872834645669
 20
-16.61991732283465
 10
16.64670866141732
 20
-16.61708267716535
 10
16.65503543307087
 20
-16.6148779527559
 10
16.66370866141732
 20
-16.61329921259842
 10
16.67272440944882
 20
-16.61235433070866
 10
16.6820905511811
 20
-16.61203937007874
 10
16.69150393700787
 20
-16.61250393700787
 10
16.7006062992126
 20
-16.61388976377953
 10
16.70938976377953
 20
-16.61620472440945
 10
16.71785826771654
 20
-16.61944881889764
 10
16.72600787401575
 20
-16.62361417322835
 10
16.73384645669291
 20
-16.62870866141732
 10
16.74137007874016
 20
-16.63472834645669
 10
16.74857874015748
 20
-16.64167716535433
 10
16.75537795275591
 20
-16.64941732283464
 10
16.76126771653543
 20
-16.65744488188976
 10
16.76625196850394
 20
-16.66576377952756
 10
16.77032677165354
 20
-16.67436614173228
 10
16.77349606299213
 20
-16.68325590551181
 10
16.77575590551181
 20
-16.69242913385827
 10
16.77711417322835
 20
-16.70188582677165
 10
16.77756692913386
 20
-16.71162598425197
 10
16.77710236220473
 20
-16.72170866141732
 10
16.77571653543307
 20
-16.73138976377953
 10
16.77340157480315
 20
-16.74066535433071
 10
16.77016535433071
 20
-16.74953543307087
 10
16.766
 20
-16.758
 10
16.7609094488189
 20
-16.76606299212598
 10
16.7548937007874
 20
-16.77372047244095
 10
16.74795275590551
 20
-16.78097244094488
 10
16.74442125984252
 20
-16.7841968503937
 10
16.74076377952756
 20
-16.78725590551181
 10
16.73697637795276
 20
-16.79014566929134
 10
16.73306299212598
 20
-16.79286614173228
 10
16.72901968503937
 20
-16.79542125984252
 10
16.72485039370079
 20
-16.79780708661417
 10
16.72055118110236
 20
-16.80002755905512
 10
16.71612598425197
 20
-16.80207874015748
 10
16.71150393700787
 20
-16.80392519685039
 10
16.70662598425197
 20
-16.80552362204724
 10
16.70149212598425
 20
-16.80688188976378
 10
16.6961062992126
 20
-16.80798818897638
 10
16.69046062992126
 20
-16.80885433070866
 10
16.68456299212598
 20
-16.80946850393701
 10
16.6784094488189
 20
-16.80984251968504
 10
16.67199606299213
 20
-16.80996456692914
 10
16.66546062992126
 20
-16.80968897637795
 10
16.65893700787402
 20
-16.80885826771653
 10
16.65242125984252
 20
-16.80748031496063
 10
16.64591732283465
 20
-16.80554724409449
 10
16.63942125984252
 20
-16.80306299212598
 10
16.63293700787402
 20
-16.80003149606299
 10
16.62646456692913
 20
-16.79644881889764
 10
16.62000393700787
 20
-16.7923188976378
 10
16.61377559055118
 20
-16.78774015748031
 10
16.60801968503937
 20
-16.78282283464567
 10
16.60274409448819
 20
-16.77757086614173
 10
16.59793700787402
 20
-16.7719842519685
 10
16.5936062992126
 20
-16.76606299212598
 10
16.58974409448819
 20
-16.75980708661417
 10
16.58635826771653
 20
-16.75321653543307
 10
16.58344094488189
 20
-16.74629133858268
 10
16.54058267716535
 20
-16.76015748031496
 10
16.54479133858268
 20
-16.77053543307087
 10
16.54970472440945
 20
-16.78038976377953
 10
16.55531102362205
 20
-16.78972047244094
 10
16.56162204724409
 20
-16.79853149606299
 10
16.56862992125984
 20
-16.8068188976378
 10
16.57633858267717
 20
-16.81458267716535
 10
16.58474409448819
 20
-16.82182677165354
 10
16.59385039370079
 20
-16.82854330708662
 10
16.60353149606299
 20
-16.83467716535433
 10
16.61342913385827
 20
-16.83999212598425
 10
16.62353937007874
 20
-16.84449212598425
 10
16.63387007874016
 20
-16.84817322834646
 10
16.64441338582677
 20
-16.85103937007874
 10
16.65517716535433
 20
-16.85308267716535
 10
16.66615748031496
 20
-16.85431102362205
 10
16.67735433070866
 20
-16.85472047244095
 10
16.69227559055118
 20
-16.85404330708661
 10
16.70662598425197
 20
-16.85201968503937
 10
16.72040551181102
 20
-16.84864566929134
 10
16.73361023622047
 20
-16.84392125984252
 10
16.74624409448819
 20
-16.83784645669291
 10
16.7583031496063
 20
-16.83042125984252
 10
16.76979527559055
 20
-16.82164960629921
 10
16.78071653543307
 20
-16.81152755905512
 10
16.79061811023622
 20
-16.80054330708661
 10
16.7991968503937
 20
-16.78901968503937
 10
16.80645669291339
 20
-16.77695275590551
 10
16.8123937007874
 20
-16.76434251968504
 10
16.81701181102362
 20
-16.75118897637795
 10
16.82031102362205
 20
-16.73749606299213
 10
16.82229133858268
 20
-16.72325984251968
 10
16.82294881889764
 20
-16.70848031496063
 10
16.82229921259842
 20
-16.69377952755906
 10
16.82035039370079
 20
-16.67970078740158
 10
16.81709842519685
 20
-16.66624409448819
 10
16.81255118110236
 20
-16.65340551181102
 10
16.80670472440945
 20
-16.64118897637795
 10
16.79955511811024
 20
-16.62959448818898
 10
16.79111023622047
 20
-16.61861811023622
 10
16.78136614173228
 20
-16.60826771653543
 10
16.7763779527559
 20
-16.60366141732283
 10
16.77119291338583
 20
-16.5993031496063
 10
16.76581496062992
 20
-16.59518897637795
 10
16.76024015748031
 20
-16.59132677165355
 10
16.75446850393701
 20
-16.58770472440945
 10
16.74850393700788
 20
-16.58433464566929
 10
16.74234251968504
 20
-16.58120472440945
 10
16.7359842519685
 20
-16.5783188976378
 10
16.72948818897638
 20
-16.57573622047244
 10
16.72294094488189
 20
-16.57349212598425
 10
16.71633464566929
 20
-16.57159842519685
 10
16.70967716535433
 20
-16.57004330708661
 10
16.70296456692913
 20
-16.56883858267717
 10
16.69620078740158
 20
-16.56797244094488
 10
16.68938188976378
 20
-16.56745669291339
 10
16.68251574803149
 20
-16.56728346456693
 10
16.67551181102362
 20
-16.56744094488189
 10
16.66837007874016
 20
-16.56791732283465
 10
16.66108661417323
 20
-16.56870472440945
 10
16.65366141732283
 20
-16.56981102362205
 10
16.64609448818898
 20
-16.57123228346457
 10
16.63838188976378
 20
-16.57296456692913
 10
16.63052755905512
 20
-16.5750157480315
 10
16.62252755905512
 20
-16.57737795275591
  0
LWPOLYLINE
  5
77
330
1F
100
AcDbEntity
  8
Layer 1
 62
     7
370
     9
100
AcDbPolyline
 90
       88
 70
     1
 43
0.0
 10
17.06719291338583
 20
-16.46834645669291
 10
17.07447637795276
 20
-16.4732874015748
 10
17.08126377952756
 20
-16.47889763779527
 10
17.08755905511811
 20
-16.4851811023622
 10
17.09336220472441
 20
-16.49212992125984
 10
17.09866929133858
 20
-16.49975196850394
 10
17.1034842519685
 20
-16.50804330708661
 10
17.10780708661417
 20
-16.51700393700787
 10
17.11163779527559
 20
-16.52663779527559
 10
17.11592519685039
 20
-16.53941732283464
 10
17.11963779527559
 20
-16.55238582677165
 10
17.12277559055118
 20
-16.56553937007874
 10
17.12534251968504
 20
-16.57888188976378
 10
17.12733858267717
 20
-16.5924094488189
 10
17.12876771653543
 20
-16.6061220472441
 10
17.12962204724409
 20
-16.62001968503937
 10
17.12990551181102
 20
-16.6341062992126
 10
17.12803149606299
 20
-16.66530708661417
 10
17.12584645669291
 20
-16.68225196850394
 10
17.12298818897638
 20
-16.69825984251969
 10
17.11946456692914
 20
-16.71333070866142
 10
17.11526771653543
 20
-16.72746850393701
 10
17.11040157480315
 20
-16.74066929133858
 10
17.10486614173228
 20
-16.75293307086614
 10
17.09865748031496
 20
-16.76425984251969
 10
17.09178346456693
 20
-16.77465354330709
 10
17.08550787401575
 20
-16.78248818897638
 10
17.07890157480315
 20
-16.78927559055118
 10
17.07195669291339
 20
-16.79501968503937
 10
17.0646811023622
 20
-16.79971653543307
 10
17.05706692913386
 20
-16.80337007874016
 10
17.04911811023622
 20
-16.80598031496063
 10
17.04083464566929
 20
-16.80754724409449
 10
17.03221653543307
 20
-16.80806692913386
 10
17.02259842519685
 20
-16.80755118110236
 10
17.01344488188976
 20
-16.806
 10
17.00475196850394
 20
-16.80341338582677
 10
16.99652362204725
 20
-16.79979527559055
 10
16.98875590551181
 20
-16.79514173228347
 10
16.98145275590551
 20
-16.78945669291339
 10
16.97461023622047
 20
-16.78274015748032
 10
16.96823228346457
 20
-16.77498818897638
 10
16.96295669291339
 20
-16.76733858267717
 10
16.95815354330709
 20
-16.75922047244094
 10
16.9538188976378
 20
-16.75063779527559
 10
16.94996456692913
 20
-16.74157874015748
 10
16.94655905511811
 20
-16.73222047244094
 10
16.94358267716536
 20
-16.72274803149606
 10
16.94103937007874
 20
-16.71314960629921
 10
16.93892913385827
 20
-16.70342913385827
 10
16.93357086614173
 20
-16.66561811023622
 10
16.93200787401575
 20
-16.6235
 10
16.93244094488189
 20
-16.6108937007874
 10
16.93373622047244
 20
-16.59685433070866
 10
16.93589763779528
 20
-16.5813779527559
 10
16.93892913385827
 20
-16.56444881889764
 10
16.94101968503937
 20
-16.55486220472441
 10
16.94350393700788
 20
-16.54531102362205
 10
16.94637795275591
 20
-16.53579527559055
 10
16.94964960629921
 20
-16.52632283464567
 10
16.95337401574803
 20
-16.51711023622047
 10
16.9576062992126
 20
-16.50836614173229
 10
16.96235039370079
 20
-16.50009448818898
 10
16.9676062992126
 20
-16.4922874015748
 10
16.97043307086614
 20
-16.48859448818898
 10
16.97339763779528
 20
-16.48509448818898
 10
16.9765
 20
-16.48177559055118
 10
16.97974409448819
 20
-16.47864960629921
 10
16.98312598425197
 20
-16.47570866141732
 10
16.98664566929134
 20
-16.47295669291339
 10
16.9903031496063
 20
-16.47038976377953
 10
16.99409448818898
 20
-16.46801181102362
 10
16.99803543307087
 20
-16.46587401574803
 10
17.00215748031496
 20
-16.46401968503937
 10
17.00646062992126
 20
-16.46245275590551
 10
17.01094094488189
 20
-16.46116535433071
 10
17.01559842519685
 20
-16.46016535433071
 10
17.02043307086614
 20
-16.45944881889764
 10
17.02544488188977
 20
-16.4590157480315
 10
17.03063385826772
 20
-16.45887401574803
 10
17.03582677165354
 20
-16.45902362204724
 10
17.04084251968504
 20
-16.45946456692914
 10
17.04567716535433
 20
-16.46020472440945
 10
17.05033858267717
 20
-16.46124015748032
 10
17.05481496062992
 20
-16.46257086614173
 10
17.05911811023622
 20
-16.46420078740157
 10
17.06324409448819
 20
-16.46612598425197
 10
17.06719291338583
 20
-16.46834645669291
  0
LWPOLYLINE
  5
78
330
1F
100
AcDbEntity
  8
Layer 1
 62
     7
370
     9
100
AcDbPolyline
 90
       65
 70
     1
 43
0.0
 10
17.03284251968504
 20
-16.85282283464567
 10
17.05124409448819
 20
-16.85165748031496
 10
17.06847637795276
 20
-16.84815354330709
 10
17.08453543307087
 20
-16.8423188976378
 10
17.09942125984252
 20
-16.83414960629921
 10
17.11313779527559
 20
-16.82364566929134
 10
17.12567716535433
 20
-16.81081102362205
 10
17.13704330708661
 20
-16.79564173228346
 10
17.14723622047244
 20
-16.77813779527559
 10
17.15440551181102
 20
-16.76285826771653
 10
17.16061811023622
 20
-16.74673228346457
 10
17.16587401574803
 20
-16.72976377952756
 10
17.17017322834646
 20
-16.71194881889764
 10
17.17351574803149
 20
-16.6932874015748
 10
17.17590157480315
 20
-16.67377559055118
 10
17.17733464566929
 20
-16.65341732283465
 10
17.17781102362205
 20
-16.63220866141732
 10
17.17733464566929
 20
-16.61100787401575
 10
17.17590157480315
 20
-16.59064960629921
 10
17.17351574803149
 20
-16.57114173228346
 10
17.17017322834646
 20
-16.55248031496063
 10
17.16587401574803
 20
-16.53466535433071
 10
17.16061811023622
 20
-16.5176968503937
 10
17.15440551181102
 20
-16.50157480314961
 10
17.14723622047244
 20
-16.4863031496063
 10
17.13704330708661
 20
-16.46879527559055
 10
17.12567716535433
 20
-16.4536220472441
 10
17.11313779527559
 20
-16.44078346456693
 10
17.09942125984252
 20
-16.43028346456693
 10
17.08453543307087
 20
-16.42211811023622
 10
17.06847637795276
 20
-16.41628346456693
 10
17.05124409448819
 20
-16.41278346456693
 10
17.03284251968504
 20
-16.41161811023622
 10
17.01444094488189
 20
-16.41278346456693
 10
16.99721653543307
 20
-16.41628346456693
 10
16.98115748031496
 20
-16.42211811023622
 10
16.96627559055118
 20
-16.43028346456693
 10
16.95256299212598
 20
-16.44078346456693
 10
16.94001968503937
 20
-16.4536220472441
 10
16.92864960629921
 20
-16.46879527559055
 10
16.91844881889764
 20
-16.4863031496063
 10
16.91127952755906
 20
-16.50157480314961
 10
16.90507086614173
 20
-16.5176968503937
 10
16.89981496062992
 20
-16.53466535433071
 10
16.8955157480315
 20
-16.55248031496063
 10
16.89217322834646
 20
-16.57114173228346
 10
16.88978346456693
 20
-16.59064960629921
 10
16.88835039370079
 20
-16.61100787401575
 10
16.88787401574803
 20
-16.63220866141732
 10
16.88835039370079
 20
-16.65341732283465
 10
16.88978346456693
 20
-16.67377559055118
 10
16.89217322834646
 20
-16.6932874015748
 10
16.8955157480315
 20
-16.71194881889764
 10
16.89981496062992
 20
-16.72976377952756
 10
16.90507086614173
 20
-16.74673228346457
 10
16.91127952755906
 20
-16.76285826771653
 10
16.91844881889764
 20
-16.77813779527559
 10
16.92864960629921
 20
-16.79564173228346
 10
16.94001968503937
 20
-16.81081102362205
 10
16.95256299212598
 20
-16.82364566929134
 10
16.96627559055118
 20
-16.83414960629921
 10
16.98115748031496
 20
-16.8423188976378
 10
16.99721653543307
 20
-16.84815354330709
 10
17.01444094488189
 20
-16.85165748031496
 10
17.03284251968504
 20
-16.85282283464567
  0
LWPOLYLINE
  5
79
330
1F
100
AcDbEntity
  8
Layer 1
 62
     7
100
AcDbPolyline
 90
      147
 70
     1
 43
0.0
 10
13.25420472440945
 20
-4.355318897637796
 10
13.17436614173228
 20
-4.355318897637796
 10
13.16483464566929
 20
-4.372003937007874
 10
13.15437795275591
 20
-4.387850393700788
 10
13.14299606299213
 20
-4.402850393700787
 10
13.13068897637795
 20
-4.417011811023622
 10
13.11746062992126
 20
-4.430330708661417
 10
13.10331102362205
 20
-4.442807086614173
 10
13.08823622047244
 20
-4.454437007874016
 10
13.07223622047244
 20
-4.465228346456693
 10
13.05557480314961
 20
-4.474948818897638
 10
13.03850787401575
 20
-4.483370078740157
 10
13.02103543307087
 20
-4.4905
 10
13.00315748031496
 20
-4.496330708661417
 10
12.98487401574803
 20
-4.500866141732283
 10
12.96618503937008
 20
-4.504106299212599
 10
12.9470905511811
 20
-4.506047244094488
 10
12.92759448818898
 20
-4.506696850393701
 10
12.89914566929134
 20
-4.505350393700787
 10
12.87173228346457
 20
-4.501318897637796
 10
12.84535826771654
 20
-4.494594488188977
 10
12.82001968503937
 20
-4.485185039370079
 10
12.79572047244094
 20
-4.473082677165355
 10
12.77245669291339
 20
-4.458291338582677
 10
12.75022834645669
 20
-4.440814960629921
 10
12.72903937007874
 20
-4.420645669291338
 10
12.71020472440945
 20
-4.399188976377952
 10
12.6938779527559
 20
-4.376677165354331
 10
12.68006692913386
 20
-4.353110236220473
 10
12.66876771653543
 20
-4.328492125984252
 10
12.65998031496063
 20
-4.302822834645669
 10
12.65370078740158
 20
-4.27609842519685
 10
12.64993700787402
 20
-4.248322834645669
 10
12.6486811023622
 20
-4.219492125984252
 10
12.64993700787402
 20
-4.190417322834645
 10
12.65370078740158
 20
-4.162429133858268
 10
12.65998031496063
 20
-4.135527559055118
 10
12.66876771653543
 20
-4.109712598425197
 10
12.68006692913386
 20
-4.08498031496063
 10
12.6938779527559
 20
-4.061334645669291
 10
12.71020472440945
 20
-4.038775590551182
 10
12.72903937007874
 20
-4.017303149606299
 10
12.73870078740157
 20
-4.007704724409449
 10
12.74877165354331
 20
-3.998606299212598
 10
12.75924409448819
 20
-3.990011811023622
 10
12.77012598425197
 20
-3.981917322834646
 10
12.7814094488189
 20
-3.974326771653543
 10
12.79309842519685
 20
-3.967236220472441
 10
12.80519291338583
 20
-3.960653543307087
 10
12.81769291338583
 20
-3.954570866141732
 10
12.83035826771654
 20
-3.949102362204724
 10
12.84296062992126
 20
-3.944362204724409
 10
12.8555
 20
-3.940354330708661
 10
12.86797637795276
 20
-3.937070866141732
 10
12.88038582677165
 20
-3.93451968503937
 10
12.89272834645669
 20
-3.932696850393701
 10
12.90501181102362
 20
-3.931606299212599
 10
12.91722440944882
 20
-3.931240157480315
 10
12.92922440944882
 20
-3.931409448818898
 10
12.94084645669291
 20
-3.93192125984252
 10
12.95209842519685
 20
-3.932771653543307
 10
12.96298031496063
 20
-3.93396062992126
 10
12.9734842519685
 20
-3.935492125984252
 10
12.98361811023622
 20
-3.937362204724409
 10
12.99337795275591
 20
-3.939574803149606
 10
13.00276377952756
 20
-3.942129921259843
 10
13.03020866141732
 20
-3.951606299212598
 10
13.05590551181102
 20
-3.963318897637795
 10
13.07985039370079
 20
-3.977267716535433
 10
13.10204724409449
 20
-3.993452755905512
 10
13.12249212598425
 20
-4.011874015748032
 10
13.14118897637795
 20
-4.032527559055118
 10
13.15813385826772
 20
-4.05542125984252
 10
13.17333070866142
 20
-4.080551181102362
 10
13.25317322834646
 20
-4.080551181102362
 10
13.24242913385827
 20
-4.056015748031496
 10
13.23016535433071
 20
-4.032692913385826
 10
13.21637795275591
 20
-4.010586614173229
 10
13.20106692913386
 20
-3.989696850393701
 10
13.18423228346457
 20
-3.97001968503937
 10
13.16587401574803
 20
-3.95155905511811
 10
13.14599606299213
 20
-3.934311023622047
 10
13.12459448818898
 20
-3.918279527559055
 10
13.10212598425197
 20
-3.903822834645669
 10
13.07904330708661
 20
-3.891291338582677
 10
13.05534251968504
 20
-3.880688976377953
 10
13.03102362204724
 20
-3.872011811023622
 10
13.0060905511811
 20
-3.865263779527559
 10
12.98053937007874
 20
-3.860444881889764
 10
12.95437401574803
 20
-3.857555118110236
 10
12.92759448818898
 20
-3.856590551181102
 10
12.89164960629921
 20
-3.858275590551181
 10
12.85705511811024
 20
-3.863330708661417
 10
12.82379921259843
 20
-3.871751968503937
 10
12.7918937007874
 20
-3.883547244094488
 10
12.76133070866142
 20
-3.898708661417323
 10
12.73211023622047
 20
-3.917244094488189
 10
12.70423622047244
 20
-3.939145669291339
 10
12.67770866141732
 20
-3.964417322834646
 10
12.66611023622047
 20
-3.977114173228347
 10
12.65515748031496
 20
-3.990311023622047
 10
12.64485433070866
 20
-4.004007874015748
 10
12.63520078740157
 20
-4.018208661417323
 10
12.62619291338583
 20
-4.032913385826772
 10
12.61783464566929
 20
-4.048118110236221
 10
12.6101220472441
 20
-4.063822834645669
 10
12.60305905511811
 20
-4.080031496062992
 10
12.59674015748032
 20
-4.096614173228346
 10
12.59126377952756
 20
-4.11344094488189
 10
12.58662992125984
 20
-4.130507874015748
 10
12.58283858267717
 20
-4.147818897637795
 10
12.57988976377953
 20
-4.165374015748031
 10
12.57778346456693
 20
-4.183169291338583
 10
12.57651968503937
 20
-4.201208661417323
 10
12.57609842519685
 20
-4.219492125984252
 10
12.57768503937008
 20
-4.255838582677165
 10
12.58244881889764
 20
-4.290874015748032
 10
12.59038582677165
 20
-4.324594488188977
 10
12.6015
 20
-4.357007874015748
 10
12.61579133858268
 20
-4.388102362204725
 10
12.63325590551181
 20
-4.417885826771654
 10
12.6538937007874
 20
-4.446358267716535
 10
12.67770866141732
 20
-4.47351968503937
 10
12.70423622047244
 20
-4.498795275590552
 10
12.73211023622047
 20
-4.520700787401575
 10
12.76133070866142
 20
-4.539236220472441
 10
12.7918937007874
 20
-4.554397637795276
 10
12.82379921259843
 20
-4.566192913385827
 10
12.85705511811024
 20
-4.574614173228347
 10
12.89164960629921
 20
-4.579669291338583
 10
12.92759448818898
 20
-4.581354330708661
 10
12.95427559055118
 20
-4.580374015748031
 10
12.9804094488189
 20
-4.577433070866141
 10
13.00599212598425
 20
-4.572535433070867
 10
13.03102362204724
 20
-4.565673228346457
 10
13.05550393700787
 20
-4.556854330708662
 10
13.07943307086614
 20
-4.546070866141732
 10
13.10280708661417
 20
-4.533330708661417
 10
13.12563385826772
 20
-4.518625984251969
 10
13.14720472440945
 20
-4.502464566929134
 10
13.16720866141732
 20
-4.485086614173229
 10
13.18563779527559
 20
-4.466496062992126
 10
13.20249606299213
 20
-4.446692913385827
 10
13.21777952755905
 20
-4.425673228346457
 10
13.23149606299213
 20
-4.403437007874015
 10
13.24363779527559
 20
-4.379988188976378
 10
13.25420472440945
 20
-4.355318897637796
  0
LWPOLYLINE
  5
7A
330
1F
100
AcDbEntity
  8
Layer 1
 62
     7
100
AcDbPolyline
 90
        4
 70
     1
 43
0.0
 10
13.43255511811024
 20
-4.311771653543307
 10
13.56112598425197
 20
-3.987236220472441
 10
13.68917322834646
 20
-4.311771653543307
 10
13.43255511811024
 20
-4.311771653543307
  0
LWPOLYLINE
  5
7B
330
1F
100
AcDbEntity
  8
Layer 1
 62
     7
100
AcDbPolyline
 90
        8
 70
     1
 43
0.0
 10
13.87011417322835
 20
-4.570988188976378
 10
13.56112598425197
 20
-3.817185039370079
 10
13.25109842519685
 20
-4.570988188976378
 10
13.32989763779528
 20
-4.570988188976378
 10
13.40593700787402
 20
-4.379165354330708
 10
13.71561811023622
 20
-4.379165354330708
 10
13.79130708661417
 20
-4.570988188976378
 10
13.87011417322835
 20
-4.570988188976378
  0
LWPOLYLINE
  5
7C
330
1F
100
AcDbEntity
  8
Layer 1
 62
     7
100
AcDbPolyline
 90
      125
 70
     1
 43
0.0
 10
14.22731102362205
 20
-3.947830708661417
 10
14.23928346456693
 20
-3.955964566929134
 10
14.25044881889764
 20
-3.965200787401575
 10
14.26079921259842
 20
-3.975535433070866
 10
14.27034251968504
 20
-3.986972440944882
 10
14.27907480314961
 20
-3.999511811023622
 10
14.28699606299213
 20
-4.013153543307086
 10
14.29411023622047
 20
-4.027897637795276
 10
14.3004094488189
 20
-4.043740157480315
 10
14.30745669291339
 20
-4.064759842519685
 10
14.31356692913386
 20
-4.086090551181102
 10
14.31873228346457
 20
-4.107728346456692
 10
14.32296456692913
 20
-4.129673228346457
 10
14.32625196850394
 20
-4.151925196850394
 10
14.32860236220472
 20
-4.174484251968504
 10
14.33001181102362
 20
-4.197350393700788
 10
14.33048031496063
 20
-4.220527559055118
 10
14.3302874015748
 20
-4.23190157480315
 10
14.32970472440945
 20
-4.244248031496063
 10
14.32873228346457
 20
-4.257566929133858
 10
14.32737007874016
 20
-4.271854330708662
 10
14.32377165354331
 20
-4.299728346456693
 10
14.31907480314961
 20
-4.32605905511811
 10
14.31327559055118
 20
-4.350854330708661
 10
14.30637401574803
 20
-4.374114173228347
 10
14.29837007874016
 20
-4.395830708661418
 10
14.28926377952756
 20
-4.416007874015748
 10
14.27905905511811
 20
-4.434649606299213
 10
14.26775196850394
 20
-4.451748031496063
 10
14.25743307086614
 20
-4.464625984251969
 10
14.24655905511811
 20
-4.475787401574803
 10
14.23513779527559
 20
-4.485232283464567
 10
14.22316535433071
 20
-4.49296062992126
 10
14.21063779527559
 20
-4.498968503937008
 10
14.19756299212598
 20
-4.503263779527559
 10
14.18394094488189
 20
-4.505838582677165
 10
14.16976377952756
 20
-4.506696850393701
 10
14.15394488188976
 20
-4.505846456692914
 10
14.13888582677165
 20
-4.503295275590551
 10
14.12458661417323
 20
-4.499043307086614
 10
14.11105118110236
 20
-4.493090551181102
 10
14.09827952755906
 20
-4.485437007874015
 10
14.08626771653543
 20
-4.476082677165354
 10
14.0750157480315
 20
-4.465027559055118
 10
14.06452362204724
 20
-4.452271653543307
 10
14.06008267716535
 20
-4.44607874015748
 10
14.05583858267716
 20
-4.439696850393701
 10
14.0517874015748
 20
-4.43311811023622
 10
14.04793307086614
 20
-4.426346456692913
 10
14.04427165354331
 20
-4.419377952755905
 10
14.0408031496063
 20
-4.412216535433071
 10
14.03753149606299
 20
-4.404862204724409
 10
14.03445275590551
 20
-4.397311023622048
 10
14.03156299212598
 20
-4.389637795275591
 10
14.02884645669291
 20
-4.38192125984252
 10
14.02631102362205
 20
-4.374149606299213
 10
14.02395669291339
 20
-4.366334645669292
 10
14.02177559055118
 20
-4.358468503937008
 10
14.01977559055118
 20
-4.350555118110236
 10
14.01795275590551
 20
-4.342594488188976
 10
14.01630708661417
 20
-4.334582677165354
 10
14.01481102362205
 20
-4.326578740157481
 10
14.01342519685039
 20
-4.318641732283464
 10
14.01215354330709
 20
-4.310767716535433
 10
14.01099606299213
 20
-4.302956692913386
 10
14.00994881889764
 20
-4.295212598425197
 10
14.00901968503937
 20
-4.287531496062992
 10
14.00820078740158
 20
-4.279917322834645
 10
14.0075
 20
-4.272366141732284
 10
14.00688976377953
 20
-4.264704724409449
 10
14.00636220472441
 20
-4.256755905511811
 10
14.00591732283465
 20
-4.248515748031496
 10
14.00555118110236
 20
-4.239988188976378
 10
14.00526771653543
 20
-4.231181102362204
 10
14.00506299212598
 20
-4.222090551181102
 10
14.00494094488189
 20
-4.212716535433071
 10
14.00490157480315
 20
-4.203070866141732
 10
14.00507874015748
 20
-4.192992125984252
 10
14.00561417322835
 20
-4.182330708661417
 10
14.00650787401575
 20
-4.171082677165354
 10
14.00775590551181
 20
-4.159244094488189
 10
14.00935826771654
 20
-4.146811023622047
 10
14.01131889763779
 20
-4.133787401574804
 10
14.01363385826772
 20
-4.120169291338582
 10
14.01630708661417
 20
-4.105952755905512
 10
14.01794488188976
 20
-4.098055118110236
 10
14.01974409448819
 20
-4.090173228346456
 10
14.02170472440945
 20
-4.082307086614173
 10
14.02382677165354
 20
-4.074456692913386
 10
14.02611023622047
 20
-4.066625984251968
 10
14.02855511811024
 20
-4.058807086614173
 10
14.03116535433071
 20
-4.051007874015748
 10
14.03393700787402
 20
-4.043224409448819
 10
14.0368937007874
 20
-4.035543307086614
 10
14.04006299212598
 20
-4.02805905511811
 10
14.04343700787402
 20
-4.020767716535433
 10
14.04702755905512
 20
-4.013673228346457
 10
14.05082677165354
 20
-4.006771653543307
 10
14.05483464566929
 20
-4.000062992125984
 10
14.05905511811024
 20
-3.993551181102362
 10
14.06348818897638
 20
-3.987236220472441
 10
14.06813779527559
 20
-3.981169291338583
 10
14.0730157480315
 20
-3.975405511811024
 10
14.07811811023622
 20
-3.969952755905512
 10
14.08344881889764
 20
-3.964811023622047
 10
14.08900393700787
 20
-3.959972440944882
 10
14.0947874015748
 20
-3.955444881889764
 10
14.10079527559055
 20
-3.951224409448819
 10
14.10703149606299
 20
-3.947311023622047
 10
14.11352755905512
 20
-3.943787401574803
 10
14.12031889763779
 20
-3.940736220472441
 10
14.12739763779528
 20
-3.938149606299213
 10
14.13477165354331
 20
-3.936035433070866
 10
14.14243307086614
 20
-3.934389763779528
 10
14.15038976377953
 20
-3.933216535433071
 10
14.15863779527559
 20
-3.932511811023622
 10
14.16717322834646
 20
-3.932275590551181
 10
14.1757125984252
 20
-3.93251968503937
 10
14.18396062992126
 20
-3.933248031496063
 10
14.19191338582677
 20
-3.934464566929134
 10
14.19957480314961
 20
-3.936165354330709
 10
14.20694881889764
 20
-3.938354330708661
 10
14.21402755905512
 20
-3.941027559055118
 10
14.22081496062992
 20
-3.944185039370079
 10
14.22731102362205
 20
-3.947830708661417
  0
LWPOLYLINE
  5
7D
330
1F
100
AcDbEntity
  8
Layer 1
 62
     7
100
AcDbPolyline
 90
       65
 70
     1
 43
0.0
 10
14.17079921259842
 20
-4.580318897637795
 10
14.20107480314961
 20
-4.578397637795276
 10
14.22941732283465
 20
-4.572637795275591
 10
14.25583464566929
 20
-4.56303937007874
 10
14.28032283464567
 20
-4.549602362204724
 10
14.30288582677165
 20
-4.53232283464567
 10
14.3235157480315
 20
-4.511204724409449
 10
14.34222047244094
 20
-4.486248031496063
 10
14.35899606299213
 20
-4.457448818897638
 10
14.37077952755905
 20
-4.432322834645669
 10
14.38099212598425
 20
-4.405803149606299
 10
14.38963779527559
 20
-4.377885826771654
 10
14.39670866141732
 20
-4.34857874015748
 10
14.40220866141732
 20
-4.317877952755905
 10
14.40613779527559
 20
-4.285783464566929
 10
14.40849212598425
 20
-4.252299212598425
 10
14.40927952755906
 20
-4.217417322834645
 10
14.40849212598425
 20
-4.182535433070866
 10
14.40613779527559
 20
-4.149051181102362
 10
14.40220866141732
 20
-4.116956692913385
 10
14.39670866141732
 20
-4.086255905511811
 10
14.38963779527559
 20
-4.056944881889764
 10
14.38099212598425
 20
-4.029031496062992
 10
14.37077952755905
 20
-4.002507874015748
 10
14.35899606299213
 20
-3.977381889763779
 10
14.34222047244094
 20
-3.948586614173228
 10
14.3235157480315
 20
-3.923629921259843
 10
14.30288582677165
 20
-3.902511811023622
 10
14.28032283464567
 20
-3.885232283464567
 10
14.25583464566929
 20
-3.871795275590551
 10
14.22941732283465
 20
-3.862196850393701
 10
14.20107480314961
 20
-3.856437007874016
 10
14.17079921259842
 20
-3.854515748031496
 10
14.14052755905512
 20
-3.856437007874016
 10
14.11218503937008
 20
-3.862196850393701
 10
14.08577165354331
 20
-3.871795275590551
 10
14.06128346456693
 20
-3.885232283464567
 10
14.03872440944882
 20
-3.902511811023622
 10
14.01809448818898
 20
-3.923629921259843
 10
13.99938976377953
 20
-3.948586614173228
 10
13.98261417322835
 20
-3.977381889763779
 10
13.97082677165354
 20
-4.002507874015748
 10
13.96061023622047
 20
-4.029031496062992
 10
13.95196850393701
 20
-4.056944881889764
 10
13.94489763779528
 20
-4.086255905511811
 10
13.93939763779528
 20
-4.116956692913385
 10
13.93546850393701
 20
-4.149051181102362
 10
13.93311417322835
 20
-4.182535433070866
 10
13.93232677165354
 20
-4.217417322834645
 10
13.93311417322835
 20
-4.252299212598425
 10
13.93546850393701
 20
-4.285783464566929
 10
13.93939763779528
 20
-4.317877952755905
 10
13.94489763779528
 20
-4.34857874015748
 10
13.95196850393701
 20
-4.377885826771654
 10
13.96061023622047
 20
-4.405803149606299
 10
13.97082677165354
 20
-4.432322834645669
 10
13.98261417322835
 20
-4.457448818897638
 10
13.99938976377953
 20
-4.486248031496063
 10
14.01809448818898
 20
-4.511204724409449
 10
14.03872440944882
 20
-4.53232283464567
 10
14.06128346456693
 20
-4.549602362204724
 10
14.08577165354331
 20
-4.56303937007874
 10
14.11218503937008
 20
-4.572637795275591
 10
14.14052755905512
 20
-4.578397637795276
 10
14.17079921259842
 20
-4.580318897637795
  0
LWPOLYLINE
  5
7E
330
1F
100
AcDbEntity
  8
Layer 1
 62
     7
100
AcDbPolyline
 90
      125
 70
     1
 43
0.0
 10
14.80795669291339
 20
-3.947830708661417
 10
14.81992913385827
 20
-3.955964566929134
 10
14.83109448818898
 20
-3.965200787401575
 10
14.84144488188976
 20
-3.975535433070866
 10
14.85098818897638
 20
-3.986972440944882
 10
14.85972047244094
 20
-3.999511811023622
 10
14.86764173228346
 20
-4.013153543307086
 10
14.87475590551181
 20
-4.027897637795276
 10
14.88105511811024
 20
-4.043740157480315
 10
14.88810236220472
 20
-4.064759842519685
 10
14.8942125984252
 20
-4.086090551181102
 10
14.89938188976378
 20
-4.107728346456692
 10
14.90361023622047
 20
-4.129673228346457
 10
14.90690157480315
 20
-4.151925196850394
 10
14.90924803149606
 20
-4.174484251968504
 10
14.91066141732284
 20
-4.197350393700788
 10
14.91112992125984
 20
-4.220527559055118
 10
14.91093700787401
 20
-4.23190157480315
 10
14.91035039370079
 20
-4.244248031496063
 10
14.90937795275591
 20
-4.257566929133858
 10
14.9080157480315
 20
-4.271854330708662
 10
14.90441732283464
 20
-4.299728346456693
 10
14.89972047244095
 20
-4.32605905511811
 10
14.89392125984252
 20
-4.350854330708661
 10
14.88701968503937
 20
-4.374114173228347
 10
14.8790157480315
 20
-4.395830708661418
 10
14.8699094488189
 20
-4.416007874015748
 10
14.85970472440945
 20
-4.434649606299213
 10
14.84839763779528
 20
-4.451748031496063
 10
14.83807874015748
 20
-4.464625984251969
 10
14.82720472440945
 20
-4.475787401574803
 10
14.81578346456693
 20
-4.485232283464567
 10
14.80381102362205
 20
-4.49296062992126
 10
14.7912874015748
 20
-4.498968503937008
 10
14.7782125984252
 20
-4.503263779527559
 10
14.76458661417323
 20
-4.505838582677165
 10
14.7504094488189
 20
-4.506696850393701
 10
14.7345905511811
 20
-4.505846456692914
 10
14.71953149606299
 20
-4.503295275590551
 10
14.70523622047244
 20
-4.499043307086614
 10
14.69170078740157
 20
-4.493090551181102
 10
14.67892519685039
 20
-4.485437007874015
 10
14.66691338582677
 20
-4.476082677165354
 10
14.65566535433071
 20
-4.465027559055118
 10
14.64517322834646
 20
-4.452271653543307
 10
14.64073228346457
 20
-4.44607874015748
 10
14.6364842519685
 20
-4.439696850393701
 10
14.63243307086614
 20
-4.43311811023622
 10
14.62857874015748
 20
-4.426346456692913
 10
14.62491732283465
 20
-4.419377952755905
 10
14.62144881889764
 20
-4.412216535433071
 10
14.61817716535433
 20
-4.404862204724409
 10
14.61509842519685
 20
-4.397311023622048
 10
14.61220866141732
 20
-4.389637795275591
 10
14.60949212598425
 20
-4.38192125984252
 10
14.60695669291339
 20
-4.374149606299213
 10
14.60460236220472
 20
-4.366334645669292
 10
14.60242125984252
 20
-4.358468503937008
 10
14.60042125984252
 20
-4.350555118110236
 10
14.59859842519685
 20
-4.342594488188976
 10
14.59695275590551
 20
-4.334582677165354
 10
14.59545669291339
 20
-4.326578740157481
 10
14.59407086614173
 20
-4.318641732283464
 10
14.59279921259843
 20
-4.310767716535433
 10
14.59164173228347
 20
-4.302956692913386
 10
14.59059842519685
 20
-4.295212598425197
 10
14.58966535433071
 20
-4.287531496062992
 10
14.58885039370079
 20
-4.279917322834645
 10
14.58814566929134
 20
-4.272366141732284
 10
14.58753543307087
 20
-4.264704724409449
 10
14.58700787401575
 20
-4.256755905511811
 10
14.58656299212598
 20
-4.248515748031496
 10
14.5861968503937
 20
-4.239988188976378
 10
14.58591338582677
 20
-4.231181102362204
 10
14.58570866141732
 20
-4.222090551181102
 10
14.58558661417323
 20
-4.212716535433071
 10
14.58554724409449
 20
-4.203070866141732
 10
14.58572440944882
 20
-4.192992125984252
 10
14.58625984251968
 20
-4.182330708661417
 10
14.58715354330709
 20
-4.171082677165354
 10
14.58840157480315
 20
-4.159244094488189
 10
14.59000393700787
 20
-4.146811023622047
 10
14.59196456692913
 20
-4.133787401574804
 10
14.59427952755905
 20
-4.120169291338582
 10
14.59695275590551
 20
-4.105952755905512
 10
14.5985905511811
 20
-4.098055118110236
 10
14.60038976377953
 20
-4.090173228346456
 10
14.60235039370079
 20
-4.082307086614173
 10
14.60447244094488
 20
-4.074456692913386
 10
14.60675590551181
 20
-4.066625984251968
 10
14.60920078740157
 20
-4.058807086614173
 10
14.61181102362205
 20
-4.051007874015748
 10
14.61458267716535
 20
-4.043224409448819
 10
14.61753937007874
 20
-4.035543307086614
 10
14.62070866141732
 20
-4.02805905511811
 10
14.62408661417323
 20
-4.020767716535433
 10
14.62767322834646
 20
-4.013673228346457
 10
14.63147244094488
 20
-4.006771653543307
 10
14.63548031496063
 20
-4.000062992125984
 10
14.63970078740157
 20
-3.993551181102362
 10
14.64413385826772
 20
-3.987236220472441
 10
14.64878346456693
 20
-3.981169291338583
 10
14.65366141732284
 20
-3.975405511811024
 10
14.65876377952756
 20
-3.969952755905512
 10
14.66409448818898
 20
-3.964811023622047
 10
14.66964960629921
 20
-3.959972440944882
 10
14.67543307086614
 20
-3.955444881889764
 10
14.68144488188976
 20
-3.951224409448819
 10
14.68768110236221
 20
-3.947311023622047
 10
14.69417716535433
 20
-3.943787401574803
 10
14.70096850393701
 20
-3.940736220472441
 10
14.70804724409449
 20
-3.938149606299213
 10
14.71541732283465
 20
-3.936035433070866
 10
14.72308267716535
 20
-3.934389763779528
 10
14.73103543307087
 20
-3.933216535433071
 10
14.73928346456693
 20
-3.932511811023622
 10
14.7478188976378
 20
-3.932275590551181
 10
14.75635826771654
 20
-3.93251968503937
 10
14.7646062992126
 20
-3.933248031496063
 10
14.77255905511811
 20
-3.934464566929134
 10
14.78022440944882
 20
-3.936165354330709
 10
14.78759448818898
 20
-3.938354330708661
 10
14.79467322834646
 20
-3.941027559055118
 10
14.80146062992126
 20
-3.944185039370079
 10
14.80795669291339
 20
-3.947830708661417
  0
LWPOLYLINE
  5
7F
330
1F
100
AcDbEntity
  8
Layer 1
 62
     7
100
AcDbPolyline
 90
       65
 70
     1
 43
0.0
 10
14.75144881889764
 20
-4.580318897637795
 10
14.78172047244095
 20
-4.578397637795276
 10
14.81006692913386
 20
-4.572637795275591
 10
14.8364842519685
 20
-4.56303937007874
 10
14.86097244094488
 20
-4.549602362204724
 10
14.88353149606299
 20
-4.53232283464567
 10
14.90416141732283
 20
-4.511204724409449
 10
14.92286614173228
 20
-4.486248031496063
 10
14.93964173228346
 20
-4.457448818897638
 10
14.95142519685039
 20
-4.432322834645669
 10
14.96164173228346
 20
-4.405803149606299
 10
14.97028346456693
 20
-4.377885826771654
 10
14.97735433070866
 20
-4.34857874015748
 10
14.98285433070866
 20
-4.317877952755905
 10
14.9867874015748
 20
-4.285783464566929
 10
14.98914173228346
 20
-4.252299212598425
 10
14.98992913385827
 20
-4.217417322834645
 10
14.98914173228346
 20
-4.182535433070866
 10
14.9867874015748
 20
-4.149051181102362
 10
14.98285433070866
 20
-4.116956692913385
 10
14.97735433070866
 20
-4.086255905511811
 10
14.97028346456693
 20
-4.056944881889764
 10
14.96164173228346
 20
-4.029031496062992
 10
14.95142519685039
 20
-4.002507874015748
 10
14.93964173228346
 20
-3.977381889763779
 10
14.92286614173228
 20
-3.948586614173228
 10
14.90416141732283
 20
-3.923629921259843
 10
14.88353149606299
 20
-3.902511811023622
 10
14.86097244094488
 20
-3.885232283464567
 10
14.8364842519685
 20
-3.871795275590551
 10
14.81006692913386
 20
-3.862196850393701
 10
14.78172047244095
 20
-3.856437007874016
 10
14.75144881889764
 20
-3.854515748031496
 10
14.72117716535433
 20
-3.856437007874016
 10
14.69283464566929
 20
-3.862196850393701
 10
14.66641732283465
 20
-3.871795275590551
 10
14.64192913385827
 20
-3.885232283464567
 10
14.61937007874016
 20
-3.902511811023622
 10
14.59874015748031
 20
-3.923629921259843
 10
14.58003543307087
 20
-3.948586614173228
 10
14.56325984251968
 20
-3.977381889763779
 10
14.55147244094488
 20
-4.002507874015748
 10
14.54125984251968
 20
-4.029031496062992
 10
14.53261417322835
 20
-4.056944881889764
 10
14.52554330708661
 20
-4.086255905511811
 10
14.52004330708662
 20
-4.116956692913385
 10
14.51611417322835
 20
-4.149051181102362
 10
14.51375984251968
 20
-4.182535433070866
 10
14.51297244094488
 20
-4.217417322834645
 10
14.51375984251968
 20
-4.252299212598425
 10
14.51611417322835
 20
-4.285783464566929
 10
14.52004330708662
 20
-4.317877952755905
 10
14.52554330708661
 20
-4.34857874015748
 10
14.53261417322835
 20
-4.377885826771654
 10
14.54125984251968
 20
-4.405803149606299
 10
14.55147244094488
 20
-4.432322834645669
 10
14.56325984251968
 20
-4.457448818897638
 10
14.58003543307087
 20
-4.486248031496063
 10
14.59874015748031
 20
-4.511204724409449
 10
14.61937007874016
 20
-4.53232283464567
 10
14.64192913385827
 20
-4.549602362204724
 10
14.66641732283465
 20
-4.56303937007874
 10
14.69283464566929
 20
-4.572637795275591
 10
14.72117716535433
 20
-4.578397637795276
 10
14.75144881889764
 20
-4.580318897637795
  0
LWPOLYLINE
  5
80
330
1F
100
AcDbEntity
  8
Layer 1
 62
     7
100
AcDbPolyline
 90
       87
 70
     1
 43
0.0
 10
15.10709448818898
 20
-4.570988188976378
 10
15.60375196850394
 20
-4.570988188976378
 10
15.60375196850394
 20
-4.498405511811024
 10
15.28233070866142
 20
-4.498405511811024
 10
15.52806692913386
 20
-4.254744094488189
 10
15.5441062992126
 20
-4.237196850393701
 10
15.55800787401575
 20
-4.218775590551181
 10
15.56976771653543
 20
-4.19948031496063
 10
15.5793937007874
 20
-4.179311023622048
 10
15.58687795275591
 20
-4.158263779527559
 10
15.59222440944882
 20
-4.136346456692913
 10
15.59542913385827
 20
-4.113551181102363
 10
15.5965
 20
-4.089881889763779
 10
15.59540551181102
 20
-4.065677165354331
 10
15.59212598425197
 20
-4.042444881889764
 10
15.58665748031496
 20
-4.020185039370078
 10
15.579
 20
-3.998897637795276
 10
15.56915748031496
 20
-3.97857874015748
 10
15.55712598425197
 20
-3.959236220472441
 10
15.5429094488189
 20
-3.94086220472441
 10
15.52650787401575
 20
-3.92346062992126
 10
15.50828346456693
 20
-3.907303149606299
 10
15.48924803149606
 20
-3.893295275590551
 10
15.46940157480315
 20
-3.881444881889764
 10
15.44874409448819
 20
-3.871751968503937
 10
15.42727952755905
 20
-3.864212598425197
 10
15.405
 20
-3.858822834645669
 10
15.38191338582677
 20
-3.855594488188976
 10
15.3580157480315
 20
-3.854515748031496
 10
15.33320472440945
 20
-3.855649606299213
 10
15.30931496062992
 20
-3.859051181102362
 10
15.28635039370079
 20
-3.864720472440945
 10
15.26431102362205
 20
-3.872661417322835
 10
15.24319291338583
 20
-3.882866141732284
 10
15.22299606299213
 20
-3.895342519685039
 10
15.20372440944882
 20
-3.910086614173228
 10
15.18537795275591
 20
-3.927098425196851
 10
15.16903937007874
 20
-3.945393700787402
 10
15.15501968503937
 20
-3.964649606299213
 10
15.14331496062992
 20
-3.984858267716536
 10
15.13392519685039
 20
-4.006023622047244
 10
15.12685433070866
 20
-4.028145669291338
 10
15.12209842519685
 20
-4.051224409448819
 10
15.11965748031496
 20
-4.075259842519685
 10
15.11953543307087
 20
-4.100251968503937
 10
15.19315748031496
 20
-4.100251968503937
 10
15.19254330708661
 20
-4.08403937007874
 10
15.19367716535433
 20
-4.068204724409449
 10
15.19656299212599
 20
-4.052740157480315
 10
15.2011968503937
 20
-4.037649606299213
 10
15.20757874015748
 20
-4.022933070866141
 10
15.2157125984252
 20
-4.008586614173228
 10
15.22559448818898
 20
-3.994614173228347
 10
15.23722440944882
 20
-3.981011811023622
 10
15.24966535433071
 20
-3.96886220472441
 10
15.26275590551181
 20
-3.958330708661417
 10
15.27649212598425
 20
-3.94942125984252
 10
15.29088188976378
 20
-3.942129921259843
 10
15.30591338582677
 20
-3.936456692913386
 10
15.32159842519685
 20
-3.932405511811023
 10
15.33792913385827
 20
-3.929976377952756
 10
15.35490551181102
 20
-3.929165354330709
 10
15.37156692913386
 20
-3.929893700787402
 10
15.38759842519685
 20
-3.932082677165354
 10
15.403
 20
-3.935728346456693
 10
15.41776771653543
 20
-3.940830708661417
 10
15.43190157480315
 20
-3.947393700787401
 10
15.44540551181102
 20
-3.955413385826771
 10
15.45827559055118
 20
-3.964893700787401
 10
15.4705157480315
 20
-3.975830708661417
 10
15.48181496062992
 20
-3.987913385826772
 10
15.49161023622047
 20
-4.000582677165355
 10
15.49989763779528
 20
-4.013834645669291
 10
15.5066811023622
 20
-4.027669291338583
 10
15.51195275590551
 20
-4.042086614173228
 10
15.51572047244094
 20
-4.057090551181102
 10
15.5179842519685
 20
-4.072677165354331
 10
15.51873622047244
 20
-4.088846456692913
 10
15.51800787401575
 20
-4.105370078740157
 10
15.51581889763779
 20
-4.121244094488189
 10
15.51217322834646
 20
-4.136476377952756
 10
15.50707086614173
 20
-4.151055118110237
 10
15.50050787401575
 20
-4.164988188976378
 10
15.49248818897638
 20
-4.178271653543307
 10
15.48300787401575
 20
-4.190909448818898
 10
15.47207086614173
 20
-4.202897637795275
 10
15.10709448818898
 20
-4.570988188976378
  0
LWPOLYLINE
  5
81
330
1F
100
AcDbEntity
  8
Layer 1
 62
     7
100
AcDbPolyline
 90
       67
 70
     1
 43
0.0
 10
16.05705905511811
 20
-4.635688976377953
 10
16.04704330708661
 20
-4.616472440944882
 10
16.03767716535433
 20
-4.596984251968504
 10
16.02895275590551
 20
-4.577212598425197
 10
16.02087795275591
 20
-4.557169291338583
 10
16.01345275590551
 20
-4.536846456692913
 10
16.00667716535433
 20
-4.516248031496063
 10
16.00055118110236
 20
-4.495374015748031
 10
15.99507874015748
 20
-4.474220472440945
 10
15.99021653543307
 20
-4.452740157480315
 10
15.98600393700787
 20
-4.430968503937008
 10
15.98244488188976
 20
-4.408913385826772
 10
15.97953543307087
 20
-4.386566929133858
 10
15.97727165354331
 20
-4.363929133858267
 10
15.97565748031496
 20
-4.341007874015748
 10
15.97469291338583
 20
-4.317795275590552
 10
15.97437007874016
 20
-4.294295275590551
 10
15.97469291338583
 20
-4.269629921259843
 10
15.97565748031496
 20
-4.245413385826772
 10
15.97725984251968
 20
-4.221641732283465
 10
15.97950393700787
 20
-4.198318897637796
 10
15.98238582677165
 20
-4.17544094488189
 10
15.98590551181102
 20
-4.153015748031496
 10
15.99005511811024
 20
-4.131043307086614
 10
15.99484251968504
 20
-4.109523622047244
 10
16.00031496062992
 20
-4.088362204724409
 10
16.00644488188976
 20
-4.06755905511811
 10
16.01322834645669
 20
-4.047102362204725
 10
16.02067322834646
 20
-4.027
 10
16.02877559055118
 20
-4.007248031496063
 10
16.03753937007874
 20
-3.987838582677165
 10
16.04696850393701
 20
-3.968779527559055
 10
16.05705905511811
 20
-3.950066929133858
 10
16.11349212598425
 20
-3.967102362204725
 10
16.10451968503937
 20
-3.985566929133858
 10
16.09614173228346
 20
-4.004232283464566
 10
16.08836220472441
 20
-4.023094488188977
 10
16.08117716535433
 20
-4.042161417322835
 10
16.07458661417323
 20
-4.06142125984252
 10
16.0685905511811
 20
-4.080885826771653
 10
16.0631811023622
 20
-4.100547244094488
 10
16.05836614173228
 20
-4.120405511811024
 10
16.05416141732283
 20
-4.140614173228347
 10
16.05051181102362
 20
-4.161224409448819
 10
16.04742125984252
 20
-4.182240157480315
 10
16.04488976377953
 20
-4.203669291338582
 10
16.04292125984252
 20
-4.225515748031496
 10
16.04151181102362
 20
-4.247779527559056
 10
16.04066535433071
 20
-4.270468503937008
 10
16.04038188976378
 20
-4.293582677165355
 10
16.04065748031496
 20
-4.317732283464567
 10
16.04149212598425
 20
-4.341295275590551
 10
16.04288188976378
 20
-4.364267716535433
 10
16.04483070866142
 20
-4.386653543307086
 10
16.04734251968504
 20
-4.408448818897638
 10
16.05041338582677
 20
-4.429657480314961
 10
16.05404724409449
 20
-4.450279527559055
 10
16.05824409448819
 20
-4.470314960629922
 10
16.06299212598425
 20
-4.489925196850393
 10
16.06835826771654
 20
-4.50917716535433
 10
16.07434251968504
 20
-4.52807874015748
 10
16.08094488188976
 20
-4.546629921259843
 10
16.08816141732283
 20
-4.564830708661417
 10
16.09599212598425
 20
-4.582685039370078
 10
16.10443700787402
 20
-4.600188976377953
 10
16.11349212598425
 20
-4.617350393700788
 10
16.05705905511811
 20
-4.635688976377953
  0
LWPOLYLINE
  5
82
330
1F
100
AcDbEntity
  8
Layer 1
 62
     7
100
AcDbPolyline
 90
      103
 70
     1
 43
0.0
 10
16.48622047244094
 20
-4.414952755905512
 10
16.48622047244094
 20
-4.48096062992126
 10
16.14624803149606
 20
-4.48096062992126
 10
16.33598818897638
 20
-4.25396062992126
 10
16.3445157480315
 20
-4.243476377952756
 10
16.35244881889764
 20
-4.233311023622047
 10
16.35978346456693
 20
-4.223472440944882
 10
16.36652362204724
 20
-4.213948818897638
 10
16.37266929133858
 20
-4.204748031496063
 10
16.37822440944882
 20
-4.195870078740158
 10
16.38318897637795
 20
-4.187314960629921
 10
16.38756692913386
 20
-4.179078740157481
 10
16.3913937007874
 20
-4.17113779527559
 10
16.39470866141732
 20
-4.163377952755906
 10
16.39751574803149
 20
-4.155791338582677
 10
16.39980708661417
 20
-4.148385826771653
 10
16.40159448818898
 20
-4.141157480314961
 10
16.40286614173228
 20
-4.134106299212599
 10
16.40362992125984
 20
-4.127228346456693
 10
16.40388582677165
 20
-4.120531496062992
 10
16.40353543307087
 20
-4.111370078740157
 10
16.40248818897638
 20
-4.102700787401575
 10
16.40074015748031
 20
-4.094527559055118
 10
16.39829527559055
 20
-4.086846456692913
 10
16.39515354330709
 20
-4.079665354330709
 10
16.39131102362205
 20
-4.072984251968504
 10
16.38676771653543
 20
-4.066807086614173
 10
16.38152755905512
 20
-4.061137795275591
 10
16.37567716535433
 20
-4.056066929133858
 10
16.36931102362205
 20
-4.051669291338583
 10
16.36242913385827
 20
-4.047948818897638
 10
16.35503149606299
 20
-4.044905511811024
 10
16.34712598425197
 20
-4.042535433070866
 10
16.3387125984252
 20
-4.040846456692913
 10
16.32979527559055
 20
-4.039830708661417
 10
16.32037401574803
 20
-4.039492125984252
 10
16.31187401574803
 20
-4.039830708661417
 10
16.30375984251969
 20
-4.040846456692913
 10
16.29603149606299
 20
-4.042535433070866
 10
16.28868897637795
 20
-4.044905511811024
 10
16.28172440944882
 20
-4.047948818897638
 10
16.27514566929134
 20
-4.051669291338583
 10
16.26894488188976
 20
-4.056066929133858
 10
16.26312598425197
 20
-4.061137795275591
 10
16.25779921259842
 20
-4.066803149606299
 10
16.25309448818898
 20
-4.072877952755905
 10
16.24900787401575
 20
-4.079374015748032
 10
16.24553937007874
 20
-4.086295275590551
 10
16.24268897637795
 20
-4.093641732283465
 10
16.24044881889764
 20
-4.101417322834646
 10
16.23882283464567
 20
-4.109629921259843
 10
16.23781102362205
 20
-4.118283464566929
 10
16.15831889763779
 20
-4.118283464566929
 10
16.15903543307087
 20
-4.101633858267716
 10
16.1611811023622
 20
-4.085850393700787
 10
16.16475590551181
 20
-4.070929133858268
 10
16.16976377952756
 20
-4.056870078740157
 10
16.17620078740158
 20
-4.043669291338583
 10
16.18406692913386
 20
-4.031326771653544
 10
16.19336614173228
 20
-4.019838582677165
 10
16.20409448818898
 20
-4.009208661417323
 10
16.21602755905512
 20
-3.999685039370079
 10
16.22894094488189
 20
-3.991425196850394
 10
16.24283464566929
 20
-3.984433070866142
 10
16.2577125984252
 20
-3.978712598425197
 10
16.27357480314961
 20
-3.974255905511811
 10
16.29042913385827
 20
-3.971074803149606
 10
16.30827559055118
 20
-3.969165354330709
 10
16.32711417322835
 20
-3.968527559055118
 10
16.345
 20
-3.969114173228347
 10
16.36191732283465
 20
-3.970877952755905
 10
16.37786220472441
 20
-3.973822834645669
 10
16.39284251968504
 20
-3.97794094488189
 10
16.40685039370079
 20
-3.983244094488189
 10
16.41988976377953
 20
-3.989728346456693
 10
16.43195275590551
 20
-3.997397637795276
 10
16.44304330708662
 20
-4.006251968503937
 10
16.45298425196851
 20
-4.016129921259843
 10
16.4616062992126
 20
-4.026858267716535
 10
16.46890157480315
 20
-4.038444881889764
 10
16.47487795275591
 20
-4.050881889763779
 10
16.47952755905512
 20
-4.064173228346457
 10
16.48285039370079
 20
-4.078318897637796
 10
16.48484251968504
 20
-4.093318897637795
 10
16.48550787401575
 20
-4.109173228346457
 10
16.48512598425197
 20
-4.120767716535434
 10
16.48398031496063
 20
-4.132393700787402
 10
16.48207086614173
 20
-4.144055118110236
 10
16.47940157480315
 20
-4.155748031496063
 10
16.47597244094488
 20
-4.167476377952756
 10
16.47178346456693
 20
-4.179236220472441
 10
16.46684251968504
 20
-4.191031496062992
 10
16.46114173228347
 20
-4.202858267716535
 10
16.45416929133858
 20
-4.215330708661417
 10
16.44550393700787
 20
-4.229141732283464
 10
16.43513385826772
 20
-4.244295275590551
 10
16.42306692913386
 20
-4.260791338582677
 10
16.40929921259843
 20
-4.278629921259842
 10
16.39382283464567
 20
-4.297807086614173
 10
16.37664566929134
 20
-4.318330708661417
 10
16.35775984251968
 20
-4.340192913385827
 10
16.29328346456693
 20
-4.414952755905512
 10
16.48622047244094
 20
-4.414952755905512
  0
LWPOLYLINE
  5
83
330
1F
100
AcDbEntity
  8
Layer 1
 62
     7
100
AcDbPolyline
 90
      128
 70
     1
 43
0.0
 10
16.64177165354331
 20
-4.359716535433071
 10
16.64636220472441
 20
-4.36763779527559
 10
16.65126377952756
 20
-4.375082677165354
 10
16.65647637795276
 20
-4.382047244094488
 10
16.662
 20
-4.388531496062992
 10
16.66783464566929
 20
-4.394535433070867
 10
16.67397637795276
 20
-4.400055118110236
 10
16.68043307086614
 20
-4.405086614173229
 10
16.6871968503937
 20
-4.409633858267717
 10
16.69425590551181
 20
-4.413708661417322
 10
16.70150393700787
 20
-4.417240157480315
 10
16.70894094488189
 20
-4.420228346456692
 10
16.71656299212598
 20
-4.422673228346457
 10
16.7243779527559
 20
-4.424574803149606
 10
16.7323779527559
 20
-4.425937007874015
 10
16.74057086614173
 20
-4.426751968503937
 10
16.74894881889764
 20
-4.427023622047244
 10
16.76124015748032
 20
-4.426523622047244
 10
16.77292519685039
 20
-4.425023622047244
 10
16.78400787401575
 20
-4.422523622047244
 10
16.79448818897638
 20
-4.419023622047244
 10
16.80436614173228
 20
-4.414515748031496
 10
16.81365354330709
 20
-4.409007874015748
 10
16.82234645669291
 20
-4.402492125984252
 10
16.83044881889764
 20
-4.394968503937008
 10
16.83776771653543
 20
-4.386622047244095
 10
16.84411023622047
 20
-4.377641732283465
 10
16.84948031496063
 20
-4.368031496062992
 10
16.85387401574803
 20
-4.357787401574803
 10
16.8572874015748
 20
-4.346917322834646
 10
16.85972834645669
 20
-4.335413385826771
 10
16.86119291338583
 20
-4.323275590551181
 10
16.8616811023622
 20
-4.310507874015748
 10
16.86116929133858
 20
-4.298204724409449
 10
16.85963779527559
 20
-4.286503937007874
 10
16.85708267716536
 20
-4.275393700787402
 10
16.85350393700788
 20
-4.264874015748031
 10
16.84889763779528
 20
-4.25494094488189
 10
16.84326377952756
 20
-4.245594488188976
 10
16.83660236220473
 20
-4.236830708661417
 10
16.82891338582677
 20
-4.228645669291339
 10
16.82038976377953
 20
-4.221244094488189
 10
16.81123622047244
 20
-4.214826771653543
 10
16.80144881889764
 20
-4.209397637795275
 10
16.79102755905512
 20
-4.204956692913385
 10
16.77997637795276
 20
-4.201503937007874
 10
16.76829133858268
 20
-4.199035433070867
 10
16.75597637795276
 20
-4.197555118110237
 10
16.74303149606299
 20
-4.197062992125984
 10
16.73512204724409
 20
-4.197236220472441
 10
16.72736614173228
 20
-4.197748031496063
 10
16.71975984251969
 20
-4.198606299212599
 10
16.7123031496063
 20
-4.199799212598426
 10
16.70498818897638
 20
-4.201334645669291
 10
16.69781496062992
 20
-4.203204724409449
 10
16.69078346456693
 20
-4.205409448818898
 10
16.68388582677165
 20
-4.207948818897638
 10
16.6771968503937
 20
-4.210858267716535
 10
16.67070866141732
 20
-4.214094488188977
 10
16.66441732283464
 20
-4.21765748031496
 10
16.65831889763779
 20
-4.221551181102362
 10
16.65241732283464
 20
-4.225775590551181
 10
16.64670472440945
 20
-4.230338582677166
 10
16.64118503937008
 20
-4.235240157480315
 10
16.63585433070866
 20
-4.24048031496063
 10
16.6153937007874
 20
-4.23586220472441
 10
16.67855905511811
 20
-3.978464566929134
 10
16.91833858267717
 20
-3.978464566929134
 10
16.91833858267717
 20
-4.045173228346457
 10
16.72812598425197
 20
-4.045173228346457
 10
16.69831496062992
 20
-4.157192913385827
 10
16.70862598425197
 20
-4.153200787401575
 10
16.71878346456693
 20
-4.149744094488189
 10
16.72875984251969
 20
-4.146818897637795
 10
16.73853543307087
 20
-4.144425196850394
 10
16.74820866141732
 20
-4.142629921259842
 10
16.7578937007874
 20
-4.141330708661418
 10
16.76759842519685
 20
-4.140543307086614
 10
16.77733464566929
 20
-4.140279527559055
 10
16.79501181102362
 20
-4.141007874015748
 10
16.81184251968504
 20
-4.143185039370079
 10
16.82783070866142
 20
-4.146818897637795
 10
16.84297244094488
 20
-4.151905511811024
 10
16.85726377952756
 20
-4.15844094488189
 10
16.87070866141732
 20
-4.166433070866142
 10
16.88329921259843
 20
-4.175874015748032
 10
16.89503543307087
 20
-4.186767716535433
 10
16.90568110236221
 20
-4.198791338582677
 10
16.9149094488189
 20
-4.211696850393701
 10
16.92271653543307
 20
-4.225488188976378
 10
16.9291062992126
 20
-4.240165354330709
 10
16.93407086614173
 20
-4.255720472440945
 10
16.93762204724409
 20
-4.272153543307087
 10
16.93975196850394
 20
-4.289468503937008
 10
16.94046062992126
 20
-4.307661417322834
 10
16.93963385826772
 20
-4.32842125984252
 10
16.93715354330709
 20
-4.348114173228346
 10
16.93301968503937
 20
-4.366740157480315
 10
16.92722440944882
 20
-4.384287401574803
 10
16.91977559055118
 20
-4.400763779527559
 10
16.91066535433071
 20
-4.41615748031496
 10
16.8998937007874
 20
-4.430472440944881
 10
16.88746062992126
 20
-4.443700787401575
 10
16.87363779527559
 20
-4.455594488188976
 10
16.85869291338583
 20
-4.46590157480315
 10
16.84262598425197
 20
-4.474622047244094
 10
16.82543700787402
 20
-4.481759842519685
 10
16.80711811023622
 20
-4.487311023622047
 10
16.78767322834646
 20
-4.491271653543307
 10
16.76709448818898
 20
-4.493653543307087
 10
16.74538976377953
 20
-4.494444881889764
 10
16.73243307086614
 20
-4.494161417322835
 10
16.7199094488189
 20
-4.493311023622047
 10
16.70781496062992
 20
-4.491893700787402
 10
16.69615748031496
 20
-4.489905511811024
 10
16.68492913385827
 20
-4.487346456692913
 10
16.67413385826772
 20
-4.484216535433071
 10
16.66376771653543
 20
-4.480511811023622
 10
16.65383858267716
 20
-4.476232283464567
 10
16.64433070866142
 20
-4.471393700787401
 10
16.63514566929134
 20
-4.465937007874015
 10
16.6262874015748
 20
-4.459854330708661
 10
16.61775984251969
 20
-4.453145669291339
 10
16.60956692913386
 20
-4.445814960629921
 10
16.60170472440945
 20
-4.437854330708661
 10
16.59418503937008
 20
-4.429263779527559
 10
16.58700787401575
 20
-4.420043307086615
 10
16.64177165354331
 20
-4.359716535433071
  0
LWPOLYLINE
  5
84
330
1F
100
AcDbEntity
  8
Layer 1
 62
     7
100
AcDbPolyline
 90
       65
 70
     1
 43
0.0
 10
17.38547637795276
 20
-4.236685039370078
 10
17.38471653543307
 20
-4.26607874015748
 10
17.38243307086614
 20
-4.29384251968504
 10
17.37862992125984
 20
-4.319972440944882
 10
17.3733031496063
 20
-4.344468503937008
 10
17.36644881889764
 20
-4.367326771653543
 10
17.35807086614173
 20
-4.388547244094489
 10
17.34816535433071
 20
-4.408129921259842
 10
17.33673228346457
 20
-4.426074803149606
 10
17.32400787401575
 20
-4.442086614173228
 10
17.31014173228347
 20
-4.455968503937008
 10
17.29512992125984
 20
-4.467720472440945
 10
17.27897637795276
 20
-4.477338582677166
 10
17.26168503937008
 20
-4.484818897637795
 10
17.24324803149606
 20
-4.490165354330709
 10
17.22366929133858
 20
-4.493374015748032
 10
17.20294881889764
 20
-4.494444881889764
 10
17.18194881889764
 20
-4.493362204724409
 10
17.16215748031496
 20
-4.490122047244094
 10
17.1435748031496
 20
-4.484720472440945
 10
17.12619291338583
 20
-4.477161417322835
 10
17.1100157480315
 20
-4.46744094488189
 10
17.09503937007874
 20
-4.455570866141732
 10
17.08126377952756
 20
-4.441543307086614
 10
17.06868503937008
 20
-4.42536220472441
 10
17.05741732283465
 20
-4.407192913385827
 10
17.04765748031496
 20
-4.387279527559055
 10
17.03940157480315
 20
-4.365622047244094
 10
17.03265354330709
 20
-4.342220472440945
 10
17.02740551181102
 20
-4.317070866141732
 10
17.02365748031496
 20
-4.290173228346457
 10
17.0214094488189
 20
-4.261527559055118
 10
17.02066141732283
 20
-4.231129921259843
 10
17.02142125984252
 20
-4.200976377952756
 10
17.0236968503937
 20
-4.172531496062992
 10
17.02749212598425
 20
-4.145799212598425
 10
17.03279921259843
 20
-4.120775590551181
 10
17.03962204724409
 20
-4.097468503937008
 10
17.04795669291338
 20
-4.075874015748031
 10
17.0578031496063
 20
-4.056
 10
17.06915748031496
 20
-4.037842519685039
 10
17.08186220472441
 20
-4.021582677165354
 10
17.09574803149606
 20
-4.007496062992126
 10
17.11082283464567
 20
-3.995582677165354
 10
17.12707480314961
 20
-3.985838582677165
 10
17.14451181102362
 20
-3.978263779527559
 10
17.16312598425197
 20
-3.972854330708661
 10
17.18292125984252
 20
-3.969610236220472
 10
17.20388976377953
 20
-3.968527559055118
 10
17.2250905511811
 20
-3.969614173228346
 10
17.24503543307087
 20
-3.972874015748031
 10
17.26372834645669
 20
-3.978299212598425
 10
17.28116535433071
 20
-3.985897637795276
 10
17.29735039370079
 20
-3.995665354330709
 10
17.31228346456693
 20
-4.007598425196851
 10
17.32596456692913
 20
-4.021696850393701
 10
17.33838976377953
 20
-4.037956692913386
 10
17.34941338582677
 20
-4.056279527559055
 10
17.35897244094488
 20
-4.076464566929134
 10
17.36706299212598
 20
-4.098511811023622
 10
17.37368897637795
 20
-4.12242125984252
 10
17.37884251968504
 20
-4.148192913385826
 10
17.38252755905512
 20
-4.175830708661417
 10
17.38474015748032
 20
-4.205326771653543
 10
17.38547637795276
 20
-4.236685039370078
  0
LWPOLYLINE
  5
85
330
1F
100
AcDbEntity
  8
Layer 1
 62
     7
100
AcDbPolyline
 90
       65
 70
     1
 43
0.0
 10
17.20152755905512
 20
-4.423476377952756
 10
17.21378346456693
 20
-4.422720472440945
 10
17.22525590551181
 20
-4.420456692913386
 10
17.23594881889764
 20
-4.416681102362205
 10
17.24585826771654
 20
-4.411393700787402
 10
17.25498031496063
 20
-4.404594488188977
 10
17.26330708661417
 20
-4.396275590551181
 10
17.27084645669291
 20
-4.386444881889764
 10
17.27758661417323
 20
-4.375094488188976
 10
17.28357480314961
 20
-4.362271653543307
 10
17.28876771653543
 20
-4.347944881889764
 10
17.29315748031496
 20
-4.332114173228346
 10
17.29675196850394
 20
-4.314775590551181
 10
17.29954724409449
 20
-4.295937007874016
 10
17.30154330708661
 20
-4.275598425196851
 10
17.30274015748032
 20
-4.253755905511811
 10
17.30313779527559
 20
-4.230417322834645
 10
17.30274409448819
 20
-4.207732283464567
 10
17.30156299212598
 20
-4.186437007874016
 10
17.29959448818898
 20
-4.166531496062992
 10
17.29683858267716
 20
-4.148015748031496
 10
17.29329527559055
 20
-4.130889763779527
 10
17.28896850393701
 20
-4.11515748031496
 10
17.28385039370079
 20
-4.100822834645669
 10
17.27794881889764
 20
-4.087877952755906
 10
17.27132677165354
 20
-4.076362204724409
 10
17.26397244094488
 20
-4.06638188976378
 10
17.25588976377953
 20
-4.057944881889764
 10
17.24708267716536
 20
-4.051043307086614
 10
17.23754724409449
 20
-4.045677165354331
 10
17.2272874015748
 20
-4.041846456692913
 10
17.21630708661417
 20
-4.039547244094488
 10
17.20459842519685
 20
-4.038783464566929
 10
17.19242913385827
 20
-4.039547244094488
 10
17.18102755905512
 20
-4.041842519685039
 10
17.17038582677165
 20
-4.045665354330708
 10
17.16051181102362
 20
-4.051011811023622
 10
17.15140157480315
 20
-4.057885826771654
 10
17.14305905511811
 20
-4.066283464566929
 10
17.13548031496063
 20
-4.076200787401575
 10
17.12866535433071
 20
-4.08763779527559
 10
17.12263385826772
 20
-4.100606299212599
 10
17.11741338582677
 20
-4.115011811023622
 10
17.113
 20
-4.130866141732284
 10
17.10938976377953
 20
-4.148165354330708
 10
17.10658661417323
 20
-4.166909448818898
 10
17.10458661417323
 20
-4.187102362204724
 10
17.10338582677165
 20
-4.208748031496063
 10
17.10298818897638
 20
-4.231842519685039
 10
17.10338582677165
 20
-4.254287401574803
 10
17.10458661417323
 20
-4.275397637795275
 10
17.10658267716535
 20
-4.295173228346457
 10
17.10937401574803
 20
-4.313610236220472
 10
17.11296850393701
 20
-4.330704724409449
 10
17.11735826771654
 20
-4.346452755905512
 10
17.12255118110236
 20
-4.360858267716536
 10
17.12853937007874
 20
-4.373909448818898
 10
17.13523228346457
 20
-4.385515748031496
 10
17.1426220472441
 20
-4.395578740157481
 10
17.15070866141732
 20
-4.404094488188976
 10
17.15948818897638
 20
-4.411070866141732
 10
17.16896062992126
 20
-4.416496062992126
 10
17.17912598425197
 20
-4.420374015748031
 10
17.1899842519685
 20
-4.422700787401575
 10
17.20152755905512
 20
-4.423476377952756
  0
LWPOLYLINE
  5
86
330
1F
100
AcDbEntity
  8
Layer 1
 62
     7
100
AcDbPolyline
 90
      161
 70
     1
 43
0.0
 10
17.54445669291339
 20
-4.48096062992126
 10
17.46922440944882
 20
-4.48096062992126
 10
17.46922440944882
 20
-4.152350393700788
 10
17.53995275590551
 20
-4.152350393700788
 10
17.53995275590551
 20
-4.206287401574803
 10
17.54568110236221
 20
-4.197972440944882
 10
17.55160236220473
 20
-4.190232283464567
 10
17.55770866141732
 20
-4.183074803149606
 10
17.564
 20
-4.176496062992126
 10
17.57048425196851
 20
-4.1705
 10
17.57715354330709
 20
-4.165086614173228
 10
17.58401181102362
 20
-4.160259842519685
 10
17.59105905511811
 20
-4.15601968503937
 10
17.59836220472441
 20
-4.152318897637795
 10
17.60598818897638
 20
-4.149114173228346
 10
17.61393307086614
 20
-4.146409448818898
 10
17.62220078740157
 20
-4.144200787401575
 10
17.6307874015748
 20
-4.14248031496063
 10
17.6396968503937
 20
-4.141255905511811
 10
17.64893307086614
 20
-4.140523622047244
 10
17.65848818897638
 20
-4.140279527559055
 10
17.6679094488189
 20
-4.140531496062992
 10
17.67691732283464
 20
-4.141279527559055
 10
17.68551181102362
 20
-4.142535433070866
 10
17.69369291338583
 20
-4.144291338582677
 10
17.70146062992126
 20
-4.146551181102362
 10
17.70881102362205
 20
-4.149314960629921
 10
17.71574015748032
 20
-4.152590551181103
 10
17.72225196850394
 20
-4.156370078740157
 10
17.72840157480315
 20
-4.160669291338583
 10
17.73416141732283
 20
-4.165503937007874
 10
17.73953937007874
 20
-4.170866141732284
 10
17.74453149606299
 20
-4.176755905511811
 10
17.74914173228347
 20
-4.183173228346456
 10
17.75337007874016
 20
-4.19011811023622
 10
17.75721653543307
 20
-4.197586614173228
 10
17.76068897637795
 20
-4.20557874015748
 10
17.76725984251969
 20
-4.197350393700788
 10
17.77392913385827
 20
-4.189700787401574
 10
17.78070078740157
 20
-4.182625984251969
 10
17.78757086614173
 20
-4.176125984251969
 10
17.79453937007874
 20
-4.170204724409449
 10
17.80161023622047
 20
-4.164858267716536
 10
17.80877952755905
 20
-4.160086614173228
 10
17.81604724409449
 20
-4.155893700787401
 10
17.82349606299213
 20
-4.152232283464567
 10
17.8311968503937
 20
-4.149062992125984
 10
17.83915354330709
 20
-4.146377952755905
 10
17.84736614173228
 20
-4.144185039370079
 10
17.85583464566929
 20
-4.142476377952756
 10
17.86455511811024
 20
-4.141255905511811
 10
17.87353543307087
 20
-4.140523622047244
 10
17.88276771653543
 20
-4.140279527559055
 10
17.89075590551181
 20
-4.140468503937008
 10
17.89849212598425
 20
-4.141031496062992
 10
17.90597244094488
 20
-4.141968503937008
 10
17.9131968503937
 20
-4.143279527559055
 10
17.92016535433071
 20
-4.14496062992126
 10
17.92688188976378
 20
-4.147015748031496
 10
17.93334251968504
 20
-4.149437007874016
 10
17.93955118110236
 20
-4.152224409448819
 10
17.94545669291339
 20
-4.155409448818897
 10
17.95101968503937
 20
-4.158929133858268
 10
17.95624015748032
 20
-4.162779527559056
 10
17.9611220472441
 20
-4.166972440944882
 10
17.96566535433071
 20
-4.1715
 10
17.96987007874016
 20
-4.176366141732283
 10
17.97374409448819
 20
-4.181574803149607
 10
17.97727952755906
 20
-4.187125984251969
 10
17.98025590551181
 20
-4.192732283464567
 10
17.9827874015748
 20
-4.198893700787401
 10
17.98487007874016
 20
-4.205586614173228
 10
17.98651181102362
 20
-4.212791338582677
 10
17.98782283464567
 20
-4.221043307086614
 10
17.98874803149606
 20
-4.230889763779528
 10
17.98929133858268
 20
-4.242334645669291
 10
17.98947244094488
 20
-4.25538188976378
 10
17.98947244094488
 20
-4.281759842519685
 10
17.98947244094488
 20
-4.48096062992126
 10
17.91423622047244
 20
-4.48096062992126
 10
17.91423622047244
 20
-4.312279527559055
 10
17.9140157480315
 20
-4.296437007874016
 10
17.91335039370079
 20
-4.282003937007874
 10
17.91224803149606
 20
-4.268984251968504
 10
17.91070472440945
 20
-4.257374015748032
 10
17.90872047244094
 20
-4.247181102362204
 10
17.9063031496063
 20
-4.23840157480315
 10
17.90344881889764
 20
-4.231043307086614
 10
17.90015748031496
 20
-4.22509842519685
 10
17.89630708661417
 20
-4.220188976377953
 10
17.89177165354331
 20
-4.215933070866142
 10
17.88654724409449
 20
-4.212334645669292
 10
17.88063385826772
 20
-4.209389763779527
 10
17.87403543307087
 20
-4.20709842519685
 10
17.86675196850394
 20
-4.20546062992126
 10
17.85877559055118
 20
-4.20448031496063
 10
17.85011417322835
 20
-4.204153543307086
 10
17.83942519685039
 20
-4.20459842519685
 10
17.82953543307087
 20
-4.205925196850393
 10
17.82044094488189
 20
-4.208141732283464
 10
17.81214960629921
 20
-4.211236220472441
 10
17.80465354330709
 20
-4.215216535433071
 10
17.79795275590551
 20
-4.220074803149607
 10
17.79205118110236
 20
-4.225814960629921
 10
17.78694881889764
 20
-4.232429133858267
 10
17.7825
 20
-4.240149606299212
 10
17.77865354330709
 20
-4.249196850393701
 10
17.77540157480315
 20
-4.259570866141733
 10
17.77274015748031
 20
-4.271275590551181
 10
17.77067716535433
 20
-4.284303149606299
 10
17.76920472440945
 20
-4.298653543307086
 10
17.76832283464567
 20
-4.314326771653543
 10
17.76802755905512
 20
-4.331318897637796
 10
17.76802755905512
 20
-4.48096062992126
 10
17.69208267716536
 20
-4.48096062992126
 10
17.69208267716536
 20
-4.312279527559055
 10
17.69185433070866
 20
-4.297606299212599
 10
17.69117322834646
 20
-4.284110236220473
 10
17.69003149606299
 20
-4.271783464566929
 10
17.68843307086614
 20
-4.260629921259842
 10
17.68637007874016
 20
-4.250645669291338
 10
17.68385039370079
 20
-4.241830708661418
 10
17.68086220472441
 20
-4.234181102362204
 10
17.67741338582677
 20
-4.227696850393701
 10
17.6733937007874
 20
-4.222169291338583
 10
17.6686968503937
 20
-4.21738188976378
 10
17.66333464566929
 20
-4.213334645669291
 10
17.6573031496063
 20
-4.210027559055118
 10
17.6506062992126
 20
-4.207456692913386
 10
17.64324409448819
 20
-4.205622047244095
 10
17.63522440944882
 20
-4.20451968503937
 10
17.62654724409449
 20
-4.204153543307086
 10
17.62106299212599
 20
-4.204311023622047
 10
17.61570078740158
 20
-4.204775590551181
 10
17.61046062992126
 20
-4.20555905511811
 10
17.60534251968504
 20
-4.206657480314961
 10
17.60034645669291
 20
-4.208066929133858
 10
17.59547244094488
 20
-4.209799212598425
 10
17.59072047244095
 20
-4.211846456692913
 10
17.5860905511811
 20
-4.214216535433071
 10
17.58159842519685
 20
-4.21686220472441
 10
17.57735039370079
 20
-4.219736220472441
 10
17.57334645669291
 20
-4.222846456692913
 10
17.56957874015748
 20
-4.226188976377952
 10
17.56605118110236
 20
-4.229763779527559
 10
17.56275590551181
 20
-4.233574803149606
 10
17.55970078740157
 20
-4.237614173228346
 10
17.5568779527559
 20
-4.241889763779527
 10
17.55368110236221
 20
-4.247968503937008
 10
17.55100393700787
 20
-4.254669291338582
 10
17.54883858267717
 20
-4.261988188976378
 10
17.54717716535433
 20
-4.269925196850394
 10
17.54654724409449
 20
-4.274535433070866
 10
17.546
 20
-4.28001968503937
 10
17.54553149606299
 20
-4.286377952755905
 10
17.54514960629921
 20
-4.293614173228346
 10
17.54484645669291
 20
-4.301724409448819
 10
17.54462992125984
 20
-4.310712598425197
 10
17.5445
 20
-4.32057874015748
 10
17.54445669291339
 20
-4.331318897637796
 10
17.54445669291339
 20
-4.48096062992126
  0
LWPOLYLINE
  5
87
330
1F
100
AcDbEntity
  8
Layer 1
 62
     7
100
AcDbPolyline
 90
      161
 70
     1
 43
0.0
 10
18.16549212598425
 20
-4.48096062992126
 10
18.09025984251969
 20
-4.48096062992126
 10
18.09025984251969
 20
-4.152350393700788
 10
18.16098818897638
 20
-4.152350393700788
 10
18.16098818897638
 20
-4.206287401574803
 10
18.16671653543307
 20
-4.197972440944882
 10
18.17263779527559
 20
-4.190232283464567
 10
18.17874409448819
 20
-4.183074803149606
 10
18.18503543307087
 20
-4.176496062992126
 10
18.19151968503937
 20
-4.1705
 10
18.19818897637795
 20
-4.165086614173228
 10
18.20504724409449
 20
-4.160259842519685
 10
18.21209448818898
 20
-4.15601968503937
 10
18.21939763779528
 20
-4.152318897637795
 10
18.22702362204724
 20
-4.149114173228346
 10
18.23496850393701
 20
-4.146409448818898
 10
18.24323622047244
 20
-4.144200787401575
 10
18.25182283464567
 20
-4.14248031496063
 10
18.26073228346457
 20
-4.141255905511811
 10
18.26996850393701
 20
-4.140523622047244
 10
18.27952362204724
 20
-4.140279527559055
 10
18.28894488188977
 20
-4.140531496062992
 10
18.29795275590551
 20
-4.141279527559055
 10
18.30654724409449
 20
-4.142535433070866
 10
18.31472834645669
 20
-4.144291338582677
 10
18.32249606299213
 20
-4.146551181102362
 10
18.32984645669291
 20
-4.149314960629921
 10
18.33677559055118
 20
-4.152590551181103
 10
18.3432874015748
 20
-4.156370078740157
 10
18.34943700787402
 20
-4.160669291338583
 10
18.3551968503937
 20
-4.165503937007874
 10
18.36057480314961
 20
-4.170866141732284
 10
18.36556692913386
 20
-4.176755905511811
 10
18.37017716535433
 20
-4.183173228346456
 10
18.37440551181102
 20
-4.19011811023622
 10
18.37825196850394
 20
-4.197586614173228
 10
18.38172440944882
 20
-4.20557874015748
 10
18.38829527559055
 20
-4.197350393700788
 10
18.39496456692913
 20
-4.189700787401574
 10
18.40173622047244
 20
-4.182625984251969
 10
18.4086062992126
 20
-4.176125984251969
 10
18.41557480314961
 20
-4.170204724409449
 10
18.42264566929134
 20
-4.164858267716536
 10
18.42981496062992
 20
-4.160086614173228
 10
18.43708267716535
 20
-4.155893700787401
 10
18.44453149606299
 20
-4.152232283464567
 10
18.45223228346457
 20
-4.149062992125984
 10
18.46018897637795
 20
-4.146377952755905
 10
18.46840157480315
 20
-4.144185039370079
 10
18.47687007874016
 20
-4.142476377952756
 10
18.4855905511811
 20
-4.141255905511811
 10
18.49457086614173
 20
-4.140523622047244
 10
18.5038031496063
 20
-4.140279527559055
 10
18.51179133858268
 20
-4.140468503937008
 10
18.51952755905512
 20
-4.141031496062992
 10
18.52700787401575
 20
-4.141968503937008
 10
18.53423228346457
 20
-4.143279527559055
 10
18.54120078740157
 20
-4.14496062992126
 10
18.54791732283465
 20
-4.147015748031496
 10
18.55437795275591
 20
-4.149437007874016
 10
18.56058661417323
 20
-4.152224409448819
 10
18.56649212598425
 20
-4.155409448818897
 10
18.57205511811024
 20
-4.158929133858268
 10
18.57727559055118
 20
-4.162779527559056
 10
18.58215748031496
 20
-4.166972440944882
 10
18.58670078740158
 20
-4.1715
 10
18.59090551181102
 20
-4.176366141732283
 10
18.59477952755906
 20
-4.181574803149607
 10
18.59831496062992
 20
-4.187125984251969
 10
18.60129133858268
 20
-4.192732283464567
 10
18.60382283464567
 20
-4.198893700787401
 10
18.60590551181102
 20
-4.205586614173228
 10
18.60754724409449
 20
-4.212791338582677
 10
18.60885826771653
 20
-4.221043307086614
 10
18.60978346456693
 20
-4.230889763779528
 10
18.61032677165354
 20
-4.242334645669291
 10
18.61050787401575
 20
-4.25538188976378
 10
18.61050787401575
 20
-4.281759842519685
 10
18.61050787401575
 20
-4.48096062992126
 10
18.53527165354331
 20
-4.48096062992126
 10
18.53527165354331
 20
-4.312279527559055
 10
18.53505118110236
 20
-4.296437007874016
 10
18.53438582677165
 20
-4.282003937007874
 10
18.53328346456693
 20
-4.268984251968504
 10
18.53174015748031
 20
-4.257374015748032
 10
18.52975590551181
 20
-4.247181102362204
 10
18.52733858267716
 20
-4.23840157480315
 10
18.5244842519685
 20
-4.231043307086614
 10
18.52119291338583
 20
-4.22509842519685
 10
18.51734251968504
 20
-4.220188976377953
 10
18.51280708661417
 20
-4.215933070866142
 10
18.50758267716536
 20
-4.212334645669292
 10
18.50166929133858
 20
-4.209389763779527
 10
18.49507086614173
 20
-4.20709842519685
 10
18.4877874015748
 20
-4.20546062992126
 10
18.47981102362205
 20
-4.20448031496063
 10
18.47114960629921
 20
-4.204153543307086
 10
18.46046062992126
 20
-4.20459842519685
 10
18.45057086614173
 20
-4.205925196850393
 10
18.44147637795276
 20
-4.208141732283464
 10
18.43318503937008
 20
-4.211236220472441
 10
18.42568897637795
 20
-4.215216535433071
 10
18.41899212598425
 20
-4.220074803149607
 10
18.4130905511811
 20
-4.225814960629921
 10
18.40798818897638
 20
-4.232429133858267
 10
18.40353937007874
 20
-4.240149606299212
 10
18.39968897637795
 20
-4.249196850393701
 10
18.39643700787402
 20
-4.259570866141733
 10
18.39377952755905
 20
-4.271275590551181
 10
18.3917125984252
 20
-4.284303149606299
 10
18.39024015748031
 20
-4.298653543307086
 10
18.38935826771653
 20
-4.314326771653543
 10
18.38906299212599
 20
-4.331318897637796
 10
18.38906299212599
 20
-4.48096062992126
 10
18.31311811023622
 20
-4.48096062992126
 10
18.31311811023622
 20
-4.312279527559055
 10
18.31288976377953
 20
-4.297606299212599
 10
18.31220866141732
 20
-4.284110236220473
 10
18.31106692913386
 20
-4.271783464566929
 10
18.30946850393701
 20
-4.260629921259842
 10
18.30740551181102
 20
-4.250645669291338
 10
18.30488582677165
 20
-4.241830708661418
 10
18.30189763779527
 20
-4.234181102362204
 10
18.29844881889764
 20
-4.227696850393701
 10
18.29442913385827
 20
-4.222169291338583
 10
18.28973228346457
 20
-4.21738188976378
 10
18.28437007874016
 20
-4.213334645669291
 10
18.27833858267716
 20
-4.210027559055118
 10
18.27164173228346
 20
-4.207456692913386
 10
18.26427952755905
 20
-4.205622047244095
 10
18.25625984251969
 20
-4.20451968503937
 10
18.24758267716535
 20
-4.204153543307086
 10
18.24209842519685
 20
-4.204311023622047
 10
18.23673622047244
 20
-4.204775590551181
 10
18.23149606299213
 20
-4.20555905511811
 10
18.2263779527559
 20
-4.206657480314961
 10
18.22138188976378
 20
-4.208066929133858
 10
18.21650787401575
 20
-4.209799212598425
 10
18.21175590551181
 20
-4.211846456692913
 10
18.20712598425197
 20
-4.214216535433071
 10
18.20263385826772
 20
-4.21686220472441
 10
18.19838582677165
 20
-4.219736220472441
 10
18.19438188976378
 20
-4.222846456692913
 10
18.19061417322835
 20
-4.226188976377952
 10
18.18708661417323
 20
-4.229763779527559
 10
18.18379133858268
 20
-4.233574803149606
 10
18.18073622047244
 20
-4.237614173228346
 10
18.17791338582677
 20
-4.241889763779527
 10
18.17471653543307
 20
-4.247968503937008
 10
18.17203937007874
 20
-4.254669291338582
 10
18.16987401574803
 20
-4.261988188976378
 10
18.1682125984252
 20
-4.269925196850394
 10
18.16758267716535
 20
-4.274535433070866
 10
18.16703543307086
 20
-4.28001968503937
 10
18.16656692913386
 20
-4.286377952755905
 10
18.16618503937008
 20
-4.293614173228346
 10
18.16588188976378
 20
-4.301724409448819
 10
18.16566535433071
 20
-4.310712598425197
 10
18.16553543307086
 20
-4.32057874015748
 10
18.16549212598425
 20
-4.331318897637796
 10
18.16549212598425
 20
-4.48096062992126
  0
LWPOLYLINE
  5
88
330
1F
100
AcDbEntity
  8
Layer 1
 62
     7
100
AcDbPolyline
 90
       67
 70
     1
 43
0.0
 10
18.73116535433071
 20
-4.635688976377953
 10
18.67509448818898
 20
-4.617350393700788
 10
18.68414566929134
 20
-4.600188976377953
 10
18.6925905511811
 20
-4.582685039370078
 10
18.70042125984252
 20
-4.564830708661417
 10
18.70763779527559
 20
-4.546629921259843
 10
18.71423622047244
 20
-4.52807874015748
 10
18.72022047244095
 20
-4.50917716535433
 10
18.72558661417323
 20
-4.489925196850393
 10
18.73033070866142
 20
-4.470314960629922
 10
18.73452755905512
 20
-4.450279527559055
 10
18.73816141732284
 20
-4.429657480314961
 10
18.74123228346457
 20
-4.408448818897638
 10
18.74374409448819
 20
-4.386653543307086
 10
18.74569291338583
 20
-4.364267716535433
 10
18.74708267716536
 20
-4.341295275590551
 10
18.74791732283465
 20
-4.317732283464567
 10
18.74819291338583
 20
-4.293582677165355
 10
18.74791732283465
 20
-4.270468503937008
 10
18.74708267716536
 20
-4.247779527559056
 10
18.74569291338583
 20
-4.225515748031496
 10
18.74374409448819
 20
-4.203669291338582
 10
18.74123228346457
 20
-4.182240157480315
 10
18.73816141732284
 20
-4.161224409448819
 10
18.73452755905512
 20
-4.140614173228347
 10
18.73033070866142
 20
-4.120405511811024
 10
18.72558661417323
 20
-4.100547244094488
 10
18.72022047244095
 20
-4.080885826771653
 10
18.71423622047244
 20
-4.06142125984252
 10
18.70763779527559
 20
-4.042161417322835
 10
18.70042125984252
 20
-4.023094488188977
 10
18.6925905511811
 20
-4.004232283464566
 10
18.68414566929134
 20
-3.985566929133858
 10
18.67509448818898
 20
-3.967102362204725
 10
18.73116535433071
 20
-3.950066929133858
 10
18.74134251968504
 20
-3.968779527559055
 10
18.75084251968504
 20
-3.987838582677165
 10
18.75966929133858
 20
-4.007248031496063
 10
18.76782283464567
 20
-4.027
 10
18.7753031496063
 20
-4.047102362204725
 10
18.78211811023622
 20
-4.06755905511811
 10
18.78826377952756
 20
-4.088362204724409
 10
18.79374409448819
 20
-4.109523622047244
 10
18.79852755905512
 20
-4.131043307086614
 10
18.80267716535433
 20
-4.153015748031496
 10
18.80619291338583
 20
-4.17544094488189
 10
18.80907086614173
 20
-4.198318897637796
 10
18.81131496062992
 20
-4.221641732283465
 10
18.81292125984252
 20
-4.245413385826772
 10
18.81388188976378
 20
-4.269629921259843
 10
18.81420472440945
 20
-4.294295275590551
 10
18.81388188976378
 20
-4.317795275590552
 10
18.81291732283465
 20
-4.341007874015748
 10
18.8113031496063
 20
-4.363929133858267
 10
18.80904330708661
 20
-4.386566929133858
 10
18.80613385826772
 20
-4.408913385826772
 10
18.80257480314961
 20
-4.430968503937008
 10
18.79837007874016
 20
-4.452740157480315
 10
18.79350787401575
 20
-4.474220472440945
 10
18.78802755905512
 20
-4.495374015748031
 10
18.78188188976378
 20
-4.516248031496063
 10
18.77507874015748
 20
-4.536846456692913
 10
18.76761023622047
 20
-4.557169291338583
 10
18.75948818897638
 20
-4.577212598425197
 10
18.75070472440945
 20
-4.596984251968504
 10
18.74126377952756
 20
-4.616472440944882
 10
18.73116535433071
 20
-4.635688976377953
  0
ENDSEC
  0
SECTION
  2
OBJECTS
  0
DICTIONARY
  5
C
330
0
100
AcDbDictionary
281
     1
  3
ACAD_DETAILVIEWSTYLE
350
90
  3
ACAD_GROUP
350
D
  3
ACAD_LAYOUT
350
1A
  3
ACAD_MATERIAL
350
43
  3
ACAD_MLEADERSTYLE
350
5B
  3
ACAD_MLINESTYLE
350
17
  3
ACAD_PLOTSETTINGS
350
19
  3
ACAD_PLOTSTYLENAME
350
E
  3
ACAD_SCALELIST
350
47
  3
ACAD_SECTIONVIEWSTYLE
350
91
  3
ACAD_TABLESTYLE
350
59
  3
ACAD_VISUALSTYLE
350
2A
  3
ACDB_RECOMPOSE_DATA
350
8D
  3
AcDbVariableDictionary
350
89
  0
SUN
  5
5D
330
29
100
AcDbSun
 90
        1
290
     0
 63
     7
421
 16777215
 40
1.0
291
     1
 91
  2455826
 92
 54000000
292
     0
 70
     2
 71
   256
280
     1
  0
DICTIONARY
  5
90
102
{ACAD_REACTORS
330
C
102
}
330
C
100
AcDbDictionary
281
     1
  0
DICTIONARY
  5
D
102
{ACAD_REACTORS
330
C
102
}
330
C
100
AcDbDictionary
281
     1
  0
DICTIONARY
  5
1A
102
{ACAD_REACTORS
330
C
102
}
330
C
100
AcDbDictionary
281
     1
  3
Layout1
350
1E
  3
Layout2
350
26
  3
Model
350
22
  0
DICTIONARY
  5
43
102
{ACAD_REACTORS
330
C
102
}
330
C
100
AcDbDictionary
281
     1
  3
ByBlock
350
45
  3
ByLayer
350
44
  3
Global
350
46
  0
DICTIONARY
  5
5B
102
{ACAD_REACTORS
330
C
102
}
330
C
100
AcDbDictionary
281
     1
  3
Standard
350
5C
  0
DICTIONARY
  5
17
102
{ACAD_REACTORS
330
C
102
}
330
C
100
AcDbDictionary
281
     1
  3
Standard
350
18
  0
DICTIONARY
  5
19
102
{ACAD_REACTORS
330
C
102
}
330
C
100
AcDbDictionary
281
     1
  0
ACDBDICTIONARYWDFLT
  5
E
102
{ACAD_REACTORS
330
C
102
}
330
C
100
AcDbDictionary
281
     1
  3
Normal
350
F
100
AcDbDictionaryWithDefault
340
F
  0
DICTIONARY
  5
47
102
{ACAD_REACTORS
330
C
102
}
330
C
100
AcDbDictionary
281
     1
  3
A0
350
48
  3
A1
350
49
  3
A2
350
4A
  3
A3
350
4B
  3
A4
350
4C
  3
A5
350
4D
  3
A6
350
4E
  3
A7
350
4F
  3
A8
350
50
  3
A9
350
51
  3
B1
350
52
  3
B2
350
53
  3
B3
350
54
  3
B4
350
55
  3
B5
350
56
  3
B6
350
57
  3
B7
350
58
  0
DICTIONARY
  5
91
102
{ACAD_REACTORS
330
C
102
}
330
C
100
AcDbDictionary
281
     1
  0
DICTIONARY
  5
59
102
{ACAD_REACTORS
330
C
102
}
330
C
100
AcDbDictionary
281
     1
  3
Standard
350
5A
  0
DICTIONARY
  5
2A
102
{ACAD_REACTORS
330
C
102
}
330
C
100
AcDbDictionary
281
     1
  3
2dWireframe
350
2F
  3
Basic
350
32
  3
Brighten
350
36
  3
ColorChange
350
3A
  3
Conceptual
350
34
  3
Dim
350
35
  3
EdgeColorOff
350
3D
  3
Facepattern
350
39
  3
Flat
350
2B
  3
FlatWithEdges
350
2C
  3
Gouraud
350
2D
  3
GouraudWithEdges
350
2E
  3
Hidden
350
31
  3
JitterOff
350
3B
  3
Linepattern
350
38
  3
OverhangOff
350
3C
  3
Realistic
350
33
  3
Shaded
350
42
  3
Shaded with edges
350
41
  3
Shades of Gray
350
3E
  3
Sketchy
350
3F
  3
Thicken
350
37
  3
Wireframe
350
30
  3
X-Ray
350
40
  0
XRECORD
  5
8D
102
{ACAD_REACTORS
330
C
102
}
330
C
100
AcDbXrecord
280
     1
 90
        1
330
5A
  0
DICTIONARY
  5
89
102
{ACAD_REACTORS
330
C
102
}
330
C
100
AcDbDictionary
281
     1
  3
CANNOSCALE
350
8A
  3
CMLEADERSTYLE
350
8F
  3
CTABLESTYLE
350
8E
  0
LAYOUT
  5
1E
102
{ACAD_REACTORS
330
1A
102
}
330
1A
100
AcDbPlotSettings
  1

  2
none_device
  4

  6

 40
0.0
 41
0.0
 42
0.0
 43
0.0
 44
0.0
 45
0.0
 46
0.0
 47
0.0
 48
0.0
 49
0.0
140
0.0
141
0.0
142
1.0
143
1.0
 70
   688
 72
     0
 73
     0
 74
     5
  7

 75
    16
 76
     0
 77
     2
 78
   300
147
1.0
148
0.0
149
0.0
100
AcDbLayout
  1
Layout1
 70
     1
 71
     1
 10
0.0
 20
0.0
 11
12.0
 21
9.0
 12
0.0
 22
0.0
 32
0.0
 14
1.000000000000000E+20
 24
1.000000000000000E+20
 34
1.000000000000000E+20
 15
-1.000000000000000E+20
 25
-1.000000000000000E+20
 35
-1.000000000000000E+20
146
0.0
 13
0.0
 23
0.0
 33
0.0
 16
1.0
 26
0.0
 36
0.0
 17
0.0
 27
1.0
 37
0.0
 76
     0
330
1B
  0
LAYOUT
  5
26
102
{ACAD_REACTORS
330
1A
102
}
330
1A
100
AcDbPlotSettings
  1

  2
none_device
  4

  6

 40
0.0
 41
0.0
 42
0.0
 43
0.0
 44
0.0
 45
0.0
 46
0.0
 47
0.0
 48
0.0
 49
0.0
140
0.0
141
0.0
142
1.0
143
1.0
 70
   688
 72
     0
 73
     0
 74
     5
  7

 75
    16
 76
     0
 77
     2
 78
   300
147
1.0
148
0.0
149
0.0
100
AcDbLayout
  1
Layout2
 70
     1
 71
     2
 10
0.0
 20
0.0
 11
0.0
 21
0.0
 12
0.0
 22
0.0
 32
0.0
 14
0.0
 24
0.0
 34
0.0
 15
0.0
 25
0.0
 35
0.0
146
0.0
 13
0.0
 23
0.0
 33
0.0
 16
1.0
 26
0.0
 36
0.0
 17
0.0
 27
1.0
 37
0.0
 76
     0
330
23
  0
LAYOUT
  5
22
102
{ACAD_REACTORS
330
1A
102
}
330
1A
100
AcDbPlotSettings
  1

  2
none_device
  4
Letter_(8.50_x_11.00_Inches)
  6

 40
6.35
 41
6.35
 42
6.35000508
 43
6.35000508
 44
215.9
 45
279.4
 46
0.0
 47
0.0
 48
0.0
 49
0.0
140
0.0
141
0.0
142
1.0
143
1.0
 70
  1712
 72
     0
 73
     0
 74
     0
  7

 75
     0
 76
     0
 77
     2
 78
   300
147
1.0
148
0.0
149
0.0
100
AcDbLayout
  1
Model
 70
     1
 71
     0
 10
0.0
 20
0.0
 11
12.0
 21
9.0
 12
0.0
 22
0.0
 32
0.0
 14
10.14720866141732
 24
-17.43631496062992
 34
0.0
 15
20.76421653543307
 25
-3.311574803149606
 35
0.0
146
0.0
 13
0.0
 23
0.0
 33
0.0
 16
1.0
 26
0.0
 36
0.0
 17
0.0
 27
1.0
 37
0.0
 76
     0
330
1F
331
29
  0
MATERIAL
  5
45
102
{ACAD_REACTORS
330
43
102
}
330
43
100
AcDbMaterial
  1
ByBlock
 72
     1
 94
      127
  0
MATERIAL
  5
44
102
{ACAD_REACTORS
330
43
102
}
330
43
100
AcDbMaterial
  1
ByLayer
 72
     1
 94
      127
  0
MATERIAL
  5
46
102
{ACAD_REACTORS
330
43
102
}
330
43
100
AcDbMaterial
  1
Global
 72
     1
 94
      127
  0
MLEADERSTYLE
  5
5C
102
{ACAD_REACTORS
330
5B
102
}
330
5B
100
AcDbMLeaderStyle
179
     2
170
     2
171
     1
172
     0
 90
        2
 40
0.0
 41
0.0
173
     1
 91
-1056964608
340
14
 92
       -2
290
     1
 42
0.09
291
     1
 43
0.36
  3
Standard
341
0
 44
0.18
300

342
11
174
     1
178
     6
175
     1
176
     0
 93
-1056964608
 45
0.18
292
     0
297
     0
 46
0.18
343
0
 94
-1056964608
 47
1.0
 49
1.0
140
1.0
293
     1
141
0.0
294
     1
177
     0
142
1.0
295
     0
296
     0
143
0.125
271
     0
272
     9
273
     9
298
     0
  0
MLINESTYLE
  5
18
102
{ACAD_REACTORS
330
17
102
}
330
17
100
AcDbMlineStyle
  2
Standard
 70
     0
  3

 62
   256
 51
90.0
 52
90.0
 71
     2
 49
0.5
 62
   256
  6
BYLAYER
 49
-0.5
 62
   256
  6
BYLAYER
  0
ACDBPLACEHOLDER
  5
F
102
{ACAD_REACTORS
330
E
102
}
330
E
  0
SCALE
  5
48
102
{ACAD_REACTORS
330
47
102
}
330
47
100
AcDbScale
 70
     0
300
1:1
140
1.0
141
1.0
290
     1
  0
SCALE
  5
49
102
{ACAD_REACTORS
330
47
102
}
330
47
100
AcDbScale
 70
     0
300
1/128" = 1'-0"
140
0.0078125
141
12.0
290
     0
  0
SCALE
  5
4A
102
{ACAD_REACTORS
330
47
102
}
330
47
100
AcDbScale
 70
     0
300
1/64" = 1'-0"
140
0.015625
141
12.0
290
     0
  0
SCALE
  5
4B
102
{ACAD_REACTORS
330
47
102
}
330
47
100
AcDbScale
 70
     0
300
1/32" = 1'-0"
140
0.03125
141
12.0
290
     0
  0
SCALE
  5
4C
102
{ACAD_REACTORS
330
47
102
}
330
47
100
AcDbScale
 70
     0
300
1/16" = 1'-0"
140
0.0625
141
12.0
290
     0
  0
SCALE
  5
4D
102
{ACAD_REACTORS
330
47
102
}
330
47
100
AcDbScale
 70
     0
300
3/32" = 1'-0"
140
0.09375
141
12.0
290
     0
  0
SCALE
  5
4E
102
{ACAD_REACTORS
330
47
102
}
330
47
100
AcDbScale
 70
     0
300
1/8" = 1'-0"
140
0.125
141
12.0
290
     0
  0
SCALE
  5
4F
102
{ACAD_REACTORS
330
47
102
}
330
47
100
AcDbScale
 70
     0
300
3/16" = 1'-0"
140
0.1875
141
12.0
290
     0
  0
SCALE
  5
50
102
{ACAD_REACTORS
330
47
102
}
330
47
100
AcDbScale
 70
     0
300
1/4" = 1'-0"
140
0.25
141
12.0
290
     0
  0
SCALE
  5
51
102
{ACAD_REACTORS
330
47
102
}
330
47
100
AcDbScale
 70
     0
300
3/8" = 1'-0"
140
0.375
141
12.0
290
     0
  0
SCALE
  5
52
102
{ACAD_REACTORS
330
47
102
}
330
47
100
AcDbScale
 70
     0
300
1/2" = 1'-0"
140
0.5
141
12.0
290
     0
  0
SCALE
  5
53
102
{ACAD_REACTORS
330
47
102
}
330
47
100
AcDbScale
 70
     0
300
3/4" = 1'-0"
140
0.75
141
12.0
290
     0
  0
SCALE
  5
54
102
{ACAD_REACTORS
330
47
102
}
330
47
100
AcDbScale
 70
     0
300
1" = 1'-0"
140
1.0
141
12.0
290
     0
  0
SCALE
  5
55
102
{ACAD_REACTORS
330
47
102
}
330
47
100
AcDbScale
 70
     0
300
1-1/2" = 1'-0"
140
1.5
141
12.0
290
     0
  0
SCALE
  5
56
102
{ACAD_REACTORS
330
47
102
}
330
47
100
AcDbScale
 70
     0
300
3" = 1'-0"
140
3.0
141
12.0
290
     0
  0
SCALE
  5
57
102
{ACAD_REACTORS
330
47
102
}
330
47
100
AcDbScale
 70
     0
300
6" = 1'-0"
140
6.0
141
12.0
290
     0
  0
SCALE
  5
58
102
{ACAD_REACTORS
330
47
102
}
330
47
100
AcDbScale
 70
     0
300
1'-0" = 1'-0"
140
12.0
141
12.0
290
     0
  0
TABLESTYLE
  5
5A
102
{ACAD_REACTORS
330
59
102
}
102
{ACAD_XDICTIONARY
360
8B
102
}
330
59
100
AcDbTableStyle
  3
Standard
 70
     0
 71
     0
 40
0.06
 41
0.06
280
     0
281
     0
  7
Standard
140
0.18
170
     2
 62
     0
 63
   257
283
     0
 90
        4
 91
        0
  1

274
    -2
284
     1
 64
     0
275
    -2
285
     1
 65
     0
276
    -2
286
     1
 66
     0
277
    -2
287
     1
 67
     0
278
    -2
288
     1
 68
     0
279
    -2
289
     1
 69
     0
  7
Standard
140
0.25
170
     5
 62
     0
 63
   257
283
     0
 90
        4
 91
        0
  1

274
    -2
284
     1
 64
     0
275
    -2
285
     1
 65
     0
276
    -2
286
     1
 66
     0
277
    -2
287
     1
 67
     0
278
    -2
288
     1
 68
     0
279
    -2
289
     1
 69
     0
  7
Standard
140
0.18
170
     5
 62
     0
 63
   257
283
     0
 90
        4
 91
        0
  1

274
    -2
284
     1
 64
     0
275
    -2
285
     1
 65
     0
276
    -2
286
     1
 66
     0
277
    -2
287
     1
 67
     0
278
    -2
288
     1
 68
     0
279
    -2
289
     1
 69
     0
  0
VISUALSTYLE
  5
2F
102
{ACAD_REACTORS
330
2A
102
}
330
2A
100
AcDbVisualStyle
  2
2dWireframe
 70
     4
177
     3
291
     0
 70
    58
 90
        0
176
     1
 90
        2
176
     1
 90
        0
176
     1
 90
        0
176
     1
 40
0.6
176
     1
 40
30.0
176
     1
 62
     7
420
 16777215
176
     1
 90
        1
176
     1
 90
        4
176
     1
 62
     7
176
     1
 62
   257
176
     1
 90
        1
176
     1
 90
        1
176
     1
 40
1.0
176
     1
 90
        0
176
     1
 62
   257
176
     1
 40
1.0
176
     1
 90
        1
176
     1
 90
        6
176
     1
 90
        2
176
     1
 62
     7
176
     1
 90
        5
176
     1
 90
        0
176
     1
 90
        0
176
     1
290
     0
176
     1
 90
        1
176
     1
 40
0.0
176
     1
 90
        0
176
     1
290
     1
176
     1
290
     1
176
     1
290
     0
176
     1
290
     0
176
     1
290
     0
176
     1
290
     0
176
     1
290
     0
176
     1
290
     0
176
     1
290
     0
176
     1
 90
       50
176
     1
 40
0.0
176
     1
 40
1.0
176
     1
 90
        0
176
     1
 62
    18
420
        0
176
     1
 90
       50
176
     1
 90
        3
176
     1
 62
     5
420
      255
176
     1
290
     0
176
     1
 90
       50
176
     1
 90
       50
176
     1
 90
       50
176
     1
290
     0
176
     1
 90
       50
176
     1
 62
   256
176
     0
 40
1.0
176
     0
 90
        2
176
     1
  1
strokes_ogs.tif
176
     1
290
     0
176
     1
 40
1.0
176
     1
 40
1.0
176
     1
  0
VISUALSTYLE
  5
32
102
{ACAD_REACTORS
330
2A
102
}
330
2A
100
AcDbVisualStyle
  2
Basic
 70
     7
177
     3
291
     1
 70
    58
 90
        1
176
     1
 90
        0
176
     1
 90
        1
176
     1
 90
        0
176
     1
 40
0.6
176
     1
 40
30.0
176
     1
 62
     7
420
 16777215
176
     1
 90
        0
176
     1
 90
        4
176
     1
 62
     7
176
     1
 62
   257
176
     1
 90
        1
176
     1
 90
        1
176
     1
 40
1.0
176
     1
 90
        8
176
     1
 62
     7
176
     1
 40
1.0
176
     1
 90
        1
176
     1
 90
        6
176
     1
 90
        2
176
     1
 62
     7
176
     1
 90
        5
176
     1
 90
        0
176
     1
 90
        0
176
     1
290
     0
176
     1
 90
        1
176
     1
 40
0.0
176
     1
 90
        0
176
     1
290
     0
176
     1
290
     1
176
     1
290
     1
176
     1
290
     0
176
     1
290
     0
176
     1
290
     0
176
     1
290
     0
176
     1
290
     0
176
     1
290
     0
176
     1
 90
       50
176
     1
 40
0.0
176
     1
 40
1.0
176
     1
 90
        0
176
     1
 62
    18
420
        0
176
     1
 90
       50
176
     1
 90
        3
176
     1
 62
     5
420
      255
176
     1
290
     0
176
     1
 90
       50
176
     1
 90
       50
176
     1
 90
       50
176
     1
290
     0
176
     1
 90
       50
176
     1
 62
   256
176
     0
 40
1.0
176
     0
 90
        2
176
     1
  1
strokes_ogs.tif
176
     1
290
     0
176
     1
 40
1.0
176
     1
 40
1.0
176
     1
  0
VISUALSTYLE
  5
36
102
{ACAD_REACTORS
330
2A
102
}
330
2A
100
AcDbVisualStyle
  2
Brighten
 70
    12
177
     3
291
     1
 70
    58
 90
        2
176
     1
 90
        2
176
     1
 90
        0
176
     1
 90
        0
176
     1
 40
0.6
176
     1
 40
30.0
176
     1
 62
     7
420
 16777215
176
     1
 90
        1
176
     1
 90
        4
176
     1
 62
     7
176
     1
 62
   257
176
     1
 90
        1
176
     1
 90
        1
176
     1
 40
1.0
176
     1
 90
        8
176
     1
 62
     7
176
     1
 40
1.0
176
     1
 90
        1
176
     1
 90
        6
176
     1
 90
        2
176
     1
 62
     7
176
     1
 90
        5
176
     1
 90
        0
176
     1
 90
        0
176
     1
290
     0
176
     1
 90
        1
176
     1
 40
50.0
176
     1
 90
        0
176
     1
290
     0
176
     1
290
     1
176
     1
290
     1
176
     1
290
     0
176
     1
290
     0
176
     1
290
     0
176
     1
290
     0
176
     1
290
     0
176
     1
290
     0
176
     1
 90
       50
176
     1
 40
0.0
176
     1
 40
1.0
176
     1
 90
        0
176
     1
 62
    18
420
        0
176
     1
 90
       50
176
     1
 90
        3
176
     1
 62
     5
420
      255
176
     1
290
     0
176
     1
 90
       50
176
     1
 90
       50
176
     1
 90
       50
176
     1
290
     0
176
     1
 90
       50
176
     1
 62
   256
176
     0
 40
1.0
176
     0
 90
        2
176
     1
  1
strokes_ogs.tif
176
     1
290
     0
176
     1
 40
1.0
176
     1
 40
1.0
176
     1
  0
VISUALSTYLE
  5
3A
102
{ACAD_REACTORS
330
2A
102
}
330
2A
100
AcDbVisualStyle
  2
ColorChange
 70
    16
177
     3
291
     1
 70
    58
 90
        2
176
     1
 90
        2
176
     1
 90
        3
176
     1
 90
        0
176
     1
 40
0.6
176
     1
 40
30.0
176
     1
 62
     8
420
  8421504
176
     1
 90
        1
176
     1
 90
        4
176
     1
 62
     7
176
     1
 62
   257
176
     1
 90
        1
176
     1
 90
        1
176
     1
 40
1.0
176
     1
 90
        8
176
     1
 62
     8
420
  8421504
176
     1
 40
1.0
176
     1
 90
        1
176
     1
 90
        6
176
     1
 90
        2
176
     1
 62
     7
176
     1
 90
        5
176
     1
 90
        0
176
     1
 90
        0
176
     1
290
     0
176
     1
 90
        1
176
     1
 40
0.0
176
     1
 90
        0
176
     1
290
     0
176
     1
290
     1
176
     1
290
     1
176
     1
290
     0
176
     1
290
     0
176
     1
290
     0
176
     1
290
     0
176
     1
290
     0
176
     1
290
     0
176
     1
 90
       50
176
     1
 40
0.0
176
     1
 40
1.0
176
     1
 90
        0
176
     1
 62
    18
420
        0
176
     1
 90
       50
176
     1
 90
        3
176
     1
 62
     5
420
      255
176
     1
290
     0
176
     1
 90
       50
176
     1
 90
       50
176
     1
 90
       50
176
     1
290
     0
176
     1
 90
       50
176
     1
 62
   256
176
     0
 40
1.0
176
     0
 90
        2
176
     1
  1
strokes_ogs.tif
176
     1
290
     0
176
     1
 40
1.0
176
     1
 40
1.0
176
     1
  0
VISUALSTYLE
  5
34
102
{ACAD_REACTORS
330
2A
102
}
330
2A
100
AcDbVisualStyle
  2
Conceptual
 70
     9
177
     3
291
     0
 70
    58
 90
        3
176
     1
 90
        2
176
     1
 90
        0
176
     1
 90
        0
176
     1
 40
0.6
176
     1
 40
30.0
176
     1
 62
     7
420
 16777215
176
     1
 90
        2
176
     1
 90
        2
176
     1
 62
     7
176
     1
 62
   257
176
     1
 90
        1
176
     1
 90
        1
176
     1
 40
179.0
176
     1
 90
        8
176
     1
 62
     7
176
     1
 40
1.0
176
     1
 90
        1
176
     1
 90
        6
176
     1
 90
        2
176
     1
 62
     7
176
     1
 90
        3
176
     1
 90
        0
176
     1
 90
        0
176
     1
290
     0
176
     1
 90
        1
176
     1
 40
0.0
176
     1
 90
        0
176
     1
290
     0
176
     1
290
     1
176
     1
290
     1
176
     1
290
     0
176
     1
290
     0
176
     1
290
     0
176
     1
290
     0
176
     1
290
     0
176
     1
290
     0
176
     1
 90
       50
176
     1
 40
0.0
176
     1
 40
1.0
176
     1
 90
        0
176
     1
 62
    18
420
        0
176
     1
 90
       50
176
     1
 90
        3
176
     1
 62
     5
420
      255
176
     1
290
     0
176
     1
 90
       50
176
     1
 90
       50
176
     1
 90
       50
176
     1
290
     0
176
     1
 90
       50
176
     1
 62
   256
176
     0
 40
1.0
176
     0
 90
        2
176
     1
  1
strokes_ogs.tif
176
     1
290
     0
176
     1
 40
1.0
176
     1
 40
1.0
176
     1
  0
VISUALSTYLE
  5
35
102
{ACAD_REACTORS
330
2A
102
}
330
2A
100
AcDbVisualStyle
  2
Dim
 70
    11
177
     3
291
     1
 70
    58
 90
        2
176
     1
 90
        2
176
     1
 90
        0
176
     1
 90
        0
176
     1
 40
0.6
176
     1
 40
30.0
176
     1
 62
     7
420
 16777215
176
     1
 90
        1
176
     1
 90
        4
176
     1
 62
     7
176
     1
 62
   257
176
     1
 90
        1
176
     1
 90
        1
176
     1
 40
1.0
176
     1
 90
        8
176
     1
 62
     7
176
     1
 40
1.0
176
     1
 90
        1
176
     1
 90
        6
176
     1
 90
        2
176
     1
 62
     7
176
     1
 90
        5
176
     1
 90
        0
176
     1
 90
        0
176
     1
290
     0
176
     1
 90
        1
176
     1
 40
-50.0
176
     1
 90
        0
176
     1
290
     0
176
     1
290
     1
176
     1
290
     1
176
     1
290
     0
176
     1
290
     0
176
     1
290
     0
176
     1
290
     0
176
     1
290
     0
176
     1
290
     0
176
     1
 90
       50
176
     1
 40
0.0
176
     1
 40
1.0
176
     1
 90
        0
176
     1
 62
    18
420
        0
176
     1
 90
       50
176
     1
 90
        3
176
     1
 62
     5
420
      255
176
     1
290
     0
176
     1
 90
       50
176
     1
 90
       50
176
     1
 90
       50
176
     1
290
     0
176
     1
 90
       50
176
     1
 62
   256
176
     0
 40
1.0
176
     0
 90
        2
176
     1
  1
strokes_ogs.tif
176
     1
290
     0
176
     1
 40
1.0
176
     1
 40
1.0
176
     1
  0
VISUALSTYLE
  5
3D
102
{ACAD_REACTORS
330
2A
102
}
330
2A
100
AcDbVisualStyle
  2
EdgeColorOff
 70
    22
177
     3
291
     1
 70
    58
 90
        2
176
     0
 90
        2
176
     0
 90
        0
176
     0
 90
        0
176
     0
 40
0.6
176
     0
 40
30.0
176
     0
 62
     7
420
 16777215
176
     0
 90
        1
176
     0
 90
        4
176
     0
 62
     7
176
     0
 62
   257
176
     0
 90
        1
176
     0
 90
        1
176
     0
 40
1.0
176
     0
 90
        8
176
     2
 62
     7
176
     0
 40
1.0
176
     0
 90
        1
176
     0
 90
        6
176
     0
 90
        2
176
     0
 62
     7
176
     0
 90
        5
176
     0
 90
        0
176
     0
 90
        0
176
     0
290
     0
176
     0
 90
        1
176
     0
 40
0.0
176
     0
 90
        0
176
     0
290
     0
176
     0
290
     1
176
     0
290
     1
176
     0
290
     0
176
     0
290
     0
176
     0
290
     0
176
     0
290
     0
176
     0
290
     0
176
     0
290
     0
176
     0
 90
       50
176
     0
 40
0.0
176
     0
 40
1.0
176
     0
 90
        0
176
     0
 62
    18
420
        0
176
     0
 90
       50
176
     0
 90
        3
176
     0
 62
     5
420
      255
176
     0
290
     0
176
     0
 90
       50
176
     0
 90
       50
176
     0
 90
       50
176
     0
290
     0
176
     0
 90
       50
176
     0
 62
   256
176
     0
 40
1.0
176
     0
 90
        2
176
     0
  1
strokes_ogs.tif
176
     0
290
     0
176
     0
 40
1.0
176
     0
 40
1.0
176
     0
  0
VISUALSTYLE
  5
39
102
{ACAD_REACTORS
330
2A
102
}
330
2A
100
AcDbVisualStyle
  2
Facepattern
 70
    15
177
     3
291
     1
 70
    58
 90
        2
176
     1
 90
        2
176
     1
 90
        0
176
     1
 90
        0
176
     1
 40
0.6
176
     1
 40
30.0
176
     1
 62
     7
420
 16777215
176
     1
 90
        1
176
     1
 90
        4
176
     1
 62
     7
176
     1
 62
   257
176
     1
 90
        1
176
     1
 90
        1
176
     1
 40
1.0
176
     1
 90
        8
176
     1
 62
     7
176
     1
 40
1.0
176
     1
 90
        1
176
     1
 90
        6
176
     1
 90
        2
176
     1
 62
     7
176
     1
 90
        5
176
     1
 90
        0
176
     1
 90
        0
176
     1
290
     0
176
     1
 90
        1
176
     1
 40
0.0
176
     1
 90
        0
176
     1
290
     0
176
     1
290
     1
176
     1
290
     1
176
     1
290
     0
176
     1
290
     0
176
     1
290
     0
176
     1
290
     0
176
     1
290
     0
176
     1
290
     0
176
     1
 90
       50
176
     1
 40
0.0
176
     1
 40
1.0
176
     1
 90
        0
176
     1
 62
    18
420
        0
176
     1
 90
       50
176
     1
 90
        3
176
     1
 62
     5
420
      255
176
     1
290
     0
176
     1
 90
       50
176
     1
 90
       50
176
     1
 90
       50
176
     1
290
     0
176
     1
 90
       50
176
     1
 62
   256
176
     0
 40
1.0
176
     0
 90
        2
176
     1
  1
strokes_ogs.tif
176
     1
290
     0
176
     1
 40
1.0
176
     1
 40
1.0
176
     1
  0
VISUALSTYLE
  5
2B
102
{ACAD_REACTORS
330
2A
102
}
330
2A
100
AcDbVisualStyle
  2
Flat
 70
     0
177
     3
291
     1
 70
    58
 90
        2
176
     1
 90
        1
176
     1
 90
        1
176
     1
 90
        2
176
     1
 40
0.6
176
     1
 40
30.0
176
     1
 62
     7
420
 16777215
176
     1
 90
        0
176
     1
 90
        0
176
     1
 62
     7
176
     1
 62
   257
176
     1
 90
        1
176
     1
 90
        1
176
     1
 40
1.0
176
     1
 90
        8
176
     1
 62
     7
176
     1
 40
1.0
176
     1
 90
        1
176
     1
 90
        6
176
     1
 90
        2
176
     1
 62
     7
176
     1
 90
        5
176
     1
 90
        0
176
     1
 90
        0
176
     1
290
     0
176
     1
 90
       13
176
     1
 40
0.0
176
     1
 90
        0
176
     1
290
     0
176
     1
290
     1
176
     1
290
     1
176
     1
290
     0
176
     1
290
     0
176
     1
290
     0
176
     1
290
     0
176
     1
290
     0
176
     1
290
     0
176
     1
 90
       50
176
     1
 40
0.0
176
     1
 40
1.0
176
     1
 90
        0
176
     1
 62
    18
420
        0
176
     1
 90
       50
176
     1
 90
        3
176
     1
 62
     5
420
      255
176
     1
290
     0
176
     1
 90
       50
176
     1
 90
       50
176
     1
 90
       50
176
     1
290
     0
176
     1
 90
       50
176
     1
 62
   256
176
     0
 40
1.0
176
     0
 90
        2
176
     1
  1
strokes_ogs.tif
176
     1
290
     0
176
     1
 40
1.0
176
     1
 40
1.0
176
     1
  0
VISUALSTYLE
  5
2C
102
{ACAD_REACTORS
330
2A
102
}
330
2A
100
AcDbVisualStyle
  2
FlatWithEdges
 70
     1
177
     3
291
     1
 70
    58
 90
        2
176
     1
 90
        1
176
     1
 90
        1
176
     1
 90
        2
176
     1
 40
0.6
176
     1
 40
30.0
176
     1
 62
     7
420
 16777215
176
     1
 90
        1
176
     1
 90
        0
176
     1
 62
     7
176
     1
 62
   257
176
     1
 90
        1
176
     1
 90
        1
176
     1
 40
1.0
176
     1
 90
        0
176
     1
 62
   257
176
     1
 40
1.0
176
     1
 90
        1
176
     1
 90
        6
176
     1
 90
        2
176
     1
 62
     7
176
     1
 90
        5
176
     1
 90
        0
176
     1
 90
        0
176
     1
290
     0
176
     1
 90
       13
176
     1
 40
0.0
176
     1
 90
        0
176
     1
290
     0
176
     1
290
     1
176
     1
290
     1
176
     1
290
     0
176
     1
290
     0
176
     1
290
     0
176
     1
290
     0
176
     1
290
     0
176
     1
290
     0
176
     1
 90
       50
176
     1
 40
0.0
176
     1
 40
1.0
176
     1
 90
        0
176
     1
 62
    18
420
        0
176
     1
 90
       50
176
     1
 90
        3
176
     1
 62
     5
420
      255
176
     1
290
     0
176
     1
 90
       50
176
     1
 90
       50
176
     1
 90
       50
176
     1
290
     0
176
     1
 90
       50
176
     1
 62
   256
176
     0
 40
1.0
176
     0
 90
        2
176
     1
  1
strokes_ogs.tif
176
     1
290
     0
176
     1
 40
1.0
176
     1
 40
1.0
176
     1
  0
VISUALSTYLE
  5
2D
102
{ACAD_REACTORS
330
2A
102
}
330
2A
100
AcDbVisualStyle
  2
Gouraud
 70
     2
177
     3
291
     1
 70
    58
 90
        2
176
     1
 90
        2
176
     1
 90
        1
176
     1
 90
        2
176
     1
 40
0.6
176
     1
 40
30.0
176
     1
 62
     7
420
 16777215
176
     1
 90
        0
176
     1
 90
        0
176
     1
 62
     7
176
     1
 62
   257
176
     1
 90
        1
176
     1
 90
        1
176
     1
 40
1.0
176
     1
 90
        0
176
     1
 62
     7
176
     1
 40
1.0
176
     1
 90
        1
176
     1
 90
        6
176
     1
 90
        2
176
     1
 62
     7
176
     1
 90
        5
176
     1
 90
        0
176
     1
 90
        0
176
     1
290
     0
176
     1
 90
       13
176
     1
 40
0.0
176
     1
 90
        0
176
     1
290
     0
176
     1
290
     1
176
     1
290
     1
176
     1
290
     0
176
     1
290
     0
176
     1
290
     0
176
     1
290
     0
176
     1
290
     0
176
     1
290
     0
176
     1
 90
       50
176
     1
 40
0.0
176
     1
 40
1.0
176
     1
 90
        0
176
     1
 62
    18
420
        0
176
     1
 90
       50
176
     1
 90
        3
176
     1
 62
     5
420
      255
176
     1
290
     0
176
     1
 90
       50
176
     1
 90
       50
176
     1
 90
       50
176
     1
290
     0
176
     1
 90
       50
176
     1
 62
   256
176
     0
 40
1.0
176
     0
 90
        2
176
     1
  1
strokes_ogs.tif
176
     1
290
     0
176
     1
 40
1.0
176
     1
 40
1.0
176
     1
  0
VISUALSTYLE
  5
2E
102
{ACAD_REACTORS
330
2A
102
}
330
2A
100
AcDbVisualStyle
  2
GouraudWithEdges
 70
     3
177
     3
291
     1
 70
    58
 90
        2
176
     1
 90
        2
176
     1
 90
        1
176
     1
 90
        2
176
     1
 40
0.6
176
     1
 40
30.0
176
     1
 62
     7
420
 16777215
176
     1
 90
        1
176
     1
 90
        0
176
     1
 62
     7
176
     1
 62
   257
176
     1
 90
        1
176
     1
 90
        1
176
     1
 40
1.0
176
     1
 90
        0
176
     1
 62
   257
176
     1
 40
1.0
176
     1
 90
        1
176
     1
 90
        6
176
     1
 90
        2
176
     1
 62
     7
176
     1
 90
        5
176
     1
 90
        0
176
     1
 90
        0
176
     1
290
     0
176
     1
 90
       13
176
     1
 40
0.0
176
     1
 90
        0
176
     1
290
     0
176
     1
290
     1
176
     1
290
     1
176
     1
290
     0
176
     1
290
     0
176
     1
290
     0
176
     1
290
     0
176
     1
290
     0
176
     1
290
     0
176
     1
 90
       50
176
     1
 40
0.0
176
     1
 40
1.0
176
     1
 90
        0
176
     1
 62
    18
420
        0
176
     1
 90
       50
176
     1
 90
        3
176
     1
 62
     5
420
      255
176
     1
290
     0
176
     1
 90
       50
176
     1
 90
       50
176
     1
 90
       50
176
     1
290
     0
176
     1
 90
       50
176
     1
 62
   256
176
     0
 40
1.0
176
     0
 90
        2
176
     1
  1
strokes_ogs.tif
176
     1
290
     0
176
     1
 40
1.0
176
     1
 40
1.0
176
     1
  0
VISUALSTYLE
  5
31
102
{ACAD_REACTORS
330
2A
102
}
330
2A
100
AcDbVisualStyle
  2
Hidden
 70
     6
177
     3
291
     0
 70
    58
 90
        1
176
     1
 90
        2
176
     1
 90
        2
176
     1
 90
        0
176
     1
 40
0.6
176
     1
 40
30.0
176
     1
 62
     7
420
 16777215
176
     1
 90
        2
176
     1
 90
        2
176
     1
 62
     7
176
     1
 62
   257
176
     1
 90
        2
176
     1
 90
        1
176
     1
 40
40.0
176
     1
 90
        0
176
     1
 62
   257
176
     1
 40
1.0
176
     1
 90
        1
176
     1
 90
        6
176
     1
 90
        2
176
     1
 62
     7
176
     1
 90
        3
176
     1
 90
        0
176
     1
 90
        0
176
     1
290
     0
176
     1
 90
        1
176
     1
 40
0.0
176
     1
 90
        0
176
     1
290
     0
176
     1
290
     1
176
     1
290
     1
176
     1
290
     0
176
     1
290
     0
176
     1
290
     0
176
     1
290
     0
176
     1
290
     0
176
     1
290
     0
176
     1
 90
       50
176
     1
 40
0.0
176
     1
 40
1.0
176
     1
 90
        0
176
     1
 62
    18
420
        0
176
     1
 90
       50
176
     1
 90
        3
176
     1
 62
     5
420
      255
176
     1
290
     0
176
     1
 90
       50
176
     1
 90
       50
176
     1
 90
       50
176
     1
290
     0
176
     1
 90
       50
176
     1
 62
   256
176
     0
 40
1.0
176
     0
 90
        2
176
     1
  1
strokes_ogs.tif
176
     1
290
     0
176
     1
 40
1.0
176
     1
 40
1.0
176
     1
  0
VISUALSTYLE
  5
3B
102
{ACAD_REACTORS
330
2A
102
}
330
2A
100
AcDbVisualStyle
  2
JitterOff
 70
    20
177
     3
291
     1
 70
    58
 90
        2
176
     0
 90
        2
176
     0
 90
        0
176
     0
 90
        0
176
     0
 40
0.6
176
     0
 40
30.0
176
     0
 62
     7
420
 16777215
176
     0
 90
        1
176
     0
 90
        4
176
     0
 62
     7
176
     0
 62
   257
176
     0
 90
        1
176
     0
 90
        1
176
     0
 40
1.0
176
     0
 90
       10
176
     2
 62
     7
176
     0
 40
1.0
176
     0
 90
        1
176
     0
 90
        6
176
     0
 90
        2
176
     0
 62
     7
176
     0
 90
        5
176
     0
 90
        0
176
     0
 90
        0
176
     0
290
     0
176
     0
 90
        1
176
     0
 40
0.0
176
     0
 90
        0
176
     0
290
     0
176
     0
290
     1
176
     0
290
     1
176
     0
290
     0
176
     0
290
     0
176
     0
290
     0
176
     0
290
     0
176
     0
290
     0
176
     0
290
     0
176
     0
 90
       50
176
     0
 40
0.0
176
     0
 40
1.0
176
     0
 90
        0
176
     0
 62
    18
420
        0
176
     0
 90
       50
176
     0
 90
        3
176
     0
 62
     5
420
      255
176
     0
290
     0
176
     0
 90
       50
176
     0
 90
       50
176
     0
 90
       50
176
     0
290
     0
176
     0
 90
       50
176
     0
 62
   256
176
     0
 40
1.0
176
     0
 90
        2
176
     0
  1
strokes_ogs.tif
176
     0
290
     0
176
     0
 40
1.0
176
     0
 40
1.0
176
     0
  0
VISUALSTYLE
  5
38
102
{ACAD_REACTORS
330
2A
102
}
330
2A
100
AcDbVisualStyle
  2
Linepattern
 70
    14
177
     3
291
     1
 70
    58
 90
        2
176
     1
 90
        2
176
     1
 90
        0
176
     1
 90
        0
176
     1
 40
0.6
176
     1
 40
30.0
176
     1
 62
     7
420
 16777215
176
     1
 90
        1
176
     1
 90
        4
176
     1
 62
     7
176
     1
 62
   257
176
     1
 90
        7
176
     1
 90
        7
176
     1
 40
1.0
176
     1
 90
        8
176
     1
 62
     7
176
     1
 40
1.0
176
     1
 90
        1
176
     1
 90
        6
176
     1
 90
        2
176
     1
 62
     7
176
     1
 90
        5
176
     1
 90
        0
176
     1
 90
        0
176
     1
290
     0
176
     1
 90
        1
176
     1
 40
0.0
176
     1
 90
        0
176
     1
290
     0
176
     1
290
     1
176
     1
290
     1
176
     1
290
     0
176
     1
290
     0
176
     1
290
     0
176
     1
290
     0
176
     1
290
     0
176
     1
290
     0
176
     1
 90
       50
176
     1
 40
0.0
176
     1
 40
1.0
176
     1
 90
        0
176
     1
 62
    18
420
        0
176
     1
 90
       50
176
     1
 90
        3
176
     1
 62
     5
420
      255
176
     1
290
     0
176
     1
 90
       50
176
     1
 90
       50
176
     1
 90
       50
176
     1
290
     0
176
     1
 90
       50
176
     1
 62
   256
176
     0
 40
1.0
176
     0
 90
        2
176
     1
  1
strokes_ogs.tif
176
     1
290
     0
176
     1
 40
1.0
176
     1
 40
1.0
176
     1
  0
VISUALSTYLE
  5
3C
102
{ACAD_REACTORS
330
2A
102
}
330
2A
100
AcDbVisualStyle
  2
OverhangOff
 70
    21
177
     3
291
     1
 70
    58
 90
        2
176
     0
 90
        2
176
     0
 90
        0
176
     0
 90
        0
176
     0
 40
0.6
176
     0
 40
30.0
176
     0
 62
     7
420
 16777215
176
     0
 90
        1
176
     0
 90
        4
176
     0
 62
     7
176
     0
 62
   257
176
     0
 90
        1
176
     0
 90
        1
176
     0
 40
1.0
176
     0
 90
        9
176
     2
 62
     7
176
     0
 40
1.0
176
     0
 90
        1
176
     0
 90
        6
176
     0
 90
        2
176
     0
 62
     7
176
     0
 90
        5
176
     0
 90
        0
176
     0
 90
        0
176
     0
290
     0
176
     0
 90
        1
176
     0
 40
0.0
176
     0
 90
        0
176
     0
290
     0
176
     0
290
     1
176
     0
290
     1
176
     0
290
     0
176
     0
290
     0
176
     0
290
     0
176
     0
290
     0
176
     0
290
     0
176
     0
290
     0
176
     0
 90
       50
176
     0
 40
0.0
176
     0
 40
1.0
176
     0
 90
        0
176
     0
 62
    18
420
        0
176
     0
 90
       50
176
     0
 90
        3
176
     0
 62
     5
420
      255
176
     0
290
     0
176
     0
 90
       50
176
     0
 90
       50
176
     0
 90
       50
176
     0
290
     0
176
     0
 90
       50
176
     0
 62
   256
176
     0
 40
1.0
176
     0
 90
        2
176
     0
  1
strokes_ogs.tif
176
     0
290
     0
176
     0
 40
1.0
176
     0
 40
1.0
176
     0
  0
VISUALSTYLE
  5
33
102
{ACAD_REACTORS
330
2A
102
}
330
2A
100
AcDbVisualStyle
  2
Realistic
 70
     8
177
     3
291
     0
 70
    58
 90
        2
176
     1
 90
        3
176
     1
 90
        0
176
     1
 90
        2
176
     1
 40
0.6
176
     1
 40
30.0
176
     1
 62
     7
420
 16777215
176
     1
 90
        0
176
     1
 90
        0
176
     1
 62
     7
176
     1
 62
   257
176
     1
 90
        1
176
     1
 90
        1
176
     1
 40
1.0
176
     1
 90
        8
176
     1
 62
   257
176
     1
 40
1.0
176
     1
 90
        1
176
     1
 90
        6
176
     1
 90
        2
176
     1
 62
     7
176
     1
 90
        3
176
     1
 90
        0
176
     1
 90
        0
176
     1
290
     0
176
     1
 90
       13
176
     1
 40
0.0
176
     1
 90
        0
176
     1
290
     0
176
     1
290
     1
176
     1
290
     1
176
     1
290
     0
176
     1
290
     0
176
     1
290
     0
176
     1
290
     0
176
     1
290
     0
176
     1
290
     0
176
     1
 90
       50
176
     1
 40
0.0
176
     1
 40
1.0
176
     1
 90
        0
176
     1
 62
    18
420
        0
176
     1
 90
       50
176
     1
 90
        3
176
     1
 62
     5
420
      255
176
     1
290
     0
176
     1
 90
       50
176
     1
 90
       50
176
     1
 90
       50
176
     1
290
     0
176
     1
 90
       50
176
     1
 62
   256
176
     0
 40
1.0
176
     0
 90
        2
176
     1
  1
strokes_ogs.tif
176
     1
290
     0
176
     1
 40
1.0
176
     1
 40
1.0
176
     1
  0
VISUALSTYLE
  5
42
102
{ACAD_REACTORS
330
2A
102
}
330
2A
100
AcDbVisualStyle
  2
Shaded
 70
    27
177
     3
291
     0
 70
    58
 90
        2
176
     1
 90
        2
176
     1
 90
        1
176
     1
 90
        2
176
     1
 40
0.6
176
     1
 40
30.0
176
     1
 62
     7
420
 16777215
176
     1
 90
        0
176
     1
 90
        4
176
     1
 62
     7
176
     1
 62
   257
176
     1
 90
        1
176
     1
 90
        1
176
     1
 40
1.0
176
     1
 90
        8
176
     1
 62
   257
176
     1
 40
1.0
176
     1
 90
        1
176
     1
 90
        6
176
     1
 90
        2
176
     1
 62
     8
420
  7895160
176
     1
 90
        3
176
     1
 90
        0
176
     1
 90
        0
176
     1
290
     0
176
     1
 90
        5
176
     1
 40
0.0
176
     1
 90
        0
176
     1
290
     0
176
     1
290
     1
176
     1
290
     1
176
     1
290
     0
176
     1
290
     0
176
     1
290
     0
176
     1
290
     0
176
     1
290
     0
176
     1
290
     0
176
     1
 90
       50
176
     1
 40
0.0
176
     1
 40
1.0
176
     1
 90
        0
176
     1
 62
    18
420
        0
176
     1
 90
       50
176
     1
 90
        3
176
     1
 62
     5
420
      255
176
     1
290
     0
176
     1
 90
       50
176
     1
 90
       50
176
     1
 90
       50
176
     1
290
     0
176
     1
 90
       50
176
     1
 62
   256
176
     0
 40
1.0
176
     0
 90
        2
176
     1
  1
strokes_ogs.tif
176
     1
290
     0
176
     1
 40
1.0
176
     1
 40
1.0
176
     1
  0
VISUALSTYLE
  5
41
102
{ACAD_REACTORS
330
2A
102
}
330
2A
100
AcDbVisualStyle
  2
Shaded with edges
 70
    26
177
     3
291
     0
 70
    58
 90
        2
176
     1
 90
        2
176
     1
 90
        1
176
     1
 90
        2
176
     1
 40
0.6
176
     1
 40
30.0
176
     1
 62
     7
420
 16777215
176
     1
 90
        1
176
     1
 90
       10
176
     1
 62
     7
176
     1
 62
   257
176
     1
 90
        2
176
     1
 90
        1
176
     1
 40
1.0
176
     1
 90
        8
176
     1
 62
   257
176
     1
 40
1.0
176
     1
 90
        1
176
     1
 90
        6
176
     1
 90
        2
176
     1
 62
     7
176
     1
 90
        3
176
     1
 90
        0
176
     1
 90
        0
176
     1
290
     0
176
     1
 90
        5
176
     1
 40
0.0
176
     1
 90
        0
176
     1
290
     0
176
     1
290
     1
176
     1
290
     1
176
     1
290
     0
176
     1
290
     0
176
     1
290
     0
176
     1
290
     0
176
     1
290
     0
176
     1
290
     0
176
     1
 90
       50
176
     1
 40
0.0
176
     1
 40
1.0
176
     1
 90
        0
176
     1
 62
    18
420
        0
176
     1
 90
       50
176
     1
 90
        3
176
     1
 62
     5
420
      255
176
     1
290
     0
176
     1
 90
       50
176
     1
 90
       50
176
     1
 90
       50
176
     1
290
     0
176
     1
 90
       50
176
     1
 62
   256
176
     0
 40
1.0
176
     0
 90
        2
176
     1
  1
strokes_ogs.tif
176
     1
290
     0
176
     1
 40
1.0
176
     1
 40
1.0
176
     1
  0
VISUALSTYLE
  5
3E
102
{ACAD_REACTORS
330
2A
102
}
330
2A
100
AcDbVisualStyle
  2
Shades of Gray
 70
    23
177
     3
291
     0
 70
    58
 90
        2
176
     1
 90
        2
176
     1
 90
        3
176
     1
 90
        0
176
     1
 40
0.6
176
     1
 40
30.0
176
     1
 62
     7
420
 16777215
176
     1
 90
        2
176
     1
 90
        2
176
     1
 62
     7
176
     1
 62
     7
176
     1
 90
        1
176
     1
 90
        1
176
     1
 40
40.0
176
     1
 90
        8
176
     1
 62
     7
176
     1
 40
1.0
176
     1
 90
        1
176
     1
 90
        6
176
     1
 90
        2
176
     1
 62
     7
176
     1
 90
        3
176
     1
 90
        0
176
     1
 90
        0
176
     1
290
     0
176
     1
 90
        1
176
     1
 40
0.0
176
     1
 90
        0
176
     1
290
     0
176
     1
290
     1
176
     1
290
     1
176
     1
290
     0
176
     1
290
     0
176
     1
290
     0
176
     1
290
     0
176
     1
290
     0
176
     1
290
     0
176
     1
 90
       50
176
     1
 40
0.0
176
     1
 40
1.0
176
     1
 90
        0
176
     1
 62
    18
420
        0
176
     1
 90
       50
176
     1
 90
        3
176
     1
 62
     5
420
      255
176
     1
290
     0
176
     1
 90
       50
176
     1
 90
       50
176
     1
 90
       50
176
     1
290
     0
176
     1
 90
       50
176
     1
 62
   256
176
     0
 40
1.0
176
     0
 90
        2
176
     1
  1
strokes_ogs.tif
176
     1
290
     0
176
     1
 40
1.0
176
     1
 40
1.0
176
     1
  0
VISUALSTYLE
  5
3F
102
{ACAD_REACTORS
330
2A
102
}
330
2A
100
AcDbVisualStyle
  2
Sketchy
 70
    24
177
     3
291
     0
 70
    58
 90
        1
176
     1
 90
        2
176
     1
 90
        2
176
     1
 90
        0
176
     1
 40
0.6
176
     1
 40
30.0
176
     1
 62
     7
420
 16777215
176
     1
 90
        2
176
     1
 90
        2
176
     1
 62
     7
176
     1
 62
     7
176
     1
 90
        1
176
     1
 90
        1
176
     1
 40
40.0
176
     1
 90
       11
176
     1
 62
     7
176
     1
 40
1.0
176
     1
 90
        1
176
     1
 90
        6
176
     1
 90
        2
176
     1
 62
     7
176
     1
 90
        6
176
     1
 90
        0
176
     1
 90
        0
176
     1
290
     0
176
     1
 90
        1
176
     1
 40
0.0
176
     1
 90
        0
176
     1
290
     0
176
     1
290
     1
176
     1
290
     1
176
     1
290
     0
176
     1
290
     0
176
     1
290
     0
176
     1
290
     0
176
     1
290
     0
176
     1
290
     0
176
     1
 90
       50
176
     1
 40
0.0
176
     1
 40
1.0
176
     1
 90
        0
176
     1
 62
    18
420
        0
176
     1
 90
       50
176
     1
 90
        3
176
     1
 62
     5
420
      255
176
     1
290
     0
176
     1
 90
       50
176
     1
 90
       50
176
     1
 90
       50
176
     1
290
     0
176
     1
 90
       50
176
     1
 62
   256
176
     0
 40
1.0
176
     0
 90
        2
176
     1
  1
strokes_ogs.tif
176
     1
290
     0
176
     1
 40
1.0
176
     1
 40
1.0
176
     1
  0
VISUALSTYLE
  5
37
102
{ACAD_REACTORS
330
2A
102
}
330
2A
100
AcDbVisualStyle
  2
Thicken
 70
    13
177
     3
291
     1
 70
    58
 90
        2
176
     1
 90
        2
176
     1
 90
        0
176
     1
 90
        0
176
     1
 40
0.6
176
     1
 40
30.0
176
     1
 62
     7
420
 16777215
176
     1
 90
        1
176
     1
 90
        4
176
     1
 62
     7
176
     1
 62
   257
176
     1
 90
        1
176
     1
 90
        1
176
     1
 40
1.0
176
     1
 90
       12
176
     1
 62
     7
176
     1
 40
1.0
176
     1
 90
        1
176
     1
 90
        6
176
     1
 90
        2
176
     1
 62
     7
176
     1
 90
        5
176
     1
 90
        0
176
     1
 90
        0
176
     1
290
     0
176
     1
 90
        1
176
     1
 40
0.0
176
     1
 90
        0
176
     1
290
     0
176
     1
290
     1
176
     1
290
     1
176
     1
290
     0
176
     1
290
     0
176
     1
290
     0
176
     1
290
     0
176
     1
290
     0
176
     1
290
     0
176
     1
 90
       50
176
     1
 40
0.0
176
     1
 40
1.0
176
     1
 90
        0
176
     1
 62
    18
420
        0
176
     1
 90
       50
176
     1
 90
        3
176
     1
 62
     5
420
      255
176
     1
290
     0
176
     1
 90
       50
176
     1
 90
       50
176
     1
 90
       50
176
     1
290
     0
176
     1
 90
       50
176
     1
 62
   256
176
     0
 40
1.0
176
     0
 90
        2
176
     1
  1
strokes_ogs.tif
176
     1
290
     0
176
     1
 40
1.0
176
     1
 40
1.0
176
     1
  0
VISUALSTYLE
  5
30
102
{ACAD_REACTORS
330
2A
102
}
330
2A
100
AcDbVisualStyle
  2
Wireframe
 70
     5
177
     3
291
     0
 70
    58
 90
        0
176
     1
 90
        2
176
     1
 90
        0
176
     1
 90
        0
176
     1
 40
0.6
176
     1
 40
30.0
176
     1
 62
     7
420
 16777215
176
     1
 90
        1
176
     1
 90
        4
176
     1
 62
     7
176
     1
 62
   257
176
     1
 90
        1
176
     1
 90
        1
176
     1
 40
1.0
176
     1
 90
        0
176
     1
 62
   257
176
     1
 40
1.0
176
     1
 90
        1
176
     1
 90
        6
176
     1
 90
        2
176
     1
 62
     7
176
     1
 90
        3
176
     1
 90
        0
176
     1
 90
        0
176
     1
290
     0
176
     1
 90
        1
176
     1
 40
0.0
176
     1
 90
        0
176
     1
290
     0
176
     1
290
     1
176
     1
290
     1
176
     1
290
     0
176
     1
290
     0
176
     1
290
     0
176
     1
290
     0
176
     1
290
     0
176
     1
290
     0
176
     1
 90
       50
176
     1
 40
0.0
176
     1
 40
1.0
176
     1
 90
        0
176
     1
 62
    18
420
        0
176
     1
 90
       50
176
     1
 90
        3
176
     1
 62
     5
420
      255
176
     1
290
     0
176
     1
 90
       50
176
     1
 90
       50
176
     1
 90
       50
176
     1
290
     0
176
     1
 90
       50
176
     1
 62
   256
176
     0
 40
1.0
176
     0
 90
        2
176
     1
  1
strokes_ogs.tif
176
     1
290
     0
176
     1
 40
1.0
176
     1
 40
1.0
176
     1
  0
VISUALSTYLE
  5
40
102
{ACAD_REACTORS
330
2A
102
}
330
2A
100
AcDbVisualStyle
  2
X-Ray
 70
    25
177
     3
291
     0
 70
    58
 90
        2
176
     1
 90
        2
176
     1
 90
        1
176
     1
 90
        1
176
     1
 40
0.5
176
     1
 40
30.0
176
     1
 62
     7
420
 16777215
176
     1
 90
        1
176
     1
 90
        0
176
     1
 62
     7
176
     1
 62
   257
176
     1
 90
        1
176
     1
 90
        1
176
     1
 40
1.0
176
     1
 90
        8
176
     1
 62
     7
176
     1
 40
1.0
176
     1
 90
        1
176
     1
 90
        6
176
     1
 90
        2
176
     1
 62
     7
176
     1
 90
        3
176
     1
 90
        0
176
     1
 90
        0
176
     1
290
     0
176
     1
 90
       13
176
     1
 40
0.0
176
     1
 90
        0
176
     1
290
     0
176
     1
290
     1
176
     1
290
     1
176
     1
290
     0
176
     1
290
     0
176
     1
290
     0
176
     1
290
     0
176
     1
290
     0
176
     1
290
     0
176
     1
 90
       50
176
     1
 40
0.0
176
     1
 40
1.0
176
     1
 90
        0
176
     1
 62
    18
420
        0
176
     1
 90
       50
176
     1
 90
        3
176
     1
 62
     5
420
      255
176
     1
290
     0
176
     1
 90
       50
176
     1
 90
       50
176
     1
 90
       50
176
     1
290
     0
176
     1
 90
       50
176
     1
 62
   256
176
     0
 40
1.0
176
     0
 90
        2
176
     1
  1
strokes_ogs.tif
176
     1
290
     0
176
     1
 40
1.0
176
     1
 40
1.0
176
     1
  0
DICTIONARYVAR
  5
8A
102
{ACAD_REACTORS
330
89
102
}
330
89
100
DictionaryVariables
280
     0
  1
1:1
  0
DICTIONARYVAR
  5
8F
102
{ACAD_REACTORS
330
89
102
}
330
89
100
DictionaryVariables
280
     0
  1
Standard
  0
DICTIONARYVAR
  5
8E
102
{ACAD_REACTORS
330
89
102
}
330
89
100
DictionaryVariables
280
     0
  1
Standard
  0
DICTIONARY
  5
8B
330
5A
100
AcDbDictionary
280
     1
281
     1
  3
ACAD_ROUNDTRIP_2008_TABLESTYLE_CELLSTYLEMAP
360
8C
  0
CELLSTYLEMAP
  5
8C
102
{ACAD_REACTORS
330
8B
102
}
330
8B
100
AcDbCellStyleMap
 90
        3
300
CELLSTYLE
  1
TABLEFORMAT_BEGIN
 90
        5
170
     1
 91
        0
 92
    32768
 62
   257
 93
        1
300
CONTENTFORMAT
  1
CONTENTFORMAT_BEGIN
 90
        0
 91
        0
 92
        4
 93
        0
300

 40
0.0
140
1.0
 94
        5
 62
     0
340
11
144
0.25
309
CONTENTFORMAT_END
171
     1
301
MARGIN
  1
CELLMARGIN_BEGIN
 40
0.06
 40
0.06
 40
0.06
 40
0.06
 40
0.06
 40
0.06
309
CELLMARGIN_END
 94
        6
 95
        1
302
GRIDFORMAT
  1
GRIDFORMAT_BEGIN
 90
        0
 91
        1
 62
     0
 92
       -2
340
14
 93
        0
 40
0.045
309
GRIDFORMAT_END
 95
        2
302
GRIDFORMAT
  1
GRIDFORMAT_BEGIN
 90
        0
 91
        1
 62
     0
 92
       -2
340
14
 93
        0
 40
0.045
309
GRIDFORMAT_END
 95
        4
302
GRIDFORMAT
  1
GRIDFORMAT_BEGIN
 90
        0
 91
        1
 62
     0
 92
       -2
340
14
 93
        0
 40
0.045
309
GRIDFORMAT_END
 95
        8
302
GRIDFORMAT
  1
GRIDFORMAT_BEGIN
 90
        0
 91
        1
 62
     0
 92
       -2
340
14
 93
        0
 40
0.045
309
GRIDFORMAT_END
 95
       16
302
GRIDFORMAT
  1
GRIDFORMAT_BEGIN
 90
        0
 91
        1
 62
     0
 92
       -2
340
14
 93
        0
 40
0.045
309
GRIDFORMAT_END
 95
       32
302
GRIDFORMAT
  1
GRIDFORMAT_BEGIN
 90
        0
 91
        1
 62
     0
 92
       -2
340
14
 93
        0
 40
0.045
309
GRIDFORMAT_END
309
TABLEFORMAT_END
  1
CELLSTYLE_BEGIN
 90
        1
 91
        1
300
_TITLE
309
CELLSTYLE_END
300
CELLSTYLE
  1
TABLEFORMAT_BEGIN
 90
        5
170
     1
 91
        0
 92
        0
 62
   257
 93
        1
300
CONTENTFORMAT
  1
CONTENTFORMAT_BEGIN
 90
        0
 91
        0
 92
        4
 93
        0
300

 40
0.0
140
1.0
 94
        5
 62
     0
340
11
144
0.18
309
CONTENTFORMAT_END
171
     1
301
MARGIN
  1
CELLMARGIN_BEGIN
 40
0.06
 40
0.06
 40
0.06
 40
0.06
 40
0.06
 40
0.06
309
CELLMARGIN_END
 94
        6
 95
        1
302
GRIDFORMAT
  1
GRIDFORMAT_BEGIN
 90
        0
 91
        1
 62
     0
 92
       -2
340
14
 93
        0
 40
0.045
309
GRIDFORMAT_END
 95
        2
302
GRIDFORMAT
  1
GRIDFORMAT_BEGIN
 90
        0
 91
        1
 62
     0
 92
       -2
340
14
 93
        0
 40
0.045
309
GRIDFORMAT_END
 95
        4
302
GRIDFORMAT
  1
GRIDFORMAT_BEGIN
 90
        0
 91
        1
 62
     0
 92
       -2
340
14
 93
        0
 40
0.045
309
GRIDFORMAT_END
 95
        8
302
GRIDFORMAT
  1
GRIDFORMAT_BEGIN
 90
        0
 91
        1
 62
     0
 92
       -2
340
14
 93
        0
 40
0.045
309
GRIDFORMAT_END
 95
       16
302
GRIDFORMAT
  1
GRIDFORMAT_BEGIN
 90
        0
 91
        1
 62
     0
 92
       -2
340
14
 93
        0
 40
0.045
309
GRIDFORMAT_END
 95
       32
302
GRIDFORMAT
  1
GRIDFORMAT_BEGIN
 90
        0
 91
        1
 62
     0
 92
       -2
340
14
 93
        0
 40
0.045
309
GRIDFORMAT_END
309
TABLEFORMAT_END
  1
CELLSTYLE_BEGIN
 90
        2
 91
        1
300
_HEADER
309
CELLSTYLE_END
300
CELLSTYLE
  1
TABLEFORMAT_BEGIN
 90
        5
170
     1
 91
        0
 92
        0
 62
   257
 93
        1
300
CONTENTFORMAT
  1
CONTENTFORMAT_BEGIN
 90
        0
 91
        0
 92
        4
 93
        0
300

 40
0.0
140
1.0
 94
        2
 62
     0
340
11
144
0.18
309
CONTENTFORMAT_END
171
     1
301
MARGIN
  1
CELLMARGIN_BEGIN
 40
0.06
 40
0.06
 40
0.06
 40
0.06
 40
0.06
 40
0.06
309
CELLMARGIN_END
 94
        6
 95
        1
302
GRIDFORMAT
  1
GRIDFORMAT_BEGIN
 90
        0
 91
        1
 62
     0
 92
       -2
340
14
 93
        0
 40
0.045
309
GRIDFORMAT_END
 95
        2
302
GRIDFORMAT
  1
GRIDFORMAT_BEGIN
 90
        0
 91
        1
 62
     0
 92
       -2
340
14
 93
        0
 40
0.045
309
GRIDFORMAT_END
 95
        4
302
GRIDFORMAT
  1
GRIDFORMAT_BEGIN
 90
        0
 91
        1
 62
     0
 92
       -2
340
14
 93
        0
 40
0.045
309
GRIDFORMAT_END
 95
        8
302
GRIDFORMAT
  1
GRIDFORMAT_BEGIN
 90
        0
 91
        1
 62
     0
 92
       -2
340
14
 93
        0
 40
0.045
309
GRIDFORMAT_END
 95
       16
302
GRIDFORMAT
  1
GRIDFORMAT_BEGIN
 90
        0
 91
        1
 62
     0
 92
       -2
340
14
 93
        0
 40
0.045
309
GRIDFORMAT_END
 95
       32
302
GRIDFORMAT
  1
GRIDFORMAT_BEGIN
 90
        0
 91
        1
 62
     0
 92
       -2
340
14
 93
        0
 40
0.045
309
GRIDFORMAT_END
309
TABLEFORMAT_END
  1
CELLSTYLE_BEGIN
 90
        3
 91
        2
300
_DATA
309
CELLSTYLE_END
  0
ENDSEC
  0
EOF
