  0
SECTION
  2
HEADER
  9
$ACADVER
  1
AC1027
  9
$ACADMAINTVER
 70
   105
  9
$DWGCODEPAGE
  3
ANSI_1252
  9
$LASTSAVEDBY
  1
Office Desk
  9
$REQUIREDVERSIONS
160
                 0
  9
$INSBASE
 10
0.0
 20
0.0
 30
0.0
  9
$EXTMIN
 10
-14.69501968503937
 20
-4.439405511811024
 30
0.0
  9
$EXTMAX
 10
-5.388622047244095
 20
10.70449606299213
 30
0.0
  9
$LIMMIN
 10
0.0
 20
0.0
  9
$LIMMAX
 10
12.0
 20
9.0
  9
$ORTHOMODE
 70
     0
  9
$REGENMODE
 70
     1
  9
$FILLMODE
 70
     1
  9
$QTEXTMODE
 70
     0
  9
$MIRRTEXT
 70
     1
  9
$LTSCALE
 40
1.0
  9
$ATTMODE
 70
     1
  9
$TEXTSIZE
 40
0.2
  9
$TRACEWID
 40
0.05
  9
$TEXTSTYLE
  7
Standard
  9
$CLAYER
  8
0
  9
$CELTYPE
  6
ByLayer
  9
$CECOLOR
 62
   256
  9
$CELTSCALE
 40
1.0
  9
$DISPSILH
 70
     0
  9
$DIMSCALE
 40
1.0
  9
$DIMASZ
 40
0.18
  9
$DIMEXO
 40
0.0625
  9
$DIMDLI
 40
0.38
  9
$DIMRND
 40
0.0
  9
$DIMDLE
 40
0.0
  9
$DIMEXE
 40
0.18
  9
$DIMTP
 40
0.0
  9
$DIMTM
 40
0.0
  9
$DIMTXT
 40
0.18
  9
$DIMCEN
 40
0.09
  9
$DIMTSZ
 40
0.0
  9
$DIMTOL
 70
     0
  9
$DIMLIM
 70
     0
  9
$DIMTIH
 70
     1
  9
$DIMTOH
 70
     1
  9
$DIMSE1
 70
     0
  9
$DIMSE2
 70
     0
  9
$DIMTAD
 70
     0
  9
$DIMZIN
 70
     0
  9
$DIMBLK
  1

  9
$DIMASO
 70
     1
  9
$DIMSHO
 70
     1
  9
$DIMPOST
  1

  9
$DIMAPOST
  1

  9
$DIMALT
 70
     0
  9
$DIMALTD
 70
     2
  9
$DIMALTF
 40
25.4
  9
$DIMLFAC
 40
1.0
  9
$DIMTOFL
 70
     0
  9
$DIMTVP
 40
0.0
  9
$DIMTIX
 70
     0
  9
$DIMSOXD
 70
     0
  9
$DIMSAH
 70
     0
  9
$DIMBLK1
  1

  9
$DIMBLK2
  1

  9
$DIMSTYLE
  2
Standard
  9
$DIMCLRD
 70
     0
  9
$DIMCLRE
 70
     0
  9
$DIMCLRT
 70
     0
  9
$DIMTFAC
 40
1.0
  9
$DIMGAP
 40
0.09
  9
$DIMJUST
 70
     0
  9
$DIMSD1
 70
     0
  9
$DIMSD2
 70
     0
  9
$DIMTOLJ
 70
     1
  9
$DIMTZIN
 70
     0
  9
$DIMALTZ
 70
     0
  9
$DIMALTTZ
 70
     0
  9
$DIMUPT
 70
     0
  9
$DIMDEC
 70
     4
  9
$DIMTDEC
 70
     4
  9
$DIMALTU
 70
     2
  9
$DIMALTTD
 70
     2
  9
$DIMTXSTY
  7
Standard
  9
$DIMAUNIT
 70
     0
  9
$DIMADEC
 70
     0
  9
$DIMALTRND
 40
0.0
  9
$DIMAZIN
 70
     0
  9
$DIMDSEP
 70
    46
  9
$DIMATFIT
 70
     3
  9
$DIMFRAC
 70
     0
  9
$DIMLDRBLK
  1

  9
$DIMLUNIT
 70
     2
  9
$DIMLWD
 70
    -2
  9
$DIMLWE
 70
    -2
  9
$DIMTMOVE
 70
     0
  9
$DIMFXL
 40
1.0
  9
$DIMFXLON
 70
     0
  9
$DIMJOGANG
 40
0.7853981633974483
  9
$DIMTFILL
 70
     0
  9
$DIMTFILLCLR
 70
     0
  9
$DIMARCSYM
 70
     0
  9
$DIMLTYPE
  6

  9
$DIMLTEX1
  6

  9
$DIMLTEX2
  6

  9
$DIMTXTDIRECTION
 70
     0
  9
$LUNITS
 70
     2
  9
$LUPREC
 70
     4
  9
$SKETCHINC
 40
0.1
  9
$FILLETRAD
 40
0.0
  9
$AUNITS
 70
     0
  9
$AUPREC
 70
     0
  9
$MENU
  1
.
  9
$ELEVATION
 40
0.0
  9
$PELEVATION
 40
0.0
  9
$THICKNESS
 40
0.0
  9
$LIMCHECK
 70
     0
  9
$CHAMFERA
 40
0.0
  9
$CHAMFERB
 40
0.0
  9
$CHAMFERC
 40
0.0
  9
$CHAMFERD
 40
0.0
  9
$SKPOLY
 70
     0
  9
$TDCREATE
 40
2461020.62467566
  9
$TDUCREATE
 40
2461020.395508993
  9
$TDUPDATE
 40
2461020.624675857
  9
$TDUUPDATE
 40
2461020.39550919
  9
$TDINDWG
 40
0.0000000116
  9
$TDUSRTIMER
 40
0.0000000116
  9
$USRTIMER
 70
     1
  9
$ANGBASE
 50
0.0
  9
$ANGDIR
 70
     0
  9
$PDMODE
 70
     0
  9
$PDSIZE
 40
0.0
  9
$PLINEWID
 40
0.0
  9
$SPLFRAME
 70
     0
  9
$SPLINETYPE
 70
     6
  9
$SPLINESEGS
 70
     8
  9
$HANDSEED
  5
91
  9
$SURFTAB1
 70
     6
  9
$SURFTAB2
 70
     6
  9
$SURFTYPE
 70
     6
  9
$SURFU
 70
     6
  9
$SURFV
 70
     6
  9
$UCSBASE
  2

  9
$UCSNAME
  2

  9
$UCSORG
 10
0.0
 20
0.0
 30
0.0
  9
$UCSXDIR
 10
1.0
 20
0.0
 30
0.0
  9
$UCSYDIR
 10
0.0
 20
1.0
 30
0.0
  9
$UCSORTHOREF
  2

  9
$UCSORTHOVIEW
 70
     0
  9
$UCSORGTOP
 10
0.0
 20
0.0
 30
0.0
  9
$UCSORGBOTTOM
 10
0.0
 20
0.0
 30
0.0
  9
$UCSORGLEFT
 10
0.0
 20
0.0
 30
0.0
  9
$UCSORGRIGHT
 10
0.0
 20
0.0
 30
0.0
  9
$UCSORGFRONT
 10
0.0
 20
0.0
 30
0.0
  9
$UCSORGBACK
 10
0.0
 20
0.0
 30
0.0
  9
$PUCSBASE
  2

  9
$PUCSNAME
  2

  9
$PUCSORG
 10
0.0
 20
0.0
 30
0.0
  9
$PUCSXDIR
 10
1.0
 20
0.0
 30
0.0
  9
$PUCSYDIR
 10
0.0
 20
1.0
 30
0.0
  9
$PUCSORTHOREF
  2

  9
$PUCSORTHOVIEW
 70
     0
  9
$PUCSORGTOP
 10
0.0
 20
0.0
 30
0.0
  9
$PUCSORGBOTTOM
 10
0.0
 20
0.0
 30
0.0
  9
$PUCSORGLEFT
 10
0.0
 20
0.0
 30
0.0
  9
$PUCSORGRIGHT
 10
0.0
 20
0.0
 30
0.0
  9
$PUCSORGFRONT
 10
0.0
 20
0.0
 30
0.0
  9
$PUCSORGBACK
 10
0.0
 20
0.0
 30
0.0
  9
$USERI1
 70
     0
  9
$USERI2
 70
     0
  9
$USERI3
 70
     0
  9
$USERI4
 70
     0
  9
$USERI5
 70
     0
  9
$USERR1
 40
0.0
  9
$USERR2
 40
0.0
  9
$USERR3
 40
0.0
  9
$USERR4
 40
0.0
  9
$USERR5
 40
0.0
  9
$WORLDVIEW
 70
     1
  9
$SHADEDGE
 70
     3
  9
$SHADEDIF
 70
    70
  9
$TILEMODE
 70
     1
  9
$MAXACTVP
 70
    64
  9
$PINSBASE
 10
0.0
 20
0.0
 30
0.0
  9
$PLIMCHECK
 70
     0
  9
$PEXTMIN
 10
1.000000000000000E+20
 20
1.000000000000000E+20
 30
1.000000000000000E+20
  9
$PEXTMAX
 10
-1.000000000000000E+20
 20
-1.000000000000000E+20
 30
-1.000000000000000E+20
  9
$PLIMMIN
 10
0.0
 20
0.0
  9
$PLIMMAX
 10
12.0
 20
9.0
  9
$UNITMODE
 70
     0
  9
$VISRETAIN
 70
     1
  9
$PLINEGEN
 70
     0
  9
$PSLTSCALE
 70
     1
  9
$TREEDEPTH
 70
  3020
  9
$CMLSTYLE
  2
Standard
  9
$CMLJUST
 70
     0
  9
$CMLSCALE
 40
1.0
  9
$PROXYGRAPHICS
 70
     1
  9
$MEASUREMENT
 70
     0
  9
$CELWEIGHT
370
    -1
  9
$ENDCAPS
280
     0
  9
$JOINSTYLE
280
     0
  9
$LWDISPLAY
290
     0
  9
$INSUNITS
 70
     1
  9
$HYPERLINKBASE
  1

  9
$STYLESHEET
  1

  9
$XEDIT
290
     1
  9
$CEPSNTYPE
380
     0
  9
$PSTYLEMODE
290
     1
  9
$FINGERPRINTGUID
  2
{3e7f31b6-dbd3-446c-8a92-329a995b216e}
  9
$VERSIONGUID
  2
{FAEB1C32-E019-11D5-929B-00C0DF256EC4}
  9
$EXTNAMES
290
     1
  9
$PSVPSCALE
 40
0.0
  9
$OLESTARTUP
290
     0
  9
$SORTENTS
280
   127
  9
$INDEXCTL
280
     0
  9
$HIDETEXT
280
     1
  9
$XCLIPFRAME
280
     2
  9
$HALOGAP
280
     0
  9
$OBSCOLOR
 70
   257
  9
$OBSLTYPE
280
     0
  9
$INTERSECTIONDISPLAY
280
     0
  9
$INTERSECTIONCOLOR
 70
   257
  9
$DIMASSOC
280
     2
  9
$PROJECTNAME
  1

  9
$CAMERADISPLAY
290
     0
  9
$LENSLENGTH
 40
50.0
  9
$CAMERAHEIGHT
 40
0.0
  9
$STEPSPERSEC
 40
2.0
  9
$STEPSIZE
 40
6.0
  9
$3DDWFPREC
 40
2.0
  9
$PSOLWIDTH
 40
0.25
  9
$PSOLHEIGHT
 40
4.0
  9
$LOFTANG1
 40
1.570796326794897
  9
$LOFTANG2
 40
1.570796326794897
  9
$LOFTMAG1
 40
0.0
  9
$LOFTMAG2
 40
0.0
  9
$LOFTPARAM
 70
     7
  9
$LOFTNORMALS
280
     1
  9
$LATITUDE
 40
37.795
  9
$LONGITUDE
 40
-122.394
  9
$NORTHDIRECTION
 40
0.0
  9
$TIMEZONE
 70
 -8000
  9
$LIGHTGLYPHDISPLAY
280
     1
  9
$TILEMODELIGHTSYNCH
280
     1
  9
$CMATERIAL
347
44
  9
$SOLIDHIST
280
     0
  9
$SHOWHIST
280
     1
  9
$DWFFRAME
280
     2
  9
$DGNFRAME
280
     2
  9
$REALWORLDSCALE
290
     1
  9
$INTERFERECOLOR
 62
   256
  9
$CSHADOW
280
     0
  9
$SHADOWPLANELOCATION
 40
0.0
  0
ENDSEC
  0
SECTION
  2
CLASSES
  0
CLASS
  1
ACDBDICTIONARYWDFLT
  2
AcDbDictionaryWithDefault
  3
ObjectDBX Classes
 90
        0
 91
        3
280
     0
281
     0
  0
CLASS
  1
VISUALSTYLE
  2
AcDbVisualStyle
  3
ObjectDBX Classes
 90
     4095
 91
        3
280
     0
281
     0
  0
CLASS
  1
MATERIAL
  2
AcDbMaterial
  3
ObjectDBX Classes
 90
     1153
 91
        3
280
     0
281
     0
  0
CLASS
  1
SCALE
  2
AcDbScale
  3
ObjectDBX Classes
 90
     1153
 91
        3
280
     0
281
     0
  0
CLASS
  1
TABLESTYLE
  2
AcDbTableStyle
  3
ObjectDBX Classes
 90
     4095
 91
        3
280
     0
281
     0
  0
CLASS
  1
MLEADERSTYLE
  2
AcDbMLeaderStyle
  3
ACDB_MLEADERSTYLE_CLASS
 90
     4095
 91
        3
280
     0
281
     0
  0
CLASS
  1
SUN
  2
AcDbSun
  3
SCENEOE
 90
     1153
 91
        3
280
     0
281
     0
  0
CLASS
  1
DICTIONARYVAR
  2
AcDbDictionaryVar
  3
ObjectDBX Classes
 90
        0
 91
        3
280
     0
281
     0
  0
CLASS
  1
CELLSTYLEMAP
  2
AcDbCellStyleMap
  3
ObjectDBX Classes
 90
     1152
 91
        3
280
     0
281
     0
  0
ENDSEC
  0
SECTION
  2
TABLES
  0
TABLE
  2
VPORT
  5
8
330
0
100
AcDbSymbolTable
 70
     1
  0
VPORT
  5
29
330
8
100
AcDbSymbolTableRecord
100
AcDbViewportTableRecord
  2
*Active
 70
     0
 10
0.0
 20
0.0
 11
1.0
 21
1.0
 12
10.42990654205607
 22
4.5
 13
0.0
 23
0.0
 14
0.5
 24
0.5
 15
0.5
 25
0.5
 16
0.0
 26
0.0
 36
1.0
 17
0.0
 27
0.0
 37
0.0
 40
9.0
 41
1.972972972850329
 42
50.0
 43
0.0
 44
0.0
 50
0.0
 51
0.0
 71
     0
 72
   100
 73
     1
 74
     3
 75
     0
 76
     0
 77
     0
 78
     0
281
     0
 65
     1
110
0.0
120
0.0
130
0.0
111
1.0
121
0.0
131
0.0
112
0.0
122
1.0
132
0.0
 79
     0
146
0.0
348
2F
 60
     3
 61
     5
292
     1
282
     1
141
0.0
142
0.0
 63
   250
361
5D
  0
ENDTAB
  0
TABLE
  2
LTYPE
  5
5
330
0
100
AcDbSymbolTable
 70
     1
  0
LTYPE
  5
14
330
5
100
AcDbSymbolTableRecord
100
AcDbLinetypeTableRecord
  2
ByBlock
 70
     0
  3

 72
    65
 73
     0
 40
0.0
  0
LTYPE
  5
15
330
5
100
AcDbSymbolTableRecord
100
AcDbLinetypeTableRecord
  2
ByLayer
 70
     0
  3

 72
    65
 73
     0
 40
0.0
  0
LTYPE
  5
16
330
5
100
AcDbSymbolTableRecord
100
AcDbLinetypeTableRecord
  2
Continuous
 70
     0
  3
Solid line
 72
    65
 73
     0
 40
0.0
  0
ENDTAB
  0
TABLE
  2
LAYER
  5
2
330
0
100
AcDbSymbolTable
 70
     2
  0
LAYER
  5
10
330
2
100
AcDbSymbolTableRecord
100
AcDbLayerTableRecord
  2
0
 70
     0
 62
     7
  6
Continuous
370
    -3
390
F
347
46
348
0
  0
LAYER
  5
5F
330
2
100
AcDbSymbolTableRecord
100
AcDbLayerTableRecord
  2
Layer 1
 70
     0
 62
     7
  6
Continuous
370
    -3
390
F
347
46
348
0
  0
ENDTAB
  0
TABLE
  2
STYLE
  5
3
330
0
100
AcDbSymbolTable
 70
     1
  0
STYLE
  5
11
330
3
100
AcDbSymbolTableRecord
100
AcDbTextStyleTableRecord
  2
Standard
 70
     0
 40
0.0
 41
1.0
 50
0.0
 71
     0
 42
0.2
  3
txt
  4

  0
ENDTAB
  0
TABLE
  2
VIEW
  5
6
330
0
100
AcDbSymbolTable
 70
     0
  0
ENDTAB
  0
TABLE
  2
UCS
  5
7
330
0
100
AcDbSymbolTable
 70
     0
  0
ENDTAB
  0
TABLE
  2
APPID
  5
9
330
0
100
AcDbSymbolTable
 70
     2
  0
APPID
  5
12
330
9
100
AcDbSymbolTableRecord
100
AcDbRegAppTableRecord
  2
ACAD
 70
     0
  0
APPID
  5
5E
330
9
100
AcDbSymbolTableRecord
100
AcDbRegAppTableRecord
  2
ODA
 70
     0
  0
ENDTAB
  0
TABLE
  2
DIMSTYLE
  5
A
330
0
100
AcDbSymbolTable
 70
     1
100
AcDbDimStyleTable
  0
DIMSTYLE
105
27
330
A
100
AcDbSymbolTableRecord
100
AcDbDimStyleTableRecord
  2
Standard
 70
     0
178
     0
340
11
  0
ENDTAB
  0
TABLE
  2
BLOCK_RECORD
  5
1
330
0
100
AcDbSymbolTable
 70
     1
  0
BLOCK_RECORD
  5
1F
330
1
100
AcDbSymbolTableRecord
100
AcDbBlockTableRecord
  2
*Model_Space
340
22
 70
     0
280
     1
281
     0
  0
BLOCK_RECORD
  5
1B
330
1
100
AcDbSymbolTableRecord
100
AcDbBlockTableRecord
  2
*Paper_Space
340
1E
 70
     0
280
     1
281
     0
  0
BLOCK_RECORD
  5
23
330
1
100
AcDbSymbolTableRecord
100
AcDbBlockTableRecord
  2
*Paper_Space0
340
26
 70
     0
280
     1
281
     0
  0
ENDTAB
  0
ENDSEC
  0
SECTION
  2
BLOCKS
  0
BLOCK
  5
20
330
1F
100
AcDbEntity
  8
0
100
AcDbBlockBegin
  2
*Model_Space
 70
     0
 10
0.0
 20
0.0
 30
0.0
  3
*Model_Space
  1

  0
ENDBLK
  5
21
330
1F
100
AcDbEntity
  8
0
100
AcDbBlockEnd
  0
BLOCK
  5
1C
330
1B
100
AcDbEntity
 67
     1
  8
0
100
AcDbBlockBegin
  2
*Paper_Space
 70
     0
 10
0.0
 20
0.0
 30
0.0
  3
*Paper_Space
  1

  0
ENDBLK
  5
1D
330
1B
100
AcDbEntity
 67
     1
  8
0
100
AcDbBlockEnd
  0
BLOCK
  5
24
330
23
100
AcDbEntity
  8
0
100
AcDbBlockBegin
  2
*Paper_Space0
 70
     0
 10
0.0
 20
0.0
 30
0.0
  3
*Paper_Space0
  1

  0
ENDBLK
  5
25
330
23
100
AcDbEntity
  8
0
100
AcDbBlockEnd
  0
ENDSEC
  0
SECTION
  2
ENTITIES
  0
LWPOLYLINE
  5
60
330
1F
100
AcDbEntity
  8
Layer 1
 62
   250
370
     9
100
AcDbPolyline
 90
        5
 70
     1
 43
0.0
 10
-14.69351968503937
 20
-4.437901574803149
 10
-5.390125984251968
 20
-4.437901574803149
 10
-5.390125984251968
 20
10.70299606299213
 10
-14.69351968503937
 20
10.70299606299213
 10
-14.69351968503937
 20
-4.437901574803149
  0
LWPOLYLINE
  5
61
330
1F
100
AcDbEntity
  8
Layer 1
 62
     7
370
     9
100
AcDbPolyline
 90
      112
 70
     1
 43
0.0
 10
-10.81540157480315
 20
8.876968503937007
 10
-10.64247244094488
 20
8.873165354330709
 10
-10.48140551181102
 20
8.862251968503937
 10
-10.33565354330709
 20
8.844984251968503
 10
-10.20866535433071
 20
8.822114173228346
 10
-10.10388976377953
 20
8.794397637795276
 10
-10.02477952755905
 20
8.762586614173228
 10
-9.97478346456693
 20
8.727437007874016
 10
-9.957350393700787
 20
8.6896968503937
 10
-9.957350393700787
 20
8.403724409448818
 10
-7.996618110236221
 20
8.103507874015747
 10
-7.969188976377953
 20
8.10011811023622
 10
-7.943641732283464
 20
8.090405511811024
 10
-7.920523622047244
 20
8.075027559055117
 10
-7.900381889763779
 20
8.054669291338582
 10
-7.883763779527559
 20
8.029988188976377
 10
-7.871212598425197
 20
8.001661417322834
 10
-7.863283464566929
 20
7.97036220472441
 10
-7.86051968503937
 20
7.936755905511811
 10
-7.863283464566929
 20
7.90313779527559
 10
-7.871212598425197
 20
7.871826771653543
 10
-7.883763779527559
 20
7.843496062992126
 10
-7.900381889763779
 20
7.818811023622048
 10
-7.920523622047244
 20
7.798440944881889
 10
-7.943641732283464
 20
7.783062992125984
 10
-7.969188976377953
 20
7.773346456692914
 10
-7.996618110236221
 20
7.769956692913386
 10
-8.005614173228347
 20
7.770318897637796
 10
-8.014456692913386
 20
7.771385826771653
 10
-8.023129921259843
 20
7.773133858267717
 10
-8.031614173228347
 20
7.775543307086614
 10
-9.957350393700787
 20
8.082767716535432
 10
-9.957350393700787
 20
7.875606299212598
 10
-9.96024409448819
 20
7.852551181102362
 10
-9.96834251968504
 20
7.832956692913386
 10
-9.980755905511812
 20
7.816444881889764
 10
-9.996602362204724
 20
7.802641732283464
 10
-10.01499606299213
 20
7.791169291338583
 10
-10.03505511811024
 20
7.781653543307087
 10
-10.05589763779528
 20
7.773724409448818
 10
-10.07663779527559
 20
7.767
 10
-10.07663779527559
 20
7.69909842519685
 10
-10.04975984251969
 20
7.688413385826772
 10
-10.02603937007874
 20
7.677318897637795
 10
-10.00560236220472
 20
7.665842519685039
 10
-9.988582677165354
 20
7.65401968503937
 10
-9.97511811023622
 20
7.641870078740157
 10
-9.96533464566929
 20
7.629425196850394
 10
-9.959370078740157
 20
7.616720472440945
 10
-9.957350393700787
 20
7.603775590551181
 10
-9.957350393700787
 20
-2.416610236220472
 10
-9.933074803149607
 20
-2.432118110236221
 10
-9.911696850393701
 20
-2.448110236220472
 10
-9.893326771653543
 20
-2.464551181102362
 10
-9.87805905511811
 20
-2.481413385826772
 10
-9.866007874015748
 20
-2.498665354330709
 10
-9.857267716535434
 20
-2.516267716535433
 10
-9.851948818897638
 20
-2.534200787401575
 10
-9.850153543307087
 20
-2.55242125984252
 10
-9.850153543307087
 20
-2.697570866141732
 10
-9.885173228346456
 20
-2.782283464566929
 10
-9.97884251968504
 20
-2.849629921259842
 10
-10.11406692913386
 20
-2.901492125984252
 10
-10.27375984251968
 20
-2.939728346456693
 10
-10.44083070866142
 20
-2.966216535433071
 10
-10.59818503937008
 20
-2.982818897637795
 10
-10.72874015748032
 20
-2.991409448818898
 10
-10.81540157480315
 20
-2.993858267716536
 10
-10.99934251968504
 20
-2.988484251968504
 10
-11.17158661417323
 20
-2.973027559055118
 10
-11.32886220472441
 20
-2.948496062992126
 10
-11.46791338582677
 20
-2.915889763779528
 10
-11.58546850393701
 20
-2.876208661417323
 10
-11.67826771653543
 20
-2.83046062992126
 10
-11.74304724409449
 20
-2.779641732283465
 10
-11.77654330708661
 20
-2.724759842519685
 10
-11.78061811023622
 20
-2.55242125984252
 10
-11.77882283464567
 20
-2.534200787401575
 10
-11.77350393700787
 20
-2.516275590551181
 10
-11.76476377952756
 20
-2.498673228346457
 10
-11.7527125984252
 20
-2.481425196850394
 10
-11.73745275590551
 20
-2.464566929133858
 10
-11.71908267716536
 20
-2.448122047244095
 10
-11.69771653543307
 20
-2.432125984251968
 10
-11.67344881889764
 20
-2.416610236220472
 10
-11.67344881889764
 20
7.603775590551181
 10
-11.67072440944882
 20
7.618807086614173
 10
-11.66268897637795
 20
7.633511811023622
 10
-11.64955118110236
 20
7.64784251968504
 10
-11.63151181102362
 20
7.661759842519685
 10
-11.60878346456693
 20
7.675216535433071
 10
-11.58156692913386
 20
7.688169291338583
 10
-11.55007086614173
 20
7.700574803149606
 10
-11.51450393700787
 20
7.71238188976378
 10
-11.51450393700787
 20
7.767
 10
-11.55006299212598
 20
7.778799212598425
 10
-11.58155511811024
 20
7.791192913385827
 10
-11.60876771653543
 20
7.804141732283465
 10
-11.6315
 20
7.81759842519685
 10
-11.64954330708661
 20
7.831515748031496
 10
-11.66268503937008
 20
7.845854330708661
 10
-11.67072440944882
 20
7.860566929133858
 10
-11.67344881889764
 20
7.875606299212598
 10
-11.67344881889764
 20
8.6896968503937
 10
-11.6560157480315
 20
8.727437007874016
 10
-11.60601968503937
 20
8.762586614173228
 10
-11.52690551181102
 20
8.794397637795276
 10
-11.42212992125984
 20
8.822114173228346
 10
-11.29514173228347
 20
8.844984251968503
 10
-11.14938976377953
 20
8.862251968503937
 10
-10.98832677165354
 20
8.873165354330709
 10
-10.81540157480315
 20
8.876968503937007
  0
LWPOLYLINE
  5
62
330
1F
100
AcDbEntity
  8
Layer 1
 62
     7
370
    18
100
AcDbPolyline
 90
        9
 70
     0
 43
0.0
 10
-8.015472440944881
 20
8.07646062992126
 10
-8.022196850393701
 20
8.073515748031497
 10
-8.039314960629921
 20
8.064153543307087
 10
-8.062240157480314
 20
8.047594488188976
 10
-8.08638188976378
 20
8.023047244094489
 10
-8.107161417322835
 20
7.989732283464567
 10
-8.119984251968503
 20
7.946858267716536
 10
-8.120271653543307
 20
7.893645669291338
 10
-8.103433070866142
 20
7.829303149606299
  0
LWPOLYLINE
  5
63
330
1F
100
AcDbEntity
  8
Layer 1
 62
     7
370
    18
100
AcDbPolyline
 90
       34
 70
     1
 43
0.0
 10
-10.13426771653543
 20
8.108153543307086
 10
-10.12343307086614
 20
8.098649606299212
 10
-10.11368110236221
 20
8.087767716535433
 10
-10.10512598425197
 20
8.075633858267716
 10
-10.0978779527559
 20
8.062370078740157
 10
-10.09204724409449
 20
8.048110236220472
 10
-10.08774803149606
 20
8.032976377952757
 10
-10.08508661417323
 20
8.017094488188976
 10
-10.08417322834646
 20
8.000590551181102
 10
-10.08649606299213
 20
7.974389763779527
 10
-10.09315354330709
 20
7.949984251968504
 10
-10.10369291338583
 20
7.927905511811024
 10
-10.11765354330709
 20
7.908665354330709
 10
-10.13457480314961
 20
7.892791338582677
 10
-10.15399606299213
 20
7.880807086614174
 10
-10.17546062992126
 20
7.873232283464567
 10
-10.19850787401575
 20
7.870590551181103
 10
-10.22155511811024
 20
7.873232283464567
 10
-10.24301968503937
 20
7.880807086614174
 10
-10.26244094488189
 20
7.892791338582677
 10
-10.27936220472441
 20
7.908665354330709
 10
-10.29332283464567
 20
7.927905511811024
 10
-10.30386220472441
 20
7.949984251968504
 10
-10.31051968503937
 20
7.974389763779527
 10
-10.31284251968504
 20
8.000590551181102
 10
-10.31127165354331
 20
8.022181102362206
 10
-10.30673228346457
 20
8.042629921259843
 10
-10.29947244094488
 20
8.06164566929134
 10
-10.28975196850394
 20
8.07894094488189
 10
-10.27781496062992
 20
8.094224409448818
 10
-10.26392125984252
 20
8.107216535433071
 10
-10.24832283464567
 20
8.11762598425197
 10
-10.23126771653543
 20
8.125161417322834
 10
-10.13426771653543
 20
8.108153543307086
  0
LWPOLYLINE
  5
64
330
1F
100
AcDbEntity
  8
Layer 1
 62
     7
370
     9
100
AcDbPolyline
 90
       45
 70
     0
 43
0.0
 10
-10.01506692913386
 20
6.642834645669291
 10
-10.01317322834646
 20
6.636125984251969
 10
-10.00541732283465
 20
6.618122047244094
 10
-9.988712598425197
 20
6.592023622047244
 10
-9.959952755905512
 20
6.561027559055118
 10
-9.91603937007874
 20
6.528322834645669
 10
-9.853877952755905
 20
6.497106299212598
 10
-9.770370078740157
 20
6.470574803149606
 10
-9.662417322834646
 20
6.451925196850394
 10
-9.487767716535433
 20
6.427185039370078
 10
-9.228425196850393
 20
6.384594488188976
 10
-8.917669291338584
 20
6.330677165354331
 10
-8.588783464566928
 20
6.271944881889763
 10
-8.275047244094488
 20
6.214917322834646
 10
-8.009748031496063
 20
6.166114173228347
 10
-7.826157480314961
 20
6.132055118110237
 10
-7.757566929133858
 20
6.119251968503937
 10
-7.718429133858268
 20
6.114208661417323
 10
-7.612826771653543
 20
6.094988188976378
 10
-7.458468503937008
 20
6.05546062992126
 10
-7.273062992125984
 20
5.989496062992126
 10
-7.074322834645669
 20
5.890956692913385
 10
-6.879956692913386
 20
5.753720472440945
 10
-6.707673228346457
 20
5.571645669291339
 10
-6.575188976377953
 20
5.338606299212598
 10
-6.575188976377953
 20
5.255165354330709
 10
-7.367633858267716
 20
4.93701968503937
 10
-7.407629921259843
 20
4.963889763779528
 10
-7.414110236220472
 20
4.980271653543307
 10
-7.433696850393701
 20
5.023629921259842
 10
-7.466590551181103
 20
5.085291338582677
 10
-7.513
 20
5.156582677165354
 10
-7.573133858267717
 20
5.228830708661417
 10
-7.6471968503937
 20
5.293354330708661
 10
-7.735397637795276
 20
5.34148031496063
 10
-7.83794094488189
 20
5.364535433070866
 10
-10.1600905511811
 20
5.799236220472441
 10
-10.16561023622047
 20
5.800110236220473
 10
-10.1805905511811
 20
5.803200787401575
 10
-10.20264566929134
 20
5.8091968503937
 10
-10.22940551181102
 20
5.818791338582677
 10
-10.25848818897638
 20
5.832681102362205
 10
-10.28751968503937
 20
5.851551181102362
 10
-10.31411811023622
 20
5.876102362204724
 10
-10.33591338582677
 20
5.907023622047245
  0
LWPOLYLINE
  5
65
330
1F
100
AcDbEntity
  8
Layer 1
 62
     7
370
     9
100
AcDbPolyline
 90
       35
 70
     1
 43
0.0
 10
-7.385594488188977
 20
4.929818897637795
 10
-7.047492125984252
 20
4.425728346456693
 10
-7.045681102362205
 20
4.423657480314961
 10
-7.040385826771653
 20
4.418405511811024
 10
-7.031814960629921
 20
4.411417322834645
 10
-7.020173228346457
 20
4.404145669291339
 10
-7.005665354330708
 20
4.398023622047244
 10
-6.9885
 20
4.394507874015748
 10
-6.96888188976378
 20
4.39503937007874
 10
-6.947015748031496
 20
4.40105905511811
 10
-6.900582677165354
 20
4.419354330708662
 10
-6.816188976377953
 20
4.452236220472441
 10
-6.707444881889764
 20
4.494456692913386
 10
-6.587956692913385
 20
4.540771653543307
 10
-6.471334645669291
 20
4.585929133858268
 10
-6.371185039370078
 20
4.624685039370079
 10
-6.301118110236221
 20
4.651783464566929
 10
-6.274736220472441
 20
4.661984251968504
 10
-6.272185039370079
 20
4.663606299212598
 10
-6.265590551181102
 20
4.668267716535433
 10
-6.256535433070866
 20
4.675673228346457
 10
-6.246598425196851
 20
4.685511811023622
 10
-6.237362204724409
 20
4.697484251968504
 10
-6.230413385826772
 20
4.711291338582678
 10
-6.227326771653543
 20
4.726625984251968
 10
-6.229692913385827
 20
4.743188976377953
 10
-6.24794094488189
 20
4.778622047244094
 10
-6.286732283464567
 20
4.843708661417323
 10
-6.338984251968504
 20
4.927850393700788
 10
-6.397618110236221
 20
5.020452755905512
 10
-6.455547244094488
 20
5.110921259842519
 10
-6.505692913385826
 20
5.18865748031496
 10
-6.540972440944882
 20
5.243070866141732
 10
-6.554307086614173
 20
5.263562992125984
 10
-7.385594488188977
 20
4.929818897637795
  0
LWPOLYLINE
  5
66
330
1F
100
AcDbEntity
  8
Layer 1
 62
     7
370
    18
100
AcDbPolyline
 90
        9
 70
     0
 43
0.0
 10
-11.68796062992126
 20
8.649826771653544
 10
-11.6543188976378
 20
8.638606299212599
 10
-11.55814566929134
 20
8.61071653543307
 10
-11.40656692913386
 20
8.574818897637796
 10
-11.2066968503937
 20
8.539582677165354
 10
-10.96566929133858
 20
8.513665354330708
 10
-10.69059842519685
 20
8.505728346456692
 10
-10.38861417322835
 20
8.524437007874015
 10
-10.06683858267717
 20
8.578452755905511
  0
LWPOLYLINE
  5
67
330
1F
100
AcDbEntity
  8
Layer 1
 62
     7
370
    18
100
AcDbPolyline
 90
        9
 70
     0
 43
0.0
 10
-11.48907480314961
 20
7.701314960629921
 10
-11.45399212598425
 20
7.695657480314961
 10
-11.35678346456693
 20
7.68192125984252
 10
-11.2095
 20
7.664956692913385
 10
-11.0241968503937
 20
7.649602362204725
 10
-10.81292913385827
 20
7.640716535433071
 10
-10.58774803149606
 20
7.643137795275591
 10
-10.3607125984252
 20
7.661724409448819
 10
-10.14387795275591
 20
7.701314960629921
  0
LWPOLYLINE
  5
68
330
1F
100
AcDbEntity
  8
Layer 1
 62
     7
370
    18
100
AcDbPolyline
 90
       17
 70
     0
 43
0.0
 10
-11.63155511811024
 20
7.515314960629921
 10
-11.6169094488189
 20
7.508661417322835
 10
-11.57387795275591
 20
7.491106299212598
 10
-11.50384251968504
 20
7.466248031496063
 10
-11.40816535433071
 20
7.437685039370079
 10
-11.28822047244094
 20
7.409011811023622
 10
-11.14538582677165
 20
7.383838582677165
 10
-10.98102362204724
 20
7.365755905511811
 10
-10.79650787401575
 20
7.358366141732284
 10
-10.61915354330709
 20
7.360838582677165
 10
-10.4728779527559
 20
7.369251968503937
 10
-10.35396456692913
 20
7.382578740157481
 10
-10.25870472440945
 20
7.399787401574804
 10
-10.18337795275591
 20
7.419854330708661
 10
-10.12426771653543
 20
7.441740157480315
 10
-10.07766141732283
 20
7.46442125984252
 10
-10.03983858267716
 20
7.486866141732284
  0
LWPOLYLINE
  5
69
330
1F
100
AcDbEntity
  8
Layer 1
 62
     7
370
    18
100
AcDbPolyline
 90
        9
 70
     0
 43
0.0
 10
-11.74835826771653
 20
-2.551838582677165
 10
-11.55854724409449
 20
-2.627047244094488
 10
-11.32794881889764
 20
-2.681472440944882
 10
-11.06988188976378
 20
-2.714838582677165
 10
-10.7976811023622
 20
-2.72688188976378
 10
-10.52466535433071
 20
-2.717330708661417
 10
-10.26416535433071
 20
-2.685913385826772
 10
-10.02950393700787
 20
-2.632366141732283
 10
-9.834011811023622
 20
-2.556417322834646
  0
LWPOLYLINE
  5
6A
330
1F
100
AcDbEntity
  8
Layer 1
 62
     7
370
    18
100
AcDbPolyline
 90
        9
 70
     0
 43
0.0
 10
-11.5576811023622
 20
-2.452775590551181
 10
-11.41603937007874
 20
-2.502543307086614
 10
-11.23642125984252
 20
-2.540307086614173
 10
-11.0315905511811
 20
-2.56496062992126
 10
-10.81431496062992
 20
-2.575397637795275
 10
-10.59736614173228
 20
-2.570515748031496
 10
-10.39350393700787
 20
-2.549204724409449
 10
-10.21550787401575
 20
-2.510358267716535
 10
-10.07613385826772
 20
-2.452874015748031
  0
LWPOLYLINE
  5
6B
330
1F
100
AcDbEntity
  8
Layer 1
 62
     7
370
    18
100
AcDbPolyline
 90
        2
 70
     0
 43
0.0
 10
-12.71448031496063
 20
8.689688976377953
 10
-12.71448031496063
 20
-2.948507874015748
  0
LWPOLYLINE
  5
6C
330
1F
100
AcDbEntity
  8
Layer 1
 62
     7
370
    18
100
AcDbPolyline
 90
        2
 70
     0
 43
0.0
 10
-11.81893700787402
 20
-3.244326771653543
 10
-9.811811023622047
 20
-3.244326771653543
  0
LWPOLYLINE
  5
6D
330
1F
100
AcDbEntity
  8
Layer 1
 62
     7
370
    18
100
AcDbPolyline
 90
        2
 70
     0
 43
0.0
 10
-11.81895275590551
 20
-3.382625984251968
 10
-11.81895275590551
 20
-3.106047244094488
  0
LWPOLYLINE
  5
6E
330
1F
100
AcDbEntity
  8
Layer 1
 62
     7
370
    18
100
AcDbPolyline
 90
        2
 70
     0
 43
0.0
 10
-12.85277952755906
 20
8.689692913385827
 10
-12.5761968503937
 20
8.689692913385827
  0
LWPOLYLINE
  5
6F
330
1F
100
AcDbEntity
  8
Layer 1
 62
     7
370
    18
100
AcDbPolyline
 90
        2
 70
     0
 43
0.0
 10
-9.81181496062992
 20
-3.382625984251968
 10
-9.81181496062992
 20
-3.106047244094488
  0
LWPOLYLINE
  5
70
330
1F
100
AcDbEntity
  8
Layer 1
 62
     7
370
    18
100
AcDbPolyline
 90
        2
 70
     0
 43
0.0
 10
-12.85277952755906
 20
-2.948496062992126
 10
-12.5761968503937
 20
-2.948496062992126
  0
LWPOLYLINE
  5
71
330
1F
100
AcDbEntity
  8
Layer 1
 62
     7
370
     9
100
AcDbPolyline
 90
        4
 70
     1
 43
0.0
 10
-10.92707086614173
 20
-3.681228346456693
 10
-10.92707086614173
 20
-3.963562992125984
 10
-11.11387007874016
 20
-3.963562992125984
 10
-10.92707086614173
 20
-3.681228346456693
  0
LWPOLYLINE
  5
72
330
1F
100
AcDbEntity
  8
Layer 1
 62
     7
370
     9
100
AcDbPolyline
 90
       11
 70
     1
 43
0.0
 10
-10.87463385826772
 20
-4.015287401574803
 10
-10.81285039370079
 20
-4.015287401574803
 10
-10.81285039370079
 20
-3.963562992125984
 10
-10.87463385826772
 20
-3.963562992125984
 10
-10.87534645669291
 20
-3.626622047244095
 10
-10.94575590551181
 20
-3.626622047244095
 10
-11.20296456692913
 20
-4.015287401574803
 10
-10.92707086614173
 20
-4.015287401574803
 10
-10.92707086614173
 20
-4.115153543307087
 10
-10.87463385826772
 20
-4.115153543307087
 10
-10.87463385826772
 20
-4.015287401574803
  0
LWPOLYLINE
  5
73
330
1F
100
AcDbEntity
  8
Layer 1
 62
     7
370
     9
100
AcDbPolyline
 90
       87
 70
     1
 43
0.0
 10
-10.73383464566929
 20
-4.115153543307087
 10
-10.38971653543307
 20
-4.115153543307087
 10
-10.38971653543307
 20
-4.064850393700787
 10
-10.6124094488189
 20
-4.064850393700787
 10
-10.44215748031496
 20
-3.896027559055118
 10
-10.43104330708661
 20
-3.883877952755905
 10
-10.4214094488189
 20
-3.871118110236221
 10
-10.41325984251968
 20
-3.857751968503937
 10
-10.4065905511811
 20
-3.843775590551181
 10
-10.40140157480315
 20
-3.829192913385827
 10
-10.3976968503937
 20
-3.814003937007874
 10
-10.39547244094488
 20
-3.798204724409449
 10
-10.39473228346457
 20
-3.781803149606299
 10
-10.39548818897638
 20
-3.765035433070866
 10
-10.39776377952756
 20
-3.748937007874016
 10
-10.40155118110236
 20
-3.733515748031496
 10
-10.40685826771653
 20
-3.718763779527559
 10
-10.41367716535433
 20
-3.704685039370079
 10
-10.42201181102362
 20
-3.691279527559055
 10
-10.43186220472441
 20
-3.678547244094488
 10
-10.44322834645669
 20
-3.666488188976378
 10
-10.45586220472441
 20
-3.655291338582677
 10
-10.46905118110236
 20
-3.645590551181102
 10
-10.4828031496063
 20
-3.63738188976378
 10
-10.49711023622047
 20
-3.630669291338583
 10
-10.5119842519685
 20
-3.625444881889764
 10
-10.52741732283465
 20
-3.621716535433071
 10
-10.5434094488189
 20
-3.619476377952756
 10
-10.55996850393701
 20
-3.618732283464567
 10
-10.57716535433071
 20
-3.619515748031496
 10
-10.59372047244094
 20
-3.621874015748031
 10
-10.60963385826772
 20
-3.625799212598425
 10
-10.62490551181102
 20
-3.631299212598425
 10
-10.63953543307087
 20
-3.638370078740158
 10
-10.65352755905512
 20
-3.647007874015748
 10
-10.66687795275591
 20
-3.657224409448819
 10
-10.67958661417323
 20
-3.669007874015748
 10
-10.6909094488189
 20
-3.681692913385827
 10
-10.70062598425197
 20
-3.695035433070866
 10
-10.70873622047244
 20
-3.70903937007874
 10
-10.71524409448819
 20
-3.723708661417323
 10
-10.72014566929134
 20
-3.739035433070866
 10
-10.72343700787401
 20
-3.755023622047244
 10
-10.72512598425197
 20
-3.771673228346457
 10
-10.72520472440945
 20
-3.788984251968504
 10
-10.67421653543307
 20
-3.788984251968504
 10
-10.67464173228347
 20
-3.777751968503937
 10
-10.67385433070866
 20
-3.766779527559055
 10
-10.67185433070866
 20
-3.756062992125984
 10
-10.66864173228347
 20
-3.745610236220473
 10
-10.66421653543307
 20
-3.735409448818898
 10
-10.65857874015748
 20
-3.725472440944882
 10
-10.65173228346457
 20
-3.715795275590551
 10
-10.64366929133858
 20
-3.706377952755906
 10
-10.63505118110236
 20
-3.697956692913386
 10
-10.6259842519685
 20
-3.690661417322834
 10
-10.61646850393701
 20
-3.684488188976378
 10
-10.6065
 20
-3.679437007874016
 10
-10.59608267716535
 20
-3.675507874015748
 10
-10.58521653543307
 20
-3.672704724409449
 10
-10.57389763779527
 20
-3.67101968503937
 10
-10.56213385826772
 20
-3.67046062992126
 10
-10.5505905511811
 20
-3.670964566929134
 10
-10.5394842519685
 20
-3.67248031496063
 10
-10.52881496062992
 20
-3.675003937007874
 10
-10.51858267716535
 20
-3.67853937007874
 10
-10.5087874015748
 20
-3.683086614173228
 10
-10.49942913385827
 20
-3.688641732283465
 10
-10.49050787401575
 20
-3.695208661417323
 10
-10.48202362204724
 20
-3.702787401574803
 10
-10.47419291338583
 20
-3.711161417322835
 10
-10.46740551181102
 20
-3.719937007874016
 10
-10.46166535433071
 20
-3.72911811023622
 10
-10.45696850393701
 20
-3.738704724409449
 10
-10.45331889763779
 20
-3.748692913385827
 10
-10.45070866141732
 20
-3.759086614173228
 10
-10.44914173228346
 20
-3.769885826771654
 10
-10.4486220472441
 20
-3.781090551181102
 10
-10.44912598425197
 20
-3.79253937007874
 10
-10.45064173228347
 20
-3.803543307086614
 10
-10.45316535433071
 20
-3.814094488188976
 10
-10.45670472440945
 20
-3.824196850393701
 10
-10.46124803149606
 20
-3.833850393700788
 10
-10.46680708661417
 20
-3.843051181102362
 10
-10.47337401574803
 20
-3.851803149606299
 10
-10.48095275590551
 20
-3.860106299212598
 10
-10.73383464566929
 20
-4.115153543307087
  0
LWPOLYLINE
  5
74
330
1F
100
AcDbEntity
  8
Layer 1
 62
     7
370
     9
100
AcDbPolyline
 90
      137
 70
     1
 43
0.0
 10
-13.20066141732283
 20
2.354322834645669
 10
-13.20394881889764
 20
2.361665354330709
 10
-13.20752362204724
 20
2.368783464566929
 10
-13.2113937007874
 20
2.375677165354331
 10
-13.21555511811024
 20
2.382346456692913
 10
-13.22000787401575
 20
2.388787401574803
 10
-13.22475590551181
 20
2.395003937007874
 10
-13.22979527559055
 20
2.400996062992126
 10
-13.23512992125984
 20
2.406759842519685
 10
-13.24718897637795
 20
2.418125984251969
 10
-13.25992125984252
 20
2.427976377952756
 10
-13.27332677165354
 20
2.436311023622047
 10
-13.28740157480315
 20
2.443133858267716
 10
-13.30215354330709
 20
2.448437007874016
 10
-13.31757874015748
 20
2.452224409448819
 10
-13.33367322834646
 20
2.4545
 10
-13.35044488188976
 20
2.455255905511811
 10
-13.36722440944882
 20
2.454488188976378
 10
-13.38335433070866
 20
2.452181102362205
 10
-13.39883464566929
 20
2.448338582677165
 10
-13.41366535433071
 20
2.442956692913386
 10
-13.42784251968504
 20
2.43603937007874
 10
-13.44137007874016
 20
2.42757874015748
 10
-13.45424803149606
 20
2.417582677165354
 10
-13.46647637795276
 20
2.406047244094488
 10
-13.47702362204724
 20
2.394125984251969
 10
-13.4863188976378
 20
2.38144094488189
 10
-13.49435039370079
 20
2.367996062992126
 10
-13.50112992125984
 20
2.353787401574803
 10
-13.50665354330709
 20
2.338814960629921
 10
-13.51091732283465
 20
2.323074803149606
 10
-13.51392519685039
 20
2.306574803149606
 10
-13.5156811023622
 20
2.289307086614173
 10
-13.50274803149606
 20
2.267744094488189
 10
-13.68379527559055
 20
2.420787401574803
 10
-13.68379527559055
 20
2.157826771653543
 10
-13.63349212598425
 20
2.157826771653543
 10
-13.63349212598425
 20
2.318759842519685
 10
-13.46107874015748
 20
2.170755905511811
 10
-13.43020078740157
 20
2.208838582677165
 10
-13.43827952755906
 20
2.217661417322835
 10
-13.44528346456693
 20
2.226889763779528
 10
-13.45120472440945
 20
2.236523622047244
 10
-13.45605118110236
 20
2.24655905511811
 10
-13.4598188976378
 20
2.257
 10
-13.46251181102362
 20
2.267842519685039
 10
-13.46412598425197
 20
2.279086614173228
 10
-13.46466535433071
 20
2.290732283464567
 10
-13.46414566929134
 20
2.302370078740157
 10
-13.46257874015748
 20
2.313570866141732
 10
-13.45997244094488
 20
2.324334645669291
 10
-13.45631889763779
 20
2.334657480314961
 10
-13.45162598425197
 20
2.344543307086614
 10
-13.44588188976378
 20
2.353988188976378
 10
-13.43909842519685
 20
2.362992125984252
 10
-13.43126771653543
 20
2.371555118110236
 10
-13.42270866141732
 20
2.379385826771653
 10
-13.41373228346457
 20
2.386177165354331
 10
-13.40434251968504
 20
2.391921259842519
 10
-13.39453543307087
 20
2.396622047244095
 10
-13.38431496062992
 20
2.400279527559055
 10
-13.37367716535433
 20
2.402889763779528
 10
-13.36262598425197
 20
2.404456692913386
 10
-13.35115748031496
 20
2.40498031496063
 10
-13.33994094488189
 20
2.404444881889764
 10
-13.32911023622047
 20
2.402846456692914
 10
-13.31866141732283
 20
2.400177165354331
 10
-13.30859842519685
 20
2.396444881889764
 10
-13.29891338582677
 20
2.391645669291338
 10
-13.2896062992126
 20
2.385775590551181
 10
-13.28068503937008
 20
2.37884251968504
 10
-13.27214173228347
 20
2.37084251968504
 10
-13.26846456692913
 20
2.366901574803149
 10
-13.26498031496063
 20
2.362791338582677
 10
-13.26168897637795
 20
2.358511811023622
 10
-13.25858267716535
 20
2.35405905511811
 10
-13.25566929133858
 20
2.34944094488189
 10
-13.25294094488189
 20
2.344653543307087
 10
-13.25040551181102
 20
2.339692913385827
 10
-13.24805905511811
 20
2.334566929133858
 10
-13.24595669291338
 20
2.329220472440945
 10
-13.24413779527559
 20
2.323606299212599
 10
-13.24259448818898
 20
2.317724409448819
 10
-13.24133464566929
 20
2.311574803149606
 10
-13.24035826771654
 20
2.305153543307087
 10
-13.23965748031496
 20
2.29846062992126
 10
-13.23923622047244
 20
2.2915
 10
-13.23909842519685
 20
2.284267716535433
 10
-13.23940551181102
 20
2.276905511811024
 10
-13.24033070866142
 20
2.269547244094488
 10
-13.24187401574803
 20
2.262185039370079
 10
-13.24403149606299
 20
2.254822834645669
 10
-13.24681102362205
 20
2.24746062992126
 10
-13.25020472440945
 20
2.240094488188976
 10
-13.25422047244095
 20
2.232728346456693
 10
-13.25885433070866
 20
2.225362204724409
 10
-13.26400787401575
 20
2.218271653543307
 10
-13.26960236220472
 20
2.211716535433071
 10
-13.27563385826772
 20
2.205696850393701
 10
-13.2821062992126
 20
2.200220472440945
 10
-13.28901181102362
 20
2.195279527559055
 10
-13.29635826771653
 20
2.190877952755906
 10
-13.30414173228347
 20
2.187011811023622
 10
-13.31236220472441
 20
2.183688976377953
 10
-13.29584251968504
 20
2.134838582677165
 10
-13.28413385826772
 20
2.13948031496063
 10
-13.27298818897638
 20
2.14496062992126
 10
-13.26240551181102
 20
2.151287401574803
 10
-13.25238188976378
 20
2.158456692913386
 10
-13.24292125984252
 20
2.166464566929134
 10
-13.23401968503937
 20
2.175318897637795
 10
-13.22567716535433
 20
2.185011811023622
 10
-13.2178937007874
 20
2.195551181102362
 10
-13.2144842519685
 20
2.200732283464567
 10
-13.21126771653543
 20
2.206035433070866
 10
-13.20824409448819
 20
2.21146062992126
 10
-13.2054094488189
 20
2.217011811023622
 10
-13.20276377952756
 20
2.222688976377953
 10
-13.20031102362205
 20
2.228488188976378
 10
-13.19804724409449
 20
2.234409448818897
 10
-13.19597637795276
 20
2.240456692913386
 10
-13.19412598425197
 20
2.246649606299213
 10
-13.19251968503937
 20
2.253011811023622
 10
-13.19116535433071
 20
2.25953937007874
 10
-13.19005511811024
 20
2.266236220472441
 10
-13.18919291338583
 20
2.27309842519685
 10
-13.18857874015748
 20
2.280129921259843
 10
-13.18820866141732
 20
2.287334645669291
 10
-13.18808661417323
 20
2.294704724409449
 10
-13.18828346456693
 20
2.30215748031496
 10
-13.18887007874016
 20
2.309610236220472
 10
-13.18985039370079
 20
2.317062992125984
 10
-13.19122440944882
 20
2.324511811023622
 10
-13.19299212598425
 20
2.331964566929134
 10
-13.19515354330709
 20
2.339413385826772
 10
-13.19770866141732
 20
2.346870078740158
 10
-13.20066141732283
 20
2.354322834645669
  0
LWPOLYLINE
  5
75
330
1F
100
AcDbEntity
  8
Layer 1
 62
     7
370
     9
100
AcDbPolyline
 90
      137
 70
     1
 43
0.0
 10
-13.20066141732283
 20
2.727889763779527
 10
-13.20394881889764
 20
2.735232283464567
 10
-13.20752362204724
 20
2.742350393700788
 10
-13.2113937007874
 20
2.749244094488189
 10
-13.21555511811024
 20
2.755913385826771
 10
-13.22000787401575
 20
2.762358267716535
 10
-13.22475590551181
 20
2.768574803149606
 10
-13.22979527559055
 20
2.774566929133858
 10
-13.23512992125984
 20
2.780330708661417
 10
-13.24718897637795
 20
2.791696850393701
 10
-13.25992125984252
 20
2.801547244094488
 10
-13.27332677165354
 20
2.809881889763779
 10
-13.28740157480315
 20
2.816700787401575
 10
-13.30215354330709
 20
2.822003937007874
 10
-13.31757874015748
 20
2.825791338582677
 10
-13.33367322834646
 20
2.828066929133858
 10
-13.35044488188976
 20
2.828822834645669
 10
-13.36722440944882
 20
2.828055118110236
 10
-13.38335433070866
 20
2.825748031496063
 10
-13.39883464566929
 20
2.821905511811023
 10
-13.41366535433071
 20
2.816523622047244
 10
-13.42784251968504
 20
2.809606299212598
 10
-13.44137007874016
 20
2.801149606299213
 10
-13.45424803149606
 20
2.791153543307086
 10
-13.46647637795276
 20
2.77961811023622
 10
-13.47702362204724
 20
2.767696850393701
 10
-13.4863188976378
 20
2.755011811023622
 10
-13.49435039370079
 20
2.741566929133858
 10
-13.50112992125984
 20
2.727358267716535
 10
-13.50665354330709
 20
2.71238188976378
 10
-13.51091732283465
 20
2.696645669291339
 10
-13.51392519685039
 20
2.680141732283464
 10
-13.5156811023622
 20
2.662874015748031
 10
-13.50274803149606
 20
2.641314960629921
 10
-13.68379527559055
 20
2.794354330708662
 10
-13.68379527559055
 20
2.531393700787401
 10
-13.63349212598425
 20
2.531393700787401
 10
-13.63349212598425
 20
2.692326771653543
 10
-13.46107874015748
 20
2.544326771653543
 10
-13.43020078740157
 20
2.582409448818898
 10
-13.43827952755906
 20
2.591232283464567
 10
-13.44528346456693
 20
2.60046062992126
 10
-13.45120472440945
 20
2.610090551181103
 10
-13.45605118110236
 20
2.620125984251969
 10
-13.4598188976378
 20
2.630566929133858
 10
-13.46251181102362
 20
2.641409448818897
 10
-13.46412598425197
 20
2.652653543307087
 10
-13.46466535433071
 20
2.664299212598425
 10
-13.46414566929134
 20
2.675937007874016
 10
-13.46257874015748
 20
2.687137795275591
 10
-13.45997244094488
 20
2.697901574803149
 10
-13.45631889763779
 20
2.708224409448819
 10
-13.45162598425197
 20
2.718110236220472
 10
-13.44588188976378
 20
2.727555118110236
 10
-13.43909842519685
 20
2.736562992125984
 10
-13.43126771653543
 20
2.745125984251969
 10
-13.42270866141732
 20
2.752956692913386
 10
-13.41373228346457
 20
2.759744094488189
 10
-13.40434251968504
 20
2.765488188976378
 10
-13.39453543307087
 20
2.770188976377953
 10
-13.38431496062992
 20
2.773846456692914
 10
-13.37367716535433
 20
2.776456692913386
 10
-13.36262598425197
 20
2.778023622047244
 10
-13.35115748031496
 20
2.778547244094488
 10
-13.33994094488189
 20
2.778015748031496
 10
-13.32911023622047
 20
2.776413385826772
 10
-13.31866141732283
 20
2.773748031496063
 10
-13.30859842519685
 20
2.770011811023622
 10
-13.29891338582677
 20
2.765212598425197
 10
-13.2896062992126
 20
2.759346456692914
 10
-13.28068503937008
 20
2.752409448818898
 10
-13.27214173228347
 20
2.744409448818898
 10
-13.26846456692913
 20
2.740468503937008
 10
-13.26498031496063
 20
2.736358267716535
 10
-13.26168897637795
 20
2.73207874015748
 10
-13.25858267716535
 20
2.727629921259842
 10
-13.25566929133858
 20
2.723011811023622
 10
-13.25294094488189
 20
2.718220472440945
 10
-13.25040551181102
 20
2.713263779527559
 10
-13.24805905511811
 20
2.708137795275591
 10
-13.24595669291338
 20
2.702791338582677
 10
-13.24413779527559
 20
2.697177165354331
 10
-13.24259448818898
 20
2.691295275590551
 10
-13.24133464566929
 20
2.685141732283465
 10
-13.24035826771654
 20
2.678720472440945
 10
-13.23965748031496
 20
2.672031496062992
 10
-13.23923622047244
 20
2.665066929133858
 10
-13.23909842519685
 20
2.657834645669291
 10
-13.23940551181102
 20
2.650476377952756
 10
-13.24033070866142
 20
2.643114173228347
 10
-13.24187401574803
 20
2.635755905511811
 10
-13.24403149606299
 20
2.628393700787401
 10
-13.24681102362205
 20
2.621027559055118
 10
-13.25020472440945
 20
2.613665354330708
 10
-13.25422047244095
 20
2.606299212598425
 10
-13.25885433070866
 20
2.598929133858268
 10
-13.26400787401575
 20
2.591838582677165
 10
-13.26960236220472
 20
2.585283464566929
 10
-13.27563385826772
 20
2.579267716535433
 10
-13.2821062992126
 20
2.573787401574803
 10
-13.28901181102362
 20
2.568846456692913
 10
-13.29635826771653
 20
2.564444881889764
 10
-13.30414173228347
 20
2.560582677165354
 10
-13.31236220472441
 20
2.557255905511811
 10
-13.29584251968504
 20
2.508405511811024
 10
-13.28413385826772
 20
2.513047244094488
 10
-13.27298818897638
 20
2.518531496062992
 10
-13.26240551181102
 20
2.524854330708661
 10
-13.25238188976378
 20
2.532023622047244
 10
-13.24292125984252
 20
2.540035433070866
 10
-13.23401968503937
 20
2.548889763779528
 10
-13.22567716535433
 20
2.558582677165354
 10
-13.2178937007874
 20
2.569122047244095
 10
-13.2144842519685
 20
2.574299212598425
 10
-13.21126771653543
 20
2.579602362204724
 10
-13.20824409448819
 20
2.585027559055118
 10
-13.2054094488189
 20
2.59057874015748
 10
-13.20276377952756
 20
2.596255905511811
 10
-13.20031102362205
 20
2.602055118110236
 10
-13.19804724409449
 20
2.607976377952756
 10
-13.19597637795276
 20
2.614023622047244
 10
-13.19412598425197
 20
2.620216535433071
 10
-13.19251968503937
 20
2.62657874015748
 10
-13.19116535433071
 20
2.633106299212598
 10
-13.19005511811024
 20
2.639803149606299
 10
-13.18919291338583
 20
2.646665354330709
 10
-13.18857874015748
 20
2.653696850393701
 10
-13.18820866141732
 20
2.660901574803149
 10
-13.18808661417323
 20
2.668271653543307
 10
-13.18828346456693
 20
2.675724409448819
 10
-13.18887007874016
 20
2.683177165354331
 10
-13.18985039370079
 20
2.690629921259843
 10
-13.19122440944882
 20
2.698082677165354
 10
-13.19299212598425
 20
2.705531496062992
 10
-13.19515354330709
 20
2.712984251968504
 10
-13.19770866141732
 20
2.720437007874016
 10
-13.20066141732283
 20
2.727889763779527
  0
LWPOLYLINE
  5
76
330
1F
100
AcDbEntity
  8
Layer 1
 62
     7
370
     9
100
AcDbPolyline
 90
       92
 70
     1
 43
0.0
 10
-13.62702755905512
 20
3.085649606299213
 10
-13.6213937007874
 20
3.093948818897638
 10
-13.61499606299213
 20
3.101688976377953
 10
-13.60783858267717
 20
3.10886220472441
 10
-13.59991338582677
 20
3.115476377952756
 10
-13.59122834645669
 20
3.121527559055118
 10
-13.58177952755906
 20
3.127015748031496
 10
-13.57156299212599
 20
3.13194094488189
 10
-13.56058661417323
 20
3.136307086614173
 10
-13.54601968503937
 20
3.141192913385827
 10
-13.53123622047244
 20
3.145425196850394
 10
-13.51624409448819
 20
3.149003937007874
 10
-13.50103937007874
 20
3.151933070866142
 10
-13.48561811023622
 20
3.154208661417323
 10
-13.46998818897638
 20
3.155830708661417
 10
-13.45414566929134
 20
3.156807086614173
 10
-13.4380905511811
 20
3.157129921259842
 10
-13.40252755905512
 20
3.154992125984252
 10
-13.38321653543307
 20
3.1525
 10
-13.36496850393701
 20
3.149244094488189
 10
-13.34779133858268
 20
3.145228346456693
 10
-13.33167716535433
 20
3.140444881889764
 10
-13.31663385826772
 20
3.134897637795276
 10
-13.30265354330709
 20
3.128586614173228
 10
-13.28974015748032
 20
3.121515748031496
 10
-13.2778937007874
 20
3.113677165354331
 10
-13.26896456692913
 20
3.106527559055118
 10
-13.26122834645669
 20
3.098996062992126
 10
-13.25468110236221
 20
3.091082677165354
 10
-13.24933070866142
 20
3.082787401574803
 10
-13.24516535433071
 20
3.074110236220473
 10
-13.24219291338583
 20
3.065051181102362
 10
-13.2404094488189
 20
3.055610236220472
 10
-13.23981496062992
 20
3.045787401574803
 10
-13.24040551181102
 20
3.034822834645669
 10
-13.24217322834646
 20
3.024389763779527
 10
-13.24511811023622
 20
3.01448031496063
 10
-13.24924409448819
 20
3.005102362204724
 10
-13.25454330708661
 20
2.996248031496063
 10
-13.26102362204724
 20
2.98792125984252
 10
-13.2686811023622
 20
2.980125984251969
 10
-13.27751181102362
 20
2.972854330708661
 10
-13.28623622047244
 20
2.966842519685039
 10
-13.2954842519685
 20
2.961366141732284
 10
-13.30527165354331
 20
2.956429133858268
 10
-13.31559448818898
 20
2.952031496062992
 10
-13.32625984251968
 20
2.948149606299213
 10
-13.33705905511811
 20
2.944759842519685
 10
-13.34799606299213
 20
2.941862204724409
 10
-13.35907480314961
 20
2.939456692913386
 10
-13.40217322834646
 20
2.933346456692913
 10
-13.4501811023622
 20
2.931562992125984
 10
-13.45716141732284
 20
2.931685039370079
 10
-13.46455118110236
 20
2.932055118110236
 10
-13.47234645669291
 20
2.932669291338583
 10
-13.48055118110236
 20
2.933531496062992
 10
-13.48916535433071
 20
2.934641732283465
 10
-13.49819291338583
 20
2.936
 10
-13.50763385826772
 20
2.937602362204724
 10
-13.51748818897638
 20
2.939456692913386
 10
-13.52841338582677
 20
2.941838582677165
 10
-13.5393031496063
 20
2.944669291338583
 10
-13.55014566929134
 20
2.947944881889764
 10
-13.56094094488189
 20
2.951673228346457
 10
-13.57144094488189
 20
2.955917322834646
 10
-13.5814094488189
 20
2.960744094488189
 10
-13.59083858267716
 20
2.966153543307087
 10
-13.59973622047244
 20
2.972141732283465
 10
-13.60394488188976
 20
2.975362204724409
 10
-13.60793700787402
 20
2.978740157480315
 10
-13.61171653543307
 20
2.982279527559055
 10
-13.61528346456693
 20
2.985976377952756
 10
-13.61863385826772
 20
2.989830708661418
 10
-13.62177165354331
 20
2.993842519685039
 10
-13.6246968503937
 20
2.998011811023622
 10
-13.6274094488189
 20
3.002334645669291
 10
-13.62984251968504
 20
3.006826771653544
 10
-13.63195669291339
 20
3.011527559055118
 10
-13.63374409448819
 20
3.016429133858268
 10
-13.63520866141732
 20
3.021535433070866
 10
-13.63635039370079
 20
3.026842519685039
 10
-13.63716535433071
 20
3.032354330708662
 10
-13.63765354330709
 20
3.038066929133858
 10
-13.63781889763779
 20
3.04398031496063
 10
-13.63764960629921
 20
3.04990157480315
 10
-13.63714566929134
 20
3.055618110236221
 10
-13.6363031496063
 20
3.061129921259842
 10
-13.63512598425197
 20
3.06644094488189
 10
-13.6336062992126
 20
3.071543307086614
 10
-13.63175196850394
 20
3.076448818897638
 10
-13.62955905511811
 20
3.081149606299213
 10
-13.62702755905512
 20
3.085649606299213
  0
LWPOLYLINE
  5
77
330
1F
100
AcDbEntity
  8
Layer 1
 62
     7
370
     9
100
AcDbPolyline
 90
       65
 70
     1
 43
0.0
 10
-13.18879921259843
 20
3.0465
 10
-13.19012992125984
 20
3.067472440944882
 10
-13.19412204724409
 20
3.087114173228346
 10
-13.20077165354331
 20
3.105417322834646
 10
-13.21008267716535
 20
3.122385826771653
 10
-13.22205511811024
 20
3.138015748031496
 10
-13.23668503937008
 20
3.152311023622047
 10
-13.25397637795276
 20
3.165267716535433
 10
-13.27392519685039
 20
3.176885826771654
 10
-13.29133858267716
 20
3.185055118110236
 10
-13.30971653543307
 20
3.192133858267717
 10
-13.32905905511811
 20
3.198125984251968
 10
-13.34936614173228
 20
3.203027559055118
 10
-13.37063779527559
 20
3.206838582677165
 10
-13.3928779527559
 20
3.20955905511811
 10
-13.41608267716535
 20
3.211192913385827
 10
-13.44025590551181
 20
3.211736220472441
 10
-13.46442125984252
 20
3.211192913385827
 10
-13.48762204724409
 20
3.20955905511811
 10
-13.50985826771653
 20
3.206838582677165
 10
-13.53112992125984
 20
3.203027559055118
 10
-13.55143700787402
 20
3.198125984251968
 10
-13.57077559055118
 20
3.192133858267717
 10
-13.58914960629921
 20
3.185055118110236
 10
-13.60655905511811
 20
3.176885826771654
 10
-13.6265157480315
 20
3.165267716535433
 10
-13.64380708661417
 20
3.152311023622047
 10
-13.65844094488189
 20
3.138015748031496
 10
-13.6704094488189
 20
3.122385826771653
 10
-13.67972047244094
 20
3.105417322834646
 10
-13.68636614173228
 20
3.087114173228346
 10
-13.69035433070866
 20
3.067472440944882
 10
-13.69168503937008
 20
3.0465
 10
-13.69035433070866
 20
3.025527559055118
 10
-13.68636614173228
 20
3.005889763779527
 10
-13.67972047244094
 20
2.987590551181103
 10
-13.6704094488189
 20
2.970625984251968
 10
-13.65844094488189
 20
2.954992125984252
 10
-13.64380708661417
 20
2.940700787401575
 10
-13.6265157480315
 20
2.927740157480315
 10
-13.60655905511811
 20
2.916114173228347
 10
-13.58914960629921
 20
2.907944881889764
 10
-13.57077559055118
 20
2.900862204724409
 10
-13.55143700787402
 20
2.894874015748031
 10
-13.53112992125984
 20
2.889972440944882
 10
-13.50985826771653
 20
2.886161417322834
 10
-13.48762204724409
 20
2.88344094488189
 10
-13.46442125984252
 20
2.881807086614173
 10
-13.44025590551181
 20
2.881263779527559
 10
-13.41608267716535
 20
2.881807086614173
 10
-13.3928779527559
 20
2.88344094488189
 10
-13.37063779527559
 20
2.886161417322834
 10
-13.34936614173228
 20
2.889972440944882
 10
-13.32905905511811
 20
2.894874015748031
 10
-13.30971653543307
 20
2.900862204724409
 10
-13.29133858267716
 20
2.907944881889764
 10
-13.27392519685039
 20
2.916114173228347
 10
-13.25397637795276
 20
2.927740157480315
 10
-13.23668503937008
 20
2.940700787401575
 10
-13.22205511811024
 20
2.954992125984252
 10
-13.21008267716535
 20
2.970625984251968
 10
-13.20077165354331
 20
2.987590551181103
 10
-13.19412204724409
 20
3.005889763779527
 10
-13.19012992125984
 20
3.025527559055118
 10
-13.18879921259843
 20
3.0465
  0
LWPOLYLINE
  5
78
330
1F
100
AcDbEntity
  8
Layer 1
 62
     7
100
AcDbPolyline
 90
      147
 70
     1
 43
0.0
 10
-11.7967125984252
 20
9.794933070866142
 10
-11.85705118110236
 20
9.794933070866142
 10
-11.86425984251968
 20
9.782322834645669
 10
-11.87216535433071
 20
9.770346456692913
 10
-11.88076377952756
 20
9.759007874015747
 10
-11.89006692913386
 20
9.748307086614174
 10
-11.90006299212599
 20
9.738240157480314
 10
-11.91075590551181
 20
9.728811023622047
 10
-11.92214960629921
 20
9.72001968503937
 10
-11.93424015748031
 20
9.711866141732283
 10
-11.94683464566929
 20
9.70451968503937
 10
-11.95973622047244
 20
9.698153543307086
 10
-11.97294094488189
 20
9.692763779527558
 10
-11.98645275590551
 20
9.688358267716536
 10
-12.00026771653543
 20
9.684929133858267
 10
-12.0143937007874
 20
9.68248031496063
 10
-12.02882283464567
 20
9.681011811023621
 10
-12.04355905511811
 20
9.680523622047245
 10
-12.06505905511811
 20
9.68153937007874
 10
-12.08577559055118
 20
9.684586614173229
 10
-12.10570866141732
 20
9.689669291338582
 10
-12.12485826771653
 20
9.696783464566929
 10
-12.14322440944882
 20
9.705929133858268
 10
-12.16080708661417
 20
9.717106299212599
 10
-12.1776062992126
 20
9.73031496062992
 10
-12.19361811023622
 20
9.745559055118111
 10
-12.20785433070866
 20
9.761775590551181
 10
-12.22018897637795
 20
9.778791338582677
 10
-12.23062992125984
 20
9.79659842519685
 10
-12.23916929133858
 20
9.81520472440945
 10
-12.24581102362205
 20
9.834606299212599
 10
-12.25055511811024
 20
9.8548031496063
 10
-12.25340157480315
 20
9.875799212598425
 10
-12.25435039370079
 20
9.897586614173228
 10
-12.25340157480315
 20
9.91955905511811
 10
-12.25055511811024
 20
9.940708661417323
 10
-12.24581102362205
 20
9.96103937007874
 10
-12.23916929133858
 20
9.980551181102362
 10
-12.23062992125984
 20
9.999244094488189
 10
-12.22018897637795
 20
10.01711417322835
 10
-12.20785433070866
 20
10.03416141732284
 10
-12.19361811023622
 20
10.05038976377953
 10
-12.18631496062992
 20
10.05764566929134
 10
-12.17870472440945
 20
10.06451968503937
 10
-12.17079133858268
 20
10.0710157480315
 10
-12.16256692913386
 20
10.07713385826772
 10
-12.15403937007874
 20
10.08287007874016
 10
-12.14520472440945
 20
10.08822440944882
 10
-12.13606299212598
 20
10.09320078740157
 10
-12.12661811023622
 20
10.09779921259842
 10
-12.11704330708661
 20
10.10193307086614
 10
-12.10751968503937
 20
10.1055157480315
 10
-12.09804330708661
 20
10.10854724409449
 10
-12.08861417322835
 20
10.11102755905512
 10
-12.07923622047244
 20
10.11295275590551
 10
-12.06990551181102
 20
10.11433070866142
 10
-12.0606220472441
 20
10.11515748031496
 10
-12.05138976377953
 20
10.11543307086614
 10
-12.04232677165354
 20
10.1153031496063
 10
-12.03353937007874
 20
10.11491732283465
 10
-12.02503937007874
 20
10.11427559055118
 10
-12.01681496062992
 20
10.11337795275591
 10
-12.00887401574803
 20
10.11222047244095
 10
-12.00121653543307
 20
10.11080708661417
 10
-11.99383858267717
 20
10.10913385826772
 10
-11.98674409448819
 20
10.10720866141732
 10
-11.96600393700787
 20
10.10004330708661
 10
-11.94658267716535
 20
10.09118897637795
 10
-11.92848818897638
 20
10.08064566929134
 10
-11.9117125984252
 20
10.06841338582677
 10
-11.89625984251968
 20
10.05449212598425
 10
-11.88212992125984
 20
10.03887795275591
 10
-11.86932283464567
 20
10.02157874015748
 10
-11.85783858267717
 20
10.00258661417323
 10
-11.79749606299213
 20
10.00258661417323
 10
-11.80561417322835
 20
10.02113385826772
 10
-11.81488188976378
 20
10.03875984251968
 10
-11.8253031496063
 20
10.05546456692913
 10
-11.83687401574803
 20
10.07125590551181
 10
-11.84959448818898
 20
10.08612598425197
 10
-11.86346850393701
 20
10.10007480314961
 10
-11.87849212598425
 20
10.11311023622047
 10
-11.89466535433071
 20
10.12522440944882
 10
-11.91164960629921
 20
10.13615354330709
 10
-11.92909842519685
 20
10.14562598425197
 10
-11.94701181102362
 20
10.15363779527559
 10
-11.96538976377953
 20
10.1601968503937
 10
-11.98423622047244
 20
10.16529527559055
 10
-12.00354330708661
 20
10.16894094488189
 10
-12.02331889763779
 20
10.17112598425197
 10
-12.04355905511811
 20
10.17185433070866
 10
-12.07072047244094
 20
10.17058267716535
 10
-12.09686614173228
 20
10.16675984251969
 10
-12.122
 20
10.1603937007874
 10
-12.14611417322835
 20
10.15148031496063
 10
-12.1692125984252
 20
10.1400157480315
 10
-12.19129527559055
 20
10.12600787401575
 10
-12.21235826771654
 20
10.10945669291339
 10
-12.2324094488189
 20
10.09035433070866
 10
-12.24117716535433
 20
10.08075984251968
 10
-12.24945669291339
 20
10.0707874015748
 10
-12.25724409448819
 20
10.06043700787402
 10
-12.26453937007874
 20
10.04970472440945
 10
-12.27134645669291
 20
10.03859448818898
 10
-12.27766535433071
 20
10.02710236220472
 10
-12.28349212598425
 20
10.01523228346457
 10
-12.28883070866142
 20
10.00298031496063
 10
-12.2936062992126
 20
9.990448818897638
 10
-12.29774409448819
 20
9.97773622047244
 10
-12.30124803149606
 20
9.964834645669292
 10
-12.30411417322835
 20
9.951751968503936
 10
-12.30634251968504
 20
9.938484251968504
 10
-12.30793307086614
 20
9.925035433070866
 10
-12.30888582677165
 20
9.911401574803149
 10
-12.30920472440945
 20
9.897586614173228
 10
-12.30800393700787
 20
9.870114173228346
 10
-12.30440551181102
 20
9.84363779527559
 10
-12.29840551181102
 20
9.818149606299212
 10
-12.29000787401575
 20
9.793653543307087
 10
-12.27920472440945
 20
9.770153543307087
 10
-12.26600787401575
 20
9.747641732283464
 10
-12.2504094488189
 20
9.726122047244095
 10
-12.2324094488189
 20
9.705594488188977
 10
-12.21235826771654
 20
9.686496062992125
 10
-12.19129527559055
 20
9.66994094488189
 10
-12.1692125984252
 20
9.655933070866142
 10
-12.14611417322835
 20
9.644472440944883
 10
-12.122
 20
9.63555905511811
 10
-12.09686614173228
 20
9.629192913385827
 10
-12.07072047244094
 20
9.625370078740158
 10
-12.04355905511811
 20
9.62409842519685
 10
-12.0233937007874
 20
9.624838582677166
 10
-12.00364173228346
 20
9.627062992125984
 10
-11.98431102362205
 20
9.630763779527559
 10
-11.9653937007874
 20
9.635952755905512
 10
-11.94688976377953
 20
9.64261811023622
 10
-11.92880708661417
 20
9.650767716535434
 10
-11.91113779527559
 20
9.660397637795276
 10
-11.89388582677165
 20
9.671507874015749
 10
-11.87758267716536
 20
9.68372440944882
 10
-11.86246850393701
 20
9.69685433070866
 10
-11.84853937007874
 20
9.710905511811024
 10
-11.83579921259843
 20
9.725874015748031
 10
-11.82424409448819
 20
9.741759842519684
 10
-11.81388188976378
 20
9.758566929133858
 10
-11.80470472440945
 20
9.776291338582677
 10
-11.7967125984252
 20
9.794933070866142
  0
LWPOLYLINE
  5
79
330
1F
100
AcDbEntity
  8
Layer 1
 62
     7
100
AcDbPolyline
 90
        4
 70
     1
 43
0.0
 10
-11.66192913385827
 20
9.827846456692914
 10
-11.56475984251968
 20
10.07311417322835
 10
-11.4679842519685
 20
9.827846456692914
 10
-11.66192913385827
 20
9.827846456692914
  0
LWPOLYLINE
  5
7A
330
1F
100
AcDbEntity
  8
Layer 1
 62
     7
100
AcDbPolyline
 90
        8
 70
     1
 43
0.0
 10
-11.33124015748031
 20
9.631937007874015
 10
-11.56475984251968
 20
10.20163385826772
 10
-11.79906299212598
 20
9.631937007874015
 10
-11.73950787401575
 20
9.631937007874015
 10
-11.68203937007874
 20
9.776905511811023
 10
-11.448
 20
9.776905511811023
 10
-11.39079527559055
 20
9.631937007874015
 10
-11.33124015748031
 20
9.631937007874015
  0
LWPOLYLINE
  5
7B
330
1F
100
AcDbEntity
  8
Layer 1
 62
     7
100
AcDbPolyline
 90
      104
 70
     1
 43
0.0
 10
-11.06128346456693
 20
10.1028937007874
 10
-11.05223228346457
 20
10.09674803149606
 10
-11.04379527559055
 20
10.08976771653543
 10
-11.03597244094488
 20
10.08195275590551
 10
-11.02875984251969
 20
10.07331102362205
 10
-11.02216141732283
 20
10.06383464566929
 10
-11.01617322834646
 20
10.05352362204724
 10
-11.01079921259842
 20
10.04238188976378
 10
-11.00603543307087
 20
10.0304094488189
 10
-11.00070866141732
 20
10.01452362204724
 10
-10.99609448818898
 20
9.99840157480315
 10
-10.99218897637795
 20
9.982051181102362
 10
-10.98899212598425
 20
9.965468503937007
 10
-10.98650787401575
 20
9.948649606299213
 10
-10.98473228346457
 20
9.931598425196851
 10
-10.98366535433071
 20
9.914318897637795
 10
-10.98331102362205
 20
9.8968031496063
 10
-10.98566141732283
 20
9.858007874015748
 10
-10.98838188976378
 20
9.83694094488189
 10
-10.99193307086614
 20
9.81703937007874
 10
-10.99631496062992
 20
9.7983031496063
 10
-11.00153149606299
 20
9.780728346456693
 10
-11.00758267716535
 20
9.764314960629921
 10
-11.01446062992126
 20
9.749066929133859
 10
-11.02217322834646
 20
9.73498031496063
 10
-11.03072047244095
 20
9.722055118110235
 10
-11.03851968503937
 20
9.712318897637795
 10
-11.04673622047244
 20
9.70388188976378
 10
-11.05537007874016
 20
9.696744094488189
 10
-11.06441732283464
 20
9.690905511811023
 10
-11.07388188976378
 20
9.686362204724409
 10
-11.08376377952756
 20
9.68311811023622
 10
-11.09406299212598
 20
9.681173228346458
 10
-11.10477559055118
 20
9.680523622047245
 10
-11.11673228346457
 20
9.681165354330709
 10
-11.12811023622047
 20
9.683094488188976
 10
-11.13891732283465
 20
9.686307086614173
 10
-11.14914566929134
 20
9.690807086614173
 10
-11.15879921259842
 20
9.696590551181103
 10
-11.16787795275591
 20
9.703661417322834
 10
-11.17638188976378
 20
9.71201968503937
 10
-11.18431102362205
 20
9.721661417322835
 10
-11.18766535433071
 20
9.726338582677165
 10
-11.19087401574803
 20
9.731161417322834
 10
-11.19393700787402
 20
9.736133858267717
 10
-11.19685039370079
 20
9.741251968503937
 10
-11.20224015748031
 20
9.751925196850394
 10
-11.20703937007874
 20
9.763188976377952
 10
-11.21127559055118
 20
9.774822834645668
 10
-11.21497244094488
 20
9.786606299212599
 10
-11.21812992125984
 20
9.798527559055119
 10
-11.22074803149606
 20
9.81059842519685
 10
-11.22292913385827
 20
9.822649606299212
 10
-11.22476771653543
 20
9.8345
 10
-11.22625984251968
 20
9.846157480314961
 10
-11.2274094488189
 20
9.857622047244094
 10
-11.22826771653543
 20
9.86942125984252
 10
-11.22888188976378
 20
9.882090551181102
 10
-11.22924803149606
 20
9.89561811023622
 10
-11.22937007874016
 20
9.909992125984251
 10
-11.22923622047244
 20
9.917610236220472
 10
-11.22883070866142
 20
9.925669291338583
 10
-11.22815748031496
 20
9.934169291338582
 10
-11.2272125984252
 20
9.94311811023622
 10
-11.226
 20
9.952511811023623
 10
-11.22451968503937
 20
9.962354330708662
 10
-11.22276771653543
 20
9.972645669291339
 10
-11.22074803149606
 20
9.983389763779527
 10
-11.21815354330709
 20
9.995314960629921
 10
-11.21506692913386
 20
10.00719291338583
 10
-11.21149212598425
 20
10.01901968503937
 10
-11.20742519685039
 20
10.03079921259843
 10
-11.20519291338583
 20
10.03660236220473
 10
-11.20279921259842
 20
10.04225984251969
 10
-11.20024409448819
 20
10.04777165354331
 10
-11.19753543307087
 20
10.05313385826772
 10
-11.19466141732283
 20
10.05835039370079
 10
-11.19162992125984
 20
10.06341732283465
 10
-11.18844094488189
 20
10.06833858267717
 10
-11.1850905511811
 20
10.07311417322835
 10
-11.18157874015748
 20
10.07770078740158
 10
-11.1778937007874
 20
10.08205511811024
 10
-11.17403543307087
 20
10.08617322834646
 10
-11.17000787401575
 20
10.09006299212598
 10
-11.16581102362205
 20
10.09371653543307
 10
-11.16144094488189
 20
10.09714173228346
 10
-11.15689763779528
 20
10.10033070866142
 10
-11.15218503937008
 20
10.1032874015748
 10
-11.14727559055118
 20
10.10594881889764
 10
-11.14214173228346
 20
10.10825590551181
 10
-11.13679133858268
 20
10.11020866141732
 10
-11.13122047244094
 20
10.11180708661417
 10
-11.12542913385827
 20
10.11305118110236
 10
-11.11941732283465
 20
10.11393700787402
 10
-11.11318503937008
 20
10.11447244094488
 10
-11.10673228346457
 20
10.11464960629921
 10
-11.10027952755905
 20
10.11446456692913
 10
-11.09404724409449
 20
10.11391338582677
 10
-11.08803543307087
 20
10.11299606299213
 10
-11.08224409448819
 20
10.11170866141732
 10
-11.07667322834646
 20
10.11005511811024
 10
-11.07132283464567
 20
10.10803543307087
 10
-11.06619291338583
 20
10.10564960629921
 10
-11.06128346456693
 20
10.1028937007874
  0
LWPOLYLINE
  5
7C
330
1F
100
AcDbEntity
  8
Layer 1
 62
     7
100
AcDbPolyline
 90
       65
 70
     1
 43
0.0
 10
-11.10398818897638
 20
9.624885826771653
 10
-11.08111023622047
 20
9.626334645669292
 10
-11.05968897637795
 20
9.630688976377952
 10
-11.03972440944882
 20
9.637944881889764
 10
-11.02121653543307
 20
9.648098425196851
 10
-11.00416929133858
 20
9.66115748031496
 10
-10.98857480314961
 20
9.67711811023622
 10
-10.97444094488189
 20
9.69598031496063
 10
-10.96176377952756
 20
9.71774409448819
 10
-10.95285433070866
 20
9.73673622047244
 10
-10.94513385826772
 20
9.756779527559056
 10
-10.93860236220472
 20
9.777877952755906
 10
-10.93325590551181
 20
9.800027559055119
 10
-10.92909842519685
 20
9.823228346456693
 10
-10.92612992125984
 20
9.847484251968504
 10
-10.92435039370079
 20
9.872791338582678
 10
-10.92375590551181
 20
9.899153543307087
 10
-10.92435039370079
 20
9.925515748031495
 10
-10.92612992125984
 20
9.950822834645669
 10
-10.92909842519685
 20
9.97507874015748
 10
-10.93325590551181
 20
9.998279527559054
 10
-10.93860236220472
 20
10.02042913385827
 10
-10.94513385826772
 20
10.04152755905512
 10
-10.95285433070866
 20
10.06157086614173
 10
-10.96176377952756
 20
10.08055905511811
 10
-10.97444094488189
 20
10.10232283464567
 10
-10.98857480314961
 20
10.12118503937008
 10
-11.00416929133858
 20
10.13714566929134
 10
-11.02121653543307
 20
10.15020472440945
 10
-11.03972440944882
 20
10.16036220472441
 10
-11.05968897637795
 20
10.16761811023622
 10
-11.08111023622047
 20
10.17196850393701
 10
-11.10398818897638
 20
10.17342125984252
 10
-11.12686614173228
 20
10.17196850393701
 10
-11.1482874015748
 20
10.16761811023622
 10
-11.16824803149606
 20
10.16036220472441
 10
-11.18675590551181
 20
10.15020472440945
 10
-11.20380708661417
 20
10.13714566929134
 10
-11.21940157480315
 20
10.12118503937008
 10
-11.23353543307087
 20
10.10232283464567
 10
-11.24621653543307
 20
10.08055905511811
 10
-11.25512204724409
 20
10.06157086614173
 10
-11.26284251968504
 20
10.04152755905512
 10
-11.26937401574803
 20
10.02042913385827
 10
-11.27472047244095
 20
9.998279527559054
 10
-11.27887795275591
 20
9.97507874015748
 10
-11.28184645669291
 20
9.950822834645669
 10
-11.28362992125984
 20
9.925515748031495
 10
-11.28422440944882
 20
9.899153543307087
 10
-11.28362992125984
 20
9.872791338582678
 10
-11.28184645669291
 20
9.847484251968504
 10
-11.27887795275591
 20
9.823228346456693
 10
-11.27472047244095
 20
9.800027559055119
 10
-11.26937401574803
 20
9.777877952755906
 10
-11.26284251968504
 20
9.756779527559056
 10
-11.25512204724409
 20
9.73673622047244
 10
-11.24621653543307
 20
9.71774409448819
 10
-11.23353543307087
 20
9.69598031496063
 10
-11.21940157480315
 20
9.67711811023622
 10
-11.20380708661417
 20
9.66115748031496
 10
-11.18675590551181
 20
9.648098425196851
 10
-11.16824803149606
 20
9.637944881889764
 10
-11.1482874015748
 20
9.630688976377952
 10
-11.12686614173228
 20
9.626334645669292
 10
-11.10398818897638
 20
9.624885826771653
  0
LWPOLYLINE
  5
7D
330
1F
100
AcDbEntity
  8
Layer 1
 62
     7
100
AcDbPolyline
 90
      104
 70
     1
 43
0.0
 10
-10.62245275590551
 20
10.1028937007874
 10
-10.61340157480315
 20
10.09674803149606
 10
-10.60496850393701
 20
10.08976771653543
 10
-10.59714173228346
 20
10.08195275590551
 10
-10.58993307086614
 20
10.07331102362205
 10
-10.58333070866142
 20
10.06383464566929
 10
-10.57734645669291
 20
10.05352362204724
 10
-10.57196850393701
 20
10.04238188976378
 10
-10.56720472440945
 20
10.0304094488189
 10
-10.56187795275591
 20
10.01452362204724
 10
-10.55726377952756
 20
9.99840157480315
 10
-10.55335826771654
 20
9.982051181102362
 10
-10.55016141732284
 20
9.965468503937007
 10
-10.54767716535433
 20
9.948649606299213
 10
-10.54590157480315
 20
9.931598425196851
 10
-10.54483464566929
 20
9.914318897637795
 10
-10.54448031496063
 20
9.8968031496063
 10
-10.54683070866142
 20
9.858007874015748
 10
-10.54955118110236
 20
9.83694094488189
 10
-10.55310236220472
 20
9.81703937007874
 10
-10.5574842519685
 20
9.7983031496063
 10
-10.56270078740157
 20
9.780728346456693
 10
-10.56875196850394
 20
9.764314960629921
 10
-10.57562992125984
 20
9.749066929133859
 10
-10.58334251968504
 20
9.73498031496063
 10
-10.59188976377953
 20
9.722055118110235
 10
-10.59968897637795
 20
9.712318897637795
 10
-10.60790551181102
 20
9.70388188976378
 10
-10.61653937007874
 20
9.696744094488189
 10
-10.62558661417323
 20
9.690905511811023
 10
-10.63505118110236
 20
9.686362204724409
 10
-10.64493307086614
 20
9.68311811023622
 10
-10.65523228346457
 20
9.681173228346458
 10
-10.66594488188976
 20
9.680523622047245
 10
-10.67790157480315
 20
9.681165354330709
 10
-10.68928346456693
 20
9.683094488188976
 10
-10.70008661417323
 20
9.686307086614173
 10
-10.7103188976378
 20
9.690807086614173
 10
-10.71997244094488
 20
9.696590551181103
 10
-10.72905118110236
 20
9.703661417322834
 10
-10.73755511811024
 20
9.71201968503937
 10
-10.7454842519685
 20
9.721661417322835
 10
-10.74883858267717
 20
9.726338582677165
 10
-10.75204330708661
 20
9.731161417322834
 10
-10.7551062992126
 20
9.736133858267717
 10
-10.75801968503937
 20
9.741251968503937
 10
-10.7634094488189
 20
9.751925196850394
 10
-10.76820866141732
 20
9.763188976377952
 10
-10.77244488188976
 20
9.774822834645668
 10
-10.77614173228346
 20
9.786606299212599
 10
-10.77929921259843
 20
9.798527559055119
 10
-10.78192125984252
 20
9.81059842519685
 10
-10.78409842519685
 20
9.822649606299212
 10
-10.78593700787401
 20
9.8345
 10
-10.78742913385827
 20
9.846157480314961
 10
-10.78857874015748
 20
9.857622047244094
 10
-10.78943700787402
 20
9.86942125984252
 10
-10.79005118110236
 20
9.882090551181102
 10
-10.79042125984252
 20
9.89561811023622
 10
-10.79054330708661
 20
9.909992125984251
 10
-10.7904094488189
 20
9.917610236220472
 10
-10.79000393700787
 20
9.925669291338583
 10
-10.78933070866142
 20
9.934169291338582
 10
-10.78838582677165
 20
9.94311811023622
 10
-10.78717322834646
 20
9.952511811023623
 10
-10.78569291338583
 20
9.962354330708662
 10
-10.78394094488189
 20
9.972645669291339
 10
-10.78192125984252
 20
9.983389763779527
 10
-10.77932283464567
 20
9.995314960629921
 10
-10.77624015748031
 20
10.00719291338583
 10
-10.77266141732284
 20
10.01901968503937
 10
-10.76859448818898
 20
10.03079921259843
 10
-10.76636220472441
 20
10.03660236220473
 10
-10.76396850393701
 20
10.04225984251969
 10
-10.76141338582677
 20
10.04777165354331
 10
-10.75870472440945
 20
10.05313385826772
 10
-10.75583070866142
 20
10.05835039370079
 10
-10.7528031496063
 20
10.06341732283465
 10
-10.74961417322835
 20
10.06833858267717
 10
-10.74626377952756
 20
10.07311417322835
 10
-10.74275196850394
 20
10.07770078740158
 10
-10.73906692913386
 20
10.08205511811024
 10
-10.73520866141732
 20
10.08617322834646
 10
-10.73118110236221
 20
10.09006299212598
 10
-10.7269842519685
 20
10.09371653543307
 10
-10.72261023622047
 20
10.09714173228346
 10
-10.71806692913386
 20
10.10033070866142
 10
-10.71335433070866
 20
10.1032874015748
 10
-10.70844488188976
 20
10.10594881889764
 10
-10.70331496062992
 20
10.10825590551181
 10
-10.69796456692913
 20
10.11020866141732
 10
-10.69238976377953
 20
10.11180708661417
 10
-10.68659842519685
 20
10.11305118110236
 10
-10.68058661417323
 20
10.11393700787402
 10
-10.67435826771653
 20
10.11447244094488
 10
-10.66790551181102
 20
10.11464960629921
 10
-10.66145275590551
 20
10.11446456692913
 10
-10.65522047244094
 20
10.11391338582677
 10
-10.64920866141732
 20
10.11299606299213
 10
-10.64341732283465
 20
10.11170866141732
 10
-10.63784645669291
 20
10.11005511811024
 10
-10.63249606299213
 20
10.10803543307087
 10
-10.62736220472441
 20
10.10564960629921
 10
-10.62245275590551
 20
10.1028937007874
  0
LWPOLYLINE
  5
7E
330
1F
100
AcDbEntity
  8
Layer 1
 62
     7
100
AcDbPolyline
 90
       65
 70
     1
 43
0.0
 10
-10.66516141732284
 20
9.624885826771653
 10
-10.64227952755905
 20
9.626334645669292
 10
-10.62085826771654
 20
9.630688976377952
 10
-10.6008937007874
 20
9.637944881889764
 10
-10.58238582677165
 20
9.648098425196851
 10
-10.56533858267717
 20
9.66115748031496
 10
-10.54974409448819
 20
9.67711811023622
 10
-10.53561023622047
 20
9.69598031496063
 10
-10.52293307086614
 20
9.71774409448819
 10
-10.51402362204724
 20
9.73673622047244
 10
-10.5063031496063
 20
9.756779527559056
 10
-10.49977165354331
 20
9.777877952755906
 10
-10.49442913385827
 20
9.800027559055119
 10
-10.49027165354331
 20
9.823228346456693
 10
-10.48729921259842
 20
9.847484251968504
 10
-10.48551968503937
 20
9.872791338582678
 10
-10.48492519685039
 20
9.899153543307087
 10
-10.48551968503937
 20
9.925515748031495
 10
-10.48729921259842
 20
9.950822834645669
 10
-10.49027165354331
 20
9.97507874015748
 10
-10.49442913385827
 20
9.998279527559054
 10
-10.49977165354331
 20
10.02042913385827
 10
-10.5063031496063
 20
10.04152755905512
 10
-10.51402362204724
 20
10.06157086614173
 10
-10.52293307086614
 20
10.08055905511811
 10
-10.53561023622047
 20
10.10232283464567
 10
-10.54974409448819
 20
10.12118503937008
 10
-10.56533858267717
 20
10.13714566929134
 10
-10.58238582677165
 20
10.15020472440945
 10
-10.6008937007874
 20
10.16036220472441
 10
-10.62085826771654
 20
10.16761811023622
 10
-10.64227952755905
 20
10.17196850393701
 10
-10.66516141732284
 20
10.17342125984252
 10
-10.68803937007874
 20
10.17196850393701
 10
-10.70946062992126
 20
10.16761811023622
 10
-10.72942125984252
 20
10.16036220472441
 10
-10.74792913385827
 20
10.15020472440945
 10
-10.76498031496063
 20
10.13714566929134
 10
-10.78057480314961
 20
10.12118503937008
 10
-10.79470866141732
 20
10.10232283464567
 10
-10.80738976377953
 20
10.08055905511811
 10
-10.81629527559055
 20
10.06157086614173
 10
-10.8240157480315
 20
10.04152755905512
 10
-10.83054724409449
 20
10.02042913385827
 10
-10.8358937007874
 20
9.998279527559054
 10
-10.84005118110236
 20
9.97507874015748
 10
-10.84301968503937
 20
9.950822834645669
 10
-10.8448031496063
 20
9.925515748031495
 10
-10.84539763779528
 20
9.899153543307087
 10
-10.8448031496063
 20
9.872791338582678
 10
-10.84301968503937
 20
9.847484251968504
 10
-10.84005118110236
 20
9.823228346456693
 10
-10.8358937007874
 20
9.800027559055119
 10
-10.83054724409449
 20
9.777877952755906
 10
-10.8240157480315
 20
9.756779527559056
 10
-10.81629527559055
 20
9.73673622047244
 10
-10.80738976377953
 20
9.71774409448819
 10
-10.79470866141732
 20
9.69598031496063
 10
-10.78057480314961
 20
9.67711811023622
 10
-10.76498031496063
 20
9.66115748031496
 10
-10.74792913385827
 20
9.648098425196851
 10
-10.72942125984252
 20
9.637944881889764
 10
-10.70946062992126
 20
9.630688976377952
 10
-10.68803937007874
 20
9.626334645669292
 10
-10.66516141732284
 20
9.624885826771653
  0
LWPOLYLINE
  5
7F
330
1F
100
AcDbEntity
  8
Layer 1
 62
     7
100
AcDbPolyline
 90
      137
 70
     1
 43
0.0
 10
-10.16638582677165
 20
9.637814960629921
 10
-10.15837795275591
 20
9.64140157480315
 10
-10.15061417322835
 20
9.645307086614173
 10
-10.14309448818898
 20
9.649531496062993
 10
-10.13582283464567
 20
9.654070866141732
 10
-10.12879527559055
 20
9.658933070866143
 10
-10.12201181102362
 20
9.664114173228347
 10
-10.11547244094488
 20
9.669610236220473
 10
-10.10918110236221
 20
9.675429133858268
 10
-10.09678346456693
 20
9.68857874015748
 10
-10.08603937007874
 20
9.702464566929134
 10
-10.07694881889764
 20
9.717082677165354
 10
-10.06950787401575
 20
9.732437007874015
 10
-10.06372440944882
 20
9.748523622047244
 10
-10.0595905511811
 20
9.765346456692914
 10
-10.05711023622047
 20
9.782905511811023
 10
-10.05628346456693
 20
9.801196850393701
 10
-10.05712204724409
 20
9.8195
 10
-10.05963779527559
 20
9.837098425196851
 10
-10.06383464566929
 20
9.85398031496063
 10
-10.06970472440945
 20
9.87015748031496
 10
-10.07725590551181
 20
9.885622047244095
 10
-10.08648031496063
 20
9.900374015748032
 10
-10.09738582677165
 20
9.914417322834646
 10
-10.10996456692913
 20
9.927751968503937
 10
-10.12296850393701
 20
9.939259842519686
 10
-10.1368031496063
 20
9.949401574803149
 10
-10.15146850393701
 20
9.958165354330708
 10
-10.16697244094488
 20
9.965562992125983
 10
-10.1833031496063
 20
9.971586614173228
 10
-10.20047244094488
 20
9.976240157480316
 10
-10.21847244094488
 20
9.979523622047244
 10
-10.2373031496063
 20
9.981433070866142
 10
-10.26081102362205
 20
9.967330708661418
 10
-10.09389763779528
 20
10.16479921259842
 10
-10.38070472440945
 20
10.16479921259842
 10
-10.38070472440945
 20
10.10994488188976
 10
-10.20516929133858
 20
10.10994488188976
 10
-10.36660236220473
 20
9.921877952755905
 10
-10.32506692913386
 20
9.888181102362205
 10
-10.31544094488189
 20
9.896996062992127
 10
-10.30537795275591
 20
9.90463779527559
 10
-10.29487007874016
 20
9.911102362204725
 10
-10.28392519685039
 20
9.916389763779527
 10
-10.27253937007874
 20
9.920503937007874
 10
-10.26070866141732
 20
9.923444881889763
 10
-10.24844094488189
 20
9.925208661417322
 10
-10.23573228346457
 20
9.92579527559055
 10
-10.22304330708661
 20
9.92522440944882
 10
-10.21083070866142
 20
9.92351968503937
 10
-10.19909448818898
 20
9.920673228346457
 10
-10.18783464566929
 20
9.916685039370078
 10
-10.17705511811024
 20
9.911562992125985
 10
-10.16675196850394
 20
9.905299212598425
 10
-10.15692519685039
 20
9.897897637795275
 10
-10.14757480314961
 20
9.889358267716535
 10
-10.13903543307087
 20
9.880023622047243
 10
-10.13163385826772
 20
9.870232283464567
 10
-10.12537007874016
 20
9.859992125984252
 10
-10.12024803149606
 20
9.849295275590551
 10
-10.11625984251969
 20
9.838145669291338
 10
-10.11341338582677
 20
9.826547244094488
 10
-10.11170866141732
 20
9.814492125984252
 10
-10.11113779527559
 20
9.801984251968504
 10
-10.11172047244095
 20
9.789751968503937
 10
-10.11346456692913
 20
9.777937007874016
 10
-10.11637401574803
 20
9.766535433070866
 10
-10.12044488188976
 20
9.755555118110236
 10
-10.12567716535433
 20
9.744988188976379
 10
-10.13207480314961
 20
9.734834645669292
 10
-10.13963385826772
 20
9.725102362204725
 10
-10.14835826771654
 20
9.715783464566929
 10
-10.15266141732283
 20
9.71177559055118
 10
-10.15714960629921
 20
9.707972440944882
 10
-10.16182283464567
 20
9.704377952755905
 10
-10.16667716535433
 20
9.700992125984252
 10
-10.17171653543307
 20
9.697814960629922
 10
-10.17693700787401
 20
9.694846456692913
 10
-10.18234251968504
 20
9.692086614173228
 10
-10.18793307086614
 20
9.689531496062992
 10
-10.19375984251968
 20
9.68723622047244
 10
-10.19988188976378
 20
9.685248031496062
 10
-10.20629921259843
 20
9.683562992125983
 10
-10.21300787401575
 20
9.68218503937008
 10
-10.22001181102362
 20
9.681114173228346
 10
-10.22731102362205
 20
9.680350393700788
 10
-10.23490157480315
 20
9.679889763779528
 10
-10.2427874015748
 20
9.67973622047244
 10
-10.2508188976378
 20
9.680074803149607
 10
-10.25885039370079
 20
9.681082677165355
 10
-10.26688188976378
 20
9.682767716535434
 10
-10.27491338582677
 20
9.685122047244095
 10
-10.28294488188976
 20
9.688153543307086
 10
-10.29098031496063
 20
9.691858267716535
 10
-10.29901181102362
 20
9.696236220472441
 10
-10.30704724409449
 20
9.701287401574803
 10
-10.31478346456693
 20
9.706913385826772
 10
-10.32193307086614
 20
9.713015748031497
 10
-10.32849606299213
 20
9.71959842519685
 10
-10.33447244094488
 20
9.72665748031496
 10
-10.33985826771653
 20
9.734192913385828
 10
-10.34465748031496
 20
9.742208661417322
 10
-10.34887007874016
 20
9.750700787401575
 10
-10.35249212598425
 20
9.759669291338582
 10
-10.40577952755905
 20
9.741641732283465
 10
-10.40071653543307
 20
9.728870078740158
 10
-10.39473622047244
 20
9.716712598425197
 10
-10.38783858267717
 20
9.705165354330708
 10
-10.38001968503937
 20
9.694232283464567
 10
-10.37128346456693
 20
9.683909448818898
 10
-10.36162992125984
 20
9.674200787401574
 10
-10.35105905511811
 20
9.665102362204724
 10
-10.33956692913386
 20
9.65661811023622
 10
-10.33391732283465
 20
9.652901574803149
 10
-10.32812992125984
 20
9.649393700787401
 10
-10.32220866141732
 20
9.646094488188977
 10
-10.31615354330709
 20
9.643003937007874
 10
-10.30996456692913
 20
9.640122047244095
 10
-10.30364173228346
 20
9.637444881889763
 10
-10.2971811023622
 20
9.63498031496063
 10
-10.29058661417323
 20
9.632720472440944
 10
-10.28383464566929
 20
9.630700787401574
 10
-10.27689763779528
 20
9.628948818897637
 10
-10.26977952755906
 20
9.627464566929135
 10
-10.26247637795276
 20
9.626255905511812
 10
-10.25498818897638
 20
9.625311023622046
 10
-10.2473188976378
 20
9.624637795275591
 10
-10.23946456692913
 20
9.624232283464567
 10
-10.23142519685039
 20
9.62409842519685
 10
-10.22329527559055
 20
9.624311023622047
 10
-10.21516535433071
 20
9.624956692913386
 10
-10.20703543307087
 20
9.626027559055117
 10
-10.19890551181102
 20
9.627527559055117
 10
-10.19077559055118
 20
9.629456692913386
 10
-10.18264566929134
 20
9.63181496062992
 10
-10.1745157480315
 20
9.63459842519685
 10
-10.16638582677165
 20
9.637814960629921
  0
LWPOLYLINE
  5
80
330
1F
100
AcDbEntity
  8
Layer 1
 62
     7
100
AcDbPolyline
 90
       67
 70
     1
 43
0.0
 10
-9.830503937007874
 20
9.619031496062993
 10
-9.837948818897639
 20
9.63331496062992
 10
-9.844913385826771
 20
9.647803149606299
 10
-9.851397637795275
 20
9.6625
 10
-9.857397637795275
 20
9.677401574803149
 10
-9.862921259842519
 20
9.692507874015748
 10
-9.867956692913387
 20
9.707818897637795
 10
-9.872511811023623
 20
9.723338582677165
 10
-9.87657874015748
 20
9.739062992125984
 10
-9.8801968503937
 20
9.755031496062992
 10
-9.883326771653543
 20
9.771216535433071
 10
-9.885972440944881
 20
9.787614173228347
 10
-9.888133858267716
 20
9.804228346456693
 10
-9.889814960629922
 20
9.821055118110236
 10
-9.891015748031496
 20
9.83809842519685
 10
-9.891732283464567
 20
9.85535433070866
 10
-9.891972440944881
 20
9.87282283464567
 10
-9.891732283464567
 20
9.891157480314961
 10
-9.891015748031496
 20
9.909161417322835
 10
-9.889822834645669
 20
9.926830708661416
 10
-9.88815748031496
 20
9.944173228346457
 10
-9.886015748031497
 20
9.96117716535433
 10
-9.88340157480315
 20
9.977850393700788
 10
-9.88031496062992
 20
9.994185039370079
 10
-9.87675590551181
 20
10.01018503937008
 10
-9.872688976377953
 20
10.02591338582677
 10
-9.868129921259843
 20
10.04138188976378
 10
-9.863086614173229
 20
10.05658661417323
 10
-9.857555118110236
 20
10.07153149606299
 10
-9.851531496062993
 20
10.08621653543307
 10
-9.845015748031496
 20
10.10064173228347
 10
-9.838007874015748
 20
10.11481102362205
 10
-9.830503937007874
 20
10.12872440944882
 10
-9.788551181102362
 20
10.11605905511811
 10
-9.795220472440946
 20
10.10233070866142
 10
-9.801448818897638
 20
10.08845669291339
 10
-9.807232283464566
 20
10.07443307086614
 10
-9.812570866141732
 20
10.06026377952756
 10
-9.817468503937008
 20
10.04594094488189
 10
-9.821929133858267
 20
10.03147244094488
 10
-9.825948818897638
 20
10.01685433070866
 10
-9.829527559055117
 20
10.0020905511811
 10
-9.832653543307087
 20
9.987066929133858
 10
-9.835366141732283
 20
9.971748031496062
 10
-9.837665354330708
 20
9.956122047244094
 10
-9.839547244094488
 20
9.940192913385827
 10
-9.841015748031497
 20
9.923952755905512
 10
-9.842062992125983
 20
9.90740157480315
 10
-9.842692913385827
 20
9.890535433070866
 10
-9.84290157480315
 20
9.873350393700788
 10
-9.8426968503937
 20
9.855397637795276
 10
-9.842074803149606
 20
9.83788188976378
 10
-9.841043307086615
 20
9.820803149606299
 10
-9.839594488188977
 20
9.804165354330708
 10
-9.837728346456693
 20
9.78796062992126
 10
-9.835444881889764
 20
9.772192913385826
 10
-9.83274409448819
 20
9.75686220472441
 10
-9.829622047244094
 20
9.741968503937008
 10
-9.826090551181103
 20
9.727389763779527
 10
-9.822102362204724
 20
9.71307874015748
 10
-9.817653543307086
 20
9.699023622047244
 10
-9.812748031496064
 20
9.685236220472442
 10
-9.80738188976378
 20
9.671704724409448
 10
-9.80155905511811
 20
9.658433070866142
 10
-9.795283464566928
 20
9.645417322834646
 10
-9.788551181102362
 20
9.632661417322835
 10
-9.830503937007874
 20
9.619031496062993
  0
LWPOLYLINE
  5
81
330
1F
100
AcDbEntity
  8
Layer 1
 62
     7
100
AcDbPolyline
 90
      103
 70
     1
 43
0.0
 10
-9.51146062992126
 20
9.783125984251969
 10
-9.51146062992126
 20
9.734055118110236
 10
-9.7641968503937
 20
9.734055118110236
 10
-9.623145669291338
 20
9.902807086614173
 10
-9.6168031496063
 20
9.910602362204724
 10
-9.610909448818898
 20
9.91815748031496
 10
-9.605456692913386
 20
9.925472440944882
 10
-9.600444881889764
 20
9.932551181102362
 10
-9.59587401574803
 20
9.939389763779527
 10
-9.591744094488188
 20
9.945992125984253
 10
-9.588051181102362
 20
9.952354330708662
 10
-9.584799212598424
 20
9.958476377952756
 10
-9.581956692913385
 20
9.964377952755905
 10
-9.579492125984252
 20
9.970149606299213
 10
-9.577405511811024
 20
9.975787401574804
 10
-9.575700787401574
 20
9.981291338582677
 10
-9.574374015748031
 20
9.98666535433071
 10
-9.573425196850394
 20
9.991909448818898
 10
-9.572858267716535
 20
9.99701968503937
 10
-9.572669291338583
 20
10.002
 10
-9.572929133858267
 20
10.00881102362205
 10
-9.573708661417323
 20
10.01525196850394
 10
-9.575007874015748
 20
10.02133070866142
 10
-9.576826771653543
 20
10.02703937007874
 10
-9.579165354330708
 20
10.0323779527559
 10
-9.58201968503937
 20
10.03734645669291
 10
-9.585397637795275
 20
10.04193700787402
 10
-9.589291338582678
 20
10.04614960629921
 10
-9.59363779527559
 20
10.04992125984252
 10
-9.598374015748032
 20
10.05318897637795
 10
-9.603488188976378
 20
10.05595669291339
 10
-9.608988188976378
 20
10.05822047244095
 10
-9.614866141732284
 20
10.05998031496063
 10
-9.621118110236221
 20
10.06123622047244
 10
-9.627748031496063
 20
10.06199212598425
 10
-9.634751968503936
 20
10.06224409448819
 10
-9.641070866141732
 20
10.06199212598425
 10
-9.647102362204725
 20
10.06123622047244
 10
-9.652850393700787
 20
10.05998031496063
 10
-9.658307086614172
 20
10.05822047244095
 10
-9.663484251968503
 20
10.05595669291339
 10
-9.668374015748032
 20
10.05318897637795
 10
-9.672984251968504
 20
10.04992125984252
 10
-9.677311023622048
 20
10.04614960629921
 10
-9.681271653543307
 20
10.04194094488189
 10
-9.684767716535433
 20
10.03742125984252
 10
-9.687807086614173
 20
10.03259448818898
 10
-9.690385826771653
 20
10.02744881889764
 10
-9.692503937007874
 20
10.02198818897638
 10
-9.694169291338582
 20
10.01620866141732
 10
-9.695377952755905
 20
10.01010236220472
 10
-9.696129921259843
 20
10.00366929133858
 10
-9.755224409448818
 20
10.00366929133858
 10
-9.754692913385826
 20
10.01604724409449
 10
-9.75309842519685
 20
10.02777952755905
 10
-9.75044094488189
 20
10.03887401574803
 10
-9.746720472440945
 20
10.04932677165354
 10
-9.741933070866141
 20
10.05913779527559
 10
-9.736086614173228
 20
10.06831496062992
 10
-9.729173228346456
 20
10.07685433070866
 10
-9.721196850393701
 20
10.08475590551181
 10
-9.712326771653544
 20
10.09183858267717
 10
-9.70272440944882
 20
10.09797637795276
 10
-9.692397637795276
 20
10.10317322834646
 10
-9.681338582677165
 20
10.10742913385827
 10
-9.669543307086615
 20
10.11074015748031
 10
-9.657011811023622
 20
10.1131062992126
 10
-9.643748031496063
 20
10.11452755905512
 10
-9.629740157480315
 20
10.115
 10
-9.616444881889764
 20
10.11456299212598
 10
-9.603870078740158
 20
10.11325196850394
 10
-9.592015748031496
 20
10.11106299212598
 10
-9.580877952755905
 20
10.108
 10
-9.570464566929134
 20
10.10405905511811
 10
-9.560771653543307
 20
10.09923622047244
 10
-9.551803149606299
 20
10.09353937007874
 10
-9.543559055118111
 20
10.08695669291339
 10
-9.536169291338583
 20
10.07961417322835
 10
-9.529759842519685
 20
10.07163779527559
 10
-9.524334645669292
 20
10.06302362204724
 10
-9.519893700787401
 20
10.05377952755905
 10
-9.516437007874016
 20
10.04389763779528
 10
-9.513968503937008
 20
10.03338188976378
 10
-9.512488188976379
 20
10.02223228346457
 10
-9.511992125984252
 20
10.01044488188976
 10
-9.51227559055118
 20
10.00182677165354
 10
-9.513129921259843
 20
9.993181102362204
 10
-9.514547244094489
 20
9.984511811023623
 10
-9.516531496062992
 20
9.975818897637796
 10
-9.51907874015748
 20
9.967102362204724
 10
-9.522192913385826
 20
9.958358267716536
 10
-9.525870078740157
 20
9.949590551181103
 10
-9.530106299212598
 20
9.940799212598424
 10
-9.535287401574804
 20
9.931527559055118
 10
-9.541732283464567
 20
9.921259842519685
 10
-9.549440944881889
 20
9.909992125984251
 10
-9.558409448818898
 20
9.897728346456693
 10
-9.568645669291339
 20
9.884468503937008
 10
-9.580149606299212
 20
9.870208661417323
 10
-9.59292125984252
 20
9.854952755905511
 10
-9.606960629921259
 20
9.838700787401574
 10
-9.654889763779527
 20
9.783125984251969
 10
-9.51146062992126
 20
9.783125984251969
  0
LWPOLYLINE
  5
82
330
1F
100
AcDbEntity
  8
Layer 1
 62
     7
100
AcDbPolyline
 90
      128
 70
     1
 43
0.0
 10
-9.395826771653544
 20
9.824188976377952
 10
-9.39241338582677
 20
9.818299212598426
 10
-9.388767716535433
 20
9.81276377952756
 10
-9.384889763779528
 20
9.807586614173228
 10
-9.38078346456693
 20
9.80276377952756
 10
-9.376448818897638
 20
9.7983031496063
 10
-9.37188188976378
 20
9.794200787401575
 10
-9.367082677165355
 20
9.790456692913386
 10
-9.362055118110236
 20
9.78707874015748
 10
-9.356807086614173
 20
9.784051181102361
 10
-9.35142125984252
 20
9.781425196850394
 10
-9.345889763779528
 20
9.779204724409448
 10
-9.340224409448819
 20
9.777385826771653
 10
-9.334413385826771
 20
9.775972440944882
 10
-9.328464566929133
 20
9.77496062992126
 10
-9.322377952755906
 20
9.774354330708661
 10
-9.316149606299213
 20
9.774153543307087
 10
-9.307011811023623
 20
9.774523622047244
 10
-9.298322834645669
 20
9.77563779527559
 10
-9.290086614173228
 20
9.777496062992126
 10
-9.28229527559055
 20
9.78009842519685
 10
-9.274948818897638
 20
9.783448818897638
 10
-9.268047244094488
 20
9.787547244094489
 10
-9.261582677165354
 20
9.792389763779527
 10
-9.25555905511811
 20
9.797984251968504
 10
-9.25011811023622
 20
9.804188976377953
 10
-9.24540157480315
 20
9.81086220472441
 10
-9.241413385826771
 20
9.818007874015748
 10
-9.238145669291338
 20
9.825622047244094
 10
-9.235606299212598
 20
9.833704724409449
 10
-9.233795275590552
 20
9.842255905511811
 10
-9.232704724409448
 20
9.851279527559056
 10
-9.232342519685039
 20
9.860771653543306
 10
-9.232720472440946
 20
9.869917322834645
 10
-9.23386220472441
 20
9.87861811023622
 10
-9.235759842519686
 20
9.886877952755906
 10
-9.23842125984252
 20
9.8946968503937
 10
-9.241846456692913
 20
9.90207874015748
 10
-9.246031496062992
 20
9.909027559055119
 10
-9.250984251968504
 20
9.915543307086613
 10
-9.256700787401575
 20
9.921625984251968
 10
-9.263035433070867
 20
9.927129921259843
 10
-9.269842519685039
 20
9.931897637795275
 10
-9.27711811023622
 20
9.935933070866142
 10
-9.284866141732284
 20
9.939236220472441
 10
-9.293082677165355
 20
9.941803149606299
 10
-9.301767716535434
 20
9.94363779527559
 10
-9.31092125984252
 20
9.944740157480314
 10
-9.320547244094488
 20
9.945106299212599
 10
-9.326425196850394
 20
9.94498031496063
 10
-9.332192913385827
 20
9.944594488188976
 10
-9.337846456692914
 20
9.94396062992126
 10
-9.343389763779527
 20
9.943070866141733
 10
-9.348826771653544
 20
9.941933070866142
 10
-9.354161417322835
 20
9.94053937007874
 10
-9.359389763779527
 20
9.93890157480315
 10
-9.364515748031495
 20
9.937011811023622
 10
-9.369488188976378
 20
9.934846456692913
 10
-9.374311023622047
 20
9.932444881889763
 10
-9.378992125984253
 20
9.929795275590552
 10
-9.383523622047244
 20
9.92690157480315
 10
-9.387913385826772
 20
9.923759842519685
 10
-9.39215748031496
 20
9.920370078740158
 10
-9.396259842519685
 20
9.916728346456694
 10
-9.40022440944882
 20
9.912830708661417
 10
-9.415433070866142
 20
9.91626377952756
 10
-9.368476377952756
 20
10.10761417322835
 10
-9.190220472440945
 20
10.10761417322835
 10
-9.190220472440945
 20
10.05801968503937
 10
-9.331625984251968
 20
10.05801968503937
 10
-9.353787401574802
 20
9.974744094488189
 10
-9.346122047244094
 20
9.977712598425196
 10
-9.338574803149607
 20
9.980283464566929
 10
-9.33115748031496
 20
9.982456692913386
 10
-9.323889763779528
 20
9.984236220472441
 10
-9.3166968503937
 20
9.985570866141732
 10
-9.3095
 20
9.986535433070866
 10
-9.30228346456693
 20
9.987122047244094
 10
-9.295047244094489
 20
9.987318897637795
 10
-9.281905511811024
 20
9.986779527559055
 10
-9.269393700787402
 20
9.98515748031496
 10
-9.257507874015747
 20
9.982456692913386
 10
-9.246251968503937
 20
9.97867716535433
 10
-9.235625984251968
 20
9.973818897637795
 10
-9.225633858267717
 20
9.967877952755906
 10
-9.216271653543307
 20
9.960858267716535
 10
-9.207547244094489
 20
9.952759842519685
 10
-9.199633858267717
 20
9.943822834645669
 10
-9.19277559055118
 20
9.934224409448818
 10
-9.186968503937008
 20
9.923972440944882
 10
-9.182220472440944
 20
9.913062992125985
 10
-9.178527559055118
 20
9.9015
 10
-9.175889763779528
 20
9.88928346456693
 10
-9.174307086614172
 20
9.876409448818897
 10
-9.173779527559056
 20
9.862885826771654
 10
-9.174393700787402
 20
9.847452755905511
 10
-9.176236220472441
 20
9.832811023622048
 10
-9.179311023622047
 20
9.818968503937008
 10
-9.183618110236221
 20
9.80592125984252
 10
-9.189157480314961
 20
9.793673228346456
 10
-9.195929133858268
 20
9.782228346456693
 10
-9.203933070866142
 20
9.771586614173229
 10
-9.213177165354331
 20
9.761751968503937
 10
-9.223452755905512
 20
9.752913385826771
 10
-9.234562992125984
 20
9.745248031496063
 10
-9.246507874015748
 20
9.738767716535433
 10
-9.259287401574802
 20
9.73346062992126
 10
-9.272905511811024
 20
9.729334645669292
 10
-9.28736220472441
 20
9.726389763779528
 10
-9.302657480314961
 20
9.724622047244095
 10
-9.318791338582677
 20
9.724031496062992
 10
-9.328425196850393
 20
9.724240157480315
 10
-9.337736220472442
 20
9.724874015748032
 10
-9.34672440944882
 20
9.725925196850394
 10
-9.3553937007874
 20
9.727405511811023
 10
-9.363740157480315
 20
9.729307086614174
 10
-9.371763779527559
 20
9.731633858267717
 10
-9.379468503937009
 20
9.734389763779527
 10
-9.386850393700787
 20
9.737570866141732
 10
-9.39392125984252
 20
9.74116535433071
 10
-9.400748031496063
 20
9.745224409448818
 10
-9.407334645669291
 20
9.74974409448819
 10
-9.413673228346457
 20
9.754732283464566
 10
-9.419767716535434
 20
9.760181102362205
 10
-9.425610236220473
 20
9.76609842519685
 10
-9.431200787401576
 20
9.772484251968503
 10
-9.436535433070866
 20
9.779338582677166
 10
-9.395826771653544
 20
9.824188976377952
  0
LWPOLYLINE
  5
83
330
1F
100
AcDbEntity
  8
Layer 1
 62
     7
100
AcDbPolyline
 90
       65
 70
     1
 43
0.0
 10
-8.842952755905511
 20
9.915649606299212
 10
-8.84351968503937
 20
9.893799212598426
 10
-8.845212598425197
 20
9.87315748031496
 10
-8.848039370078741
 20
9.853732283464566
 10
-8.852
 20
9.835523622047244
 10
-8.857094488188977
 20
9.818531496062992
 10
-8.86332283464567
 20
9.80275590551181
 10
-8.870688976377952
 20
9.788196850393701
 10
-8.879188976377952
 20
9.774858267716535
 10
-8.888649606299213
 20
9.762952755905511
 10
-8.898956692913385
 20
9.752633858267716
 10
-8.910114173228347
 20
9.743897637795275
 10
-8.922122047244095
 20
9.736748031496063
 10
-8.93498031496063
 20
9.731185039370079
 10
-8.948685039370078
 20
9.727212598425197
 10
-8.963240157480316
 20
9.724826771653543
 10
-8.978641732283464
 20
9.724031496062992
 10
-8.994251968503937
 20
9.724834645669292
 10
-9.008964566929134
 20
9.727244094488189
 10
-9.02278346456693
 20
9.731259842519686
 10
-9.035704724409449
 20
9.73688188976378
 10
-9.047732283464567
 20
9.744106299212598
 10
-9.058866141732283
 20
9.752933070866142
 10
-9.0691062992126
 20
9.763358267716535
 10
-9.078456692913386
 20
9.775385826771654
 10
-9.086830708661417
 20
9.788893700787401
 10
-9.094086614173229
 20
9.803700787401574
 10
-9.100224409448819
 20
9.819799212598426
 10
-9.105240157480315
 20
9.8371968503937
 10
-9.109141732283465
 20
9.855893700787401
 10
-9.111925196850393
 20
9.875885826771654
 10
-9.11359842519685
 20
9.897181102362206
 10
-9.114153543307086
 20
9.919779527559054
 10
-9.113590551181103
 20
9.942196850393701
 10
-9.111897637795275
 20
9.963342519685039
 10
-9.10907874015748
 20
9.983212598425197
 10
-9.105129921259843
 20
10.00181496062992
 10
-9.10005905511811
 20
10.01914173228347
 10
-9.09386220472441
 20
10.03519291338583
 10
-9.086543307086615
 20
10.04996850393701
 10
-9.078102362204724
 20
10.06346850393701
 10
-9.068657480314961
 20
10.07555511811024
 10
-9.05833464566929
 20
10.08602755905512
 10
-9.047129921259842
 20
10.09488582677165
 10
-9.035047244094487
 20
10.10212992125984
 10
-9.022082677165354
 20
10.10776377952756
 10
-9.008248031496063
 20
10.11178346456693
 10
-8.993531496062992
 20
10.1141968503937
 10
-8.977944881889764
 20
10.115
 10
-8.962185039370079
 20
10.11419291338583
 10
-8.947354330708661
 20
10.11177165354331
 10
-8.93346062992126
 20
10.10773622047244
 10
-8.920496062992125
 20
10.10208661417323
 10
-8.908464566929133
 20
10.09482677165354
 10
-8.89736220472441
 20
10.08595669291339
 10
-8.887192913385826
 20
10.07547637795276
 10
-8.877956692913386
 20
10.06338582677165
 10
-8.86976377952756
 20
10.04976377952756
 10
-8.86265748031496
 20
10.03475984251969
 10
-8.856641732283464
 20
10.01837007874016
 10
-8.85171653543307
 20
10.00059448818898
 10
-8.84788188976378
 20
9.981433070866142
 10
-8.84514566929134
 20
9.960889763779528
 10
-8.8435
 20
9.93896062992126
 10
-8.842952755905511
 20
9.915649606299212
  0
LWPOLYLINE
  5
84
330
1F
100
AcDbEntity
  8
Layer 1
 62
     7
100
AcDbPolyline
 90
       65
 70
     1
 43
0.0
 10
-8.979700787401574
 20
9.776787401574802
 10
-8.970590551181102
 20
9.777346456692914
 10
-8.962059055118111
 20
9.779031496062991
 10
-8.954110236220473
 20
9.781838582677166
 10
-8.946744094488189
 20
9.785767716535434
 10
-8.939964566929135
 20
9.790826771653544
 10
-8.933771653543307
 20
9.797007874015748
 10
-8.928169291338582
 20
9.804318897637796
 10
-8.923157480314961
 20
9.81275590551181
 10
-8.918704724409448
 20
9.822287401574803
 10
-8.914846456692914
 20
9.832937007874015
 10
-8.911582677165354
 20
9.844708661417323
 10
-8.908909448818898
 20
9.857594488188976
 10
-8.906830708661417
 20
9.87159842519685
 10
-8.905350393700788
 20
9.886720472440945
 10
-8.904456692913385
 20
9.902956692913385
 10
-8.904161417322834
 20
9.920307086614173
 10
-8.904452755905512
 20
9.937169291338583
 10
-8.905330708661417
 20
9.953003937007875
 10
-8.906795275590552
 20
9.967803149606299
 10
-8.90884251968504
 20
9.981566929133859
 10
-8.911476377952756
 20
9.994299212598426
 10
-8.914696850393701
 20
10.00599606299213
 10
-8.9185
 20
10.01665354330709
 10
-8.922889763779528
 20
10.02627559055118
 10
-8.927814960629922
 20
10.03483858267717
 10
-8.933279527559055
 20
10.04225590551181
 10
-8.939287401574804
 20
10.04852755905512
 10
-8.945834645669292
 20
10.05365748031496
 10
-8.952921259842519
 20
10.05764566929134
 10
-8.960547244094489
 20
10.06049606299213
 10
-8.968712598425197
 20
10.06220078740157
 10
-8.977417322834645
 20
10.06277165354331
 10
-8.98646062992126
 20
10.06220472440945
 10
-8.99494094488189
 20
10.06049606299213
 10
-9.002850393700788
 20
10.05765748031496
 10
-9.010188976377952
 20
10.05368110236221
 10
-9.01696062992126
 20
10.04857086614173
 10
-9.02316535433071
 20
10.04233070866142
 10
-9.028799212598425
 20
10.03495669291339
 10
-9.033866141732284
 20
10.02645275590551
 10
-9.038350393700787
 20
10.01681496062992
 10
-9.042232283464568
 20
10.00610236220473
 10
-9.045511811023623
 20
9.994318897637795
 10
-9.048192913385828
 20
9.981456692913385
 10
-9.050279527559056
 20
9.967523622047244
 10
-9.051763779527558
 20
9.952511811023623
 10
-9.052657480314961
 20
9.93642125984252
 10
-9.052952755905512
 20
9.919251968503938
 10
-9.052657480314961
 20
9.902566929133858
 10
-9.051767716535434
 20
9.886870078740158
 10
-9.05028346456693
 20
9.872169291338583
 10
-9.048204724409448
 20
9.858464566929134
 10
-9.045535433070865
 20
9.845755905511812
 10
-9.042271653543308
 20
9.834047244094489
 10
-9.038409448818898
 20
9.82334251968504
 10
-9.033956692913385
 20
9.813637795275591
 10
-9.02898031496063
 20
9.805011811023622
 10
-9.023488188976378
 20
9.797527559055117
 10
-9.017476377952756
 20
9.791196850393701
 10
-9.010952755905512
 20
9.786011811023622
 10
-9.003909448818897
 20
9.781976377952756
 10
-8.996350393700787
 20
9.779094488188976
 10
-8.98828346456693
 20
9.777366141732283
 10
-8.979700787401574
 20
9.776787401574802
  0
LWPOLYLINE
  5
85
330
1F
100
AcDbEntity
  8
Layer 1
 62
     7
100
AcDbPolyline
 90
      157
 70
     1
 43
0.0
 10
-8.724763779527558
 20
9.734055118110236
 10
-8.780692913385828
 20
9.734055118110236
 10
-8.780692913385828
 20
9.978346456692913
 10
-8.728114173228347
 20
9.978346456692913
 10
-8.728114173228347
 20
9.938248031496062
 10
-8.723854330708662
 20
9.944429133858268
 10
-8.719452755905511
 20
9.950181102362205
 10
-8.714913385826772
 20
9.955503937007874
 10
-8.71023622047244
 20
9.960393700787401
 10
-8.705417322834645
 20
9.964854330708661
 10
-8.700456692913386
 20
9.968877952755905
 10
-8.695358267716536
 20
9.972464566929133
 10
-8.690122047244094
 20
9.975618110236221
 10
-8.684692913385827
 20
9.978370078740157
 10
-8.679023622047245
 20
9.980748031496063
 10
-8.67311811023622
 20
9.982759842519686
 10
-8.666972440944882
 20
9.984405511811024
 10
-8.660586614173228
 20
9.985681102362205
 10
-8.65396062992126
 20
9.986590551181102
 10
-8.647094488188976
 20
9.98713779527559
 10
-8.639992125984252
 20
9.987318897637795
 10
-8.632988188976379
 20
9.987133858267716
 10
-8.626295275590552
 20
9.986574803149606
 10
-8.619905511811023
 20
9.985645669291339
 10
-8.613822834645669
 20
9.984338582677166
 10
-8.608047244094488
 20
9.98265748031496
 10
-8.602582677165355
 20
9.980602362204724
 10
-8.597433070866142
 20
9.978169291338583
 10
-8.592590551181102
 20
9.975358267716535
 10
-8.58801968503937
 20
9.972161417322834
 10
-8.58373622047244
 20
9.968566929133859
 10
-8.579740157480314
 20
9.964582677165355
 10
-8.576027559055118
 20
9.960200787401575
 10
-8.572602362204725
 20
9.955429133858267
 10
-8.569456692913386
 20
9.950267716535434
 10
-8.566594488188976
 20
9.94471653543307
 10
-8.564015748031496
 20
9.938775590551181
 10
-8.559129921259842
 20
9.944893700787402
 10
-8.554173228346457
 20
9.95057874015748
 10
-8.549137795275591
 20
9.955838582677165
 10
-8.544031496062992
 20
9.960669291338583
 10
-8.538850393700788
 20
9.965070866141732
 10
-8.533594488188976
 20
9.969047244094488
 10
-8.52826377952756
 20
9.972590551181103
 10
-8.52286220472441
 20
9.975708661417324
 10
-8.517326771653543
 20
9.978429133858267
 10
-8.511598425196851
 20
9.980787401574803
 10
-8.505685039370078
 20
9.982783464566928
 10
-8.49957874015748
 20
9.984417322834645
 10
-8.493283464566929
 20
9.985685039370079
 10
-8.486799212598426
 20
9.986594488188976
 10
-8.480125984251968
 20
9.98713779527559
 10
-8.473259842519685
 20
9.987318897637795
 10
-8.467318897637796
 20
9.98717716535433
 10
-8.461570866141733
 20
9.986759842519685
 10
-8.456011811023622
 20
9.986062992125984
 10
-8.450641732283465
 20
9.985086614173229
 10
-8.445456692913385
 20
9.983838582677166
 10
-8.440464566929133
 20
9.982311023622048
 10
-8.435661417322835
 20
9.980511811023622
 10
-8.431047244094488
 20
9.978437007874016
 10
-8.42665748031496
 20
9.976070866141733
 10
-8.422523622047244
 20
9.973452755905512
 10
-8.418641732283465
 20
9.970590551181102
 10
-8.415015748031497
 20
9.967476377952757
 10
-8.41163779527559
 20
9.964110236220472
 10
-8.408511811023622
 20
9.960492125984253
 10
-8.405633858267716
 20
9.95661811023622
 10
-8.403003937007874
 20
9.952492125984252
 10
-8.400791338582676
 20
9.948326771653543
 10
-8.398909448818898
 20
9.943744094488189
 10
-8.397358267716536
 20
9.938767716535432
 10
-8.39613779527559
 20
9.933413385826771
 10
-8.395161417322834
 20
9.927279527559055
 10
-8.394476377952756
 20
9.919956692913386
 10
-8.394070866141732
 20
9.911444881889764
 10
-8.393937007874015
 20
9.901748031496062
 10
-8.393937007874015
 20
9.882141732283465
 10
-8.393937007874015
 20
9.734055118110236
 10
-8.449866141732283
 20
9.734055118110236
 10
-8.449866141732283
 20
9.859452755905512
 10
-8.450031496062993
 20
9.871228346456693
 10
-8.450523622047244
 20
9.88196062992126
 10
-8.451346456692914
 20
9.89163779527559
 10
-8.452496062992125
 20
9.900267716535433
 10
-8.453968503937007
 20
9.907846456692914
 10
-8.455767716535433
 20
9.914370078740157
 10
-8.457889763779528
 20
9.919846456692913
 10
-8.460334645669292
 20
9.924263779527559
 10
-8.4631968503937
 20
9.927913385826772
 10
-8.466566929133858
 20
9.931074803149606
 10
-8.470452755905512
 20
9.933751968503937
 10
-8.474846456692914
 20
9.93594094488189
 10
-8.479751968503937
 20
9.937645669291339
 10
-8.485169291338583
 20
9.93886220472441
 10
-8.491094488188976
 20
9.939590551181102
 10
-8.497535433070865
 20
9.939834645669292
 10
-8.505484251968504
 20
9.939503937007874
 10
-8.512834645669292
 20
9.938515748031495
 10
-8.519594488188977
 20
9.936870078740158
 10
-8.525763779527558
 20
9.934570866141732
 10
-8.531334645669292
 20
9.931610236220472
 10
-8.536314960629921
 20
9.928
 10
-8.540700787401574
 20
9.923732283464567
 10
-8.544492125984252
 20
9.918814960629922
 10
-8.547799212598425
 20
9.913074803149605
 10
-8.550661417322834
 20
9.906350393700787
 10
-8.55307874015748
 20
9.89863779527559
 10
-8.555055118110236
 20
9.889937007874016
 10
-8.556590551181102
 20
9.880251968503938
 10
-8.557688976377953
 20
9.869582677165354
 10
-8.55834251968504
 20
9.857933070866142
 10
-8.558562992125983
 20
9.845299212598425
 10
-8.558562992125983
 20
9.734055118110236
 10
-8.61501968503937
 20
9.734055118110236
 10
-8.61501968503937
 20
9.859452755905512
 10
-8.615188976377953
 20
9.87036220472441
 10
-8.6156968503937
 20
9.880393700787401
 10
-8.616543307086614
 20
9.889555118110236
 10
-8.617732283464568
 20
9.897850393700788
 10
-8.619263779527559
 20
9.905271653543307
 10
-8.621141732283464
 20
9.911822834645669
 10
-8.623358267716535
 20
9.917511811023623
 10
-8.625925196850394
 20
9.922330708661418
 10
-8.628913385826772
 20
9.92644094488189
 10
-8.632401574803149
 20
9.93
 10
-8.636389763779528
 20
9.933007874015749
 10
-8.640874015748032
 20
9.935468503937008
 10
-8.645854330708662
 20
9.937377952755906
 10
-8.651326771653544
 20
9.93874409448819
 10
-8.657287401574804
 20
9.939562992125984
 10
-8.663740157480316
 20
9.939834645669292
 10
-8.66781496062992
 20
9.939720472440944
 10
-8.671799212598426
 20
9.939370078740158
 10
-8.6756968503937
 20
9.938787401574803
 10
-8.6795
 20
9.937972440944883
 10
-8.68321653543307
 20
9.936925196850394
 10
-8.686838582677165
 20
9.935637795275591
 10
-8.69037401574803
 20
9.934114173228346
 10
-8.693814960629922
 20
9.93235433070866
 10
-8.697153543307087
 20
9.930389763779528
 10
-8.700311023622048
 20
9.928248031496063
 10
-8.703287401574803
 20
9.925937007874015
 10
-8.706090551181102
 20
9.923452755905512
 10
-8.708712598425198
 20
9.920795275590551
 10
-8.711161417322835
 20
9.917960629921259
 10
-8.713433070866142
 20
9.914956692913385
 10
-8.715531496062992
 20
9.911779527559055
 10
-8.717909448818897
 20
9.907259842519686
 10
-8.719897637795276
 20
9.902279527559054
 10
-8.721503937007874
 20
9.896838582677166
 10
-8.722740157480315
 20
9.890937007874015
 10
-8.723614173228347
 20
9.883433070866142
 10
-8.724248031496064
 20
9.873326771653543
 10
-8.724633858267717
 20
9.86061811023622
 10
-8.724763779527558
 20
9.845299212598425
 10
-8.724763779527558
 20
9.734055118110236
  0
LWPOLYLINE
  5
86
330
1F
100
AcDbEntity
  8
Layer 1
 62
     7
100
AcDbPolyline
 90
      157
 70
     1
 43
0.0
 10
-8.263082677165354
 20
9.734055118110236
 10
-8.319011811023621
 20
9.734055118110236
 10
-8.319011811023621
 20
9.978346456692913
 10
-8.266433070866142
 20
9.978346456692913
 10
-8.266433070866142
 20
9.938248031496062
 10
-8.262173228346457
 20
9.944429133858268
 10
-8.257771653543307
 20
9.950181102362205
 10
-8.253232283464566
 20
9.955503937007874
 10
-8.248555118110236
 20
9.960393700787401
 10
-8.24373622047244
 20
9.964854330708661
 10
-8.238775590551182
 20
9.968877952755905
 10
-8.233677165354331
 20
9.972464566929133
 10
-8.22844094488189
 20
9.975618110236221
 10
-8.223011811023621
 20
9.978370078740157
 10
-8.217342519685038
 20
9.980748031496063
 10
-8.211437007874016
 20
9.982759842519686
 10
-8.205291338582677
 20
9.984405511811024
 10
-8.198905511811024
 20
9.985681102362205
 10
-8.192279527559055
 20
9.986590551181102
 10
-8.185413385826772
 20
9.98713779527559
 10
-8.178311023622047
 20
9.987318897637795
 10
-8.171307086614172
 20
9.987133858267716
 10
-8.164614173228346
 20
9.986574803149606
 10
-8.158224409448819
 20
9.985645669291339
 10
-8.152141732283464
 20
9.984338582677166
 10
-8.146366141732283
 20
9.98265748031496
 10
-8.14090157480315
 20
9.980602362204724
 10
-8.135751968503937
 20
9.978169291338583
 10
-8.130909448818898
 20
9.975358267716535
 10
-8.126338582677166
 20
9.972161417322834
 10
-8.122055118110236
 20
9.968566929133859
 10
-8.11805905511811
 20
9.964582677165355
 10
-8.114350393700787
 20
9.960200787401575
 10
-8.11092125984252
 20
9.955429133858267
 10
-8.107779527559055
 20
9.950267716535434
 10
-8.104917322834646
 20
9.94471653543307
 10
-8.102338582677165
 20
9.938775590551181
 10
-8.097452755905511
 20
9.944893700787402
 10
-8.092492125984252
 20
9.95057874015748
 10
-8.087456692913387
 20
9.955838582677165
 10
-8.082350393700787
 20
9.960669291338583
 10
-8.077169291338583
 20
9.965070866141732
 10
-8.071913385826772
 20
9.969047244094488
 10
-8.066582677165353
 20
9.972590551181103
 10
-8.061181102362205
 20
9.975708661417324
 10
-8.055645669291339
 20
9.978429133858267
 10
-8.049917322834645
 20
9.980787401574803
 10
-8.044003937007874
 20
9.982783464566928
 10
-8.037901574803149
 20
9.984417322834645
 10
-8.031606299212598
 20
9.985685039370079
 10
-8.025122047244095
 20
9.986594488188976
 10
-8.018448818897637
 20
9.98713779527559
 10
-8.011582677165354
 20
9.987318897637795
 10
-8.005641732283465
 20
9.98717716535433
 10
-7.999893700787402
 20
9.986759842519685
 10
-7.994330708661417
 20
9.986062992125984
 10
-7.98896062992126
 20
9.985086614173229
 10
-7.983779527559055
 20
9.983838582677166
 10
-7.978783464566929
 20
9.982311023622048
 10
-7.97398031496063
 20
9.980511811023622
 10
-7.969366141732284
 20
9.978437007874016
 10
-7.964976377952756
 20
9.976070866141733
 10
-7.960842519685039
 20
9.973452755905512
 10
-7.95696062992126
 20
9.970590551181102
 10
-7.953334645669291
 20
9.967476377952757
 10
-7.949956692913386
 20
9.964110236220472
 10
-7.946830708661417
 20
9.960492125984253
 10
-7.943952755905512
 20
9.95661811023622
 10
-7.941322834645669
 20
9.952492125984252
 10
-7.939110236220473
 20
9.948326771653543
 10
-7.937228346456693
 20
9.943744094488189
 10
-7.93567716535433
 20
9.938767716535432
 10
-7.934456692913386
 20
9.933413385826771
 10
-7.933484251968504
 20
9.927279527559055
 10
-7.932795275590551
 20
9.919956692913386
 10
-7.932389763779527
 20
9.911444881889764
 10
-7.932255905511811
 20
9.901748031496062
 10
-7.932255905511811
 20
9.882141732283465
 10
-7.932255905511811
 20
9.734055118110236
 10
-7.988188976377953
 20
9.734055118110236
 10
-7.988188976377953
 20
9.859452755905512
 10
-7.988354330708662
 20
9.871228346456693
 10
-7.988846456692913
 20
9.88196062992126
 10
-7.989669291338583
 20
9.89163779527559
 10
-7.990814960629922
 20
9.900267716535433
 10
-7.992287401574803
 20
9.907846456692914
 10
-7.994086614173228
 20
9.914370078740157
 10
-7.996208661417323
 20
9.919846456692913
 10
-7.998653543307086
 20
9.924263779527559
 10
-8.001515748031496
 20
9.927913385826772
 10
-8.004889763779527
 20
9.931074803149606
 10
-8.008771653543308
 20
9.933751968503937
 10
-8.013169291338583
 20
9.93594094488189
 10
-8.018074803149606
 20
9.937645669291339
 10
-8.023492125984252
 20
9.93886220472441
 10
-8.029417322834645
 20
9.939590551181102
 10
-8.035858267716536
 20
9.939834645669292
 10
-8.0438031496063
 20
9.939503937007874
 10
-8.051157480314961
 20
9.938515748031495
 10
-8.057917322834646
 20
9.936870078740158
 10
-8.064082677165354
 20
9.934570866141732
 10
-8.069653543307087
 20
9.931610236220472
 10
-8.074633858267717
 20
9.928
 10
-8.07901968503937
 20
9.923732283464567
 10
-8.082811023622048
 20
9.918814960629922
 10
-8.086118110236221
 20
9.913074803149605
 10
-8.08898031496063
 20
9.906350393700787
 10
-8.09140157480315
 20
9.89863779527559
 10
-8.093377952755905
 20
9.889937007874016
 10
-8.094913385826771
 20
9.880251968503938
 10
-8.096007874015749
 20
9.869582677165354
 10
-8.096661417322835
 20
9.857933070866142
 10
-8.096881889763779
 20
9.845299212598425
 10
-8.096881889763779
 20
9.734055118110236
 10
-8.153338582677165
 20
9.734055118110236
 10
-8.153338582677165
 20
9.859452755905512
 10
-8.153507874015748
 20
9.87036220472441
 10
-8.154015748031496
 20
9.880393700787401
 10
-8.15486220472441
 20
9.889555118110236
 10
-8.156051181102363
 20
9.897850393700788
 10
-8.157582677165355
 20
9.905271653543307
 10
-8.15946062992126
 20
9.911822834645669
 10
-8.16167716535433
 20
9.917511811023623
 10
-8.16424409448819
 20
9.922330708661418
 10
-8.167232283464568
 20
9.92644094488189
 10
-8.17072440944882
 20
9.93
 10
-8.174712598425197
 20
9.933007874015749
 10
-8.179196850393701
 20
9.935468503937008
 10
-8.184173228346456
 20
9.937377952755906
 10
-8.18964566929134
 20
9.93874409448819
 10
-8.1956062992126
 20
9.939562992125984
 10
-8.20205905511811
 20
9.939834645669292
 10
-8.206133858267716
 20
9.939720472440944
 10
-8.210122047244095
 20
9.939370078740158
 10
-8.214015748031496
 20
9.938787401574803
 10
-8.21782283464567
 20
9.937972440944883
 10
-8.221535433070866
 20
9.936925196850394
 10
-8.225161417322834
 20
9.935637795275591
 10
-8.228692913385826
 20
9.934114173228346
 10
-8.232133858267716
 20
9.93235433070866
 10
-8.235472440944882
 20
9.930389763779528
 10
-8.238629921259843
 20
9.928248031496063
 10
-8.241610236220472
 20
9.925937007874015
 10
-8.244409448818898
 20
9.923452755905512
 10
-8.247031496062991
 20
9.920795275590551
 10
-8.24948031496063
 20
9.917960629921259
 10
-8.251751968503937
 20
9.914956692913385
 10
-8.253850393700787
 20
9.911779527559055
 10
-8.256228346456693
 20
9.907259842519686
 10
-8.258216535433071
 20
9.902279527559054
 10
-8.25982283464567
 20
9.896838582677166
 10
-8.26105905511811
 20
9.890937007874015
 10
-8.261933070866142
 20
9.883433070866142
 10
-8.262566929133857
 20
9.873326771653543
 10
-8.262952755905511
 20
9.86061811023622
 10
-8.263082677165354
 20
9.845299212598425
 10
-8.263082677165354
 20
9.734055118110236
  0
LWPOLYLINE
  5
87
330
1F
100
AcDbEntity
  8
Layer 1
 62
     7
100
AcDbPolyline
 90
       67
 70
     1
 43
0.0
 10
-7.842559055118111
 20
9.619031496062993
 10
-7.884244094488189
 20
9.632661417322835
 10
-7.877515748031496
 20
9.645417322834646
 10
-7.871236220472441
 20
9.658433070866142
 10
-7.865417322834646
 20
9.671704724409448
 10
-7.860051181102362
 20
9.685236220472442
 10
-7.855145669291338
 20
9.699023622047244
 10
-7.8506968503937
 20
9.71307874015748
 10
-7.846708661417323
 20
9.727389763779527
 10
-7.843181102362204
 20
9.741968503937008
 10
-7.84005905511811
 20
9.75686220472441
 10
-7.837358267716535
 20
9.772192913385826
 10
-7.835074803149606
 20
9.78796062992126
 10
-7.833212598425197
 20
9.804165354330708
 10
-7.831759842519685
 20
9.820803149606299
 10
-7.830728346456693
 20
9.83788188976378
 10
-7.830106299212598
 20
9.855397637795276
 10
-7.82990157480315
 20
9.873350393700788
 10
-7.830106299212598
 20
9.890535433070866
 10
-7.830728346456693
 20
9.90740157480315
 10
-7.831759842519685
 20
9.923952755905512
 10
-7.833212598425197
 20
9.940192913385827
 10
-7.835074803149606
 20
9.956122047244094
 10
-7.837358267716535
 20
9.971748031496062
 10
-7.84005905511811
 20
9.987066929133858
 10
-7.843181102362204
 20
10.0020905511811
 10
-7.846708661417323
 20
10.01685433070866
 10
-7.8506968503937
 20
10.03147244094488
 10
-7.855145669291338
 20
10.04594094488189
 10
-7.860051181102362
 20
10.06026377952756
 10
-7.865417322834646
 20
10.07443307086614
 10
-7.871236220472441
 20
10.08845669291339
 10
-7.877515748031496
 20
10.10233070866142
 10
-7.884244094488189
 20
10.11605905511811
 10
-7.842559055118111
 20
10.12872440944882
 10
-7.834996062992126
 20
10.11481102362205
 10
-7.827933070866142
 20
10.10064173228347
 10
-7.821374015748032
 20
10.08621653543307
 10
-7.815311023622047
 20
10.07153149606299
 10
-7.809748031496063
 20
10.05658661417323
 10
-7.804685039370079
 20
10.04138188976378
 10
-7.800114173228346
 20
10.02591338582677
 10
-7.79603937007874
 20
10.01018503937008
 10
-7.792484251968504
 20
9.994185039370079
 10
-7.789397637795275
 20
9.977850393700788
 10
-7.786787401574803
 20
9.96117716535433
 10
-7.784645669291338
 20
9.944173228346457
 10
-7.782976377952756
 20
9.926830708661416
 10
-7.781787401574803
 20
9.909161417322835
 10
-7.781070866141732
 20
9.891157480314961
 10
-7.780830708661417
 20
9.87282283464567
 10
-7.781070866141732
 20
9.85535433070866
 10
-7.781787401574803
 20
9.83809842519685
 10
-7.782988188976378
 20
9.821055118110236
 10
-7.784669291338583
 20
9.804228346456693
 10
-7.786830708661418
 20
9.787614173228347
 10
-7.789472440944881
 20
9.771216535433071
 10
-7.792602362204724
 20
9.755031496062992
 10
-7.796216535433071
 20
9.739062992125984
 10
-7.800291338582677
 20
9.723338582677165
 10
-7.804858267716535
 20
9.707818897637795
 10
-7.809913385826771
 20
9.692507874015748
 10
-7.815464566929134
 20
9.677401574803149
 10
-7.821503937007874
 20
9.6625
 10
-7.828035433070866
 20
9.647803149606299
 10
-7.835051181102362
 20
9.63331496062992
 10
-7.842559055118111
 20
9.619031496062993
  0
ENDSEC
  0
SECTION
  2
OBJECTS
  0
DICTIONARY
  5
C
330
0
100
AcDbDictionary
281
     1
  3
ACAD_DETAILVIEWSTYLE
350
8F
  3
ACAD_GROUP
350
D
  3
ACAD_LAYOUT
350
1A
  3
ACAD_MATERIAL
350
43
  3
ACAD_MLEADERSTYLE
350
5B
  3
ACAD_MLINESTYLE
350
17
  3
ACAD_PLOTSETTINGS
350
19
  3
ACAD_PLOTSTYLENAME
350
E
  3
ACAD_SCALELIST
350
47
  3
ACAD_SECTIONVIEWSTYLE
350
90
  3
ACAD_TABLESTYLE
350
59
  3
ACAD_VISUALSTYLE
350
2A
  3
ACDB_RECOMPOSE_DATA
350
8C
  3
AcDbVariableDictionary
350
88
  0
SUN
  5
5D
330
29
100
AcDbSun
 90
        1
290
     0
 63
     7
421
 16777215
 40
1.0
291
     1
 91
  2455826
 92
 54000000
292
     0
 70
     2
 71
   256
280
     1
  0
DICTIONARY
  5
8F
102
{ACAD_REACTORS
330
C
102
}
330
C
100
AcDbDictionary
281
     1
  0
DICTIONARY
  5
D
102
{ACAD_REACTORS
330
C
102
}
330
C
100
AcDbDictionary
281
     1
  0
DICTIONARY
  5
1A
102
{ACAD_REACTORS
330
C
102
}
330
C
100
AcDbDictionary
281
     1
  3
Layout1
350
1E
  3
Layout2
350
26
  3
Model
350
22
  0
DICTIONARY
  5
43
102
{ACAD_REACTORS
330
C
102
}
330
C
100
AcDbDictionary
281
     1
  3
ByBlock
350
45
  3
ByLayer
350
44
  3
Global
350
46
  0
DICTIONARY
  5
5B
102
{ACAD_REACTORS
330
C
102
}
330
C
100
AcDbDictionary
281
     1
  3
Standard
350
5C
  0
DICTIONARY
  5
17
102
{ACAD_REACTORS
330
C
102
}
330
C
100
AcDbDictionary
281
     1
  3
Standard
350
18
  0
DICTIONARY
  5
19
102
{ACAD_REACTORS
330
C
102
}
330
C
100
AcDbDictionary
281
     1
  0
ACDBDICTIONARYWDFLT
  5
E
102
{ACAD_REACTORS
330
C
102
}
330
C
100
AcDbDictionary
281
     1
  3
Normal
350
F
100
AcDbDictionaryWithDefault
340
F
  0
DICTIONARY
  5
47
102
{ACAD_REACTORS
330
C
102
}
330
C
100
AcDbDictionary
281
     1
  3
A0
350
48
  3
A1
350
49
  3
A2
350
4A
  3
A3
350
4B
  3
A4
350
4C
  3
A5
350
4D
  3
A6
350
4E
  3
A7
350
4F
  3
A8
350
50
  3
A9
350
51
  3
B1
350
52
  3
B2
350
53
  3
B3
350
54
  3
B4
350
55
  3
B5
350
56
  3
B6
350
57
  3
B7
350
58
  0
DICTIONARY
  5
90
102
{ACAD_REACTORS
330
C
102
}
330
C
100
AcDbDictionary
281
     1
  0
DICTIONARY
  5
59
102
{ACAD_REACTORS
330
C
102
}
330
C
100
AcDbDictionary
281
     1
  3
Standard
350
5A
  0
DICTIONARY
  5
2A
102
{ACAD_REACTORS
330
C
102
}
330
C
100
AcDbDictionary
281
     1
  3
2dWireframe
350
2F
  3
Basic
350
32
  3
Brighten
350
36
  3
ColorChange
350
3A
  3
Conceptual
350
34
  3
Dim
350
35
  3
EdgeColorOff
350
3D
  3
Facepattern
350
39
  3
Flat
350
2B
  3
FlatWithEdges
350
2C
  3
Gouraud
350
2D
  3
GouraudWithEdges
350
2E
  3
Hidden
350
31
  3
JitterOff
350
3B
  3
Linepattern
350
38
  3
OverhangOff
350
3C
  3
Realistic
350
33
  3
Shaded
350
42
  3
Shaded with edges
350
41
  3
Shades of Gray
350
3E
  3
Sketchy
350
3F
  3
Thicken
350
37
  3
Wireframe
350
30
  3
X-Ray
350
40
  0
XRECORD
  5
8C
102
{ACAD_REACTORS
330
C
102
}
330
C
100
AcDbXrecord
280
     1
 90
        1
330
5A
  0
DICTIONARY
  5
88
102
{ACAD_REACTORS
330
C
102
}
330
C
100
AcDbDictionary
281
     1
  3
CANNOSCALE
350
89
  3
CMLEADERSTYLE
350
8E
  3
CTABLESTYLE
350
8D
  0
LAYOUT
  5
1E
102
{ACAD_REACTORS
330
1A
102
}
330
1A
100
AcDbPlotSettings
  1

  2
none_device
  4

  6

 40
0.0
 41
0.0
 42
0.0
 43
0.0
 44
0.0
 45
0.0
 46
0.0
 47
0.0
 48
0.0
 49
0.0
140
0.0
141
0.0
142
1.0
143
1.0
 70
   688
 72
     0
 73
     0
 74
     5
  7

 75
    16
 76
     0
 77
     2
 78
   300
147
1.0
148
0.0
149
0.0
100
AcDbLayout
  1
Layout1
 70
     1
 71
     1
 10
0.0
 20
0.0
 11
12.0
 21
9.0
 12
0.0
 22
0.0
 32
0.0
 14
1.000000000000000E+20
 24
1.000000000000000E+20
 34
1.000000000000000E+20
 15
-1.000000000000000E+20
 25
-1.000000000000000E+20
 35
-1.000000000000000E+20
146
0.0
 13
0.0
 23
0.0
 33
0.0
 16
1.0
 26
0.0
 36
0.0
 17
0.0
 27
1.0
 37
0.0
 76
     0
330
1B
  0
LAYOUT
  5
26
102
{ACAD_REACTORS
330
1A
102
}
330
1A
100
AcDbPlotSettings
  1

  2
none_device
  4

  6

 40
0.0
 41
0.0
 42
0.0
 43
0.0
 44
0.0
 45
0.0
 46
0.0
 47
0.0
 48
0.0
 49
0.0
140
0.0
141
0.0
142
1.0
143
1.0
 70
   688
 72
     0
 73
     0
 74
     5
  7

 75
    16
 76
     0
 77
     2
 78
   300
147
1.0
148
0.0
149
0.0
100
AcDbLayout
  1
Layout2
 70
     1
 71
     2
 10
0.0
 20
0.0
 11
0.0
 21
0.0
 12
0.0
 22
0.0
 32
0.0
 14
0.0
 24
0.0
 34
0.0
 15
0.0
 25
0.0
 35
0.0
146
0.0
 13
0.0
 23
0.0
 33
0.0
 16
1.0
 26
0.0
 36
0.0
 17
0.0
 27
1.0
 37
0.0
 76
     0
330
23
  0
LAYOUT
  5
22
102
{ACAD_REACTORS
330
1A
102
}
330
1A
100
AcDbPlotSettings
  1

  2
none_device
  4
Letter_(8.50_x_11.00_Inches)
  6

 40
6.35
 41
6.35
 42
6.35000508
 43
6.35000508
 44
215.9
 45
279.4
 46
0.0
 47
0.0
 48
0.0
 49
0.0
140
0.0
141
0.0
142
1.0
143
1.0
 70
  1712
 72
     0
 73
     0
 74
     0
  7

 75
     0
 76
     0
 77
     2
 78
   300
147
1.0
148
0.0
149
0.0
100
AcDbLayout
  1
Model
 70
     1
 71
     0
 10
0.0
 20
0.0
 11
12.0
 21
9.0
 12
0.0
 22
0.0
 32
0.0
 14
-14.69501968503937
 24
-4.439405511811024
 34
0.0
 15
-5.388622047244095
 25
10.70449606299213
 35
0.0
146
0.0
 13
0.0
 23
0.0
 33
0.0
 16
1.0
 26
0.0
 36
0.0
 17
0.0
 27
1.0
 37
0.0
 76
     0
330
1F
331
29
  0
MATERIAL
  5
45
102
{ACAD_REACTORS
330
43
102
}
330
43
100
AcDbMaterial
  1
ByBlock
 72
     1
 94
      127
  0
MATERIAL
  5
44
102
{ACAD_REACTORS
330
43
102
}
330
43
100
AcDbMaterial
  1
ByLayer
 72
     1
 94
      127
  0
MATERIAL
  5
46
102
{ACAD_REACTORS
330
43
102
}
330
43
100
AcDbMaterial
  1
Global
 72
     1
 94
      127
  0
MLEADERSTYLE
  5
5C
102
{ACAD_REACTORS
330
5B
102
}
330
5B
100
AcDbMLeaderStyle
179
     2
170
     2
171
     1
172
     0
 90
        2
 40
0.0
 41
0.0
173
     1
 91
-1056964608
340
14
 92
       -2
290
     1
 42
0.09
291
     1
 43
0.36
  3
Standard
341
0
 44
0.18
300

342
11
174
     1
178
     6
175
     1
176
     0
 93
-1056964608
 45
0.18
292
     0
297
     0
 46
0.18
343
0
 94
-1056964608
 47
1.0
 49
1.0
140
1.0
293
     1
141
0.0
294
     1
177
     0
142
1.0
295
     0
296
     0
143
0.125
271
     0
272
     9
273
     9
298
     0
  0
MLINESTYLE
  5
18
102
{ACAD_REACTORS
330
17
102
}
330
17
100
AcDbMlineStyle
  2
Standard
 70
     0
  3

 62
   256
 51
90.0
 52
90.0
 71
     2
 49
0.5
 62
   256
  6
BYLAYER
 49
-0.5
 62
   256
  6
BYLAYER
  0
ACDBPLACEHOLDER
  5
F
102
{ACAD_REACTORS
330
E
102
}
330
E
  0
SCALE
  5
48
102
{ACAD_REACTORS
330
47
102
}
330
47
100
AcDbScale
 70
     0
300
1:1
140
1.0
141
1.0
290
     1
  0
SCALE
  5
49
102
{ACAD_REACTORS
330
47
102
}
330
47
100
AcDbScale
 70
     0
300
1/128" = 1'-0"
140
0.0078125
141
12.0
290
     0
  0
SCALE
  5
4A
102
{ACAD_REACTORS
330
47
102
}
330
47
100
AcDbScale
 70
     0
300
1/64" = 1'-0"
140
0.015625
141
12.0
290
     0
  0
SCALE
  5
4B
102
{ACAD_REACTORS
330
47
102
}
330
47
100
AcDbScale
 70
     0
300
1/32" = 1'-0"
140
0.03125
141
12.0
290
     0
  0
SCALE
  5
4C
102
{ACAD_REACTORS
330
47
102
}
330
47
100
AcDbScale
 70
     0
300
1/16" = 1'-0"
140
0.0625
141
12.0
290
     0
  0
SCALE
  5
4D
102
{ACAD_REACTORS
330
47
102
}
330
47
100
AcDbScale
 70
     0
300
3/32" = 1'-0"
140
0.09375
141
12.0
290
     0
  0
SCALE
  5
4E
102
{ACAD_REACTORS
330
47
102
}
330
47
100
AcDbScale
 70
     0
300
1/8" = 1'-0"
140
0.125
141
12.0
290
     0
  0
SCALE
  5
4F
102
{ACAD_REACTORS
330
47
102
}
330
47
100
AcDbScale
 70
     0
300
3/16" = 1'-0"
140
0.1875
141
12.0
290
     0
  0
SCALE
  5
50
102
{ACAD_REACTORS
330
47
102
}
330
47
100
AcDbScale
 70
     0
300
1/4" = 1'-0"
140
0.25
141
12.0
290
     0
  0
SCALE
  5
51
102
{ACAD_REACTORS
330
47
102
}
330
47
100
AcDbScale
 70
     0
300
3/8" = 1'-0"
140
0.375
141
12.0
290
     0
  0
SCALE
  5
52
102
{ACAD_REACTORS
330
47
102
}
330
47
100
AcDbScale
 70
     0
300
1/2" = 1'-0"
140
0.5
141
12.0
290
     0
  0
SCALE
  5
53
102
{ACAD_REACTORS
330
47
102
}
330
47
100
AcDbScale
 70
     0
300
3/4" = 1'-0"
140
0.75
141
12.0
290
     0
  0
SCALE
  5
54
102
{ACAD_REACTORS
330
47
102
}
330
47
100
AcDbScale
 70
     0
300
1" = 1'-0"
140
1.0
141
12.0
290
     0
  0
SCALE
  5
55
102
{ACAD_REACTORS
330
47
102
}
330
47
100
AcDbScale
 70
     0
300
1-1/2" = 1'-0"
140
1.5
141
12.0
290
     0
  0
SCALE
  5
56
102
{ACAD_REACTORS
330
47
102
}
330
47
100
AcDbScale
 70
     0
300
3" = 1'-0"
140
3.0
141
12.0
290
     0
  0
SCALE
  5
57
102
{ACAD_REACTORS
330
47
102
}
330
47
100
AcDbScale
 70
     0
300
6" = 1'-0"
140
6.0
141
12.0
290
     0
  0
SCALE
  5
58
102
{ACAD_REACTORS
330
47
102
}
330
47
100
AcDbScale
 70
     0
300
1'-0" = 1'-0"
140
12.0
141
12.0
290
     0
  0
TABLESTYLE
  5
5A
102
{ACAD_REACTORS
330
59
102
}
102
{ACAD_XDICTIONARY
360
8A
102
}
330
59
100
AcDbTableStyle
  3
Standard
 70
     0
 71
     0
 40
0.06
 41
0.06
280
     0
281
     0
  7
Standard
140
0.18
170
     2
 62
     0
 63
   257
283
     0
 90
        4
 91
        0
  1

274
    -2
284
     1
 64
     0
275
    -2
285
     1
 65
     0
276
    -2
286
     1
 66
     0
277
    -2
287
     1
 67
     0
278
    -2
288
     1
 68
     0
279
    -2
289
     1
 69
     0
  7
Standard
140
0.25
170
     5
 62
     0
 63
   257
283
     0
 90
        4
 91
        0
  1

274
    -2
284
     1
 64
     0
275
    -2
285
     1
 65
     0
276
    -2
286
     1
 66
     0
277
    -2
287
     1
 67
     0
278
    -2
288
     1
 68
     0
279
    -2
289
     1
 69
     0
  7
Standard
140
0.18
170
     5
 62
     0
 63
   257
283
     0
 90
        4
 91
        0
  1

274
    -2
284
     1
 64
     0
275
    -2
285
     1
 65
     0
276
    -2
286
     1
 66
     0
277
    -2
287
     1
 67
     0
278
    -2
288
     1
 68
     0
279
    -2
289
     1
 69
     0
  0
VISUALSTYLE
  5
2F
102
{ACAD_REACTORS
330
2A
102
}
330
2A
100
AcDbVisualStyle
  2
2dWireframe
 70
     4
177
     3
291
     0
 70
    58
 90
        0
176
     1
 90
        2
176
     1
 90
        0
176
     1
 90
        0
176
     1
 40
0.6
176
     1
 40
30.0
176
     1
 62
     7
420
 16777215
176
     1
 90
        1
176
     1
 90
        4
176
     1
 62
     7
176
     1
 62
   257
176
     1
 90
        1
176
     1
 90
        1
176
     1
 40
1.0
176
     1
 90
        0
176
     1
 62
   257
176
     1
 40
1.0
176
     1
 90
        1
176
     1
 90
        6
176
     1
 90
        2
176
     1
 62
     7
176
     1
 90
        5
176
     1
 90
        0
176
     1
 90
        0
176
     1
290
     0
176
     1
 90
        1
176
     1
 40
0.0
176
     1
 90
        0
176
     1
290
     1
176
     1
290
     1
176
     1
290
     0
176
     1
290
     0
176
     1
290
     0
176
     1
290
     0
176
     1
290
     0
176
     1
290
     0
176
     1
290
     0
176
     1
 90
       50
176
     1
 40
0.0
176
     1
 40
1.0
176
     1
 90
        0
176
     1
 62
    18
420
        0
176
     1
 90
       50
176
     1
 90
        3
176
     1
 62
     5
420
      255
176
     1
290
     0
176
     1
 90
       50
176
     1
 90
       50
176
     1
 90
       50
176
     1
290
     0
176
     1
 90
       50
176
     1
 62
   256
176
     0
 40
1.0
176
     0
 90
        2
176
     1
  1
strokes_ogs.tif
176
     1
290
     0
176
     1
 40
1.0
176
     1
 40
1.0
176
     1
  0
VISUALSTYLE
  5
32
102
{ACAD_REACTORS
330
2A
102
}
330
2A
100
AcDbVisualStyle
  2
Basic
 70
     7
177
     3
291
     1
 70
    58
 90
        1
176
     1
 90
        0
176
     1
 90
        1
176
     1
 90
        0
176
     1
 40
0.6
176
     1
 40
30.0
176
     1
 62
     7
420
 16777215
176
     1
 90
        0
176
     1
 90
        4
176
     1
 62
     7
176
     1
 62
   257
176
     1
 90
        1
176
     1
 90
        1
176
     1
 40
1.0
176
     1
 90
        8
176
     1
 62
     7
176
     1
 40
1.0
176
     1
 90
        1
176
     1
 90
        6
176
     1
 90
        2
176
     1
 62
     7
176
     1
 90
        5
176
     1
 90
        0
176
     1
 90
        0
176
     1
290
     0
176
     1
 90
        1
176
     1
 40
0.0
176
     1
 90
        0
176
     1
290
     0
176
     1
290
     1
176
     1
290
     1
176
     1
290
     0
176
     1
290
     0
176
     1
290
     0
176
     1
290
     0
176
     1
290
     0
176
     1
290
     0
176
     1
 90
       50
176
     1
 40
0.0
176
     1
 40
1.0
176
     1
 90
        0
176
     1
 62
    18
420
        0
176
     1
 90
       50
176
     1
 90
        3
176
     1
 62
     5
420
      255
176
     1
290
     0
176
     1
 90
       50
176
     1
 90
       50
176
     1
 90
       50
176
     1
290
     0
176
     1
 90
       50
176
     1
 62
   256
176
     0
 40
1.0
176
     0
 90
        2
176
     1
  1
strokes_ogs.tif
176
     1
290
     0
176
     1
 40
1.0
176
     1
 40
1.0
176
     1
  0
VISUALSTYLE
  5
36
102
{ACAD_REACTORS
330
2A
102
}
330
2A
100
AcDbVisualStyle
  2
Brighten
 70
    12
177
     3
291
     1
 70
    58
 90
        2
176
     1
 90
        2
176
     1
 90
        0
176
     1
 90
        0
176
     1
 40
0.6
176
     1
 40
30.0
176
     1
 62
     7
420
 16777215
176
     1
 90
        1
176
     1
 90
        4
176
     1
 62
     7
176
     1
 62
   257
176
     1
 90
        1
176
     1
 90
        1
176
     1
 40
1.0
176
     1
 90
        8
176
     1
 62
     7
176
     1
 40
1.0
176
     1
 90
        1
176
     1
 90
        6
176
     1
 90
        2
176
     1
 62
     7
176
     1
 90
        5
176
     1
 90
        0
176
     1
 90
        0
176
     1
290
     0
176
     1
 90
        1
176
     1
 40
50.0
176
     1
 90
        0
176
     1
290
     0
176
     1
290
     1
176
     1
290
     1
176
     1
290
     0
176
     1
290
     0
176
     1
290
     0
176
     1
290
     0
176
     1
290
     0
176
     1
290
     0
176
     1
 90
       50
176
     1
 40
0.0
176
     1
 40
1.0
176
     1
 90
        0
176
     1
 62
    18
420
        0
176
     1
 90
       50
176
     1
 90
        3
176
     1
 62
     5
420
      255
176
     1
290
     0
176
     1
 90
       50
176
     1
 90
       50
176
     1
 90
       50
176
     1
290
     0
176
     1
 90
       50
176
     1
 62
   256
176
     0
 40
1.0
176
     0
 90
        2
176
     1
  1
strokes_ogs.tif
176
     1
290
     0
176
     1
 40
1.0
176
     1
 40
1.0
176
     1
  0
VISUALSTYLE
  5
3A
102
{ACAD_REACTORS
330
2A
102
}
330
2A
100
AcDbVisualStyle
  2
ColorChange
 70
    16
177
     3
291
     1
 70
    58
 90
        2
176
     1
 90
        2
176
     1
 90
        3
176
     1
 90
        0
176
     1
 40
0.6
176
     1
 40
30.0
176
     1
 62
     8
420
  8421504
176
     1
 90
        1
176
     1
 90
        4
176
     1
 62
     7
176
     1
 62
   257
176
     1
 90
        1
176
     1
 90
        1
176
     1
 40
1.0
176
     1
 90
        8
176
     1
 62
     8
420
  8421504
176
     1
 40
1.0
176
     1
 90
        1
176
     1
 90
        6
176
     1
 90
        2
176
     1
 62
     7
176
     1
 90
        5
176
     1
 90
        0
176
     1
 90
        0
176
     1
290
     0
176
     1
 90
        1
176
     1
 40
0.0
176
     1
 90
        0
176
     1
290
     0
176
     1
290
     1
176
     1
290
     1
176
     1
290
     0
176
     1
290
     0
176
     1
290
     0
176
     1
290
     0
176
     1
290
     0
176
     1
290
     0
176
     1
 90
       50
176
     1
 40
0.0
176
     1
 40
1.0
176
     1
 90
        0
176
     1
 62
    18
420
        0
176
     1
 90
       50
176
     1
 90
        3
176
     1
 62
     5
420
      255
176
     1
290
     0
176
     1
 90
       50
176
     1
 90
       50
176
     1
 90
       50
176
     1
290
     0
176
     1
 90
       50
176
     1
 62
   256
176
     0
 40
1.0
176
     0
 90
        2
176
     1
  1
strokes_ogs.tif
176
     1
290
     0
176
     1
 40
1.0
176
     1
 40
1.0
176
     1
  0
VISUALSTYLE
  5
34
102
{ACAD_REACTORS
330
2A
102
}
330
2A
100
AcDbVisualStyle
  2
Conceptual
 70
     9
177
     3
291
     0
 70
    58
 90
        3
176
     1
 90
        2
176
     1
 90
        0
176
     1
 90
        0
176
     1
 40
0.6
176
     1
 40
30.0
176
     1
 62
     7
420
 16777215
176
     1
 90
        2
176
     1
 90
        2
176
     1
 62
     7
176
     1
 62
   257
176
     1
 90
        1
176
     1
 90
        1
176
     1
 40
179.0
176
     1
 90
        8
176
     1
 62
     7
176
     1
 40
1.0
176
     1
 90
        1
176
     1
 90
        6
176
     1
 90
        2
176
     1
 62
     7
176
     1
 90
        3
176
     1
 90
        0
176
     1
 90
        0
176
     1
290
     0
176
     1
 90
        1
176
     1
 40
0.0
176
     1
 90
        0
176
     1
290
     0
176
     1
290
     1
176
     1
290
     1
176
     1
290
     0
176
     1
290
     0
176
     1
290
     0
176
     1
290
     0
176
     1
290
     0
176
     1
290
     0
176
     1
 90
       50
176
     1
 40
0.0
176
     1
 40
1.0
176
     1
 90
        0
176
     1
 62
    18
420
        0
176
     1
 90
       50
176
     1
 90
        3
176
     1
 62
     5
420
      255
176
     1
290
     0
176
     1
 90
       50
176
     1
 90
       50
176
     1
 90
       50
176
     1
290
     0
176
     1
 90
       50
176
     1
 62
   256
176
     0
 40
1.0
176
     0
 90
        2
176
     1
  1
strokes_ogs.tif
176
     1
290
     0
176
     1
 40
1.0
176
     1
 40
1.0
176
     1
  0
VISUALSTYLE
  5
35
102
{ACAD_REACTORS
330
2A
102
}
330
2A
100
AcDbVisualStyle
  2
Dim
 70
    11
177
     3
291
     1
 70
    58
 90
        2
176
     1
 90
        2
176
     1
 90
        0
176
     1
 90
        0
176
     1
 40
0.6
176
     1
 40
30.0
176
     1
 62
     7
420
 16777215
176
     1
 90
        1
176
     1
 90
        4
176
     1
 62
     7
176
     1
 62
   257
176
     1
 90
        1
176
     1
 90
        1
176
     1
 40
1.0
176
     1
 90
        8
176
     1
 62
     7
176
     1
 40
1.0
176
     1
 90
        1
176
     1
 90
        6
176
     1
 90
        2
176
     1
 62
     7
176
     1
 90
        5
176
     1
 90
        0
176
     1
 90
        0
176
     1
290
     0
176
     1
 90
        1
176
     1
 40
-50.0
176
     1
 90
        0
176
     1
290
     0
176
     1
290
     1
176
     1
290
     1
176
     1
290
     0
176
     1
290
     0
176
     1
290
     0
176
     1
290
     0
176
     1
290
     0
176
     1
290
     0
176
     1
 90
       50
176
     1
 40
0.0
176
     1
 40
1.0
176
     1
 90
        0
176
     1
 62
    18
420
        0
176
     1
 90
       50
176
     1
 90
        3
176
     1
 62
     5
420
      255
176
     1
290
     0
176
     1
 90
       50
176
     1
 90
       50
176
     1
 90
       50
176
     1
290
     0
176
     1
 90
       50
176
     1
 62
   256
176
     0
 40
1.0
176
     0
 90
        2
176
     1
  1
strokes_ogs.tif
176
     1
290
     0
176
     1
 40
1.0
176
     1
 40
1.0
176
     1
  0
VISUALSTYLE
  5
3D
102
{ACAD_REACTORS
330
2A
102
}
330
2A
100
AcDbVisualStyle
  2
EdgeColorOff
 70
    22
177
     3
291
     1
 70
    58
 90
        2
176
     0
 90
        2
176
     0
 90
        0
176
     0
 90
        0
176
     0
 40
0.6
176
     0
 40
30.0
176
     0
 62
     7
420
 16777215
176
     0
 90
        1
176
     0
 90
        4
176
     0
 62
     7
176
     0
 62
   257
176
     0
 90
        1
176
     0
 90
        1
176
     0
 40
1.0
176
     0
 90
        8
176
     2
 62
     7
176
     0
 40
1.0
176
     0
 90
        1
176
     0
 90
        6
176
     0
 90
        2
176
     0
 62
     7
176
     0
 90
        5
176
     0
 90
        0
176
     0
 90
        0
176
     0
290
     0
176
     0
 90
        1
176
     0
 40
0.0
176
     0
 90
        0
176
     0
290
     0
176
     0
290
     1
176
     0
290
     1
176
     0
290
     0
176
     0
290
     0
176
     0
290
     0
176
     0
290
     0
176
     0
290
     0
176
     0
290
     0
176
     0
 90
       50
176
     0
 40
0.0
176
     0
 40
1.0
176
     0
 90
        0
176
     0
 62
    18
420
        0
176
     0
 90
       50
176
     0
 90
        3
176
     0
 62
     5
420
      255
176
     0
290
     0
176
     0
 90
       50
176
     0
 90
       50
176
     0
 90
       50
176
     0
290
     0
176
     0
 90
       50
176
     0
 62
   256
176
     0
 40
1.0
176
     0
 90
        2
176
     0
  1
strokes_ogs.tif
176
     0
290
     0
176
     0
 40
1.0
176
     0
 40
1.0
176
     0
  0
VISUALSTYLE
  5
39
102
{ACAD_REACTORS
330
2A
102
}
330
2A
100
AcDbVisualStyle
  2
Facepattern
 70
    15
177
     3
291
     1
 70
    58
 90
        2
176
     1
 90
        2
176
     1
 90
        0
176
     1
 90
        0
176
     1
 40
0.6
176
     1
 40
30.0
176
     1
 62
     7
420
 16777215
176
     1
 90
        1
176
     1
 90
        4
176
     1
 62
     7
176
     1
 62
   257
176
     1
 90
        1
176
     1
 90
        1
176
     1
 40
1.0
176
     1
 90
        8
176
     1
 62
     7
176
     1
 40
1.0
176
     1
 90
        1
176
     1
 90
        6
176
     1
 90
        2
176
     1
 62
     7
176
     1
 90
        5
176
     1
 90
        0
176
     1
 90
        0
176
     1
290
     0
176
     1
 90
        1
176
     1
 40
0.0
176
     1
 90
        0
176
     1
290
     0
176
     1
290
     1
176
     1
290
     1
176
     1
290
     0
176
     1
290
     0
176
     1
290
     0
176
     1
290
     0
176
     1
290
     0
176
     1
290
     0
176
     1
 90
       50
176
     1
 40
0.0
176
     1
 40
1.0
176
     1
 90
        0
176
     1
 62
    18
420
        0
176
     1
 90
       50
176
     1
 90
        3
176
     1
 62
     5
420
      255
176
     1
290
     0
176
     1
 90
       50
176
     1
 90
       50
176
     1
 90
       50
176
     1
290
     0
176
     1
 90
       50
176
     1
 62
   256
176
     0
 40
1.0
176
     0
 90
        2
176
     1
  1
strokes_ogs.tif
176
     1
290
     0
176
     1
 40
1.0
176
     1
 40
1.0
176
     1
  0
VISUALSTYLE
  5
2B
102
{ACAD_REACTORS
330
2A
102
}
330
2A
100
AcDbVisualStyle
  2
Flat
 70
     0
177
     3
291
     1
 70
    58
 90
        2
176
     1
 90
        1
176
     1
 90
        1
176
     1
 90
        2
176
     1
 40
0.6
176
     1
 40
30.0
176
     1
 62
     7
420
 16777215
176
     1
 90
        0
176
     1
 90
        0
176
     1
 62
     7
176
     1
 62
   257
176
     1
 90
        1
176
     1
 90
        1
176
     1
 40
1.0
176
     1
 90
        8
176
     1
 62
     7
176
     1
 40
1.0
176
     1
 90
        1
176
     1
 90
        6
176
     1
 90
        2
176
     1
 62
     7
176
     1
 90
        5
176
     1
 90
        0
176
     1
 90
        0
176
     1
290
     0
176
     1
 90
       13
176
     1
 40
0.0
176
     1
 90
        0
176
     1
290
     0
176
     1
290
     1
176
     1
290
     1
176
     1
290
     0
176
     1
290
     0
176
     1
290
     0
176
     1
290
     0
176
     1
290
     0
176
     1
290
     0
176
     1
 90
       50
176
     1
 40
0.0
176
     1
 40
1.0
176
     1
 90
        0
176
     1
 62
    18
420
        0
176
     1
 90
       50
176
     1
 90
        3
176
     1
 62
     5
420
      255
176
     1
290
     0
176
     1
 90
       50
176
     1
 90
       50
176
     1
 90
       50
176
     1
290
     0
176
     1
 90
       50
176
     1
 62
   256
176
     0
 40
1.0
176
     0
 90
        2
176
     1
  1
strokes_ogs.tif
176
     1
290
     0
176
     1
 40
1.0
176
     1
 40
1.0
176
     1
  0
VISUALSTYLE
  5
2C
102
{ACAD_REACTORS
330
2A
102
}
330
2A
100
AcDbVisualStyle
  2
FlatWithEdges
 70
     1
177
     3
291
     1
 70
    58
 90
        2
176
     1
 90
        1
176
     1
 90
        1
176
     1
 90
        2
176
     1
 40
0.6
176
     1
 40
30.0
176
     1
 62
     7
420
 16777215
176
     1
 90
        1
176
     1
 90
        0
176
     1
 62
     7
176
     1
 62
   257
176
     1
 90
        1
176
     1
 90
        1
176
     1
 40
1.0
176
     1
 90
        0
176
     1
 62
   257
176
     1
 40
1.0
176
     1
 90
        1
176
     1
 90
        6
176
     1
 90
        2
176
     1
 62
     7
176
     1
 90
        5
176
     1
 90
        0
176
     1
 90
        0
176
     1
290
     0
176
     1
 90
       13
176
     1
 40
0.0
176
     1
 90
        0
176
     1
290
     0
176
     1
290
     1
176
     1
290
     1
176
     1
290
     0
176
     1
290
     0
176
     1
290
     0
176
     1
290
     0
176
     1
290
     0
176
     1
290
     0
176
     1
 90
       50
176
     1
 40
0.0
176
     1
 40
1.0
176
     1
 90
        0
176
     1
 62
    18
420
        0
176
     1
 90
       50
176
     1
 90
        3
176
     1
 62
     5
420
      255
176
     1
290
     0
176
     1
 90
       50
176
     1
 90
       50
176
     1
 90
       50
176
     1
290
     0
176
     1
 90
       50
176
     1
 62
   256
176
     0
 40
1.0
176
     0
 90
        2
176
     1
  1
strokes_ogs.tif
176
     1
290
     0
176
     1
 40
1.0
176
     1
 40
1.0
176
     1
  0
VISUALSTYLE
  5
2D
102
{ACAD_REACTORS
330
2A
102
}
330
2A
100
AcDbVisualStyle
  2
Gouraud
 70
     2
177
     3
291
     1
 70
    58
 90
        2
176
     1
 90
        2
176
     1
 90
        1
176
     1
 90
        2
176
     1
 40
0.6
176
     1
 40
30.0
176
     1
 62
     7
420
 16777215
176
     1
 90
        0
176
     1
 90
        0
176
     1
 62
     7
176
     1
 62
   257
176
     1
 90
        1
176
     1
 90
        1
176
     1
 40
1.0
176
     1
 90
        0
176
     1
 62
     7
176
     1
 40
1.0
176
     1
 90
        1
176
     1
 90
        6
176
     1
 90
        2
176
     1
 62
     7
176
     1
 90
        5
176
     1
 90
        0
176
     1
 90
        0
176
     1
290
     0
176
     1
 90
       13
176
     1
 40
0.0
176
     1
 90
        0
176
     1
290
     0
176
     1
290
     1
176
     1
290
     1
176
     1
290
     0
176
     1
290
     0
176
     1
290
     0
176
     1
290
     0
176
     1
290
     0
176
     1
290
     0
176
     1
 90
       50
176
     1
 40
0.0
176
     1
 40
1.0
176
     1
 90
        0
176
     1
 62
    18
420
        0
176
     1
 90
       50
176
     1
 90
        3
176
     1
 62
     5
420
      255
176
     1
290
     0
176
     1
 90
       50
176
     1
 90
       50
176
     1
 90
       50
176
     1
290
     0
176
     1
 90
       50
176
     1
 62
   256
176
     0
 40
1.0
176
     0
 90
        2
176
     1
  1
strokes_ogs.tif
176
     1
290
     0
176
     1
 40
1.0
176
     1
 40
1.0
176
     1
  0
VISUALSTYLE
  5
2E
102
{ACAD_REACTORS
330
2A
102
}
330
2A
100
AcDbVisualStyle
  2
GouraudWithEdges
 70
     3
177
     3
291
     1
 70
    58
 90
        2
176
     1
 90
        2
176
     1
 90
        1
176
     1
 90
        2
176
     1
 40
0.6
176
     1
 40
30.0
176
     1
 62
     7
420
 16777215
176
     1
 90
        1
176
     1
 90
        0
176
     1
 62
     7
176
     1
 62
   257
176
     1
 90
        1
176
     1
 90
        1
176
     1
 40
1.0
176
     1
 90
        0
176
     1
 62
   257
176
     1
 40
1.0
176
     1
 90
        1
176
     1
 90
        6
176
     1
 90
        2
176
     1
 62
     7
176
     1
 90
        5
176
     1
 90
        0
176
     1
 90
        0
176
     1
290
     0
176
     1
 90
       13
176
     1
 40
0.0
176
     1
 90
        0
176
     1
290
     0
176
     1
290
     1
176
     1
290
     1
176
     1
290
     0
176
     1
290
     0
176
     1
290
     0
176
     1
290
     0
176
     1
290
     0
176
     1
290
     0
176
     1
 90
       50
176
     1
 40
0.0
176
     1
 40
1.0
176
     1
 90
        0
176
     1
 62
    18
420
        0
176
     1
 90
       50
176
     1
 90
        3
176
     1
 62
     5
420
      255
176
     1
290
     0
176
     1
 90
       50
176
     1
 90
       50
176
     1
 90
       50
176
     1
290
     0
176
     1
 90
       50
176
     1
 62
   256
176
     0
 40
1.0
176
     0
 90
        2
176
     1
  1
strokes_ogs.tif
176
     1
290
     0
176
     1
 40
1.0
176
     1
 40
1.0
176
     1
  0
VISUALSTYLE
  5
31
102
{ACAD_REACTORS
330
2A
102
}
330
2A
100
AcDbVisualStyle
  2
Hidden
 70
     6
177
     3
291
     0
 70
    58
 90
        1
176
     1
 90
        2
176
     1
 90
        2
176
     1
 90
        0
176
     1
 40
0.6
176
     1
 40
30.0
176
     1
 62
     7
420
 16777215
176
     1
 90
        2
176
     1
 90
        2
176
     1
 62
     7
176
     1
 62
   257
176
     1
 90
        2
176
     1
 90
        1
176
     1
 40
40.0
176
     1
 90
        0
176
     1
 62
   257
176
     1
 40
1.0
176
     1
 90
        1
176
     1
 90
        6
176
     1
 90
        2
176
     1
 62
     7
176
     1
 90
        3
176
     1
 90
        0
176
     1
 90
        0
176
     1
290
     0
176
     1
 90
        1
176
     1
 40
0.0
176
     1
 90
        0
176
     1
290
     0
176
     1
290
     1
176
     1
290
     1
176
     1
290
     0
176
     1
290
     0
176
     1
290
     0
176
     1
290
     0
176
     1
290
     0
176
     1
290
     0
176
     1
 90
       50
176
     1
 40
0.0
176
     1
 40
1.0
176
     1
 90
        0
176
     1
 62
    18
420
        0
176
     1
 90
       50
176
     1
 90
        3
176
     1
 62
     5
420
      255
176
     1
290
     0
176
     1
 90
       50
176
     1
 90
       50
176
     1
 90
       50
176
     1
290
     0
176
     1
 90
       50
176
     1
 62
   256
176
     0
 40
1.0
176
     0
 90
        2
176
     1
  1
strokes_ogs.tif
176
     1
290
     0
176
     1
 40
1.0
176
     1
 40
1.0
176
     1
  0
VISUALSTYLE
  5
3B
102
{ACAD_REACTORS
330
2A
102
}
330
2A
100
AcDbVisualStyle
  2
JitterOff
 70
    20
177
     3
291
     1
 70
    58
 90
        2
176
     0
 90
        2
176
     0
 90
        0
176
     0
 90
        0
176
     0
 40
0.6
176
     0
 40
30.0
176
     0
 62
     7
420
 16777215
176
     0
 90
        1
176
     0
 90
        4
176
     0
 62
     7
176
     0
 62
   257
176
     0
 90
        1
176
     0
 90
        1
176
     0
 40
1.0
176
     0
 90
       10
176
     2
 62
     7
176
     0
 40
1.0
176
     0
 90
        1
176
     0
 90
        6
176
     0
 90
        2
176
     0
 62
     7
176
     0
 90
        5
176
     0
 90
        0
176
     0
 90
        0
176
     0
290
     0
176
     0
 90
        1
176
     0
 40
0.0
176
     0
 90
        0
176
     0
290
     0
176
     0
290
     1
176
     0
290
     1
176
     0
290
     0
176
     0
290
     0
176
     0
290
     0
176
     0
290
     0
176
     0
290
     0
176
     0
290
     0
176
     0
 90
       50
176
     0
 40
0.0
176
     0
 40
1.0
176
     0
 90
        0
176
     0
 62
    18
420
        0
176
     0
 90
       50
176
     0
 90
        3
176
     0
 62
     5
420
      255
176
     0
290
     0
176
     0
 90
       50
176
     0
 90
       50
176
     0
 90
       50
176
     0
290
     0
176
     0
 90
       50
176
     0
 62
   256
176
     0
 40
1.0
176
     0
 90
        2
176
     0
  1
strokes_ogs.tif
176
     0
290
     0
176
     0
 40
1.0
176
     0
 40
1.0
176
     0
  0
VISUALSTYLE
  5
38
102
{ACAD_REACTORS
330
2A
102
}
330
2A
100
AcDbVisualStyle
  2
Linepattern
 70
    14
177
     3
291
     1
 70
    58
 90
        2
176
     1
 90
        2
176
     1
 90
        0
176
     1
 90
        0
176
     1
 40
0.6
176
     1
 40
30.0
176
     1
 62
     7
420
 16777215
176
     1
 90
        1
176
     1
 90
        4
176
     1
 62
     7
176
     1
 62
   257
176
     1
 90
        7
176
     1
 90
        7
176
     1
 40
1.0
176
     1
 90
        8
176
     1
 62
     7
176
     1
 40
1.0
176
     1
 90
        1
176
     1
 90
        6
176
     1
 90
        2
176
     1
 62
     7
176
     1
 90
        5
176
     1
 90
        0
176
     1
 90
        0
176
     1
290
     0
176
     1
 90
        1
176
     1
 40
0.0
176
     1
 90
        0
176
     1
290
     0
176
     1
290
     1
176
     1
290
     1
176
     1
290
     0
176
     1
290
     0
176
     1
290
     0
176
     1
290
     0
176
     1
290
     0
176
     1
290
     0
176
     1
 90
       50
176
     1
 40
0.0
176
     1
 40
1.0
176
     1
 90
        0
176
     1
 62
    18
420
        0
176
     1
 90
       50
176
     1
 90
        3
176
     1
 62
     5
420
      255
176
     1
290
     0
176
     1
 90
       50
176
     1
 90
       50
176
     1
 90
       50
176
     1
290
     0
176
     1
 90
       50
176
     1
 62
   256
176
     0
 40
1.0
176
     0
 90
        2
176
     1
  1
strokes_ogs.tif
176
     1
290
     0
176
     1
 40
1.0
176
     1
 40
1.0
176
     1
  0
VISUALSTYLE
  5
3C
102
{ACAD_REACTORS
330
2A
102
}
330
2A
100
AcDbVisualStyle
  2
OverhangOff
 70
    21
177
     3
291
     1
 70
    58
 90
        2
176
     0
 90
        2
176
     0
 90
        0
176
     0
 90
        0
176
     0
 40
0.6
176
     0
 40
30.0
176
     0
 62
     7
420
 16777215
176
     0
 90
        1
176
     0
 90
        4
176
     0
 62
     7
176
     0
 62
   257
176
     0
 90
        1
176
     0
 90
        1
176
     0
 40
1.0
176
     0
 90
        9
176
     2
 62
     7
176
     0
 40
1.0
176
     0
 90
        1
176
     0
 90
        6
176
     0
 90
        2
176
     0
 62
     7
176
     0
 90
        5
176
     0
 90
        0
176
     0
 90
        0
176
     0
290
     0
176
     0
 90
        1
176
     0
 40
0.0
176
     0
 90
        0
176
     0
290
     0
176
     0
290
     1
176
     0
290
     1
176
     0
290
     0
176
     0
290
     0
176
     0
290
     0
176
     0
290
     0
176
     0
290
     0
176
     0
290
     0
176
     0
 90
       50
176
     0
 40
0.0
176
     0
 40
1.0
176
     0
 90
        0
176
     0
 62
    18
420
        0
176
     0
 90
       50
176
     0
 90
        3
176
     0
 62
     5
420
      255
176
     0
290
     0
176
     0
 90
       50
176
     0
 90
       50
176
     0
 90
       50
176
     0
290
     0
176
     0
 90
       50
176
     0
 62
   256
176
     0
 40
1.0
176
     0
 90
        2
176
     0
  1
strokes_ogs.tif
176
     0
290
     0
176
     0
 40
1.0
176
     0
 40
1.0
176
     0
  0
VISUALSTYLE
  5
33
102
{ACAD_REACTORS
330
2A
102
}
330
2A
100
AcDbVisualStyle
  2
Realistic
 70
     8
177
     3
291
     0
 70
    58
 90
        2
176
     1
 90
        3
176
     1
 90
        0
176
     1
 90
        2
176
     1
 40
0.6
176
     1
 40
30.0
176
     1
 62
     7
420
 16777215
176
     1
 90
        0
176
     1
 90
        0
176
     1
 62
     7
176
     1
 62
   257
176
     1
 90
        1
176
     1
 90
        1
176
     1
 40
1.0
176
     1
 90
        8
176
     1
 62
   257
176
     1
 40
1.0
176
     1
 90
        1
176
     1
 90
        6
176
     1
 90
        2
176
     1
 62
     7
176
     1
 90
        3
176
     1
 90
        0
176
     1
 90
        0
176
     1
290
     0
176
     1
 90
       13
176
     1
 40
0.0
176
     1
 90
        0
176
     1
290
     0
176
     1
290
     1
176
     1
290
     1
176
     1
290
     0
176
     1
290
     0
176
     1
290
     0
176
     1
290
     0
176
     1
290
     0
176
     1
290
     0
176
     1
 90
       50
176
     1
 40
0.0
176
     1
 40
1.0
176
     1
 90
        0
176
     1
 62
    18
420
        0
176
     1
 90
       50
176
     1
 90
        3
176
     1
 62
     5
420
      255
176
     1
290
     0
176
     1
 90
       50
176
     1
 90
       50
176
     1
 90
       50
176
     1
290
     0
176
     1
 90
       50
176
     1
 62
   256
176
     0
 40
1.0
176
     0
 90
        2
176
     1
  1
strokes_ogs.tif
176
     1
290
     0
176
     1
 40
1.0
176
     1
 40
1.0
176
     1
  0
VISUALSTYLE
  5
42
102
{ACAD_REACTORS
330
2A
102
}
330
2A
100
AcDbVisualStyle
  2
Shaded
 70
    27
177
     3
291
     0
 70
    58
 90
        2
176
     1
 90
        2
176
     1
 90
        1
176
     1
 90
        2
176
     1
 40
0.6
176
     1
 40
30.0
176
     1
 62
     7
420
 16777215
176
     1
 90
        0
176
     1
 90
        4
176
     1
 62
     7
176
     1
 62
   257
176
     1
 90
        1
176
     1
 90
        1
176
     1
 40
1.0
176
     1
 90
        8
176
     1
 62
   257
176
     1
 40
1.0
176
     1
 90
        1
176
     1
 90
        6
176
     1
 90
        2
176
     1
 62
     8
420
  7895160
176
     1
 90
        3
176
     1
 90
        0
176
     1
 90
        0
176
     1
290
     0
176
     1
 90
        5
176
     1
 40
0.0
176
     1
 90
        0
176
     1
290
     0
176
     1
290
     1
176
     1
290
     1
176
     1
290
     0
176
     1
290
     0
176
     1
290
     0
176
     1
290
     0
176
     1
290
     0
176
     1
290
     0
176
     1
 90
       50
176
     1
 40
0.0
176
     1
 40
1.0
176
     1
 90
        0
176
     1
 62
    18
420
        0
176
     1
 90
       50
176
     1
 90
        3
176
     1
 62
     5
420
      255
176
     1
290
     0
176
     1
 90
       50
176
     1
 90
       50
176
     1
 90
       50
176
     1
290
     0
176
     1
 90
       50
176
     1
 62
   256
176
     0
 40
1.0
176
     0
 90
        2
176
     1
  1
strokes_ogs.tif
176
     1
290
     0
176
     1
 40
1.0
176
     1
 40
1.0
176
     1
  0
VISUALSTYLE
  5
41
102
{ACAD_REACTORS
330
2A
102
}
330
2A
100
AcDbVisualStyle
  2
Shaded with edges
 70
    26
177
     3
291
     0
 70
    58
 90
        2
176
     1
 90
        2
176
     1
 90
        1
176
     1
 90
        2
176
     1
 40
0.6
176
     1
 40
30.0
176
     1
 62
     7
420
 16777215
176
     1
 90
        1
176
     1
 90
       10
176
     1
 62
     7
176
     1
 62
   257
176
     1
 90
        2
176
     1
 90
        1
176
     1
 40
1.0
176
     1
 90
        8
176
     1
 62
   257
176
     1
 40
1.0
176
     1
 90
        1
176
     1
 90
        6
176
     1
 90
        2
176
     1
 62
     7
176
     1
 90
        3
176
     1
 90
        0
176
     1
 90
        0
176
     1
290
     0
176
     1
 90
        5
176
     1
 40
0.0
176
     1
 90
        0
176
     1
290
     0
176
     1
290
     1
176
     1
290
     1
176
     1
290
     0
176
     1
290
     0
176
     1
290
     0
176
     1
290
     0
176
     1
290
     0
176
     1
290
     0
176
     1
 90
       50
176
     1
 40
0.0
176
     1
 40
1.0
176
     1
 90
        0
176
     1
 62
    18
420
        0
176
     1
 90
       50
176
     1
 90
        3
176
     1
 62
     5
420
      255
176
     1
290
     0
176
     1
 90
       50
176
     1
 90
       50
176
     1
 90
       50
176
     1
290
     0
176
     1
 90
       50
176
     1
 62
   256
176
     0
 40
1.0
176
     0
 90
        2
176
     1
  1
strokes_ogs.tif
176
     1
290
     0
176
     1
 40
1.0
176
     1
 40
1.0
176
     1
  0
VISUALSTYLE
  5
3E
102
{ACAD_REACTORS
330
2A
102
}
330
2A
100
AcDbVisualStyle
  2
Shades of Gray
 70
    23
177
     3
291
     0
 70
    58
 90
        2
176
     1
 90
        2
176
     1
 90
        3
176
     1
 90
        0
176
     1
 40
0.6
176
     1
 40
30.0
176
     1
 62
     7
420
 16777215
176
     1
 90
        2
176
     1
 90
        2
176
     1
 62
     7
176
     1
 62
     7
176
     1
 90
        1
176
     1
 90
        1
176
     1
 40
40.0
176
     1
 90
        8
176
     1
 62
     7
176
     1
 40
1.0
176
     1
 90
        1
176
     1
 90
        6
176
     1
 90
        2
176
     1
 62
     7
176
     1
 90
        3
176
     1
 90
        0
176
     1
 90
        0
176
     1
290
     0
176
     1
 90
        1
176
     1
 40
0.0
176
     1
 90
        0
176
     1
290
     0
176
     1
290
     1
176
     1
290
     1
176
     1
290
     0
176
     1
290
     0
176
     1
290
     0
176
     1
290
     0
176
     1
290
     0
176
     1
290
     0
176
     1
 90
       50
176
     1
 40
0.0
176
     1
 40
1.0
176
     1
 90
        0
176
     1
 62
    18
420
        0
176
     1
 90
       50
176
     1
 90
        3
176
     1
 62
     5
420
      255
176
     1
290
     0
176
     1
 90
       50
176
     1
 90
       50
176
     1
 90
       50
176
     1
290
     0
176
     1
 90
       50
176
     1
 62
   256
176
     0
 40
1.0
176
     0
 90
        2
176
     1
  1
strokes_ogs.tif
176
     1
290
     0
176
     1
 40
1.0
176
     1
 40
1.0
176
     1
  0
VISUALSTYLE
  5
3F
102
{ACAD_REACTORS
330
2A
102
}
330
2A
100
AcDbVisualStyle
  2
Sketchy
 70
    24
177
     3
291
     0
 70
    58
 90
        1
176
     1
 90
        2
176
     1
 90
        2
176
     1
 90
        0
176
     1
 40
0.6
176
     1
 40
30.0
176
     1
 62
     7
420
 16777215
176
     1
 90
        2
176
     1
 90
        2
176
     1
 62
     7
176
     1
 62
     7
176
     1
 90
        1
176
     1
 90
        1
176
     1
 40
40.0
176
     1
 90
       11
176
     1
 62
     7
176
     1
 40
1.0
176
     1
 90
        1
176
     1
 90
        6
176
     1
 90
        2
176
     1
 62
     7
176
     1
 90
        6
176
     1
 90
        0
176
     1
 90
        0
176
     1
290
     0
176
     1
 90
        1
176
     1
 40
0.0
176
     1
 90
        0
176
     1
290
     0
176
     1
290
     1
176
     1
290
     1
176
     1
290
     0
176
     1
290
     0
176
     1
290
     0
176
     1
290
     0
176
     1
290
     0
176
     1
290
     0
176
     1
 90
       50
176
     1
 40
0.0
176
     1
 40
1.0
176
     1
 90
        0
176
     1
 62
    18
420
        0
176
     1
 90
       50
176
     1
 90
        3
176
     1
 62
     5
420
      255
176
     1
290
     0
176
     1
 90
       50
176
     1
 90
       50
176
     1
 90
       50
176
     1
290
     0
176
     1
 90
       50
176
     1
 62
   256
176
     0
 40
1.0
176
     0
 90
        2
176
     1
  1
strokes_ogs.tif
176
     1
290
     0
176
     1
 40
1.0
176
     1
 40
1.0
176
     1
  0
VISUALSTYLE
  5
37
102
{ACAD_REACTORS
330
2A
102
}
330
2A
100
AcDbVisualStyle
  2
Thicken
 70
    13
177
     3
291
     1
 70
    58
 90
        2
176
     1
 90
        2
176
     1
 90
        0
176
     1
 90
        0
176
     1
 40
0.6
176
     1
 40
30.0
176
     1
 62
     7
420
 16777215
176
     1
 90
        1
176
     1
 90
        4
176
     1
 62
     7
176
     1
 62
   257
176
     1
 90
        1
176
     1
 90
        1
176
     1
 40
1.0
176
     1
 90
       12
176
     1
 62
     7
176
     1
 40
1.0
176
     1
 90
        1
176
     1
 90
        6
176
     1
 90
        2
176
     1
 62
     7
176
     1
 90
        5
176
     1
 90
        0
176
     1
 90
        0
176
     1
290
     0
176
     1
 90
        1
176
     1
 40
0.0
176
     1
 90
        0
176
     1
290
     0
176
     1
290
     1
176
     1
290
     1
176
     1
290
     0
176
     1
290
     0
176
     1
290
     0
176
     1
290
     0
176
     1
290
     0
176
     1
290
     0
176
     1
 90
       50
176
     1
 40
0.0
176
     1
 40
1.0
176
     1
 90
        0
176
     1
 62
    18
420
        0
176
     1
 90
       50
176
     1
 90
        3
176
     1
 62
     5
420
      255
176
     1
290
     0
176
     1
 90
       50
176
     1
 90
       50
176
     1
 90
       50
176
     1
290
     0
176
     1
 90
       50
176
     1
 62
   256
176
     0
 40
1.0
176
     0
 90
        2
176
     1
  1
strokes_ogs.tif
176
     1
290
     0
176
     1
 40
1.0
176
     1
 40
1.0
176
     1
  0
VISUALSTYLE
  5
30
102
{ACAD_REACTORS
330
2A
102
}
330
2A
100
AcDbVisualStyle
  2
Wireframe
 70
     5
177
     3
291
     0
 70
    58
 90
        0
176
     1
 90
        2
176
     1
 90
        0
176
     1
 90
        0
176
     1
 40
0.6
176
     1
 40
30.0
176
     1
 62
     7
420
 16777215
176
     1
 90
        1
176
     1
 90
        4
176
     1
 62
     7
176
     1
 62
   257
176
     1
 90
        1
176
     1
 90
        1
176
     1
 40
1.0
176
     1
 90
        0
176
     1
 62
   257
176
     1
 40
1.0
176
     1
 90
        1
176
     1
 90
        6
176
     1
 90
        2
176
     1
 62
     7
176
     1
 90
        3
176
     1
 90
        0
176
     1
 90
        0
176
     1
290
     0
176
     1
 90
        1
176
     1
 40
0.0
176
     1
 90
        0
176
     1
290
     0
176
     1
290
     1
176
     1
290
     1
176
     1
290
     0
176
     1
290
     0
176
     1
290
     0
176
     1
290
     0
176
     1
290
     0
176
     1
290
     0
176
     1
 90
       50
176
     1
 40
0.0
176
     1
 40
1.0
176
     1
 90
        0
176
     1
 62
    18
420
        0
176
     1
 90
       50
176
     1
 90
        3
176
     1
 62
     5
420
      255
176
     1
290
     0
176
     1
 90
       50
176
     1
 90
       50
176
     1
 90
       50
176
     1
290
     0
176
     1
 90
       50
176
     1
 62
   256
176
     0
 40
1.0
176
     0
 90
        2
176
     1
  1
strokes_ogs.tif
176
     1
290
     0
176
     1
 40
1.0
176
     1
 40
1.0
176
     1
  0
VISUALSTYLE
  5
40
102
{ACAD_REACTORS
330
2A
102
}
330
2A
100
AcDbVisualStyle
  2
X-Ray
 70
    25
177
     3
291
     0
 70
    58
 90
        2
176
     1
 90
        2
176
     1
 90
        1
176
     1
 90
        1
176
     1
 40
0.5
176
     1
 40
30.0
176
     1
 62
     7
420
 16777215
176
     1
 90
        1
176
     1
 90
        0
176
     1
 62
     7
176
     1
 62
   257
176
     1
 90
        1
176
     1
 90
        1
176
     1
 40
1.0
176
     1
 90
        8
176
     1
 62
     7
176
     1
 40
1.0
176
     1
 90
        1
176
     1
 90
        6
176
     1
 90
        2
176
     1
 62
     7
176
     1
 90
        3
176
     1
 90
        0
176
     1
 90
        0
176
     1
290
     0
176
     1
 90
       13
176
     1
 40
0.0
176
     1
 90
        0
176
     1
290
     0
176
     1
290
     1
176
     1
290
     1
176
     1
290
     0
176
     1
290
     0
176
     1
290
     0
176
     1
290
     0
176
     1
290
     0
176
     1
290
     0
176
     1
 90
       50
176
     1
 40
0.0
176
     1
 40
1.0
176
     1
 90
        0
176
     1
 62
    18
420
        0
176
     1
 90
       50
176
     1
 90
        3
176
     1
 62
     5
420
      255
176
     1
290
     0
176
     1
 90
       50
176
     1
 90
       50
176
     1
 90
       50
176
     1
290
     0
176
     1
 90
       50
176
     1
 62
   256
176
     0
 40
1.0
176
     0
 90
        2
176
     1
  1
strokes_ogs.tif
176
     1
290
     0
176
     1
 40
1.0
176
     1
 40
1.0
176
     1
  0
DICTIONARYVAR
  5
89
102
{ACAD_REACTORS
330
88
102
}
330
88
100
DictionaryVariables
280
     0
  1
1:1
  0
DICTIONARYVAR
  5
8E
102
{ACAD_REACTORS
330
88
102
}
330
88
100
DictionaryVariables
280
     0
  1
Standard
  0
DICTIONARYVAR
  5
8D
102
{ACAD_REACTORS
330
88
102
}
330
88
100
DictionaryVariables
280
     0
  1
Standard
  0
DICTIONARY
  5
8A
330
5A
100
AcDbDictionary
280
     1
281
     1
  3
ACAD_ROUNDTRIP_2008_TABLESTYLE_CELLSTYLEMAP
360
8B
  0
CELLSTYLEMAP
  5
8B
102
{ACAD_REACTORS
330
8A
102
}
330
8A
100
AcDbCellStyleMap
 90
        3
300
CELLSTYLE
  1
TABLEFORMAT_BEGIN
 90
        5
170
     1
 91
        0
 92
    32768
 62
   257
 93
        1
300
CONTENTFORMAT
  1
CONTENTFORMAT_BEGIN
 90
        0
 91
        0
 92
        4
 93
        0
300

 40
0.0
140
1.0
 94
        5
 62
     0
340
11
144
0.25
309
CONTENTFORMAT_END
171
     1
301
MARGIN
  1
CELLMARGIN_BEGIN
 40
0.06
 40
0.06
 40
0.06
 40
0.06
 40
0.06
 40
0.06
309
CELLMARGIN_END
 94
        6
 95
        1
302
GRIDFORMAT
  1
GRIDFORMAT_BEGIN
 90
        0
 91
        1
 62
     0
 92
       -2
340
14
 93
        0
 40
0.045
309
GRIDFORMAT_END
 95
        2
302
GRIDFORMAT
  1
GRIDFORMAT_BEGIN
 90
        0
 91
        1
 62
     0
 92
       -2
340
14
 93
        0
 40
0.045
309
GRIDFORMAT_END
 95
        4
302
GRIDFORMAT
  1
GRIDFORMAT_BEGIN
 90
        0
 91
        1
 62
     0
 92
       -2
340
14
 93
        0
 40
0.045
309
GRIDFORMAT_END
 95
        8
302
GRIDFORMAT
  1
GRIDFORMAT_BEGIN
 90
        0
 91
        1
 62
     0
 92
       -2
340
14
 93
        0
 40
0.045
309
GRIDFORMAT_END
 95
       16
302
GRIDFORMAT
  1
GRIDFORMAT_BEGIN
 90
        0
 91
        1
 62
     0
 92
       -2
340
14
 93
        0
 40
0.045
309
GRIDFORMAT_END
 95
       32
302
GRIDFORMAT
  1
GRIDFORMAT_BEGIN
 90
        0
 91
        1
 62
     0
 92
       -2
340
14
 93
        0
 40
0.045
309
GRIDFORMAT_END
309
TABLEFORMAT_END
  1
CELLSTYLE_BEGIN
 90
        1
 91
        1
300
_TITLE
309
CELLSTYLE_END
300
CELLSTYLE
  1
TABLEFORMAT_BEGIN
 90
        5
170
     1
 91
        0
 92
        0
 62
   257
 93
        1
300
CONTENTFORMAT
  1
CONTENTFORMAT_BEGIN
 90
        0
 91
        0
 92
        4
 93
        0
300

 40
0.0
140
1.0
 94
        5
 62
     0
340
11
144
0.18
309
CONTENTFORMAT_END
171
     1
301
MARGIN
  1
CELLMARGIN_BEGIN
 40
0.06
 40
0.06
 40
0.06
 40
0.06
 40
0.06
 40
0.06
309
CELLMARGIN_END
 94
        6
 95
        1
302
GRIDFORMAT
  1
GRIDFORMAT_BEGIN
 90
        0
 91
        1
 62
     0
 92
       -2
340
14
 93
        0
 40
0.045
309
GRIDFORMAT_END
 95
        2
302
GRIDFORMAT
  1
GRIDFORMAT_BEGIN
 90
        0
 91
        1
 62
     0
 92
       -2
340
14
 93
        0
 40
0.045
309
GRIDFORMAT_END
 95
        4
302
GRIDFORMAT
  1
GRIDFORMAT_BEGIN
 90
        0
 91
        1
 62
     0
 92
       -2
340
14
 93
        0
 40
0.045
309
GRIDFORMAT_END
 95
        8
302
GRIDFORMAT
  1
GRIDFORMAT_BEGIN
 90
        0
 91
        1
 62
     0
 92
       -2
340
14
 93
        0
 40
0.045
309
GRIDFORMAT_END
 95
       16
302
GRIDFORMAT
  1
GRIDFORMAT_BEGIN
 90
        0
 91
        1
 62
     0
 92
       -2
340
14
 93
        0
 40
0.045
309
GRIDFORMAT_END
 95
       32
302
GRIDFORMAT
  1
GRIDFORMAT_BEGIN
 90
        0
 91
        1
 62
     0
 92
       -2
340
14
 93
        0
 40
0.045
309
GRIDFORMAT_END
309
TABLEFORMAT_END
  1
CELLSTYLE_BEGIN
 90
        2
 91
        1
300
_HEADER
309
CELLSTYLE_END
300
CELLSTYLE
  1
TABLEFORMAT_BEGIN
 90
        5
170
     1
 91
        0
 92
        0
 62
   257
 93
        1
300
CONTENTFORMAT
  1
CONTENTFORMAT_BEGIN
 90
        0
 91
        0
 92
        4
 93
        0
300

 40
0.0
140
1.0
 94
        2
 62
     0
340
11
144
0.18
309
CONTENTFORMAT_END
171
     1
301
MARGIN
  1
CELLMARGIN_BEGIN
 40
0.06
 40
0.06
 40
0.06
 40
0.06
 40
0.06
 40
0.06
309
CELLMARGIN_END
 94
        6
 95
        1
302
GRIDFORMAT
  1
GRIDFORMAT_BEGIN
 90
        0
 91
        1
 62
     0
 92
       -2
340
14
 93
        0
 40
0.045
309
GRIDFORMAT_END
 95
        2
302
GRIDFORMAT
  1
GRIDFORMAT_BEGIN
 90
        0
 91
        1
 62
     0
 92
       -2
340
14
 93
        0
 40
0.045
309
GRIDFORMAT_END
 95
        4
302
GRIDFORMAT
  1
GRIDFORMAT_BEGIN
 90
        0
 91
        1
 62
     0
 92
       -2
340
14
 93
        0
 40
0.045
309
GRIDFORMAT_END
 95
        8
302
GRIDFORMAT
  1
GRIDFORMAT_BEGIN
 90
        0
 91
        1
 62
     0
 92
       -2
340
14
 93
        0
 40
0.045
309
GRIDFORMAT_END
 95
       16
302
GRIDFORMAT
  1
GRIDFORMAT_BEGIN
 90
        0
 91
        1
 62
     0
 92
       -2
340
14
 93
        0
 40
0.045
309
GRIDFORMAT_END
 95
       32
302
GRIDFORMAT
  1
GRIDFORMAT_BEGIN
 90
        0
 91
        1
 62
     0
 92
       -2
340
14
 93
        0
 40
0.045
309
GRIDFORMAT_END
309
TABLEFORMAT_END
  1
CELLSTYLE_BEGIN
 90
        3
 91
        2
300
_DATA
309
CELLSTYLE_END
  0
ENDSEC
  0
EOF
