  0
SECTION
  2
HEADER
  9
$ACADVER
  1
AC1027
  9
$ACADMAINTVER
 70
   105
  9
$DWGCODEPAGE
  3
ANSI_1252
  9
$LASTSAVEDBY
  1
Office Desk
  9
$REQUIREDVERSIONS
160
                 0
  9
$INSBASE
 10
0.0
 20
0.0
 30
0.0
  9
$EXTMIN
 10
6.970952755905512
 20
0.4256771653543307
 30
0.0
  9
$EXTMAX
 10
12.86112598425197
 20
7.95438188976378
 30
0.0
  9
$LIMMIN
 10
0.0
 20
0.0
  9
$LIMMAX
 10
12.0
 20
9.0
  9
$ORTHOMODE
 70
     0
  9
$REGENMODE
 70
     1
  9
$FILLMODE
 70
     1
  9
$QTEXTMODE
 70
     0
  9
$MIRRTEXT
 70
     1
  9
$LTSCALE
 40
1.0
  9
$ATTMODE
 70
     1
  9
$TEXTSIZE
 40
0.2
  9
$TRACEWID
 40
0.05
  9
$TEXTSTYLE
  7
Standard
  9
$CLAYER
  8
0
  9
$CELTYPE
  6
ByLayer
  9
$CECOLOR
 62
   256
  9
$CELTSCALE
 40
1.0
  9
$DISPSILH
 70
     0
  9
$DIMSCALE
 40
1.0
  9
$DIMASZ
 40
0.18
  9
$DIMEXO
 40
0.0625
  9
$DIMDLI
 40
0.38
  9
$DIMRND
 40
0.0
  9
$DIMDLE
 40
0.0
  9
$DIMEXE
 40
0.18
  9
$DIMTP
 40
0.0
  9
$DIMTM
 40
0.0
  9
$DIMTXT
 40
0.18
  9
$DIMCEN
 40
0.09
  9
$DIMTSZ
 40
0.0
  9
$DIMTOL
 70
     0
  9
$DIMLIM
 70
     0
  9
$DIMTIH
 70
     1
  9
$DIMTOH
 70
     1
  9
$DIMSE1
 70
     0
  9
$DIMSE2
 70
     0
  9
$DIMTAD
 70
     0
  9
$DIMZIN
 70
     0
  9
$DIMBLK
  1

  9
$DIMASO
 70
     1
  9
$DIMSHO
 70
     1
  9
$DIMPOST
  1

  9
$DIMAPOST
  1

  9
$DIMALT
 70
     0
  9
$DIMALTD
 70
     2
  9
$DIMALTF
 40
25.4
  9
$DIMLFAC
 40
1.0
  9
$DIMTOFL
 70
     0
  9
$DIMTVP
 40
0.0
  9
$DIMTIX
 70
     0
  9
$DIMSOXD
 70
     0
  9
$DIMSAH
 70
     0
  9
$DIMBLK1
  1

  9
$DIMBLK2
  1

  9
$DIMSTYLE
  2
Standard
  9
$DIMCLRD
 70
     0
  9
$DIMCLRE
 70
     0
  9
$DIMCLRT
 70
     0
  9
$DIMTFAC
 40
1.0
  9
$DIMGAP
 40
0.09
  9
$DIMJUST
 70
     0
  9
$DIMSD1
 70
     0
  9
$DIMSD2
 70
     0
  9
$DIMTOLJ
 70
     1
  9
$DIMTZIN
 70
     0
  9
$DIMALTZ
 70
     0
  9
$DIMALTTZ
 70
     0
  9
$DIMUPT
 70
     0
  9
$DIMDEC
 70
     4
  9
$DIMTDEC
 70
     4
  9
$DIMALTU
 70
     2
  9
$DIMALTTD
 70
     2
  9
$DIMTXSTY
  7
Standard
  9
$DIMAUNIT
 70
     0
  9
$DIMADEC
 70
     0
  9
$DIMALTRND
 40
0.0
  9
$DIMAZIN
 70
     0
  9
$DIMDSEP
 70
    46
  9
$DIMATFIT
 70
     3
  9
$DIMFRAC
 70
     0
  9
$DIMLDRBLK
  1

  9
$DIMLUNIT
 70
     2
  9
$DIMLWD
 70
    -2
  9
$DIMLWE
 70
    -2
  9
$DIMTMOVE
 70
     0
  9
$DIMFXL
 40
1.0
  9
$DIMFXLON
 70
     0
  9
$DIMJOGANG
 40
0.7853981633974483
  9
$DIMTFILL
 70
     0
  9
$DIMTFILLCLR
 70
     0
  9
$DIMARCSYM
 70
     0
  9
$DIMLTYPE
  6

  9
$DIMLTEX1
  6

  9
$DIMLTEX2
  6

  9
$DIMTXTDIRECTION
 70
     0
  9
$LUNITS
 70
     2
  9
$LUPREC
 70
     4
  9
$SKETCHINC
 40
0.1
  9
$FILLETRAD
 40
0.0
  9
$AUNITS
 70
     0
  9
$AUPREC
 70
     0
  9
$MENU
  1
.
  9
$ELEVATION
 40
0.0
  9
$PELEVATION
 40
0.0
  9
$THICKNESS
 40
0.0
  9
$LIMCHECK
 70
     0
  9
$CHAMFERA
 40
0.0
  9
$CHAMFERB
 40
0.0
  9
$CHAMFERC
 40
0.0
  9
$CHAMFERD
 40
0.0
  9
$SKPOLY
 70
     0
  9
$TDCREATE
 40
2461020.626340637
  9
$TDUCREATE
 40
2461020.39717397
  9
$TDUPDATE
 40
2461020.626340672
  9
$TDUUPDATE
 40
2461020.397174005
  9
$TDINDWG
 40
0.0000000116
  9
$TDUSRTIMER
 40
0.0000000116
  9
$USRTIMER
 70
     1
  9
$ANGBASE
 50
0.0
  9
$ANGDIR
 70
     0
  9
$PDMODE
 70
     0
  9
$PDSIZE
 40
0.0
  9
$PLINEWID
 40
0.0
  9
$SPLFRAME
 70
     0
  9
$SPLINETYPE
 70
     6
  9
$SPLINESEGS
 70
     8
  9
$HANDSEED
  5
90
  9
$SURFTAB1
 70
     6
  9
$SURFTAB2
 70
     6
  9
$SURFTYPE
 70
     6
  9
$SURFU
 70
     6
  9
$SURFV
 70
     6
  9
$UCSBASE
  2

  9
$UCSNAME
  2

  9
$UCSORG
 10
0.0
 20
0.0
 30
0.0
  9
$UCSXDIR
 10
1.0
 20
0.0
 30
0.0
  9
$UCSYDIR
 10
0.0
 20
1.0
 30
0.0
  9
$UCSORTHOREF
  2

  9
$UCSORTHOVIEW
 70
     0
  9
$UCSORGTOP
 10
0.0
 20
0.0
 30
0.0
  9
$UCSORGBOTTOM
 10
0.0
 20
0.0
 30
0.0
  9
$UCSORGLEFT
 10
0.0
 20
0.0
 30
0.0
  9
$UCSORGRIGHT
 10
0.0
 20
0.0
 30
0.0
  9
$UCSORGFRONT
 10
0.0
 20
0.0
 30
0.0
  9
$UCSORGBACK
 10
0.0
 20
0.0
 30
0.0
  9
$PUCSBASE
  2

  9
$PUCSNAME
  2

  9
$PUCSORG
 10
0.0
 20
0.0
 30
0.0
  9
$PUCSXDIR
 10
1.0
 20
0.0
 30
0.0
  9
$PUCSYDIR
 10
0.0
 20
1.0
 30
0.0
  9
$PUCSORTHOREF
  2

  9
$PUCSORTHOVIEW
 70
     0
  9
$PUCSORGTOP
 10
0.0
 20
0.0
 30
0.0
  9
$PUCSORGBOTTOM
 10
0.0
 20
0.0
 30
0.0
  9
$PUCSORGLEFT
 10
0.0
 20
0.0
 30
0.0
  9
$PUCSORGRIGHT
 10
0.0
 20
0.0
 30
0.0
  9
$PUCSORGFRONT
 10
0.0
 20
0.0
 30
0.0
  9
$PUCSORGBACK
 10
0.0
 20
0.0
 30
0.0
  9
$USERI1
 70
     0
  9
$USERI2
 70
     0
  9
$USERI3
 70
     0
  9
$USERI4
 70
     0
  9
$USERI5
 70
     0
  9
$USERR1
 40
0.0
  9
$USERR2
 40
0.0
  9
$USERR3
 40
0.0
  9
$USERR4
 40
0.0
  9
$USERR5
 40
0.0
  9
$WORLDVIEW
 70
     1
  9
$SHADEDGE
 70
     3
  9
$SHADEDIF
 70
    70
  9
$TILEMODE
 70
     1
  9
$MAXACTVP
 70
    64
  9
$PINSBASE
 10
0.0
 20
0.0
 30
0.0
  9
$PLIMCHECK
 70
     0
  9
$PEXTMIN
 10
1.000000000000000E+20
 20
1.000000000000000E+20
 30
1.000000000000000E+20
  9
$PEXTMAX
 10
-1.000000000000000E+20
 20
-1.000000000000000E+20
 30
-1.000000000000000E+20
  9
$PLIMMIN
 10
0.0
 20
0.0
  9
$PLIMMAX
 10
12.0
 20
9.0
  9
$UNITMODE
 70
     0
  9
$VISRETAIN
 70
     1
  9
$PLINEGEN
 70
     0
  9
$PSLTSCALE
 70
     1
  9
$TREEDEPTH
 70
  3020
  9
$CMLSTYLE
  2
Standard
  9
$CMLJUST
 70
     0
  9
$CMLSCALE
 40
1.0
  9
$PROXYGRAPHICS
 70
     1
  9
$MEASUREMENT
 70
     0
  9
$CELWEIGHT
370
    -1
  9
$ENDCAPS
280
     0
  9
$JOINSTYLE
280
     0
  9
$LWDISPLAY
290
     0
  9
$INSUNITS
 70
     1
  9
$HYPERLINKBASE
  1

  9
$STYLESHEET
  1

  9
$XEDIT
290
     1
  9
$CEPSNTYPE
380
     0
  9
$PSTYLEMODE
290
     1
  9
$FINGERPRINTGUID
  2
{b77202c1-e7ec-4d1f-b8de-3384ff7321ee}
  9
$VERSIONGUID
  2
{FAEB1C32-E019-11D5-929B-00C0DF256EC4}
  9
$EXTNAMES
290
     1
  9
$PSVPSCALE
 40
0.0
  9
$OLESTARTUP
290
     0
  9
$SORTENTS
280
   127
  9
$INDEXCTL
280
     0
  9
$HIDETEXT
280
     1
  9
$XCLIPFRAME
280
     2
  9
$HALOGAP
280
     0
  9
$OBSCOLOR
 70
   257
  9
$OBSLTYPE
280
     0
  9
$INTERSECTIONDISPLAY
280
     0
  9
$INTERSECTIONCOLOR
 70
   257
  9
$DIMASSOC
280
     2
  9
$PROJECTNAME
  1

  9
$CAMERADISPLAY
290
     0
  9
$LENSLENGTH
 40
50.0
  9
$CAMERAHEIGHT
 40
0.0
  9
$STEPSPERSEC
 40
2.0
  9
$STEPSIZE
 40
6.0
  9
$3DDWFPREC
 40
2.0
  9
$PSOLWIDTH
 40
0.25
  9
$PSOLHEIGHT
 40
4.0
  9
$LOFTANG1
 40
1.570796326794897
  9
$LOFTANG2
 40
1.570796326794897
  9
$LOFTMAG1
 40
0.0
  9
$LOFTMAG2
 40
0.0
  9
$LOFTPARAM
 70
     7
  9
$LOFTNORMALS
280
     1
  9
$LATITUDE
 40
37.795
  9
$LONGITUDE
 40
-122.394
  9
$NORTHDIRECTION
 40
0.0
  9
$TIMEZONE
 70
 -8000
  9
$LIGHTGLYPHDISPLAY
280
     1
  9
$TILEMODELIGHTSYNCH
280
     1
  9
$CMATERIAL
347
44
  9
$SOLIDHIST
280
     0
  9
$SHOWHIST
280
     1
  9
$DWFFRAME
280
     2
  9
$DGNFRAME
280
     2
  9
$REALWORLDSCALE
290
     1
  9
$INTERFERECOLOR
 62
   256
  9
$CSHADOW
280
     0
  9
$SHADOWPLANELOCATION
 40
0.0
  0
ENDSEC
  0
SECTION
  2
CLASSES
  0
CLASS
  1
ACDBDICTIONARYWDFLT
  2
AcDbDictionaryWithDefault
  3
ObjectDBX Classes
 90
        0
 91
        3
280
     0
281
     0
  0
CLASS
  1
VISUALSTYLE
  2
AcDbVisualStyle
  3
ObjectDBX Classes
 90
     4095
 91
        3
280
     0
281
     0
  0
CLASS
  1
MATERIAL
  2
AcDbMaterial
  3
ObjectDBX Classes
 90
     1153
 91
        3
280
     0
281
     0
  0
CLASS
  1
SCALE
  2
AcDbScale
  3
ObjectDBX Classes
 90
     1153
 91
        3
280
     0
281
     0
  0
CLASS
  1
TABLESTYLE
  2
AcDbTableStyle
  3
ObjectDBX Classes
 90
     4095
 91
        3
280
     0
281
     0
  0
CLASS
  1
MLEADERSTYLE
  2
AcDbMLeaderStyle
  3
ACDB_MLEADERSTYLE_CLASS
 90
     4095
 91
        3
280
     0
281
     0
  0
CLASS
  1
SUN
  2
AcDbSun
  3
SCENEOE
 90
     1153
 91
        3
280
     0
281
     0
  0
CLASS
  1
DICTIONARYVAR
  2
AcDbDictionaryVar
  3
ObjectDBX Classes
 90
        0
 91
        3
280
     0
281
     0
  0
CLASS
  1
CELLSTYLEMAP
  2
AcDbCellStyleMap
  3
ObjectDBX Classes
 90
     1152
 91
        3
280
     0
281
     0
  0
ENDSEC
  0
SECTION
  2
TABLES
  0
TABLE
  2
VPORT
  5
8
330
0
100
AcDbSymbolTable
 70
     1
  0
VPORT
  5
29
330
8
100
AcDbSymbolTableRecord
100
AcDbViewportTableRecord
  2
*Active
 70
     0
 10
0.0
 20
0.0
 11
1.0
 21
1.0
 12
10.42990654205607
 22
4.5
 13
0.0
 23
0.0
 14
0.5
 24
0.5
 15
0.5
 25
0.5
 16
0.0
 26
0.0
 36
1.0
 17
0.0
 27
0.0
 37
0.0
 40
9.0
 41
1.972972972850329
 42
50.0
 43
0.0
 44
0.0
 50
0.0
 51
0.0
 71
     0
 72
   100
 73
     1
 74
     3
 75
     0
 76
     0
 77
     0
 78
     0
281
     0
 65
     1
110
0.0
120
0.0
130
0.0
111
1.0
121
0.0
131
0.0
112
0.0
122
1.0
132
0.0
 79
     0
146
0.0
348
2F
 60
     3
 61
     5
292
     1
282
     1
141
0.0
142
0.0
 63
   250
361
5D
  0
ENDTAB
  0
TABLE
  2
LTYPE
  5
5
330
0
100
AcDbSymbolTable
 70
     1
  0
LTYPE
  5
14
330
5
100
AcDbSymbolTableRecord
100
AcDbLinetypeTableRecord
  2
ByBlock
 70
     0
  3

 72
    65
 73
     0
 40
0.0
  0
LTYPE
  5
15
330
5
100
AcDbSymbolTableRecord
100
AcDbLinetypeTableRecord
  2
ByLayer
 70
     0
  3

 72
    65
 73
     0
 40
0.0
  0
LTYPE
  5
16
330
5
100
AcDbSymbolTableRecord
100
AcDbLinetypeTableRecord
  2
Continuous
 70
     0
  3
Solid line
 72
    65
 73
     0
 40
0.0
  0
ENDTAB
  0
TABLE
  2
LAYER
  5
2
330
0
100
AcDbSymbolTable
 70
     2
  0
LAYER
  5
10
330
2
100
AcDbSymbolTableRecord
100
AcDbLayerTableRecord
  2
0
 70
     0
 62
     7
  6
Continuous
370
    -3
390
F
347
46
348
0
  0
LAYER
  5
5F
330
2
100
AcDbSymbolTableRecord
100
AcDbLayerTableRecord
  2
Layer 1
 70
     0
 62
     7
  6
Continuous
370
    -3
390
F
347
46
348
0
  0
ENDTAB
  0
TABLE
  2
STYLE
  5
3
330
0
100
AcDbSymbolTable
 70
     1
  0
STYLE
  5
11
330
3
100
AcDbSymbolTableRecord
100
AcDbTextStyleTableRecord
  2
Standard
 70
     0
 40
0.0
 41
1.0
 50
0.0
 71
     0
 42
0.2
  3
txt
  4

  0
ENDTAB
  0
TABLE
  2
VIEW
  5
6
330
0
100
AcDbSymbolTable
 70
     0
  0
ENDTAB
  0
TABLE
  2
UCS
  5
7
330
0
100
AcDbSymbolTable
 70
     0
  0
ENDTAB
  0
TABLE
  2
APPID
  5
9
330
0
100
AcDbSymbolTable
 70
     2
  0
APPID
  5
12
330
9
100
AcDbSymbolTableRecord
100
AcDbRegAppTableRecord
  2
ACAD
 70
     0
  0
APPID
  5
5E
330
9
100
AcDbSymbolTableRecord
100
AcDbRegAppTableRecord
  2
ODA
 70
     0
  0
ENDTAB
  0
TABLE
  2
DIMSTYLE
  5
A
330
0
100
AcDbSymbolTable
 70
     1
100
AcDbDimStyleTable
  0
DIMSTYLE
105
27
330
A
100
AcDbSymbolTableRecord
100
AcDbDimStyleTableRecord
  2
Standard
 70
     0
178
     0
340
11
  0
ENDTAB
  0
TABLE
  2
BLOCK_RECORD
  5
1
330
0
100
AcDbSymbolTable
 70
     1
  0
BLOCK_RECORD
  5
1F
330
1
100
AcDbSymbolTableRecord
100
AcDbBlockTableRecord
  2
*Model_Space
340
22
 70
     0
280
     1
281
     0
  0
BLOCK_RECORD
  5
1B
330
1
100
AcDbSymbolTableRecord
100
AcDbBlockTableRecord
  2
*Paper_Space
340
1E
 70
     0
280
     1
281
     0
  0
BLOCK_RECORD
  5
23
330
1
100
AcDbSymbolTableRecord
100
AcDbBlockTableRecord
  2
*Paper_Space0
340
26
 70
     0
280
     1
281
     0
  0
ENDTAB
  0
ENDSEC
  0
SECTION
  2
BLOCKS
  0
BLOCK
  5
20
330
1F
100
AcDbEntity
  8
0
100
AcDbBlockBegin
  2
*Model_Space
 70
     0
 10
0.0
 20
0.0
 30
0.0
  3
*Model_Space
  1

  0
ENDBLK
  5
21
330
1F
100
AcDbEntity
  8
0
100
AcDbBlockEnd
  0
BLOCK
  5
1C
330
1B
100
AcDbEntity
 67
     1
  8
0
100
AcDbBlockBegin
  2
*Paper_Space
 70
     0
 10
0.0
 20
0.0
 30
0.0
  3
*Paper_Space
  1

  0
ENDBLK
  5
1D
330
1B
100
AcDbEntity
 67
     1
  8
0
100
AcDbBlockEnd
  0
BLOCK
  5
24
330
23
100
AcDbEntity
  8
0
100
AcDbBlockBegin
  2
*Paper_Space0
 70
     0
 10
0.0
 20
0.0
 30
0.0
  3
*Paper_Space0
  1

  0
ENDBLK
  5
25
330
23
100
AcDbEntity
  8
0
100
AcDbBlockEnd
  0
ENDSEC
  0
SECTION
  2
ENTITIES
  0
LWPOLYLINE
  5
60
330
1F
100
AcDbEntity
  8
Layer 1
 62
   250
370
     9
100
AcDbPolyline
 90
        5
 70
     1
 43
0.0
 10
6.972452755905512
 20
0.4271811023622047
 10
12.85962598425197
 20
0.4271811023622047
 10
12.85962598425197
 20
7.95288188976378
 10
6.972452755905512
 20
7.95288188976378
 10
6.972452755905512
 20
0.4271811023622047
  0
LWPOLYLINE
  5
61
330
1F
100
AcDbEntity
  8
Layer 1
 62
     7
370
     9
100
AcDbPolyline
 90
      164
 70
     1
 43
0.0
 10
10.06508267716536
 20
4.876649606299212
 10
8.23551968503937
 20
4.416622047244094
 10
8.204023622047243
 20
4.409251968503937
 10
8.120846456692913
 20
4.388507874015748
 10
8.002948818897638
 20
4.356429133858268
 10
7.867291338582677
 20
4.315066929133859
 10
7.730834645669291
 20
4.266464566929134
 10
7.610547244094488
 20
4.212669291338583
 10
7.523389763779528
 20
4.155724409448819
 10
7.486318897637795
 20
4.097673228346457
 10
7.481043307086614
 20
4.03907874015748
 10
7.478594488188977
 20
3.980192913385827
 10
7.479913385826771
 20
3.922610236220472
 10
7.485933070866142
 20
3.867925196850394
 10
7.497602362204725
 20
3.817724409448819
 10
7.515862204724409
 20
3.773610236220473
 10
7.541649606299212
 20
3.737169291338583
 10
7.575905511811023
 20
3.709996062992126
 10
7.613350393700787
 20
3.690129921259842
 10
7.647681102362204
 20
3.674263779527559
 10
7.678326771653543
 20
3.661984251968504
 10
7.704700787401575
 20
3.652874015748031
 10
7.726220472440945
 20
3.646515748031496
 10
7.742311023622047
 20
3.642492125984252
 10
7.752393700787402
 20
3.64038188976378
 10
7.75588188976378
 20
3.639771653543307
 10
7.752149606299213
 20
3.503755905511811
 10
7.752047244094488
 20
3.50090157480315
 10
7.752311023622047
 20
3.493248031496063
 10
7.753783464566929
 20
3.482161417322835
 10
7.757318897637795
 20
3.469015748031496
 10
7.763755905511811
 20
3.455177165354331
 10
7.773952755905512
 20
3.442011811023622
 10
7.788751968503937
 20
3.430889763779528
 10
7.809
 20
3.423177165354331
 10
7.839484251968504
 20
3.414681102362205
 10
7.883795275590551
 20
3.401968503937008
 10
7.941003937007874
 20
3.387547244094488
 10
8.01017716535433
 20
3.373933070866142
 10
8.090377952755906
 20
3.363633858267717
 10
8.18067716535433
 20
3.359169291338583
 10
8.280141732283465
 20
3.363047244094488
 10
8.387838582677166
 20
3.377779527559055
 10
8.45934251968504
 20
3.382606299212598
 10
8.462027559055118
 20
3.384192913385827
 10
8.46911811023622
 20
3.38909842519685
 10
8.47915748031496
 20
3.397547244094488
 10
8.490704724409449
 20
3.409763779527559
 10
8.502299212598425
 20
3.425968503937008
 10
8.512492125984252
 20
3.446389763779528
 10
8.519838582677165
 20
3.471248031496063
 10
8.522881889763779
 20
3.500767716535433
 10
8.523665354330708
 20
3.532712598425197
 10
8.525047244094488
 20
3.563964566929134
 10
8.526811023622047
 20
3.593425196850394
 10
8.52874409448819
 20
3.62
 10
8.53062598425197
 20
3.642582677165354
 10
8.532240157480315
 20
3.660070866141732
 10
8.533366141732284
 20
3.671374015748031
 10
8.533791338582677
 20
3.675385826771654
 10
10.02388188976378
 20
4.046681102362204
 10
10.08544094488189
 20
3.972814960629921
 10
10.11923228346457
 20
2.082047244094488
 10
10.1102874015748
 20
2.07851968503937
 10
10.08731889763779
 20
2.067708661417323
 10
10.0561220472441
 20
2.049287401574803
 10
10.0225
 20
2.02292125984252
 10
9.992251968503936
 20
1.988275590551181
 10
9.971173228346457
 20
1.945027559055118
 10
9.965062992125985
 20
1.892834645669291
 10
9.979720472440945
 20
1.831370078740157
 10
10.01785433070866
 20
1.769618110236221
 10
10.07528346456693
 20
1.716665354330709
 10
10.14746456692913
 20
1.672338582677165
 10
10.22985039370079
 20
1.636464566929134
 10
10.3178937007874
 20
1.608866141732283
 10
10.40705511811024
 20
1.589370078740157
 10
10.49279133858268
 20
1.577799212598425
 10
10.57055511811024
 20
1.57398031496063
 10
10.65083858267717
 20
1.573527559055118
 10
10.74395669291339
 20
1.573110236220473
 10
10.84510236220472
 20
1.574137795275591
 10
10.94946456692913
 20
1.578007874015748
 10
11.05223622047244
 20
1.586129921259843
 10
11.14861417322835
 20
1.599917322834646
 10
11.23377952755905
 20
1.620763779527559
 10
11.30293307086614
 20
1.650086614173228
 10
11.35849606299213
 20
1.680834645669291
 10
11.40622440944882
 20
1.706751968503937
 10
11.44631496062992
 20
1.730425196850394
 10
11.47895669291339
 20
1.75444094488189
 10
11.50435039370079
 20
1.781385826771654
 10
11.52268503937008
 20
1.813846456692913
 10
11.53415748031496
 20
1.854409448818898
 10
11.53896062992126
 20
1.905661417322835
 10
11.5383031496063
 20
1.911070866141732
 10
11.53522834645669
 20
1.925964566929134
 10
11.52808267716535
 20
1.948326771653543
 10
11.51521653543307
 20
1.976145669291339
 10
11.49497637795276
 20
2.007413385826772
 10
11.46570866141732
 20
2.040118110236221
 10
11.42575984251969
 20
2.072248031496063
 10
11.37348031496063
 20
2.101791338582677
 10
11.35823228346457
 20
4.838897637795275
 10
11.35732677165354
 20
4.84186220472441
 10
11.35441732283465
 20
4.849814960629922
 10
11.3492125984252
 20
4.86136220472441
 10
11.34142125984252
 20
4.875098425196851
 10
11.33075590551181
 20
4.889622047244094
 10
11.31692125984252
 20
4.903531496062993
 10
11.29962992125984
 20
4.915425196850394
 10
11.27859448818898
 20
4.923905511811023
 10
11.28391732283464
 20
4.931023622047245
 10
11.29788188976378
 20
4.950637795275591
 10
11.31747244094488
 20
4.980125984251968
 10
11.33968897637795
 20
5.016877952755905
 10
11.36151968503937
 20
5.058279527559055
 10
11.37995275590551
 20
5.101708661417323
 10
11.39198031496063
 20
5.144555118110236
 10
11.39459448818898
 20
5.184200787401575
 10
11.37622047244095
 20
5.87901968503937
 10
11.37138976377953
 20
5.889968503937008
 10
11.35153149606299
 20
5.91796062992126
 10
11.30859842519685
 20
5.955716535433071
 10
11.23455118110236
 20
5.99596062992126
 10
11.12133858267716
 20
6.031409448818898
 10
10.96092125984252
 20
6.054787401574803
 10
10.74524803149606
 20
6.058811023622047
 10
10.46627952755905
 20
6.036208661417323
 10
8.630740157480314
 20
5.602267716535433
 10
8.620271653543307
 20
5.599748031496063
 10
8.59274409448819
 20
5.592204724409449
 10
8.553952755905511
 20
5.579681102362205
 10
8.509700787401576
 20
5.562208661417323
 10
8.465799212598425
 20
5.539826771653543
 10
8.428043307086615
 20
5.512570866141732
 10
8.402240157480316
 20
5.480472440944882
 10
8.394192913385826
 20
5.443570866141732
 10
8.397086614173228
 20
5.404165354330709
 10
8.403527559055117
 20
5.365173228346457
 10
8.41844094488189
 20
5.327562992125984
 10
8.446759842519684
 20
5.292303149606299
 10
8.493413385826772
 20
5.260366141732283
 10
8.56332283464567
 20
5.232716535433071
 10
8.661425196850393
 20
5.210326771653543
 10
8.792649606299213
 20
5.194161417322834
 10
8.939330708661418
 20
5.187078740157481
 10
9.078125984251969
 20
5.189527559055118
 10
9.205437007874016
 20
5.198858267716536
 10
9.317665354330709
 20
5.212425196850393
 10
9.411216535433072
 20
5.227582677165354
 10
9.482492125984251
 20
5.241688976377953
 10
9.527897637795276
 20
5.252090551181102
 10
9.543830708661417
 20
5.256145669291339
 10
10.00981102362205
 20
5.378740157480315
 10
10.02329133858268
 20
4.934055118110236
 10
10.02370078740157
 20
4.932641732283464
 10
10.02507086614173
 20
4.928700787401575
 10
10.02761023622047
 20
4.922673228346457
 10
10.03151968503937
 20
4.914996062992126
 10
10.0370157480315
 20
4.906114173228347
 10
10.0443031496063
 20
4.896468503937008
 10
10.0535905511811
 20
4.8865
 10
10.06508267716536
 20
4.876649606299212
  0
LWPOLYLINE
  5
62
330
1F
100
AcDbEntity
  8
Layer 1
 62
     7
370
     9
100
AcDbPolyline
 90
       33
 70
     1
 43
0.0
 10
10.18103937007874
 20
5.347165354330708
 10
10.19495275590551
 20
5.344937007874016
 10
10.20804330708661
 20
5.338551181102362
 10
10.22001181102362
 20
5.32844094488189
 10
10.23057874015748
 20
5.315055118110236
 10
10.23944488188976
 20
5.298826771653543
 10
10.24633070866142
 20
5.280200787401575
 10
10.25093700787402
 20
5.259618110236221
 10
10.2529842519685
 20
5.23751968503937
 10
10.25223622047244
 20
5.21542125984252
 10
10.24883858267717
 20
5.194838582677165
 10
10.24305118110236
 20
5.176212598425197
 10
10.23513779527559
 20
5.159984251968504
 10
10.22535826771654
 20
5.146594488188977
 10
10.2139842519685
 20
5.136484251968504
 10
10.20127165354331
 20
5.13009842519685
 10
10.18748818897638
 20
5.127870078740157
 10
10.17357480314961
 20
5.13009842519685
 10
10.1604842519685
 20
5.136484251968504
 10
10.1485157480315
 20
5.146594488188977
 10
10.13795275590551
 20
5.159984251968504
 10
10.12908267716535
 20
5.176212598425197
 10
10.1221968503937
 20
5.194838582677165
 10
10.1175905511811
 20
5.21542125984252
 10
10.11554330708661
 20
5.23751968503937
 10
10.11629133858268
 20
5.259618110236221
 10
10.11968897637795
 20
5.280200787401575
 10
10.12548031496063
 20
5.298826771653543
 10
10.1333937007874
 20
5.315055118110236
 10
10.14316929133858
 20
5.32844094488189
 10
10.15454330708661
 20
5.338551181102362
 10
10.16725590551181
 20
5.344937007874016
 10
10.18103937007874
 20
5.347165354330708
  0
LWPOLYLINE
  5
63
330
1F
100
AcDbEntity
  8
Layer 1
 62
     7
370
     9
100
AcDbPolyline
 90
       33
 70
     1
 43
0.0
 10
10.16297244094488
 20
5.250488188976378
 10
10.1681968503937
 20
5.249803149606299
 10
10.17311023622047
 20
5.247838582677165
 10
10.1776062992126
 20
5.244732283464567
 10
10.18157086614173
 20
5.240614173228346
 10
10.18490157480315
 20
5.235625984251969
 10
10.18748818897638
 20
5.229897637795276
 10
10.18922047244095
 20
5.223566929133859
 10
10.18999212598425
 20
5.216771653543307
 10
10.18970866141732
 20
5.209972440944882
 10
10.18843307086614
 20
5.203637795275591
 10
10.18625590551181
 20
5.197909448818898
 10
10.18328346456693
 20
5.192917322834646
 10
10.17961023622047
 20
5.188799212598425
 10
10.17533858267717
 20
5.185688976377953
 10
10.17056692913386
 20
5.183724409448819
 10
10.16538976377953
 20
5.18303937007874
 10
10.16016535433071
 20
5.183724409448819
 10
10.15525196850394
 20
5.185688976377953
 10
10.15075590551181
 20
5.188799212598425
 10
10.1467874015748
 20
5.192917322834646
 10
10.14345669291339
 20
5.197909448818898
 10
10.14087007874016
 20
5.203637795275591
 10
10.13914173228346
 20
5.209972440944882
 10
10.13837007874016
 20
5.216771653543307
 10
10.13865354330709
 20
5.223566929133859
 10
10.13992913385827
 20
5.229897637795276
 10
10.14210236220472
 20
5.235625984251969
 10
10.14507874015748
 20
5.240614173228346
 10
10.14874803149606
 20
5.244732283464567
 10
10.15302362204724
 20
5.247838582677165
 10
10.15779527559055
 20
5.249803149606299
 10
10.16297244094488
 20
5.250488188976378
  0
LWPOLYLINE
  5
64
330
1F
100
AcDbEntity
  8
Layer 1
 62
     7
370
     9
100
AcDbPolyline
 90
       25
 70
     0
 43
0.0
 10
7.518259842519685
 20
4.065566929133858
 10
7.533759842519685
 20
4.059011811023622
 10
7.57786220472441
 20
4.042240157480315
 10
7.646964566929134
 20
4.019586614173228
 10
7.737468503937007
 20
3.995385826771654
 10
7.845775590551181
 20
3.973968503937008
 10
7.968287401574803
 20
3.959677165354331
 10
8.101405511811024
 20
3.956838582677165
 10
8.241531496062992
 20
3.969791338582677
 10
8.477586614173228
 20
4.017937007874016
 10
8.86361811023622
 20
4.10788188976378
 10
9.3436968503937
 20
4.224763779527559
 10
9.86190157480315
 20
4.353720472440945
 10
10.36229921259842
 20
4.479889763779528
 10
10.78896850393701
 20
4.588413385826771
 10
11.08598031496063
 20
4.664425196850393
 10
11.19741338582677
 20
4.693062992125984
 10
11.20309842519685
 20
4.695370078740157
 10
11.21814960629921
 20
4.701909448818897
 10
11.23957086614173
 20
4.712114173228346
 10
11.26435826771653
 20
4.725413385826772
 10
11.28951181102362
 20
4.741244094488189
 10
11.31203149606299
 20
4.759031496062992
 10
11.32891732283464
 20
4.778212598425196
 10
11.33716535433071
 20
4.798216535433071
  0
LWPOLYLINE
  5
65
330
1F
100
AcDbEntity
  8
Layer 1
 62
     7
370
     9
100
AcDbPolyline
 90
       17
 70
     0
 43
0.0
 10
10.09748818897638
 20
2.016767716535433
 10
10.10500787401575
 20
2.006657480314961
 10
10.12946850393701
 20
1.980082677165354
 10
10.17373622047244
 20
1.942673228346457
 10
10.2406811023622
 20
1.900062992125984
 10
10.33315354330709
 20
1.857874015748032
 10
10.45402755905512
 20
1.821740157480315
 10
10.60616535433071
 20
1.797291338582677
 10
10.79242519685039
 20
1.790157480314961
 10
10.97440157480315
 20
1.8025
 10
11.11524409448819
 20
1.829393700787401
 10
11.22014960629921
 20
1.865846456692913
 10
11.29432283464567
 20
1.906866141732283
 10
11.34295669291339
 20
1.947456692913386
 10
11.37125984251968
 20
1.982633858267717
 10
11.38442913385827
 20
2.00740157480315
 10
11.38766141732284
 20
2.016767716535433
  0
LWPOLYLINE
  5
66
330
1F
100
AcDbEntity
  8
Layer 1
 62
     7
370
     9
100
AcDbPolyline
 90
       17
 70
     0
 43
0.0
 10
7.632338582677165
 20
3.716255905511811
 10
7.649204724409449
 20
3.710889763779528
 10
7.698086614173229
 20
3.697850393700787
 10
7.776405511811023
 20
3.681748031496063
 10
7.881582677165355
 20
3.667181102362205
 10
8.011043307086615
 20
3.658744094488189
 10
8.162208661417322
 20
3.661043307086614
 10
8.3325
 20
3.678681102362205
 10
8.519338582677165
 20
3.716255905511811
 10
8.757968503937008
 20
3.775870078740157
 10
9.064787401574803
 20
3.85161811023622
 10
9.40898031496063
 20
3.936070866141732
 10
9.759716535433071
 20
4.021814960629921
 10
10.08616535433071
 20
4.101421259842519
 10
10.35751181102362
 20
4.167472440944882
 10
10.54292519685039
 20
4.212547244094488
 10
10.61157874015748
 20
4.229220472440945
  0
LWPOLYLINE
  5
67
330
1F
100
AcDbEntity
  8
Layer 1
 62
     7
370
     9
100
AcDbPolyline
 90
       17
 70
     0
 43
0.0
 10
10.95860236220472
 20
5.573515748031496
 10
10.95427559055118
 20
5.57465748031496
 10
10.94178346456693
 20
5.577429133858268
 10
10.92185039370079
 20
5.580850393700787
 10
10.89520866141732
 20
5.583944881889764
 10
10.86258661417323
 20
5.585740157480315
 10
10.8247125984252
 20
5.585251968503937
 10
10.78231102362205
 20
5.5815
 10
10.73611811023622
 20
5.573515748031496
 10
10.66988976377953
 20
5.557728346456693
 10
10.57467716535433
 20
5.533409448818897
 10
10.46213385826772
 20
5.503838582677165
 10
10.34391732283465
 20
5.472295275590551
 10
10.2316811023622
 20
5.442055118110236
 10
10.13708267716535
 20
5.416397637795275
 10
10.07177559055118
 20
5.39859842519685
 10
10.04741732283465
 20
5.391937007874016
  0
LWPOLYLINE
  5
68
330
1F
100
AcDbEntity
  8
Layer 1
 62
     7
370
     9
100
AcDbPolyline
 90
       17
 70
     0
 43
0.0
 10
10.11129921259842
 20
4.876649606299212
 10
10.12011811023622
 20
4.872074803149606
 10
10.14647244094488
 20
4.860007874015748
 10
10.19021653543307
 20
4.842952755905512
 10
10.25120472440945
 20
4.82340157480315
 10
10.32928346456693
 20
4.803850393700787
 10
10.42430708661417
 20
4.786795275590551
 10
10.53612598425197
 20
4.774728346456693
 10
10.6645905511811
 20
4.770153543307087
 10
10.79387401574803
 20
4.776464566929134
 10
10.90784251968504
 20
4.793102362204724
 10
11.00590551181102
 20
4.816625984251968
 10
11.08747244094488
 20
4.843594488188977
 10
11.15194488188976
 20
4.87055905511811
 10
11.19872834645669
 20
4.894082677165354
 10
11.22723622047244
 20
4.910720472440945
 10
11.23687007874016
 20
4.917031496062992
  0
LWPOLYLINE
  5
69
330
1F
100
AcDbEntity
  8
Layer 1
 62
     7
370
    18
100
AcDbPolyline
 90
        2
 70
     0
 43
0.0
 10
9.846228346456693
 20
1.410728346456693
 10
11.64485826771654
 20
1.410728346456693
  0
LWPOLYLINE
  5
6A
330
1F
100
AcDbEntity
  8
Layer 1
 62
     7
370
    18
100
AcDbPolyline
 90
        2
 70
     0
 43
0.0
 10
11.76596062992126
 20
6.060074803149607
 10
11.76596062992126
 20
1.635511811023622
  0
LWPOLYLINE
  5
6B
330
1F
100
AcDbEntity
  8
Layer 1
 62
     7
370
    18
100
AcDbPolyline
 90
        2
 70
     0
 43
0.0
 10
11.70154330708661
 20
6.060074803149607
 10
11.83036220472441
 20
6.060074803149607
  0
LWPOLYLINE
  5
6C
330
1F
100
AcDbEntity
  8
Layer 1
 62
     7
370
    18
100
AcDbPolyline
 90
        2
 70
     0
 43
0.0
 10
11.70155511811024
 20
1.635515748031496
 10
11.83037401574803
 20
1.635515748031496
  0
LWPOLYLINE
  5
6D
330
1F
100
AcDbEntity
  8
Layer 1
 62
     7
370
    18
100
AcDbPolyline
 90
        2
 70
     0
 43
0.0
 10
9.84621653543307
 20
1.346314960629921
 10
9.84621653543307
 20
1.475133858267716
  0
LWPOLYLINE
  5
6E
330
1F
100
AcDbEntity
  8
Layer 1
 62
     7
370
    18
100
AcDbPolyline
 90
        2
 70
     0
 43
0.0
 10
11.64485826771654
 20
1.346314960629921
 10
11.64485826771654
 20
1.475133858267716
  0
LWPOLYLINE
  5
6F
330
1F
100
AcDbEntity
  8
Layer 1
 62
     7
370
     9
100
AcDbPolyline
 90
        7
 70
     1
 43
0.0
 10
11.91072834645669
 20
3.835838582677165
 10
11.91072834645669
 20
3.81242125984252
 10
12.14094094488189
 20
3.81242125984252
 10
12.13491732283465
 20
3.868633858267716
 10
12.1145
 20
3.868633858267716
 10
12.1145
 20
3.835838582677165
 10
11.91072834645669
 20
3.835838582677165
  0
LWPOLYLINE
  5
70
330
1F
100
AcDbEntity
  8
Layer 1
 62
     7
370
     9
100
AcDbPolyline
 90
      113
 70
     1
 43
0.0
 10
11.91324015748032
 20
3.67003937007874
 10
11.91643700787402
 20
3.663303149606299
 10
11.92017716535433
 20
3.656988188976378
 10
11.92446456692913
 20
3.651090551181102
 10
11.92929527559055
 20
3.645614173228346
 10
11.93491338582677
 20
3.640322834645669
 10
11.94084251968504
 20
3.635732283464567
 10
11.94708267716535
 20
3.631850393700788
 10
11.95364173228347
 20
3.628677165354331
 10
11.96051181102362
 20
3.626204724409449
 10
11.9676968503937
 20
3.62444094488189
 10
11.97519291338583
 20
3.62338188976378
 10
11.98300393700787
 20
3.623027559055118
 10
11.9908188976378
 20
3.623385826771654
 10
11.99833070866142
 20
3.62446062992126
 10
12.00553937007874
 20
3.626251968503937
 10
12.01244488188976
 20
3.628755905511811
 10
12.01905118110236
 20
3.63198031496063
 10
12.02535039370079
 20
3.63592125984252
 10
12.03134645669291
 20
3.640574803149606
 10
12.03704330708661
 20
3.645948818897638
 10
12.04195669291339
 20
3.6515
 10
12.0462874015748
 20
3.657409448818898
 10
12.05002755905512
 20
3.663669291338583
 10
12.05318503937008
 20
3.670287401574803
 10
12.05575590551181
 20
3.677263779527559
 10
12.05774409448819
 20
3.684590551181103
 10
12.05914566929134
 20
3.692275590551181
 10
12.05996062992126
 20
3.700318897637795
 10
12.05394094488189
 20
3.710362204724409
 10
12.13825984251969
 20
3.639082677165354
 10
12.13825984251969
 20
3.76155905511811
 10
12.11483464566929
 20
3.76155905511811
 10
12.11483464566929
 20
3.686602362204725
 10
12.03453149606299
 20
3.755535433070866
 10
12.02014960629921
 20
3.737799212598425
 10
12.02391338582677
 20
3.733688976377953
 10
12.02717322834646
 20
3.729389763779527
 10
12.02993307086614
 20
3.724905511811023
 10
12.03218897637795
 20
3.720228346456693
 10
12.03394488188976
 20
3.715366141732284
 10
12.0351968503937
 20
3.710318897637795
 10
12.03594881889764
 20
3.705082677165354
 10
12.03620078740157
 20
3.69965748031496
 10
12.03595669291339
 20
3.694236220472441
 10
12.03522834645669
 20
3.68901968503937
 10
12.0340157480315
 20
3.684007874015748
 10
12.03231496062992
 20
3.679200787401575
 10
12.03012598425197
 20
3.674594488188976
 10
12.02745275590551
 20
3.670196850393701
 10
12.02429133858268
 20
3.666
 10
12.02064566929134
 20
3.662011811023622
 10
12.01665748031496
 20
3.658366141732283
 10
12.01248031496063
 20
3.655204724409449
 10
12.0081062992126
 20
3.652527559055118
 10
12.00353937007874
 20
3.650338582677165
 10
11.99877559055118
 20
3.648633858267717
 10
11.99382283464567
 20
3.647417322834646
 10
11.98867716535433
 20
3.646688976377953
 10
11.98333464566929
 20
3.646444881889764
 10
11.97811023622047
 20
3.646692913385827
 10
11.97306692913386
 20
3.647437007874016
 10
11.9681968503937
 20
3.648681102362205
 10
11.96351181102362
 20
3.65042125984252
 10
11.959
 20
3.652657480314961
 10
11.95466535433071
 20
3.655389763779528
 10
11.95051181102362
 20
3.65861811023622
 10
11.94653149606299
 20
3.662346456692914
 10
11.9431968503937
 20
3.666094488188977
 10
11.94021653543307
 20
3.670161417322835
 10
11.9375905511811
 20
3.674543307086614
 10
11.93531496062992
 20
3.679240157480315
 10
11.93348818897638
 20
3.684342519685039
 10
11.93218503937008
 20
3.689948818897638
 10
11.93140157480315
 20
3.696055118110236
 10
11.93114173228346
 20
3.702669291338583
 10
11.93128346456693
 20
3.706098425196851
 10
11.93171653543307
 20
3.709527559055118
 10
11.93243307086614
 20
3.712952755905512
 10
11.93344094488189
 20
3.71638188976378
 10
11.93473228346457
 20
3.719811023622047
 10
11.93631496062992
 20
3.723240157480315
 10
11.93818503937008
 20
3.726673228346457
 10
11.94034251968504
 20
3.730102362204724
 10
11.94274409448819
 20
3.733405511811024
 10
11.94535039370079
 20
3.736456692913386
 10
11.94815748031496
 20
3.739259842519685
 10
11.95117322834646
 20
3.741814960629921
 10
11.95438976377953
 20
3.744114173228346
 10
11.95781102362205
 20
3.746165354330709
 10
11.96143700787402
 20
3.747964566929134
 10
11.96526377952756
 20
3.749511811023622
 10
11.95757086614173
 20
3.772263779527559
 10
11.95211811023622
 20
3.770102362204724
 10
11.94692913385827
 20
3.767547244094488
 10
11.942
 20
3.764602362204724
 10
11.93733070866142
 20
3.761263779527559
 10
11.93292519685039
 20
3.757535433070866
 10
11.92877952755905
 20
3.753409448818898
 10
11.9248937007874
 20
3.748897637795276
 10
11.92126771653543
 20
3.743988188976378
 10
11.9181811023622
 20
3.739106299212598
 10
11.91545275590551
 20
3.733992125984252
 10
11.91307874015748
 20
3.728649606299212
 10
11.91105905511811
 20
3.723074803149606
 10
11.90944881889764
 20
3.717228346456693
 10
11.90829921259843
 20
3.711066929133858
 10
11.90761023622047
 20
3.704594488188977
 10
11.90738188976378
 20
3.697807086614173
 10
11.90774803149606
 20
3.69086220472441
 10
11.90884251968504
 20
3.683925196850394
 10
11.91067322834646
 20
3.676984251968504
 10
11.91324015748032
 20
3.67003937007874
  0
LWPOLYLINE
  5
71
330
1F
100
AcDbEntity
  8
Layer 1
 62
     7
370
     9
100
AcDbPolyline
 90
       70
 70
     1
 43
0.0
 10
12.11182283464567
 20
3.503409448818898
 10
12.1091968503937
 20
3.499543307086614
 10
12.10622047244095
 20
3.49594094488189
 10
12.10288582677165
 20
3.49259842519685
 10
12.09919291338583
 20
3.48951968503937
 10
12.09514960629921
 20
3.486700787401575
 10
12.09074803149606
 20
3.484145669291339
 10
12.08598818897638
 20
3.481850393700787
 10
12.08087795275591
 20
3.479814960629921
 10
12.0740905511811
 20
3.47753937007874
 10
12.06720866141732
 20
3.475570866141732
 10
12.06022440944882
 20
3.47390157480315
 10
12.05314173228346
 20
3.47253937007874
 10
12.04596062992126
 20
3.47148031496063
 10
12.0386811023622
 20
3.470724409448819
 10
12.0313031496063
 20
3.470267716535433
 10
12.02382283464567
 20
3.47011811023622
 10
12.00725984251969
 20
3.471114173228346
 10
11.99826377952756
 20
3.472275590551181
 10
11.98976771653543
 20
3.473791338582677
 10
11.98176771653543
 20
3.475661417322835
 10
11.97426377952756
 20
3.477889763779527
 10
11.96725590551181
 20
3.480472440944882
 10
11.96074409448819
 20
3.483413385826772
 10
11.95472834645669
 20
3.486708661417323
 10
11.9492125984252
 20
3.490358267716535
 10
11.94505118110236
 20
3.493688976377953
 10
11.94144881889764
 20
3.497196850393701
 10
11.93840157480315
 20
3.50088188976378
 10
11.93590551181102
 20
3.504744094488189
 10
11.93396850393701
 20
3.508783464566929
 10
11.93258267716535
 20
3.513003937007874
 10
11.93175196850394
 20
3.51740157480315
 10
11.93147637795276
 20
3.521976377952756
 10
11.93175196850394
 20
3.527082677165355
 10
11.93257480314961
 20
3.531944881889764
 10
11.93394488188976
 20
3.53655905511811
 10
11.93586614173228
 20
3.540929133858268
 10
11.93833464566929
 20
3.545051181102362
 10
11.94135433070866
 20
3.548929133858268
 10
11.94492125984252
 20
3.55255905511811
 10
11.94903543307087
 20
3.555944881889764
 10
11.95309842519685
 20
3.558748031496063
 10
11.95740551181102
 20
3.561299212598425
 10
11.96196456692913
 20
3.56359842519685
 10
11.96677165354331
 20
3.565645669291339
 10
11.98702362204724
 20
3.5715
 10
12.00709448818898
 20
3.574346456692914
 10
12.02945669291339
 20
3.575177165354331
 10
12.03614960629921
 20
3.574948818897638
 10
12.04360236220472
 20
3.574259842519685
 10
12.0518188976378
 20
3.573110236220472
 10
12.0608031496063
 20
3.5715
 10
12.08104330708662
 20
3.565811023622047
 10
12.08593307086614
 20
3.563834645669291
 10
12.09057480314961
 20
3.561586614173228
 10
12.09496850393701
 20
3.559066929133858
 10
12.09911023622047
 20
3.556279527559055
 10
12.10293307086614
 20
3.553204724409449
 10
12.10635433070866
 20
3.549834645669292
 10
12.10937401574803
 20
3.546169291338582
 10
12.112
 20
3.542216535433071
 10
12.11411811023622
 20
3.537937007874016
 10
12.11563385826772
 20
3.533275590551181
 10
12.11654724409449
 20
3.528232283464567
 10
12.11685039370079
 20
3.522818897637795
 10
12.11653543307087
 20
3.517397637795276
 10
12.11559448818898
 20
3.512358267716535
 10
12.11402362204724
 20
3.507696850393701
 10
12.11182283464567
 20
3.503409448818898
  0
LWPOLYLINE
  5
72
330
1F
100
AcDbEntity
  8
Layer 1
 62
     7
370
     9
100
AcDbPolyline
 90
       65
 70
     1
 43
0.0
 10
11.90771653543307
 20
3.521645669291339
 10
11.90833464566929
 20
3.511877952755905
 10
11.91019291338583
 20
3.502728346456693
 10
11.91329133858268
 20
3.494204724409449
 10
11.91762992125984
 20
3.486303149606299
 10
11.92320472440945
 20
3.47901968503937
 10
11.93001968503937
 20
3.472362204724409
 10
11.93807086614173
 20
3.466326771653543
 10
11.94736220472441
 20
3.460917322834645
 10
11.95547637795276
 20
3.457114173228347
 10
11.96403543307087
 20
3.453814960629921
 10
11.97304330708661
 20
3.451023622047244
 10
11.9825
 20
3.448744094488189
 10
11.9924094488189
 20
3.446968503937008
 10
12.00276377952756
 20
3.445700787401575
 10
12.01357480314961
 20
3.444937007874016
 10
12.02483070866142
 20
3.444685039370079
 10
12.03608661417323
 20
3.444937007874016
 10
12.0468937007874
 20
3.445700787401575
 10
12.05724803149606
 20
3.446968503937008
 10
12.06715748031496
 20
3.448744094488189
 10
12.07661417322835
 20
3.451023622047244
 10
12.08562204724409
 20
3.453814960629921
 10
12.0941811023622
 20
3.457114173228347
 10
12.10229133858268
 20
3.460917322834645
 10
12.11158661417323
 20
3.466326771653543
 10
12.11963779527559
 20
3.472362204724409
 10
12.12645275590551
 20
3.47901968503937
 10
12.13202755905512
 20
3.486303149606299
 10
12.13636220472441
 20
3.494204724409449
 10
12.13946062992126
 20
3.502728346456693
 10
12.1413188976378
 20
3.511877952755905
 10
12.14193700787402
 20
3.521645669291339
 10
12.1413188976378
 20
3.531413385826772
 10
12.13946062992126
 20
3.54055905511811
 10
12.13636220472441
 20
3.549082677165354
 10
12.13202755905512
 20
3.556984251968504
 10
12.12645275590551
 20
3.564263779527559
 10
12.11963779527559
 20
3.57092125984252
 10
12.11158661417323
 20
3.57696062992126
 10
12.10229133858268
 20
3.582374015748031
 10
12.0941811023622
 20
3.586177165354331
 10
12.08562204724409
 20
3.589476377952756
 10
12.07661417322835
 20
3.592267716535433
 10
12.06715748031496
 20
3.594547244094488
 10
12.05724803149606
 20
3.596322834645669
 10
12.0468937007874
 20
3.597590551181102
 10
12.03608661417323
 20
3.598354330708661
 10
12.02483070866142
 20
3.598606299212598
 10
12.01357480314961
 20
3.598354330708661
 10
12.00276377952756
 20
3.597590551181102
 10
11.9924094488189
 20
3.596322834645669
 10
11.9825
 20
3.594547244094488
 10
11.97304330708661
 20
3.592267716535433
 10
11.96403543307087
 20
3.589476377952756
 10
11.95547637795276
 20
3.586177165354331
 10
11.94736220472441
 20
3.582374015748031
 10
11.93807086614173
 20
3.57696062992126
 10
11.93001968503937
 20
3.57092125984252
 10
11.92320472440945
 20
3.564263779527559
 10
11.91762992125984
 20
3.556984251968504
 10
11.91329133858268
 20
3.549082677165354
 10
11.91019291338583
 20
3.54055905511811
 10
11.90833464566929
 20
3.531413385826772
 10
11.90771653543307
 20
3.521645669291339
  0
LWPOLYLINE
  5
73
330
1F
100
AcDbEntity
  8
Layer 1
 62
     7
370
     9
100
AcDbPolyline
 90
        4
 70
     1
 43
0.0
 10
10.55237007874016
 20
1.144094488188976
 10
10.55237007874016
 20
1.012594488188976
 10
10.46536614173228
 20
1.012594488188976
 10
10.55237007874016
 20
1.144094488188976
  0
LWPOLYLINE
  5
74
330
1F
100
AcDbEntity
  8
Layer 1
 62
     7
370
     9
100
AcDbPolyline
 90
       11
 70
     1
 43
0.0
 10
10.57679133858268
 20
0.988503937007874
 10
10.60556692913386
 20
0.988503937007874
 10
10.60556692913386
 20
1.012594488188976
 10
10.57679133858268
 20
1.012594488188976
 10
10.57646062992126
 20
1.169523622047244
 10
10.54366535433071
 20
1.169523622047244
 10
10.42387007874016
 20
0.988503937007874
 10
10.55237007874016
 20
0.988503937007874
 10
10.55237007874016
 20
0.941992125984252
 10
10.57679133858268
 20
0.941992125984252
 10
10.57679133858268
 20
0.988503937007874
  0
LWPOLYLINE
  5
75
330
1F
100
AcDbEntity
  8
Layer 1
 62
     7
370
     9
100
AcDbPolyline
 90
       87
 70
     1
 43
0.0
 10
10.64237007874016
 20
0.941992125984252
 10
10.80264566929134
 20
0.941992125984252
 10
10.80264566929134
 20
0.9654173228346457
 10
10.69892519685039
 20
0.9654173228346457
 10
10.77822047244094
 20
1.044051181102362
 10
10.78339763779528
 20
1.049708661417323
 10
10.78788188976378
 20
1.055653543307087
 10
10.7916811023622
 20
1.061877952755905
 10
10.7947874015748
 20
1.068385826771654
 10
10.79720078740158
 20
1.075177165354331
 10
10.79892519685039
 20
1.082251968503937
 10
10.79996062992126
 20
1.089610236220472
 10
10.80030708661417
 20
1.097248031496063
 10
10.79995275590551
 20
1.10505905511811
 10
10.7988937007874
 20
1.112555118110236
 10
10.79712992125984
 20
1.119740157480315
 10
10.79466141732284
 20
1.126610236220472
 10
10.7914842519685
 20
1.133169291338583
 10
10.78760236220472
 20
1.139409448818898
 10
10.7830157480315
 20
1.145338582677165
 10
10.77772047244095
 20
1.150956692913386
 10
10.77183858267717
 20
1.156173228346457
 10
10.7656968503937
 20
1.160688976377953
 10
10.75929133858268
 20
1.164515748031496
 10
10.75262598425197
 20
1.167641732283464
 10
10.74570078740157
 20
1.170074803149606
 10
10.73851181102362
 20
1.171811023622047
 10
10.73106299212598
 20
1.172854330708661
 10
10.72335039370079
 20
1.173200787401575
 10
10.71533858267717
 20
1.172834645669291
 10
10.70762992125984
 20
1.171736220472441
 10
10.70021653543307
 20
1.169909448818898
 10
10.69310236220472
 20
1.167346456692913
 10
10.68629133858268
 20
1.164055118110236
 10
10.67977559055118
 20
1.160031496062992
 10
10.67355511811024
 20
1.155271653543307
 10
10.66763779527559
 20
1.149783464566929
 10
10.66236614173228
 20
1.143877952755906
 10
10.65783858267717
 20
1.137661417322835
 10
10.65405905511811
 20
1.131137795275591
 10
10.65102755905512
 20
1.124307086614173
 10
10.64874409448819
 20
1.117169291338583
 10
10.6472125984252
 20
1.109720472440945
 10
10.64642519685039
 20
1.101968503937008
 10
10.64638976377953
 20
1.093905511811024
 10
10.67013779527559
 20
1.093905511811024
 10
10.66994094488189
 20
1.099137795275591
 10
10.67030708661417
 20
1.104248031496063
 10
10.67124015748031
 20
1.109236220472441
 10
10.67273622047244
 20
1.114106299212599
 10
10.67479527559055
 20
1.118854330708661
 10
10.67742125984252
 20
1.123484251968504
 10
10.68061023622047
 20
1.127992125984252
 10
10.68436614173228
 20
1.132377952755905
 10
10.68837795275591
 20
1.136299212598425
 10
10.69260236220472
 20
1.139700787401575
 10
10.69703543307087
 20
1.142574803149606
 10
10.70167716535433
 20
1.144929133858268
 10
10.70652755905512
 20
1.146759842519685
 10
10.7115905511811
 20
1.148062992125984
 10
10.71686220472441
 20
1.148850393700787
 10
10.72234251968504
 20
1.149110236220472
 10
10.72771653543307
 20
1.148874015748031
 10
10.73288976377953
 20
1.148169291338583
 10
10.73785826771654
 20
1.146992125984252
 10
10.74262598425197
 20
1.145346456692913
 10
10.74718897637795
 20
1.143228346456693
 10
10.75154724409449
 20
1.140641732283465
 10
10.75570078740157
 20
1.137582677165354
 10
10.75965354330709
 20
1.134051181102362
 10
10.76329921259843
 20
1.130149606299213
 10
10.76646062992126
 20
1.126062992125984
 10
10.76913385826772
 20
1.121787401574803
 10
10.77132283464567
 20
1.117322834645669
 10
10.77302362204724
 20
1.112669291338583
 10
10.77423622047244
 20
1.107830708661417
 10
10.77496456692913
 20
1.102799212598425
 10
10.77520866141732
 20
1.097582677165354
 10
10.77497244094488
 20
1.092248031496063
 10
10.77426771653543
 20
1.087125984251968
 10
10.7730905511811
 20
1.082208661417323
 10
10.77144488188976
 20
1.077503937007874
 10
10.76932677165354
 20
1.073007874015748
 10
10.76674015748032
 20
1.068724409448819
 10
10.7636811023622
 20
1.064645669291339
 10
10.76014960629921
 20
1.060779527559055
 10
10.64237007874016
 20
0.941992125984252
  0
LWPOLYLINE
  5
76
330
1F
100
AcDbEntity
  8
Layer 1
 62
     7
100
AcDbPolyline
 90
       67
 70
     1
 43
0.0
 10
10.25000393700787
 20
7.016767716535433
 10
10.24235826771653
 20
7.03144094488189
 10
10.23520078740157
 20
7.046330708661418
 10
10.22853937007874
 20
7.061429133858268
 10
10.22237007874016
 20
7.076740157480315
 10
10.2166968503937
 20
7.092259842519685
 10
10.21151968503937
 20
7.107996062992126
 10
10.20684251968504
 20
7.123940944881889
 10
10.20266141732283
 20
7.14009842519685
 10
10.19894881889764
 20
7.156503937007874
 10
10.19573228346457
 20
7.173129921259843
 10
10.1930157480315
 20
7.189976377952756
 10
10.19079527559055
 20
7.207043307086614
 10
10.18907086614173
 20
7.224334645669291
 10
10.18783858267716
 20
7.241842519685039
 10
10.18709842519685
 20
7.259570866141733
 10
10.18685433070866
 20
7.27751968503937
 10
10.18709842519685
 20
7.296358267716536
 10
10.18783464566929
 20
7.314854330708662
 10
10.18905905511811
 20
7.333011811023622
 10
10.19077165354331
 20
7.350826771653543
 10
10.19297244094488
 20
7.368299212598425
 10
10.19565748031496
 20
7.385425196850393
 10
10.19883070866142
 20
7.402208661417323
 10
10.2024842519685
 20
7.418645669291339
 10
10.20666141732283
 20
7.434807086614173
 10
10.21134251968504
 20
7.450696850393701
 10
10.21652362204724
 20
7.466318897637795
 10
10.2222125984252
 20
7.481673228346457
 10
10.22840157480315
 20
7.496763779527559
 10
10.23509448818898
 20
7.511586614173228
 10
10.24229527559055
 20
7.526141732283465
 10
10.25000393700787
 20
7.540437007874016
 10
10.29310236220472
 20
7.527421259842519
 10
10.28625196850394
 20
7.513318897637795
 10
10.27985433070866
 20
7.499066929133858
 10
10.27391338582677
 20
7.484661417322835
 10
10.26842519685039
 20
7.470102362204725
 10
10.2633937007874
 20
7.455389763779528
 10
10.25881102362205
 20
7.440523622047244
 10
10.25468110236221
 20
7.425503937007874
 10
10.251
 20
7.410334645669291
 10
10.2477874015748
 20
7.394897637795276
 10
10.24500393700787
 20
7.37915748031496
 10
10.24264173228346
 20
7.363102362204724
 10
10.24070866141732
 20
7.346736220472441
 10
10.23920472440945
 20
7.330047244094488
 10
10.23812992125984
 20
7.313043307086614
 10
10.2374842519685
 20
7.295712598425196
 10
10.23726771653543
 20
7.278055118110236
 10
10.23748031496063
 20
7.259610236220473
 10
10.23811811023622
 20
7.24161811023622
 10
10.23917716535433
 20
7.224070866141732
 10
10.24066929133858
 20
7.206976377952756
 10
10.24258661417323
 20
7.190326771653544
 10
10.24493307086614
 20
7.174125984251969
 10
10.24770866141732
 20
7.158377952755906
 10
10.25091338582677
 20
7.143074803149606
 10
10.25453543307087
 20
7.128102362204724
 10
10.25863385826772
 20
7.113393700787402
 10
10.26320472440945
 20
7.09896062992126
 10
10.26824803149606
 20
7.084791338582678
 10
10.27375590551181
 20
7.070885826771653
 10
10.27974015748032
 20
7.057248031496063
 10
10.28618503937008
 20
7.043877952755905
 10
10.29310236220472
 20
7.030767716535433
 10
10.25000393700787
 20
7.016767716535433
  0
LWPOLYLINE
  5
77
330
1F
100
AcDbEntity
  8
Layer 1
 62
     7
100
AcDbPolyline
 90
        7
 70
     1
 43
0.0
 10
10.44985826771654
 20
7.134944881889764
 10
10.44985826771654
 20
7.46888188976378
 10
10.36963385826772
 20
7.46888188976378
 10
10.39402362204724
 20
7.518751968503937
 10
10.50731889763779
 20
7.518751968503937
 10
10.50731889763779
 20
7.134944881889764
 10
10.44985826771654
 20
7.134944881889764
  0
LWPOLYLINE
  5
78
330
1F
100
AcDbEntity
  8
Layer 1
 62
     7
100
AcDbPolyline
 90
       65
 70
     1
 43
0.0
 10
10.93720866141732
 20
7.321515748031496
 10
10.93662992125984
 20
7.299066929133859
 10
10.93488582677165
 20
7.27786220472441
 10
10.93198031496063
 20
7.257901574803149
 10
10.92791338582677
 20
7.239192913385827
 10
10.9226811023622
 20
7.221736220472441
 10
10.91627952755906
 20
7.205527559055118
 10
10.90871653543307
 20
7.190570866141733
 10
10.8999842519685
 20
7.176866141732283
 10
10.89026377952756
 20
7.164633858267717
 10
10.87967322834646
 20
7.154031496062992
 10
10.86820866141732
 20
7.14505905511811
 10
10.85587007874016
 20
7.137712598425197
 10
10.84266141732284
 20
7.131996062992126
 10
10.82857874015748
 20
7.127913385826772
 10
10.8136220472441
 20
7.125464566929134
 10
10.79779527559055
 20
7.124645669291339
 10
10.78175984251969
 20
7.125472440944882
 10
10.76664173228346
 20
7.127948818897638
 10
10.75244881889764
 20
7.132074803149607
 10
10.73917322834646
 20
7.137846456692913
 10
10.72681496062992
 20
7.145271653543307
 10
10.71537795275591
 20
7.154338582677165
 10
10.70485826771653
 20
7.165051181102362
 10
10.69525196850394
 20
7.177409448818898
 10
10.68664566929134
 20
7.191287401574803
 10
10.67918897637795
 20
7.206496062992126
 10
10.67288188976378
 20
7.22303937007874
 10
10.66772834645669
 20
7.240913385826771
 10
10.66371653543307
 20
7.260122047244095
 10
10.66085433070866
 20
7.280665354330709
 10
10.65913779527559
 20
7.302547244094488
 10
10.65856692913386
 20
7.325763779527559
 10
10.65914566929134
 20
7.348795275590551
 10
10.66088582677165
 20
7.37051968503937
 10
10.66378346456693
 20
7.390937007874015
 10
10.66783858267716
 20
7.410051181102363
 10
10.67305118110236
 20
7.427850393700788
 10
10.67941338582677
 20
7.44434251968504
 10
10.68693307086614
 20
7.459527559055118
 10
10.6956062992126
 20
7.473397637795276
 10
10.70531102362205
 20
7.485814960629921
 10
10.71592125984252
 20
7.496574803149606
 10
10.72743307086614
 20
7.505677165354331
 10
10.73984645669291
 20
7.513118110236221
 10
10.75316535433071
 20
7.518905511811024
 10
10.76738188976378
 20
7.52303937007874
 10
10.7825
 20
7.525515748031496
 10
10.79851968503937
 20
7.52634251968504
 10
10.8147125984252
 20
7.525511811023622
 10
10.82994488188976
 20
7.523023622047244
 10
10.84422047244095
 20
7.518877952755905
 10
10.85754330708661
 20
7.513070866141732
 10
10.86990551181102
 20
7.505614173228347
 10
10.88131102362205
 20
7.496496062992126
 10
10.89175984251968
 20
7.485728346456693
 10
10.90125196850394
 20
7.473307086614173
 10
10.90966929133858
 20
7.459314960629921
 10
10.91696850393701
 20
7.443897637795276
 10
10.92314960629921
 20
7.42705905511811
 10
10.92820866141732
 20
7.408799212598425
 10
10.93214566929134
 20
7.389110236220472
 10
10.93495669291339
 20
7.368003937007874
 10
10.93664566929134
 20
7.345468503937008
 10
10.93720866141732
 20
7.321515748031496
  0
LWPOLYLINE
  5
79
330
1F
100
AcDbEntity
  8
Layer 1
 62
     7
100
AcDbPolyline
 90
       65
 70
     1
 43
0.0
 10
10.79670866141732
 20
7.178854330708662
 10
10.80606692913386
 20
7.179429133858267
 10
10.81483464566929
 20
7.181161417322834
 10
10.823
 20
7.184043307086614
 10
10.83057086614173
 20
7.188082677165355
 10
10.83753543307087
 20
7.193275590551181
 10
10.84389763779528
 20
7.199625984251968
 10
10.84965748031496
 20
7.207133858267716
 10
10.85480708661417
 20
7.215803149606299
 10
10.85938188976378
 20
7.225594488188976
 10
10.86334645669291
 20
7.236539370078741
 10
10.86670078740157
 20
7.248633858267716
 10
10.86944488188976
 20
7.261874015748032
 10
10.87157874015748
 20
7.276263779527559
 10
10.8731062992126
 20
7.291799212598425
 10
10.87401968503937
 20
7.30848031496063
 10
10.87432677165354
 20
7.326307086614174
 10
10.87402755905512
 20
7.343629921259843
 10
10.8731220472441
 20
7.359897637795275
 10
10.87161811023622
 20
7.375102362204724
 10
10.8695157480315
 20
7.389244094488189
 10
10.86680708661417
 20
7.402326771653543
 10
10.8635
 20
7.414342519685039
 10
10.8595905511811
 20
7.425291338582677
 10
10.85507874015748
 20
7.435177165354331
 10
10.85002362204724
 20
7.443972440944882
 10
10.8444094488189
 20
7.451594488188976
 10
10.83823622047244
 20
7.45803937007874
 10
10.83151181102362
 20
7.463311023622047
 10
10.82422834645669
 20
7.467409448818898
 10
10.8163937007874
 20
7.470338582677165
 10
10.80800393700787
 20
7.472090551181102
 10
10.79906299212598
 20
7.472677165354331
 10
10.78976377952756
 20
7.472094488188977
 10
10.78105118110236
 20
7.470338582677165
 10
10.77292519685039
 20
7.46742125984252
 10
10.76538188976378
 20
7.463334645669291
 10
10.75842519685039
 20
7.458086614173228
 10
10.75205118110236
 20
7.451673228346457
 10
10.74625984251968
 20
7.44409842519685
 10
10.74105511811024
 20
7.435362204724409
 10
10.73645275590551
 20
7.425456692913386
 10
10.73246456692913
 20
7.414452755905512
 10
10.72909842519685
 20
7.402342519685039
 10
10.72634251968504
 20
7.389133858267717
 10
10.72420078740157
 20
7.374814960629921
 10
10.72267322834646
 20
7.359389763779528
 10
10.72175590551181
 20
7.342862204724409
 10
10.72145275590551
 20
7.325220472440945
 10
10.72175590551181
 20
7.30807874015748
 10
10.72267322834646
 20
7.291952755905512
 10
10.7241968503937
 20
7.276850393700787
 10
10.72633070866142
 20
7.262767716535433
 10
10.72907480314961
 20
7.249712598425197
 10
10.73242913385827
 20
7.237681102362204
 10
10.73638976377953
 20
7.226681102362205
 10
10.74096456692913
 20
7.216712598425197
 10
10.74607480314961
 20
7.207846456692914
 10
10.75172047244095
 20
7.200161417322835
 10
10.75789763779528
 20
7.19365748031496
 10
10.76460236220472
 20
7.188330708661417
 10
10.77183858267717
 20
7.184185039370079
 10
10.77960236220472
 20
7.181224409448819
 10
10.78788976377953
 20
7.179448818897638
 10
10.79670866141732
 20
7.178854330708662
  0
LWPOLYLINE
  5
7A
330
1F
100
AcDbEntity
  8
Layer 1
 62
     7
100
AcDbPolyline
 90
       65
 70
     1
 43
0.0
 10
11.26463385826772
 20
7.321515748031496
 10
11.26405511811024
 20
7.299066929133859
 10
11.26231102362205
 20
7.27786220472441
 10
11.25940551181102
 20
7.257901574803149
 10
11.25533858267717
 20
7.239192913385827
 10
11.2501062992126
 20
7.221736220472441
 10
11.24370866141732
 20
7.205527559055118
 10
11.23614566929134
 20
7.190570866141733
 10
11.22741338582677
 20
7.176866141732283
 10
11.21769291338583
 20
7.164633858267717
 10
11.20709842519685
 20
7.154031496062992
 10
11.19563385826772
 20
7.14505905511811
 10
11.18329527559055
 20
7.137712598425197
 10
11.17008661417323
 20
7.131996062992126
 10
11.15600393700787
 20
7.127913385826772
 10
11.14105118110236
 20
7.125464566929134
 10
11.12522440944882
 20
7.124645669291339
 10
11.10918503937008
 20
7.125472440944882
 10
11.09407086614173
 20
7.127948818897638
 10
11.07987401574803
 20
7.132074803149607
 10
11.06659842519685
 20
7.137846456692913
 10
11.05424409448819
 20
7.145271653543307
 10
11.0428031496063
 20
7.154338582677165
 10
11.03228346456693
 20
7.165051181102362
 10
11.02267716535433
 20
7.177409448818898
 10
11.01407086614173
 20
7.191287401574803
 10
11.00661417322835
 20
7.206496062992126
 10
11.00031102362205
 20
7.22303937007874
 10
10.99515354330709
 20
7.240913385826771
 10
10.99114173228346
 20
7.260122047244095
 10
10.98827952755905
 20
7.280665354330709
 10
10.98656299212598
 20
7.302547244094488
 10
10.98599212598425
 20
7.325763779527559
 10
10.98657086614173
 20
7.348795275590551
 10
10.98831102362205
 20
7.37051968503937
 10
10.99120866141732
 20
7.390937007874015
 10
10.99526377952756
 20
7.410051181102363
 10
11.00047637795276
 20
7.427850393700788
 10
11.00684251968504
 20
7.44434251968504
 10
11.01436220472441
 20
7.459527559055118
 10
11.02303543307087
 20
7.473397637795276
 10
11.03274015748032
 20
7.485814960629921
 10
11.04335039370079
 20
7.496574803149606
 10
11.05486220472441
 20
7.505677165354331
 10
11.06727559055118
 20
7.513118110236221
 10
11.08059448818898
 20
7.518905511811024
 10
11.09481102362205
 20
7.52303937007874
 10
11.10992913385827
 20
7.525515748031496
 10
11.12594488188976
 20
7.52634251968504
 10
11.14213779527559
 20
7.525511811023622
 10
11.15737007874016
 20
7.523023622047244
 10
11.17164960629921
 20
7.518877952755905
 10
11.18496850393701
 20
7.513070866141732
 10
11.19733070866142
 20
7.505614173228347
 10
11.20873622047244
 20
7.496496062992126
 10
11.21918503937008
 20
7.485728346456693
 10
11.22867716535433
 20
7.473307086614173
 10
11.23709842519685
 20
7.459314960629921
 10
11.24439763779528
 20
7.443897637795276
 10
11.25057480314961
 20
7.42705905511811
 10
11.25563385826772
 20
7.408799212598425
 10
11.25957086614173
 20
7.389110236220472
 10
11.26238188976378
 20
7.368003937007874
 10
11.26407086614173
 20
7.345468503937008
 10
11.26463385826772
 20
7.321515748031496
  0
LWPOLYLINE
  5
7B
330
1F
100
AcDbEntity
  8
Layer 1
 62
     7
100
AcDbPolyline
 90
       65
 70
     1
 43
0.0
 10
11.12413779527559
 20
7.178854330708662
 10
11.13349606299213
 20
7.179429133858267
 10
11.14226377952756
 20
7.181161417322834
 10
11.15042913385827
 20
7.184043307086614
 10
11.158
 20
7.188082677165355
 10
11.16496456692913
 20
7.193275590551181
 10
11.17132677165354
 20
7.199625984251968
 10
11.17708661417323
 20
7.207133858267716
 10
11.18223622047244
 20
7.215803149606299
 10
11.18681102362205
 20
7.225594488188976
 10
11.19077559055118
 20
7.236539370078741
 10
11.19412992125984
 20
7.248633858267716
 10
11.19687401574803
 20
7.261874015748032
 10
11.19900787401575
 20
7.276263779527559
 10
11.20053543307087
 20
7.291799212598425
 10
11.20144881889764
 20
7.30848031496063
 10
11.20175590551181
 20
7.326307086614174
 10
11.20145669291339
 20
7.343629921259843
 10
11.20055118110236
 20
7.359897637795275
 10
11.19904724409449
 20
7.375102362204724
 10
11.19694094488189
 20
7.389244094488189
 10
11.19423622047244
 20
7.402326771653543
 10
11.19092519685039
 20
7.414342519685039
 10
11.1870157480315
 20
7.425291338582677
 10
11.18250787401575
 20
7.435177165354331
 10
11.17744881889764
 20
7.443972440944882
 10
11.17183464566929
 20
7.451594488188976
 10
11.16566141732283
 20
7.45803937007874
 10
11.15893700787402
 20
7.463311023622047
 10
11.15165354330709
 20
7.467409448818898
 10
11.14381889763779
 20
7.470338582677165
 10
11.13542913385827
 20
7.472090551181102
 10
11.12648818897638
 20
7.472677165354331
 10
11.11719291338583
 20
7.472094488188977
 10
11.10848031496063
 20
7.470338582677165
 10
11.10035039370079
 20
7.46742125984252
 10
11.09281102362205
 20
7.463334645669291
 10
11.08585039370079
 20
7.458086614173228
 10
11.07947637795276
 20
7.451673228346457
 10
11.07368897637795
 20
7.44409842519685
 10
11.0684842519685
 20
7.435362204724409
 10
11.06388188976378
 20
7.425456692913386
 10
11.0598937007874
 20
7.414452755905512
 10
11.05652362204724
 20
7.402342519685039
 10
11.05376771653543
 20
7.389133858267717
 10
11.05162598425197
 20
7.374814960629921
 10
11.05009842519685
 20
7.359389763779528
 10
11.0491811023622
 20
7.342862204724409
 10
11.04887795275591
 20
7.325220472440945
 10
11.0491811023622
 20
7.30807874015748
 10
11.05009842519685
 20
7.291952755905512
 10
11.05162204724409
 20
7.276850393700787
 10
11.05375590551181
 20
7.262767716535433
 10
11.0565
 20
7.249712598425197
 10
11.05985433070866
 20
7.237681102362204
 10
11.06381496062992
 20
7.226681102362205
 10
11.06838976377953
 20
7.216712598425197
 10
11.0735
 20
7.207846456692914
 10
11.07914566929134
 20
7.200161417322835
 10
11.08532283464567
 20
7.19365748031496
 10
11.09203149606299
 20
7.188330708661417
 10
11.09926377952756
 20
7.184185039370079
 10
11.10703149606299
 20
7.181224409448819
 10
11.1153188976378
 20
7.179448818897638
 10
11.12413779527559
 20
7.178854330708662
  0
LWPOLYLINE
  5
7C
330
1F
100
AcDbEntity
  8
Layer 1
 62
     7
100
AcDbPolyline
 90
      157
 70
     1
 43
0.0
 10
11.38606299212598
 20
7.134944881889764
 10
11.32859842519685
 20
7.134944881889764
 10
11.32859842519685
 20
7.38594094488189
 10
11.38262992125984
 20
7.38594094488189
 10
11.38262992125984
 20
7.344736220472441
 10
11.38700393700787
 20
7.351086614173228
 10
11.39152362204724
 20
7.357
 10
11.39618503937008
 20
7.362468503937007
 10
11.40099606299213
 20
7.367492125984252
 10
11.40594488188976
 20
7.372074803149606
 10
11.41103937007874
 20
7.376208661417323
 10
11.41627952755906
 20
7.379897637795276
 10
11.42166141732283
 20
7.383137795275591
 10
11.42724015748031
 20
7.38596062992126
 10
11.43306299212598
 20
7.388405511811023
 10
11.43912992125984
 20
7.390472440944882
 10
11.44544488188976
 20
7.392161417322835
 10
11.45200787401575
 20
7.393472440944882
 10
11.45881496062992
 20
7.394405511811024
 10
11.46586614173228
 20
7.394968503937008
 10
11.47316535433071
 20
7.395153543307087
 10
11.48035826771654
 20
7.394964566929134
 10
11.48724015748031
 20
7.394389763779528
 10
11.4938031496063
 20
7.393433070866141
 10
11.50005118110236
 20
7.392094488188977
 10
11.5059842519685
 20
7.390366141732284
 10
11.51159448818898
 20
7.388255905511811
 10
11.51688976377953
 20
7.385755905511811
 10
11.52186220472441
 20
7.382866141732284
 10
11.52655905511811
 20
7.379578740157481
 10
11.53096062992126
 20
7.375885826771653
 10
11.53506692913386
 20
7.371791338582677
 10
11.53888188976378
 20
7.367291338582677
 10
11.54240157480315
 20
7.362389763779528
 10
11.54563385826772
 20
7.357086614173229
 10
11.54857480314961
 20
7.35138188976378
 10
11.55122440944882
 20
7.345279527559055
 10
11.55624409448819
 20
7.351562992125984
 10
11.56133858267717
 20
7.357409448818897
 10
11.56650787401575
 20
7.362811023622047
 10
11.57175590551181
 20
7.367775590551181
 10
11.57707874015748
 20
7.372299212598425
 10
11.58248031496063
 20
7.376381889763779
 10
11.58795275590551
 20
7.380023622047244
 10
11.59350393700787
 20
7.383224409448819
 10
11.59919291338583
 20
7.38601968503937
 10
11.60507480314961
 20
7.388444881889764
 10
11.61115354330709
 20
7.390492125984252
 10
11.61742519685039
 20
7.392173228346457
 10
11.6238937007874
 20
7.393476377952756
 10
11.63055511811024
 20
7.394409448818898
 10
11.63741338582677
 20
7.394968503937008
 10
11.64446456692913
 20
7.395153543307087
 10
11.65056692913386
 20
7.395007874015748
 10
11.65647637795276
 20
7.39457874015748
 10
11.66218897637795
 20
7.393862204724409
 10
11.66770866141732
 20
7.392858267716536
 10
11.67303149606299
 20
7.391574803149607
 10
11.67815748031496
 20
7.390007874015748
 10
11.6830905511811
 20
7.388157480314961
 10
11.68783070866142
 20
7.386027559055118
 10
11.69234251968504
 20
7.38359842519685
 10
11.6965905511811
 20
7.380909448818898
 10
11.70057874015748
 20
7.377968503937008
 10
11.70431102362205
 20
7.374767716535433
 10
11.70777952755905
 20
7.371311023622047
 10
11.71099606299213
 20
7.367594488188977
 10
11.71395275590551
 20
7.363614173228346
 10
11.71665748031496
 20
7.359374015748031
 10
11.71892913385827
 20
7.355090551181102
 10
11.72085826771653
 20
7.350385826771654
 10
11.72245275590551
 20
7.345275590551181
 10
11.72370472440945
 20
7.339771653543307
 10
11.72470472440945
 20
7.333468503937008
 10
11.7254094488189
 20
7.325948818897638
 10
11.72582283464567
 20
7.317204724409449
 10
11.72596062992126
 20
7.307244094488189
 10
11.72596062992126
 20
7.28709842519685
 10
11.72596062992126
 20
7.134944881889764
 10
11.6685
 20
7.134944881889764
 10
11.6685
 20
7.263783464566929
 10
11.66833070866142
 20
7.275881889763779
 10
11.66782283464567
 20
7.286905511811024
 10
11.66698031496063
 20
7.296850393700788
 10
11.66579921259843
 20
7.305716535433071
 10
11.6642874015748
 20
7.3135
 10
11.66244094488189
 20
7.320208661417323
 10
11.66025984251968
 20
7.325830708661417
 10
11.65775196850394
 20
7.330370078740158
 10
11.65481102362205
 20
7.33411811023622
 10
11.65134645669291
 20
7.337366141732283
 10
11.64735433070866
 20
7.340114173228346
 10
11.64283858267716
 20
7.342362204724409
 10
11.63779921259843
 20
7.344110236220472
 10
11.63223228346457
 20
7.345358267716535
 10
11.62614173228346
 20
7.346110236220473
 10
11.61952755905512
 20
7.346358267716536
 10
11.61136220472441
 20
7.34601968503937
 10
11.60381102362205
 20
7.345003937007874
 10
11.59686614173228
 20
7.343314960629921
 10
11.59052755905512
 20
7.340948818897638
 10
11.5848031496063
 20
7.337913385826772
 10
11.57968503937008
 20
7.334200787401575
 10
11.5751811023622
 20
7.329818897637796
 10
11.57128346456693
 20
7.324767716535433
 10
11.56788582677165
 20
7.318874015748031
 10
11.56494488188976
 20
7.31196062992126
 10
11.56246062992126
 20
7.30403937007874
 10
11.56042913385827
 20
7.295102362204724
 10
11.55885039370079
 20
7.285149606299212
 10
11.55772440944882
 20
7.274188976377952
 10
11.55705118110236
 20
7.262220472440945
 10
11.55682677165354
 20
7.249240157480315
 10
11.55682677165354
 20
7.134944881889764
 10
11.49882283464567
 20
7.134944881889764
 10
11.49882283464567
 20
7.263783464566929
 10
11.49864960629921
 20
7.274992125984252
 10
11.49812598425197
 20
7.285299212598425
 10
11.49725590551181
 20
7.294712598425197
 10
11.49603149606299
 20
7.303232283464567
 10
11.49445669291339
 20
7.310858267716536
 10
11.49253149606299
 20
7.317590551181103
 10
11.49025196850394
 20
7.323433070866142
 10
11.48761417322835
 20
7.328385826771654
 10
11.48454330708661
 20
7.332606299212598
 10
11.48096062992126
 20
7.336259842519685
 10
11.47686614173228
 20
7.339350393700787
 10
11.47225984251969
 20
7.341877952755905
 10
11.46714173228346
 20
7.343838582677165
 10
11.46151968503937
 20
7.345240157480315
 10
11.4553937007874
 20
7.346078740157481
 10
11.44876377952756
 20
7.346358267716536
 10
11.44457480314961
 20
7.346240157480315
 10
11.44048031496063
 20
7.345885826771654
 10
11.43648031496063
 20
7.345287401574804
 10
11.43257086614173
 20
7.344452755905512
 10
11.42875590551181
 20
7.343377952755906
 10
11.42503149606299
 20
7.34205905511811
 10
11.42140157480315
 20
7.340496062992126
 10
11.41786614173228
 20
7.338685039370079
 10
11.41443700787402
 20
7.336665354330709
 10
11.41118897637795
 20
7.334464566929134
 10
11.40812992125984
 20
7.332086614173228
 10
11.40525196850394
 20
7.329535433070866
 10
11.40255511811024
 20
7.326803149606299
 10
11.40004330708661
 20
7.323893700787401
 10
11.39770866141732
 20
7.320807086614173
 10
11.39555511811024
 20
7.317543307086614
 10
11.39311023622047
 20
7.312901574803149
 10
11.39106692913386
 20
7.30778346456693
 10
11.38941338582677
 20
7.302192913385827
 10
11.38814173228347
 20
7.296129921259842
 10
11.38724409448819
 20
7.28842125984252
 10
11.38659448818898
 20
7.278035433070866
 10
11.3861968503937
 20
7.264972440944882
 10
11.38606299212598
 20
7.249240157480315
 10
11.38606299212598
 20
7.134944881889764
  0
LWPOLYLINE
  5
7D
330
1F
100
AcDbEntity
  8
Layer 1
 62
     7
100
AcDbPolyline
 90
      157
 70
     1
 43
0.0
 10
11.86040551181102
 20
7.134944881889764
 10
11.80294094488189
 20
7.134944881889764
 10
11.80294094488189
 20
7.38594094488189
 10
11.85697244094488
 20
7.38594094488189
 10
11.85697244094488
 20
7.344736220472441
 10
11.86134645669291
 20
7.351086614173228
 10
11.86586614173228
 20
7.357
 10
11.87052755905512
 20
7.362468503937007
 10
11.87533858267716
 20
7.367492125984252
 10
11.8802874015748
 20
7.372074803149606
 10
11.88538188976378
 20
7.376208661417323
 10
11.8906220472441
 20
7.379897637795276
 10
11.89600393700787
 20
7.383137795275591
 10
11.90158267716535
 20
7.38596062992126
 10
11.90740551181102
 20
7.388405511811023
 10
11.91347244094488
 20
7.390472440944882
 10
11.9197874015748
 20
7.392161417322835
 10
11.92634645669291
 20
7.393472440944882
 10
11.93315354330709
 20
7.394405511811024
 10
11.94020472440945
 20
7.394968503937008
 10
11.94750393700787
 20
7.395153543307087
 10
11.95470078740157
 20
7.394964566929134
 10
11.96157874015748
 20
7.394389763779528
 10
11.96814566929134
 20
7.393433070866141
 10
11.9743937007874
 20
7.392094488188977
 10
11.98032677165354
 20
7.390366141732284
 10
11.98593700787402
 20
7.388255905511811
 10
11.99123228346457
 20
7.385755905511811
 10
11.99620472440945
 20
7.382866141732284
 10
12.00090157480315
 20
7.379578740157481
 10
12.00529921259843
 20
7.375885826771653
 10
12.00940551181102
 20
7.371791338582677
 10
12.01322047244095
 20
7.367291338582677
 10
12.01674409448819
 20
7.362389763779528
 10
12.01997637795276
 20
7.357086614173229
 10
12.02291732283465
 20
7.35138188976378
 10
12.02556692913386
 20
7.345279527559055
 10
12.03058267716535
 20
7.351562992125984
 10
12.03567716535433
 20
7.357409448818897
 10
12.04085039370079
 20
7.362811023622047
 10
12.04609842519685
 20
7.367775590551181
 10
12.05142125984252
 20
7.372299212598425
 10
12.0568188976378
 20
7.376381889763779
 10
12.06229527559055
 20
7.380023622047244
 10
12.06784645669291
 20
7.383224409448819
 10
12.07353543307087
 20
7.38601968503937
 10
12.07941732283465
 20
7.388444881889764
 10
12.08549606299213
 20
7.390492125984252
 10
12.09176771653543
 20
7.392173228346457
 10
12.09823622047244
 20
7.393476377952756
 10
12.10489763779528
 20
7.394409448818898
 10
12.11175590551181
 20
7.394968503937008
 10
12.11880708661417
 20
7.395153543307087
 10
12.1249094488189
 20
7.395007874015748
 10
12.13081889763779
 20
7.39457874015748
 10
12.13653149606299
 20
7.393862204724409
 10
12.14205118110236
 20
7.392858267716536
 10
12.14737401574803
 20
7.391574803149607
 10
12.1525
 20
7.390007874015748
 10
12.15743307086614
 20
7.388157480314961
 10
12.16217322834646
 20
7.386027559055118
 10
12.16668503937008
 20
7.38359842519685
 10
12.17093307086614
 20
7.380909448818898
 10
12.17492125984252
 20
7.377968503937008
 10
12.17865354330709
 20
7.374767716535433
 10
12.18212204724409
 20
7.371311023622047
 10
12.18533858267716
 20
7.367594488188977
 10
12.18829527559055
 20
7.363614173228346
 10
12.191
 20
7.359374015748031
 10
12.19326771653543
 20
7.355090551181102
 10
12.19520078740157
 20
7.350385826771654
 10
12.19679133858268
 20
7.345275590551181
 10
12.19804330708661
 20
7.339771653543307
 10
12.19904724409449
 20
7.333468503937008
 10
12.19975196850394
 20
7.325948818897638
 10
12.20016535433071
 20
7.317204724409449
 10
12.2003031496063
 20
7.307244094488189
 10
12.2003031496063
 20
7.28709842519685
 10
12.2003031496063
 20
7.134944881889764
 10
12.14284251968504
 20
7.134944881889764
 10
12.14284251968504
 20
7.263783464566929
 10
12.14267322834646
 20
7.275881889763779
 10
12.14216535433071
 20
7.286905511811024
 10
12.14132283464567
 20
7.296850393700788
 10
12.14014173228346
 20
7.305716535433071
 10
12.13862598425197
 20
7.3135
 10
12.13677952755905
 20
7.320208661417323
 10
12.13460236220472
 20
7.325830708661417
 10
12.1320905511811
 20
7.330370078740158
 10
12.12914960629921
 20
7.33411811023622
 10
12.12568503937008
 20
7.337366141732283
 10
12.1216968503937
 20
7.340114173228346
 10
12.1171811023622
 20
7.342362204724409
 10
12.11214173228347
 20
7.344110236220472
 10
12.10657480314961
 20
7.345358267716535
 10
12.1004842519685
 20
7.346110236220473
 10
12.09387007874016
 20
7.346358267716536
 10
12.08570472440945
 20
7.34601968503937
 10
12.07814960629921
 20
7.345003937007874
 10
12.07120472440945
 20
7.343314960629921
 10
12.06487007874016
 20
7.340948818897638
 10
12.05914566929134
 20
7.337913385826772
 10
12.05402755905512
 20
7.334200787401575
 10
12.04952362204724
 20
7.329818897637796
 10
12.04562598425197
 20
7.324767716535433
 10
12.04222834645669
 20
7.318874015748031
 10
12.0392874015748
 20
7.31196062992126
 10
12.0368031496063
 20
7.30403937007874
 10
12.03477165354331
 20
7.295102362204724
 10
12.03319291338583
 20
7.285149606299212
 10
12.03206692913386
 20
7.274188976377952
 10
12.0313937007874
 20
7.262220472440945
 10
12.03116929133858
 20
7.249240157480315
 10
12.03116929133858
 20
7.134944881889764
 10
11.97316141732284
 20
7.134944881889764
 10
11.97316141732284
 20
7.263783464566929
 10
11.97298818897638
 20
7.274992125984252
 10
11.97246456692913
 20
7.285299212598425
 10
11.97159448818898
 20
7.294712598425197
 10
11.97037401574803
 20
7.303232283464567
 10
11.96879921259842
 20
7.310858267716536
 10
11.96687401574803
 20
7.317590551181103
 10
11.96459448818898
 20
7.323433070866142
 10
11.96195669291339
 20
7.328385826771654
 10
11.95888582677165
 20
7.332606299212598
 10
11.9553031496063
 20
7.336259842519685
 10
11.95120866141732
 20
7.339350393700787
 10
11.94660236220473
 20
7.341877952755905
 10
11.9414842519685
 20
7.343838582677165
 10
11.93586220472441
 20
7.345240157480315
 10
11.92973622047244
 20
7.346078740157481
 10
11.9231062992126
 20
7.346358267716536
 10
11.91891732283465
 20
7.346240157480315
 10
11.91482283464567
 20
7.345885826771654
 10
11.9108188976378
 20
7.345287401574804
 10
11.90691338582677
 20
7.344452755905512
 10
11.90309842519685
 20
7.343377952755906
 10
11.89937401574803
 20
7.34205905511811
 10
11.89574409448819
 20
7.340496062992126
 10
11.89220866141732
 20
7.338685039370079
 10
11.88877952755906
 20
7.336665354330709
 10
11.88553149606299
 20
7.334464566929134
 10
11.88247244094488
 20
7.332086614173228
 10
11.87959448818898
 20
7.329535433070866
 10
11.87689763779528
 20
7.326803149606299
 10
11.87438582677165
 20
7.323893700787401
 10
11.87205118110236
 20
7.320807086614173
 10
11.86989763779528
 20
7.317543307086614
 10
11.86745275590551
 20
7.312901574803149
 10
11.8654094488189
 20
7.30778346456693
 10
11.86375590551181
 20
7.302192913385827
 10
11.8624842519685
 20
7.296129921259842
 10
11.86158661417323
 20
7.28842125984252
 10
11.86093700787402
 20
7.278035433070866
 10
11.86053937007874
 20
7.264972440944882
 10
11.86040551181102
 20
7.249240157480315
 10
11.86040551181102
 20
7.134944881889764
  0
LWPOLYLINE
  5
7E
330
1F
100
AcDbEntity
  8
Layer 1
 62
     7
100
AcDbPolyline
 90
       67
 70
     1
 43
0.0
 10
12.29246456692913
 20
7.016767716535433
 10
12.24964173228346
 20
7.030767716535433
 10
12.25655511811024
 20
7.043877952755905
 10
12.26300393700787
 20
7.057248031496063
 10
12.2689842519685
 20
7.070885826771653
 10
12.27449606299213
 20
7.084791338582678
 10
12.27953543307087
 20
7.09896062992126
 10
12.2841062992126
 20
7.113393700787402
 10
12.28820472440945
 20
7.128102362204724
 10
12.29182677165354
 20
7.143074803149606
 10
12.29503543307087
 20
7.158377952755906
 10
12.29781102362205
 20
7.174125984251969
 10
12.30015748031496
 20
7.190326771653544
 10
12.30207480314961
 20
7.206976377952756
 10
12.30356299212598
 20
7.224070866141732
 10
12.30462598425197
 20
7.24161811023622
 10
12.30525984251969
 20
7.259610236220473
 10
12.30547244094488
 20
7.278055118110236
 10
12.30525984251969
 20
7.295712598425196
 10
12.30462598425197
 20
7.313043307086614
 10
12.30356299212598
 20
7.330047244094488
 10
12.30207480314961
 20
7.346736220472441
 10
12.30015748031496
 20
7.363102362204724
 10
12.29781102362205
 20
7.37915748031496
 10
12.29503543307087
 20
7.394897637795276
 10
12.29182677165354
 20
7.410334645669291
 10
12.28820472440945
 20
7.425503937007874
 10
12.2841062992126
 20
7.440523622047244
 10
12.27953543307087
 20
7.455389763779528
 10
12.27449606299213
 20
7.470102362204725
 10
12.2689842519685
 20
7.484661417322835
 10
12.26300393700787
 20
7.499066929133858
 10
12.25655511811024
 20
7.513318897637795
 10
12.24964173228346
 20
7.527421259842519
 10
12.29246456692913
 20
7.540437007874016
 10
12.30023622047244
 20
7.526141732283465
 10
12.30749212598425
 20
7.511586614173228
 10
12.31423228346457
 20
7.496763779527559
 10
12.32046062992126
 20
7.481673228346457
 10
12.32617716535433
 20
7.466318897637795
 10
12.33138188976378
 20
7.450696850393701
 10
12.33607086614173
 20
7.434807086614173
 10
12.34025590551181
 20
7.418645669291339
 10
12.34391338582677
 20
7.402208661417323
 10
12.34708267716535
 20
7.385425196850393
 10
12.34976771653543
 20
7.368299212598425
 10
12.35196850393701
 20
7.350826771653543
 10
12.3536811023622
 20
7.333011811023622
 10
12.35490551181102
 20
7.314854330708662
 10
12.35564173228346
 20
7.296358267716536
 10
12.35588582677165
 20
7.27751968503937
 10
12.35564173228346
 20
7.259570866141733
 10
12.35490157480315
 20
7.241842519685039
 10
12.35367322834646
 20
7.224334645669291
 10
12.35194488188976
 20
7.207043307086614
 10
12.34972440944882
 20
7.189976377952756
 10
12.34700787401575
 20
7.173129921259843
 10
12.34379133858268
 20
7.156503937007874
 10
12.34007874015748
 20
7.14009842519685
 10
12.33589763779528
 20
7.123940944881889
 10
12.33120472440945
 20
7.107996062992126
 10
12.32600787401575
 20
7.092259842519685
 10
12.32030708661417
 20
7.076740157480315
 10
12.31409842519685
 20
7.061429133858268
 10
12.30738976377953
 20
7.046330708661418
 10
12.30017716535433
 20
7.03144094488189
 10
12.29246456692913
 20
7.016767716535433
  0
LWPOLYLINE
  5
7F
330
1F
100
AcDbEntity
  8
Layer 1
 62
     7
100
AcDbPolyline
 90
      147
 70
     1
 43
0.0
 10
8.163070866141732
 20
7.186204724409449
 10
8.106468503937007
 20
7.186204724409449
 10
8.099708661417322
 20
7.174374015748032
 10
8.092295275590551
 20
7.163141732283465
 10
8.084224409448819
 20
7.152503937007874
 10
8.075503937007873
 20
7.142464566929134
 10
8.066125984251968
 20
7.133023622047244
 10
8.056090551181102
 20
7.124177165354331
 10
8.045405511811024
 20
7.115929133858268
 10
8.034062992125984
 20
7.108279527559055
 10
8.022248031496064
 20
7.101389763779528
 10
8.010149606299212
 20
7.095413385826772
 10
7.997759842519685
 20
7.09036220472441
 10
7.985086614173229
 20
7.086224409448818
 10
7.972122047244095
 20
7.083007874015748
 10
7.958874015748031
 20
7.080712598425197
 10
7.945334645669291
 20
7.079334645669292
 10
7.931511811023622
 20
7.078874015748031
 10
7.911342519685039
 20
7.079826771653543
 10
7.891909448818898
 20
7.082688976377953
 10
7.873208661417323
 20
7.087456692913386
 10
7.855244094488189
 20
7.094129921259842
 10
7.838015748031496
 20
7.102708661417322
 10
7.82151968503937
 20
7.113196850393701
 10
7.805763779527559
 20
7.125590551181102
 10
7.790740157480315
 20
7.139889763779528
 10
7.777385826771654
 20
7.155102362204724
 10
7.765814960629921
 20
7.171062992125984
 10
7.75601968503937
 20
7.187771653543307
 10
7.748007874015748
 20
7.205224409448819
 10
7.741775590551181
 20
7.223425196850394
 10
7.737326771653543
 20
7.242370078740158
 10
7.734653543307086
 20
7.262062992125984
 10
7.733763779527559
 20
7.2825
 10
7.734653543307086
 20
7.303114173228346
 10
7.737326771653543
 20
7.322956692913386
 10
7.741775590551181
 20
7.342031496062992
 10
7.748007874015748
 20
7.360334645669291
 10
7.75601968503937
 20
7.377866141732284
 10
7.765814960629921
 20
7.394629921259843
 10
7.777385826771654
 20
7.410625984251968
 10
7.790740157480315
 20
7.425850393700787
 10
7.797590551181102
 20
7.432657480314961
 10
7.804728346456693
 20
7.439106299212598
 10
7.812153543307087
 20
7.445200787401575
 10
7.819866141732284
 20
7.450937007874016
 10
7.827866141732284
 20
7.456318897637796
 10
7.836153543307087
 20
7.461342519685039
 10
7.844728346456693
 20
7.466011811023622
 10
7.853590551181102
 20
7.470326771653543
 10
7.862570866141732
 20
7.474200787401575
 10
7.871507874015748
 20
7.477562992125984
 10
7.880397637795276
 20
7.480405511811024
 10
7.889240157480315
 20
7.482732283464567
 10
7.89803937007874
 20
7.48453937007874
 10
7.906791338582678
 20
7.485830708661418
 10
7.915496062992126
 20
7.486606299212599
 10
7.92415748031496
 20
7.486866141732284
 10
7.932661417322834
 20
7.486744094488189
 10
7.940905511811024
 20
7.48638188976378
 10
7.948881889763779
 20
7.485779527559055
 10
7.956594488188976
 20
7.484937007874016
 10
7.964043307086614
 20
7.483850393700787
 10
7.971228346456693
 20
7.482523622047244
 10
7.978149606299213
 20
7.480956692913386
 10
7.984807086614174
 20
7.479145669291339
 10
8.004263779527559
 20
7.472425196850394
 10
8.02248031496063
 20
7.464122047244095
 10
8.039456692913387
 20
7.454232283464567
 10
8.055192913385827
 20
7.442759842519685
 10
8.069688976377952
 20
7.429696850393701
 10
8.082944881889764
 20
7.415051181102362
 10
8.09496062992126
 20
7.398822834645669
 10
8.105732283464567
 20
7.381003937007874
 10
8.162338582677165
 20
7.381003937007874
 10
8.15472440944882
 20
7.39840157480315
 10
8.146027559055119
 20
7.414937007874015
 10
8.136251968503936
 20
7.430610236220472
 10
8.125397637795276
 20
7.445425196850394
 10
8.113464566929133
 20
7.459374015748032
 10
8.100448818897638
 20
7.472464566929134
 10
8.086358267716536
 20
7.484688976377953
 10
8.071185039370079
 20
7.496055118110236
 10
8.055251968503937
 20
7.506307086614173
 10
8.038885826771654
 20
7.515192913385826
 10
8.02207874015748
 20
7.522708661417322
 10
8.004838582677165
 20
7.528862204724409
 10
7.987161417322834
 20
7.533645669291339
 10
7.969047244094488
 20
7.537062992125985
 10
7.9505
 20
7.539110236220472
 10
7.931511811023622
 20
7.539795275590551
 10
7.906027559055118
 20
7.538602362204724
 10
7.8815
 20
7.535015748031496
 10
7.857925196850394
 20
7.529043307086615
 10
7.835303149606299
 20
7.520681102362205
 10
7.813633858267717
 20
7.509929133858268
 10
7.792917322834645
 20
7.496787401574803
 10
7.773157480314961
 20
7.481259842519685
 10
7.754346456692914
 20
7.46334251968504
 10
7.746122047244095
 20
7.454342519685039
 10
7.738358267716535
 20
7.444988188976378
 10
7.731055118110236
 20
7.435275590551181
 10
7.724208661417323
 20
7.425208661417323
 10
7.717822834645669
 20
7.414783464566929
 10
7.711893700787401
 20
7.404003937007874
 10
7.706425196850394
 20
7.392870078740158
 10
7.701417322834645
 20
7.381377952755906
 10
7.69694094488189
 20
7.369622047244095
 10
7.69305905511811
 20
7.357692913385827
 10
7.689775590551181
 20
7.345594488188977
 10
7.687086614173229
 20
7.333318897637795
 10
7.684996062992126
 20
7.320874015748031
 10
7.683503937007874
 20
7.308255905511811
 10
7.682606299212599
 20
7.295464566929134
 10
7.682307086614173
 20
7.2825
 10
7.683433070866141
 20
7.256732283464567
 10
7.686811023622047
 20
7.231893700787402
 10
7.692437007874016
 20
7.207988188976378
 10
7.700314960629921
 20
7.185011811023622
 10
7.710448818897638
 20
7.16296062992126
 10
7.722826771653543
 20
7.141846456692913
 10
7.73746062992126
 20
7.121657480314961
 10
7.754346456692914
 20
7.102401574803149
 10
7.773157480314961
 20
7.084484251968504
 10
7.792917322834645
 20
7.068952755905512
 10
7.813633858267717
 20
7.055814960629921
 10
7.835303149606299
 20
7.045062992125985
 10
7.857925196850394
 20
7.036700787401575
 10
7.8815
 20
7.030728346456693
 10
7.906027559055118
 20
7.027141732283464
 10
7.931511811023622
 20
7.025948818897638
 10
7.950429133858267
 20
7.026641732283465
 10
7.968956692913386
 20
7.028728346456693
 10
7.987090551181103
 20
7.032200787401575
 10
8.004838582677165
 20
7.037066929133858
 10
8.022192913385826
 20
7.043318897637795
 10
8.03915748031496
 20
7.050964566929133
 10
8.055732283464566
 20
7.059996062992126
 10
8.071917322834645
 20
7.07042125984252
 10
8.087212598425197
 20
7.081877952755906
 10
8.101389763779528
 20
7.094196850393701
 10
8.114456692913386
 20
7.107377952755906
 10
8.126405511811024
 20
7.12142125984252
 10
8.137244094488189
 20
7.136326771653543
 10
8.146968503937007
 20
7.152090551181102
 10
8.155574803149607
 20
7.168716535433071
 10
8.163070866141732
 20
7.186204724409449
  0
LWPOLYLINE
  5
80
330
1F
100
AcDbEntity
  8
Layer 1
 62
     7
100
AcDbPolyline
 90
       65
 70
     1
 43
0.0
 10
8.680594488188976
 20
7.284708661417323
 10
8.679653543307086
 20
7.263779527559056
 10
8.676826771653543
 20
7.243633858267716
 10
8.672118110236221
 20
7.224267716535433
 10
8.665523622047244
 20
7.205685039370079
 10
8.657047244094489
 20
7.187877952755906
 10
8.646685039370078
 20
7.170858267716535
 10
8.63444094488189
 20
7.154614173228347
 10
8.620311023622047
 20
7.139153543307087
 10
8.604850393700787
 20
7.125027559055118
 10
8.588610236220472
 20
7.112783464566929
 10
8.571586614173228
 20
7.10242125984252
 10
8.55378346456693
 20
7.093944881889763
 10
8.535200787401575
 20
7.087350393700787
 10
8.515834645669292
 20
7.082641732283465
 10
8.495688976377952
 20
7.079814960629921
 10
8.474759842519685
 20
7.078874015748031
 10
8.454003937007874
 20
7.079814960629921
 10
8.434007874015748
 20
7.082641732283465
 10
8.414767716535433
 20
7.087350393700787
 10
8.396287401574803
 20
7.093944881889763
 10
8.378562992125984
 20
7.10242125984252
 10
8.361598425196851
 20
7.112783464566929
 10
8.345389763779528
 20
7.125027559055118
 10
8.32994094488189
 20
7.139153543307087
 10
8.315814960629922
 20
7.154614173228347
 10
8.303570866141733
 20
7.170858267716535
 10
8.293208661417323
 20
7.187877952755906
 10
8.284732283464567
 20
7.205685039370079
 10
8.27813779527559
 20
7.224267716535433
 10
8.273429133858267
 20
7.243633858267716
 10
8.270602362204725
 20
7.263779527559056
 10
8.269661417322835
 20
7.284708661417323
 10
8.270602362204725
 20
7.305464566929134
 10
8.273429133858267
 20
7.32546062992126
 10
8.27813779527559
 20
7.344700787401575
 10
8.284732283464567
 20
7.363181102362205
 10
8.293208661417323
 20
7.380905511811024
 10
8.303570866141733
 20
7.397870078740158
 10
8.315814960629922
 20
7.41407874015748
 10
8.32994094488189
 20
7.429527559055118
 10
8.345389763779528
 20
7.443653543307087
 10
8.361598425196851
 20
7.455897637795275
 10
8.378562992125984
 20
7.466259842519685
 10
8.396287401574803
 20
7.474736220472441
 10
8.414767716535433
 20
7.481326771653543
 10
8.434007874015748
 20
7.486035433070866
 10
8.454003937007874
 20
7.488862204724409
 10
8.474759842519685
 20
7.489803149606299
 10
8.495688976377952
 20
7.488862204724409
 10
8.515834645669292
 20
7.486035433070866
 10
8.535200787401575
 20
7.481326771653543
 10
8.55378346456693
 20
7.474736220472441
 10
8.571586614173228
 20
7.466259842519685
 10
8.588610236220472
 20
7.455897637795275
 10
8.604850393700787
 20
7.443653543307087
 10
8.620311023622047
 20
7.429527559055118
 10
8.63444094488189
 20
7.41407874015748
 10
8.646685039370078
 20
7.397870078740158
 10
8.657047244094489
 20
7.380905511811024
 10
8.665523622047244
 20
7.363181102362205
 10
8.672118110236221
 20
7.344700787401575
 10
8.676826771653543
 20
7.32546062992126
 10
8.679653543307086
 20
7.305464566929134
 10
8.680594488188976
 20
7.284708661417323
  0
LWPOLYLINE
  5
81
330
1F
100
AcDbEntity
  8
Layer 1
 62
     7
100
AcDbPolyline
 90
      129
 70
     1
 43
0.0
 10
8.732047244094488
 20
7.284708661417323
 10
8.731732283464567
 20
7.297850393700787
 10
8.73078346456693
 20
7.310807086614173
 10
8.729204724409449
 20
7.323578740157481
 10
8.726996062992127
 20
7.336169291338583
 10
8.724149606299212
 20
7.348574803149607
 10
8.720677165354331
 20
7.360795275590551
 10
8.716570866141732
 20
7.372830708661417
 10
8.711830708661417
 20
7.384685039370079
 10
8.706547244094487
 20
7.396251968503937
 10
8.7008031496063
 20
7.407429133858268
 10
8.694602362204725
 20
7.418212598425197
 10
8.68794094488189
 20
7.428610236220472
 10
8.680822834645669
 20
7.438614173228347
 10
8.673240157480315
 20
7.448228346456693
 10
8.665200787401576
 20
7.457448818897638
 10
8.656700787401574
 20
7.466283464566929
 10
8.647779527559056
 20
7.474696850393701
 10
8.63848031496063
 20
7.482661417322834
 10
8.628803149606298
 20
7.49017716535433
 10
8.618748031496063
 20
7.497248031496063
 10
8.60831496062992
 20
7.503870078740158
 10
8.5975
 20
7.510043307086614
 10
8.586307086614173
 20
7.515767716535433
 10
8.574732283464567
 20
7.521047244094488
 10
8.56288188976378
 20
7.525783464566929
 10
8.550846456692913
 20
7.529889763779527
 10
8.538625984251969
 20
7.533366141732284
 10
8.526220472440945
 20
7.536208661417323
 10
8.513629921259842
 20
7.53842125984252
 10
8.500858267716536
 20
7.54
 10
8.48790157480315
 20
7.540948818897638
 10
8.474759842519685
 20
7.541263779527559
 10
8.461625984251969
 20
7.540948818897638
 10
8.448685039370078
 20
7.54
 10
8.43594094488189
 20
7.53842125984252
 10
8.423393700787402
 20
7.536208661417323
 10
8.41103937007874
 20
7.533366141732284
 10
8.39888188976378
 20
7.529889763779527
 10
8.386917322834647
 20
7.525783464566929
 10
8.375149606299212
 20
7.521047244094488
 10
8.363665354330708
 20
7.515767716535433
 10
8.352547244094488
 20
7.510043307086614
 10
8.34179527559055
 20
7.503870078740158
 10
8.331409448818897
 20
7.497248031496063
 10
8.321393700787402
 20
7.49017716535433
 10
8.311744094488189
 20
7.482661417322834
 10
8.302464566929133
 20
7.474696850393701
 10
8.293551181102362
 20
7.466283464566929
 10
8.285051181102363
 20
7.457448818897638
 10
8.277011811023621
 20
7.448228346456693
 10
8.269433070866143
 20
7.438614173228347
 10
8.262311023622047
 20
7.428610236220472
 10
8.255649606299212
 20
7.418212598425197
 10
8.249448818897637
 20
7.407429133858268
 10
8.243704724409449
 20
7.396251968503937
 10
8.23842125984252
 20
7.384685039370079
 10
8.233685039370078
 20
7.372830708661417
 10
8.22957874015748
 20
7.360795275590551
 10
8.226102362204724
 20
7.348574803149607
 10
8.223259842519685
 20
7.336169291338583
 10
8.221047244094489
 20
7.323578740157481
 10
8.219468503937009
 20
7.310807086614173
 10
8.21851968503937
 20
7.297850393700787
 10
8.218204724409448
 20
7.284708661417323
 10
8.21851968503937
 20
7.271566929133858
 10
8.219468503937009
 20
7.258610236220473
 10
8.221047244094489
 20
7.245838582677165
 10
8.223259842519685
 20
7.233248031496063
 10
8.226102362204724
 20
7.220842519685039
 10
8.22957874015748
 20
7.208622047244094
 10
8.233685039370078
 20
7.196586614173229
 10
8.23842125984252
 20
7.184732283464567
 10
8.243704724409449
 20
7.173161417322834
 10
8.249448818897637
 20
7.161964566929134
 10
8.255649606299212
 20
7.151153543307086
 10
8.262311023622047
 20
7.140716535433071
 10
8.269433070866143
 20
7.130661417322835
 10
8.277011811023621
 20
7.120984251968504
 10
8.285051181102363
 20
7.111685039370078
 10
8.293551181102362
 20
7.102767716535433
 10
8.302464566929133
 20
7.094267716535433
 10
8.311744094488189
 20
7.086228346456693
 10
8.321393700787402
 20
7.078645669291339
 10
8.331409448818897
 20
7.071527559055118
 10
8.34179527559055
 20
7.06486220472441
 10
8.352547244094488
 20
7.058661417322835
 10
8.363665354330708
 20
7.052917322834646
 10
8.375149606299212
 20
7.047629921259842
 10
8.386917322834647
 20
7.042893700787402
 10
8.39888188976378
 20
7.038787401574803
 10
8.41103937007874
 20
7.035314960629921
 10
8.423393700787402
 20
7.032472440944882
 10
8.43594094488189
 20
7.030263779527559
 10
8.448685039370078
 20
7.028685039370079
 10
8.461625984251969
 20
7.027736220472441
 10
8.474759842519685
 20
7.027421259842519
 10
8.48790157480315
 20
7.027736220472441
 10
8.500858267716536
 20
7.028685039370079
 10
8.513629921259842
 20
7.030263779527559
 10
8.526220472440945
 20
7.032472440944882
 10
8.538625984251969
 20
7.035314960629921
 10
8.550846456692913
 20
7.038787401574803
 10
8.56288188976378
 20
7.042893700787402
 10
8.574732283464567
 20
7.047629921259842
 10
8.586307086614173
 20
7.052917322834646
 10
8.5975
 20
7.058661417322835
 10
8.60831496062992
 20
7.06486220472441
 10
8.618748031496063
 20
7.071527559055118
 10
8.628803149606298
 20
7.078645669291339
 10
8.63848031496063
 20
7.086228346456693
 10
8.647779527559056
 20
7.094267716535433
 10
8.656700787401574
 20
7.102767716535433
 10
8.665200787401576
 20
7.111685039370078
 10
8.673240157480315
 20
7.120984251968504
 10
8.680822834645669
 20
7.130661417322835
 10
8.68794094488189
 20
7.140716535433071
 10
8.694602362204725
 20
7.151153543307086
 10
8.7008031496063
 20
7.161964566929134
 10
8.706547244094487
 20
7.173161417322834
 10
8.711830708661417
 20
7.184732283464567
 10
8.716570866141732
 20
7.196586614173229
 10
8.720677165354331
 20
7.208622047244094
 10
8.724149606299212
 20
7.220842519685039
 10
8.726996062992127
 20
7.233248031496063
 10
8.729204724409449
 20
7.245838582677165
 10
8.73078346456693
 20
7.258610236220473
 10
8.731732283464567
 20
7.271566929133858
 10
8.732047244094488
 20
7.284708661417323
  0
LWPOLYLINE
  5
82
330
1F
100
AcDbEntity
  8
Layer 1
 62
     7
100
AcDbPolyline
 90
       97
 70
     1
 43
0.0
 10
9.011023622047244
 20
7.475102362204725
 10
9.019511811023621
 20
7.469334645669291
 10
9.027425196850393
 20
7.462791338582677
 10
9.034763779527559
 20
7.45546062992126
 10
9.041527559055119
 20
7.447354330708661
 10
9.047720472440945
 20
7.43846062992126
 10
9.053338582677165
 20
7.428791338582677
 10
9.05838188976378
 20
7.418338582677166
 10
9.062850393700787
 20
7.407106299212598
 10
9.067846456692914
 20
7.392200787401575
 10
9.072177165354331
 20
7.37707874015748
 10
9.075838582677166
 20
7.361740157480315
 10
9.078838582677164
 20
7.346181102362205
 10
9.081169291338583
 20
7.330405511811024
 10
9.08283464566929
 20
7.314409448818898
 10
9.083830708661417
 20
7.298196850393701
 10
9.08416535433071
 20
7.281767716535433
 10
9.08196062992126
 20
7.245377952755906
 10
9.079409448818897
 20
7.225618110236221
 10
9.076078740157481
 20
7.206944881889764
 10
9.071964566929134
 20
7.189366141732283
 10
9.067074803149607
 20
7.172877952755906
 10
9.061397637795276
 20
7.15748031496063
 10
9.054944881889764
 20
7.143173228346456
 10
9.047708661417323
 20
7.12996062992126
 10
9.039692913385826
 20
7.117838582677165
 10
9.032377952755905
 20
7.108708661417323
 10
9.024669291338583
 20
7.100791338582678
 10
9.016570866141732
 20
7.094094488188976
 10
9.008082677165355
 20
7.08861811023622
 10
8.999204724409449
 20
7.084354330708662
 10
8.989937007874016
 20
7.081311023622047
 10
8.980275590551182
 20
7.079484251968504
 10
8.97022440944882
 20
7.078874015748031
 10
8.959007874015748
 20
7.079476377952756
 10
8.948330708661418
 20
7.081287401574803
 10
8.938192913385826
 20
7.084303149606299
 10
8.928598425196851
 20
7.088523622047244
 10
8.91953937007874
 20
7.093952755905512
 10
8.911023622047244
 20
7.100586614173229
 10
8.903043307086614
 20
7.108425196850393
 10
8.895606299212599
 20
7.117472440944882
 10
8.889452755905511
 20
7.126385826771654
 10
8.883850393700788
 20
7.135846456692914
 10
8.878795275590551
 20
7.145862204724409
 10
8.874291338582678
 20
7.156429133858268
 10
8.870314960629921
 20
7.16734251968504
 10
8.866850393700787
 20
7.178389763779528
 10
8.863885826771654
 20
7.18957874015748
 10
8.861425196850394
 20
7.200905511811023
 10
8.85938188976378
 20
7.212204724409449
 10
8.85765748031496
 20
7.223326771653543
 10
8.85625590551181
 20
7.234259842519685
 10
8.85517716535433
 20
7.245011811023622
 10
8.85334251968504
 20
7.294141732283465
 10
8.853468503937007
 20
7.301287401574803
 10
8.853846456692914
 20
7.308846456692914
 10
8.85448031496063
 20
7.316822834645669
 10
8.85536220472441
 20
7.32521653543307
 10
8.8565
 20
7.334027559055118
 10
8.857889763779527
 20
7.343263779527559
 10
8.859531496062992
 20
7.352917322834646
 10
8.861425196850394
 20
7.362996062992126
 10
8.863862204724409
 20
7.374185039370079
 10
8.86675590551181
 20
7.385330708661417
 10
8.870110236220473
 20
7.396425196850394
 10
8.873925196850394
 20
7.407472440944882
 10
8.878267716535433
 20
7.418224409448819
 10
8.883204724409449
 20
7.428425196850394
 10
8.885897637795276
 20
7.433314960629922
 10
8.888740157480315
 20
7.438070866141732
 10
8.891732283464567
 20
7.442688976377953
 10
8.894874015748032
 20
7.447169291338582
 10
8.898169291338583
 20
7.451472440944882
 10
8.901629921259843
 20
7.455555118110237
 10
8.905248031496063
 20
7.45942125984252
 10
8.909027559055119
 20
7.463066929133858
 10
8.912964566929134
 20
7.466496062992126
 10
8.917066929133858
 20
7.469704724409449
 10
8.921326771653543
 20
7.4726968503937
 10
8.925751968503937
 20
7.475472440944882
 10
8.930358267716535
 20
7.477968503937008
 10
8.935169291338582
 20
7.480133858267717
 10
8.940188976377954
 20
7.481964566929133
 10
8.945413385826772
 20
7.483464566929134
 10
8.950846456692913
 20
7.484625984251968
 10
8.956484251968504
 20
7.48546062992126
 10
8.962330708661417
 20
7.48596062992126
 10
8.968385826771653
 20
7.486125984251968
 10
8.97444094488189
 20
7.485952755905512
 10
8.980287401574802
 20
7.485437007874015
 10
8.985925196850394
 20
7.48457874015748
 10
8.991358267716535
 20
7.483374015748032
 10
8.996586614173228
 20
7.481822834645669
 10
9.001606299212598
 20
7.479929133858268
 10
9.006417322834645
 20
7.477688976377952
 10
9.011023622047244
 20
7.475102362204725
  0
LWPOLYLINE
  5
83
330
1F
100
AcDbEntity
  8
Layer 1
 62
     7
100
AcDbPolyline
 90
       65
 70
     1
 43
0.0
 10
8.97096062992126
 20
7.026681102362205
 10
8.99242125984252
 20
7.028043307086614
 10
9.012515748031497
 20
7.032125984251969
 10
9.031244094488189
 20
7.038929133858268
 10
9.048606299212599
 20
7.04846062992126
 10
9.06459842519685
 20
7.060708661417323
 10
9.079228346456693
 20
7.075681102362204
 10
9.092488188976377
 20
7.093377952755906
 10
9.10438188976378
 20
7.113795275590551
 10
9.11273622047244
 20
7.131610236220473
 10
9.11998031496063
 20
7.150413385826772
 10
9.126106299212598
 20
7.170200787401575
 10
9.13111811023622
 20
7.19098031496063
 10
9.13501968503937
 20
7.212748031496063
 10
9.137803149606299
 20
7.2355
 10
9.139476377952755
 20
7.259244094488189
 10
9.140031496062992
 20
7.283972440944882
 10
9.139476377952755
 20
7.308700787401575
 10
9.137803149606299
 20
7.332444881889764
 10
9.13501968503937
 20
7.355200787401575
 10
9.13111811023622
 20
7.376964566929134
 10
9.126106299212598
 20
7.397744094488189
 10
9.11998031496063
 20
7.417535433070866
 10
9.11273622047244
 20
7.436338582677165
 10
9.10438188976378
 20
7.454153543307086
 10
9.092488188976377
 20
7.474570866141732
 10
9.079228346456693
 20
7.492263779527559
 10
9.06459842519685
 20
7.507236220472441
 10
9.048606299212599
 20
7.519488188976378
 10
9.031244094488189
 20
7.529015748031496
 10
9.012515748031497
 20
7.535818897637795
 10
8.99242125984252
 20
7.539901574803149
 10
8.97096062992126
 20
7.541263779527559
 10
8.9495
 20
7.539901574803149
 10
8.92940157480315
 20
7.535818897637795
 10
8.91067716535433
 20
7.529015748031496
 10
8.89331496062992
 20
7.519488188976378
 10
8.877318897637796
 20
7.507236220472441
 10
8.862692913385827
 20
7.492263779527559
 10
8.849429133858267
 20
7.474570866141732
 10
8.837535433070865
 20
7.454153543307086
 10
8.82917716535433
 20
7.436338582677165
 10
8.821937007874016
 20
7.417535433070866
 10
8.815807086614173
 20
7.397744094488189
 10
8.810795275590552
 20
7.376964566929134
 10
8.806893700787402
 20
7.355200787401575
 10
8.804110236220472
 20
7.332444881889764
 10
8.802437007874016
 20
7.308700787401575
 10
8.801881889763779
 20
7.283972440944882
 10
8.802437007874016
 20
7.259244094488189
 10
8.804110236220472
 20
7.2355
 10
8.806893700787402
 20
7.212748031496063
 10
8.810795275590552
 20
7.19098031496063
 10
8.815807086614173
 20
7.170200787401575
 10
8.821937007874016
 20
7.150413385826772
 10
8.82917716535433
 20
7.131610236220473
 10
8.837535433070865
 20
7.113795275590551
 10
8.849429133858267
 20
7.093377952755906
 10
8.862692913385827
 20
7.075681102362204
 10
8.877318897637796
 20
7.060708661417323
 10
8.89331496062992
 20
7.04846062992126
 10
8.91067716535433
 20
7.038929133858268
 10
8.92940157480315
 20
7.032125984251969
 10
8.9495
 20
7.028043307086614
 10
8.97096062992126
 20
7.026681102362205
  0
LWPOLYLINE
  5
84
330
1F
100
AcDbEntity
  8
Layer 1
 62
     7
100
AcDbPolyline
 90
       97
 70
     1
 43
0.0
 10
9.422685039370078
 20
7.475102362204725
 10
9.431173228346458
 20
7.469334645669291
 10
9.439086614173227
 20
7.462791338582677
 10
9.446425196850393
 20
7.45546062992126
 10
9.453192913385827
 20
7.447354330708661
 10
9.45938188976378
 20
7.43846062992126
 10
9.465
 20
7.428791338582677
 10
9.470043307086614
 20
7.418338582677166
 10
9.474511811023621
 20
7.407106299212598
 10
9.479507874015749
 20
7.392200787401575
 10
9.483838582677166
 20
7.37707874015748
 10
9.4875
 20
7.361740157480315
 10
9.4905
 20
7.346181102362205
 10
9.492830708661417
 20
7.330405511811024
 10
9.494496062992125
 20
7.314409448818898
 10
9.495492125984253
 20
7.298196850393701
 10
9.495826771653544
 20
7.281767716535433
 10
9.493625984251969
 20
7.245377952755906
 10
9.491074803149607
 20
7.225618110236221
 10
9.487744094488189
 20
7.206944881889764
 10
9.483629921259842
 20
7.189366141732283
 10
9.478736220472442
 20
7.172877952755906
 10
9.473062992125984
 20
7.15748031496063
 10
9.466606299212598
 20
7.143173228346456
 10
9.459370078740157
 20
7.12996062992126
 10
9.45135433070866
 20
7.117838582677165
 10
9.44403937007874
 20
7.108708661417323
 10
9.436330708661417
 20
7.100791338582678
 10
9.428232283464567
 20
7.094094488188976
 10
9.41974409448819
 20
7.08861811023622
 10
9.410866141732283
 20
7.084354330708662
 10
9.40159842519685
 20
7.081311023622047
 10
9.391937007874017
 20
7.079484251968504
 10
9.381885826771654
 20
7.078874015748031
 10
9.370669291338583
 20
7.079476377952756
 10
9.359992125984252
 20
7.081287401574803
 10
9.349854330708661
 20
7.084303149606299
 10
9.340259842519686
 20
7.088523622047244
 10
9.331200787401574
 20
7.093952755905512
 10
9.322685039370079
 20
7.100586614173229
 10
9.314704724409449
 20
7.108425196850393
 10
9.307267716535433
 20
7.117472440944882
 10
9.301114173228347
 20
7.126385826771654
 10
9.295511811023623
 20
7.135846456692914
 10
9.290456692913386
 20
7.145862204724409
 10
9.285952755905512
 20
7.156429133858268
 10
9.28198031496063
 20
7.16734251968504
 10
9.278511811023622
 20
7.178389763779528
 10
9.275547244094488
 20
7.18957874015748
 10
9.273086614173229
 20
7.200905511811023
 10
9.271043307086615
 20
7.212204724409449
 10
9.269318897637795
 20
7.223326771653543
 10
9.26792125984252
 20
7.234259842519685
 10
9.266842519685039
 20
7.245011811023622
 10
9.265003937007874
 20
7.294141732283465
 10
9.265129921259842
 20
7.301287401574803
 10
9.265507874015748
 20
7.308846456692914
 10
9.266141732283465
 20
7.316822834645669
 10
9.267023622047244
 20
7.32521653543307
 10
9.268161417322835
 20
7.334027559055118
 10
9.269551181102361
 20
7.343263779527559
 10
9.271192913385827
 20
7.352917322834646
 10
9.273086614173229
 20
7.362996062992126
 10
9.275523622047244
 20
7.374185039370079
 10
9.278417322834645
 20
7.385330708661417
 10
9.281775590551181
 20
7.396425196850394
 10
9.285590551181102
 20
7.407472440944882
 10
9.289929133858267
 20
7.418224409448819
 10
9.294866141732284
 20
7.428425196850394
 10
9.297562992125984
 20
7.433314960629922
 10
9.300405511811023
 20
7.438070866141732
 10
9.303397637795275
 20
7.442688976377953
 10
9.30653937007874
 20
7.447169291338582
 10
9.30983464566929
 20
7.451472440944882
 10
9.313291338582678
 20
7.455555118110237
 10
9.316909448818897
 20
7.45942125984252
 10
9.320688976377953
 20
7.463066929133858
 10
9.324625984251968
 20
7.466496062992126
 10
9.328728346456693
 20
7.469704724409449
 10
9.332988188976378
 20
7.4726968503937
 10
9.337413385826771
 20
7.475472440944882
 10
9.34201968503937
 20
7.477968503937008
 10
9.346830708661418
 20
7.480133858267717
 10
9.351850393700788
 20
7.481964566929133
 10
9.35707874015748
 20
7.483464566929134
 10
9.362511811023621
 20
7.484625984251968
 10
9.368149606299212
 20
7.48546062992126
 10
9.373996062992125
 20
7.48596062992126
 10
9.380051181102361
 20
7.486125984251968
 10
9.386102362204724
 20
7.485952755905512
 10
9.391948818897637
 20
7.485437007874015
 10
9.397590551181102
 20
7.48457874015748
 10
9.403023622047245
 20
7.483374015748032
 10
9.408248031496063
 20
7.481822834645669
 10
9.413267716535433
 20
7.479929133858268
 10
9.41807874015748
 20
7.477688976377952
 10
9.422685039370078
 20
7.475102362204725
  0
LWPOLYLINE
  5
85
330
1F
100
AcDbEntity
  8
Layer 1
 62
     7
100
AcDbPolyline
 90
       65
 70
     1
 43
0.0
 10
9.382622047244094
 20
7.026681102362205
 10
9.404082677165354
 20
7.028043307086614
 10
9.424177165354331
 20
7.032125984251969
 10
9.442905511811023
 20
7.038929133858268
 10
9.460267716535434
 20
7.04846062992126
 10
9.476263779527558
 20
7.060708661417323
 10
9.490889763779528
 20
7.075681102362204
 10
9.504149606299213
 20
7.093377952755906
 10
9.516043307086614
 20
7.113795275590551
 10
9.52440157480315
 20
7.131610236220473
 10
9.531641732283465
 20
7.150413385826772
 10
9.537771653543308
 20
7.170200787401575
 10
9.542783464566929
 20
7.19098031496063
 10
9.546685039370079
 20
7.212748031496063
 10
9.549468503937009
 20
7.2355
 10
9.551141732283465
 20
7.259244094488189
 10
9.5516968503937
 20
7.283972440944882
 10
9.551141732283465
 20
7.308700787401575
 10
9.549468503937009
 20
7.332444881889764
 10
9.546685039370079
 20
7.355200787401575
 10
9.542783464566929
 20
7.376964566929134
 10
9.537771653543308
 20
7.397744094488189
 10
9.531641732283465
 20
7.417535433070866
 10
9.52440157480315
 20
7.436338582677165
 10
9.516043307086614
 20
7.454153543307086
 10
9.504149606299213
 20
7.474570866141732
 10
9.490889763779528
 20
7.492263779527559
 10
9.476263779527558
 20
7.507236220472441
 10
9.460267716535434
 20
7.519488188976378
 10
9.442905511811023
 20
7.529015748031496
 10
9.424177165354331
 20
7.535818897637795
 10
9.404082677165354
 20
7.539901574803149
 10
9.382622047244094
 20
7.541263779527559
 10
9.361161417322835
 20
7.539901574803149
 10
9.341062992125984
 20
7.535818897637795
 10
9.322338582677165
 20
7.529015748031496
 10
9.304976377952755
 20
7.519488188976378
 10
9.28898031496063
 20
7.507236220472441
 10
9.274354330708661
 20
7.492263779527559
 10
9.261090551181102
 20
7.474570866141732
 10
9.249196850393702
 20
7.454153543307086
 10
9.240842519685039
 20
7.436338582677165
 10
9.23359842519685
 20
7.417535433070866
 10
9.227472440944881
 20
7.397744094488189
 10
9.22246062992126
 20
7.376964566929134
 10
9.21855905511811
 20
7.355200787401575
 10
9.21577559055118
 20
7.332444881889764
 10
9.214102362204724
 20
7.308700787401575
 10
9.213547244094489
 20
7.283972440944882
 10
9.214102362204724
 20
7.259244094488189
 10
9.21577559055118
 20
7.2355
 10
9.21855905511811
 20
7.212748031496063
 10
9.22246062992126
 20
7.19098031496063
 10
9.227472440944881
 20
7.170200787401575
 10
9.23359842519685
 20
7.150413385826772
 10
9.240842519685039
 20
7.131610236220473
 10
9.249196850393702
 20
7.113795275590551
 10
9.261090551181102
 20
7.093377952755906
 10
9.274354330708661
 20
7.075681102362204
 10
9.28898031496063
 20
7.060708661417323
 10
9.304976377952755
 20
7.04846062992126
 10
9.322338582677165
 20
7.038929133858268
 10
9.341062992125984
 20
7.032125984251969
 10
9.361161417322835
 20
7.028043307086614
 10
9.382622047244094
 20
7.026681102362205
  0
LWPOLYLINE
  5
86
330
1F
100
AcDbEntity
  8
Layer 1
 62
     7
100
AcDbPolyline
 90
       87
 70
     1
 43
0.0
 10
9.634763779527558
 20
7.033299212598425
 10
9.986885826771653
 20
7.033299212598425
 10
9.986885826771653
 20
7.084759842519685
 10
9.759
 20
7.084759842519685
 10
9.933220472440945
 20
7.257507874015748
 10
9.944590551181102
 20
7.269948818897638
 10
9.954448818897637
 20
7.283007874015748
 10
9.962787401574802
 20
7.296688976377952
 10
9.969610236220472
 20
7.310988188976378
 10
9.974917322834646
 20
7.325909448818898
 10
9.978708661417324
 20
7.341448818897637
 10
9.98098031496063
 20
7.357610236220473
 10
9.981740157480315
 20
7.374393700787402
 10
9.980964566929133
 20
7.391555118110237
 10
9.97863779527559
 20
7.408027559055118
 10
9.974763779527558
 20
7.423807086614174
 10
9.969334645669292
 20
7.43890157480315
 10
9.962358267716535
 20
7.453303149606299
 10
9.953830708661418
 20
7.467015748031496
 10
9.943751968503937
 20
7.480043307086614
 10
9.932122047244095
 20
7.492377952755906
 10
9.919200787401575
 20
7.503834645669292
 10
9.905704724409448
 20
7.513763779527559
 10
9.891633858267717
 20
7.522169291338582
 10
9.876988188976378
 20
7.529043307086615
 10
9.861767716535432
 20
7.534389763779528
 10
9.845972440944882
 20
7.538208661417323
 10
9.829606299212598
 20
7.5405
 10
9.812661417322834
 20
7.541263779527559
 10
9.795070866141732
 20
7.54046062992126
 10
9.778133858267717
 20
7.538047244094488
 10
9.761850393700787
 20
7.534027559055118
 10
9.74622440944882
 20
7.528397637795275
 10
9.731251968503937
 20
7.521161417322834
 10
9.716937007874016
 20
7.512318897637796
 10
9.703275590551181
 20
7.501866141732283
 10
9.690267716535432
 20
7.489803149606299
 10
9.678685039370079
 20
7.476830708661417
 10
9.668740157480315
 20
7.463177165354331
 10
9.66044094488189
 20
7.448850393700788
 10
9.653787401574803
 20
7.433842519685039
 10
9.648771653543307
 20
7.418157480314961
 10
9.645397637795275
 20
7.401795275590551
 10
9.643669291338583
 20
7.384755905511811
 10
9.643582677165353
 20
7.36703937007874
 10
9.69578346456693
 20
7.36703937007874
 10
9.695346456692914
 20
7.378531496062992
 10
9.696149606299212
 20
7.389759842519685
 10
9.698192913385826
 20
7.400724409448819
 10
9.701476377952757
 20
7.411425196850394
 10
9.706
 20
7.421858267716535
 10
9.711767716535434
 20
7.432031496062992
 10
9.718771653543307
 20
7.441937007874015
 10
9.72701968503937
 20
7.451578740157481
 10
9.73584251968504
 20
7.460192913385827
 10
9.745122047244095
 20
7.467661417322835
 10
9.754866141732283
 20
7.473976377952756
 10
9.765062992125983
 20
7.479145669291339
 10
9.775724409448818
 20
7.483165354330708
 10
9.78684251968504
 20
7.48603937007874
 10
9.798417322834645
 20
7.487759842519685
 10
9.810452755905512
 20
7.488334645669291
 10
9.822267716535434
 20
7.487818897637795
 10
9.833633858267717
 20
7.486267716535433
 10
9.844555118110236
 20
7.483681102362205
 10
9.855023622047245
 20
7.480062992125984
 10
9.865043307086614
 20
7.475413385826772
 10
9.87461811023622
 20
7.469728346456693
 10
9.88374409448819
 20
7.463007874015748
 10
9.89242125984252
 20
7.455255905511811
 10
9.900433070866141
 20
7.446685039370078
 10
9.907374015748031
 20
7.437704724409449
 10
9.913251968503937
 20
7.428307086614173
 10
9.91805905511811
 20
7.4185
 10
9.92179527559055
 20
7.408275590551181
 10
9.924464566929133
 20
7.397637795275591
 10
9.926066929133858
 20
7.386590551181103
 10
9.926602362204724
 20
7.375125984251969
 10
9.926086614173228
 20
7.363413385826772
 10
9.924535433070867
 20
7.35215748031496
 10
9.921948818897638
 20
7.341358267716536
 10
9.918330708661417
 20
7.331023622047244
 10
9.913681102362204
 20
7.321141732283465
 10
9.907996062992126
 20
7.311724409448819
 10
9.901275590551181
 20
7.302763779527559
 10
9.893523622047244
 20
7.294263779527559
 10
9.634763779527558
 20
7.033299212598425
  0
ENDSEC
  0
SECTION
  2
OBJECTS
  0
DICTIONARY
  5
C
330
0
100
AcDbDictionary
281
     1
  3
ACAD_DETAILVIEWSTYLE
350
8E
  3
ACAD_GROUP
350
D
  3
ACAD_LAYOUT
350
1A
  3
ACAD_MATERIAL
350
43
  3
ACAD_MLEADERSTYLE
350
5B
  3
ACAD_MLINESTYLE
350
17
  3
ACAD_PLOTSETTINGS
350
19
  3
ACAD_PLOTSTYLENAME
350
E
  3
ACAD_SCALELIST
350
47
  3
ACAD_SECTIONVIEWSTYLE
350
8F
  3
ACAD_TABLESTYLE
350
59
  3
ACAD_VISUALSTYLE
350
2A
  3
ACDB_RECOMPOSE_DATA
350
8B
  3
AcDbVariableDictionary
350
87
  0
SUN
  5
5D
330
29
100
AcDbSun
 90
        1
290
     0
 63
     7
421
 16777215
 40
1.0
291
     1
 91
  2455826
 92
 54000000
292
     0
 70
     2
 71
   256
280
     1
  0
DICTIONARY
  5
8E
102
{ACAD_REACTORS
330
C
102
}
330
C
100
AcDbDictionary
281
     1
  0
DICTIONARY
  5
D
102
{ACAD_REACTORS
330
C
102
}
330
C
100
AcDbDictionary
281
     1
  0
DICTIONARY
  5
1A
102
{ACAD_REACTORS
330
C
102
}
330
C
100
AcDbDictionary
281
     1
  3
Layout1
350
1E
  3
Layout2
350
26
  3
Model
350
22
  0
DICTIONARY
  5
43
102
{ACAD_REACTORS
330
C
102
}
330
C
100
AcDbDictionary
281
     1
  3
ByBlock
350
45
  3
ByLayer
350
44
  3
Global
350
46
  0
DICTIONARY
  5
5B
102
{ACAD_REACTORS
330
C
102
}
330
C
100
AcDbDictionary
281
     1
  3
Standard
350
5C
  0
DICTIONARY
  5
17
102
{ACAD_REACTORS
330
C
102
}
330
C
100
AcDbDictionary
281
     1
  3
Standard
350
18
  0
DICTIONARY
  5
19
102
{ACAD_REACTORS
330
C
102
}
330
C
100
AcDbDictionary
281
     1
  0
ACDBDICTIONARYWDFLT
  5
E
102
{ACAD_REACTORS
330
C
102
}
330
C
100
AcDbDictionary
281
     1
  3
Normal
350
F
100
AcDbDictionaryWithDefault
340
F
  0
DICTIONARY
  5
47
102
{ACAD_REACTORS
330
C
102
}
330
C
100
AcDbDictionary
281
     1
  3
A0
350
48
  3
A1
350
49
  3
A2
350
4A
  3
A3
350
4B
  3
A4
350
4C
  3
A5
350
4D
  3
A6
350
4E
  3
A7
350
4F
  3
A8
350
50
  3
A9
350
51
  3
B1
350
52
  3
B2
350
53
  3
B3
350
54
  3
B4
350
55
  3
B5
350
56
  3
B6
350
57
  3
B7
350
58
  0
DICTIONARY
  5
8F
102
{ACAD_REACTORS
330
C
102
}
330
C
100
AcDbDictionary
281
     1
  0
DICTIONARY
  5
59
102
{ACAD_REACTORS
330
C
102
}
330
C
100
AcDbDictionary
281
     1
  3
Standard
350
5A
  0
DICTIONARY
  5
2A
102
{ACAD_REACTORS
330
C
102
}
330
C
100
AcDbDictionary
281
     1
  3
2dWireframe
350
2F
  3
Basic
350
32
  3
Brighten
350
36
  3
ColorChange
350
3A
  3
Conceptual
350
34
  3
Dim
350
35
  3
EdgeColorOff
350
3D
  3
Facepattern
350
39
  3
Flat
350
2B
  3
FlatWithEdges
350
2C
  3
Gouraud
350
2D
  3
GouraudWithEdges
350
2E
  3
Hidden
350
31
  3
JitterOff
350
3B
  3
Linepattern
350
38
  3
OverhangOff
350
3C
  3
Realistic
350
33
  3
Shaded
350
42
  3
Shaded with edges
350
41
  3
Shades of Gray
350
3E
  3
Sketchy
350
3F
  3
Thicken
350
37
  3
Wireframe
350
30
  3
X-Ray
350
40
  0
XRECORD
  5
8B
102
{ACAD_REACTORS
330
C
102
}
330
C
100
AcDbXrecord
280
     1
 90
        1
330
5A
  0
DICTIONARY
  5
87
102
{ACAD_REACTORS
330
C
102
}
330
C
100
AcDbDictionary
281
     1
  3
CANNOSCALE
350
88
  3
CMLEADERSTYLE
350
8D
  3
CTABLESTYLE
350
8C
  0
LAYOUT
  5
1E
102
{ACAD_REACTORS
330
1A
102
}
330
1A
100
AcDbPlotSettings
  1

  2
none_device
  4

  6

 40
0.0
 41
0.0
 42
0.0
 43
0.0
 44
0.0
 45
0.0
 46
0.0
 47
0.0
 48
0.0
 49
0.0
140
0.0
141
0.0
142
1.0
143
1.0
 70
   688
 72
     0
 73
     0
 74
     5
  7

 75
    16
 76
     0
 77
     2
 78
   300
147
1.0
148
0.0
149
0.0
100
AcDbLayout
  1
Layout1
 70
     1
 71
     1
 10
0.0
 20
0.0
 11
12.0
 21
9.0
 12
0.0
 22
0.0
 32
0.0
 14
1.000000000000000E+20
 24
1.000000000000000E+20
 34
1.000000000000000E+20
 15
-1.000000000000000E+20
 25
-1.000000000000000E+20
 35
-1.000000000000000E+20
146
0.0
 13
0.0
 23
0.0
 33
0.0
 16
1.0
 26
0.0
 36
0.0
 17
0.0
 27
1.0
 37
0.0
 76
     0
330
1B
  0
LAYOUT
  5
26
102
{ACAD_REACTORS
330
1A
102
}
330
1A
100
AcDbPlotSettings
  1

  2
none_device
  4

  6

 40
0.0
 41
0.0
 42
0.0
 43
0.0
 44
0.0
 45
0.0
 46
0.0
 47
0.0
 48
0.0
 49
0.0
140
0.0
141
0.0
142
1.0
143
1.0
 70
   688
 72
     0
 73
     0
 74
     5
  7

 75
    16
 76
     0
 77
     2
 78
   300
147
1.0
148
0.0
149
0.0
100
AcDbLayout
  1
Layout2
 70
     1
 71
     2
 10
0.0
 20
0.0
 11
0.0
 21
0.0
 12
0.0
 22
0.0
 32
0.0
 14
0.0
 24
0.0
 34
0.0
 15
0.0
 25
0.0
 35
0.0
146
0.0
 13
0.0
 23
0.0
 33
0.0
 16
1.0
 26
0.0
 36
0.0
 17
0.0
 27
1.0
 37
0.0
 76
     0
330
23
  0
LAYOUT
  5
22
102
{ACAD_REACTORS
330
1A
102
}
330
1A
100
AcDbPlotSettings
  1

  2
none_device
  4
Letter_(8.50_x_11.00_Inches)
  6

 40
6.35
 41
6.35
 42
6.35000508
 43
6.35000508
 44
215.9
 45
279.4
 46
0.0
 47
0.0
 48
0.0
 49
0.0
140
0.0
141
0.0
142
1.0
143
1.0
 70
  1712
 72
     0
 73
     0
 74
     0
  7

 75
     0
 76
     0
 77
     2
 78
   300
147
1.0
148
0.0
149
0.0
100
AcDbLayout
  1
Model
 70
     1
 71
     0
 10
0.0
 20
0.0
 11
12.0
 21
9.0
 12
0.0
 22
0.0
 32
0.0
 14
6.970952755905512
 24
0.4256771653543307
 34
0.0
 15
12.86112598425197
 25
7.95438188976378
 35
0.0
146
0.0
 13
0.0
 23
0.0
 33
0.0
 16
1.0
 26
0.0
 36
0.0
 17
0.0
 27
1.0
 37
0.0
 76
     0
330
1F
331
29
  0
MATERIAL
  5
45
102
{ACAD_REACTORS
330
43
102
}
330
43
100
AcDbMaterial
  1
ByBlock
 72
     1
 94
      127
  0
MATERIAL
  5
44
102
{ACAD_REACTORS
330
43
102
}
330
43
100
AcDbMaterial
  1
ByLayer
 72
     1
 94
      127
  0
MATERIAL
  5
46
102
{ACAD_REACTORS
330
43
102
}
330
43
100
AcDbMaterial
  1
Global
 72
     1
 94
      127
  0
MLEADERSTYLE
  5
5C
102
{ACAD_REACTORS
330
5B
102
}
330
5B
100
AcDbMLeaderStyle
179
     2
170
     2
171
     1
172
     0
 90
        2
 40
0.0
 41
0.0
173
     1
 91
-1056964608
340
14
 92
       -2
290
     1
 42
0.09
291
     1
 43
0.36
  3
Standard
341
0
 44
0.18
300

342
11
174
     1
178
     6
175
     1
176
     0
 93
-1056964608
 45
0.18
292
     0
297
     0
 46
0.18
343
0
 94
-1056964608
 47
1.0
 49
1.0
140
1.0
293
     1
141
0.0
294
     1
177
     0
142
1.0
295
     0
296
     0
143
0.125
271
     0
272
     9
273
     9
298
     0
  0
MLINESTYLE
  5
18
102
{ACAD_REACTORS
330
17
102
}
330
17
100
AcDbMlineStyle
  2
Standard
 70
     0
  3

 62
   256
 51
90.0
 52
90.0
 71
     2
 49
0.5
 62
   256
  6
BYLAYER
 49
-0.5
 62
   256
  6
BYLAYER
  0
ACDBPLACEHOLDER
  5
F
102
{ACAD_REACTORS
330
E
102
}
330
E
  0
SCALE
  5
48
102
{ACAD_REACTORS
330
47
102
}
330
47
100
AcDbScale
 70
     0
300
1:1
140
1.0
141
1.0
290
     1
  0
SCALE
  5
49
102
{ACAD_REACTORS
330
47
102
}
330
47
100
AcDbScale
 70
     0
300
1/128" = 1'-0"
140
0.0078125
141
12.0
290
     0
  0
SCALE
  5
4A
102
{ACAD_REACTORS
330
47
102
}
330
47
100
AcDbScale
 70
     0
300
1/64" = 1'-0"
140
0.015625
141
12.0
290
     0
  0
SCALE
  5
4B
102
{ACAD_REACTORS
330
47
102
}
330
47
100
AcDbScale
 70
     0
300
1/32" = 1'-0"
140
0.03125
141
12.0
290
     0
  0
SCALE
  5
4C
102
{ACAD_REACTORS
330
47
102
}
330
47
100
AcDbScale
 70
     0
300
1/16" = 1'-0"
140
0.0625
141
12.0
290
     0
  0
SCALE
  5
4D
102
{ACAD_REACTORS
330
47
102
}
330
47
100
AcDbScale
 70
     0
300
3/32" = 1'-0"
140
0.09375
141
12.0
290
     0
  0
SCALE
  5
4E
102
{ACAD_REACTORS
330
47
102
}
330
47
100
AcDbScale
 70
     0
300
1/8" = 1'-0"
140
0.125
141
12.0
290
     0
  0
SCALE
  5
4F
102
{ACAD_REACTORS
330
47
102
}
330
47
100
AcDbScale
 70
     0
300
3/16" = 1'-0"
140
0.1875
141
12.0
290
     0
  0
SCALE
  5
50
102
{ACAD_REACTORS
330
47
102
}
330
47
100
AcDbScale
 70
     0
300
1/4" = 1'-0"
140
0.25
141
12.0
290
     0
  0
SCALE
  5
51
102
{ACAD_REACTORS
330
47
102
}
330
47
100
AcDbScale
 70
     0
300
3/8" = 1'-0"
140
0.375
141
12.0
290
     0
  0
SCALE
  5
52
102
{ACAD_REACTORS
330
47
102
}
330
47
100
AcDbScale
 70
     0
300
1/2" = 1'-0"
140
0.5
141
12.0
290
     0
  0
SCALE
  5
53
102
{ACAD_REACTORS
330
47
102
}
330
47
100
AcDbScale
 70
     0
300
3/4" = 1'-0"
140
0.75
141
12.0
290
     0
  0
SCALE
  5
54
102
{ACAD_REACTORS
330
47
102
}
330
47
100
AcDbScale
 70
     0
300
1" = 1'-0"
140
1.0
141
12.0
290
     0
  0
SCALE
  5
55
102
{ACAD_REACTORS
330
47
102
}
330
47
100
AcDbScale
 70
     0
300
1-1/2" = 1'-0"
140
1.5
141
12.0
290
     0
  0
SCALE
  5
56
102
{ACAD_REACTORS
330
47
102
}
330
47
100
AcDbScale
 70
     0
300
3" = 1'-0"
140
3.0
141
12.0
290
     0
  0
SCALE
  5
57
102
{ACAD_REACTORS
330
47
102
}
330
47
100
AcDbScale
 70
     0
300
6" = 1'-0"
140
6.0
141
12.0
290
     0
  0
SCALE
  5
58
102
{ACAD_REACTORS
330
47
102
}
330
47
100
AcDbScale
 70
     0
300
1'-0" = 1'-0"
140
12.0
141
12.0
290
     0
  0
TABLESTYLE
  5
5A
102
{ACAD_REACTORS
330
59
102
}
102
{ACAD_XDICTIONARY
360
89
102
}
330
59
100
AcDbTableStyle
  3
Standard
 70
     0
 71
     0
 40
0.06
 41
0.06
280
     0
281
     0
  7
Standard
140
0.18
170
     2
 62
     0
 63
   257
283
     0
 90
        4
 91
        0
  1

274
    -2
284
     1
 64
     0
275
    -2
285
     1
 65
     0
276
    -2
286
     1
 66
     0
277
    -2
287
     1
 67
     0
278
    -2
288
     1
 68
     0
279
    -2
289
     1
 69
     0
  7
Standard
140
0.25
170
     5
 62
     0
 63
   257
283
     0
 90
        4
 91
        0
  1

274
    -2
284
     1
 64
     0
275
    -2
285
     1
 65
     0
276
    -2
286
     1
 66
     0
277
    -2
287
     1
 67
     0
278
    -2
288
     1
 68
     0
279
    -2
289
     1
 69
     0
  7
Standard
140
0.18
170
     5
 62
     0
 63
   257
283
     0
 90
        4
 91
        0
  1

274
    -2
284
     1
 64
     0
275
    -2
285
     1
 65
     0
276
    -2
286
     1
 66
     0
277
    -2
287
     1
 67
     0
278
    -2
288
     1
 68
     0
279
    -2
289
     1
 69
     0
  0
VISUALSTYLE
  5
2F
102
{ACAD_REACTORS
330
2A
102
}
330
2A
100
AcDbVisualStyle
  2
2dWireframe
 70
     4
177
     3
291
     0
 70
    58
 90
        0
176
     1
 90
        2
176
     1
 90
        0
176
     1
 90
        0
176
     1
 40
0.6
176
     1
 40
30.0
176
     1
 62
     7
420
 16777215
176
     1
 90
        1
176
     1
 90
        4
176
     1
 62
     7
176
     1
 62
   257
176
     1
 90
        1
176
     1
 90
        1
176
     1
 40
1.0
176
     1
 90
        0
176
     1
 62
   257
176
     1
 40
1.0
176
     1
 90
        1
176
     1
 90
        6
176
     1
 90
        2
176
     1
 62
     7
176
     1
 90
        5
176
     1
 90
        0
176
     1
 90
        0
176
     1
290
     0
176
     1
 90
        1
176
     1
 40
0.0
176
     1
 90
        0
176
     1
290
     1
176
     1
290
     1
176
     1
290
     0
176
     1
290
     0
176
     1
290
     0
176
     1
290
     0
176
     1
290
     0
176
     1
290
     0
176
     1
290
     0
176
     1
 90
       50
176
     1
 40
0.0
176
     1
 40
1.0
176
     1
 90
        0
176
     1
 62
    18
420
        0
176
     1
 90
       50
176
     1
 90
        3
176
     1
 62
     5
420
      255
176
     1
290
     0
176
     1
 90
       50
176
     1
 90
       50
176
     1
 90
       50
176
     1
290
     0
176
     1
 90
       50
176
     1
 62
   256
176
     0
 40
1.0
176
     0
 90
        2
176
     1
  1
strokes_ogs.tif
176
     1
290
     0
176
     1
 40
1.0
176
     1
 40
1.0
176
     1
  0
VISUALSTYLE
  5
32
102
{ACAD_REACTORS
330
2A
102
}
330
2A
100
AcDbVisualStyle
  2
Basic
 70
     7
177
     3
291
     1
 70
    58
 90
        1
176
     1
 90
        0
176
     1
 90
        1
176
     1
 90
        0
176
     1
 40
0.6
176
     1
 40
30.0
176
     1
 62
     7
420
 16777215
176
     1
 90
        0
176
     1
 90
        4
176
     1
 62
     7
176
     1
 62
   257
176
     1
 90
        1
176
     1
 90
        1
176
     1
 40
1.0
176
     1
 90
        8
176
     1
 62
     7
176
     1
 40
1.0
176
     1
 90
        1
176
     1
 90
        6
176
     1
 90
        2
176
     1
 62
     7
176
     1
 90
        5
176
     1
 90
        0
176
     1
 90
        0
176
     1
290
     0
176
     1
 90
        1
176
     1
 40
0.0
176
     1
 90
        0
176
     1
290
     0
176
     1
290
     1
176
     1
290
     1
176
     1
290
     0
176
     1
290
     0
176
     1
290
     0
176
     1
290
     0
176
     1
290
     0
176
     1
290
     0
176
     1
 90
       50
176
     1
 40
0.0
176
     1
 40
1.0
176
     1
 90
        0
176
     1
 62
    18
420
        0
176
     1
 90
       50
176
     1
 90
        3
176
     1
 62
     5
420
      255
176
     1
290
     0
176
     1
 90
       50
176
     1
 90
       50
176
     1
 90
       50
176
     1
290
     0
176
     1
 90
       50
176
     1
 62
   256
176
     0
 40
1.0
176
     0
 90
        2
176
     1
  1
strokes_ogs.tif
176
     1
290
     0
176
     1
 40
1.0
176
     1
 40
1.0
176
     1
  0
VISUALSTYLE
  5
36
102
{ACAD_REACTORS
330
2A
102
}
330
2A
100
AcDbVisualStyle
  2
Brighten
 70
    12
177
     3
291
     1
 70
    58
 90
        2
176
     1
 90
        2
176
     1
 90
        0
176
     1
 90
        0
176
     1
 40
0.6
176
     1
 40
30.0
176
     1
 62
     7
420
 16777215
176
     1
 90
        1
176
     1
 90
        4
176
     1
 62
     7
176
     1
 62
   257
176
     1
 90
        1
176
     1
 90
        1
176
     1
 40
1.0
176
     1
 90
        8
176
     1
 62
     7
176
     1
 40
1.0
176
     1
 90
        1
176
     1
 90
        6
176
     1
 90
        2
176
     1
 62
     7
176
     1
 90
        5
176
     1
 90
        0
176
     1
 90
        0
176
     1
290
     0
176
     1
 90
        1
176
     1
 40
50.0
176
     1
 90
        0
176
     1
290
     0
176
     1
290
     1
176
     1
290
     1
176
     1
290
     0
176
     1
290
     0
176
     1
290
     0
176
     1
290
     0
176
     1
290
     0
176
     1
290
     0
176
     1
 90
       50
176
     1
 40
0.0
176
     1
 40
1.0
176
     1
 90
        0
176
     1
 62
    18
420
        0
176
     1
 90
       50
176
     1
 90
        3
176
     1
 62
     5
420
      255
176
     1
290
     0
176
     1
 90
       50
176
     1
 90
       50
176
     1
 90
       50
176
     1
290
     0
176
     1
 90
       50
176
     1
 62
   256
176
     0
 40
1.0
176
     0
 90
        2
176
     1
  1
strokes_ogs.tif
176
     1
290
     0
176
     1
 40
1.0
176
     1
 40
1.0
176
     1
  0
VISUALSTYLE
  5
3A
102
{ACAD_REACTORS
330
2A
102
}
330
2A
100
AcDbVisualStyle
  2
ColorChange
 70
    16
177
     3
291
     1
 70
    58
 90
        2
176
     1
 90
        2
176
     1
 90
        3
176
     1
 90
        0
176
     1
 40
0.6
176
     1
 40
30.0
176
     1
 62
     8
420
  8421504
176
     1
 90
        1
176
     1
 90
        4
176
     1
 62
     7
176
     1
 62
   257
176
     1
 90
        1
176
     1
 90
        1
176
     1
 40
1.0
176
     1
 90
        8
176
     1
 62
     8
420
  8421504
176
     1
 40
1.0
176
     1
 90
        1
176
     1
 90
        6
176
     1
 90
        2
176
     1
 62
     7
176
     1
 90
        5
176
     1
 90
        0
176
     1
 90
        0
176
     1
290
     0
176
     1
 90
        1
176
     1
 40
0.0
176
     1
 90
        0
176
     1
290
     0
176
     1
290
     1
176
     1
290
     1
176
     1
290
     0
176
     1
290
     0
176
     1
290
     0
176
     1
290
     0
176
     1
290
     0
176
     1
290
     0
176
     1
 90
       50
176
     1
 40
0.0
176
     1
 40
1.0
176
     1
 90
        0
176
     1
 62
    18
420
        0
176
     1
 90
       50
176
     1
 90
        3
176
     1
 62
     5
420
      255
176
     1
290
     0
176
     1
 90
       50
176
     1
 90
       50
176
     1
 90
       50
176
     1
290
     0
176
     1
 90
       50
176
     1
 62
   256
176
     0
 40
1.0
176
     0
 90
        2
176
     1
  1
strokes_ogs.tif
176
     1
290
     0
176
     1
 40
1.0
176
     1
 40
1.0
176
     1
  0
VISUALSTYLE
  5
34
102
{ACAD_REACTORS
330
2A
102
}
330
2A
100
AcDbVisualStyle
  2
Conceptual
 70
     9
177
     3
291
     0
 70
    58
 90
        3
176
     1
 90
        2
176
     1
 90
        0
176
     1
 90
        0
176
     1
 40
0.6
176
     1
 40
30.0
176
     1
 62
     7
420
 16777215
176
     1
 90
        2
176
     1
 90
        2
176
     1
 62
     7
176
     1
 62
   257
176
     1
 90
        1
176
     1
 90
        1
176
     1
 40
179.0
176
     1
 90
        8
176
     1
 62
     7
176
     1
 40
1.0
176
     1
 90
        1
176
     1
 90
        6
176
     1
 90
        2
176
     1
 62
     7
176
     1
 90
        3
176
     1
 90
        0
176
     1
 90
        0
176
     1
290
     0
176
     1
 90
        1
176
     1
 40
0.0
176
     1
 90
        0
176
     1
290
     0
176
     1
290
     1
176
     1
290
     1
176
     1
290
     0
176
     1
290
     0
176
     1
290
     0
176
     1
290
     0
176
     1
290
     0
176
     1
290
     0
176
     1
 90
       50
176
     1
 40
0.0
176
     1
 40
1.0
176
     1
 90
        0
176
     1
 62
    18
420
        0
176
     1
 90
       50
176
     1
 90
        3
176
     1
 62
     5
420
      255
176
     1
290
     0
176
     1
 90
       50
176
     1
 90
       50
176
     1
 90
       50
176
     1
290
     0
176
     1
 90
       50
176
     1
 62
   256
176
     0
 40
1.0
176
     0
 90
        2
176
     1
  1
strokes_ogs.tif
176
     1
290
     0
176
     1
 40
1.0
176
     1
 40
1.0
176
     1
  0
VISUALSTYLE
  5
35
102
{ACAD_REACTORS
330
2A
102
}
330
2A
100
AcDbVisualStyle
  2
Dim
 70
    11
177
     3
291
     1
 70
    58
 90
        2
176
     1
 90
        2
176
     1
 90
        0
176
     1
 90
        0
176
     1
 40
0.6
176
     1
 40
30.0
176
     1
 62
     7
420
 16777215
176
     1
 90
        1
176
     1
 90
        4
176
     1
 62
     7
176
     1
 62
   257
176
     1
 90
        1
176
     1
 90
        1
176
     1
 40
1.0
176
     1
 90
        8
176
     1
 62
     7
176
     1
 40
1.0
176
     1
 90
        1
176
     1
 90
        6
176
     1
 90
        2
176
     1
 62
     7
176
     1
 90
        5
176
     1
 90
        0
176
     1
 90
        0
176
     1
290
     0
176
     1
 90
        1
176
     1
 40
-50.0
176
     1
 90
        0
176
     1
290
     0
176
     1
290
     1
176
     1
290
     1
176
     1
290
     0
176
     1
290
     0
176
     1
290
     0
176
     1
290
     0
176
     1
290
     0
176
     1
290
     0
176
     1
 90
       50
176
     1
 40
0.0
176
     1
 40
1.0
176
     1
 90
        0
176
     1
 62
    18
420
        0
176
     1
 90
       50
176
     1
 90
        3
176
     1
 62
     5
420
      255
176
     1
290
     0
176
     1
 90
       50
176
     1
 90
       50
176
     1
 90
       50
176
     1
290
     0
176
     1
 90
       50
176
     1
 62
   256
176
     0
 40
1.0
176
     0
 90
        2
176
     1
  1
strokes_ogs.tif
176
     1
290
     0
176
     1
 40
1.0
176
     1
 40
1.0
176
     1
  0
VISUALSTYLE
  5
3D
102
{ACAD_REACTORS
330
2A
102
}
330
2A
100
AcDbVisualStyle
  2
EdgeColorOff
 70
    22
177
     3
291
     1
 70
    58
 90
        2
176
     0
 90
        2
176
     0
 90
        0
176
     0
 90
        0
176
     0
 40
0.6
176
     0
 40
30.0
176
     0
 62
     7
420
 16777215
176
     0
 90
        1
176
     0
 90
        4
176
     0
 62
     7
176
     0
 62
   257
176
     0
 90
        1
176
     0
 90
        1
176
     0
 40
1.0
176
     0
 90
        8
176
     2
 62
     7
176
     0
 40
1.0
176
     0
 90
        1
176
     0
 90
        6
176
     0
 90
        2
176
     0
 62
     7
176
     0
 90
        5
176
     0
 90
        0
176
     0
 90
        0
176
     0
290
     0
176
     0
 90
        1
176
     0
 40
0.0
176
     0
 90
        0
176
     0
290
     0
176
     0
290
     1
176
     0
290
     1
176
     0
290
     0
176
     0
290
     0
176
     0
290
     0
176
     0
290
     0
176
     0
290
     0
176
     0
290
     0
176
     0
 90
       50
176
     0
 40
0.0
176
     0
 40
1.0
176
     0
 90
        0
176
     0
 62
    18
420
        0
176
     0
 90
       50
176
     0
 90
        3
176
     0
 62
     5
420
      255
176
     0
290
     0
176
     0
 90
       50
176
     0
 90
       50
176
     0
 90
       50
176
     0
290
     0
176
     0
 90
       50
176
     0
 62
   256
176
     0
 40
1.0
176
     0
 90
        2
176
     0
  1
strokes_ogs.tif
176
     0
290
     0
176
     0
 40
1.0
176
     0
 40
1.0
176
     0
  0
VISUALSTYLE
  5
39
102
{ACAD_REACTORS
330
2A
102
}
330
2A
100
AcDbVisualStyle
  2
Facepattern
 70
    15
177
     3
291
     1
 70
    58
 90
        2
176
     1
 90
        2
176
     1
 90
        0
176
     1
 90
        0
176
     1
 40
0.6
176
     1
 40
30.0
176
     1
 62
     7
420
 16777215
176
     1
 90
        1
176
     1
 90
        4
176
     1
 62
     7
176
     1
 62
   257
176
     1
 90
        1
176
     1
 90
        1
176
     1
 40
1.0
176
     1
 90
        8
176
     1
 62
     7
176
     1
 40
1.0
176
     1
 90
        1
176
     1
 90
        6
176
     1
 90
        2
176
     1
 62
     7
176
     1
 90
        5
176
     1
 90
        0
176
     1
 90
        0
176
     1
290
     0
176
     1
 90
        1
176
     1
 40
0.0
176
     1
 90
        0
176
     1
290
     0
176
     1
290
     1
176
     1
290
     1
176
     1
290
     0
176
     1
290
     0
176
     1
290
     0
176
     1
290
     0
176
     1
290
     0
176
     1
290
     0
176
     1
 90
       50
176
     1
 40
0.0
176
     1
 40
1.0
176
     1
 90
        0
176
     1
 62
    18
420
        0
176
     1
 90
       50
176
     1
 90
        3
176
     1
 62
     5
420
      255
176
     1
290
     0
176
     1
 90
       50
176
     1
 90
       50
176
     1
 90
       50
176
     1
290
     0
176
     1
 90
       50
176
     1
 62
   256
176
     0
 40
1.0
176
     0
 90
        2
176
     1
  1
strokes_ogs.tif
176
     1
290
     0
176
     1
 40
1.0
176
     1
 40
1.0
176
     1
  0
VISUALSTYLE
  5
2B
102
{ACAD_REACTORS
330
2A
102
}
330
2A
100
AcDbVisualStyle
  2
Flat
 70
     0
177
     3
291
     1
 70
    58
 90
        2
176
     1
 90
        1
176
     1
 90
        1
176
     1
 90
        2
176
     1
 40
0.6
176
     1
 40
30.0
176
     1
 62
     7
420
 16777215
176
     1
 90
        0
176
     1
 90
        0
176
     1
 62
     7
176
     1
 62
   257
176
     1
 90
        1
176
     1
 90
        1
176
     1
 40
1.0
176
     1
 90
        8
176
     1
 62
     7
176
     1
 40
1.0
176
     1
 90
        1
176
     1
 90
        6
176
     1
 90
        2
176
     1
 62
     7
176
     1
 90
        5
176
     1
 90
        0
176
     1
 90
        0
176
     1
290
     0
176
     1
 90
       13
176
     1
 40
0.0
176
     1
 90
        0
176
     1
290
     0
176
     1
290
     1
176
     1
290
     1
176
     1
290
     0
176
     1
290
     0
176
     1
290
     0
176
     1
290
     0
176
     1
290
     0
176
     1
290
     0
176
     1
 90
       50
176
     1
 40
0.0
176
     1
 40
1.0
176
     1
 90
        0
176
     1
 62
    18
420
        0
176
     1
 90
       50
176
     1
 90
        3
176
     1
 62
     5
420
      255
176
     1
290
     0
176
     1
 90
       50
176
     1
 90
       50
176
     1
 90
       50
176
     1
290
     0
176
     1
 90
       50
176
     1
 62
   256
176
     0
 40
1.0
176
     0
 90
        2
176
     1
  1
strokes_ogs.tif
176
     1
290
     0
176
     1
 40
1.0
176
     1
 40
1.0
176
     1
  0
VISUALSTYLE
  5
2C
102
{ACAD_REACTORS
330
2A
102
}
330
2A
100
AcDbVisualStyle
  2
FlatWithEdges
 70
     1
177
     3
291
     1
 70
    58
 90
        2
176
     1
 90
        1
176
     1
 90
        1
176
     1
 90
        2
176
     1
 40
0.6
176
     1
 40
30.0
176
     1
 62
     7
420
 16777215
176
     1
 90
        1
176
     1
 90
        0
176
     1
 62
     7
176
     1
 62
   257
176
     1
 90
        1
176
     1
 90
        1
176
     1
 40
1.0
176
     1
 90
        0
176
     1
 62
   257
176
     1
 40
1.0
176
     1
 90
        1
176
     1
 90
        6
176
     1
 90
        2
176
     1
 62
     7
176
     1
 90
        5
176
     1
 90
        0
176
     1
 90
        0
176
     1
290
     0
176
     1
 90
       13
176
     1
 40
0.0
176
     1
 90
        0
176
     1
290
     0
176
     1
290
     1
176
     1
290
     1
176
     1
290
     0
176
     1
290
     0
176
     1
290
     0
176
     1
290
     0
176
     1
290
     0
176
     1
290
     0
176
     1
 90
       50
176
     1
 40
0.0
176
     1
 40
1.0
176
     1
 90
        0
176
     1
 62
    18
420
        0
176
     1
 90
       50
176
     1
 90
        3
176
     1
 62
     5
420
      255
176
     1
290
     0
176
     1
 90
       50
176
     1
 90
       50
176
     1
 90
       50
176
     1
290
     0
176
     1
 90
       50
176
     1
 62
   256
176
     0
 40
1.0
176
     0
 90
        2
176
     1
  1
strokes_ogs.tif
176
     1
290
     0
176
     1
 40
1.0
176
     1
 40
1.0
176
     1
  0
VISUALSTYLE
  5
2D
102
{ACAD_REACTORS
330
2A
102
}
330
2A
100
AcDbVisualStyle
  2
Gouraud
 70
     2
177
     3
291
     1
 70
    58
 90
        2
176
     1
 90
        2
176
     1
 90
        1
176
     1
 90
        2
176
     1
 40
0.6
176
     1
 40
30.0
176
     1
 62
     7
420
 16777215
176
     1
 90
        0
176
     1
 90
        0
176
     1
 62
     7
176
     1
 62
   257
176
     1
 90
        1
176
     1
 90
        1
176
     1
 40
1.0
176
     1
 90
        0
176
     1
 62
     7
176
     1
 40
1.0
176
     1
 90
        1
176
     1
 90
        6
176
     1
 90
        2
176
     1
 62
     7
176
     1
 90
        5
176
     1
 90
        0
176
     1
 90
        0
176
     1
290
     0
176
     1
 90
       13
176
     1
 40
0.0
176
     1
 90
        0
176
     1
290
     0
176
     1
290
     1
176
     1
290
     1
176
     1
290
     0
176
     1
290
     0
176
     1
290
     0
176
     1
290
     0
176
     1
290
     0
176
     1
290
     0
176
     1
 90
       50
176
     1
 40
0.0
176
     1
 40
1.0
176
     1
 90
        0
176
     1
 62
    18
420
        0
176
     1
 90
       50
176
     1
 90
        3
176
     1
 62
     5
420
      255
176
     1
290
     0
176
     1
 90
       50
176
     1
 90
       50
176
     1
 90
       50
176
     1
290
     0
176
     1
 90
       50
176
     1
 62
   256
176
     0
 40
1.0
176
     0
 90
        2
176
     1
  1
strokes_ogs.tif
176
     1
290
     0
176
     1
 40
1.0
176
     1
 40
1.0
176
     1
  0
VISUALSTYLE
  5
2E
102
{ACAD_REACTORS
330
2A
102
}
330
2A
100
AcDbVisualStyle
  2
GouraudWithEdges
 70
     3
177
     3
291
     1
 70
    58
 90
        2
176
     1
 90
        2
176
     1
 90
        1
176
     1
 90
        2
176
     1
 40
0.6
176
     1
 40
30.0
176
     1
 62
     7
420
 16777215
176
     1
 90
        1
176
     1
 90
        0
176
     1
 62
     7
176
     1
 62
   257
176
     1
 90
        1
176
     1
 90
        1
176
     1
 40
1.0
176
     1
 90
        0
176
     1
 62
   257
176
     1
 40
1.0
176
     1
 90
        1
176
     1
 90
        6
176
     1
 90
        2
176
     1
 62
     7
176
     1
 90
        5
176
     1
 90
        0
176
     1
 90
        0
176
     1
290
     0
176
     1
 90
       13
176
     1
 40
0.0
176
     1
 90
        0
176
     1
290
     0
176
     1
290
     1
176
     1
290
     1
176
     1
290
     0
176
     1
290
     0
176
     1
290
     0
176
     1
290
     0
176
     1
290
     0
176
     1
290
     0
176
     1
 90
       50
176
     1
 40
0.0
176
     1
 40
1.0
176
     1
 90
        0
176
     1
 62
    18
420
        0
176
     1
 90
       50
176
     1
 90
        3
176
     1
 62
     5
420
      255
176
     1
290
     0
176
     1
 90
       50
176
     1
 90
       50
176
     1
 90
       50
176
     1
290
     0
176
     1
 90
       50
176
     1
 62
   256
176
     0
 40
1.0
176
     0
 90
        2
176
     1
  1
strokes_ogs.tif
176
     1
290
     0
176
     1
 40
1.0
176
     1
 40
1.0
176
     1
  0
VISUALSTYLE
  5
31
102
{ACAD_REACTORS
330
2A
102
}
330
2A
100
AcDbVisualStyle
  2
Hidden
 70
     6
177
     3
291
     0
 70
    58
 90
        1
176
     1
 90
        2
176
     1
 90
        2
176
     1
 90
        0
176
     1
 40
0.6
176
     1
 40
30.0
176
     1
 62
     7
420
 16777215
176
     1
 90
        2
176
     1
 90
        2
176
     1
 62
     7
176
     1
 62
   257
176
     1
 90
        2
176
     1
 90
        1
176
     1
 40
40.0
176
     1
 90
        0
176
     1
 62
   257
176
     1
 40
1.0
176
     1
 90
        1
176
     1
 90
        6
176
     1
 90
        2
176
     1
 62
     7
176
     1
 90
        3
176
     1
 90
        0
176
     1
 90
        0
176
     1
290
     0
176
     1
 90
        1
176
     1
 40
0.0
176
     1
 90
        0
176
     1
290
     0
176
     1
290
     1
176
     1
290
     1
176
     1
290
     0
176
     1
290
     0
176
     1
290
     0
176
     1
290
     0
176
     1
290
     0
176
     1
290
     0
176
     1
 90
       50
176
     1
 40
0.0
176
     1
 40
1.0
176
     1
 90
        0
176
     1
 62
    18
420
        0
176
     1
 90
       50
176
     1
 90
        3
176
     1
 62
     5
420
      255
176
     1
290
     0
176
     1
 90
       50
176
     1
 90
       50
176
     1
 90
       50
176
     1
290
     0
176
     1
 90
       50
176
     1
 62
   256
176
     0
 40
1.0
176
     0
 90
        2
176
     1
  1
strokes_ogs.tif
176
     1
290
     0
176
     1
 40
1.0
176
     1
 40
1.0
176
     1
  0
VISUALSTYLE
  5
3B
102
{ACAD_REACTORS
330
2A
102
}
330
2A
100
AcDbVisualStyle
  2
JitterOff
 70
    20
177
     3
291
     1
 70
    58
 90
        2
176
     0
 90
        2
176
     0
 90
        0
176
     0
 90
        0
176
     0
 40
0.6
176
     0
 40
30.0
176
     0
 62
     7
420
 16777215
176
     0
 90
        1
176
     0
 90
        4
176
     0
 62
     7
176
     0
 62
   257
176
     0
 90
        1
176
     0
 90
        1
176
     0
 40
1.0
176
     0
 90
       10
176
     2
 62
     7
176
     0
 40
1.0
176
     0
 90
        1
176
     0
 90
        6
176
     0
 90
        2
176
     0
 62
     7
176
     0
 90
        5
176
     0
 90
        0
176
     0
 90
        0
176
     0
290
     0
176
     0
 90
        1
176
     0
 40
0.0
176
     0
 90
        0
176
     0
290
     0
176
     0
290
     1
176
     0
290
     1
176
     0
290
     0
176
     0
290
     0
176
     0
290
     0
176
     0
290
     0
176
     0
290
     0
176
     0
290
     0
176
     0
 90
       50
176
     0
 40
0.0
176
     0
 40
1.0
176
     0
 90
        0
176
     0
 62
    18
420
        0
176
     0
 90
       50
176
     0
 90
        3
176
     0
 62
     5
420
      255
176
     0
290
     0
176
     0
 90
       50
176
     0
 90
       50
176
     0
 90
       50
176
     0
290
     0
176
     0
 90
       50
176
     0
 62
   256
176
     0
 40
1.0
176
     0
 90
        2
176
     0
  1
strokes_ogs.tif
176
     0
290
     0
176
     0
 40
1.0
176
     0
 40
1.0
176
     0
  0
VISUALSTYLE
  5
38
102
{ACAD_REACTORS
330
2A
102
}
330
2A
100
AcDbVisualStyle
  2
Linepattern
 70
    14
177
     3
291
     1
 70
    58
 90
        2
176
     1
 90
        2
176
     1
 90
        0
176
     1
 90
        0
176
     1
 40
0.6
176
     1
 40
30.0
176
     1
 62
     7
420
 16777215
176
     1
 90
        1
176
     1
 90
        4
176
     1
 62
     7
176
     1
 62
   257
176
     1
 90
        7
176
     1
 90
        7
176
     1
 40
1.0
176
     1
 90
        8
176
     1
 62
     7
176
     1
 40
1.0
176
     1
 90
        1
176
     1
 90
        6
176
     1
 90
        2
176
     1
 62
     7
176
     1
 90
        5
176
     1
 90
        0
176
     1
 90
        0
176
     1
290
     0
176
     1
 90
        1
176
     1
 40
0.0
176
     1
 90
        0
176
     1
290
     0
176
     1
290
     1
176
     1
290
     1
176
     1
290
     0
176
     1
290
     0
176
     1
290
     0
176
     1
290
     0
176
     1
290
     0
176
     1
290
     0
176
     1
 90
       50
176
     1
 40
0.0
176
     1
 40
1.0
176
     1
 90
        0
176
     1
 62
    18
420
        0
176
     1
 90
       50
176
     1
 90
        3
176
     1
 62
     5
420
      255
176
     1
290
     0
176
     1
 90
       50
176
     1
 90
       50
176
     1
 90
       50
176
     1
290
     0
176
     1
 90
       50
176
     1
 62
   256
176
     0
 40
1.0
176
     0
 90
        2
176
     1
  1
strokes_ogs.tif
176
     1
290
     0
176
     1
 40
1.0
176
     1
 40
1.0
176
     1
  0
VISUALSTYLE
  5
3C
102
{ACAD_REACTORS
330
2A
102
}
330
2A
100
AcDbVisualStyle
  2
OverhangOff
 70
    21
177
     3
291
     1
 70
    58
 90
        2
176
     0
 90
        2
176
     0
 90
        0
176
     0
 90
        0
176
     0
 40
0.6
176
     0
 40
30.0
176
     0
 62
     7
420
 16777215
176
     0
 90
        1
176
     0
 90
        4
176
     0
 62
     7
176
     0
 62
   257
176
     0
 90
        1
176
     0
 90
        1
176
     0
 40
1.0
176
     0
 90
        9
176
     2
 62
     7
176
     0
 40
1.0
176
     0
 90
        1
176
     0
 90
        6
176
     0
 90
        2
176
     0
 62
     7
176
     0
 90
        5
176
     0
 90
        0
176
     0
 90
        0
176
     0
290
     0
176
     0
 90
        1
176
     0
 40
0.0
176
     0
 90
        0
176
     0
290
     0
176
     0
290
     1
176
     0
290
     1
176
     0
290
     0
176
     0
290
     0
176
     0
290
     0
176
     0
290
     0
176
     0
290
     0
176
     0
290
     0
176
     0
 90
       50
176
     0
 40
0.0
176
     0
 40
1.0
176
     0
 90
        0
176
     0
 62
    18
420
        0
176
     0
 90
       50
176
     0
 90
        3
176
     0
 62
     5
420
      255
176
     0
290
     0
176
     0
 90
       50
176
     0
 90
       50
176
     0
 90
       50
176
     0
290
     0
176
     0
 90
       50
176
     0
 62
   256
176
     0
 40
1.0
176
     0
 90
        2
176
     0
  1
strokes_ogs.tif
176
     0
290
     0
176
     0
 40
1.0
176
     0
 40
1.0
176
     0
  0
VISUALSTYLE
  5
33
102
{ACAD_REACTORS
330
2A
102
}
330
2A
100
AcDbVisualStyle
  2
Realistic
 70
     8
177
     3
291
     0
 70
    58
 90
        2
176
     1
 90
        3
176
     1
 90
        0
176
     1
 90
        2
176
     1
 40
0.6
176
     1
 40
30.0
176
     1
 62
     7
420
 16777215
176
     1
 90
        0
176
     1
 90
        0
176
     1
 62
     7
176
     1
 62
   257
176
     1
 90
        1
176
     1
 90
        1
176
     1
 40
1.0
176
     1
 90
        8
176
     1
 62
   257
176
     1
 40
1.0
176
     1
 90
        1
176
     1
 90
        6
176
     1
 90
        2
176
     1
 62
     7
176
     1
 90
        3
176
     1
 90
        0
176
     1
 90
        0
176
     1
290
     0
176
     1
 90
       13
176
     1
 40
0.0
176
     1
 90
        0
176
     1
290
     0
176
     1
290
     1
176
     1
290
     1
176
     1
290
     0
176
     1
290
     0
176
     1
290
     0
176
     1
290
     0
176
     1
290
     0
176
     1
290
     0
176
     1
 90
       50
176
     1
 40
0.0
176
     1
 40
1.0
176
     1
 90
        0
176
     1
 62
    18
420
        0
176
     1
 90
       50
176
     1
 90
        3
176
     1
 62
     5
420
      255
176
     1
290
     0
176
     1
 90
       50
176
     1
 90
       50
176
     1
 90
       50
176
     1
290
     0
176
     1
 90
       50
176
     1
 62
   256
176
     0
 40
1.0
176
     0
 90
        2
176
     1
  1
strokes_ogs.tif
176
     1
290
     0
176
     1
 40
1.0
176
     1
 40
1.0
176
     1
  0
VISUALSTYLE
  5
42
102
{ACAD_REACTORS
330
2A
102
}
330
2A
100
AcDbVisualStyle
  2
Shaded
 70
    27
177
     3
291
     0
 70
    58
 90
        2
176
     1
 90
        2
176
     1
 90
        1
176
     1
 90
        2
176
     1
 40
0.6
176
     1
 40
30.0
176
     1
 62
     7
420
 16777215
176
     1
 90
        0
176
     1
 90
        4
176
     1
 62
     7
176
     1
 62
   257
176
     1
 90
        1
176
     1
 90
        1
176
     1
 40
1.0
176
     1
 90
        8
176
     1
 62
   257
176
     1
 40
1.0
176
     1
 90
        1
176
     1
 90
        6
176
     1
 90
        2
176
     1
 62
     8
420
  7895160
176
     1
 90
        3
176
     1
 90
        0
176
     1
 90
        0
176
     1
290
     0
176
     1
 90
        5
176
     1
 40
0.0
176
     1
 90
        0
176
     1
290
     0
176
     1
290
     1
176
     1
290
     1
176
     1
290
     0
176
     1
290
     0
176
     1
290
     0
176
     1
290
     0
176
     1
290
     0
176
     1
290
     0
176
     1
 90
       50
176
     1
 40
0.0
176
     1
 40
1.0
176
     1
 90
        0
176
     1
 62
    18
420
        0
176
     1
 90
       50
176
     1
 90
        3
176
     1
 62
     5
420
      255
176
     1
290
     0
176
     1
 90
       50
176
     1
 90
       50
176
     1
 90
       50
176
     1
290
     0
176
     1
 90
       50
176
     1
 62
   256
176
     0
 40
1.0
176
     0
 90
        2
176
     1
  1
strokes_ogs.tif
176
     1
290
     0
176
     1
 40
1.0
176
     1
 40
1.0
176
     1
  0
VISUALSTYLE
  5
41
102
{ACAD_REACTORS
330
2A
102
}
330
2A
100
AcDbVisualStyle
  2
Shaded with edges
 70
    26
177
     3
291
     0
 70
    58
 90
        2
176
     1
 90
        2
176
     1
 90
        1
176
     1
 90
        2
176
     1
 40
0.6
176
     1
 40
30.0
176
     1
 62
     7
420
 16777215
176
     1
 90
        1
176
     1
 90
       10
176
     1
 62
     7
176
     1
 62
   257
176
     1
 90
        2
176
     1
 90
        1
176
     1
 40
1.0
176
     1
 90
        8
176
     1
 62
   257
176
     1
 40
1.0
176
     1
 90
        1
176
     1
 90
        6
176
     1
 90
        2
176
     1
 62
     7
176
     1
 90
        3
176
     1
 90
        0
176
     1
 90
        0
176
     1
290
     0
176
     1
 90
        5
176
     1
 40
0.0
176
     1
 90
        0
176
     1
290
     0
176
     1
290
     1
176
     1
290
     1
176
     1
290
     0
176
     1
290
     0
176
     1
290
     0
176
     1
290
     0
176
     1
290
     0
176
     1
290
     0
176
     1
 90
       50
176
     1
 40
0.0
176
     1
 40
1.0
176
     1
 90
        0
176
     1
 62
    18
420
        0
176
     1
 90
       50
176
     1
 90
        3
176
     1
 62
     5
420
      255
176
     1
290
     0
176
     1
 90
       50
176
     1
 90
       50
176
     1
 90
       50
176
     1
290
     0
176
     1
 90
       50
176
     1
 62
   256
176
     0
 40
1.0
176
     0
 90
        2
176
     1
  1
strokes_ogs.tif
176
     1
290
     0
176
     1
 40
1.0
176
     1
 40
1.0
176
     1
  0
VISUALSTYLE
  5
3E
102
{ACAD_REACTORS
330
2A
102
}
330
2A
100
AcDbVisualStyle
  2
Shades of Gray
 70
    23
177
     3
291
     0
 70
    58
 90
        2
176
     1
 90
        2
176
     1
 90
        3
176
     1
 90
        0
176
     1
 40
0.6
176
     1
 40
30.0
176
     1
 62
     7
420
 16777215
176
     1
 90
        2
176
     1
 90
        2
176
     1
 62
     7
176
     1
 62
     7
176
     1
 90
        1
176
     1
 90
        1
176
     1
 40
40.0
176
     1
 90
        8
176
     1
 62
     7
176
     1
 40
1.0
176
     1
 90
        1
176
     1
 90
        6
176
     1
 90
        2
176
     1
 62
     7
176
     1
 90
        3
176
     1
 90
        0
176
     1
 90
        0
176
     1
290
     0
176
     1
 90
        1
176
     1
 40
0.0
176
     1
 90
        0
176
     1
290
     0
176
     1
290
     1
176
     1
290
     1
176
     1
290
     0
176
     1
290
     0
176
     1
290
     0
176
     1
290
     0
176
     1
290
     0
176
     1
290
     0
176
     1
 90
       50
176
     1
 40
0.0
176
     1
 40
1.0
176
     1
 90
        0
176
     1
 62
    18
420
        0
176
     1
 90
       50
176
     1
 90
        3
176
     1
 62
     5
420
      255
176
     1
290
     0
176
     1
 90
       50
176
     1
 90
       50
176
     1
 90
       50
176
     1
290
     0
176
     1
 90
       50
176
     1
 62
   256
176
     0
 40
1.0
176
     0
 90
        2
176
     1
  1
strokes_ogs.tif
176
     1
290
     0
176
     1
 40
1.0
176
     1
 40
1.0
176
     1
  0
VISUALSTYLE
  5
3F
102
{ACAD_REACTORS
330
2A
102
}
330
2A
100
AcDbVisualStyle
  2
Sketchy
 70
    24
177
     3
291
     0
 70
    58
 90
        1
176
     1
 90
        2
176
     1
 90
        2
176
     1
 90
        0
176
     1
 40
0.6
176
     1
 40
30.0
176
     1
 62
     7
420
 16777215
176
     1
 90
        2
176
     1
 90
        2
176
     1
 62
     7
176
     1
 62
     7
176
     1
 90
        1
176
     1
 90
        1
176
     1
 40
40.0
176
     1
 90
       11
176
     1
 62
     7
176
     1
 40
1.0
176
     1
 90
        1
176
     1
 90
        6
176
     1
 90
        2
176
     1
 62
     7
176
     1
 90
        6
176
     1
 90
        0
176
     1
 90
        0
176
     1
290
     0
176
     1
 90
        1
176
     1
 40
0.0
176
     1
 90
        0
176
     1
290
     0
176
     1
290
     1
176
     1
290
     1
176
     1
290
     0
176
     1
290
     0
176
     1
290
     0
176
     1
290
     0
176
     1
290
     0
176
     1
290
     0
176
     1
 90
       50
176
     1
 40
0.0
176
     1
 40
1.0
176
     1
 90
        0
176
     1
 62
    18
420
        0
176
     1
 90
       50
176
     1
 90
        3
176
     1
 62
     5
420
      255
176
     1
290
     0
176
     1
 90
       50
176
     1
 90
       50
176
     1
 90
       50
176
     1
290
     0
176
     1
 90
       50
176
     1
 62
   256
176
     0
 40
1.0
176
     0
 90
        2
176
     1
  1
strokes_ogs.tif
176
     1
290
     0
176
     1
 40
1.0
176
     1
 40
1.0
176
     1
  0
VISUALSTYLE
  5
37
102
{ACAD_REACTORS
330
2A
102
}
330
2A
100
AcDbVisualStyle
  2
Thicken
 70
    13
177
     3
291
     1
 70
    58
 90
        2
176
     1
 90
        2
176
     1
 90
        0
176
     1
 90
        0
176
     1
 40
0.6
176
     1
 40
30.0
176
     1
 62
     7
420
 16777215
176
     1
 90
        1
176
     1
 90
        4
176
     1
 62
     7
176
     1
 62
   257
176
     1
 90
        1
176
     1
 90
        1
176
     1
 40
1.0
176
     1
 90
       12
176
     1
 62
     7
176
     1
 40
1.0
176
     1
 90
        1
176
     1
 90
        6
176
     1
 90
        2
176
     1
 62
     7
176
     1
 90
        5
176
     1
 90
        0
176
     1
 90
        0
176
     1
290
     0
176
     1
 90
        1
176
     1
 40
0.0
176
     1
 90
        0
176
     1
290
     0
176
     1
290
     1
176
     1
290
     1
176
     1
290
     0
176
     1
290
     0
176
     1
290
     0
176
     1
290
     0
176
     1
290
     0
176
     1
290
     0
176
     1
 90
       50
176
     1
 40
0.0
176
     1
 40
1.0
176
     1
 90
        0
176
     1
 62
    18
420
        0
176
     1
 90
       50
176
     1
 90
        3
176
     1
 62
     5
420
      255
176
     1
290
     0
176
     1
 90
       50
176
     1
 90
       50
176
     1
 90
       50
176
     1
290
     0
176
     1
 90
       50
176
     1
 62
   256
176
     0
 40
1.0
176
     0
 90
        2
176
     1
  1
strokes_ogs.tif
176
     1
290
     0
176
     1
 40
1.0
176
     1
 40
1.0
176
     1
  0
VISUALSTYLE
  5
30
102
{ACAD_REACTORS
330
2A
102
}
330
2A
100
AcDbVisualStyle
  2
Wireframe
 70
     5
177
     3
291
     0
 70
    58
 90
        0
176
     1
 90
        2
176
     1
 90
        0
176
     1
 90
        0
176
     1
 40
0.6
176
     1
 40
30.0
176
     1
 62
     7
420
 16777215
176
     1
 90
        1
176
     1
 90
        4
176
     1
 62
     7
176
     1
 62
   257
176
     1
 90
        1
176
     1
 90
        1
176
     1
 40
1.0
176
     1
 90
        0
176
     1
 62
   257
176
     1
 40
1.0
176
     1
 90
        1
176
     1
 90
        6
176
     1
 90
        2
176
     1
 62
     7
176
     1
 90
        3
176
     1
 90
        0
176
     1
 90
        0
176
     1
290
     0
176
     1
 90
        1
176
     1
 40
0.0
176
     1
 90
        0
176
     1
290
     0
176
     1
290
     1
176
     1
290
     1
176
     1
290
     0
176
     1
290
     0
176
     1
290
     0
176
     1
290
     0
176
     1
290
     0
176
     1
290
     0
176
     1
 90
       50
176
     1
 40
0.0
176
     1
 40
1.0
176
     1
 90
        0
176
     1
 62
    18
420
        0
176
     1
 90
       50
176
     1
 90
        3
176
     1
 62
     5
420
      255
176
     1
290
     0
176
     1
 90
       50
176
     1
 90
       50
176
     1
 90
       50
176
     1
290
     0
176
     1
 90
       50
176
     1
 62
   256
176
     0
 40
1.0
176
     0
 90
        2
176
     1
  1
strokes_ogs.tif
176
     1
290
     0
176
     1
 40
1.0
176
     1
 40
1.0
176
     1
  0
VISUALSTYLE
  5
40
102
{ACAD_REACTORS
330
2A
102
}
330
2A
100
AcDbVisualStyle
  2
X-Ray
 70
    25
177
     3
291
     0
 70
    58
 90
        2
176
     1
 90
        2
176
     1
 90
        1
176
     1
 90
        1
176
     1
 40
0.5
176
     1
 40
30.0
176
     1
 62
     7
420
 16777215
176
     1
 90
        1
176
     1
 90
        0
176
     1
 62
     7
176
     1
 62
   257
176
     1
 90
        1
176
     1
 90
        1
176
     1
 40
1.0
176
     1
 90
        8
176
     1
 62
     7
176
     1
 40
1.0
176
     1
 90
        1
176
     1
 90
        6
176
     1
 90
        2
176
     1
 62
     7
176
     1
 90
        3
176
     1
 90
        0
176
     1
 90
        0
176
     1
290
     0
176
     1
 90
       13
176
     1
 40
0.0
176
     1
 90
        0
176
     1
290
     0
176
     1
290
     1
176
     1
290
     1
176
     1
290
     0
176
     1
290
     0
176
     1
290
     0
176
     1
290
     0
176
     1
290
     0
176
     1
290
     0
176
     1
 90
       50
176
     1
 40
0.0
176
     1
 40
1.0
176
     1
 90
        0
176
     1
 62
    18
420
        0
176
     1
 90
       50
176
     1
 90
        3
176
     1
 62
     5
420
      255
176
     1
290
     0
176
     1
 90
       50
176
     1
 90
       50
176
     1
 90
       50
176
     1
290
     0
176
     1
 90
       50
176
     1
 62
   256
176
     0
 40
1.0
176
     0
 90
        2
176
     1
  1
strokes_ogs.tif
176
     1
290
     0
176
     1
 40
1.0
176
     1
 40
1.0
176
     1
  0
DICTIONARYVAR
  5
88
102
{ACAD_REACTORS
330
87
102
}
330
87
100
DictionaryVariables
280
     0
  1
1:1
  0
DICTIONARYVAR
  5
8D
102
{ACAD_REACTORS
330
87
102
}
330
87
100
DictionaryVariables
280
     0
  1
Standard
  0
DICTIONARYVAR
  5
8C
102
{ACAD_REACTORS
330
87
102
}
330
87
100
DictionaryVariables
280
     0
  1
Standard
  0
DICTIONARY
  5
89
330
5A
100
AcDbDictionary
280
     1
281
     1
  3
ACAD_ROUNDTRIP_2008_TABLESTYLE_CELLSTYLEMAP
360
8A
  0
CELLSTYLEMAP
  5
8A
102
{ACAD_REACTORS
330
89
102
}
330
89
100
AcDbCellStyleMap
 90
        3
300
CELLSTYLE
  1
TABLEFORMAT_BEGIN
 90
        5
170
     1
 91
        0
 92
    32768
 62
   257
 93
        1
300
CONTENTFORMAT
  1
CONTENTFORMAT_BEGIN
 90
        0
 91
        0
 92
        4
 93
        0
300

 40
0.0
140
1.0
 94
        5
 62
     0
340
11
144
0.25
309
CONTENTFORMAT_END
171
     1
301
MARGIN
  1
CELLMARGIN_BEGIN
 40
0.06
 40
0.06
 40
0.06
 40
0.06
 40
0.06
 40
0.06
309
CELLMARGIN_END
 94
        6
 95
        1
302
GRIDFORMAT
  1
GRIDFORMAT_BEGIN
 90
        0
 91
        1
 62
     0
 92
       -2
340
14
 93
        0
 40
0.045
309
GRIDFORMAT_END
 95
        2
302
GRIDFORMAT
  1
GRIDFORMAT_BEGIN
 90
        0
 91
        1
 62
     0
 92
       -2
340
14
 93
        0
 40
0.045
309
GRIDFORMAT_END
 95
        4
302
GRIDFORMAT
  1
GRIDFORMAT_BEGIN
 90
        0
 91
        1
 62
     0
 92
       -2
340
14
 93
        0
 40
0.045
309
GRIDFORMAT_END
 95
        8
302
GRIDFORMAT
  1
GRIDFORMAT_BEGIN
 90
        0
 91
        1
 62
     0
 92
       -2
340
14
 93
        0
 40
0.045
309
GRIDFORMAT_END
 95
       16
302
GRIDFORMAT
  1
GRIDFORMAT_BEGIN
 90
        0
 91
        1
 62
     0
 92
       -2
340
14
 93
        0
 40
0.045
309
GRIDFORMAT_END
 95
       32
302
GRIDFORMAT
  1
GRIDFORMAT_BEGIN
 90
        0
 91
        1
 62
     0
 92
       -2
340
14
 93
        0
 40
0.045
309
GRIDFORMAT_END
309
TABLEFORMAT_END
  1
CELLSTYLE_BEGIN
 90
        1
 91
        1
300
_TITLE
309
CELLSTYLE_END
300
CELLSTYLE
  1
TABLEFORMAT_BEGIN
 90
        5
170
     1
 91
        0
 92
        0
 62
   257
 93
        1
300
CONTENTFORMAT
  1
CONTENTFORMAT_BEGIN
 90
        0
 91
        0
 92
        4
 93
        0
300

 40
0.0
140
1.0
 94
        5
 62
     0
340
11
144
0.18
309
CONTENTFORMAT_END
171
     1
301
MARGIN
  1
CELLMARGIN_BEGIN
 40
0.06
 40
0.06
 40
0.06
 40
0.06
 40
0.06
 40
0.06
309
CELLMARGIN_END
 94
        6
 95
        1
302
GRIDFORMAT
  1
GRIDFORMAT_BEGIN
 90
        0
 91
        1
 62
     0
 92
       -2
340
14
 93
        0
 40
0.045
309
GRIDFORMAT_END
 95
        2
302
GRIDFORMAT
  1
GRIDFORMAT_BEGIN
 90
        0
 91
        1
 62
     0
 92
       -2
340
14
 93
        0
 40
0.045
309
GRIDFORMAT_END
 95
        4
302
GRIDFORMAT
  1
GRIDFORMAT_BEGIN
 90
        0
 91
        1
 62
     0
 92
       -2
340
14
 93
        0
 40
0.045
309
GRIDFORMAT_END
 95
        8
302
GRIDFORMAT
  1
GRIDFORMAT_BEGIN
 90
        0
 91
        1
 62
     0
 92
       -2
340
14
 93
        0
 40
0.045
309
GRIDFORMAT_END
 95
       16
302
GRIDFORMAT
  1
GRIDFORMAT_BEGIN
 90
        0
 91
        1
 62
     0
 92
       -2
340
14
 93
        0
 40
0.045
309
GRIDFORMAT_END
 95
       32
302
GRIDFORMAT
  1
GRIDFORMAT_BEGIN
 90
        0
 91
        1
 62
     0
 92
       -2
340
14
 93
        0
 40
0.045
309
GRIDFORMAT_END
309
TABLEFORMAT_END
  1
CELLSTYLE_BEGIN
 90
        2
 91
        1
300
_HEADER
309
CELLSTYLE_END
300
CELLSTYLE
  1
TABLEFORMAT_BEGIN
 90
        5
170
     1
 91
        0
 92
        0
 62
   257
 93
        1
300
CONTENTFORMAT
  1
CONTENTFORMAT_BEGIN
 90
        0
 91
        0
 92
        4
 93
        0
300

 40
0.0
140
1.0
 94
        2
 62
     0
340
11
144
0.18
309
CONTENTFORMAT_END
171
     1
301
MARGIN
  1
CELLMARGIN_BEGIN
 40
0.06
 40
0.06
 40
0.06
 40
0.06
 40
0.06
 40
0.06
309
CELLMARGIN_END
 94
        6
 95
        1
302
GRIDFORMAT
  1
GRIDFORMAT_BEGIN
 90
        0
 91
        1
 62
     0
 92
       -2
340
14
 93
        0
 40
0.045
309
GRIDFORMAT_END
 95
        2
302
GRIDFORMAT
  1
GRIDFORMAT_BEGIN
 90
        0
 91
        1
 62
     0
 92
       -2
340
14
 93
        0
 40
0.045
309
GRIDFORMAT_END
 95
        4
302
GRIDFORMAT
  1
GRIDFORMAT_BEGIN
 90
        0
 91
        1
 62
     0
 92
       -2
340
14
 93
        0
 40
0.045
309
GRIDFORMAT_END
 95
        8
302
GRIDFORMAT
  1
GRIDFORMAT_BEGIN
 90
        0
 91
        1
 62
     0
 92
       -2
340
14
 93
        0
 40
0.045
309
GRIDFORMAT_END
 95
       16
302
GRIDFORMAT
  1
GRIDFORMAT_BEGIN
 90
        0
 91
        1
 62
     0
 92
       -2
340
14
 93
        0
 40
0.045
309
GRIDFORMAT_END
 95
       32
302
GRIDFORMAT
  1
GRIDFORMAT_BEGIN
 90
        0
 91
        1
 62
     0
 92
       -2
340
14
 93
        0
 40
0.045
309
GRIDFORMAT_END
309
TABLEFORMAT_END
  1
CELLSTYLE_BEGIN
 90
        3
 91
        2
300
_DATA
309
CELLSTYLE_END
  0
ENDSEC
  0
EOF
