  0
SECTION
  2
HEADER
  9
$ACADVER
  1
AC1027
  9
$ACADMAINTVER
 70
   105
  9
$DWGCODEPAGE
  3
ANSI_1252
  9
$LASTSAVEDBY
  1
Office Desk
  9
$REQUIREDVERSIONS
160
                 0
  9
$INSBASE
 10
0.0
 20
0.0
 30
0.0
  9
$EXTMIN
 10
13.43624015748031
 20
-3.543854330708661
 30
0.0
  9
$EXTMAX
 10
22.74263779527559
 20
11.60004724409449
 30
0.0
  9
$LIMMIN
 10
0.0
 20
0.0
  9
$LIMMAX
 10
12.0
 20
9.0
  9
$ORTHOMODE
 70
     0
  9
$REGENMODE
 70
     1
  9
$FILLMODE
 70
     1
  9
$QTEXTMODE
 70
     0
  9
$MIRRTEXT
 70
     1
  9
$LTSCALE
 40
1.0
  9
$ATTMODE
 70
     1
  9
$TEXTSIZE
 40
0.2
  9
$TRACEWID
 40
0.05
  9
$TEXTSTYLE
  7
Standard
  9
$CLAYER
  8
0
  9
$CELTYPE
  6
ByLayer
  9
$CECOLOR
 62
   256
  9
$CELTSCALE
 40
1.0
  9
$DISPSILH
 70
     0
  9
$DIMSCALE
 40
1.0
  9
$DIMASZ
 40
0.18
  9
$DIMEXO
 40
0.0625
  9
$DIMDLI
 40
0.38
  9
$DIMRND
 40
0.0
  9
$DIMDLE
 40
0.0
  9
$DIMEXE
 40
0.18
  9
$DIMTP
 40
0.0
  9
$DIMTM
 40
0.0
  9
$DIMTXT
 40
0.18
  9
$DIMCEN
 40
0.09
  9
$DIMTSZ
 40
0.0
  9
$DIMTOL
 70
     0
  9
$DIMLIM
 70
     0
  9
$DIMTIH
 70
     1
  9
$DIMTOH
 70
     1
  9
$DIMSE1
 70
     0
  9
$DIMSE2
 70
     0
  9
$DIMTAD
 70
     0
  9
$DIMZIN
 70
     0
  9
$DIMBLK
  1

  9
$DIMASO
 70
     1
  9
$DIMSHO
 70
     1
  9
$DIMPOST
  1

  9
$DIMAPOST
  1

  9
$DIMALT
 70
     0
  9
$DIMALTD
 70
     2
  9
$DIMALTF
 40
25.4
  9
$DIMLFAC
 40
1.0
  9
$DIMTOFL
 70
     0
  9
$DIMTVP
 40
0.0
  9
$DIMTIX
 70
     0
  9
$DIMSOXD
 70
     0
  9
$DIMSAH
 70
     0
  9
$DIMBLK1
  1

  9
$DIMBLK2
  1

  9
$DIMSTYLE
  2
Standard
  9
$DIMCLRD
 70
     0
  9
$DIMCLRE
 70
     0
  9
$DIMCLRT
 70
     0
  9
$DIMTFAC
 40
1.0
  9
$DIMGAP
 40
0.09
  9
$DIMJUST
 70
     0
  9
$DIMSD1
 70
     0
  9
$DIMSD2
 70
     0
  9
$DIMTOLJ
 70
     1
  9
$DIMTZIN
 70
     0
  9
$DIMALTZ
 70
     0
  9
$DIMALTTZ
 70
     0
  9
$DIMUPT
 70
     0
  9
$DIMDEC
 70
     4
  9
$DIMTDEC
 70
     4
  9
$DIMALTU
 70
     2
  9
$DIMALTTD
 70
     2
  9
$DIMTXSTY
  7
Standard
  9
$DIMAUNIT
 70
     0
  9
$DIMADEC
 70
     0
  9
$DIMALTRND
 40
0.0
  9
$DIMAZIN
 70
     0
  9
$DIMDSEP
 70
    46
  9
$DIMATFIT
 70
     3
  9
$DIMFRAC
 70
     0
  9
$DIMLDRBLK
  1

  9
$DIMLUNIT
 70
     2
  9
$DIMLWD
 70
    -2
  9
$DIMLWE
 70
    -2
  9
$DIMTMOVE
 70
     0
  9
$DIMFXL
 40
1.0
  9
$DIMFXLON
 70
     0
  9
$DIMJOGANG
 40
0.7853981633974483
  9
$DIMTFILL
 70
     0
  9
$DIMTFILLCLR
 70
     0
  9
$DIMARCSYM
 70
     0
  9
$DIMLTYPE
  6

  9
$DIMLTEX1
  6

  9
$DIMLTEX2
  6

  9
$DIMTXTDIRECTION
 70
     0
  9
$LUNITS
 70
     2
  9
$LUPREC
 70
     4
  9
$SKETCHINC
 40
0.1
  9
$FILLETRAD
 40
0.0
  9
$AUNITS
 70
     0
  9
$AUPREC
 70
     0
  9
$MENU
  1
.
  9
$ELEVATION
 40
0.0
  9
$PELEVATION
 40
0.0
  9
$THICKNESS
 40
0.0
  9
$LIMCHECK
 70
     0
  9
$CHAMFERA
 40
0.0
  9
$CHAMFERB
 40
0.0
  9
$CHAMFERC
 40
0.0
  9
$CHAMFERD
 40
0.0
  9
$SKPOLY
 70
     0
  9
$TDCREATE
 40
2461020.632282026
  9
$TDUCREATE
 40
2461020.403115359
  9
$TDUPDATE
 40
2461020.63228206
  9
$TDUUPDATE
 40
2461020.403115394
  9
$TDINDWG
 40
0.0000000116
  9
$TDUSRTIMER
 40
0.0000000116
  9
$USRTIMER
 70
     1
  9
$ANGBASE
 50
0.0
  9
$ANGDIR
 70
     0
  9
$PDMODE
 70
     0
  9
$PDSIZE
 40
0.0
  9
$PLINEWID
 40
0.0
  9
$SPLFRAME
 70
     0
  9
$SPLINETYPE
 70
     6
  9
$SPLINESEGS
 70
     8
  9
$HANDSEED
  5
8F
  9
$SURFTAB1
 70
     6
  9
$SURFTAB2
 70
     6
  9
$SURFTYPE
 70
     6
  9
$SURFU
 70
     6
  9
$SURFV
 70
     6
  9
$UCSBASE
  2

  9
$UCSNAME
  2

  9
$UCSORG
 10
0.0
 20
0.0
 30
0.0
  9
$UCSXDIR
 10
1.0
 20
0.0
 30
0.0
  9
$UCSYDIR
 10
0.0
 20
1.0
 30
0.0
  9
$UCSORTHOREF
  2

  9
$UCSORTHOVIEW
 70
     0
  9
$UCSORGTOP
 10
0.0
 20
0.0
 30
0.0
  9
$UCSORGBOTTOM
 10
0.0
 20
0.0
 30
0.0
  9
$UCSORGLEFT
 10
0.0
 20
0.0
 30
0.0
  9
$UCSORGRIGHT
 10
0.0
 20
0.0
 30
0.0
  9
$UCSORGFRONT
 10
0.0
 20
0.0
 30
0.0
  9
$UCSORGBACK
 10
0.0
 20
0.0
 30
0.0
  9
$PUCSBASE
  2

  9
$PUCSNAME
  2

  9
$PUCSORG
 10
0.0
 20
0.0
 30
0.0
  9
$PUCSXDIR
 10
1.0
 20
0.0
 30
0.0
  9
$PUCSYDIR
 10
0.0
 20
1.0
 30
0.0
  9
$PUCSORTHOREF
  2

  9
$PUCSORTHOVIEW
 70
     0
  9
$PUCSORGTOP
 10
0.0
 20
0.0
 30
0.0
  9
$PUCSORGBOTTOM
 10
0.0
 20
0.0
 30
0.0
  9
$PUCSORGLEFT
 10
0.0
 20
0.0
 30
0.0
  9
$PUCSORGRIGHT
 10
0.0
 20
0.0
 30
0.0
  9
$PUCSORGFRONT
 10
0.0
 20
0.0
 30
0.0
  9
$PUCSORGBACK
 10
0.0
 20
0.0
 30
0.0
  9
$USERI1
 70
     0
  9
$USERI2
 70
     0
  9
$USERI3
 70
     0
  9
$USERI4
 70
     0
  9
$USERI5
 70
     0
  9
$USERR1
 40
0.0
  9
$USERR2
 40
0.0
  9
$USERR3
 40
0.0
  9
$USERR4
 40
0.0
  9
$USERR5
 40
0.0
  9
$WORLDVIEW
 70
     1
  9
$SHADEDGE
 70
     3
  9
$SHADEDIF
 70
    70
  9
$TILEMODE
 70
     1
  9
$MAXACTVP
 70
    64
  9
$PINSBASE
 10
0.0
 20
0.0
 30
0.0
  9
$PLIMCHECK
 70
     0
  9
$PEXTMIN
 10
1.000000000000000E+20
 20
1.000000000000000E+20
 30
1.000000000000000E+20
  9
$PEXTMAX
 10
-1.000000000000000E+20
 20
-1.000000000000000E+20
 30
-1.000000000000000E+20
  9
$PLIMMIN
 10
0.0
 20
0.0
  9
$PLIMMAX
 10
12.0
 20
9.0
  9
$UNITMODE
 70
     0
  9
$VISRETAIN
 70
     1
  9
$PLINEGEN
 70
     0
  9
$PSLTSCALE
 70
     1
  9
$TREEDEPTH
 70
  3020
  9
$CMLSTYLE
  2
Standard
  9
$CMLJUST
 70
     0
  9
$CMLSCALE
 40
1.0
  9
$PROXYGRAPHICS
 70
     1
  9
$MEASUREMENT
 70
     0
  9
$CELWEIGHT
370
    -1
  9
$ENDCAPS
280
     0
  9
$JOINSTYLE
280
     0
  9
$LWDISPLAY
290
     0
  9
$INSUNITS
 70
     1
  9
$HYPERLINKBASE
  1

  9
$STYLESHEET
  1

  9
$XEDIT
290
     1
  9
$CEPSNTYPE
380
     0
  9
$PSTYLEMODE
290
     1
  9
$FINGERPRINTGUID
  2
{41ec8c65-35cd-4cee-878a-b6d3b70d1be6}
  9
$VERSIONGUID
  2
{FAEB1C32-E019-11D5-929B-00C0DF256EC4}
  9
$EXTNAMES
290
     1
  9
$PSVPSCALE
 40
0.0
  9
$OLESTARTUP
290
     0
  9
$SORTENTS
280
   127
  9
$INDEXCTL
280
     0
  9
$HIDETEXT
280
     1
  9
$XCLIPFRAME
280
     2
  9
$HALOGAP
280
     0
  9
$OBSCOLOR
 70
   257
  9
$OBSLTYPE
280
     0
  9
$INTERSECTIONDISPLAY
280
     0
  9
$INTERSECTIONCOLOR
 70
   257
  9
$DIMASSOC
280
     2
  9
$PROJECTNAME
  1

  9
$CAMERADISPLAY
290
     0
  9
$LENSLENGTH
 40
50.0
  9
$CAMERAHEIGHT
 40
0.0
  9
$STEPSPERSEC
 40
2.0
  9
$STEPSIZE
 40
6.0
  9
$3DDWFPREC
 40
2.0
  9
$PSOLWIDTH
 40
0.25
  9
$PSOLHEIGHT
 40
4.0
  9
$LOFTANG1
 40
1.570796326794897
  9
$LOFTANG2
 40
1.570796326794897
  9
$LOFTMAG1
 40
0.0
  9
$LOFTMAG2
 40
0.0
  9
$LOFTPARAM
 70
     7
  9
$LOFTNORMALS
280
     1
  9
$LATITUDE
 40
37.795
  9
$LONGITUDE
 40
-122.394
  9
$NORTHDIRECTION
 40
0.0
  9
$TIMEZONE
 70
 -8000
  9
$LIGHTGLYPHDISPLAY
280
     1
  9
$TILEMODELIGHTSYNCH
280
     1
  9
$CMATERIAL
347
44
  9
$SOLIDHIST
280
     0
  9
$SHOWHIST
280
     1
  9
$DWFFRAME
280
     2
  9
$DGNFRAME
280
     2
  9
$REALWORLDSCALE
290
     1
  9
$INTERFERECOLOR
 62
   256
  9
$CSHADOW
280
     0
  9
$SHADOWPLANELOCATION
 40
0.0
  0
ENDSEC
  0
SECTION
  2
CLASSES
  0
CLASS
  1
ACDBDICTIONARYWDFLT
  2
AcDbDictionaryWithDefault
  3
ObjectDBX Classes
 90
        0
 91
        3
280
     0
281
     0
  0
CLASS
  1
VISUALSTYLE
  2
AcDbVisualStyle
  3
ObjectDBX Classes
 90
     4095
 91
        3
280
     0
281
     0
  0
CLASS
  1
MATERIAL
  2
AcDbMaterial
  3
ObjectDBX Classes
 90
     1153
 91
        3
280
     0
281
     0
  0
CLASS
  1
SCALE
  2
AcDbScale
  3
ObjectDBX Classes
 90
     1153
 91
        3
280
     0
281
     0
  0
CLASS
  1
TABLESTYLE
  2
AcDbTableStyle
  3
ObjectDBX Classes
 90
     4095
 91
        3
280
     0
281
     0
  0
CLASS
  1
MLEADERSTYLE
  2
AcDbMLeaderStyle
  3
ACDB_MLEADERSTYLE_CLASS
 90
     4095
 91
        3
280
     0
281
     0
  0
CLASS
  1
SUN
  2
AcDbSun
  3
SCENEOE
 90
     1153
 91
        3
280
     0
281
     0
  0
CLASS
  1
DICTIONARYVAR
  2
AcDbDictionaryVar
  3
ObjectDBX Classes
 90
        0
 91
        3
280
     0
281
     0
  0
CLASS
  1
CELLSTYLEMAP
  2
AcDbCellStyleMap
  3
ObjectDBX Classes
 90
     1152
 91
        3
280
     0
281
     0
  0
ENDSEC
  0
SECTION
  2
TABLES
  0
TABLE
  2
VPORT
  5
8
330
0
100
AcDbSymbolTable
 70
     1
  0
VPORT
  5
29
330
8
100
AcDbSymbolTableRecord
100
AcDbViewportTableRecord
  2
*Active
 70
     0
 10
0.0
 20
0.0
 11
1.0
 21
1.0
 12
10.42990654205607
 22
4.5
 13
0.0
 23
0.0
 14
0.5
 24
0.5
 15
0.5
 25
0.5
 16
0.0
 26
0.0
 36
1.0
 17
0.0
 27
0.0
 37
0.0
 40
9.0
 41
1.972972972850329
 42
50.0
 43
0.0
 44
0.0
 50
0.0
 51
0.0
 71
     0
 72
   100
 73
     1
 74
     3
 75
     0
 76
     0
 77
     0
 78
     0
281
     0
 65
     1
110
0.0
120
0.0
130
0.0
111
1.0
121
0.0
131
0.0
112
0.0
122
1.0
132
0.0
 79
     0
146
0.0
348
2F
 60
     3
 61
     5
292
     1
282
     1
141
0.0
142
0.0
 63
   250
361
5D
  0
ENDTAB
  0
TABLE
  2
LTYPE
  5
5
330
0
100
AcDbSymbolTable
 70
     1
  0
LTYPE
  5
14
330
5
100
AcDbSymbolTableRecord
100
AcDbLinetypeTableRecord
  2
ByBlock
 70
     0
  3

 72
    65
 73
     0
 40
0.0
  0
LTYPE
  5
15
330
5
100
AcDbSymbolTableRecord
100
AcDbLinetypeTableRecord
  2
ByLayer
 70
     0
  3

 72
    65
 73
     0
 40
0.0
  0
LTYPE
  5
16
330
5
100
AcDbSymbolTableRecord
100
AcDbLinetypeTableRecord
  2
Continuous
 70
     0
  3
Solid line
 72
    65
 73
     0
 40
0.0
  0
ENDTAB
  0
TABLE
  2
LAYER
  5
2
330
0
100
AcDbSymbolTable
 70
     2
  0
LAYER
  5
10
330
2
100
AcDbSymbolTableRecord
100
AcDbLayerTableRecord
  2
0
 70
     0
 62
     7
  6
Continuous
370
    -3
390
F
347
46
348
0
  0
LAYER
  5
5F
330
2
100
AcDbSymbolTableRecord
100
AcDbLayerTableRecord
  2
Layer 1
 70
     0
 62
     7
  6
Continuous
370
    -3
390
F
347
46
348
0
  0
ENDTAB
  0
TABLE
  2
STYLE
  5
3
330
0
100
AcDbSymbolTable
 70
     1
  0
STYLE
  5
11
330
3
100
AcDbSymbolTableRecord
100
AcDbTextStyleTableRecord
  2
Standard
 70
     0
 40
0.0
 41
1.0
 50
0.0
 71
     0
 42
0.2
  3
txt
  4

  0
ENDTAB
  0
TABLE
  2
VIEW
  5
6
330
0
100
AcDbSymbolTable
 70
     0
  0
ENDTAB
  0
TABLE
  2
UCS
  5
7
330
0
100
AcDbSymbolTable
 70
     0
  0
ENDTAB
  0
TABLE
  2
APPID
  5
9
330
0
100
AcDbSymbolTable
 70
     2
  0
APPID
  5
12
330
9
100
AcDbSymbolTableRecord
100
AcDbRegAppTableRecord
  2
ACAD
 70
     0
  0
APPID
  5
5E
330
9
100
AcDbSymbolTableRecord
100
AcDbRegAppTableRecord
  2
ODA
 70
     0
  0
ENDTAB
  0
TABLE
  2
DIMSTYLE
  5
A
330
0
100
AcDbSymbolTable
 70
     1
100
AcDbDimStyleTable
  0
DIMSTYLE
105
27
330
A
100
AcDbSymbolTableRecord
100
AcDbDimStyleTableRecord
  2
Standard
 70
     0
178
     0
340
11
  0
ENDTAB
  0
TABLE
  2
BLOCK_RECORD
  5
1
330
0
100
AcDbSymbolTable
 70
     1
  0
BLOCK_RECORD
  5
1F
330
1
100
AcDbSymbolTableRecord
100
AcDbBlockTableRecord
  2
*Model_Space
340
22
 70
     0
280
     1
281
     0
  0
BLOCK_RECORD
  5
1B
330
1
100
AcDbSymbolTableRecord
100
AcDbBlockTableRecord
  2
*Paper_Space
340
1E
 70
     0
280
     1
281
     0
  0
BLOCK_RECORD
  5
23
330
1
100
AcDbSymbolTableRecord
100
AcDbBlockTableRecord
  2
*Paper_Space0
340
26
 70
     0
280
     1
281
     0
  0
ENDTAB
  0
ENDSEC
  0
SECTION
  2
BLOCKS
  0
BLOCK
  5
20
330
1F
100
AcDbEntity
  8
0
100
AcDbBlockBegin
  2
*Model_Space
 70
     0
 10
0.0
 20
0.0
 30
0.0
  3
*Model_Space
  1

  0
ENDBLK
  5
21
330
1F
100
AcDbEntity
  8
0
100
AcDbBlockEnd
  0
BLOCK
  5
1C
330
1B
100
AcDbEntity
 67
     1
  8
0
100
AcDbBlockBegin
  2
*Paper_Space
 70
     0
 10
0.0
 20
0.0
 30
0.0
  3
*Paper_Space
  1

  0
ENDBLK
  5
1D
330
1B
100
AcDbEntity
 67
     1
  8
0
100
AcDbBlockEnd
  0
BLOCK
  5
24
330
23
100
AcDbEntity
  8
0
100
AcDbBlockBegin
  2
*Paper_Space0
 70
     0
 10
0.0
 20
0.0
 30
0.0
  3
*Paper_Space0
  1

  0
ENDBLK
  5
25
330
23
100
AcDbEntity
  8
0
100
AcDbBlockEnd
  0
ENDSEC
  0
SECTION
  2
ENTITIES
  0
LWPOLYLINE
  5
60
330
1F
100
AcDbEntity
  8
Layer 1
 62
   250
370
     9
100
AcDbPolyline
 90
        5
 70
     1
 43
0.0
 10
13.43774015748031
 20
-3.542350393700787
 10
22.74113385826772
 20
-3.542350393700787
 10
22.74113385826772
 20
11.59854724409449
 10
13.43774015748031
 20
11.59854724409449
 10
13.43774015748031
 20
-3.542350393700787
  0
LWPOLYLINE
  5
61
330
1F
100
AcDbEntity
  8
Layer 1
 62
     7
370
     9
100
AcDbPolyline
 90
      164
 70
     1
 43
0.0
 10
18.20929921259842
 20
7.347814960629921
 10
15.5651062992126
 20
6.682956692913386
 10
15.51958661417323
 20
6.672307086614174
 10
15.39937401574803
 20
6.642322834645669
 10
15.2289842519685
 20
6.595964566929134
 10
15.03292519685039
 20
6.536188976377953
 10
14.83571653543307
 20
6.465948818897638
 10
14.66186614173228
 20
6.388200787401574
 10
14.53589763779528
 20
6.30590157480315
 10
14.48231496062992
 20
6.222011811023622
 10
14.47470078740158
 20
6.137326771653544
 10
14.47116535433071
 20
6.052220472440945
 10
14.47306692913386
 20
5.969
 10
14.48177165354331
 20
5.889964566929134
 10
14.49863779527559
 20
5.817413385826772
 10
14.52501968503937
 20
5.753657480314961
 10
14.5622874015748
 20
5.700988188976378
 10
14.61179133858268
 20
5.661716535433071
 10
14.6659094488189
 20
5.633003937007874
 10
14.71553149606299
 20
5.610074803149606
 10
14.75982283464567
 20
5.592330708661417
 10
14.79794488188976
 20
5.579165354330708
 10
14.82905118110236
 20
5.569972440944882
 10
14.85231102362205
 20
5.564153543307087
 10
14.86688188976378
 20
5.561106299212598
 10
14.87192519685039
 20
5.560224409448819
 10
14.86652755905512
 20
5.363645669291339
 10
14.86638188976378
 20
5.35951968503937
 10
14.86675984251968
 20
5.348452755905512
 10
14.86888976377953
 20
5.332433070866141
 10
14.87399212598425
 20
5.313429133858268
 10
14.88329921259843
 20
5.293425196850394
 10
14.89803149606299
 20
5.274397637795276
 10
14.91941338582677
 20
5.258318897637795
 10
14.94867322834646
 20
5.247177165354331
 10
14.99273228346457
 20
5.234897637795275
 10
15.05677559055118
 20
5.216523622047244
 10
15.13946062992126
 20
5.195681102362204
 10
15.23943700787401
 20
5.176003937007874
 10
15.35535433070866
 20
5.161125984251968
 10
15.48586220472441
 20
5.154673228346457
 10
15.62961417322835
 20
5.16028346456693
 10
15.78526377952756
 20
5.181582677165355
 10
15.8886062992126
 20
5.188539370078741
 10
15.89248818897638
 20
5.190830708661418
 10
15.90273228346457
 20
5.197925196850393
 10
15.91724409448819
 20
5.210137795275591
 10
15.93392913385827
 20
5.227795275590551
 10
15.95068897637795
 20
5.251216535433071
 10
15.96542125984252
 20
5.280732283464567
 10
15.97603937007874
 20
5.316653543307087
 10
15.98043700787402
 20
5.359311023622047
 10
15.98156692913386
 20
5.40548031496063
 10
15.98356299212598
 20
5.450649606299213
 10
15.98611811023622
 20
5.493228346456693
 10
15.9889094488189
 20
5.531633858267717
 10
15.99162992125984
 20
5.564267716535433
 10
15.99396062992126
 20
5.589551181102363
 10
15.99558661417323
 20
5.605881889763779
 10
15.99620078740158
 20
5.611681102362205
 10
18.14975196850394
 20
6.148295275590551
 10
18.23870472440945
 20
6.041523622047244
 10
18.28755511811024
 20
-1.411673228346457
 10
18.27462992125984
 20
-1.416775590551181
 10
18.24143700787402
 20
-1.432397637795276
 10
18.19636220472441
 20
-1.459027559055118
 10
18.14777952755906
 20
-1.497133858267716
 10
18.10406692913386
 20
-1.547204724409449
 10
18.0736062992126
 20
-1.609712598425197
 10
18.06477559055118
 20
-1.685141732283465
 10
18.08595669291338
 20
-1.773968503937008
 10
18.14106299212598
 20
-1.863212598425197
 10
18.22405905511811
 20
-1.939740157480315
 10
18.3283779527559
 20
-2.003803149606299
 10
18.44744488188976
 20
-2.055653543307087
 10
18.57469291338583
 20
-2.09553937007874
 10
18.70355118110236
 20
-2.123720472440945
 10
18.82745669291339
 20
-2.14044094488189
 10
18.93983464566929
 20
-2.14596062992126
 10
19.05586220472441
 20
-2.146614173228346
 10
19.19044488188976
 20
-2.147216535433071
 10
19.33662992125984
 20
-2.145736220472441
 10
19.48746850393701
 20
-2.140141732283464
 10
19.63600787401575
 20
-2.12840157480315
 10
19.77529921259843
 20
-2.10848031496063
 10
19.89838976377953
 20
-2.078346456692914
 10
19.99833070866142
 20
-2.035968503937008
 10
20.07862598425197
 20
-1.991535433070866
 10
20.14760236220473
 20
-1.95407874015748
 10
20.20553937007874
 20
-1.919866141732284
 10
20.25271653543307
 20
-1.885157480314961
 10
20.28941338582677
 20
-1.846212598425197
 10
20.31591338582677
 20
-1.799299212598425
 10
20.33249212598425
 20
-1.740681102362205
 10
20.33942913385827
 20
-1.666614173228346
 10
20.33848031496063
 20
-1.658795275590551
 10
20.33403543307087
 20
-1.637267716535433
 10
20.32370866141732
 20
-1.604948818897638
 10
20.30511417322835
 20
-1.564736220472441
 10
20.27586220472441
 20
-1.519543307086614
 10
20.23356692913386
 20
-1.472275590551181
 10
20.17583464566929
 20
-1.425838582677165
 10
20.10028346456693
 20
-1.383141732283464
 10
20.07824803149606
 20
7.293255905511811
 10
20.07694094488189
 20
7.297539370078741
 10
20.07273228346457
 20
7.309035433070866
 10
20.0652125984252
 20
7.325724409448819
 10
20.05395275590551
 20
7.34557874015748
 10
20.03853149606299
 20
7.366570866141732
 10
20.01853937007874
 20
7.386677165354331
 10
19.99354330708661
 20
7.403874015748031
 10
19.96313385826772
 20
7.416133858267717
 10
19.97082677165354
 20
7.426421259842519
 10
19.99100393700787
 20
7.454767716535433
 10
20.0193188976378
 20
7.497385826771653
 10
20.05142519685039
 20
7.5505
 10
20.08297637795276
 20
7.610330708661417
 10
20.10961417322835
 20
7.673094488188976
 10
20.12700393700787
 20
7.735015748031496
 10
20.1307874015748
 20
7.792307086614173
 10
20.10420866141732
 20
8.796515748031496
 10
20.09722834645669
 20
8.812338582677166
 10
20.06853149606299
 20
8.852795275590552
 10
20.00649212598425
 20
8.907362204724409
 10
19.89948031496063
 20
8.965523622047245
 10
19.73587007874016
 20
9.016755905511811
 10
19.50403149606299
 20
9.050543307086615
 10
19.19234251968504
 20
9.05636220472441
 10
18.78916535433071
 20
9.023696850393701
 10
16.1363188976378
 20
8.39653937007874
 10
16.12119291338583
 20
8.392893700787402
 10
16.08140157480315
 20
8.381996062992126
 10
16.02533858267716
 20
8.363893700787402
 10
15.96138582677165
 20
8.338641732283465
 10
15.89793307086614
 20
8.306291338582676
 10
15.84337007874016
 20
8.266893700787401
 10
15.80607874015748
 20
8.2205
 10
15.79444881889764
 20
8.16716535433071
 10
15.79862598425197
 20
8.110220472440945
 10
15.80792913385827
 20
8.053870078740157
 10
15.82947637795276
 20
7.999515748031496
 10
15.87040157480315
 20
7.94855905511811
 10
15.9378188976378
 20
7.902397637795276
 10
16.03886220472441
 20
7.862437007874016
 10
16.18064960629921
 20
7.830070866141733
 10
16.3703031496063
 20
7.806700787401574
 10
16.58229133858268
 20
7.796472440944882
 10
16.78288582677165
 20
7.800011811023622
 10
16.96688188976378
 20
7.813496062992126
 10
17.1290905511811
 20
7.833106299212599
 10
17.26429921259842
 20
7.855011811023622
 10
17.36731889763779
 20
7.875393700787401
 10
17.43294094488189
 20
7.890425196850393
 10
17.45597244094488
 20
7.896287401574803
 10
18.12942913385827
 20
8.073468503937008
 10
18.14889763779528
 20
7.430783464566929
 10
18.14949212598425
 20
7.428744094488189
 10
18.15147244094488
 20
7.423047244094488
 10
18.15514173228346
 20
7.414334645669292
 10
18.16079921259843
 20
7.403244094488189
 10
18.16874015748031
 20
7.390409448818898
 10
18.17927165354331
 20
7.376464566929134
 10
18.19269291338583
 20
7.362055118110236
 10
18.20929921259842
 20
7.347814960629921
  0
LWPOLYLINE
  5
62
330
1F
100
AcDbEntity
  8
Layer 1
 62
     7
370
     9
100
AcDbPolyline
 90
       33
 70
     1
 43
0.0
 10
18.34825196850394
 20
8.067055118110236
 10
18.36851574803149
 20
8.063811023622048
 10
18.38757480314961
 20
8.054507874015748
 10
18.40500393700787
 20
8.039791338582678
 10
18.42038582677165
 20
8.02029527559055
 10
18.43329921259842
 20
7.996669291338582
 10
18.44332283464567
 20
7.969547244094488
 10
18.45003937007874
 20
7.93957874015748
 10
18.45302362204724
 20
7.907401574803149
 10
18.45193307086614
 20
7.875224409448819
 10
18.44698031496063
 20
7.845255905511811
 10
18.43854724409449
 20
7.81813779527559
 10
18.42702362204724
 20
7.794507874015748
 10
18.4127874015748
 20
7.775015748031496
 10
18.39622440944882
 20
7.760295275590551
 10
18.37772047244095
 20
7.750996062992126
 10
18.35765354330709
 20
7.747751968503937
 10
18.33738976377953
 20
7.750996062992126
 10
18.31833464566929
 20
7.760295275590551
 10
18.30090551181102
 20
7.775015748031496
 10
18.28552362204724
 20
7.794507874015748
 10
18.2726062992126
 20
7.81813779527559
 10
18.26258267716535
 20
7.845255905511811
 10
18.25587007874016
 20
7.875224409448819
 10
18.25288582677165
 20
7.907401574803149
 10
18.25397637795276
 20
7.93957874015748
 10
18.2589251968504
 20
7.969547244094488
 10
18.26735039370079
 20
7.996669291338582
 10
18.27887401574803
 20
8.02029527559055
 10
18.2931062992126
 20
8.039791338582678
 10
18.30966929133858
 20
8.054507874015748
 10
18.3281811023622
 20
8.063811023622048
 10
18.34825196850394
 20
8.067055118110236
  0
LWPOLYLINE
  5
63
330
1F
100
AcDbEntity
  8
Layer 1
 62
     7
370
     9
100
AcDbPolyline
 90
       33
 70
     1
 43
0.0
 10
18.32194488188976
 20
7.926279527559055
 10
18.32955511811024
 20
7.925283464566929
 10
18.33670866141732
 20
7.92242125984252
 10
18.34325590551181
 20
7.917897637795275
 10
18.34903149606299
 20
7.911901574803149
 10
18.35388188976378
 20
7.90463779527559
 10
18.35764566929134
 20
7.896295275590552
 10
18.36016535433071
 20
7.887074803149607
 10
18.36128346456693
 20
7.877173228346456
 10
18.36087795275591
 20
7.867279527559055
 10
18.35901968503937
 20
7.858062992125984
 10
18.35585433070866
 20
7.849720472440945
 10
18.35153149606299
 20
7.842452755905512
 10
18.34618503937008
 20
7.836452755905512
 10
18.33996456692913
 20
7.831925196850394
 10
18.3330157480315
 20
7.829062992125984
 10
18.32547637795276
 20
7.828062992125984
 10
18.31786614173229
 20
7.829062992125984
 10
18.3107125984252
 20
7.831925196850394
 10
18.30416535433071
 20
7.836452755905512
 10
18.29838976377953
 20
7.842452755905512
 10
18.29353937007874
 20
7.849720472440945
 10
18.28977559055118
 20
7.858062992125984
 10
18.28725590551181
 20
7.867279527559055
 10
18.28613779527559
 20
7.877173228346456
 10
18.28654330708661
 20
7.887074803149607
 10
18.28840157480315
 20
7.896295275590552
 10
18.29156692913386
 20
7.90463779527559
 10
18.2958937007874
 20
7.911901574803149
 10
18.30123622047244
 20
7.917897637795275
 10
18.30745669291339
 20
7.92242125984252
 10
18.31440551181102
 20
7.925283464566929
 10
18.32194488188976
 20
7.926279527559055
  0
LWPOLYLINE
  5
64
330
1F
100
AcDbEntity
  8
Layer 1
 62
     7
370
     9
100
AcDbPolyline
 90
       25
 70
     0
 43
0.0
 10
14.47106299212598
 20
6.200960629921259
 10
14.49363385826772
 20
6.191417322834646
 10
14.55784645669291
 20
6.167
 10
14.65846456692913
 20
6.134011811023622
 10
14.79024803149606
 20
6.098771653543307
 10
14.94794881889764
 20
6.067590551181103
 10
15.12633858267717
 20
6.046775590551182
 10
15.32016535433071
 20
6.042645669291338
 10
15.5241968503937
 20
6.061503937007874
 10
15.8679094488189
 20
6.131606299212598
 10
16.43
 20
6.262574803149606
 10
17.12902755905512
 20
6.432759842519685
 10
17.88356299212598
 20
6.620531496062992
 10
18.61217716535433
 20
6.804244094488189
 10
19.23343700787402
 20
6.962259842519685
 10
19.6659094488189
 20
7.072937007874016
 10
19.82816141732284
 20
7.11463779527559
 10
19.83643700787401
 20
7.117996062992126
 10
19.85835826771654
 20
7.127519685039371
 10
19.88954724409449
 20
7.142377952755906
 10
19.92563779527559
 20
7.161744094488189
 10
19.96226377952756
 20
7.184791338582677
 10
19.99505511811024
 20
7.210692913385826
 10
20.01963779527559
 20
7.238622047244094
 10
20.03164960629921
 20
7.267748031496063
  0
LWPOLYLINE
  5
65
330
1F
100
AcDbEntity
  8
Layer 1
 62
     7
370
     9
100
AcDbPolyline
 90
       17
 70
     0
 43
0.0
 10
18.33585433070866
 20
-1.424149606299213
 10
18.34582677165354
 20
-1.43755905511811
 10
18.37827559055118
 20
-1.472811023622047
 10
18.43700393700787
 20
-1.522437007874016
 10
18.5258031496063
 20
-1.578968503937008
 10
18.64847637795276
 20
-1.634933070866142
 10
18.8088188976378
 20
-1.682866141732283
 10
19.01063385826772
 20
-1.715299212598425
 10
19.25771653543307
 20
-1.724759842519685
 10
19.49911417322835
 20
-1.708389763779528
 10
19.68594488188976
 20
-1.672712598425197
 10
19.82511023622047
 20
-1.624358267716535
 10
19.9235
 20
-1.569944881889764
 10
19.98801968503937
 20
-1.516090551181102
 10
20.02556299212598
 20
-1.469429133858268
 10
20.04302755905512
 20
-1.436574803149606
 10
20.04731889763779
 20
-1.424149606299213
  0
LWPOLYLINE
  5
66
330
1F
100
AcDbEntity
  8
Layer 1
 62
     7
370
     9
100
AcDbPolyline
 90
       17
 70
     0
 43
0.0
 10
14.63717322834646
 20
5.692338582677166
 10
14.66173228346457
 20
5.684523622047244
 10
14.73290551181102
 20
5.665543307086614
 10
14.84694094488189
 20
5.642094488188977
 10
15.00008661417323
 20
5.62088188976378
 10
15.18858661417323
 20
5.608598425196851
 10
15.40869291338583
 20
5.611948818897638
 10
15.65664960629921
 20
5.637629921259842
 10
15.92870078740157
 20
5.692338582677166
 10
16.27615748031496
 20
5.779141732283464
 10
16.72291338582677
 20
5.889433070866142
 10
17.22407874015748
 20
6.012405511811024
 10
17.73477165354331
 20
6.137251968503937
 10
18.21011023622047
 20
6.253165354330709
 10
18.60520866141732
 20
6.349338582677166
 10
18.87518110236221
 20
6.414968503937008
 10
18.97514566929134
 20
6.439248031496063
  0
LWPOLYLINE
  5
67
330
1F
100
AcDbEntity
  8
Layer 1
 62
     7
370
     9
100
AcDbPolyline
 90
       17
 70
     0
 43
0.0
 10
19.48043700787402
 20
8.396637795275591
 10
19.47413779527559
 20
8.398299212598426
 10
19.45594488188976
 20
8.402334645669292
 10
19.42692519685039
 20
8.407314960629922
 10
19.38813385826772
 20
8.411826771653542
 10
19.34062992125984
 20
8.414437007874016
 10
19.28548425196851
 20
8.413724409448818
 10
19.22374803149606
 20
8.408263779527559
 10
19.1564842519685
 20
8.396637795275591
 10
19.06005118110236
 20
8.373649606299212
 10
18.92141732283465
 20
8.338240157480316
 10
18.75754724409449
 20
8.295185039370079
 10
18.58541732283464
 20
8.249251968503938
 10
18.42199606299213
 20
8.205220472440946
 10
18.28425196850394
 20
8.16786220472441
 10
18.18916141732284
 20
8.141944881889764
 10
18.15369291338583
 20
8.13224409448819
  0
LWPOLYLINE
  5
68
330
1F
100
AcDbEntity
  8
Layer 1
 62
     7
370
     9
100
AcDbPolyline
 90
       17
 70
     0
 43
0.0
 10
18.24670866141732
 20
7.381948818897638
 10
18.25954724409449
 20
7.375287401574803
 10
18.29792519685039
 20
7.357720472440945
 10
18.36161811023622
 20
7.332885826771654
 10
18.45041732283465
 20
7.304417322834646
 10
18.56410236220472
 20
7.275948818897638
 10
18.70246456692913
 20
7.251114173228347
 10
18.86527952755905
 20
7.233547244094488
 10
19.05233464566929
 20
7.226885826771653
 10
19.24057874015748
 20
7.236074803149607
 10
19.40652362204725
 20
7.260303149606299
 10
19.54931496062992
 20
7.294555118110236
 10
19.66807874015748
 20
7.333818897637795
 10
19.76195275590551
 20
7.373078740157481
 10
19.83007874015748
 20
7.407330708661418
 10
19.87158661417323
 20
7.43155905511811
 10
19.88561417322835
 20
7.440748031496063
  0
LWPOLYLINE
  5
69
330
1F
100
AcDbEntity
  8
Layer 1
 62
     7
370
    18
100
AcDbPolyline
 90
        2
 70
     0
 43
0.0
 10
21.0628937007874
 20
9.058181102362205
 10
21.0628937007874
 20
-2.086141732283465
  0
LWPOLYLINE
  5
6A
330
1F
100
AcDbEntity
  8
Layer 1
 62
     7
370
    18
100
AcDbPolyline
 90
        2
 70
     0
 43
0.0
 10
18.02494094488189
 20
-2.458637795275591
 10
20.33942519685039
 20
-2.458637795275591
  0
LWPOLYLINE
  5
6B
330
1F
100
AcDbEntity
  8
Layer 1
 62
     7
370
    18
100
AcDbPolyline
 90
        2
 70
     0
 43
0.0
 10
20.93055511811023
 20
9.058185039370079
 10
21.19521653543307
 20
9.058185039370079
  0
LWPOLYLINE
  5
6C
330
1F
100
AcDbEntity
  8
Layer 1
 62
     7
370
    18
100
AcDbPolyline
 90
        2
 70
     0
 43
0.0
 10
20.93057874015748
 20
-2.086133858267717
 10
21.19524015748031
 20
-2.086133858267717
  0
LWPOLYLINE
  5
6D
330
1F
100
AcDbEntity
  8
Layer 1
 62
     7
370
    18
100
AcDbPolyline
 90
        2
 70
     0
 43
0.0
 10
18.02493307086614
 20
-2.590952755905512
 10
18.02493307086614
 20
-2.326291338582677
  0
LWPOLYLINE
  5
6E
330
1F
100
AcDbEntity
  8
Layer 1
 62
     7
370
    18
100
AcDbPolyline
 90
        2
 70
     0
 43
0.0
 10
20.33947637795276
 20
-2.590952755905512
 10
20.33947637795276
 20
-2.326291338582677
  0
LWPOLYLINE
  5
6F
330
1F
100
AcDbEntity
  8
Layer 1
 62
     7
370
     9
100
AcDbPolyline
 90
      137
 70
     1
 43
0.0
 10
21.27760236220472
 20
3.804232283464567
 10
21.28074803149606
 20
3.797204724409449
 10
21.28416929133858
 20
3.790393700787402
 10
21.28787401574803
 20
3.783795275590551
 10
21.29185433070866
 20
3.777413385826772
 10
21.29611811023622
 20
3.771248031496063
 10
21.30065748031496
 20
3.765299212598425
 10
21.30548031496063
 20
3.759566929133858
 10
21.31058267716535
 20
3.754051181102362
 10
21.32212204724409
 20
3.743173228346456
 10
21.33430708661417
 20
3.733748031496063
 10
21.34713385826772
 20
3.725771653543307
 10
21.3606062992126
 20
3.719248031496063
 10
21.37472047244094
 20
3.714173228346457
 10
21.38948031496063
 20
3.710547244094488
 10
21.40488188976378
 20
3.708370078740157
 10
21.42092913385827
 20
3.707645669291339
 10
21.43698818897638
 20
3.70838188976378
 10
21.45242125984252
 20
3.710586614173228
 10
21.46723228346457
 20
3.714263779527559
 10
21.4814251968504
 20
3.719413385826772
 10
21.49498818897638
 20
3.726035433070866
 10
21.50793700787402
 20
3.734129921259842
 10
21.52025984251969
 20
3.743692913385827
 10
21.53196062992126
 20
3.754732283464567
 10
21.54205511811024
 20
3.766141732283465
 10
21.55094881889764
 20
3.778275590551181
 10
21.55863779527559
 20
3.791145669291339
 10
21.5651220472441
 20
3.804744094488189
 10
21.57040551181102
 20
3.819070866141732
 10
21.57448818897638
 20
3.834129921259843
 10
21.57737007874016
 20
3.84992125984252
 10
21.57904724409449
 20
3.866444881889764
 10
21.56667322834646
 20
3.887074803149607
 10
21.73991338582677
 20
3.740629921259842
 10
21.73991338582677
 20
3.992259842519685
 10
21.69177952755906
 20
3.992259842519685
 10
21.69177952755906
 20
3.838259842519685
 10
21.52679527559055
 20
3.979885826771654
 10
21.49724803149606
 20
3.943444881889764
 10
21.50498031496063
 20
3.935003937007874
 10
21.5116811023622
 20
3.926173228346457
 10
21.51735039370079
 20
3.916952755905512
 10
21.52198818897638
 20
3.907350393700787
 10
21.52559448818898
 20
3.897358267716535
 10
21.52817322834646
 20
3.886984251968504
 10
21.52971653543307
 20
3.876224409448819
 10
21.53023228346457
 20
3.86507874015748
 10
21.52973228346457
 20
3.853944881889764
 10
21.52823622047244
 20
3.843224409448819
 10
21.52574015748031
 20
3.832925196850394
 10
21.52224409448819
 20
3.823047244094488
 10
21.51775196850394
 20
3.813590551181103
 10
21.51225590551181
 20
3.804551181102362
 10
21.50576377952756
 20
3.795933070866142
 10
21.49827165354331
 20
3.787740157480315
 10
21.49007874015748
 20
3.780248031496063
 10
21.48149212598425
 20
3.773751968503937
 10
21.47250393700788
 20
3.768251968503937
 10
21.4631220472441
 20
3.763755905511811
 10
21.45334251968504
 20
3.760255905511811
 10
21.44316141732283
 20
3.757755905511811
 10
21.43258661417323
 20
3.756255905511811
 10
21.42161417322835
 20
3.755755905511811
 10
21.41088188976378
 20
3.756267716535433
 10
21.40051574803149
 20
3.757799212598425
 10
21.3905157480315
 20
3.760350393700787
 10
21.38088582677165
 20
3.76392125984252
 10
21.37161811023622
 20
3.768515748031496
 10
21.3627125984252
 20
3.774129921259842
 10
21.35417322834646
 20
3.780763779527559
 10
21.346
 20
3.78842125984252
 10
21.3424842519685
 20
3.792192913385827
 10
21.33914960629921
 20
3.796125984251968
 10
21.33599606299213
 20
3.800224409448819
 10
21.33302755905512
 20
3.80448031496063
 10
21.33023622047244
 20
3.80890157480315
 10
21.32762992125984
 20
3.813484251968504
 10
21.32520078740157
 20
3.818228346456693
 10
21.32295669291339
 20
3.823133858267716
 10
21.32094488188977
 20
3.828248031496063
 10
21.31920078740157
 20
3.833622047244094
 10
21.31772834645669
 20
3.839248031496063
 10
21.31652362204725
 20
3.845133858267717
 10
21.31558661417323
 20
3.851279527559055
 10
21.31491732283465
 20
3.857681102362205
 10
21.3145157480315
 20
3.864346456692914
 10
21.31438188976378
 20
3.871267716535433
 10
21.31467716535433
 20
3.878311023622047
 10
21.31556299212598
 20
3.885354330708661
 10
21.31703543307087
 20
3.892397637795276
 10
21.31910236220472
 20
3.89944094488189
 10
21.32175984251969
 20
3.906488188976378
 10
21.32501181102362
 20
3.913535433070866
 10
21.32885039370079
 20
3.920582677165354
 10
21.3332874015748
 20
3.927633858267717
 10
21.33822047244094
 20
3.93442125984252
 10
21.34357086614173
 20
3.940692913385827
 10
21.34934251968504
 20
3.946448818897638
 10
21.35553543307087
 20
3.951692913385827
 10
21.36214566929134
 20
3.95642125984252
 10
21.36917322834646
 20
3.960633858267717
 10
21.37662204724409
 20
3.964330708661417
 10
21.38448818897638
 20
3.967511811023622
 10
21.36868110236221
 20
4.014255905511811
 10
21.35747637795276
 20
4.009814960629921
 10
21.34681102362205
 20
4.004566929133858
 10
21.33668503937008
 20
3.998515748031496
 10
21.32709448818898
 20
3.991657480314961
 10
21.31803937007874
 20
3.983992125984252
 10
21.30952362204724
 20
3.97551968503937
 10
21.30153937007874
 20
3.966240157480315
 10
21.2940905511811
 20
3.956157480314961
 10
21.29083070866142
 20
3.951200787401575
 10
21.28775196850394
 20
3.946129921259843
 10
21.28485826771654
 20
3.940937007874016
 10
21.28214566929134
 20
3.935625984251968
 10
21.27961417322835
 20
3.930192913385827
 10
21.27726771653543
 20
3.924645669291339
 10
21.27510236220472
 20
3.918976377952756
 10
21.27311811023622
 20
3.913188976377953
 10
21.27134645669291
 20
3.907263779527559
 10
21.26981102362205
 20
3.901177165354331
 10
21.26851181102362
 20
3.894929133858268
 10
21.26745275590551
 20
3.888523622047244
 10
21.26662598425197
 20
3.881952755905512
 10
21.26603937007874
 20
3.875224409448819
 10
21.26568503937008
 20
3.868330708661417
 10
21.26556692913386
 20
3.861279527559055
 10
21.26575590551181
 20
3.854145669291339
 10
21.2663188976378
 20
3.847015748031496
 10
21.26725590551181
 20
3.839885826771654
 10
21.26857086614173
 20
3.832755905511811
 10
21.27025984251969
 20
3.825625984251968
 10
21.27233070866142
 20
3.818496062992126
 10
21.27477559055118
 20
3.811366141732283
 10
21.27760236220472
 20
3.804232283464567
  0
LWPOLYLINE
  5
70
330
1F
100
AcDbEntity
  8
Layer 1
 62
     7
370
     9
100
AcDbPolyline
 90
        7
 70
     1
 43
0.0
 10
21.27243700787401
 20
3.590086614173228
 10
21.27243700787401
 20
3.54198031496063
 10
21.74542125984252
 20
3.54198031496063
 10
21.73304724409449
 20
3.657464566929134
 10
21.69109842519685
 20
3.657464566929134
 10
21.69109842519685
 20
3.590086614173228
 10
21.27243700787401
 20
3.590086614173228
  0
LWPOLYLINE
  5
71
330
1F
100
AcDbEntity
  8
Layer 1
 62
     7
370
     9
100
AcDbPolyline
 90
       92
 70
     1
 43
0.0
 10
21.68559448818898
 20
3.264574803149606
 10
21.68020472440945
 20
3.256633858267716
 10
21.67408661417323
 20
3.249228346456693
 10
21.66723228346457
 20
3.242362204724409
 10
21.65965354330709
 20
3.236035433070866
 10
21.65133858267717
 20
3.230244094488189
 10
21.64229527559055
 20
3.224992125984252
 10
21.63251968503937
 20
3.220275590551181
 10
21.6220157480315
 20
3.21609842519685
 10
21.60807480314961
 20
3.211425196850394
 10
21.59392913385827
 20
3.207374015748031
 10
21.57958267716536
 20
3.203948818897638
 10
21.56503149606299
 20
3.201149606299213
 10
21.55027952755906
 20
3.198972440944882
 10
21.53532283464567
 20
3.197417322834646
 10
21.52016141732284
 20
3.196484251968504
 10
21.50479921259842
 20
3.196173228346457
 10
21.47076771653543
 20
3.198220472440945
 10
21.4522874015748
 20
3.200602362204724
 10
21.43482677165354
 20
3.203720472440945
 10
21.41838976377953
 20
3.207566929133858
 10
21.40297244094488
 20
3.212141732283464
 10
21.38857480314961
 20
3.217448818897638
 10
21.3751968503937
 20
3.223488188976378
 10
21.36284251968504
 20
3.230255905511811
 10
21.35150787401575
 20
3.237755905511811
 10
21.34296062992126
 20
3.24459842519685
 10
21.33555905511811
 20
3.251803149606299
 10
21.32929527559055
 20
3.259377952755905
 10
21.32416929133858
 20
3.267314960629921
 10
21.32018503937008
 20
3.27561811023622
 10
21.31734251968504
 20
3.284287401574803
 10
21.31563385826772
 20
3.293322834645669
 10
21.31506692913386
 20
3.302720472440945
 10
21.31562992125984
 20
3.313212598425197
 10
21.31732283464567
 20
3.323196850393701
 10
21.32014173228346
 20
3.332677165354331
 10
21.32408661417323
 20
3.341653543307086
 10
21.32916141732283
 20
3.350125984251969
 10
21.33536220472441
 20
3.358090551181102
 10
21.34268897637795
 20
3.365555118110236
 10
21.35114173228347
 20
3.372511811023622
 10
21.35948818897638
 20
3.378263779527559
 10
21.36833858267716
 20
3.383507874015748
 10
21.37770078740158
 20
3.388232283464567
 10
21.38758267716535
 20
3.392437007874016
 10
21.3977874015748
 20
3.396149606299212
 10
21.4081220472441
 20
3.399393700787402
 10
21.41858661417323
 20
3.402165354330709
 10
21.42918897637795
 20
3.404468503937008
 10
21.47042913385827
 20
3.410314960629921
 10
21.51637007874016
 20
3.412023622047244
 10
21.52305118110236
 20
3.411905511811024
 10
21.53011811023622
 20
3.411551181102362
 10
21.53757874015748
 20
3.410964566929134
 10
21.54543307086614
 20
3.41013779527559
 10
21.55367716535433
 20
3.409074803149606
 10
21.56231496062992
 20
3.407775590551181
 10
21.57134645669291
 20
3.406240157480315
 10
21.58077559055118
 20
3.404468503937008
 10
21.59122834645669
 20
3.402188976377953
 10
21.60164960629921
 20
3.39948031496063
 10
21.61202755905512
 20
3.396346456692914
 10
21.62235826771654
 20
3.392779527559055
 10
21.63240551181102
 20
3.388720472440945
 10
21.64194094488189
 20
3.384102362204724
 10
21.65096456692913
 20
3.378925196850393
 10
21.65948031496063
 20
3.373192913385827
 10
21.66350787401575
 20
3.370110236220472
 10
21.66732677165354
 20
3.366877952755905
 10
21.67094488188976
 20
3.363488188976378
 10
21.67435826771653
 20
3.359952755905512
 10
21.67756299212598
 20
3.356263779527559
 10
21.68056692913386
 20
3.352425196850394
 10
21.68336614173228
 20
3.34844094488189
 10
21.68596062992126
 20
3.344303149606299
 10
21.68829133858268
 20
3.340003937007874
 10
21.69031102362205
 20
3.335507874015748
 10
21.69202362204724
 20
3.330814960629921
 10
21.6934251968504
 20
3.325933070866142
 10
21.6945157480315
 20
3.320850393700788
 10
21.69529527559055
 20
3.31557874015748
 10
21.69576377952756
 20
3.310110236220472
 10
21.69592125984252
 20
3.304452755905512
 10
21.69575984251968
 20
3.298787401574803
 10
21.69527559055118
 20
3.293314960629921
 10
21.69447244094488
 20
3.28803937007874
 10
21.69334251968504
 20
3.28296062992126
 10
21.69188976377953
 20
3.278074803149606
 10
21.69011811023622
 20
3.27338188976378
 10
21.6880157480315
 20
3.268881889763779
 10
21.68559448818898
 20
3.264574803149606
  0
LWPOLYLINE
  5
72
330
1F
100
AcDbEntity
  8
Layer 1
 62
     7
370
     9
100
AcDbPolyline
 90
       65
 70
     1
 43
0.0
 10
21.26624803149606
 20
3.30203937007874
 10
21.26751968503937
 20
3.281968503937008
 10
21.27133858267717
 20
3.263177165354331
 10
21.27770472440945
 20
3.245661417322835
 10
21.28661417322835
 20
3.229425196850394
 10
21.29807086614173
 20
3.214468503937008
 10
21.31207086614173
 20
3.200787401574803
 10
21.32861417322835
 20
3.188389763779528
 10
21.34770472440945
 20
3.177271653543307
 10
21.36437007874016
 20
3.169452755905512
 10
21.38195669291338
 20
3.162677165354331
 10
21.40046850393701
 20
3.156948818897638
 10
21.41989763779528
 20
3.152259842519685
 10
21.44025196850394
 20
3.148610236220473
 10
21.46153149606299
 20
3.146007874015748
 10
21.48374015748032
 20
3.144444881889764
 10
21.50687007874016
 20
3.143925196850394
 10
21.52999212598425
 20
3.144444881889764
 10
21.5521968503937
 20
3.146007874015748
 10
21.57347244094488
 20
3.148610236220473
 10
21.59382677165354
 20
3.152259842519685
 10
21.61325984251969
 20
3.156948818897638
 10
21.63176771653543
 20
3.162677165354331
 10
21.64935039370079
 20
3.169452755905512
 10
21.66600787401575
 20
3.177271653543307
 10
21.6851062992126
 20
3.188389763779528
 10
21.70165354330708
 20
3.200787401574803
 10
21.71565354330709
 20
3.214468503937008
 10
21.72711023622047
 20
3.229425196850394
 10
21.73601574803149
 20
3.245661417322835
 10
21.74237795275591
 20
3.263177165354331
 10
21.7461968503937
 20
3.281968503937008
 10
21.74746850393701
 20
3.30203937007874
 10
21.7461968503937
 20
3.322110236220472
 10
21.74237795275591
 20
3.34090157480315
 10
21.73601574803149
 20
3.358413385826772
 10
21.72711023622047
 20
3.374645669291338
 10
21.71565354330709
 20
3.389602362204724
 10
21.70165354330708
 20
3.403279527559055
 10
21.6851062992126
 20
3.415681102362205
 10
21.66600787401575
 20
3.426807086614173
 10
21.64935039370079
 20
3.434625984251968
 10
21.63176771653543
 20
3.441401574803149
 10
21.61325984251969
 20
3.447133858267716
 10
21.59382677165354
 20
3.451822834645669
 10
21.57347244094488
 20
3.455468503937008
 10
21.5521968503937
 20
3.458074803149606
 10
21.52999212598425
 20
3.459637795275591
 10
21.50687007874016
 20
3.460157480314961
 10
21.48374015748032
 20
3.459637795275591
 10
21.46153149606299
 20
3.458074803149606
 10
21.44025196850394
 20
3.455468503937008
 10
21.41989763779528
 20
3.451822834645669
 10
21.40046850393701
 20
3.447133858267716
 10
21.38195669291338
 20
3.441401574803149
 10
21.36437007874016
 20
3.434625984251968
 10
21.34770472440945
 20
3.426807086614173
 10
21.32861417322835
 20
3.415681102362205
 10
21.31207086614173
 20
3.403279527559055
 10
21.29807086614173
 20
3.389602362204724
 10
21.28661417322835
 20
3.374645669291338
 10
21.27770472440945
 20
3.358413385826772
 10
21.27133858267717
 20
3.34090157480315
 10
21.26751968503937
 20
3.322110236220472
 10
21.26624803149606
 20
3.30203937007874
  0
LWPOLYLINE
  5
73
330
1F
100
AcDbEntity
  8
Layer 1
 62
     7
370
     9
100
AcDbPolyline
 90
      136
 70
     1
 43
0.0
 10
18.89416929133858
 20
-2.844
 10
18.9257874015748
 20
-2.718889763779528
 10
19.09491338582677
 20
-2.718889763779528
 10
19.09491338582677
 20
-2.670755905511811
 10
18.88934645669291
 20
-2.670755905511811
 10
18.83572834645669
 20
-2.88044094488189
 10
18.88798031496063
 20
-2.903799212598425
 10
18.89555905511811
 20
-2.898645669291338
 10
18.90351181102362
 20
-2.894177165354331
 10
18.91183858267717
 20
-2.890397637795276
 10
18.92054330708661
 20
-2.887303149606299
 10
18.92962598425197
 20
-2.884897637795276
 10
18.93908267716536
 20
-2.883177165354331
 10
18.94891732283465
 20
-2.882145669291339
 10
18.95913385826772
 20
-2.881803149606299
 10
18.96940157480315
 20
-2.882307086614173
 10
18.97932677165354
 20
-2.883822834645669
 10
18.98890551181102
 20
-2.886346456692913
 10
18.99814173228346
 20
-2.889881889763779
 10
19.00703543307086
 20
-2.894429133858268
 10
19.01558267716536
 20
-2.899984251968504
 10
19.02379133858268
 20
-2.906551181102362
 10
19.03165354330709
 20
-2.914129921259843
 10
19.03906692913386
 20
-2.922570866141732
 10
19.04549212598425
 20
-2.931330708661418
 10
19.05092913385827
 20
-2.940397637795276
 10
19.05537401574803
 20
-2.949783464566929
 10
19.05883070866142
 20
-2.959476377952756
 10
19.06129921259842
 20
-2.96948031496063
 10
19.06277952755906
 20
-2.979795275590551
 10
19.06327165354331
 20
-2.990421259842519
 10
19.06276771653543
 20
-3.001417322834646
 10
19.06125196850394
 20
-3.011976377952756
 10
19.05872834645669
 20
-3.022090551181102
 10
19.0551968503937
 20
-3.031767716535433
 10
19.05065354330709
 20
-3.041
 10
19.04510236220472
 20
-3.049795275590551
 10
19.03853937007874
 20
-3.058145669291338
 10
19.03096850393701
 20
-3.06605905511811
 10
19.02711811023622
 20
-3.069574803149606
 10
19.02312598425197
 20
-3.072909448818898
 10
19.01899606299213
 20
-3.076062992125984
 10
19.01472834645669
 20
-3.079031496062992
 10
19.0103188976378
 20
-3.081814960629921
 10
19.00577165354331
 20
-3.08442125984252
 10
19.00108267716535
 20
-3.086842519685039
 10
18.99625590551181
 20
-3.08907874015748
 10
18.9912125984252
 20
-3.091090551181102
 10
18.9858937007874
 20
-3.092838582677165
 10
18.98029527559055
 20
-3.094314960629921
 10
18.97442125984252
 20
-3.095523622047244
 10
18.96826377952756
 20
-3.096464566929134
 10
18.96183070866142
 20
-3.097137795275591
 10
18.95511811023622
 20
-3.097543307086614
 10
18.94812204724409
 20
-3.097677165354331
 10
18.94099212598425
 20
-3.097374015748032
 10
18.93387795275591
 20
-3.096472440944882
 10
18.92677165354331
 20
-3.094964566929134
 10
18.91967716535433
 20
-3.092858267716535
 10
18.91259448818898
 20
-3.090153543307087
 10
18.90552362204724
 20
-3.086846456692913
 10
18.89846456692914
 20
-3.082937007874016
 10
18.89141732283464
 20
-3.078433070866142
 10
18.88462204724409
 20
-3.073437007874016
 10
18.87834645669291
 20
-3.068074803149606
 10
18.8725905511811
 20
-3.062346456692913
 10
18.86735039370079
 20
-3.056251968503937
 10
18.86262204724409
 20
-3.049795275590551
 10
18.85841338582677
 20
-3.042972440944882
 10
18.85472047244095
 20
-3.035783464566929
 10
18.85153937007874
 20
-3.028228346456693
 10
18.80479527559055
 20
-3.043354330708661
 10
18.80938582677165
 20
-3.054673228346457
 10
18.81474409448819
 20
-3.065417322834646
 10
18.82085826771653
 20
-3.07559842519685
 10
18.82774015748031
 20
-3.085208661417323
 10
18.83538582677165
 20
-3.094248031496063
 10
18.84379133858268
 20
-3.102716535433071
 10
18.85295669291338
 20
-3.110614173228346
 10
18.86288976377953
 20
-3.117944881889764
 10
18.87344881889764
 20
-3.124633858267717
 10
18.88424409448819
 20
-3.130429133858268
 10
18.89527165354331
 20
-3.135338582677165
 10
18.90653937007874
 20
-3.139354330708661
 10
18.91804330708661
 20
-3.142476377952756
 10
18.92977952755906
 20
-3.144708661417323
 10
18.94175590551181
 20
-3.146047244094488
 10
18.95396850393701
 20
-3.146492125984252
 10
18.97024409448819
 20
-3.145755905511811
 10
18.9858937007874
 20
-3.143547244094488
 10
19.00092125984252
 20
-3.139866141732283
 10
19.01532283464567
 20
-3.134712598425197
 10
19.02910236220472
 20
-3.128086614173228
 10
19.04225984251968
 20
-3.119988188976378
 10
19.05479133858268
 20
-3.11042125984252
 10
19.06670472440945
 20
-3.09938188976378
 10
19.07750393700787
 20
-3.08740157480315
 10
19.08686220472441
 20
-3.074830708661417
 10
19.09477952755906
 20
-3.061669291338583
 10
19.10125590551181
 20
-3.047917322834646
 10
19.10629133858268
 20
-3.033570866141732
 10
19.10988976377953
 20
-3.018633858267716
 10
19.11204724409449
 20
-3.003106299212599
 10
19.11276771653543
 20
-2.986988188976378
 10
19.11205905511811
 20
-2.970956692913386
 10
19.10993307086614
 20
-2.955602362204724
 10
19.10638582677165
 20
-2.94092125984252
 10
19.10142519685039
 20
-2.92692125984252
 10
19.09504724409449
 20
-2.913594488188977
 10
19.08725196850394
 20
-2.900948818897638
 10
19.07803937007874
 20
-2.88898031496063
 10
19.0674094488189
 20
-2.877688976377953
 10
19.06196850393701
 20
-2.872661417322835
 10
19.05631496062992
 20
-2.867909448818898
 10
19.05044881889764
 20
-2.863425196850394
 10
19.04437007874016
 20
-2.859208661417323
 10
19.03807480314961
 20
-2.855259842519685
 10
19.03157086614173
 20
-2.851582677165355
 10
19.02485039370079
 20
-2.848169291338583
 10
19.01791338582677
 20
-2.845023622047244
 10
19.01083070866142
 20
-2.842204724409449
 10
19.00368503937008
 20
-2.839759842519685
 10
18.9964842519685
 20
-2.837692913385827
 10
18.98922047244094
 20
-2.836
 10
18.98190157480315
 20
-2.834681102362205
 10
18.97452362204724
 20
-2.833740157480315
 10
18.96708661417323
 20
-2.833177165354331
 10
18.95959842519685
 20
-2.832988188976378
 10
18.95196062992126
 20
-2.833161417322835
 10
18.94416929133858
 20
-2.833677165354331
 10
18.93622440944882
 20
-2.83453937007874
 10
18.92812598425197
 20
-2.835744094488189
 10
18.91987007874016
 20
-2.837291338582677
 10
18.91146062992126
 20
-2.839185039370079
 10
18.9028937007874
 20
-2.841421259842519
 10
18.89416929133858
 20
-2.844
  0
LWPOLYLINE
  5
74
330
1F
100
AcDbEntity
  8
Layer 1
 62
     7
370
     9
100
AcDbPolyline
 90
       92
 70
     1
 43
0.0
 10
19.37916141732283
 20
-2.725078740157481
 10
19.38710236220473
 20
-2.730468503937008
 10
19.39450787401575
 20
-2.736586614173228
 10
19.40137401574803
 20
-2.743437007874016
 10
19.40770078740157
 20
-2.75101968503937
 10
19.41349212598425
 20
-2.759330708661417
 10
19.41874409448819
 20
-2.768374015748031
 10
19.42346062992126
 20
-2.778149606299213
 10
19.42763779527559
 20
-2.788653543307086
 10
19.43231102362205
 20
-2.802594488188976
 10
19.43636220472441
 20
-2.816740157480315
 10
19.4397874015748
 20
-2.831086614173228
 10
19.44258661417323
 20
-2.845637795275591
 10
19.44476377952756
 20
-2.860389763779528
 10
19.44631889763779
 20
-2.875346456692913
 10
19.44725196850394
 20
-2.890507874015748
 10
19.44756299212598
 20
-2.905870078740158
 10
19.4455157480315
 20
-2.939901574803149
 10
19.44313385826772
 20
-2.95838188976378
 10
19.4400157480315
 20
-2.97584251968504
 10
19.43616929133858
 20
-2.992279527559055
 10
19.43159448818898
 20
-3.007700787401575
 10
19.4262874015748
 20
-3.02209842519685
 10
19.42024803149606
 20
-3.035472440944882
 10
19.41348031496063
 20
-3.047830708661417
 10
19.40598031496063
 20
-3.059165354330708
 10
19.39913779527559
 20
-3.067712598425197
 10
19.39193307086614
 20
-3.075114173228346
 10
19.38435826771654
 20
-3.081377952755906
 10
19.37642125984252
 20
-3.086503937007874
 10
19.36811811023622
 20
-3.090488188976378
 10
19.35944881889764
 20
-3.093330708661417
 10
19.35041338582677
 20
-3.09503937007874
 10
19.3410157480315
 20
-3.095606299212598
 10
19.33052362204725
 20
-3.095043307086614
 10
19.32053937007874
 20
-3.093350393700788
 10
19.31105905511811
 20
-3.090531496062992
 10
19.30208267716536
 20
-3.086582677165354
 10
19.29361023622047
 20
-3.081511811023622
 10
19.28564566929134
 20
-3.075311023622047
 10
19.2781811023622
 20
-3.067984251968504
 10
19.27122440944882
 20
-3.059531496062992
 10
19.26547244094488
 20
-3.051185039370079
 10
19.26022834645669
 20
-3.042330708661417
 10
19.25550393700787
 20
-3.032968503937008
 10
19.25129921259843
 20
-3.023086614173228
 10
19.24758661417323
 20
-3.01288188976378
 10
19.24434251968504
 20
-3.002551181102362
 10
19.24157086614173
 20
-2.992082677165354
 10
19.23926771653543
 20
-2.981484251968504
 10
19.23342125984252
 20
-2.940244094488189
 10
19.2317125984252
 20
-2.894299212598425
 10
19.23183070866142
 20
-2.88761811023622
 10
19.23218503937008
 20
-2.880551181102362
 10
19.23277165354331
 20
-2.873090551181102
 10
19.23359842519685
 20
-2.865240157480315
 10
19.23466141732283
 20
-2.856996062992126
 10
19.23596062992126
 20
-2.848358267716535
 10
19.23749606299213
 20
-2.839322834645669
 10
19.23926771653543
 20
-2.829893700787402
 10
19.24154724409449
 20
-2.81944094488189
 10
19.24425590551181
 20
-2.809023622047244
 10
19.24738976377953
 20
-2.798645669291338
 10
19.25095669291339
 20
-2.788314960629921
 10
19.2550157480315
 20
-2.778267716535433
 10
19.25963385826772
 20
-2.768728346456693
 10
19.26481102362205
 20
-2.759704724409449
 10
19.27054330708662
 20
-2.751188976377953
 10
19.27362598425197
 20
-2.747165354330709
 10
19.27685826771653
 20
-2.743342519685039
 10
19.28024803149606
 20
-2.739728346456693
 10
19.28378346456693
 20
-2.736314960629921
 10
19.28747244094488
 20
-2.733110236220472
 10
19.29131102362205
 20
-2.730106299212598
 10
19.29529527559055
 20
-2.727307086614173
 10
19.29943307086614
 20
-2.724712598425197
 10
19.30373228346457
 20
-2.722381889763779
 10
19.30822834645669
 20
-2.72036220472441
 10
19.31292125984252
 20
-2.718649606299213
 10
19.31780708661417
 20
-2.717244094488189
 10
19.32288582677165
 20
-2.716153543307087
 10
19.32815748031496
 20
-2.715374015748031
 10
19.33362598425197
 20
-2.714905511811024
 10
19.33928346456693
 20
-2.714748031496063
 10
19.34494881889764
 20
-2.714909448818898
 10
19.35042125984252
 20
-2.715393700787402
 10
19.3556968503937
 20
-2.716200787401575
 10
19.36077559055118
 20
-2.717326771653543
 10
19.36566141732283
 20
-2.718779527559055
 10
19.37035433070866
 20
-2.720555118110236
 10
19.37485433070866
 20
-2.722657480314961
 10
19.37916141732283
 20
-2.725078740157481
  0
LWPOLYLINE
  5
75
330
1F
100
AcDbEntity
  8
Layer 1
 62
     7
370
     9
100
AcDbPolyline
 90
       65
 70
     1
 43
0.0
 10
19.3416968503937
 20
-3.14442125984252
 10
19.36176771653543
 20
-3.143149606299213
 10
19.38055905511811
 20
-3.139330708661417
 10
19.3980748031496
 20
-3.132964566929134
 10
19.41431102362205
 20
-3.124055118110236
 10
19.42926771653543
 20
-3.11259842519685
 10
19.44294881889764
 20
-3.098598425196851
 10
19.45534645669292
 20
-3.082055118110236
 10
19.46646456692913
 20
-3.062964566929134
 10
19.47428346456693
 20
-3.046299212598425
 10
19.48105905511811
 20
-3.028712598425197
 10
19.4867874015748
 20
-3.010204724409449
 10
19.49147637795276
 20
-2.990771653543307
 10
19.49512598425197
 20
-2.970417322834646
 10
19.49772834645669
 20
-2.949137795275591
 10
19.49929133858268
 20
-2.926933070866142
 10
19.49981102362205
 20
-2.903799212598425
 10
19.49929133858268
 20
-2.880677165354331
 10
19.49772834645669
 20
-2.858472440944882
 10
19.49512598425197
 20
-2.837196850393701
 10
19.49147637795276
 20
-2.816842519685039
 10
19.4867874015748
 20
-2.797409448818898
 10
19.48105905511811
 20
-2.77890157480315
 10
19.47428346456693
 20
-2.761318897637795
 10
19.46646456692913
 20
-2.744661417322835
 10
19.45534645669292
 20
-2.725562992125984
 10
19.44294881889764
 20
-2.709015748031496
 10
19.42926771653543
 20
-2.695015748031496
 10
19.41431102362205
 20
-2.683562992125984
 10
19.3980748031496
 20
-2.674653543307087
 10
19.38055905511811
 20
-2.668291338582677
 10
19.36176771653543
 20
-2.664476377952756
 10
19.3416968503937
 20
-2.663204724409449
 10
19.32162598425197
 20
-2.664476377952756
 10
19.30283858267716
 20
-2.668291338582677
 10
19.28532283464567
 20
-2.674653543307087
 10
19.2690905511811
 20
-2.683562992125984
 10
19.25413385826772
 20
-2.695015748031496
 10
19.24045669291339
 20
-2.709015748031496
 10
19.22805511811024
 20
-2.725562992125984
 10
19.21692913385827
 20
-2.744661417322835
 10
19.20911023622047
 20
-2.761318897637795
 10
19.20233464566929
 20
-2.77890157480315
 10
19.19660236220473
 20
-2.797409448818898
 10
19.19191338582677
 20
-2.816842519685039
 10
19.18826771653543
 20
-2.837196850393701
 10
19.18566141732283
 20
-2.858472440944882
 10
19.18409842519685
 20
-2.880677165354331
 10
19.18357874015748
 20
-2.903799212598425
 10
19.18409842519685
 20
-2.926933070866142
 10
19.18566141732283
 20
-2.949137795275591
 10
19.18826771653543
 20
-2.970417322834646
 10
19.19191338582677
 20
-2.990771653543307
 10
19.19660236220473
 20
-3.010204724409449
 10
19.20233464566929
 20
-3.028712598425197
 10
19.20911023622047
 20
-3.046299212598425
 10
19.21692913385827
 20
-3.062964566929134
 10
19.22805511811024
 20
-3.082055118110236
 10
19.24045669291339
 20
-3.098598425196851
 10
19.25413385826772
 20
-3.11259842519685
 10
19.2690905511811
 20
-3.124055118110236
 10
19.28532283464567
 20
-3.132964566929134
 10
19.30283858267716
 20
-3.139330708661417
 10
19.32162598425197
 20
-3.143149606299213
 10
19.3416968503937
 20
-3.14442125984252
  0
LWPOLYLINE
  5
76
330
1F
100
AcDbEntity
  8
Layer 1
 62
     7
100
AcDbPolyline
 90
      147
 70
     1
 43
0.0
 10
16.2464094488189
 20
10.5031062992126
 10
16.18370866141732
 20
10.5031062992126
 10
16.17622047244095
 20
10.49000393700787
 10
16.16801181102362
 20
10.47756299212598
 10
16.15907086614173
 20
10.46577952755906
 10
16.1494094488189
 20
10.45466141732283
 10
16.13901968503937
 20
10.44420078740158
 10
16.12790551181102
 20
10.43440551181102
 10
16.11606692913386
 20
10.42526771653543
 10
16.10350393700788
 20
10.41679527559055
 10
16.09041732283465
 20
10.40916141732284
 10
16.0770157480315
 20
10.40254724409449
 10
16.06329527559055
 20
10.39695275590551
 10
16.04925590551181
 20
10.39237007874016
 10
16.03489763779528
 20
10.38880708661417
 10
16.02022440944882
 20
10.38626377952756
 10
16.00522834645669
 20
10.38473622047244
 10
15.98991732283465
 20
10.38422834645669
 10
15.96757480314961
 20
10.38528346456693
 10
15.94605118110236
 20
10.38845275590551
 10
15.92533858267717
 20
10.39373228346457
 10
15.90544094488189
 20
10.40112598425197
 10
15.88635433070866
 20
10.41062598425197
 10
15.86808661417323
 20
10.42224409448819
 10
15.85062992125984
 20
10.43597244094488
 10
15.83398818897638
 20
10.45181102362205
 10
15.8191968503937
 20
10.46866141732283
 10
15.80637795275591
 20
10.48634251968504
 10
15.79553149606299
 20
10.50484645669291
 10
15.78665748031496
 20
10.5241811023622
 10
15.77975590551181
 20
10.54433858267716
 10
15.77482677165354
 20
10.56532677165354
 10
15.77186614173228
 20
10.58713779527559
 10
15.77088188976378
 20
10.60977952755906
 10
15.77186614173228
 20
10.63261023622047
 10
15.77482677165354
 20
10.65458661417323
 10
15.77975590551181
 20
10.6757125984252
 10
15.78665748031496
 20
10.6959842519685
 10
15.79553149606299
 20
10.71540551181102
 10
15.80637795275591
 20
10.73397637795276
 10
15.8191968503937
 20
10.75169291338583
 10
15.83398818897638
 20
10.76855511811024
 10
15.84157874015748
 20
10.77609448818898
 10
15.8494842519685
 20
10.78323622047244
 10
15.85770866141732
 20
10.7899842519685
 10
15.86625196850394
 20
10.79634251968504
 10
15.87511417322835
 20
10.8023031496063
 10
15.88429527559055
 20
10.80787007874016
 10
15.89379133858268
 20
10.81303937007874
 10
15.9036062992126
 20
10.8178188976378
 10
15.91355511811024
 20
10.82211417322835
 10
15.92345275590551
 20
10.82583464566929
 10
15.9333031496063
 20
10.82898031496063
 10
15.94309842519685
 20
10.83155905511811
 10
15.95284251968504
 20
10.83356299212598
 10
15.96253937007874
 20
10.83499212598425
 10
15.9721811023622
 20
10.83585039370079
 10
15.98177559055118
 20
10.83613779527559
 10
15.9911968503937
 20
10.83600393700787
 10
16.00032283464567
 20
10.83560236220472
 10
16.00916141732283
 20
10.83493307086614
 10
16.01770078740158
 20
10.834
 10
16.02595275590551
 20
10.83279527559055
 10
16.0339094488189
 20
10.83132677165354
 10
16.04157480314961
 20
10.8295905511811
 10
16.04894881889764
 20
10.82758661417323
 10
16.0705
 20
10.82014566929134
 10
16.0906811023622
 20
10.81094488188976
 10
16.1094842519685
 20
10.79999212598425
 10
16.12691338582677
 20
10.78728346456693
 10
16.14296850393701
 20
10.7728188976378
 10
16.15765354330709
 20
10.75659842519685
 10
16.17096062992126
 20
10.73862204724409
 10
16.1828937007874
 20
10.71888976377953
 10
16.24559448818898
 20
10.71888976377953
 10
16.23715748031496
 20
10.73815748031496
 10
16.22752755905512
 20
10.75646850393701
 10
16.21670078740157
 20
10.77383070866142
 10
16.20467716535433
 20
10.79023622047244
 10
16.19145669291338
 20
10.80568503937008
 10
16.17704330708661
 20
10.82018503937008
 10
16.16143307086614
 20
10.83372834645669
 10
16.14462598425197
 20
10.84631496062992
 10
16.12698031496063
 20
10.85766929133858
 10
16.10885039370079
 20
10.86751181102362
 10
16.09023622047244
 20
10.87583858267717
 10
16.07114173228346
 20
10.88265354330709
 10
16.05155905511811
 20
10.88794881889764
 10
16.03149606299213
 20
10.89173622047244
 10
16.01094881889764
 20
10.89400787401575
 10
15.98991732283465
 20
10.89476377952756
 10
15.96169291338583
 20
10.89344094488189
 10
15.93452362204724
 20
10.88947244094488
 10
15.9084094488189
 20
10.88285433070866
 10
15.88335039370079
 20
10.87359448818898
 10
15.85935039370079
 20
10.86168503937008
 10
15.83640551181102
 20
10.84712992125984
 10
15.8145157480315
 20
10.82992913385827
 10
15.79368110236221
 20
10.81008267716535
 10
15.78457086614173
 20
10.80011417322835
 10
15.77597244094488
 20
10.78975196850394
 10
15.76788188976378
 20
10.77899606299213
 10
15.76029921259843
 20
10.76784251968504
 10
15.75322834645669
 20
10.75629921259842
 10
15.74666141732284
 20
10.74435826771654
 10
15.7406062992126
 20
10.73201968503937
 10
15.73505905511811
 20
10.71929133858268
 10
15.73009842519685
 20
10.70627165354331
 10
15.72579527559055
 20
10.69305905511811
 10
15.72215748031496
 20
10.67965354330709
 10
15.7191811023622
 20
10.66605905511811
 10
15.71686614173228
 20
10.65227559055118
 10
15.7152125984252
 20
10.63829921259843
 10
15.71422047244094
 20
10.62413385826772
 10
15.71388976377953
 20
10.60977952755906
 10
15.71513779527559
 20
10.58123622047244
 10
15.71887795275591
 20
10.55372440944882
 10
15.72511023622047
 20
10.52724015748032
 10
15.73383858267717
 20
10.50179133858268
 10
15.74505905511811
 20
10.47736614173228
 10
15.75877165354331
 20
10.45397637795276
 10
15.77498031496063
 20
10.43161811023622
 10
15.79368110236221
 20
10.4102874015748
 10
15.8145157480315
 20
10.39044094488189
 10
15.83640551181102
 20
10.37324015748031
 10
15.85935039370079
 20
10.35868503937008
 10
15.88335039370079
 20
10.34677559055118
 10
15.9084094488189
 20
10.3375157480315
 10
15.93452362204724
 20
10.33089763779528
 10
15.96169291338583
 20
10.32692913385827
 10
15.98991732283465
 20
10.3256062992126
 10
16.01087007874016
 20
10.32637401574803
 10
16.0313937007874
 20
10.32868503937008
 10
16.05148031496063
 20
10.33253149606299
 10
16.07113779527559
 20
10.33791732283465
 10
16.09036220472441
 20
10.34484645669291
 10
16.10915354330709
 20
10.35331102362205
 10
16.1275157480315
 20
10.36331889763779
 10
16.14544094488189
 20
10.37486614173228
 10
16.16238188976378
 20
10.38755905511811
 10
16.17808661417323
 20
10.40120078740157
 10
16.19255905511811
 20
10.41579921259843
 10
16.20579527559055
 20
10.43135433070866
 10
16.21779921259843
 20
10.44785826771654
 10
16.22857086614173
 20
10.46532283464567
 10
16.2381062992126
 20
10.48373622047244
 10
16.2464094488189
 20
10.5031062992126
  0
LWPOLYLINE
  5
77
330
1F
100
AcDbEntity
  8
Layer 1
 62
     7
100
AcDbPolyline
 90
       65
 70
     1
 43
0.0
 10
16.81963385826772
 20
10.61221653543307
 10
16.8185905511811
 20
10.58903543307087
 10
16.81546062992126
 20
10.56672440944882
 10
16.81024409448819
 20
10.54527165354331
 10
16.80294094488189
 20
10.52468897637795
 10
16.79355511811024
 20
10.50496850393701
 10
16.78207874015748
 20
10.48611417322835
 10
16.7685157480315
 20
10.46812204724409
 10
16.75287007874016
 20
10.45099606299213
 10
16.73574409448819
 20
10.43535039370079
 10
16.71775196850394
 20
10.4217874015748
 10
16.69889763779528
 20
10.41031102362205
 10
16.67917716535433
 20
10.40092125984252
 10
16.6585905511811
 20
10.39361811023622
 10
16.63714173228346
 20
10.38840157480315
 10
16.61482283464567
 20
10.38527165354331
 10
16.59164173228346
 20
10.38422834645669
 10
16.56865354330709
 20
10.38527165354331
 10
16.54650787401575
 20
10.38840157480315
 10
16.5251968503937
 20
10.39361811023622
 10
16.50472440944882
 20
10.40092125984252
 10
16.48509448818898
 20
10.41031102362205
 10
16.4663031496063
 20
10.4217874015748
 10
16.44835039370079
 20
10.43535039370079
 10
16.43123622047244
 20
10.45099606299213
 10
16.4155905511811
 20
10.46812204724409
 10
16.40202755905512
 20
10.48611417322835
 10
16.39055118110236
 20
10.50496850393701
 10
16.38116141732284
 20
10.52468897637795
 10
16.37385826771654
 20
10.54527165354331
 10
16.36864173228346
 20
10.56672440944882
 10
16.36551181102362
 20
10.58903543307087
 10
16.36446850393701
 20
10.61221653543307
 10
16.36551181102362
 20
10.63520472440945
 10
16.36864173228346
 20
10.65735826771654
 10
16.37385826771654
 20
10.67866929133858
 10
16.38116141732284
 20
10.69913779527559
 10
16.39055118110236
 20
10.71877165354331
 10
16.40202755905512
 20
10.73756299212598
 10
16.4155905511811
 20
10.7555157480315
 10
16.43123622047244
 20
10.77262992125984
 10
16.44835039370079
 20
10.78827559055118
 10
16.4663031496063
 20
10.80183858267717
 10
16.48509448818898
 20
10.81331496062992
 10
16.50472440944882
 20
10.82270078740157
 10
16.5251968503937
 20
10.83000393700787
 10
16.54650787401575
 20
10.83522047244094
 10
16.56865354330709
 20
10.83835039370079
 10
16.59164173228346
 20
10.8393937007874
 10
16.61482283464567
 20
10.83835039370079
 10
16.63714173228346
 20
10.83522047244094
 10
16.6585905511811
 20
10.83000393700787
 10
16.67917716535433
 20
10.82270078740157
 10
16.69889763779528
 20
10.81331496062992
 10
16.71775196850394
 20
10.80183858267717
 10
16.73574409448819
 20
10.78827559055118
 10
16.75287007874016
 20
10.77262992125984
 10
16.7685157480315
 20
10.7555157480315
 10
16.78207874015748
 20
10.73756299212598
 10
16.79355511811024
 20
10.71877165354331
 10
16.80294094488189
 20
10.69913779527559
 10
16.81024409448819
 20
10.67866929133858
 10
16.81546062992126
 20
10.65735826771654
 10
16.8185905511811
 20
10.63520472440945
 10
16.81963385826772
 20
10.61221653543307
  0
LWPOLYLINE
  5
78
330
1F
100
AcDbEntity
  8
Layer 1
 62
     7
100
AcDbPolyline
 90
      129
 70
     1
 43
0.0
 10
16.87663385826772
 20
10.61221653543307
 10
16.87628346456693
 20
10.62677165354331
 10
16.87523622047244
 20
10.64112598425197
 10
16.8734842519685
 20
10.65527165354331
 10
16.87103543307087
 20
10.66921653543307
 10
16.86788582677165
 20
10.68295669291339
 10
16.86403937007874
 20
10.69649606299213
 10
16.85949212598425
 20
10.70982677165354
 10
16.85424409448819
 20
10.72295669291339
 10
16.84838976377953
 20
10.73576771653543
 10
16.84203149606299
 20
10.74814960629921
 10
16.83515748031496
 20
10.76009448818898
 10
16.82777952755906
 20
10.77161023622047
 10
16.81988976377953
 20
10.78269291338583
 10
16.81149212598425
 20
10.79333858267717
 10
16.80258661417323
 20
10.80355511811024
 10
16.79316929133858
 20
10.81333858267717
 10
16.78329133858268
 20
10.82265748031496
 10
16.77299212598425
 20
10.8314842519685
 10
16.76227559055118
 20
10.83981102362205
 10
16.75113779527559
 20
10.84764173228347
 10
16.73957874015748
 20
10.85497637795276
 10
16.72759842519685
 20
10.86181496062992
 10
16.71520078740157
 20
10.86815748031496
 10
16.70238188976378
 20
10.87400393700787
 10
16.68925196850394
 20
10.87925196850394
 10
16.67592125984252
 20
10.88379921259843
 10
16.66238582677165
 20
10.88764566929134
 10
16.64864566929134
 20
10.89079527559055
 10
16.63470078740157
 20
10.89324015748032
 10
16.62055118110236
 20
10.89499212598425
 10
16.6061968503937
 20
10.89603937007874
 10
16.59164173228346
 20
10.89638976377953
 10
16.57709448818898
 20
10.89603937007874
 10
16.56276377952756
 20
10.89499212598425
 10
16.54864960629921
 20
10.89324015748032
 10
16.53474803149606
 20
10.89079527559055
 10
16.52106692913386
 20
10.88764566929134
 10
16.50759842519685
 20
10.88379921259843
 10
16.49435039370079
 20
10.87925196850394
 10
16.48131496062992
 20
10.87400393700787
 10
16.46859448818898
 20
10.86815748031496
 10
16.45627952755905
 20
10.86181496062992
 10
16.44437007874016
 20
10.85497637795276
 10
16.43287007874016
 20
10.84764173228347
 10
16.42177165354331
 20
10.83981102362205
 10
16.41108661417323
 20
10.8314842519685
 10
16.4008031496063
 20
10.82265748031496
 10
16.39092913385827
 20
10.81333858267717
 10
16.3815157480315
 20
10.80355511811024
 10
16.37261023622047
 20
10.79333858267717
 10
16.36421653543307
 20
10.78269291338583
 10
16.35632677165354
 20
10.77161023622047
 10
16.34894881889764
 20
10.76009448818898
 10
16.34207874015748
 20
10.74814960629921
 10
16.33571653543307
 20
10.73576771653543
 10
16.32986614173228
 20
10.72295669291339
 10
16.32461811023622
 20
10.70982677165354
 10
16.32007086614173
 20
10.69649606299213
 10
16.31622047244095
 20
10.68295669291339
 10
16.31307480314961
 20
10.66921653543307
 10
16.31062598425197
 20
10.65527165354331
 10
16.30887401574803
 20
10.64112598425197
 10
16.30782677165354
 20
10.62677165354331
 10
16.30747637795276
 20
10.61221653543307
 10
16.30782677165354
 20
10.59766141732283
 10
16.30887401574803
 20
10.58331102362205
 10
16.31062598425197
 20
10.56916535433071
 10
16.31307480314961
 20
10.55522047244095
 10
16.31622047244095
 20
10.5414842519685
 10
16.32007086614173
 20
10.52794488188976
 10
16.32461811023622
 20
10.51461417322835
 10
16.32986614173228
 20
10.5014842519685
 10
16.33571653543307
 20
10.48866535433071
 10
16.34207874015748
 20
10.47626771653543
 10
16.34894881889764
 20
10.4642874015748
 10
16.35632677165354
 20
10.45272834645669
 10
16.36421653543307
 20
10.4415905511811
 10
16.37261023622047
 20
10.43087007874016
 10
16.3815157480315
 20
10.42057086614173
 10
16.39092913385827
 20
10.41068897637795
 10
16.4008031496063
 20
10.40127559055118
 10
16.41108661417323
 20
10.39237007874016
 10
16.42177165354331
 20
10.38397244094488
 10
16.43287007874016
 20
10.37608661417323
 10
16.44437007874016
 20
10.36870472440945
 10
16.45627952755905
 20
10.36183464566929
 10
16.46859448818898
 20
10.35547637795276
 10
16.48131496062992
 20
10.34962204724409
 10
16.49435039370079
 20
10.34437401574803
 10
16.50759842519685
 20
10.33982677165354
 10
16.52106692913386
 20
10.33598031496063
 10
16.53474803149606
 20
10.33283070866142
 10
16.54864960629921
 20
10.33038188976378
 10
16.56276377952756
 20
10.32862992125984
 10
16.57709448818898
 20
10.32758267716535
 10
16.59164173228346
 20
10.32723228346457
 10
16.6061968503937
 20
10.32758267716535
 10
16.62055118110236
 20
10.32862992125984
 10
16.63470078740157
 20
10.33038188976378
 10
16.64864566929134
 20
10.33283070866142
 10
16.66238582677165
 20
10.33598031496063
 10
16.67592125984252
 20
10.33982677165354
 10
16.68925196850394
 20
10.34437401574803
 10
16.70238188976378
 20
10.34962204724409
 10
16.71520078740157
 20
10.35547637795276
 10
16.72759842519685
 20
10.36183464566929
 10
16.73957874015748
 20
10.36870472440945
 10
16.75113779527559
 20
10.37608661417323
 10
16.76227559055118
 20
10.38397244094488
 10
16.77299212598425
 20
10.39237007874016
 10
16.78329133858268
 20
10.40127559055118
 10
16.79316929133858
 20
10.41068897637795
 10
16.80258661417323
 20
10.42057086614173
 10
16.81149212598425
 20
10.43087007874016
 10
16.81988976377953
 20
10.4415905511811
 10
16.82777952755906
 20
10.45272834645669
 10
16.83515748031496
 20
10.4642874015748
 10
16.84203149606299
 20
10.47626771653543
 10
16.84838976377953
 20
10.48866535433071
 10
16.85424409448819
 20
10.5014842519685
 10
16.85949212598425
 20
10.51461417322835
 10
16.86403937007874
 20
10.52794488188976
 10
16.86788582677165
 20
10.5414842519685
 10
16.87103543307087
 20
10.55522047244095
 10
16.8734842519685
 20
10.56916535433071
 10
16.87523622047244
 20
10.58331102362205
 10
16.87628346456693
 20
10.59766141732283
 10
16.87663385826772
 20
10.61221653543307
  0
LWPOLYLINE
  5
79
330
1F
100
AcDbEntity
  8
Layer 1
 62
     7
100
AcDbPolyline
 90
      106
 70
     1
 43
0.0
 10
17.18563779527559
 20
10.82311023622047
 10
17.19504330708661
 20
10.81672440944882
 10
17.20380708661417
 20
10.80947244094488
 10
17.21194094488189
 20
10.80135433070866
 10
17.21943307086614
 20
10.79237007874016
 10
17.22629133858268
 20
10.78252362204724
 10
17.2325157480315
 20
10.77181102362205
 10
17.23809842519685
 20
10.76023228346457
 10
17.24304724409449
 20
10.74779133858268
 10
17.24858267716536
 20
10.73128346456693
 10
17.2533779527559
 20
10.71453543307087
 10
17.25743700787402
 20
10.69754330708661
 10
17.26075590551181
 20
10.68031102362205
 10
17.26333858267716
 20
10.66283464566929
 10
17.26518110236221
 20
10.64512204724409
 10
17.2662874015748
 20
10.62716141732284
 10
17.26665748031496
 20
10.60896456692913
 10
17.26422047244094
 20
10.56865748031496
 10
17.2613937007874
 20
10.54676771653543
 10
17.25770078740157
 20
10.52608661417323
 10
17.25314566929134
 20
10.50661811023622
 10
17.24772834645669
 20
10.48835433070866
 10
17.24144094488189
 20
10.47129527559055
 10
17.23429133858268
 20
10.45544881889764
 10
17.22627559055118
 20
10.44081102362205
 10
17.2173937007874
 20
10.42738188976378
 10
17.20929133858268
 20
10.41726771653543
 10
17.20075590551181
 20
10.40850393700787
 10
17.1917874015748
 20
10.40108661417323
 10
17.18238582677165
 20
10.39501968503937
 10
17.17255118110236
 20
10.39029921259842
 10
17.16228346456693
 20
10.38692519685039
 10
17.15158267716535
 20
10.38490157480315
 10
17.14044881889764
 20
10.38422834645669
 10
17.12802755905512
 20
10.38489763779527
 10
17.11620078740157
 20
10.38690157480315
 10
17.10497244094488
 20
10.39024015748032
 10
17.09434251968504
 20
10.39491732283465
 10
17.08431102362205
 20
10.40092913385827
 10
17.07487795275591
 20
10.40827559055118
 10
17.06603937007874
 20
10.41695669291339
 10
17.0578031496063
 20
10.42697637795276
 10
17.0543188976378
 20
10.43183464566929
 10
17.0509842519685
 20
10.43685039370079
 10
17.0478031496063
 20
10.4420157480315
 10
17.04477559055118
 20
10.44733464566929
 10
17.04190157480315
 20
10.45280708661417
 10
17.03917716535433
 20
10.45842913385827
 10
17.0366062992126
 20
10.46420472440945
 10
17.03418897637795
 20
10.47013385826772
 10
17.0297874015748
 20
10.48222047244094
 10
17.02594881889764
 20
10.49445669291339
 10
17.02266535433071
 20
10.50685039370079
 10
17.01994094488189
 20
10.5193937007874
 10
17.01767716535433
 20
10.53191338582677
 10
17.01576771653543
 20
10.54423228346457
 10
17.01421653543307
 20
10.55634251968504
 10
17.01301968503937
 20
10.56824803149606
 10
17.01212992125984
 20
10.58051181102362
 10
17.01149606299213
 20
10.59367716535433
 10
17.01111023622047
 20
10.60773622047244
 10
17.01098425196851
 20
10.62266929133858
 10
17.01112598425197
 20
10.63058267716535
 10
17.01154330708662
 20
10.63895275590551
 10
17.01224409448819
 20
10.6477874015748
 10
17.01322440944882
 20
10.65708661417323
 10
17.0144842519685
 20
10.66684645669291
 10
17.01602362204724
 20
10.67707480314961
 10
17.01784251968504
 20
10.68777165354331
 10
17.01994094488189
 20
10.69893700787402
 10
17.02263779527559
 20
10.71133070866142
 10
17.02584645669291
 20
10.72366929133858
 10
17.02955905511811
 20
10.73596062992126
 10
17.03378346456693
 20
10.74820078740157
 10
17.0361062992126
 20
10.75422834645669
 10
17.03859448818898
 20
10.7601062992126
 10
17.04124409448819
 20
10.76583070866142
 10
17.04406299212598
 20
10.77140551181102
 10
17.04704724409449
 20
10.77682677165354
 10
17.05019291338583
 20
10.78209448818898
 10
17.05350787401575
 20
10.78720866141732
 10
17.05698818897638
 20
10.79216929133858
 10
17.06064173228346
 20
10.79693307086614
 10
17.06446850393701
 20
10.80145669291339
 10
17.06847637795276
 20
10.80573622047244
 10
17.07266535433071
 20
10.80977559055118
 10
17.07702755905512
 20
10.81357480314961
 10
17.08157086614173
 20
10.81712992125984
 10
17.08629133858268
 20
10.82044094488189
 10
17.09118897637795
 20
10.8235157480315
 10
17.09629133858268
 20
10.82628346456693
 10
17.1016220472441
 20
10.82868110236221
 10
17.1071811023622
 20
10.8307125984252
 10
17.11296850393701
 20
10.83237401574803
 10
17.11898818897638
 20
10.83366535433071
 10
17.12523622047244
 20
10.83458661417323
 10
17.1317125984252
 20
10.83514173228346
 10
17.13841732283464
 20
10.83532677165354
 10
17.14512204724409
 20
10.83513385826772
 10
17.15159448818898
 20
10.83456299212598
 10
17.15784251968504
 20
10.8336062992126
 10
17.16385826771653
 20
10.83227165354331
 10
17.16964960629921
 20
10.83055511811024
 10
17.17520866141732
 20
10.82845275590551
 10
17.18053543307087
 20
10.82597244094488
 10
17.18563779527559
 20
10.82311023622047
  0
LWPOLYLINE
  5
7A
330
1F
100
AcDbEntity
  8
Layer 1
 62
     7
100
AcDbPolyline
 90
       65
 70
     1
 43
0.0
 10
17.14126377952756
 20
10.32642125984252
 10
17.16503543307087
 20
10.32792913385827
 10
17.18729527559055
 20
10.33245275590551
 10
17.20803937007874
 20
10.33998818897638
 10
17.22726771653543
 20
10.35053937007874
 10
17.2449842519685
 20
10.36411023622047
 10
17.26118897637795
 20
10.38069291338583
 10
17.27587795275591
 20
10.40029133858268
 10
17.28905118110236
 20
10.42290551181102
 10
17.29830708661417
 20
10.44263779527559
 10
17.30633070866142
 20
10.46346456692913
 10
17.31311811023622
 20
10.48538582677165
 10
17.31867322834646
 20
10.50840157480315
 10
17.32299212598425
 20
10.53251181102362
 10
17.32607480314961
 20
10.5577125984252
 10
17.32792519685039
 20
10.58401181102362
 10
17.32854330708662
 20
10.61140157480315
 10
17.32792519685039
 20
10.63879527559055
 10
17.32607480314961
 20
10.66509448818898
 10
17.32299212598425
 20
10.69029921259843
 10
17.31867322834646
 20
10.71440551181102
 10
17.31311811023622
 20
10.73742125984252
 10
17.30633070866142
 20
10.75934251968504
 10
17.29830708661417
 20
10.78017322834646
 10
17.28905118110236
 20
10.79990551181102
 10
17.27587795275591
 20
10.82251968503937
 10
17.26118897637795
 20
10.84211811023622
 10
17.2449842519685
 20
10.85870078740157
 10
17.22726771653543
 20
10.87227165354331
 10
17.20803937007874
 20
10.88282283464567
 10
17.18729527559055
 20
10.89035826771654
 10
17.16503543307087
 20
10.89488188976378
 10
17.14126377952756
 20
10.89638976377953
 10
17.11749212598425
 20
10.89488188976378
 10
17.09523622047244
 20
10.89035826771654
 10
17.07449212598425
 20
10.88282283464567
 10
17.05525984251969
 20
10.87227165354331
 10
17.03754330708662
 20
10.85870078740157
 10
17.02134251968504
 20
10.84211811023622
 10
17.00665354330709
 20
10.82251968503937
 10
16.99347637795276
 20
10.79990551181102
 10
16.98422047244095
 20
10.78017322834646
 10
16.97620078740157
 20
10.75934251968504
 10
16.96941338582677
 20
10.73742125984252
 10
16.96385826771654
 20
10.71440551181102
 10
16.95953937007874
 20
10.69029921259843
 10
16.95645669291338
 20
10.66509448818898
 10
16.9546062992126
 20
10.63879527559055
 10
16.95398818897638
 20
10.61140157480315
 10
16.9546062992126
 20
10.58401181102362
 10
16.95645669291338
 20
10.5577125984252
 10
16.95953937007874
 20
10.53251181102362
 10
16.96385826771654
 20
10.50840157480315
 10
16.96941338582677
 20
10.48538582677165
 10
16.97620078740157
 20
10.46346456692913
 10
16.98422047244095
 20
10.44263779527559
 10
16.99347637795276
 20
10.42290551181102
 10
17.00665354330709
 20
10.40029133858268
 10
17.02134251968504
 20
10.38069291338583
 10
17.03754330708662
 20
10.36411023622047
 10
17.05525984251969
 20
10.35053937007874
 10
17.07449212598425
 20
10.33998818897638
 10
17.09523622047244
 20
10.33245275590551
 10
17.11749212598425
 20
10.32792913385827
 10
17.14126377952756
 20
10.32642125984252
  0
LWPOLYLINE
  5
7B
330
1F
100
AcDbEntity
  8
Layer 1
 62
     7
100
AcDbPolyline
 90
      106
 70
     1
 43
0.0
 10
17.64161811023622
 20
10.82311023622047
 10
17.65102362204724
 20
10.81672440944882
 10
17.6597874015748
 20
10.80947244094488
 10
17.66792125984252
 20
10.80135433070866
 10
17.67541338582677
 20
10.79237007874016
 10
17.68227165354331
 20
10.78252362204724
 10
17.68849606299213
 20
10.77181102362205
 10
17.69407874015748
 20
10.76023228346457
 10
17.69902755905512
 20
10.74779133858268
 10
17.70456299212599
 20
10.73128346456693
 10
17.70935826771654
 20
10.71453543307087
 10
17.71341732283464
 20
10.69754330708661
 10
17.71673622047244
 20
10.68031102362205
 10
17.71931889763779
 20
10.66283464566929
 10
17.72116141732284
 20
10.64512204724409
 10
17.72226771653543
 20
10.62716141732284
 10
17.72263779527559
 20
10.60896456692913
 10
17.7201968503937
 20
10.56865748031496
 10
17.71737007874016
 20
10.54676771653543
 10
17.71368110236221
 20
10.52608661417323
 10
17.70912598425197
 20
10.50661811023622
 10
17.70370866141732
 20
10.48835433070866
 10
17.69742125984252
 20
10.47129527559055
 10
17.69027165354331
 20
10.45544881889764
 10
17.68225590551181
 20
10.44081102362205
 10
17.67337401574803
 20
10.42738188976378
 10
17.66527165354331
 20
10.41726771653543
 10
17.65673622047244
 20
10.40850393700787
 10
17.64776771653543
 20
10.40108661417323
 10
17.63836220472441
 20
10.39501968503937
 10
17.62852755905512
 20
10.39029921259842
 10
17.61825984251968
 20
10.38692519685039
 10
17.60755905511811
 20
10.38490157480315
 10
17.59642913385827
 20
10.38422834645669
 10
17.58400787401575
 20
10.38489763779527
 10
17.5721811023622
 20
10.38690157480315
 10
17.56095275590551
 20
10.39024015748032
 10
17.55032283464567
 20
10.39491732283465
 10
17.54029133858268
 20
10.40092913385827
 10
17.53085826771654
 20
10.40827559055118
 10
17.52201968503937
 20
10.41695669291339
 10
17.51378346456693
 20
10.42697637795276
 10
17.51029527559055
 20
10.43183464566929
 10
17.50696456692913
 20
10.43685039370079
 10
17.50378346456693
 20
10.4420157480315
 10
17.50075590551181
 20
10.44733464566929
 10
17.49787795275591
 20
10.45280708661417
 10
17.49515748031496
 20
10.45842913385827
 10
17.49258661417323
 20
10.46420472440945
 10
17.49016929133858
 20
10.47013385826772
 10
17.48576771653543
 20
10.48222047244094
 10
17.48192519685039
 20
10.49445669291339
 10
17.47864566929134
 20
10.50685039370079
 10
17.47592125984252
 20
10.5193937007874
 10
17.47365748031496
 20
10.53191338582677
 10
17.47174803149606
 20
10.54423228346457
 10
17.4701968503937
 20
10.55634251968504
 10
17.469
 20
10.56824803149606
 10
17.46811023622047
 20
10.58051181102362
 10
17.46747637795276
 20
10.59367716535433
 10
17.4670905511811
 20
10.60773622047244
 10
17.46696456692914
 20
10.62266929133858
 10
17.4671062992126
 20
10.63058267716535
 10
17.46752362204725
 20
10.63895275590551
 10
17.46822440944882
 20
10.6477874015748
 10
17.46920472440945
 20
10.65708661417323
 10
17.47046456692913
 20
10.66684645669291
 10
17.47200393700787
 20
10.67707480314961
 10
17.47382283464567
 20
10.68777165354331
 10
17.47592125984252
 20
10.69893700787402
 10
17.47861811023622
 20
10.71133070866142
 10
17.48182677165354
 20
10.72366929133858
 10
17.48553937007874
 20
10.73596062992126
 10
17.48976377952756
 20
10.74820078740157
 10
17.49208661417323
 20
10.75422834645669
 10
17.49457480314961
 20
10.7601062992126
 10
17.49722440944882
 20
10.76583070866142
 10
17.50004330708661
 20
10.77140551181102
 10
17.50302755905512
 20
10.77682677165354
 10
17.50617322834646
 20
10.78209448818898
 10
17.50948818897638
 20
10.78720866141732
 10
17.51296850393701
 20
10.79216929133858
 10
17.51662204724409
 20
10.79693307086614
 10
17.52044881889764
 20
10.80145669291339
 10
17.52445669291339
 20
10.80573622047244
 10
17.52864566929134
 20
10.80977559055118
 10
17.53300787401575
 20
10.81357480314961
 10
17.53755118110236
 20
10.81712992125984
 10
17.54227165354331
 20
10.82044094488189
 10
17.54716929133858
 20
10.8235157480315
 10
17.55227165354331
 20
10.82628346456693
 10
17.55760236220473
 20
10.82868110236221
 10
17.56316141732283
 20
10.8307125984252
 10
17.56894881889764
 20
10.83237401574803
 10
17.57496850393701
 20
10.83366535433071
 10
17.58121653543307
 20
10.83458661417323
 10
17.58769291338583
 20
10.83514173228346
 10
17.59439763779528
 20
10.83532677165354
 10
17.60110236220472
 20
10.83513385826772
 10
17.60757480314961
 20
10.83456299212598
 10
17.61382283464567
 20
10.8336062992126
 10
17.61983858267716
 20
10.83227165354331
 10
17.62562598425197
 20
10.83055511811024
 10
17.63118503937008
 20
10.82845275590551
 10
17.6365157480315
 20
10.82597244094488
 10
17.64161811023622
 20
10.82311023622047
  0
LWPOLYLINE
  5
7C
330
1F
100
AcDbEntity
  8
Layer 1
 62
     7
100
AcDbPolyline
 90
       65
 70
     1
 43
0.0
 10
17.59724409448819
 20
10.32642125984252
 10
17.6210157480315
 20
10.32792913385827
 10
17.64327559055118
 20
10.33245275590551
 10
17.66401968503937
 20
10.33998818897638
 10
17.68324803149606
 20
10.35053937007874
 10
17.70096456692913
 20
10.36411023622047
 10
17.71716929133858
 20
10.38069291338583
 10
17.73185826771654
 20
10.40029133858268
 10
17.74503149606299
 20
10.42290551181102
 10
17.7542874015748
 20
10.44263779527559
 10
17.76230708661417
 20
10.46346456692913
 10
17.76909448818898
 20
10.48538582677165
 10
17.77464960629921
 20
10.50840157480315
 10
17.77896850393701
 20
10.53251181102362
 10
17.78205511811024
 20
10.5577125984252
 10
17.78390551181102
 20
10.58401181102362
 10
17.78452362204725
 20
10.61140157480315
 10
17.78390551181102
 20
10.63879527559055
 10
17.78205511811024
 20
10.66509448818898
 10
17.77896850393701
 20
10.69029921259843
 10
17.77464960629921
 20
10.71440551181102
 10
17.76909448818898
 20
10.73742125984252
 10
17.76230708661417
 20
10.75934251968504
 10
17.7542874015748
 20
10.78017322834646
 10
17.74503149606299
 20
10.79990551181102
 10
17.73185826771654
 20
10.82251968503937
 10
17.71716929133858
 20
10.84211811023622
 10
17.70096456692913
 20
10.85870078740157
 10
17.68324803149606
 20
10.87227165354331
 10
17.66401968503937
 20
10.88282283464567
 10
17.64327559055118
 20
10.89035826771654
 10
17.6210157480315
 20
10.89488188976378
 10
17.59724409448819
 20
10.89638976377953
 10
17.57347244094488
 20
10.89488188976378
 10
17.55121653543307
 20
10.89035826771654
 10
17.53047244094488
 20
10.88282283464567
 10
17.51124015748032
 20
10.87227165354331
 10
17.49352362204725
 20
10.85870078740157
 10
17.47732283464567
 20
10.84211811023622
 10
17.46263385826771
 20
10.82251968503937
 10
17.44945669291339
 20
10.79990551181102
 10
17.44020078740158
 20
10.78017322834646
 10
17.4321811023622
 20
10.75934251968504
 10
17.4253937007874
 20
10.73742125984252
 10
17.41983858267717
 20
10.71440551181102
 10
17.41551968503937
 20
10.69029921259843
 10
17.41243307086614
 20
10.66509448818898
 10
17.41058267716535
 20
10.63879527559055
 10
17.40996456692913
 20
10.61140157480315
 10
17.41058267716535
 20
10.58401181102362
 10
17.41243307086614
 20
10.5577125984252
 10
17.41551968503937
 20
10.53251181102362
 10
17.41983858267717
 20
10.50840157480315
 10
17.4253937007874
 20
10.48538582677165
 10
17.4321811023622
 20
10.46346456692913
 10
17.44020078740158
 20
10.44263779527559
 10
17.44945669291339
 20
10.42290551181102
 10
17.46263385826771
 20
10.40029133858268
 10
17.47732283464567
 20
10.38069291338583
 10
17.49352362204725
 20
10.36411023622047
 10
17.51124015748032
 20
10.35053937007874
 10
17.53047244094488
 20
10.33998818897638
 10
17.55121653543307
 20
10.33245275590551
 10
17.57347244094488
 20
10.32792913385827
 10
17.59724409448819
 20
10.32642125984252
  0
LWPOLYLINE
  5
7D
330
1F
100
AcDbEntity
  8
Layer 1
 62
     7
100
AcDbPolyline
 90
      137
 70
     1
 43
0.0
 10
18.11551574803149
 20
10.33985433070866
 10
18.12383464566929
 20
10.34358267716535
 10
18.13190157480315
 20
10.34764173228347
 10
18.1397125984252
 20
10.35203149606299
 10
18.14727165354331
 20
10.35674803149606
 10
18.15457480314961
 20
10.36179921259843
 10
18.16162204724409
 20
10.3671811023622
 10
18.16841338582677
 20
10.37288976377953
 10
18.17495275590551
 20
10.37893307086614
 10
18.18783464566929
 20
10.39259842519685
 10
18.199
 20
10.40702755905512
 10
18.20844881889764
 20
10.42222047244094
 10
18.21617716535433
 20
10.43817322834646
 10
18.22218897637795
 20
10.45488976377953
 10
18.2264842519685
 20
10.47237401574803
 10
18.22905905511811
 20
10.49061811023622
 10
18.22991732283464
 20
10.50962598425197
 10
18.22904724409449
 20
10.52864566929134
 10
18.22643307086614
 20
10.54692913385827
 10
18.22207480314961
 20
10.56447244094488
 10
18.21597244094488
 20
10.58127952755905
 10
18.20812992125984
 20
10.59734645669291
 10
18.19854330708661
 20
10.61267716535433
 10
18.1872125984252
 20
10.62726771653543
 10
18.17413779527559
 20
10.64112204724409
 10
18.16062598425197
 20
10.65308267716535
 10
18.14625196850394
 20
10.66361811023622
 10
18.13101181102362
 20
10.67272834645669
 10
18.11490551181102
 20
10.68041338582677
 10
18.09793307086614
 20
10.68667322834646
 10
18.08009842519685
 20
10.69151181102362
 10
18.0613937007874
 20
10.69492125984252
 10
18.04182677165354
 20
10.69690551181102
 10
18.01739763779528
 20
10.68224409448819
 10
18.19083070866142
 20
10.88743700787402
 10
17.8928188976378
 20
10.88743700787402
 10
17.8928188976378
 20
10.83043700787402
 10
18.07520866141732
 20
10.83043700787402
 10
17.90747244094488
 20
10.6350157480315
 10
17.95062598425197
 20
10.60000393700787
 10
17.96062598425197
 20
10.60916535433071
 10
17.97108661417323
 20
10.61710236220472
 10
17.98200393700787
 20
10.62382283464567
 10
17.99337795275591
 20
10.62931889763779
 10
18.00520866141732
 20
10.63359448818898
 10
18.0175
 20
10.63664566929134
 10
18.03024803149606
 20
10.63848031496063
 10
18.04345275590551
 20
10.6390905511811
 10
18.05664173228346
 20
10.6385
 10
18.06933070866142
 20
10.63672440944882
 10
18.08152755905512
 20
10.63376771653543
 10
18.09322440944882
 20
10.62962598425197
 10
18.10442913385827
 20
10.6243031496063
 10
18.11513385826771
 20
10.61779527559055
 10
18.12534251968504
 20
10.61010236220472
 10
18.13505511811024
 20
10.60122834645669
 10
18.14392913385827
 20
10.59152755905512
 10
18.15162204724409
 20
10.58135433070866
 10
18.15812992125984
 20
10.5707125984252
 10
18.16345669291339
 20
10.55959842519685
 10
18.16759448818897
 20
10.5480157480315
 10
18.17055511811024
 20
10.53596062992126
 10
18.17233070866142
 20
10.52343700787402
 10
18.17292125984252
 20
10.51044094488189
 10
18.17231496062992
 20
10.49773228346457
 10
18.17050393700787
 20
10.48545275590551
 10
18.16748031496063
 20
10.47361023622047
 10
18.16325196850394
 20
10.4621968503937
 10
18.15781102362205
 20
10.45121653543307
 10
18.15116141732284
 20
10.44066929133858
 10
18.14330708661417
 20
10.43055118110236
 10
18.13424409448819
 20
10.42087007874016
 10
18.12977165354331
 20
10.41670472440945
 10
18.12511023622047
 20
10.41275590551181
 10
18.12025590551181
 20
10.40901968503937
 10
18.11520866141732
 20
10.40550393700787
 10
18.10997244094488
 20
10.40220078740158
 10
18.10454724409449
 20
10.39911811023622
 10
18.09892913385827
 20
10.39624803149606
 10
18.09312204724409
 20
10.39359448818898
 10
18.08706692913386
 20
10.39120866141732
 10
18.08070472440945
 20
10.38914173228346
 10
18.07403937007874
 20
10.38738976377953
 10
18.06706692913386
 20
10.38596062992126
 10
18.05979133858268
 20
10.38484645669291
 10
18.05220866141732
 20
10.38405118110236
 10
18.04432283464567
 20
10.38357086614173
 10
18.03612992125984
 20
10.38341338582677
 10
18.02778346456693
 20
10.38376377952756
 10
18.01943307086614
 20
10.38481496062992
 10
18.01108661417323
 20
10.38656299212598
 10
18.00274015748031
 20
10.38901181102362
 10
17.9943937007874
 20
10.39216141732283
 10
17.98605118110236
 20
10.39601181102362
 10
17.97770472440945
 20
10.40055905511811
 10
17.96935826771654
 20
10.40580708661417
 10
17.96131496062992
 20
10.41165354330709
 10
17.95388582677165
 20
10.41799606299213
 10
17.94706692913386
 20
10.42483464566929
 10
17.94085826771654
 20
10.43216929133858
 10
17.93525984251968
 20
10.44
 10
17.93027559055118
 20
10.44832677165354
 10
17.92589763779528
 20
10.45714960629921
 10
17.92212992125984
 20
10.46646850393701
 10
17.86675984251968
 20
10.44773622047244
 10
17.87202362204724
 20
10.43446850393701
 10
17.87823622047244
 20
10.42183464566929
 10
17.88540551181102
 20
10.40983858267717
 10
17.89353149606299
 20
10.39847637795276
 10
17.9026062992126
 20
10.38775196850394
 10
17.91263779527559
 20
10.37766535433071
 10
17.92362204724409
 20
10.3682125984252
 10
17.93556299212598
 20
10.3593937007874
 10
17.94143700787401
 20
10.35553149606299
 10
17.94744881889764
 20
10.35188582677165
 10
17.95359842519685
 20
10.34845669291339
 10
17.95988976377953
 20
10.34524803149606
 10
17.96632283464567
 20
10.34225196850394
 10
17.9728937007874
 20
10.33946850393701
 10
17.9796062992126
 20
10.33690551181102
 10
17.98645669291339
 20
10.33455905511811
 10
17.99347244094488
 20
10.33246062992126
 10
18.0006811023622
 20
10.33064173228346
 10
18.00807874015748
 20
10.32910236220472
 10
18.01566535433071
 20
10.32784251968504
 10
18.02344488188976
 20
10.32686614173228
 10
18.03141732283465
 20
10.32616535433071
 10
18.03957874015748
 20
10.32574409448819
 10
18.04793307086614
 20
10.3256062992126
 10
18.05638188976378
 20
10.32582677165354
 10
18.06482677165354
 20
10.32649606299213
 10
18.07327559055118
 20
10.32761023622047
 10
18.08172440944882
 20
10.32916535433071
 10
18.09016929133858
 20
10.33116929133858
 10
18.09861811023622
 20
10.33361811023622
 10
18.10706692913386
 20
10.33651181102362
 10
18.11551574803149
 20
10.33985433070866
  0
LWPOLYLINE
  5
7E
330
1F
100
AcDbEntity
  8
Layer 1
 62
     7
100
AcDbPolyline
 90
       67
 70
     1
 43
0.0
 10
18.53388188976378
 20
10.35322834645669
 10
18.52553543307087
 20
10.36924409448819
 10
18.51772440944882
 20
10.38549606299213
 10
18.51045275590551
 20
10.40197244094488
 10
18.50372047244095
 20
10.41868503937008
 10
18.49753149606299
 20
10.43562598425197
 10
18.49188188976378
 20
10.45279527559055
 10
18.48677952755905
 20
10.4701968503937
 10
18.48221653543307
 20
10.48783070866142
 10
18.47816141732283
 20
10.50573622047244
 10
18.47464960629921
 20
10.52388582677165
 10
18.4716811023622
 20
10.54227165354331
 10
18.46925590551181
 20
10.56090157480315
 10
18.46737007874016
 20
10.57977165354331
 10
18.46602755905512
 20
10.59888188976378
 10
18.46522047244094
 20
10.61823228346457
 10
18.46495275590551
 20
10.63782283464567
 10
18.46522047244094
 20
10.65838188976378
 10
18.46602362204725
 20
10.67857086614173
 10
18.46736220472441
 20
10.69838582677165
 10
18.46923228346457
 20
10.71783070866142
 10
18.47163385826772
 20
10.73690157480315
 10
18.47456299212599
 20
10.75559448818898
 10
18.47802755905512
 20
10.7739094488189
 10
18.4820157480315
 20
10.79185039370079
 10
18.48657874015748
 20
10.80948818897638
 10
18.49168503937008
 20
10.82683464566929
 10
18.49734251968504
 20
10.84388582677165
 10
18.50354724409449
 20
10.86064566929134
 10
18.5103031496063
 20
10.87711023622047
 10
18.51761023622047
 20
10.8932874015748
 10
18.52546850393701
 20
10.90917716535433
 10
18.53388188976378
 20
10.92477559055118
 10
18.58092519685039
 20
10.91057480314961
 10
18.57344488188976
 20
10.8951811023622
 10
18.56646062992126
 20
10.87962598425197
 10
18.55997637795275
 20
10.86389763779528
 10
18.55398818897638
 20
10.84800787401575
 10
18.54849606299213
 20
10.83194881889764
 10
18.54349606299213
 20
10.81572440944882
 10
18.53898818897638
 20
10.79933464566929
 10
18.53497244094488
 20
10.78277559055118
 10
18.53146456692913
 20
10.76593307086614
 10
18.52842519685039
 20
10.74875196850394
 10
18.52584645669291
 20
10.73123228346457
 10
18.52374015748032
 20
10.71336614173228
 10
18.52209448818898
 20
10.69515748031496
 10
18.52092125984252
 20
10.67659842519685
 10
18.52021653543307
 20
10.65768503937008
 10
18.51998031496063
 20
10.63841338582677
 10
18.5202125984252
 20
10.61828346456693
 10
18.52090551181102
 20
10.59864173228346
 10
18.52206692913386
 20
10.57948818897638
 10
18.52368897637795
 20
10.56083070866142
 10
18.52578346456693
 20
10.54265748031496
 10
18.52834251968504
 20
10.52497637795276
 10
18.53137007874016
 20
10.5077874015748
 10
18.53487007874016
 20
10.49108661417323
 10
18.53882677165354
 20
10.47474015748032
 10
18.54329921259842
 20
10.45868897637795
 10
18.5482874015748
 20
10.44293307086614
 10
18.55379133858268
 20
10.42746850393701
 10
18.55980708661417
 20
10.41229527559055
 10
18.56633464566929
 20
10.39741338582677
 10
18.57337401574803
 20
10.3828188976378
 10
18.58092519685039
 20
10.3685157480315
 10
18.53388188976378
 20
10.35322834645669
  0
LWPOLYLINE
  5
7F
330
1F
100
AcDbEntity
  8
Layer 1
 62
     7
100
AcDbPolyline
 90
      103
 70
     1
 43
0.0
 10
18.89164173228346
 20
10.53723622047244
 10
18.89164173228346
 20
10.4822125984252
 10
18.60823228346457
 20
10.4822125984252
 10
18.76640551181102
 20
10.67144488188976
 10
18.7735157480315
 20
10.68018503937008
 10
18.78012598425197
 20
10.68865748031496
 10
18.78624015748031
 20
10.69686220472441
 10
18.79185826771653
 20
10.70479921259843
 10
18.7969842519685
 20
10.71246850393701
 10
18.80161417322835
 20
10.71987007874016
 10
18.80575196850394
 20
10.72700393700787
 10
18.80940157480315
 20
10.73387007874016
 10
18.8125905511811
 20
10.74048818897638
 10
18.81535433070866
 20
10.74695669291339
 10
18.81769291338583
 20
10.75327952755906
 10
18.8196062992126
 20
10.75945275590551
 10
18.82109448818898
 20
10.76548031496063
 10
18.82215354330709
 20
10.77135826771654
 10
18.82279133858268
 20
10.7770905511811
 10
18.82300393700788
 20
10.78267322834646
 10
18.8227125984252
 20
10.79031102362205
 10
18.82183858267717
 20
10.79753543307087
 10
18.82038188976378
 20
10.80435039370079
 10
18.81834645669291
 20
10.81075590551181
 10
18.81572440944882
 20
10.81674015748031
 10
18.81251968503937
 20
10.82231102362205
 10
18.80873622047244
 20
10.82745669291339
 10
18.80436614173228
 20
10.83218503937008
 10
18.79948818897638
 20
10.83641338582677
 10
18.79418110236221
 20
10.84007874015748
 10
18.78844488188976
 20
10.84318110236221
 10
18.78227952755906
 20
10.84571653543307
 10
18.77568897637795
 20
10.84768897637795
 10
18.76867322834646
 20
10.84910236220473
 10
18.76124015748032
 20
10.84994488188976
 10
18.75338582677165
 20
10.85022834645669
 10
18.74629921259843
 20
10.84994488188976
 10
18.73953937007874
 20
10.84910236220473
 10
18.73309448818897
 20
10.84768897637795
 10
18.72697244094488
 20
10.84571653543307
 10
18.72116929133858
 20
10.84318110236221
 10
18.71568503937008
 20
10.84007874015748
 10
18.7105157480315
 20
10.83641338582677
 10
18.70566535433071
 20
10.83218503937008
 10
18.70122440944882
 20
10.82746456692913
 10
18.6973031496063
 20
10.82239763779527
 10
18.6938937007874
 20
10.81698031496063
 10
18.69100393700787
 20
10.8112125984252
 10
18.68862598425197
 20
10.8050905511811
 10
18.68675984251968
 20
10.7986062992126
 10
18.68540551181102
 20
10.79175984251969
 10
18.68455905511811
 20
10.78454724409449
 10
18.61829527559055
 20
10.78454724409449
 10
18.61888976377953
 20
10.79842519685039
 10
18.62068110236221
 20
10.81158267716535
 10
18.62366141732284
 20
10.82401968503937
 10
18.62783464566929
 20
10.83574015748031
 10
18.63320078740157
 20
10.84674409448819
 10
18.63975590551181
 20
10.85703543307087
 10
18.64750787401575
 20
10.86661023622047
 10
18.65645275590551
 20
10.87547244094488
 10
18.66640157480315
 20
10.88341338582677
 10
18.67716535433071
 20
10.89029921259842
 10
18.68874803149606
 20
10.89612992125984
 10
18.70114960629921
 20
10.90090157480315
 10
18.71437401574803
 20
10.90461417322835
 10
18.72842125984252
 20
10.90726771653543
 10
18.74329921259843
 20
10.90885826771654
 10
18.75900393700788
 20
10.90938976377953
 10
18.77391338582677
 20
10.90890157480315
 10
18.7880157480315
 20
10.90742913385827
 10
18.80131102362205
 20
10.90497637795276
 10
18.81379921259843
 20
10.90153937007874
 10
18.82547637795276
 20
10.89711811023622
 10
18.83634251968504
 20
10.8917125984252
 10
18.84640157480315
 20
10.88532283464567
 10
18.85564566929134
 20
10.87794094488189
 10
18.86393307086614
 20
10.86970472440945
 10
18.87112204724409
 20
10.86075984251969
 10
18.87720472440945
 20
10.85110236220472
 10
18.88218503937008
 20
10.84073622047244
 10
18.88605905511811
 20
10.82965354330709
 10
18.88883070866142
 20
10.81786220472441
 10
18.89049212598425
 20
10.80535826771654
 10
18.89104724409449
 20
10.79214173228346
 10
18.89072834645669
 20
10.78247637795276
 10
18.88977165354331
 20
10.7727874015748
 10
18.8881811023622
 20
10.76306692913386
 10
18.88595669291339
 20
10.7533188976378
 10
18.88309842519685
 20
10.74353937007874
 10
18.8796062992126
 20
10.73373622047244
 10
18.8754842519685
 20
10.72390551181102
 10
18.87073622047244
 20
10.71404724409449
 10
18.86492519685039
 20
10.70364960629921
 10
18.8576968503937
 20
10.69213385826772
 10
18.84905511811024
 20
10.6795
 10
18.83899606299213
 20
10.66575196850394
 10
18.82751574803149
 20
10.65088188976378
 10
18.81461417322835
 20
10.6348937007874
 10
18.80029527559055
 20
10.61778346456693
 10
18.78455118110236
 20
10.59955905511811
 10
18.73080708661417
 20
10.53723622047244
 10
18.89164173228346
 20
10.53723622047244
  0
LWPOLYLINE
  5
80
330
1F
100
AcDbEntity
  8
Layer 1
 62
     7
100
AcDbPolyline
 90
      128
 70
     1
 43
0.0
 10
19.02131102362205
 20
10.58328346456693
 10
19.02513779527559
 20
10.5766811023622
 10
19.02922440944882
 20
10.57047637795276
 10
19.03357086614173
 20
10.56466929133858
 10
19.03817322834646
 20
10.55926377952756
 10
19.04303543307087
 20
10.55425984251968
 10
19.04815748031496
 20
10.54965748031496
 10
19.05353937007874
 20
10.54546062992126
 10
19.05917716535433
 20
10.54166929133858
 10
19.06506299212598
 20
10.53827559055118
 10
19.07110236220472
 20
10.53533070866142
 10
19.0773031496063
 20
10.53283858267717
 10
19.08365748031496
 20
10.5308031496063
 10
19.09017322834646
 20
10.52921653543307
 10
19.09684251968504
 20
10.52808267716535
 10
19.10366929133858
 20
10.52740551181102
 10
19.11065354330709
 20
10.52717716535433
 10
19.12090157480315
 20
10.52759448818898
 10
19.13064173228346
 20
10.52884251968504
 10
19.13988188976378
 20
10.53092519685039
 10
19.14861811023622
 20
10.53384645669291
 10
19.15685433070866
 20
10.53760236220472
 10
19.16459448818897
 20
10.54219291338583
 10
19.17184251968504
 20
10.54762598425197
 10
19.17859448818898
 20
10.55389763779528
 10
19.1846968503937
 20
10.56085433070866
 10
19.1899842519685
 20
10.56834251968504
 10
19.19446062992126
 20
10.57635433070866
 10
19.19812204724409
 20
10.58488976377953
 10
19.20096850393701
 20
10.59395275590551
 10
19.20300393700787
 20
10.60354724409449
 10
19.20422440944882
 20
10.61366141732283
 10
19.20462992125984
 20
10.62430708661417
 10
19.20420472440945
 20
10.63456299212598
 10
19.20292913385827
 20
10.6443188976378
 10
19.20079921259843
 20
10.65357874015748
 10
19.19781496062992
 20
10.66235039370079
 10
19.19397637795275
 20
10.67062598425197
 10
19.18927952755906
 20
10.67841732283465
 10
19.18372834645669
 20
10.68572440944882
 10
19.17731496062992
 20
10.69254724409449
 10
19.1702125984252
 20
10.69872047244094
 10
19.16257874015748
 20
10.70406692913386
 10
19.15442125984252
 20
10.7085905511811
 10
19.14573622047244
 20
10.71229527559055
 10
19.13652362204724
 20
10.71517322834646
 10
19.12678346456693
 20
10.71722834645669
 10
19.1165157480315
 20
10.71846456692913
 10
19.10572440944882
 20
10.71887401574803
 10
19.09912992125984
 20
10.71873228346457
 10
19.09266535433071
 20
10.7183031496063
 10
19.08632677165354
 20
10.7175905511811
 10
19.08011023622047
 20
10.71659448818898
 10
19.07401181102362
 20
10.71531496062992
 10
19.06803149606299
 20
10.71375590551181
 10
19.06216929133858
 20
10.71191732283465
 10
19.05641732283464
 20
10.70979921259842
 10
19.05084251968504
 20
10.70737401574803
 10
19.04543307086614
 20
10.70467716535433
 10
19.04018897637795
 20
10.70170866141732
 10
19.0351062992126
 20
10.69846062992126
 10
19.03018503937008
 20
10.69493700787402
 10
19.02542519685039
 20
10.69113385826772
 10
19.02082283464567
 20
10.68705118110236
 10
19.01637795275591
 20
10.6826811023622
 10
18.99932283464567
 20
10.68653149606299
 10
19.05197637795276
 20
10.9011062992126
 10
19.25186614173228
 20
10.9011062992126
 10
19.25186614173228
 20
10.84549212598425
 10
19.09329921259842
 20
10.84549212598425
 10
19.06844881889764
 20
10.75211023622047
 10
19.07704330708662
 20
10.75544094488189
 10
19.08550787401575
 20
10.75832283464567
 10
19.09382677165354
 20
10.76076377952756
 10
19.10197637795276
 20
10.76275590551181
 10
19.11003937007874
 20
10.76425196850394
 10
19.11811417322835
 20
10.76533464566929
 10
19.12620078740158
 20
10.76599212598425
 10
19.13431889763779
 20
10.7662125984252
 10
19.14905511811024
 20
10.7656062992126
 10
19.16308661417323
 20
10.76379133858268
 10
19.17641338582677
 20
10.76075984251968
 10
19.18903543307087
 20
10.75651968503937
 10
19.20094881889764
 20
10.75107086614173
 10
19.21215748031496
 20
10.7444094488189
 10
19.22265354330709
 20
10.73653937007874
 10
19.23243700787402
 20
10.72745669291339
 10
19.24131102362205
 20
10.71743307086614
 10
19.24900393700787
 20
10.70667322834646
 10
19.25551181102362
 20
10.69517716535433
 10
19.26083858267717
 20
10.68294488188976
 10
19.26497637795276
 20
10.66998031496063
 10
19.26793700787401
 20
10.65627559055118
 10
19.2697125984252
 20
10.64184251968504
 10
19.2703031496063
 20
10.62667716535433
 10
19.26961417322835
 20
10.60937007874016
 10
19.26754724409449
 20
10.59295275590551
 10
19.26409842519685
 20
10.57742913385827
 10
19.25927165354331
 20
10.56279921259843
 10
19.25305905511811
 20
10.54906692913386
 10
19.24546456692913
 20
10.53623228346457
 10
19.23648818897638
 20
10.52429921259843
 10
19.22612204724409
 20
10.51327165354331
 10
19.21459842519685
 20
10.50335826771654
 10
19.20214173228347
 20
10.49476377952756
 10
19.18874803149606
 20
10.48749606299213
 10
19.17441732283465
 20
10.48154724409449
 10
19.15914566929134
 20
10.47692125984252
 10
19.14293700787401
 20
10.47361417322835
 10
19.12578346456693
 20
10.47163385826772
 10
19.10768897637795
 20
10.47097244094488
 10
19.09688976377953
 20
10.47120866141732
 10
19.08644881889764
 20
10.47191732283465
 10
19.07636614173228
 20
10.47309842519685
 10
19.06664566929134
 20
10.47475590551181
 10
19.0572874015748
 20
10.47688976377953
 10
19.0482874015748
 20
10.47949606299213
 10
19.03964960629921
 20
10.48258661417323
 10
19.03137007874016
 20
10.48615354330709
 10
19.02344488188976
 20
10.49018503937008
 10
19.0157874015748
 20
10.49473622047244
 10
19.00840157480315
 20
10.49980708661417
 10
19.00129527559055
 20
10.50539763779528
 10
18.99446456692914
 20
10.51151181102362
 10
18.98791338582677
 20
10.51814566929134
 10
18.98164173228346
 20
10.52530708661417
 10
18.97565748031496
 20
10.53299212598425
 10
19.02131102362205
 20
10.58328346456693
  0
LWPOLYLINE
  5
81
330
1F
100
AcDbEntity
  8
Layer 1
 62
     7
100
AcDbPolyline
 90
       65
 70
     1
 43
0.0
 10
19.64127559055118
 20
10.68584645669291
 10
19.64064173228347
 20
10.66134251968504
 10
19.63874015748031
 20
10.6381968503937
 10
19.63557086614173
 20
10.61641338582677
 10
19.63112992125984
 20
10.59599606299213
 10
19.62541732283465
 20
10.57694094488189
 10
19.61843307086614
 20
10.55924803149606
 10
19.61017322834646
 20
10.54292519685039
 10
19.60064173228346
 20
10.52796456692913
 10
19.59003543307087
 20
10.51461811023622
 10
19.57847637795276
 20
10.50304330708661
 10
19.56596456692913
 20
10.49324803149606
 10
19.5525
 20
10.48523228346457
 10
19.53808267716536
 20
10.47899606299213
 10
19.5227125984252
 20
10.47453937007874
 10
19.5063937007874
 20
10.47186614173228
 10
19.48912204724409
 20
10.47097244094488
 10
19.47161811023622
 20
10.47187401574803
 10
19.45511811023622
 20
10.47457480314961
 10
19.43962598425197
 20
10.47907874015748
 10
19.42513385826772
 20
10.48538188976378
 10
19.41164960629921
 20
10.49348031496063
 10
19.39916141732283
 20
10.5033779527559
 10
19.38767716535433
 20
10.51507086614173
 10
19.37719291338583
 20
10.52855905511811
 10
19.36779921259842
 20
10.54370866141732
 10
19.35966535433071
 20
10.56030708661417
 10
19.35278346456693
 20
10.57836220472441
 10
19.34715748031496
 20
10.59787007874016
 10
19.34278346456693
 20
10.61883464566929
 10
19.33965748031496
 20
10.64125590551181
 10
19.3377874015748
 20
10.66513385826772
 10
19.33716141732284
 20
10.69047637795276
 10
19.33779527559055
 20
10.71561417322835
 10
19.33969291338583
 20
10.73932677165354
 10
19.34285433070866
 20
10.76161023622047
 10
19.34727952755906
 20
10.78246850393701
 10
19.35296850393701
 20
10.80189763779528
 10
19.35991732283465
 20
10.81989763779528
 10
19.36812598425197
 20
10.83646850393701
 10
19.3775905511811
 20
10.85160236220472
 10
19.3881811023622
 20
10.86515748031496
 10
19.39975984251969
 20
10.87690157480315
 10
19.41232283464567
 20
10.88683464566929
 10
19.42587401574803
 20
10.89495669291339
 10
19.44040551181102
 20
10.90127165354331
 10
19.45592519685039
 20
10.90578346456693
 10
19.47242125984252
 20
10.90848818897638
 10
19.48990157480315
 20
10.90938976377953
 10
19.50757480314961
 20
10.9084842519685
 10
19.52420472440945
 20
10.90576771653543
 10
19.5397874015748
 20
10.90124015748031
 10
19.55432283464567
 20
10.89490551181102
 10
19.56781496062992
 20
10.88676377952756
 10
19.58026377952756
 20
10.8768188976378
 10
19.59166929133858
 20
10.86506299212598
 10
19.60202755905512
 20
10.85150787401575
 10
19.61121653543307
 20
10.83623622047244
 10
19.61918503937008
 20
10.8194094488189
 10
19.62592913385827
 20
10.80103149606299
 10
19.63144881889764
 20
10.78109842519685
 10
19.63574803149606
 20
10.75961417322835
 10
19.63881889763779
 20
10.73657874015748
 10
19.64066141732284
 20
10.71198818897638
 10
19.64127559055118
 20
10.68584645669291
  0
LWPOLYLINE
  5
82
330
1F
100
AcDbEntity
  8
Layer 1
 62
     7
100
AcDbPolyline
 90
       65
 70
     1
 43
0.0
 10
19.48793700787402
 20
10.53012992125984
 10
19.49815354330709
 20
10.53075984251969
 10
19.50771653543307
 20
10.53264566929134
 10
19.51662992125984
 20
10.53579527559055
 10
19.52488976377953
 20
10.54020078740158
 10
19.53249212598425
 20
10.54587007874016
 10
19.53943700787402
 20
10.5528031496063
 10
19.54572047244094
 20
10.56100393700787
 10
19.55133858267716
 20
10.57046456692913
 10
19.55633070866142
 20
10.58115354330709
 10
19.56066141732283
 20
10.59309448818898
 10
19.56432283464567
 20
10.60629527559055
 10
19.56731889763779
 20
10.62074803149606
 10
19.56964566929134
 20
10.63644881889764
 10
19.57131102362205
 20
10.65340551181102
 10
19.57230708661417
 20
10.67161417322835
 10
19.57264173228346
 20
10.69107086614173
 10
19.57231496062992
 20
10.70998031496063
 10
19.57132677165354
 20
10.72773228346457
 10
19.56968897637795
 20
10.74432677165354
 10
19.56738976377953
 20
10.75975984251968
 10
19.56443700787402
 20
10.77403543307087
 10
19.56082677165354
 20
10.78714960629921
 10
19.55656299212598
 20
10.79910236220472
 10
19.55164173228346
 20
10.8098937007874
 10
19.54611811023622
 20
10.81949606299213
 10
19.53999212598425
 20
10.82781496062992
 10
19.53325590551181
 20
10.83485039370079
 10
19.52591338582677
 20
10.84060236220472
 10
19.51796456692913
 20
10.84507480314961
 10
19.5094094488189
 20
10.84826771653543
 10
19.50025590551181
 20
10.85018503937008
 10
19.49049606299213
 20
10.85082283464567
 10
19.48035039370079
 20
10.85018503937008
 10
19.47084645669291
 20
10.84827165354331
 10
19.46197637795276
 20
10.84508661417323
 10
19.45374409448819
 20
10.84062992125984
 10
19.44614960629921
 20
10.83489763779528
 10
19.43919291338583
 20
10.82789763779528
 10
19.43287401574803
 20
10.81962992125984
 10
19.42719291338583
 20
10.81009448818898
 10
19.42216535433071
 20
10.79928346456693
 10
19.41781496062992
 20
10.78727165354331
 10
19.41413385826772
 20
10.77405905511811
 10
19.41112992125984
 20
10.75963779527559
 10
19.40879133858268
 20
10.74401181102362
 10
19.40712204724409
 20
10.72717716535433
 10
19.40612598425197
 20
10.70913385826772
 10
19.40579133858268
 20
10.68988188976378
 10
19.40612598425197
 20
10.67117322834646
 10
19.40712204724409
 20
10.65357086614173
 10
19.4087874015748
 20
10.63708661417323
 10
19.41111417322834
 20
10.62172047244094
 10
19.41411023622047
 20
10.60746850393701
 10
19.41777165354331
 20
10.59433858267717
 10
19.42209842519685
 20
10.58233464566929
 10
19.4270905511811
 20
10.57145275590551
 10
19.43266929133858
 20
10.56177952755906
 10
19.43883070866142
 20
10.55338976377953
 10
19.44557086614173
 20
10.5462874015748
 10
19.45288976377953
 20
10.54047637795276
 10
19.4607874015748
 20
10.53594881889764
 10
19.46925984251968
 20
10.53271653543307
 10
19.47831102362205
 20
10.53077559055118
 10
19.48793700787402
 20
10.53012992125984
  0
LWPOLYLINE
  5
83
330
1F
100
AcDbEntity
  8
Layer 1
 62
     7
100
AcDbPolyline
 90
      157
 70
     1
 43
0.0
 10
19.77380708661417
 20
10.4822125984252
 10
19.7110905511811
 20
10.4822125984252
 10
19.7110905511811
 20
10.75614960629921
 10
19.77005511811024
 20
10.75614960629921
 10
19.77005511811024
 20
10.71118503937008
 10
19.77483070866142
 20
10.71811811023622
 10
19.77976377952756
 20
10.72456692913386
 10
19.78485433070866
 20
10.73053543307087
 10
19.79010236220472
 20
10.73601968503937
 10
19.79550393700787
 20
10.74101968503937
 10
19.80106299212598
 20
10.74553149606299
 10
19.80677952755905
 20
10.74955511811024
 10
19.81265354330709
 20
10.7530905511811
 10
19.81874409448819
 20
10.75617322834646
 10
19.82509842519685
 20
10.75884645669291
 10
19.83172440944882
 20
10.76110236220472
 10
19.83861811023622
 20
10.76294488188976
 10
19.84577559055118
 20
10.76437401574803
 10
19.85320472440945
 20
10.76539763779528
 10
19.86090157480315
 20
10.76600787401575
 10
19.86886614173228
 20
10.7662125984252
 10
19.87672047244094
 20
10.76600393700787
 10
19.88422834645669
 20
10.76537795275591
 10
19.8913937007874
 20
10.76433464566929
 10
19.89821653543307
 20
10.76287007874016
 10
19.90468897637795
 20
10.7609842519685
 10
19.91081496062992
 20
10.75867716535433
 10
19.91659448818898
 20
10.75594881889764
 10
19.92201968503937
 20
10.75279921259843
 10
19.92714566929134
 20
10.7492125984252
 10
19.93194881889764
 20
10.74518503937008
 10
19.93643307086614
 20
10.7407125984252
 10
19.94059448818898
 20
10.7358031496063
 10
19.94443700787401
 20
10.73045275590551
 10
19.94796062992126
 20
10.72466535433071
 10
19.95116929133858
 20
10.71843700787402
 10
19.95406299212598
 20
10.71177559055118
 10
19.95953937007874
 20
10.71863385826772
 10
19.96510236220472
 20
10.72501181102362
 10
19.97074803149606
 20
10.7309094488189
 10
19.97647637795276
 20
10.73633070866142
 10
19.9822874015748
 20
10.74126771653543
 10
19.98817716535433
 20
10.74572440944882
 10
19.99415354330709
 20
10.7496968503937
 10
20.0002125984252
 20
10.75319291338583
 10
20.00642125984252
 20
10.75624409448819
 10
20.01284251968504
 20
10.75888976377953
 10
20.01947637795276
 20
10.76112598425197
 10
20.02632283464567
 20
10.76295669291339
 10
20.03337795275591
 20
10.76438188976378
 10
20.04064960629921
 20
10.76539763779528
 10
20.04813385826772
 20
10.76600787401575
 10
20.05583070866142
 20
10.7662125984252
 10
20.06249212598425
 20
10.76605511811024
 10
20.06894094488189
 20
10.76558661417323
 10
20.07517716535433
 20
10.7648031496063
 10
20.08120078740157
 20
10.76370866141732
 10
20.08701181102362
 20
10.76230708661417
 10
20.09261023622047
 20
10.76059448818898
 10
20.09799606299213
 20
10.75857480314961
 10
20.10316929133858
 20
10.75625196850394
 10
20.1080905511811
 20
10.75359842519685
 10
20.11272834645669
 20
10.75066535433071
 10
20.11707874015748
 20
10.74745275590551
 10
20.12114960629921
 20
10.74396062992126
 10
20.12493700787402
 20
10.74018503937008
 10
20.12844488188976
 20
10.73612598425197
 10
20.13166929133858
 20
10.7317874015748
 10
20.13461811023622
 20
10.72715748031496
 10
20.13709842519685
 20
10.72248818897638
 10
20.13920866141732
 20
10.71735039370079
 10
20.14094488188976
 20
10.71177165354331
 10
20.14231496062992
 20
10.70576377952756
 10
20.1434094488189
 20
10.69888582677165
 10
20.14417716535433
 20
10.69067716535433
 10
20.14463385826772
 20
10.68113385826772
 10
20.14478346456693
 20
10.67025984251969
 10
20.14478346456693
 20
10.64827165354331
 10
20.14478346456693
 20
10.4822125984252
 10
20.08206692913386
 20
10.4822125984252
 10
20.08206692913386
 20
10.62282677165354
 10
20.08188188976378
 20
10.63603149606299
 10
20.08133070866142
 20
10.64806299212598
 10
20.0804094488189
 20
10.65892125984252
 10
20.07912204724409
 20
10.66859842519685
 10
20.07746850393701
 20
10.67709448818898
 10
20.07544881889764
 20
10.68441338582677
 10
20.07307086614173
 20
10.69055118110236
 10
20.07032677165354
 20
10.69550393700787
 10
20.06711811023622
 20
10.69959842519685
 10
20.06333858267717
 20
10.70314173228346
 10
20.05898031496063
 20
10.70614566929134
 10
20.05405511811023
 20
10.70859842519685
 10
20.04855118110236
 20
10.71050787401575
 10
20.04248031496063
 20
10.71187401574803
 10
20.03583070866142
 20
10.71269291338583
 10
20.02861023622047
 20
10.71296456692913
 10
20.01970078740158
 20
10.71259448818898
 10
20.01145275590551
 20
10.71148818897638
 10
20.00387401574803
 20
10.70964173228347
 10
19.99696062992126
 20
10.70705905511811
 10
19.9907125984252
 20
10.70374409448819
 10
19.98512992125984
 20
10.69969291338583
 10
19.98020866141732
 20
10.6949094488189
 10
19.97595669291339
 20
10.6893937007874
 10
19.97224803149606
 20
10.68296062992126
 10
19.96903937007874
 20
10.67541732283465
 10
19.96632677165355
 20
10.66676771653543
 10
19.96411417322835
 20
10.65701181102362
 10
19.96238976377953
 20
10.64614960629921
 10
19.96116141732283
 20
10.63418897637795
 10
19.96042519685039
 20
10.62112204724409
 10
19.96018110236221
 20
10.60695669291339
 10
19.96018110236221
 20
10.4822125984252
 10
19.89687007874016
 20
10.4822125984252
 10
19.89687007874016
 20
10.62282677165354
 10
19.8966811023622
 20
10.63505905511811
 10
19.89611023622047
 20
10.64631102362205
 10
19.89516141732284
 20
10.65658661417323
 10
19.89382677165354
 20
10.66588582677165
 10
19.89211023622047
 20
10.67420866141732
 10
19.89000787401575
 20
10.68155511811024
 10
19.88751968503937
 20
10.68793307086614
 10
19.88464173228347
 20
10.69333858267717
 10
19.88129133858268
 20
10.69794488188976
 10
19.87737795275591
 20
10.70193700787402
 10
19.87290551181102
 20
10.70531102362205
 10
19.8678779527559
 20
10.70806692913386
 10
19.86229527559055
 20
10.7102125984252
 10
19.85616141732283
 20
10.71174015748032
 10
19.84947244094488
 20
10.71265748031496
 10
19.84224015748032
 20
10.71296456692913
 10
19.83766929133858
 20
10.71283464566929
 10
19.83320078740158
 20
10.71244488188976
 10
19.82883070866142
 20
10.71179133858268
 10
19.82456299212598
 20
10.71087795275591
 10
19.82039763779527
 20
10.70970078740157
 10
19.81633464566929
 20
10.70825590551181
 10
19.81237007874016
 20
10.70655118110236
 10
19.80851181102362
 20
10.70457480314961
 10
19.80477165354331
 20
10.70237007874016
 10
19.80122834645669
 20
10.69997244094488
 10
19.79788976377953
 20
10.69738188976378
 10
19.79474803149606
 20
10.69459448818898
 10
19.79180708661417
 20
10.69161417322835
 10
19.78906299212598
 20
10.68843700787402
 10
19.7865157480315
 20
10.68506692913386
 10
19.78416141732284
 20
10.68150393700787
 10
19.78149606299213
 20
10.67643700787402
 10
19.77926377952756
 20
10.67085433070866
 10
19.77746456692913
 20
10.66475196850394
 10
19.77607874015748
 20
10.65813385826772
 10
19.77509448818898
 20
10.64972047244095
 10
19.77438582677165
 20
10.63838582677165
 10
19.77395275590551
 20
10.62413385826772
 10
19.77380708661417
 20
10.60695669291339
 10
19.77380708661417
 20
10.4822125984252
  0
LWPOLYLINE
  5
84
330
1F
100
AcDbEntity
  8
Layer 1
 62
     7
100
AcDbPolyline
 90
      157
 70
     1
 43
0.0
 10
20.2915157480315
 20
10.4822125984252
 10
20.22879921259842
 20
10.4822125984252
 10
20.22879921259842
 20
10.75614960629921
 10
20.28775984251968
 20
10.75614960629921
 10
20.28775984251968
 20
10.71118503937008
 10
20.29253937007874
 20
10.71811811023622
 10
20.29747244094488
 20
10.72456692913386
 10
20.30256299212598
 20
10.73053543307087
 10
20.30781102362205
 20
10.73601968503937
 10
20.3132125984252
 20
10.74101968503937
 10
20.31877165354331
 20
10.74553149606299
 10
20.32448818897638
 20
10.74955511811024
 10
20.33036220472441
 20
10.7530905511811
 10
20.33645275590551
 20
10.75617322834646
 10
20.34280708661417
 20
10.75884645669291
 10
20.34943307086614
 20
10.76110236220472
 10
20.35632283464567
 20
10.76294488188976
 10
20.3634842519685
 20
10.76437401574803
 10
20.37091338582677
 20
10.76539763779528
 10
20.37861023622047
 20
10.76600787401575
 10
20.38657480314961
 20
10.7662125984252
 10
20.39442913385827
 20
10.76600393700787
 10
20.40193700787401
 20
10.76537795275591
 10
20.40910236220472
 20
10.76433464566929
 10
20.4159251968504
 20
10.76287007874016
 10
20.42239763779527
 20
10.7609842519685
 10
20.42852362204724
 20
10.75867716535433
 10
20.4343031496063
 20
10.75594881889764
 10
20.43972834645669
 20
10.75279921259843
 10
20.44485433070866
 20
10.7492125984252
 10
20.44965748031496
 20
10.74518503937008
 10
20.45414173228346
 20
10.7407125984252
 10
20.4583031496063
 20
10.7358031496063
 10
20.46214566929134
 20
10.73045275590551
 10
20.46566929133858
 20
10.72466535433071
 10
20.46887795275591
 20
10.71843700787402
 10
20.47177165354331
 20
10.71177559055118
 10
20.47724803149606
 20
10.71863385826772
 10
20.48281102362205
 20
10.72501181102362
 10
20.48845275590551
 20
10.7309094488189
 10
20.49418110236221
 20
10.73633070866142
 10
20.49999212598425
 20
10.74126771653543
 10
20.50588582677165
 20
10.74572440944882
 10
20.51186220472441
 20
10.7496968503937
 10
20.51792125984252
 20
10.75319291338583
 10
20.52412992125984
 20
10.75624409448819
 10
20.53055118110236
 20
10.75888976377953
 10
20.53718503937008
 20
10.76112598425197
 10
20.54403149606299
 20
10.76295669291339
 10
20.55108661417323
 20
10.76438188976378
 10
20.55835826771654
 20
10.76539763779528
 10
20.56584251968504
 20
10.76600787401575
 10
20.57353937007874
 20
10.7662125984252
 10
20.58020078740158
 20
10.76605511811024
 10
20.58664566929134
 20
10.76558661417323
 10
20.59288188976378
 20
10.7648031496063
 10
20.59890551181102
 20
10.76370866141732
 10
20.60471653543307
 20
10.76230708661417
 10
20.61031496062992
 20
10.76059448818898
 10
20.61570472440945
 20
10.75857480314961
 10
20.6208779527559
 20
10.75625196850394
 10
20.62579921259843
 20
10.75359842519685
 10
20.63043307086614
 20
10.75066535433071
 10
20.6347874015748
 20
10.74745275590551
 10
20.63885433070866
 20
10.74396062992126
 10
20.64264173228347
 20
10.74018503937008
 10
20.64614960629921
 20
10.73612598425197
 10
20.64937795275591
 20
10.7317874015748
 10
20.65232677165355
 20
10.72715748031496
 10
20.65480708661417
 20
10.72248818897638
 10
20.65691338582677
 20
10.71735039370079
 10
20.65865354330709
 20
10.71177165354331
 10
20.66002362204724
 20
10.70576377952756
 10
20.66111811023622
 20
10.69888582677165
 10
20.66188582677165
 20
10.69067716535433
 10
20.66233858267717
 20
10.68113385826772
 10
20.66248818897638
 20
10.67025984251969
 10
20.66248818897638
 20
10.64827165354331
 10
20.66248818897638
 20
10.4822125984252
 10
20.59977165354331
 20
10.4822125984252
 10
20.59977165354331
 20
10.62282677165354
 10
20.59958661417323
 20
10.63603149606299
 10
20.59903543307087
 20
10.64806299212598
 10
20.59811417322835
 20
10.65892125984252
 10
20.59682677165354
 20
10.66859842519685
 10
20.59517322834646
 20
10.67709448818898
 10
20.59315748031496
 20
10.68441338582677
 10
20.59077952755905
 20
10.69055118110236
 10
20.58803543307087
 20
10.69550393700787
 10
20.58482677165354
 20
10.69959842519685
 10
20.58104724409449
 20
10.70314173228346
 10
20.57668897637795
 20
10.70614566929134
 10
20.57176377952756
 20
10.70859842519685
 10
20.56625984251968
 20
10.71050787401575
 10
20.56018897637795
 20
10.71187401574803
 10
20.55353937007874
 20
10.71269291338583
 10
20.5463188976378
 20
10.71296456692913
 10
20.53740551181102
 20
10.71259448818898
 10
20.52916141732284
 20
10.71148818897638
 10
20.52158267716536
 20
10.70964173228347
 10
20.51466929133858
 20
10.70705905511811
 10
20.50842125984252
 20
10.70374409448819
 10
20.50283858267716
 20
10.69969291338583
 10
20.49791732283465
 20
10.6949094488189
 10
20.49366535433071
 20
10.6893937007874
 10
20.48995669291338
 20
10.68296062992126
 10
20.48674803149606
 20
10.67541732283465
 10
20.48403543307086
 20
10.66676771653543
 10
20.48182283464567
 20
10.65701181102362
 10
20.48009842519685
 20
10.64614960629921
 10
20.47887007874016
 20
10.63418897637795
 10
20.47813385826772
 20
10.62112204724409
 10
20.47788976377953
 20
10.60695669291339
 10
20.47788976377953
 20
10.4822125984252
 10
20.41457874015748
 20
10.4822125984252
 10
20.41457874015748
 20
10.62282677165354
 10
20.41438976377953
 20
10.63505905511811
 10
20.4138188976378
 20
10.64631102362205
 10
20.41287007874016
 20
10.65658661417323
 10
20.41153543307087
 20
10.66588582677165
 10
20.40981889763779
 20
10.67420866141732
 10
20.40771653543307
 20
10.68155511811024
 10
20.40522834645669
 20
10.68793307086614
 10
20.40235039370079
 20
10.69333858267717
 10
20.399
 20
10.69794488188976
 10
20.39508661417323
 20
10.70193700787402
 10
20.39061417322835
 20
10.70531102362205
 10
20.38558661417323
 20
10.70806692913386
 10
20.38000393700787
 20
10.7102125984252
 10
20.37387007874016
 20
10.71174015748032
 10
20.36718110236221
 20
10.71265748031496
 10
20.35994881889764
 20
10.71296456692913
 10
20.35537795275591
 20
10.71283464566929
 10
20.3509094488189
 20
10.71244488188976
 10
20.34653937007874
 20
10.71179133858268
 10
20.34227165354331
 20
10.71087795275591
 10
20.3381062992126
 20
10.70970078740157
 10
20.33404330708661
 20
10.70825590551181
 10
20.33007874015748
 20
10.70655118110236
 10
20.32622047244094
 20
10.70457480314961
 10
20.32248031496063
 20
10.70237007874016
 10
20.31893700787402
 20
10.69997244094488
 10
20.31559842519685
 20
10.69738188976378
 10
20.31245669291339
 20
10.69459448818898
 10
20.3095157480315
 20
10.69161417322835
 10
20.30677165354331
 20
10.68843700787402
 10
20.30422440944882
 20
10.68506692913386
 10
20.30187007874016
 20
10.68150393700787
 10
20.29920472440945
 20
10.67643700787402
 10
20.29697244094488
 20
10.67085433070866
 10
20.29516929133858
 20
10.66475196850394
 10
20.29378346456693
 20
10.65813385826772
 10
20.2928031496063
 20
10.64972047244095
 10
20.29209448818898
 20
10.63838582677165
 10
20.29166141732284
 20
10.62413385826772
 10
20.2915157480315
 20
10.60695669291339
 10
20.2915157480315
 20
10.4822125984252
  0
LWPOLYLINE
  5
85
330
1F
100
AcDbEntity
  8
Layer 1
 62
     7
100
AcDbPolyline
 90
       67
 70
     1
 43
0.0
 10
20.76307480314961
 20
10.35322834645669
 10
20.71633070866142
 20
10.3685157480315
 10
20.72387795275591
 20
10.3828188976378
 10
20.73091732283465
 20
10.39741338582677
 10
20.73744488188976
 20
10.41229527559055
 10
20.74346062992126
 20
10.42746850393701
 10
20.74896456692914
 20
10.44293307086614
 10
20.75395275590551
 20
10.45868897637795
 10
20.75842519685039
 20
10.47474015748032
 10
20.76237795275591
 20
10.49108661417323
 10
20.7658779527559
 20
10.5077874015748
 10
20.76890551181102
 20
10.52497637795276
 10
20.77146456692913
 20
10.54265748031496
 10
20.77355905511811
 20
10.56083070866142
 10
20.7751811023622
 20
10.57948818897638
 10
20.77634251968504
 20
10.59864173228346
 10
20.77703543307087
 20
10.61828346456693
 10
20.77726771653543
 20
10.63841338582677
 10
20.77703543307087
 20
10.65768503937008
 10
20.77634251968504
 20
10.67659842519685
 10
20.7751811023622
 20
10.69515748031496
 10
20.77355905511811
 20
10.71336614173228
 10
20.77146456692913
 20
10.73123228346457
 10
20.76890551181102
 20
10.74875196850394
 10
20.7658779527559
 20
10.76593307086614
 10
20.76237795275591
 20
10.78277559055118
 10
20.75842519685039
 20
10.79933464566929
 10
20.75395275590551
 20
10.81572440944882
 10
20.74896456692914
 20
10.83194881889764
 10
20.74346062992126
 20
10.84800787401575
 10
20.73744488188976
 20
10.86389763779528
 10
20.73091732283465
 20
10.87962598425197
 10
20.72387795275591
 20
10.8951811023622
 10
20.71633070866142
 20
10.91057480314961
 10
20.76307480314961
 20
10.92477559055118
 10
20.77155511811024
 20
10.90917716535433
 10
20.77947637795275
 20
10.8932874015748
 10
20.78683070866142
 20
10.87711023622047
 10
20.79362992125984
 20
10.86064566929134
 10
20.79986614173228
 20
10.84388582677165
 10
20.80554724409449
 20
10.82683464566929
 10
20.81067322834646
 20
10.80948818897638
 10
20.81524015748031
 20
10.79185039370079
 10
20.81922440944882
 20
10.7739094488189
 10
20.82268503937008
 20
10.75559448818898
 10
20.82561417322835
 20
10.73690157480315
 10
20.8280157480315
 20
10.71783070866142
 10
20.82988582677165
 20
10.69838582677165
 10
20.83122440944882
 20
10.67857086614173
 10
20.83202755905512
 20
10.65838188976378
 10
20.83229527559055
 20
10.63782283464567
 10
20.83202755905512
 20
10.61823228346457
 10
20.83122047244094
 20
10.59888188976378
 10
20.8298779527559
 20
10.57977165354331
 10
20.82799212598425
 20
10.56090157480315
 10
20.82556692913386
 20
10.54227165354331
 10
20.82260236220472
 20
10.52388582677165
 10
20.81909448818898
 20
10.50573622047244
 10
20.81504330708661
 20
10.48783070866142
 10
20.81047244094488
 20
10.4701968503937
 10
20.80535039370079
 20
10.45279527559055
 10
20.79967716535433
 20
10.43562598425197
 10
20.79345669291338
 20
10.41868503937008
 10
20.78668110236221
 20
10.40197244094488
 10
20.77936220472441
 20
10.38549606299213
 10
20.77149212598425
 20
10.36924409448819
 10
20.76307480314961
 20
10.35322834645669
  0
ENDSEC
  0
SECTION
  2
OBJECTS
  0
DICTIONARY
  5
C
330
0
100
AcDbDictionary
281
     1
  3
ACAD_DETAILVIEWSTYLE
350
8D
  3
ACAD_GROUP
350
D
  3
ACAD_LAYOUT
350
1A
  3
ACAD_MATERIAL
350
43
  3
ACAD_MLEADERSTYLE
350
5B
  3
ACAD_MLINESTYLE
350
17
  3
ACAD_PLOTSETTINGS
350
19
  3
ACAD_PLOTSTYLENAME
350
E
  3
ACAD_SCALELIST
350
47
  3
ACAD_SECTIONVIEWSTYLE
350
8E
  3
ACAD_TABLESTYLE
350
59
  3
ACAD_VISUALSTYLE
350
2A
  3
ACDB_RECOMPOSE_DATA
350
8A
  3
AcDbVariableDictionary
350
86
  0
SUN
  5
5D
330
29
100
AcDbSun
 90
        1
290
     0
 63
     7
421
 16777215
 40
1.0
291
     1
 91
  2455826
 92
 54000000
292
     0
 70
     2
 71
   256
280
     1
  0
DICTIONARY
  5
8D
102
{ACAD_REACTORS
330
C
102
}
330
C
100
AcDbDictionary
281
     1
  0
DICTIONARY
  5
D
102
{ACAD_REACTORS
330
C
102
}
330
C
100
AcDbDictionary
281
     1
  0
DICTIONARY
  5
1A
102
{ACAD_REACTORS
330
C
102
}
330
C
100
AcDbDictionary
281
     1
  3
Layout1
350
1E
  3
Layout2
350
26
  3
Model
350
22
  0
DICTIONARY
  5
43
102
{ACAD_REACTORS
330
C
102
}
330
C
100
AcDbDictionary
281
     1
  3
ByBlock
350
45
  3
ByLayer
350
44
  3
Global
350
46
  0
DICTIONARY
  5
5B
102
{ACAD_REACTORS
330
C
102
}
330
C
100
AcDbDictionary
281
     1
  3
Standard
350
5C
  0
DICTIONARY
  5
17
102
{ACAD_REACTORS
330
C
102
}
330
C
100
AcDbDictionary
281
     1
  3
Standard
350
18
  0
DICTIONARY
  5
19
102
{ACAD_REACTORS
330
C
102
}
330
C
100
AcDbDictionary
281
     1
  0
ACDBDICTIONARYWDFLT
  5
E
102
{ACAD_REACTORS
330
C
102
}
330
C
100
AcDbDictionary
281
     1
  3
Normal
350
F
100
AcDbDictionaryWithDefault
340
F
  0
DICTIONARY
  5
47
102
{ACAD_REACTORS
330
C
102
}
330
C
100
AcDbDictionary
281
     1
  3
A0
350
48
  3
A1
350
49
  3
A2
350
4A
  3
A3
350
4B
  3
A4
350
4C
  3
A5
350
4D
  3
A6
350
4E
  3
A7
350
4F
  3
A8
350
50
  3
A9
350
51
  3
B1
350
52
  3
B2
350
53
  3
B3
350
54
  3
B4
350
55
  3
B5
350
56
  3
B6
350
57
  3
B7
350
58
  0
DICTIONARY
  5
8E
102
{ACAD_REACTORS
330
C
102
}
330
C
100
AcDbDictionary
281
     1
  0
DICTIONARY
  5
59
102
{ACAD_REACTORS
330
C
102
}
330
C
100
AcDbDictionary
281
     1
  3
Standard
350
5A
  0
DICTIONARY
  5
2A
102
{ACAD_REACTORS
330
C
102
}
330
C
100
AcDbDictionary
281
     1
  3
2dWireframe
350
2F
  3
Basic
350
32
  3
Brighten
350
36
  3
ColorChange
350
3A
  3
Conceptual
350
34
  3
Dim
350
35
  3
EdgeColorOff
350
3D
  3
Facepattern
350
39
  3
Flat
350
2B
  3
FlatWithEdges
350
2C
  3
Gouraud
350
2D
  3
GouraudWithEdges
350
2E
  3
Hidden
350
31
  3
JitterOff
350
3B
  3
Linepattern
350
38
  3
OverhangOff
350
3C
  3
Realistic
350
33
  3
Shaded
350
42
  3
Shaded with edges
350
41
  3
Shades of Gray
350
3E
  3
Sketchy
350
3F
  3
Thicken
350
37
  3
Wireframe
350
30
  3
X-Ray
350
40
  0
XRECORD
  5
8A
102
{ACAD_REACTORS
330
C
102
}
330
C
100
AcDbXrecord
280
     1
 90
        1
330
5A
  0
DICTIONARY
  5
86
102
{ACAD_REACTORS
330
C
102
}
330
C
100
AcDbDictionary
281
     1
  3
CANNOSCALE
350
87
  3
CMLEADERSTYLE
350
8C
  3
CTABLESTYLE
350
8B
  0
LAYOUT
  5
1E
102
{ACAD_REACTORS
330
1A
102
}
330
1A
100
AcDbPlotSettings
  1

  2
none_device
  4

  6

 40
0.0
 41
0.0
 42
0.0
 43
0.0
 44
0.0
 45
0.0
 46
0.0
 47
0.0
 48
0.0
 49
0.0
140
0.0
141
0.0
142
1.0
143
1.0
 70
   688
 72
     0
 73
     0
 74
     5
  7

 75
    16
 76
     0
 77
     2
 78
   300
147
1.0
148
0.0
149
0.0
100
AcDbLayout
  1
Layout1
 70
     1
 71
     1
 10
0.0
 20
0.0
 11
12.0
 21
9.0
 12
0.0
 22
0.0
 32
0.0
 14
1.000000000000000E+20
 24
1.000000000000000E+20
 34
1.000000000000000E+20
 15
-1.000000000000000E+20
 25
-1.000000000000000E+20
 35
-1.000000000000000E+20
146
0.0
 13
0.0
 23
0.0
 33
0.0
 16
1.0
 26
0.0
 36
0.0
 17
0.0
 27
1.0
 37
0.0
 76
     0
330
1B
  0
LAYOUT
  5
26
102
{ACAD_REACTORS
330
1A
102
}
330
1A
100
AcDbPlotSettings
  1

  2
none_device
  4

  6

 40
0.0
 41
0.0
 42
0.0
 43
0.0
 44
0.0
 45
0.0
 46
0.0
 47
0.0
 48
0.0
 49
0.0
140
0.0
141
0.0
142
1.0
143
1.0
 70
   688
 72
     0
 73
     0
 74
     5
  7

 75
    16
 76
     0
 77
     2
 78
   300
147
1.0
148
0.0
149
0.0
100
AcDbLayout
  1
Layout2
 70
     1
 71
     2
 10
0.0
 20
0.0
 11
0.0
 21
0.0
 12
0.0
 22
0.0
 32
0.0
 14
0.0
 24
0.0
 34
0.0
 15
0.0
 25
0.0
 35
0.0
146
0.0
 13
0.0
 23
0.0
 33
0.0
 16
1.0
 26
0.0
 36
0.0
 17
0.0
 27
1.0
 37
0.0
 76
     0
330
23
  0
LAYOUT
  5
22
102
{ACAD_REACTORS
330
1A
102
}
330
1A
100
AcDbPlotSettings
  1

  2
none_device
  4
Letter_(8.50_x_11.00_Inches)
  6

 40
6.35
 41
6.35
 42
6.35000508
 43
6.35000508
 44
215.9
 45
279.4
 46
0.0
 47
0.0
 48
0.0
 49
0.0
140
0.0
141
0.0
142
1.0
143
1.0
 70
  1712
 72
     0
 73
     0
 74
     0
  7

 75
     0
 76
     0
 77
     2
 78
   300
147
1.0
148
0.0
149
0.0
100
AcDbLayout
  1
Model
 70
     1
 71
     0
 10
0.0
 20
0.0
 11
12.0
 21
9.0
 12
0.0
 22
0.0
 32
0.0
 14
13.43624015748031
 24
-3.543854330708661
 34
0.0
 15
22.74263779527559
 25
11.60004724409449
 35
0.0
146
0.0
 13
0.0
 23
0.0
 33
0.0
 16
1.0
 26
0.0
 36
0.0
 17
0.0
 27
1.0
 37
0.0
 76
     0
330
1F
331
29
  0
MATERIAL
  5
45
102
{ACAD_REACTORS
330
43
102
}
330
43
100
AcDbMaterial
  1
ByBlock
 72
     1
 94
      127
  0
MATERIAL
  5
44
102
{ACAD_REACTORS
330
43
102
}
330
43
100
AcDbMaterial
  1
ByLayer
 72
     1
 94
      127
  0
MATERIAL
  5
46
102
{ACAD_REACTORS
330
43
102
}
330
43
100
AcDbMaterial
  1
Global
 72
     1
 94
      127
  0
MLEADERSTYLE
  5
5C
102
{ACAD_REACTORS
330
5B
102
}
330
5B
100
AcDbMLeaderStyle
179
     2
170
     2
171
     1
172
     0
 90
        2
 40
0.0
 41
0.0
173
     1
 91
-1056964608
340
14
 92
       -2
290
     1
 42
0.09
291
     1
 43
0.36
  3
Standard
341
0
 44
0.18
300

342
11
174
     1
178
     6
175
     1
176
     0
 93
-1056964608
 45
0.18
292
     0
297
     0
 46
0.18
343
0
 94
-1056964608
 47
1.0
 49
1.0
140
1.0
293
     1
141
0.0
294
     1
177
     0
142
1.0
295
     0
296
     0
143
0.125
271
     0
272
     9
273
     9
298
     0
  0
MLINESTYLE
  5
18
102
{ACAD_REACTORS
330
17
102
}
330
17
100
AcDbMlineStyle
  2
Standard
 70
     0
  3

 62
   256
 51
90.0
 52
90.0
 71
     2
 49
0.5
 62
   256
  6
BYLAYER
 49
-0.5
 62
   256
  6
BYLAYER
  0
ACDBPLACEHOLDER
  5
F
102
{ACAD_REACTORS
330
E
102
}
330
E
  0
SCALE
  5
48
102
{ACAD_REACTORS
330
47
102
}
330
47
100
AcDbScale
 70
     0
300
1:1
140
1.0
141
1.0
290
     1
  0
SCALE
  5
49
102
{ACAD_REACTORS
330
47
102
}
330
47
100
AcDbScale
 70
     0
300
1/128" = 1'-0"
140
0.0078125
141
12.0
290
     0
  0
SCALE
  5
4A
102
{ACAD_REACTORS
330
47
102
}
330
47
100
AcDbScale
 70
     0
300
1/64" = 1'-0"
140
0.015625
141
12.0
290
     0
  0
SCALE
  5
4B
102
{ACAD_REACTORS
330
47
102
}
330
47
100
AcDbScale
 70
     0
300
1/32" = 1'-0"
140
0.03125
141
12.0
290
     0
  0
SCALE
  5
4C
102
{ACAD_REACTORS
330
47
102
}
330
47
100
AcDbScale
 70
     0
300
1/16" = 1'-0"
140
0.0625
141
12.0
290
     0
  0
SCALE
  5
4D
102
{ACAD_REACTORS
330
47
102
}
330
47
100
AcDbScale
 70
     0
300
3/32" = 1'-0"
140
0.09375
141
12.0
290
     0
  0
SCALE
  5
4E
102
{ACAD_REACTORS
330
47
102
}
330
47
100
AcDbScale
 70
     0
300
1/8" = 1'-0"
140
0.125
141
12.0
290
     0
  0
SCALE
  5
4F
102
{ACAD_REACTORS
330
47
102
}
330
47
100
AcDbScale
 70
     0
300
3/16" = 1'-0"
140
0.1875
141
12.0
290
     0
  0
SCALE
  5
50
102
{ACAD_REACTORS
330
47
102
}
330
47
100
AcDbScale
 70
     0
300
1/4" = 1'-0"
140
0.25
141
12.0
290
     0
  0
SCALE
  5
51
102
{ACAD_REACTORS
330
47
102
}
330
47
100
AcDbScale
 70
     0
300
3/8" = 1'-0"
140
0.375
141
12.0
290
     0
  0
SCALE
  5
52
102
{ACAD_REACTORS
330
47
102
}
330
47
100
AcDbScale
 70
     0
300
1/2" = 1'-0"
140
0.5
141
12.0
290
     0
  0
SCALE
  5
53
102
{ACAD_REACTORS
330
47
102
}
330
47
100
AcDbScale
 70
     0
300
3/4" = 1'-0"
140
0.75
141
12.0
290
     0
  0
SCALE
  5
54
102
{ACAD_REACTORS
330
47
102
}
330
47
100
AcDbScale
 70
     0
300
1" = 1'-0"
140
1.0
141
12.0
290
     0
  0
SCALE
  5
55
102
{ACAD_REACTORS
330
47
102
}
330
47
100
AcDbScale
 70
     0
300
1-1/2" = 1'-0"
140
1.5
141
12.0
290
     0
  0
SCALE
  5
56
102
{ACAD_REACTORS
330
47
102
}
330
47
100
AcDbScale
 70
     0
300
3" = 1'-0"
140
3.0
141
12.0
290
     0
  0
SCALE
  5
57
102
{ACAD_REACTORS
330
47
102
}
330
47
100
AcDbScale
 70
     0
300
6" = 1'-0"
140
6.0
141
12.0
290
     0
  0
SCALE
  5
58
102
{ACAD_REACTORS
330
47
102
}
330
47
100
AcDbScale
 70
     0
300
1'-0" = 1'-0"
140
12.0
141
12.0
290
     0
  0
TABLESTYLE
  5
5A
102
{ACAD_REACTORS
330
59
102
}
102
{ACAD_XDICTIONARY
360
88
102
}
330
59
100
AcDbTableStyle
  3
Standard
 70
     0
 71
     0
 40
0.06
 41
0.06
280
     0
281
     0
  7
Standard
140
0.18
170
     2
 62
     0
 63
   257
283
     0
 90
        4
 91
        0
  1

274
    -2
284
     1
 64
     0
275
    -2
285
     1
 65
     0
276
    -2
286
     1
 66
     0
277
    -2
287
     1
 67
     0
278
    -2
288
     1
 68
     0
279
    -2
289
     1
 69
     0
  7
Standard
140
0.25
170
     5
 62
     0
 63
   257
283
     0
 90
        4
 91
        0
  1

274
    -2
284
     1
 64
     0
275
    -2
285
     1
 65
     0
276
    -2
286
     1
 66
     0
277
    -2
287
     1
 67
     0
278
    -2
288
     1
 68
     0
279
    -2
289
     1
 69
     0
  7
Standard
140
0.18
170
     5
 62
     0
 63
   257
283
     0
 90
        4
 91
        0
  1

274
    -2
284
     1
 64
     0
275
    -2
285
     1
 65
     0
276
    -2
286
     1
 66
     0
277
    -2
287
     1
 67
     0
278
    -2
288
     1
 68
     0
279
    -2
289
     1
 69
     0
  0
VISUALSTYLE
  5
2F
102
{ACAD_REACTORS
330
2A
102
}
330
2A
100
AcDbVisualStyle
  2
2dWireframe
 70
     4
177
     3
291
     0
 70
    58
 90
        0
176
     1
 90
        2
176
     1
 90
        0
176
     1
 90
        0
176
     1
 40
0.6
176
     1
 40
30.0
176
     1
 62
     7
420
 16777215
176
     1
 90
        1
176
     1
 90
        4
176
     1
 62
     7
176
     1
 62
   257
176
     1
 90
        1
176
     1
 90
        1
176
     1
 40
1.0
176
     1
 90
        0
176
     1
 62
   257
176
     1
 40
1.0
176
     1
 90
        1
176
     1
 90
        6
176
     1
 90
        2
176
     1
 62
     7
176
     1
 90
        5
176
     1
 90
        0
176
     1
 90
        0
176
     1
290
     0
176
     1
 90
        1
176
     1
 40
0.0
176
     1
 90
        0
176
     1
290
     1
176
     1
290
     1
176
     1
290
     0
176
     1
290
     0
176
     1
290
     0
176
     1
290
     0
176
     1
290
     0
176
     1
290
     0
176
     1
290
     0
176
     1
 90
       50
176
     1
 40
0.0
176
     1
 40
1.0
176
     1
 90
        0
176
     1
 62
    18
420
        0
176
     1
 90
       50
176
     1
 90
        3
176
     1
 62
     5
420
      255
176
     1
290
     0
176
     1
 90
       50
176
     1
 90
       50
176
     1
 90
       50
176
     1
290
     0
176
     1
 90
       50
176
     1
 62
   256
176
     0
 40
1.0
176
     0
 90
        2
176
     1
  1
strokes_ogs.tif
176
     1
290
     0
176
     1
 40
1.0
176
     1
 40
1.0
176
     1
  0
VISUALSTYLE
  5
32
102
{ACAD_REACTORS
330
2A
102
}
330
2A
100
AcDbVisualStyle
  2
Basic
 70
     7
177
     3
291
     1
 70
    58
 90
        1
176
     1
 90
        0
176
     1
 90
        1
176
     1
 90
        0
176
     1
 40
0.6
176
     1
 40
30.0
176
     1
 62
     7
420
 16777215
176
     1
 90
        0
176
     1
 90
        4
176
     1
 62
     7
176
     1
 62
   257
176
     1
 90
        1
176
     1
 90
        1
176
     1
 40
1.0
176
     1
 90
        8
176
     1
 62
     7
176
     1
 40
1.0
176
     1
 90
        1
176
     1
 90
        6
176
     1
 90
        2
176
     1
 62
     7
176
     1
 90
        5
176
     1
 90
        0
176
     1
 90
        0
176
     1
290
     0
176
     1
 90
        1
176
     1
 40
0.0
176
     1
 90
        0
176
     1
290
     0
176
     1
290
     1
176
     1
290
     1
176
     1
290
     0
176
     1
290
     0
176
     1
290
     0
176
     1
290
     0
176
     1
290
     0
176
     1
290
     0
176
     1
 90
       50
176
     1
 40
0.0
176
     1
 40
1.0
176
     1
 90
        0
176
     1
 62
    18
420
        0
176
     1
 90
       50
176
     1
 90
        3
176
     1
 62
     5
420
      255
176
     1
290
     0
176
     1
 90
       50
176
     1
 90
       50
176
     1
 90
       50
176
     1
290
     0
176
     1
 90
       50
176
     1
 62
   256
176
     0
 40
1.0
176
     0
 90
        2
176
     1
  1
strokes_ogs.tif
176
     1
290
     0
176
     1
 40
1.0
176
     1
 40
1.0
176
     1
  0
VISUALSTYLE
  5
36
102
{ACAD_REACTORS
330
2A
102
}
330
2A
100
AcDbVisualStyle
  2
Brighten
 70
    12
177
     3
291
     1
 70
    58
 90
        2
176
     1
 90
        2
176
     1
 90
        0
176
     1
 90
        0
176
     1
 40
0.6
176
     1
 40
30.0
176
     1
 62
     7
420
 16777215
176
     1
 90
        1
176
     1
 90
        4
176
     1
 62
     7
176
     1
 62
   257
176
     1
 90
        1
176
     1
 90
        1
176
     1
 40
1.0
176
     1
 90
        8
176
     1
 62
     7
176
     1
 40
1.0
176
     1
 90
        1
176
     1
 90
        6
176
     1
 90
        2
176
     1
 62
     7
176
     1
 90
        5
176
     1
 90
        0
176
     1
 90
        0
176
     1
290
     0
176
     1
 90
        1
176
     1
 40
50.0
176
     1
 90
        0
176
     1
290
     0
176
     1
290
     1
176
     1
290
     1
176
     1
290
     0
176
     1
290
     0
176
     1
290
     0
176
     1
290
     0
176
     1
290
     0
176
     1
290
     0
176
     1
 90
       50
176
     1
 40
0.0
176
     1
 40
1.0
176
     1
 90
        0
176
     1
 62
    18
420
        0
176
     1
 90
       50
176
     1
 90
        3
176
     1
 62
     5
420
      255
176
     1
290
     0
176
     1
 90
       50
176
     1
 90
       50
176
     1
 90
       50
176
     1
290
     0
176
     1
 90
       50
176
     1
 62
   256
176
     0
 40
1.0
176
     0
 90
        2
176
     1
  1
strokes_ogs.tif
176
     1
290
     0
176
     1
 40
1.0
176
     1
 40
1.0
176
     1
  0
VISUALSTYLE
  5
3A
102
{ACAD_REACTORS
330
2A
102
}
330
2A
100
AcDbVisualStyle
  2
ColorChange
 70
    16
177
     3
291
     1
 70
    58
 90
        2
176
     1
 90
        2
176
     1
 90
        3
176
     1
 90
        0
176
     1
 40
0.6
176
     1
 40
30.0
176
     1
 62
     8
420
  8421504
176
     1
 90
        1
176
     1
 90
        4
176
     1
 62
     7
176
     1
 62
   257
176
     1
 90
        1
176
     1
 90
        1
176
     1
 40
1.0
176
     1
 90
        8
176
     1
 62
     8
420
  8421504
176
     1
 40
1.0
176
     1
 90
        1
176
     1
 90
        6
176
     1
 90
        2
176
     1
 62
     7
176
     1
 90
        5
176
     1
 90
        0
176
     1
 90
        0
176
     1
290
     0
176
     1
 90
        1
176
     1
 40
0.0
176
     1
 90
        0
176
     1
290
     0
176
     1
290
     1
176
     1
290
     1
176
     1
290
     0
176
     1
290
     0
176
     1
290
     0
176
     1
290
     0
176
     1
290
     0
176
     1
290
     0
176
     1
 90
       50
176
     1
 40
0.0
176
     1
 40
1.0
176
     1
 90
        0
176
     1
 62
    18
420
        0
176
     1
 90
       50
176
     1
 90
        3
176
     1
 62
     5
420
      255
176
     1
290
     0
176
     1
 90
       50
176
     1
 90
       50
176
     1
 90
       50
176
     1
290
     0
176
     1
 90
       50
176
     1
 62
   256
176
     0
 40
1.0
176
     0
 90
        2
176
     1
  1
strokes_ogs.tif
176
     1
290
     0
176
     1
 40
1.0
176
     1
 40
1.0
176
     1
  0
VISUALSTYLE
  5
34
102
{ACAD_REACTORS
330
2A
102
}
330
2A
100
AcDbVisualStyle
  2
Conceptual
 70
     9
177
     3
291
     0
 70
    58
 90
        3
176
     1
 90
        2
176
     1
 90
        0
176
     1
 90
        0
176
     1
 40
0.6
176
     1
 40
30.0
176
     1
 62
     7
420
 16777215
176
     1
 90
        2
176
     1
 90
        2
176
     1
 62
     7
176
     1
 62
   257
176
     1
 90
        1
176
     1
 90
        1
176
     1
 40
179.0
176
     1
 90
        8
176
     1
 62
     7
176
     1
 40
1.0
176
     1
 90
        1
176
     1
 90
        6
176
     1
 90
        2
176
     1
 62
     7
176
     1
 90
        3
176
     1
 90
        0
176
     1
 90
        0
176
     1
290
     0
176
     1
 90
        1
176
     1
 40
0.0
176
     1
 90
        0
176
     1
290
     0
176
     1
290
     1
176
     1
290
     1
176
     1
290
     0
176
     1
290
     0
176
     1
290
     0
176
     1
290
     0
176
     1
290
     0
176
     1
290
     0
176
     1
 90
       50
176
     1
 40
0.0
176
     1
 40
1.0
176
     1
 90
        0
176
     1
 62
    18
420
        0
176
     1
 90
       50
176
     1
 90
        3
176
     1
 62
     5
420
      255
176
     1
290
     0
176
     1
 90
       50
176
     1
 90
       50
176
     1
 90
       50
176
     1
290
     0
176
     1
 90
       50
176
     1
 62
   256
176
     0
 40
1.0
176
     0
 90
        2
176
     1
  1
strokes_ogs.tif
176
     1
290
     0
176
     1
 40
1.0
176
     1
 40
1.0
176
     1
  0
VISUALSTYLE
  5
35
102
{ACAD_REACTORS
330
2A
102
}
330
2A
100
AcDbVisualStyle
  2
Dim
 70
    11
177
     3
291
     1
 70
    58
 90
        2
176
     1
 90
        2
176
     1
 90
        0
176
     1
 90
        0
176
     1
 40
0.6
176
     1
 40
30.0
176
     1
 62
     7
420
 16777215
176
     1
 90
        1
176
     1
 90
        4
176
     1
 62
     7
176
     1
 62
   257
176
     1
 90
        1
176
     1
 90
        1
176
     1
 40
1.0
176
     1
 90
        8
176
     1
 62
     7
176
     1
 40
1.0
176
     1
 90
        1
176
     1
 90
        6
176
     1
 90
        2
176
     1
 62
     7
176
     1
 90
        5
176
     1
 90
        0
176
     1
 90
        0
176
     1
290
     0
176
     1
 90
        1
176
     1
 40
-50.0
176
     1
 90
        0
176
     1
290
     0
176
     1
290
     1
176
     1
290
     1
176
     1
290
     0
176
     1
290
     0
176
     1
290
     0
176
     1
290
     0
176
     1
290
     0
176
     1
290
     0
176
     1
 90
       50
176
     1
 40
0.0
176
     1
 40
1.0
176
     1
 90
        0
176
     1
 62
    18
420
        0
176
     1
 90
       50
176
     1
 90
        3
176
     1
 62
     5
420
      255
176
     1
290
     0
176
     1
 90
       50
176
     1
 90
       50
176
     1
 90
       50
176
     1
290
     0
176
     1
 90
       50
176
     1
 62
   256
176
     0
 40
1.0
176
     0
 90
        2
176
     1
  1
strokes_ogs.tif
176
     1
290
     0
176
     1
 40
1.0
176
     1
 40
1.0
176
     1
  0
VISUALSTYLE
  5
3D
102
{ACAD_REACTORS
330
2A
102
}
330
2A
100
AcDbVisualStyle
  2
EdgeColorOff
 70
    22
177
     3
291
     1
 70
    58
 90
        2
176
     0
 90
        2
176
     0
 90
        0
176
     0
 90
        0
176
     0
 40
0.6
176
     0
 40
30.0
176
     0
 62
     7
420
 16777215
176
     0
 90
        1
176
     0
 90
        4
176
     0
 62
     7
176
     0
 62
   257
176
     0
 90
        1
176
     0
 90
        1
176
     0
 40
1.0
176
     0
 90
        8
176
     2
 62
     7
176
     0
 40
1.0
176
     0
 90
        1
176
     0
 90
        6
176
     0
 90
        2
176
     0
 62
     7
176
     0
 90
        5
176
     0
 90
        0
176
     0
 90
        0
176
     0
290
     0
176
     0
 90
        1
176
     0
 40
0.0
176
     0
 90
        0
176
     0
290
     0
176
     0
290
     1
176
     0
290
     1
176
     0
290
     0
176
     0
290
     0
176
     0
290
     0
176
     0
290
     0
176
     0
290
     0
176
     0
290
     0
176
     0
 90
       50
176
     0
 40
0.0
176
     0
 40
1.0
176
     0
 90
        0
176
     0
 62
    18
420
        0
176
     0
 90
       50
176
     0
 90
        3
176
     0
 62
     5
420
      255
176
     0
290
     0
176
     0
 90
       50
176
     0
 90
       50
176
     0
 90
       50
176
     0
290
     0
176
     0
 90
       50
176
     0
 62
   256
176
     0
 40
1.0
176
     0
 90
        2
176
     0
  1
strokes_ogs.tif
176
     0
290
     0
176
     0
 40
1.0
176
     0
 40
1.0
176
     0
  0
VISUALSTYLE
  5
39
102
{ACAD_REACTORS
330
2A
102
}
330
2A
100
AcDbVisualStyle
  2
Facepattern
 70
    15
177
     3
291
     1
 70
    58
 90
        2
176
     1
 90
        2
176
     1
 90
        0
176
     1
 90
        0
176
     1
 40
0.6
176
     1
 40
30.0
176
     1
 62
     7
420
 16777215
176
     1
 90
        1
176
     1
 90
        4
176
     1
 62
     7
176
     1
 62
   257
176
     1
 90
        1
176
     1
 90
        1
176
     1
 40
1.0
176
     1
 90
        8
176
     1
 62
     7
176
     1
 40
1.0
176
     1
 90
        1
176
     1
 90
        6
176
     1
 90
        2
176
     1
 62
     7
176
     1
 90
        5
176
     1
 90
        0
176
     1
 90
        0
176
     1
290
     0
176
     1
 90
        1
176
     1
 40
0.0
176
     1
 90
        0
176
     1
290
     0
176
     1
290
     1
176
     1
290
     1
176
     1
290
     0
176
     1
290
     0
176
     1
290
     0
176
     1
290
     0
176
     1
290
     0
176
     1
290
     0
176
     1
 90
       50
176
     1
 40
0.0
176
     1
 40
1.0
176
     1
 90
        0
176
     1
 62
    18
420
        0
176
     1
 90
       50
176
     1
 90
        3
176
     1
 62
     5
420
      255
176
     1
290
     0
176
     1
 90
       50
176
     1
 90
       50
176
     1
 90
       50
176
     1
290
     0
176
     1
 90
       50
176
     1
 62
   256
176
     0
 40
1.0
176
     0
 90
        2
176
     1
  1
strokes_ogs.tif
176
     1
290
     0
176
     1
 40
1.0
176
     1
 40
1.0
176
     1
  0
VISUALSTYLE
  5
2B
102
{ACAD_REACTORS
330
2A
102
}
330
2A
100
AcDbVisualStyle
  2
Flat
 70
     0
177
     3
291
     1
 70
    58
 90
        2
176
     1
 90
        1
176
     1
 90
        1
176
     1
 90
        2
176
     1
 40
0.6
176
     1
 40
30.0
176
     1
 62
     7
420
 16777215
176
     1
 90
        0
176
     1
 90
        0
176
     1
 62
     7
176
     1
 62
   257
176
     1
 90
        1
176
     1
 90
        1
176
     1
 40
1.0
176
     1
 90
        8
176
     1
 62
     7
176
     1
 40
1.0
176
     1
 90
        1
176
     1
 90
        6
176
     1
 90
        2
176
     1
 62
     7
176
     1
 90
        5
176
     1
 90
        0
176
     1
 90
        0
176
     1
290
     0
176
     1
 90
       13
176
     1
 40
0.0
176
     1
 90
        0
176
     1
290
     0
176
     1
290
     1
176
     1
290
     1
176
     1
290
     0
176
     1
290
     0
176
     1
290
     0
176
     1
290
     0
176
     1
290
     0
176
     1
290
     0
176
     1
 90
       50
176
     1
 40
0.0
176
     1
 40
1.0
176
     1
 90
        0
176
     1
 62
    18
420
        0
176
     1
 90
       50
176
     1
 90
        3
176
     1
 62
     5
420
      255
176
     1
290
     0
176
     1
 90
       50
176
     1
 90
       50
176
     1
 90
       50
176
     1
290
     0
176
     1
 90
       50
176
     1
 62
   256
176
     0
 40
1.0
176
     0
 90
        2
176
     1
  1
strokes_ogs.tif
176
     1
290
     0
176
     1
 40
1.0
176
     1
 40
1.0
176
     1
  0
VISUALSTYLE
  5
2C
102
{ACAD_REACTORS
330
2A
102
}
330
2A
100
AcDbVisualStyle
  2
FlatWithEdges
 70
     1
177
     3
291
     1
 70
    58
 90
        2
176
     1
 90
        1
176
     1
 90
        1
176
     1
 90
        2
176
     1
 40
0.6
176
     1
 40
30.0
176
     1
 62
     7
420
 16777215
176
     1
 90
        1
176
     1
 90
        0
176
     1
 62
     7
176
     1
 62
   257
176
     1
 90
        1
176
     1
 90
        1
176
     1
 40
1.0
176
     1
 90
        0
176
     1
 62
   257
176
     1
 40
1.0
176
     1
 90
        1
176
     1
 90
        6
176
     1
 90
        2
176
     1
 62
     7
176
     1
 90
        5
176
     1
 90
        0
176
     1
 90
        0
176
     1
290
     0
176
     1
 90
       13
176
     1
 40
0.0
176
     1
 90
        0
176
     1
290
     0
176
     1
290
     1
176
     1
290
     1
176
     1
290
     0
176
     1
290
     0
176
     1
290
     0
176
     1
290
     0
176
     1
290
     0
176
     1
290
     0
176
     1
 90
       50
176
     1
 40
0.0
176
     1
 40
1.0
176
     1
 90
        0
176
     1
 62
    18
420
        0
176
     1
 90
       50
176
     1
 90
        3
176
     1
 62
     5
420
      255
176
     1
290
     0
176
     1
 90
       50
176
     1
 90
       50
176
     1
 90
       50
176
     1
290
     0
176
     1
 90
       50
176
     1
 62
   256
176
     0
 40
1.0
176
     0
 90
        2
176
     1
  1
strokes_ogs.tif
176
     1
290
     0
176
     1
 40
1.0
176
     1
 40
1.0
176
     1
  0
VISUALSTYLE
  5
2D
102
{ACAD_REACTORS
330
2A
102
}
330
2A
100
AcDbVisualStyle
  2
Gouraud
 70
     2
177
     3
291
     1
 70
    58
 90
        2
176
     1
 90
        2
176
     1
 90
        1
176
     1
 90
        2
176
     1
 40
0.6
176
     1
 40
30.0
176
     1
 62
     7
420
 16777215
176
     1
 90
        0
176
     1
 90
        0
176
     1
 62
     7
176
     1
 62
   257
176
     1
 90
        1
176
     1
 90
        1
176
     1
 40
1.0
176
     1
 90
        0
176
     1
 62
     7
176
     1
 40
1.0
176
     1
 90
        1
176
     1
 90
        6
176
     1
 90
        2
176
     1
 62
     7
176
     1
 90
        5
176
     1
 90
        0
176
     1
 90
        0
176
     1
290
     0
176
     1
 90
       13
176
     1
 40
0.0
176
     1
 90
        0
176
     1
290
     0
176
     1
290
     1
176
     1
290
     1
176
     1
290
     0
176
     1
290
     0
176
     1
290
     0
176
     1
290
     0
176
     1
290
     0
176
     1
290
     0
176
     1
 90
       50
176
     1
 40
0.0
176
     1
 40
1.0
176
     1
 90
        0
176
     1
 62
    18
420
        0
176
     1
 90
       50
176
     1
 90
        3
176
     1
 62
     5
420
      255
176
     1
290
     0
176
     1
 90
       50
176
     1
 90
       50
176
     1
 90
       50
176
     1
290
     0
176
     1
 90
       50
176
     1
 62
   256
176
     0
 40
1.0
176
     0
 90
        2
176
     1
  1
strokes_ogs.tif
176
     1
290
     0
176
     1
 40
1.0
176
     1
 40
1.0
176
     1
  0
VISUALSTYLE
  5
2E
102
{ACAD_REACTORS
330
2A
102
}
330
2A
100
AcDbVisualStyle
  2
GouraudWithEdges
 70
     3
177
     3
291
     1
 70
    58
 90
        2
176
     1
 90
        2
176
     1
 90
        1
176
     1
 90
        2
176
     1
 40
0.6
176
     1
 40
30.0
176
     1
 62
     7
420
 16777215
176
     1
 90
        1
176
     1
 90
        0
176
     1
 62
     7
176
     1
 62
   257
176
     1
 90
        1
176
     1
 90
        1
176
     1
 40
1.0
176
     1
 90
        0
176
     1
 62
   257
176
     1
 40
1.0
176
     1
 90
        1
176
     1
 90
        6
176
     1
 90
        2
176
     1
 62
     7
176
     1
 90
        5
176
     1
 90
        0
176
     1
 90
        0
176
     1
290
     0
176
     1
 90
       13
176
     1
 40
0.0
176
     1
 90
        0
176
     1
290
     0
176
     1
290
     1
176
     1
290
     1
176
     1
290
     0
176
     1
290
     0
176
     1
290
     0
176
     1
290
     0
176
     1
290
     0
176
     1
290
     0
176
     1
 90
       50
176
     1
 40
0.0
176
     1
 40
1.0
176
     1
 90
        0
176
     1
 62
    18
420
        0
176
     1
 90
       50
176
     1
 90
        3
176
     1
 62
     5
420
      255
176
     1
290
     0
176
     1
 90
       50
176
     1
 90
       50
176
     1
 90
       50
176
     1
290
     0
176
     1
 90
       50
176
     1
 62
   256
176
     0
 40
1.0
176
     0
 90
        2
176
     1
  1
strokes_ogs.tif
176
     1
290
     0
176
     1
 40
1.0
176
     1
 40
1.0
176
     1
  0
VISUALSTYLE
  5
31
102
{ACAD_REACTORS
330
2A
102
}
330
2A
100
AcDbVisualStyle
  2
Hidden
 70
     6
177
     3
291
     0
 70
    58
 90
        1
176
     1
 90
        2
176
     1
 90
        2
176
     1
 90
        0
176
     1
 40
0.6
176
     1
 40
30.0
176
     1
 62
     7
420
 16777215
176
     1
 90
        2
176
     1
 90
        2
176
     1
 62
     7
176
     1
 62
   257
176
     1
 90
        2
176
     1
 90
        1
176
     1
 40
40.0
176
     1
 90
        0
176
     1
 62
   257
176
     1
 40
1.0
176
     1
 90
        1
176
     1
 90
        6
176
     1
 90
        2
176
     1
 62
     7
176
     1
 90
        3
176
     1
 90
        0
176
     1
 90
        0
176
     1
290
     0
176
     1
 90
        1
176
     1
 40
0.0
176
     1
 90
        0
176
     1
290
     0
176
     1
290
     1
176
     1
290
     1
176
     1
290
     0
176
     1
290
     0
176
     1
290
     0
176
     1
290
     0
176
     1
290
     0
176
     1
290
     0
176
     1
 90
       50
176
     1
 40
0.0
176
     1
 40
1.0
176
     1
 90
        0
176
     1
 62
    18
420
        0
176
     1
 90
       50
176
     1
 90
        3
176
     1
 62
     5
420
      255
176
     1
290
     0
176
     1
 90
       50
176
     1
 90
       50
176
     1
 90
       50
176
     1
290
     0
176
     1
 90
       50
176
     1
 62
   256
176
     0
 40
1.0
176
     0
 90
        2
176
     1
  1
strokes_ogs.tif
176
     1
290
     0
176
     1
 40
1.0
176
     1
 40
1.0
176
     1
  0
VISUALSTYLE
  5
3B
102
{ACAD_REACTORS
330
2A
102
}
330
2A
100
AcDbVisualStyle
  2
JitterOff
 70
    20
177
     3
291
     1
 70
    58
 90
        2
176
     0
 90
        2
176
     0
 90
        0
176
     0
 90
        0
176
     0
 40
0.6
176
     0
 40
30.0
176
     0
 62
     7
420
 16777215
176
     0
 90
        1
176
     0
 90
        4
176
     0
 62
     7
176
     0
 62
   257
176
     0
 90
        1
176
     0
 90
        1
176
     0
 40
1.0
176
     0
 90
       10
176
     2
 62
     7
176
     0
 40
1.0
176
     0
 90
        1
176
     0
 90
        6
176
     0
 90
        2
176
     0
 62
     7
176
     0
 90
        5
176
     0
 90
        0
176
     0
 90
        0
176
     0
290
     0
176
     0
 90
        1
176
     0
 40
0.0
176
     0
 90
        0
176
     0
290
     0
176
     0
290
     1
176
     0
290
     1
176
     0
290
     0
176
     0
290
     0
176
     0
290
     0
176
     0
290
     0
176
     0
290
     0
176
     0
290
     0
176
     0
 90
       50
176
     0
 40
0.0
176
     0
 40
1.0
176
     0
 90
        0
176
     0
 62
    18
420
        0
176
     0
 90
       50
176
     0
 90
        3
176
     0
 62
     5
420
      255
176
     0
290
     0
176
     0
 90
       50
176
     0
 90
       50
176
     0
 90
       50
176
     0
290
     0
176
     0
 90
       50
176
     0
 62
   256
176
     0
 40
1.0
176
     0
 90
        2
176
     0
  1
strokes_ogs.tif
176
     0
290
     0
176
     0
 40
1.0
176
     0
 40
1.0
176
     0
  0
VISUALSTYLE
  5
38
102
{ACAD_REACTORS
330
2A
102
}
330
2A
100
AcDbVisualStyle
  2
Linepattern
 70
    14
177
     3
291
     1
 70
    58
 90
        2
176
     1
 90
        2
176
     1
 90
        0
176
     1
 90
        0
176
     1
 40
0.6
176
     1
 40
30.0
176
     1
 62
     7
420
 16777215
176
     1
 90
        1
176
     1
 90
        4
176
     1
 62
     7
176
     1
 62
   257
176
     1
 90
        7
176
     1
 90
        7
176
     1
 40
1.0
176
     1
 90
        8
176
     1
 62
     7
176
     1
 40
1.0
176
     1
 90
        1
176
     1
 90
        6
176
     1
 90
        2
176
     1
 62
     7
176
     1
 90
        5
176
     1
 90
        0
176
     1
 90
        0
176
     1
290
     0
176
     1
 90
        1
176
     1
 40
0.0
176
     1
 90
        0
176
     1
290
     0
176
     1
290
     1
176
     1
290
     1
176
     1
290
     0
176
     1
290
     0
176
     1
290
     0
176
     1
290
     0
176
     1
290
     0
176
     1
290
     0
176
     1
 90
       50
176
     1
 40
0.0
176
     1
 40
1.0
176
     1
 90
        0
176
     1
 62
    18
420
        0
176
     1
 90
       50
176
     1
 90
        3
176
     1
 62
     5
420
      255
176
     1
290
     0
176
     1
 90
       50
176
     1
 90
       50
176
     1
 90
       50
176
     1
290
     0
176
     1
 90
       50
176
     1
 62
   256
176
     0
 40
1.0
176
     0
 90
        2
176
     1
  1
strokes_ogs.tif
176
     1
290
     0
176
     1
 40
1.0
176
     1
 40
1.0
176
     1
  0
VISUALSTYLE
  5
3C
102
{ACAD_REACTORS
330
2A
102
}
330
2A
100
AcDbVisualStyle
  2
OverhangOff
 70
    21
177
     3
291
     1
 70
    58
 90
        2
176
     0
 90
        2
176
     0
 90
        0
176
     0
 90
        0
176
     0
 40
0.6
176
     0
 40
30.0
176
     0
 62
     7
420
 16777215
176
     0
 90
        1
176
     0
 90
        4
176
     0
 62
     7
176
     0
 62
   257
176
     0
 90
        1
176
     0
 90
        1
176
     0
 40
1.0
176
     0
 90
        9
176
     2
 62
     7
176
     0
 40
1.0
176
     0
 90
        1
176
     0
 90
        6
176
     0
 90
        2
176
     0
 62
     7
176
     0
 90
        5
176
     0
 90
        0
176
     0
 90
        0
176
     0
290
     0
176
     0
 90
        1
176
     0
 40
0.0
176
     0
 90
        0
176
     0
290
     0
176
     0
290
     1
176
     0
290
     1
176
     0
290
     0
176
     0
290
     0
176
     0
290
     0
176
     0
290
     0
176
     0
290
     0
176
     0
290
     0
176
     0
 90
       50
176
     0
 40
0.0
176
     0
 40
1.0
176
     0
 90
        0
176
     0
 62
    18
420
        0
176
     0
 90
       50
176
     0
 90
        3
176
     0
 62
     5
420
      255
176
     0
290
     0
176
     0
 90
       50
176
     0
 90
       50
176
     0
 90
       50
176
     0
290
     0
176
     0
 90
       50
176
     0
 62
   256
176
     0
 40
1.0
176
     0
 90
        2
176
     0
  1
strokes_ogs.tif
176
     0
290
     0
176
     0
 40
1.0
176
     0
 40
1.0
176
     0
  0
VISUALSTYLE
  5
33
102
{ACAD_REACTORS
330
2A
102
}
330
2A
100
AcDbVisualStyle
  2
Realistic
 70
     8
177
     3
291
     0
 70
    58
 90
        2
176
     1
 90
        3
176
     1
 90
        0
176
     1
 90
        2
176
     1
 40
0.6
176
     1
 40
30.0
176
     1
 62
     7
420
 16777215
176
     1
 90
        0
176
     1
 90
        0
176
     1
 62
     7
176
     1
 62
   257
176
     1
 90
        1
176
     1
 90
        1
176
     1
 40
1.0
176
     1
 90
        8
176
     1
 62
   257
176
     1
 40
1.0
176
     1
 90
        1
176
     1
 90
        6
176
     1
 90
        2
176
     1
 62
     7
176
     1
 90
        3
176
     1
 90
        0
176
     1
 90
        0
176
     1
290
     0
176
     1
 90
       13
176
     1
 40
0.0
176
     1
 90
        0
176
     1
290
     0
176
     1
290
     1
176
     1
290
     1
176
     1
290
     0
176
     1
290
     0
176
     1
290
     0
176
     1
290
     0
176
     1
290
     0
176
     1
290
     0
176
     1
 90
       50
176
     1
 40
0.0
176
     1
 40
1.0
176
     1
 90
        0
176
     1
 62
    18
420
        0
176
     1
 90
       50
176
     1
 90
        3
176
     1
 62
     5
420
      255
176
     1
290
     0
176
     1
 90
       50
176
     1
 90
       50
176
     1
 90
       50
176
     1
290
     0
176
     1
 90
       50
176
     1
 62
   256
176
     0
 40
1.0
176
     0
 90
        2
176
     1
  1
strokes_ogs.tif
176
     1
290
     0
176
     1
 40
1.0
176
     1
 40
1.0
176
     1
  0
VISUALSTYLE
  5
42
102
{ACAD_REACTORS
330
2A
102
}
330
2A
100
AcDbVisualStyle
  2
Shaded
 70
    27
177
     3
291
     0
 70
    58
 90
        2
176
     1
 90
        2
176
     1
 90
        1
176
     1
 90
        2
176
     1
 40
0.6
176
     1
 40
30.0
176
     1
 62
     7
420
 16777215
176
     1
 90
        0
176
     1
 90
        4
176
     1
 62
     7
176
     1
 62
   257
176
     1
 90
        1
176
     1
 90
        1
176
     1
 40
1.0
176
     1
 90
        8
176
     1
 62
   257
176
     1
 40
1.0
176
     1
 90
        1
176
     1
 90
        6
176
     1
 90
        2
176
     1
 62
     8
420
  7895160
176
     1
 90
        3
176
     1
 90
        0
176
     1
 90
        0
176
     1
290
     0
176
     1
 90
        5
176
     1
 40
0.0
176
     1
 90
        0
176
     1
290
     0
176
     1
290
     1
176
     1
290
     1
176
     1
290
     0
176
     1
290
     0
176
     1
290
     0
176
     1
290
     0
176
     1
290
     0
176
     1
290
     0
176
     1
 90
       50
176
     1
 40
0.0
176
     1
 40
1.0
176
     1
 90
        0
176
     1
 62
    18
420
        0
176
     1
 90
       50
176
     1
 90
        3
176
     1
 62
     5
420
      255
176
     1
290
     0
176
     1
 90
       50
176
     1
 90
       50
176
     1
 90
       50
176
     1
290
     0
176
     1
 90
       50
176
     1
 62
   256
176
     0
 40
1.0
176
     0
 90
        2
176
     1
  1
strokes_ogs.tif
176
     1
290
     0
176
     1
 40
1.0
176
     1
 40
1.0
176
     1
  0
VISUALSTYLE
  5
41
102
{ACAD_REACTORS
330
2A
102
}
330
2A
100
AcDbVisualStyle
  2
Shaded with edges
 70
    26
177
     3
291
     0
 70
    58
 90
        2
176
     1
 90
        2
176
     1
 90
        1
176
     1
 90
        2
176
     1
 40
0.6
176
     1
 40
30.0
176
     1
 62
     7
420
 16777215
176
     1
 90
        1
176
     1
 90
       10
176
     1
 62
     7
176
     1
 62
   257
176
     1
 90
        2
176
     1
 90
        1
176
     1
 40
1.0
176
     1
 90
        8
176
     1
 62
   257
176
     1
 40
1.0
176
     1
 90
        1
176
     1
 90
        6
176
     1
 90
        2
176
     1
 62
     7
176
     1
 90
        3
176
     1
 90
        0
176
     1
 90
        0
176
     1
290
     0
176
     1
 90
        5
176
     1
 40
0.0
176
     1
 90
        0
176
     1
290
     0
176
     1
290
     1
176
     1
290
     1
176
     1
290
     0
176
     1
290
     0
176
     1
290
     0
176
     1
290
     0
176
     1
290
     0
176
     1
290
     0
176
     1
 90
       50
176
     1
 40
0.0
176
     1
 40
1.0
176
     1
 90
        0
176
     1
 62
    18
420
        0
176
     1
 90
       50
176
     1
 90
        3
176
     1
 62
     5
420
      255
176
     1
290
     0
176
     1
 90
       50
176
     1
 90
       50
176
     1
 90
       50
176
     1
290
     0
176
     1
 90
       50
176
     1
 62
   256
176
     0
 40
1.0
176
     0
 90
        2
176
     1
  1
strokes_ogs.tif
176
     1
290
     0
176
     1
 40
1.0
176
     1
 40
1.0
176
     1
  0
VISUALSTYLE
  5
3E
102
{ACAD_REACTORS
330
2A
102
}
330
2A
100
AcDbVisualStyle
  2
Shades of Gray
 70
    23
177
     3
291
     0
 70
    58
 90
        2
176
     1
 90
        2
176
     1
 90
        3
176
     1
 90
        0
176
     1
 40
0.6
176
     1
 40
30.0
176
     1
 62
     7
420
 16777215
176
     1
 90
        2
176
     1
 90
        2
176
     1
 62
     7
176
     1
 62
     7
176
     1
 90
        1
176
     1
 90
        1
176
     1
 40
40.0
176
     1
 90
        8
176
     1
 62
     7
176
     1
 40
1.0
176
     1
 90
        1
176
     1
 90
        6
176
     1
 90
        2
176
     1
 62
     7
176
     1
 90
        3
176
     1
 90
        0
176
     1
 90
        0
176
     1
290
     0
176
     1
 90
        1
176
     1
 40
0.0
176
     1
 90
        0
176
     1
290
     0
176
     1
290
     1
176
     1
290
     1
176
     1
290
     0
176
     1
290
     0
176
     1
290
     0
176
     1
290
     0
176
     1
290
     0
176
     1
290
     0
176
     1
 90
       50
176
     1
 40
0.0
176
     1
 40
1.0
176
     1
 90
        0
176
     1
 62
    18
420
        0
176
     1
 90
       50
176
     1
 90
        3
176
     1
 62
     5
420
      255
176
     1
290
     0
176
     1
 90
       50
176
     1
 90
       50
176
     1
 90
       50
176
     1
290
     0
176
     1
 90
       50
176
     1
 62
   256
176
     0
 40
1.0
176
     0
 90
        2
176
     1
  1
strokes_ogs.tif
176
     1
290
     0
176
     1
 40
1.0
176
     1
 40
1.0
176
     1
  0
VISUALSTYLE
  5
3F
102
{ACAD_REACTORS
330
2A
102
}
330
2A
100
AcDbVisualStyle
  2
Sketchy
 70
    24
177
     3
291
     0
 70
    58
 90
        1
176
     1
 90
        2
176
     1
 90
        2
176
     1
 90
        0
176
     1
 40
0.6
176
     1
 40
30.0
176
     1
 62
     7
420
 16777215
176
     1
 90
        2
176
     1
 90
        2
176
     1
 62
     7
176
     1
 62
     7
176
     1
 90
        1
176
     1
 90
        1
176
     1
 40
40.0
176
     1
 90
       11
176
     1
 62
     7
176
     1
 40
1.0
176
     1
 90
        1
176
     1
 90
        6
176
     1
 90
        2
176
     1
 62
     7
176
     1
 90
        6
176
     1
 90
        0
176
     1
 90
        0
176
     1
290
     0
176
     1
 90
        1
176
     1
 40
0.0
176
     1
 90
        0
176
     1
290
     0
176
     1
290
     1
176
     1
290
     1
176
     1
290
     0
176
     1
290
     0
176
     1
290
     0
176
     1
290
     0
176
     1
290
     0
176
     1
290
     0
176
     1
 90
       50
176
     1
 40
0.0
176
     1
 40
1.0
176
     1
 90
        0
176
     1
 62
    18
420
        0
176
     1
 90
       50
176
     1
 90
        3
176
     1
 62
     5
420
      255
176
     1
290
     0
176
     1
 90
       50
176
     1
 90
       50
176
     1
 90
       50
176
     1
290
     0
176
     1
 90
       50
176
     1
 62
   256
176
     0
 40
1.0
176
     0
 90
        2
176
     1
  1
strokes_ogs.tif
176
     1
290
     0
176
     1
 40
1.0
176
     1
 40
1.0
176
     1
  0
VISUALSTYLE
  5
37
102
{ACAD_REACTORS
330
2A
102
}
330
2A
100
AcDbVisualStyle
  2
Thicken
 70
    13
177
     3
291
     1
 70
    58
 90
        2
176
     1
 90
        2
176
     1
 90
        0
176
     1
 90
        0
176
     1
 40
0.6
176
     1
 40
30.0
176
     1
 62
     7
420
 16777215
176
     1
 90
        1
176
     1
 90
        4
176
     1
 62
     7
176
     1
 62
   257
176
     1
 90
        1
176
     1
 90
        1
176
     1
 40
1.0
176
     1
 90
       12
176
     1
 62
     7
176
     1
 40
1.0
176
     1
 90
        1
176
     1
 90
        6
176
     1
 90
        2
176
     1
 62
     7
176
     1
 90
        5
176
     1
 90
        0
176
     1
 90
        0
176
     1
290
     0
176
     1
 90
        1
176
     1
 40
0.0
176
     1
 90
        0
176
     1
290
     0
176
     1
290
     1
176
     1
290
     1
176
     1
290
     0
176
     1
290
     0
176
     1
290
     0
176
     1
290
     0
176
     1
290
     0
176
     1
290
     0
176
     1
 90
       50
176
     1
 40
0.0
176
     1
 40
1.0
176
     1
 90
        0
176
     1
 62
    18
420
        0
176
     1
 90
       50
176
     1
 90
        3
176
     1
 62
     5
420
      255
176
     1
290
     0
176
     1
 90
       50
176
     1
 90
       50
176
     1
 90
       50
176
     1
290
     0
176
     1
 90
       50
176
     1
 62
   256
176
     0
 40
1.0
176
     0
 90
        2
176
     1
  1
strokes_ogs.tif
176
     1
290
     0
176
     1
 40
1.0
176
     1
 40
1.0
176
     1
  0
VISUALSTYLE
  5
30
102
{ACAD_REACTORS
330
2A
102
}
330
2A
100
AcDbVisualStyle
  2
Wireframe
 70
     5
177
     3
291
     0
 70
    58
 90
        0
176
     1
 90
        2
176
     1
 90
        0
176
     1
 90
        0
176
     1
 40
0.6
176
     1
 40
30.0
176
     1
 62
     7
420
 16777215
176
     1
 90
        1
176
     1
 90
        4
176
     1
 62
     7
176
     1
 62
   257
176
     1
 90
        1
176
     1
 90
        1
176
     1
 40
1.0
176
     1
 90
        0
176
     1
 62
   257
176
     1
 40
1.0
176
     1
 90
        1
176
     1
 90
        6
176
     1
 90
        2
176
     1
 62
     7
176
     1
 90
        3
176
     1
 90
        0
176
     1
 90
        0
176
     1
290
     0
176
     1
 90
        1
176
     1
 40
0.0
176
     1
 90
        0
176
     1
290
     0
176
     1
290
     1
176
     1
290
     1
176
     1
290
     0
176
     1
290
     0
176
     1
290
     0
176
     1
290
     0
176
     1
290
     0
176
     1
290
     0
176
     1
 90
       50
176
     1
 40
0.0
176
     1
 40
1.0
176
     1
 90
        0
176
     1
 62
    18
420
        0
176
     1
 90
       50
176
     1
 90
        3
176
     1
 62
     5
420
      255
176
     1
290
     0
176
     1
 90
       50
176
     1
 90
       50
176
     1
 90
       50
176
     1
290
     0
176
     1
 90
       50
176
     1
 62
   256
176
     0
 40
1.0
176
     0
 90
        2
176
     1
  1
strokes_ogs.tif
176
     1
290
     0
176
     1
 40
1.0
176
     1
 40
1.0
176
     1
  0
VISUALSTYLE
  5
40
102
{ACAD_REACTORS
330
2A
102
}
330
2A
100
AcDbVisualStyle
  2
X-Ray
 70
    25
177
     3
291
     0
 70
    58
 90
        2
176
     1
 90
        2
176
     1
 90
        1
176
     1
 90
        1
176
     1
 40
0.5
176
     1
 40
30.0
176
     1
 62
     7
420
 16777215
176
     1
 90
        1
176
     1
 90
        0
176
     1
 62
     7
176
     1
 62
   257
176
     1
 90
        1
176
     1
 90
        1
176
     1
 40
1.0
176
     1
 90
        8
176
     1
 62
     7
176
     1
 40
1.0
176
     1
 90
        1
176
     1
 90
        6
176
     1
 90
        2
176
     1
 62
     7
176
     1
 90
        3
176
     1
 90
        0
176
     1
 90
        0
176
     1
290
     0
176
     1
 90
       13
176
     1
 40
0.0
176
     1
 90
        0
176
     1
290
     0
176
     1
290
     1
176
     1
290
     1
176
     1
290
     0
176
     1
290
     0
176
     1
290
     0
176
     1
290
     0
176
     1
290
     0
176
     1
290
     0
176
     1
 90
       50
176
     1
 40
0.0
176
     1
 40
1.0
176
     1
 90
        0
176
     1
 62
    18
420
        0
176
     1
 90
       50
176
     1
 90
        3
176
     1
 62
     5
420
      255
176
     1
290
     0
176
     1
 90
       50
176
     1
 90
       50
176
     1
 90
       50
176
     1
290
     0
176
     1
 90
       50
176
     1
 62
   256
176
     0
 40
1.0
176
     0
 90
        2
176
     1
  1
strokes_ogs.tif
176
     1
290
     0
176
     1
 40
1.0
176
     1
 40
1.0
176
     1
  0
DICTIONARYVAR
  5
87
102
{ACAD_REACTORS
330
86
102
}
330
86
100
DictionaryVariables
280
     0
  1
1:1
  0
DICTIONARYVAR
  5
8C
102
{ACAD_REACTORS
330
86
102
}
330
86
100
DictionaryVariables
280
     0
  1
Standard
  0
DICTIONARYVAR
  5
8B
102
{ACAD_REACTORS
330
86
102
}
330
86
100
DictionaryVariables
280
     0
  1
Standard
  0
DICTIONARY
  5
88
330
5A
100
AcDbDictionary
280
     1
281
     1
  3
ACAD_ROUNDTRIP_2008_TABLESTYLE_CELLSTYLEMAP
360
89
  0
CELLSTYLEMAP
  5
89
102
{ACAD_REACTORS
330
88
102
}
330
88
100
AcDbCellStyleMap
 90
        3
300
CELLSTYLE
  1
TABLEFORMAT_BEGIN
 90
        5
170
     1
 91
        0
 92
    32768
 62
   257
 93
        1
300
CONTENTFORMAT
  1
CONTENTFORMAT_BEGIN
 90
        0
 91
        0
 92
        4
 93
        0
300

 40
0.0
140
1.0
 94
        5
 62
     0
340
11
144
0.25
309
CONTENTFORMAT_END
171
     1
301
MARGIN
  1
CELLMARGIN_BEGIN
 40
0.06
 40
0.06
 40
0.06
 40
0.06
 40
0.06
 40
0.06
309
CELLMARGIN_END
 94
        6
 95
        1
302
GRIDFORMAT
  1
GRIDFORMAT_BEGIN
 90
        0
 91
        1
 62
     0
 92
       -2
340
14
 93
        0
 40
0.045
309
GRIDFORMAT_END
 95
        2
302
GRIDFORMAT
  1
GRIDFORMAT_BEGIN
 90
        0
 91
        1
 62
     0
 92
       -2
340
14
 93
        0
 40
0.045
309
GRIDFORMAT_END
 95
        4
302
GRIDFORMAT
  1
GRIDFORMAT_BEGIN
 90
        0
 91
        1
 62
     0
 92
       -2
340
14
 93
        0
 40
0.045
309
GRIDFORMAT_END
 95
        8
302
GRIDFORMAT
  1
GRIDFORMAT_BEGIN
 90
        0
 91
        1
 62
     0
 92
       -2
340
14
 93
        0
 40
0.045
309
GRIDFORMAT_END
 95
       16
302
GRIDFORMAT
  1
GRIDFORMAT_BEGIN
 90
        0
 91
        1
 62
     0
 92
       -2
340
14
 93
        0
 40
0.045
309
GRIDFORMAT_END
 95
       32
302
GRIDFORMAT
  1
GRIDFORMAT_BEGIN
 90
        0
 91
        1
 62
     0
 92
       -2
340
14
 93
        0
 40
0.045
309
GRIDFORMAT_END
309
TABLEFORMAT_END
  1
CELLSTYLE_BEGIN
 90
        1
 91
        1
300
_TITLE
309
CELLSTYLE_END
300
CELLSTYLE
  1
TABLEFORMAT_BEGIN
 90
        5
170
     1
 91
        0
 92
        0
 62
   257
 93
        1
300
CONTENTFORMAT
  1
CONTENTFORMAT_BEGIN
 90
        0
 91
        0
 92
        4
 93
        0
300

 40
0.0
140
1.0
 94
        5
 62
     0
340
11
144
0.18
309
CONTENTFORMAT_END
171
     1
301
MARGIN
  1
CELLMARGIN_BEGIN
 40
0.06
 40
0.06
 40
0.06
 40
0.06
 40
0.06
 40
0.06
309
CELLMARGIN_END
 94
        6
 95
        1
302
GRIDFORMAT
  1
GRIDFORMAT_BEGIN
 90
        0
 91
        1
 62
     0
 92
       -2
340
14
 93
        0
 40
0.045
309
GRIDFORMAT_END
 95
        2
302
GRIDFORMAT
  1
GRIDFORMAT_BEGIN
 90
        0
 91
        1
 62
     0
 92
       -2
340
14
 93
        0
 40
0.045
309
GRIDFORMAT_END
 95
        4
302
GRIDFORMAT
  1
GRIDFORMAT_BEGIN
 90
        0
 91
        1
 62
     0
 92
       -2
340
14
 93
        0
 40
0.045
309
GRIDFORMAT_END
 95
        8
302
GRIDFORMAT
  1
GRIDFORMAT_BEGIN
 90
        0
 91
        1
 62
     0
 92
       -2
340
14
 93
        0
 40
0.045
309
GRIDFORMAT_END
 95
       16
302
GRIDFORMAT
  1
GRIDFORMAT_BEGIN
 90
        0
 91
        1
 62
     0
 92
       -2
340
14
 93
        0
 40
0.045
309
GRIDFORMAT_END
 95
       32
302
GRIDFORMAT
  1
GRIDFORMAT_BEGIN
 90
        0
 91
        1
 62
     0
 92
       -2
340
14
 93
        0
 40
0.045
309
GRIDFORMAT_END
309
TABLEFORMAT_END
  1
CELLSTYLE_BEGIN
 90
        2
 91
        1
300
_HEADER
309
CELLSTYLE_END
300
CELLSTYLE
  1
TABLEFORMAT_BEGIN
 90
        5
170
     1
 91
        0
 92
        0
 62
   257
 93
        1
300
CONTENTFORMAT
  1
CONTENTFORMAT_BEGIN
 90
        0
 91
        0
 92
        4
 93
        0
300

 40
0.0
140
1.0
 94
        2
 62
     0
340
11
144
0.18
309
CONTENTFORMAT_END
171
     1
301
MARGIN
  1
CELLMARGIN_BEGIN
 40
0.06
 40
0.06
 40
0.06
 40
0.06
 40
0.06
 40
0.06
309
CELLMARGIN_END
 94
        6
 95
        1
302
GRIDFORMAT
  1
GRIDFORMAT_BEGIN
 90
        0
 91
        1
 62
     0
 92
       -2
340
14
 93
        0
 40
0.045
309
GRIDFORMAT_END
 95
        2
302
GRIDFORMAT
  1
GRIDFORMAT_BEGIN
 90
        0
 91
        1
 62
     0
 92
       -2
340
14
 93
        0
 40
0.045
309
GRIDFORMAT_END
 95
        4
302
GRIDFORMAT
  1
GRIDFORMAT_BEGIN
 90
        0
 91
        1
 62
     0
 92
       -2
340
14
 93
        0
 40
0.045
309
GRIDFORMAT_END
 95
        8
302
GRIDFORMAT
  1
GRIDFORMAT_BEGIN
 90
        0
 91
        1
 62
     0
 92
       -2
340
14
 93
        0
 40
0.045
309
GRIDFORMAT_END
 95
       16
302
GRIDFORMAT
  1
GRIDFORMAT_BEGIN
 90
        0
 91
        1
 62
     0
 92
       -2
340
14
 93
        0
 40
0.045
309
GRIDFORMAT_END
 95
       32
302
GRIDFORMAT
  1
GRIDFORMAT_BEGIN
 90
        0
 91
        1
 62
     0
 92
       -2
340
14
 93
        0
 40
0.045
309
GRIDFORMAT_END
309
TABLEFORMAT_END
  1
CELLSTYLE_BEGIN
 90
        3
 91
        2
300
_DATA
309
CELLSTYLE_END
  0
ENDSEC
  0
EOF
