  0
SECTION
  2
HEADER
  9
$ACADVER
  1
AC1027
  9
$ACADMAINTVER
 70
   105
  9
$DWGCODEPAGE
  3
ANSI_1252
  9
$LASTSAVEDBY
  1
Office Desk
  9
$REQUIREDVERSIONS
160
                 0
  9
$INSBASE
 10
0.0
 20
0.0
 30
0.0
  9
$EXTMIN
 10
-22.39900393700787
 20
2.878484251968504
 30
0.0
  9
$EXTMAX
 10
-16.50883070866142
 20
10.92333858267716
 30
0.0
  9
$LIMMIN
 10
0.0
 20
0.0
  9
$LIMMAX
 10
12.0
 20
9.0
  9
$ORTHOMODE
 70
     0
  9
$REGENMODE
 70
     1
  9
$FILLMODE
 70
     1
  9
$QTEXTMODE
 70
     0
  9
$MIRRTEXT
 70
     1
  9
$LTSCALE
 40
1.0
  9
$ATTMODE
 70
     1
  9
$TEXTSIZE
 40
0.2
  9
$TRACEWID
 40
0.05
  9
$TEXTSTYLE
  7
Standard
  9
$CLAYER
  8
0
  9
$CELTYPE
  6
ByLayer
  9
$CECOLOR
 62
   256
  9
$CELTSCALE
 40
1.0
  9
$DISPSILH
 70
     0
  9
$DIMSCALE
 40
1.0
  9
$DIMASZ
 40
0.18
  9
$DIMEXO
 40
0.0625
  9
$DIMDLI
 40
0.38
  9
$DIMRND
 40
0.0
  9
$DIMDLE
 40
0.0
  9
$DIMEXE
 40
0.18
  9
$DIMTP
 40
0.0
  9
$DIMTM
 40
0.0
  9
$DIMTXT
 40
0.18
  9
$DIMCEN
 40
0.09
  9
$DIMTSZ
 40
0.0
  9
$DIMTOL
 70
     0
  9
$DIMLIM
 70
     0
  9
$DIMTIH
 70
     1
  9
$DIMTOH
 70
     1
  9
$DIMSE1
 70
     0
  9
$DIMSE2
 70
     0
  9
$DIMTAD
 70
     0
  9
$DIMZIN
 70
     0
  9
$DIMBLK
  1

  9
$DIMASO
 70
     1
  9
$DIMSHO
 70
     1
  9
$DIMPOST
  1

  9
$DIMAPOST
  1

  9
$DIMALT
 70
     0
  9
$DIMALTD
 70
     2
  9
$DIMALTF
 40
25.4
  9
$DIMLFAC
 40
1.0
  9
$DIMTOFL
 70
     0
  9
$DIMTVP
 40
0.0
  9
$DIMTIX
 70
     0
  9
$DIMSOXD
 70
     0
  9
$DIMSAH
 70
     0
  9
$DIMBLK1
  1

  9
$DIMBLK2
  1

  9
$DIMSTYLE
  2
Standard
  9
$DIMCLRD
 70
     0
  9
$DIMCLRE
 70
     0
  9
$DIMCLRT
 70
     0
  9
$DIMTFAC
 40
1.0
  9
$DIMGAP
 40
0.09
  9
$DIMJUST
 70
     0
  9
$DIMSD1
 70
     0
  9
$DIMSD2
 70
     0
  9
$DIMTOLJ
 70
     1
  9
$DIMTZIN
 70
     0
  9
$DIMALTZ
 70
     0
  9
$DIMALTTZ
 70
     0
  9
$DIMUPT
 70
     0
  9
$DIMDEC
 70
     4
  9
$DIMTDEC
 70
     4
  9
$DIMALTU
 70
     2
  9
$DIMALTTD
 70
     2
  9
$DIMTXSTY
  7
Standard
  9
$DIMAUNIT
 70
     0
  9
$DIMADEC
 70
     0
  9
$DIMALTRND
 40
0.0
  9
$DIMAZIN
 70
     0
  9
$DIMDSEP
 70
    46
  9
$DIMATFIT
 70
     3
  9
$DIMFRAC
 70
     0
  9
$DIMLDRBLK
  1

  9
$DIMLUNIT
 70
     2
  9
$DIMLWD
 70
    -2
  9
$DIMLWE
 70
    -2
  9
$DIMTMOVE
 70
     0
  9
$DIMFXL
 40
1.0
  9
$DIMFXLON
 70
     0
  9
$DIMJOGANG
 40
0.7853981633974483
  9
$DIMTFILL
 70
     0
  9
$DIMTFILLCLR
 70
     0
  9
$DIMARCSYM
 70
     0
  9
$DIMLTYPE
  6

  9
$DIMLTEX1
  6

  9
$DIMLTEX2
  6

  9
$DIMTXTDIRECTION
 70
     0
  9
$LUNITS
 70
     2
  9
$LUPREC
 70
     4
  9
$SKETCHINC
 40
0.1
  9
$FILLETRAD
 40
0.0
  9
$AUNITS
 70
     0
  9
$AUPREC
 70
     0
  9
$MENU
  1
.
  9
$ELEVATION
 40
0.0
  9
$PELEVATION
 40
0.0
  9
$THICKNESS
 40
0.0
  9
$LIMCHECK
 70
     0
  9
$CHAMFERA
 40
0.0
  9
$CHAMFERB
 40
0.0
  9
$CHAMFERC
 40
0.0
  9
$CHAMFERD
 40
0.0
  9
$SKPOLY
 70
     0
  9
$TDCREATE
 40
2461020.630410857
  9
$TDUCREATE
 40
2461020.40124419
  9
$TDUPDATE
 40
2461020.630410903
  9
$TDUUPDATE
 40
2461020.401244236
  9
$TDINDWG
 40
0.0000000116
  9
$TDUSRTIMER
 40
0.0000000116
  9
$USRTIMER
 70
     1
  9
$ANGBASE
 50
0.0
  9
$ANGDIR
 70
     0
  9
$PDMODE
 70
     0
  9
$PDSIZE
 40
0.0
  9
$PLINEWID
 40
0.0
  9
$SPLFRAME
 70
     0
  9
$SPLINETYPE
 70
     6
  9
$SPLINESEGS
 70
     8
  9
$HANDSEED
  5
94
  9
$SURFTAB1
 70
     6
  9
$SURFTAB2
 70
     6
  9
$SURFTYPE
 70
     6
  9
$SURFU
 70
     6
  9
$SURFV
 70
     6
  9
$UCSBASE
  2

  9
$UCSNAME
  2

  9
$UCSORG
 10
0.0
 20
0.0
 30
0.0
  9
$UCSXDIR
 10
1.0
 20
0.0
 30
0.0
  9
$UCSYDIR
 10
0.0
 20
1.0
 30
0.0
  9
$UCSORTHOREF
  2

  9
$UCSORTHOVIEW
 70
     0
  9
$UCSORGTOP
 10
0.0
 20
0.0
 30
0.0
  9
$UCSORGBOTTOM
 10
0.0
 20
0.0
 30
0.0
  9
$UCSORGLEFT
 10
0.0
 20
0.0
 30
0.0
  9
$UCSORGRIGHT
 10
0.0
 20
0.0
 30
0.0
  9
$UCSORGFRONT
 10
0.0
 20
0.0
 30
0.0
  9
$UCSORGBACK
 10
0.0
 20
0.0
 30
0.0
  9
$PUCSBASE
  2

  9
$PUCSNAME
  2

  9
$PUCSORG
 10
0.0
 20
0.0
 30
0.0
  9
$PUCSXDIR
 10
1.0
 20
0.0
 30
0.0
  9
$PUCSYDIR
 10
0.0
 20
1.0
 30
0.0
  9
$PUCSORTHOREF
  2

  9
$PUCSORTHOVIEW
 70
     0
  9
$PUCSORGTOP
 10
0.0
 20
0.0
 30
0.0
  9
$PUCSORGBOTTOM
 10
0.0
 20
0.0
 30
0.0
  9
$PUCSORGLEFT
 10
0.0
 20
0.0
 30
0.0
  9
$PUCSORGRIGHT
 10
0.0
 20
0.0
 30
0.0
  9
$PUCSORGFRONT
 10
0.0
 20
0.0
 30
0.0
  9
$PUCSORGBACK
 10
0.0
 20
0.0
 30
0.0
  9
$USERI1
 70
     0
  9
$USERI2
 70
     0
  9
$USERI3
 70
     0
  9
$USERI4
 70
     0
  9
$USERI5
 70
     0
  9
$USERR1
 40
0.0
  9
$USERR2
 40
0.0
  9
$USERR3
 40
0.0
  9
$USERR4
 40
0.0
  9
$USERR5
 40
0.0
  9
$WORLDVIEW
 70
     1
  9
$SHADEDGE
 70
     3
  9
$SHADEDIF
 70
    70
  9
$TILEMODE
 70
     1
  9
$MAXACTVP
 70
    64
  9
$PINSBASE
 10
0.0
 20
0.0
 30
0.0
  9
$PLIMCHECK
 70
     0
  9
$PEXTMIN
 10
1.000000000000000E+20
 20
1.000000000000000E+20
 30
1.000000000000000E+20
  9
$PEXTMAX
 10
-1.000000000000000E+20
 20
-1.000000000000000E+20
 30
-1.000000000000000E+20
  9
$PLIMMIN
 10
0.0
 20
0.0
  9
$PLIMMAX
 10
12.0
 20
9.0
  9
$UNITMODE
 70
     0
  9
$VISRETAIN
 70
     1
  9
$PLINEGEN
 70
     0
  9
$PSLTSCALE
 70
     1
  9
$TREEDEPTH
 70
  3020
  9
$CMLSTYLE
  2
Standard
  9
$CMLJUST
 70
     0
  9
$CMLSCALE
 40
1.0
  9
$PROXYGRAPHICS
 70
     1
  9
$MEASUREMENT
 70
     0
  9
$CELWEIGHT
370
    -1
  9
$ENDCAPS
280
     0
  9
$JOINSTYLE
280
     0
  9
$LWDISPLAY
290
     0
  9
$INSUNITS
 70
     1
  9
$HYPERLINKBASE
  1

  9
$STYLESHEET
  1

  9
$XEDIT
290
     1
  9
$CEPSNTYPE
380
     0
  9
$PSTYLEMODE
290
     1
  9
$FINGERPRINTGUID
  2
{bb5f3793-29c2-404c-a228-12fca7a4c73a}
  9
$VERSIONGUID
  2
{FAEB1C32-E019-11D5-929B-00C0DF256EC4}
  9
$EXTNAMES
290
     1
  9
$PSVPSCALE
 40
0.0
  9
$OLESTARTUP
290
     0
  9
$SORTENTS
280
   127
  9
$INDEXCTL
280
     0
  9
$HIDETEXT
280
     1
  9
$XCLIPFRAME
280
     2
  9
$HALOGAP
280
     0
  9
$OBSCOLOR
 70
   257
  9
$OBSLTYPE
280
     0
  9
$INTERSECTIONDISPLAY
280
     0
  9
$INTERSECTIONCOLOR
 70
   257
  9
$DIMASSOC
280
     2
  9
$PROJECTNAME
  1

  9
$CAMERADISPLAY
290
     0
  9
$LENSLENGTH
 40
50.0
  9
$CAMERAHEIGHT
 40
0.0
  9
$STEPSPERSEC
 40
2.0
  9
$STEPSIZE
 40
6.0
  9
$3DDWFPREC
 40
2.0
  9
$PSOLWIDTH
 40
0.25
  9
$PSOLHEIGHT
 40
4.0
  9
$LOFTANG1
 40
1.570796326794897
  9
$LOFTANG2
 40
1.570796326794897
  9
$LOFTMAG1
 40
0.0
  9
$LOFTMAG2
 40
0.0
  9
$LOFTPARAM
 70
     7
  9
$LOFTNORMALS
280
     1
  9
$LATITUDE
 40
37.795
  9
$LONGITUDE
 40
-122.394
  9
$NORTHDIRECTION
 40
0.0
  9
$TIMEZONE
 70
 -8000
  9
$LIGHTGLYPHDISPLAY
280
     1
  9
$TILEMODELIGHTSYNCH
280
     1
  9
$CMATERIAL
347
44
  9
$SOLIDHIST
280
     0
  9
$SHOWHIST
280
     1
  9
$DWFFRAME
280
     2
  9
$DGNFRAME
280
     2
  9
$REALWORLDSCALE
290
     1
  9
$INTERFERECOLOR
 62
   256
  9
$CSHADOW
280
     0
  9
$SHADOWPLANELOCATION
 40
0.0
  0
ENDSEC
  0
SECTION
  2
CLASSES
  0
CLASS
  1
ACDBDICTIONARYWDFLT
  2
AcDbDictionaryWithDefault
  3
ObjectDBX Classes
 90
        0
 91
        3
280
     0
281
     0
  0
CLASS
  1
VISUALSTYLE
  2
AcDbVisualStyle
  3
ObjectDBX Classes
 90
     4095
 91
        3
280
     0
281
     0
  0
CLASS
  1
MATERIAL
  2
AcDbMaterial
  3
ObjectDBX Classes
 90
     1153
 91
        3
280
     0
281
     0
  0
CLASS
  1
SCALE
  2
AcDbScale
  3
ObjectDBX Classes
 90
     1153
 91
        3
280
     0
281
     0
  0
CLASS
  1
TABLESTYLE
  2
AcDbTableStyle
  3
ObjectDBX Classes
 90
     4095
 91
        3
280
     0
281
     0
  0
CLASS
  1
MLEADERSTYLE
  2
AcDbMLeaderStyle
  3
ACDB_MLEADERSTYLE_CLASS
 90
     4095
 91
        3
280
     0
281
     0
  0
CLASS
  1
SUN
  2
AcDbSun
  3
SCENEOE
 90
     1153
 91
        3
280
     0
281
     0
  0
CLASS
  1
DICTIONARYVAR
  2
AcDbDictionaryVar
  3
ObjectDBX Classes
 90
        0
 91
        3
280
     0
281
     0
  0
CLASS
  1
CELLSTYLEMAP
  2
AcDbCellStyleMap
  3
ObjectDBX Classes
 90
     1152
 91
        3
280
     0
281
     0
  0
ENDSEC
  0
SECTION
  2
TABLES
  0
TABLE
  2
VPORT
  5
8
330
0
100
AcDbSymbolTable
 70
     1
  0
VPORT
  5
29
330
8
100
AcDbSymbolTableRecord
100
AcDbViewportTableRecord
  2
*Active
 70
     0
 10
0.0
 20
0.0
 11
1.0
 21
1.0
 12
10.42990654205607
 22
4.5
 13
0.0
 23
0.0
 14
0.5
 24
0.5
 15
0.5
 25
0.5
 16
0.0
 26
0.0
 36
1.0
 17
0.0
 27
0.0
 37
0.0
 40
9.0
 41
1.972972972850329
 42
50.0
 43
0.0
 44
0.0
 50
0.0
 51
0.0
 71
     0
 72
   100
 73
     1
 74
     3
 75
     0
 76
     0
 77
     0
 78
     0
281
     0
 65
     1
110
0.0
120
0.0
130
0.0
111
1.0
121
0.0
131
0.0
112
0.0
122
1.0
132
0.0
 79
     0
146
0.0
348
2F
 60
     3
 61
     5
292
     1
282
     1
141
0.0
142
0.0
 63
   250
361
5D
  0
ENDTAB
  0
TABLE
  2
LTYPE
  5
5
330
0
100
AcDbSymbolTable
 70
     1
  0
LTYPE
  5
14
330
5
100
AcDbSymbolTableRecord
100
AcDbLinetypeTableRecord
  2
ByBlock
 70
     0
  3

 72
    65
 73
     0
 40
0.0
  0
LTYPE
  5
15
330
5
100
AcDbSymbolTableRecord
100
AcDbLinetypeTableRecord
  2
ByLayer
 70
     0
  3

 72
    65
 73
     0
 40
0.0
  0
LTYPE
  5
16
330
5
100
AcDbSymbolTableRecord
100
AcDbLinetypeTableRecord
  2
Continuous
 70
     0
  3
Solid line
 72
    65
 73
     0
 40
0.0
  0
ENDTAB
  0
TABLE
  2
LAYER
  5
2
330
0
100
AcDbSymbolTable
 70
     2
  0
LAYER
  5
10
330
2
100
AcDbSymbolTableRecord
100
AcDbLayerTableRecord
  2
0
 70
     0
 62
     7
  6
Continuous
370
    -3
390
F
347
46
348
0
  0
LAYER
  5
5F
330
2
100
AcDbSymbolTableRecord
100
AcDbLayerTableRecord
  2
Layer 1
 70
     0
 62
     7
  6
Continuous
370
    -3
390
F
347
46
348
0
  0
ENDTAB
  0
TABLE
  2
STYLE
  5
3
330
0
100
AcDbSymbolTable
 70
     1
  0
STYLE
  5
11
330
3
100
AcDbSymbolTableRecord
100
AcDbTextStyleTableRecord
  2
Standard
 70
     0
 40
0.0
 41
1.0
 50
0.0
 71
     0
 42
0.2
  3
txt
  4

  0
ENDTAB
  0
TABLE
  2
VIEW
  5
6
330
0
100
AcDbSymbolTable
 70
     0
  0
ENDTAB
  0
TABLE
  2
UCS
  5
7
330
0
100
AcDbSymbolTable
 70
     0
  0
ENDTAB
  0
TABLE
  2
APPID
  5
9
330
0
100
AcDbSymbolTable
 70
     2
  0
APPID
  5
12
330
9
100
AcDbSymbolTableRecord
100
AcDbRegAppTableRecord
  2
ACAD
 70
     0
  0
APPID
  5
5E
330
9
100
AcDbSymbolTableRecord
100
AcDbRegAppTableRecord
  2
ODA
 70
     0
  0
ENDTAB
  0
TABLE
  2
DIMSTYLE
  5
A
330
0
100
AcDbSymbolTable
 70
     1
100
AcDbDimStyleTable
  0
DIMSTYLE
105
27
330
A
100
AcDbSymbolTableRecord
100
AcDbDimStyleTableRecord
  2
Standard
 70
     0
178
     0
340
11
  0
ENDTAB
  0
TABLE
  2
BLOCK_RECORD
  5
1
330
0
100
AcDbSymbolTable
 70
     1
  0
BLOCK_RECORD
  5
1F
330
1
100
AcDbSymbolTableRecord
100
AcDbBlockTableRecord
  2
*Model_Space
340
22
 70
     0
280
     1
281
     0
  0
BLOCK_RECORD
  5
1B
330
1
100
AcDbSymbolTableRecord
100
AcDbBlockTableRecord
  2
*Paper_Space
340
1E
 70
     0
280
     1
281
     0
  0
BLOCK_RECORD
  5
23
330
1
100
AcDbSymbolTableRecord
100
AcDbBlockTableRecord
  2
*Paper_Space0
340
26
 70
     0
280
     1
281
     0
  0
ENDTAB
  0
ENDSEC
  0
SECTION
  2
BLOCKS
  0
BLOCK
  5
20
330
1F
100
AcDbEntity
  8
0
100
AcDbBlockBegin
  2
*Model_Space
 70
     0
 10
0.0
 20
0.0
 30
0.0
  3
*Model_Space
  1

  0
ENDBLK
  5
21
330
1F
100
AcDbEntity
  8
0
100
AcDbBlockEnd
  0
BLOCK
  5
1C
330
1B
100
AcDbEntity
 67
     1
  8
0
100
AcDbBlockBegin
  2
*Paper_Space
 70
     0
 10
0.0
 20
0.0
 30
0.0
  3
*Paper_Space
  1

  0
ENDBLK
  5
1D
330
1B
100
AcDbEntity
 67
     1
  8
0
100
AcDbBlockEnd
  0
BLOCK
  5
24
330
23
100
AcDbEntity
  8
0
100
AcDbBlockBegin
  2
*Paper_Space0
 70
     0
 10
0.0
 20
0.0
 30
0.0
  3
*Paper_Space0
  1

  0
ENDBLK
  5
25
330
23
100
AcDbEntity
  8
0
100
AcDbBlockEnd
  0
ENDSEC
  0
SECTION
  2
ENTITIES
  0
LWPOLYLINE
  5
60
330
1F
100
AcDbEntity
  8
Layer 1
 62
   250
370
     9
100
AcDbPolyline
 90
        5
 70
     1
 43
0.0
 10
-22.39750393700787
 20
2.879988188976378
 10
-16.51033070866142
 20
2.879988188976378
 10
-16.51033070866142
 20
10.92183858267717
 10
-22.39750393700787
 20
10.92183858267717
 10
-22.39750393700787
 20
2.879988188976378
  0
LWPOLYLINE
  5
61
330
1F
100
AcDbEntity
  8
Layer 1
 62
     7
370
     9
100
AcDbPolyline
 90
      156
 70
     0
 43
0.0
 10
-17.8533188976378
 20
6.851094488188976
 10
-17.85207086614173
 20
6.895082677165354
 10
-17.85026377952756
 20
6.943688976377953
 10
-17.84812204724409
 20
6.993685039370079
 10
-17.84587007874016
 20
7.041834645669291
 10
-17.84373228346457
 20
7.084909448818897
 10
-17.84192519685039
 20
7.119681102362205
 10
-17.84067716535433
 20
7.142913385826771
 10
-17.8402125984252
 20
7.151374015748032
 10
-19.31959842519685
 20
7.515248031496063
 10
-19.40506692913386
 20
7.408578740157481
 10
-19.43861811023622
 20
4.22388188976378
 10
-19.42973622047244
 20
4.220377952755905
 10
-19.40693307086614
 20
4.209645669291339
 10
-19.37596062992126
 20
4.191354330708662
 10
-19.34257874015748
 20
4.165181102362205
 10
-19.31254330708661
 20
4.130787401574803
 10
-19.29161417322835
 20
4.087846456692914
 10
-19.28554724409449
 20
4.036031496062992
 10
-19.30009448818898
 20
3.975011811023622
 10
-19.33795669291339
 20
3.913704724409449
 10
-19.39497244094488
 20
3.861133858267717
 10
-19.46663779527559
 20
3.817122047244094
 10
-19.54843307086614
 20
3.781507874015748
 10
-19.63585039370079
 20
3.754106299212598
 10
-19.72437401574803
 20
3.734748031496063
 10
-19.80949606299212
 20
3.723259842519685
 10
-19.8866968503937
 20
3.719468503937008
 10
-19.96640157480315
 20
3.71901968503937
 10
-20.05884645669291
 20
3.718606299212599
 10
-20.15926377952756
 20
3.719622047244095
 10
-20.2628779527559
 20
3.723464566929134
 10
-20.3649094488189
 20
3.731527559055118
 10
-20.46059448818898
 20
3.745212598425197
 10
-20.54514960629921
 20
3.765909448818898
 10
-20.61380708661417
 20
3.795015748031496
 10
-20.66896850393701
 20
3.825543307086614
 10
-20.71635433070866
 20
3.851275590551181
 10
-20.75615354330709
 20
3.874779527559055
 10
-20.78856299212599
 20
3.898625984251968
 10
-20.81377165354331
 20
3.925377952755905
 10
-20.83197637795276
 20
3.957610236220472
 10
-20.84336614173228
 20
3.99788188976378
 10
-20.84813385826772
 20
4.048767716535433
 10
-20.84748031496063
 20
4.05413779527559
 10
-20.84442913385827
 20
4.06892125984252
 10
-20.83733464566929
 20
4.091122047244094
 10
-20.82456299212598
 20
4.118740157480315
 10
-20.80446850393701
 20
4.149783464566929
 10
-20.77541338582677
 20
4.182251968503937
 10
-20.73575196850394
 20
4.214149606299213
 10
-20.68385039370079
 20
4.24348031496063
 10
-20.66870078740158
 20
8.268437007874017
 10
-20.6678031496063
 20
8.271377952755905
 10
-20.66491338582677
 20
8.279275590551181
 10
-20.65974803149606
 20
8.290740157480315
 10
-20.65201574803149
 20
8.304377952755905
 10
-20.6414251968504
 20
8.318795275590551
 10
-20.62769291338583
 20
8.332606299212598
 10
-20.61053149606299
 20
8.34441338582677
 10
-20.58964566929134
 20
8.352830708661417
 10
-20.59492913385827
 20
8.359897637795276
 10
-20.60879133858268
 20
8.379370078740157
 10
-20.62824409448819
 20
8.408649606299212
 10
-20.65029921259843
 20
8.44513779527559
 10
-20.67197244094488
 20
8.486240157480315
 10
-20.69027165354331
 20
8.529358267716535
 10
-20.70221653543307
 20
8.571897637795276
 10
-20.70481102362205
 20
8.611255905511811
 10
-20.68655511811023
 20
9.301086614173228
 10
-20.68175984251969
 20
9.311956692913386
 10
-20.66204330708661
 20
9.33974409448819
 10
-20.61942125984252
 20
9.377228346456693
 10
-20.54590551181102
 20
9.417181102362205
 10
-20.43351181102362
 20
9.452377952755905
 10
-20.27424803149606
 20
9.475586614173228
 10
-20.06012598425197
 20
9.479582677165354
 10
-19.78316535433071
 20
9.457141732283464
 10
-17.9608188976378
 20
9.026326771653544
 10
-17.95042913385827
 20
9.023822834645669
 10
-17.92309448818898
 20
9.016334645669291
 10
-17.88458267716535
 20
9.003897637795276
 10
-17.84064960629921
 20
8.986551181102362
 10
-17.79706299212598
 20
8.964326771653543
 10
-17.75957874015748
 20
8.937263779527559
 10
-17.73396456692914
 20
8.905397637795275
 10
-17.72597637795275
 20
8.868763779527558
 10
-17.72885039370079
 20
8.829637795275591
 10
-17.73524015748032
 20
8.790925196850393
 10
-17.75004724409449
 20
8.753586614173228
 10
-17.77816141732283
 20
8.718586614173228
 10
-17.82447637795276
 20
8.686877952755905
 10
-17.89388582677165
 20
8.659425196850394
 10
-17.99128346456693
 20
8.637192913385826
 10
-18.12156299212598
 20
8.621141732283464
 10
-18.26718897637795
 20
8.614114173228346
 10
-18.4049842519685
 20
8.616543307086614
 10
-18.53138188976378
 20
8.625811023622047
 10
-18.6428031496063
 20
8.63928346456693
 10
-18.7356811023622
 20
8.654334645669291
 10
-18.80644488188976
 20
8.668338582677166
 10
-18.85152362204724
 20
8.67866535433071
 10
-18.86734251968504
 20
8.682692913385827
 10
-19.32998031496063
 20
8.804397637795276
 10
-19.34335826771654
 20
8.362913385826772
 10
-19.34376377952756
 20
8.361511811023622
 10
-19.34512598425197
 20
8.35759842519685
 10
-19.34764173228346
 20
8.351610236220472
 10
-19.35152755905512
 20
8.343988188976377
 10
-19.35698425196851
 20
8.335169291338582
 10
-19.36422047244094
 20
8.325590551181103
 10
-19.37344488188976
 20
8.315696850393701
 10
-19.38485826771653
 20
8.30592125984252
 10
-17.56843307086614
 20
7.849185039370079
 10
-17.53716535433071
 20
7.841870078740158
 10
-17.45458267716536
 20
7.821271653543307
 10
-17.33753149606299
 20
7.789429133858268
 10
-17.20285039370079
 20
7.748366141732284
 10
-17.0673779527559
 20
7.700114173228346
 10
-16.94795275590551
 20
7.646708661417323
 10
-16.86142125984252
 20
7.590173228346456
 10
-16.82461811023622
 20
7.532543307086614
 10
-16.81938582677165
 20
7.474370078740158
 10
-16.81695275590551
 20
7.415905511811023
 10
-16.81826377952756
 20
7.358736220472441
 10
-16.82424015748031
 20
7.304444881889764
 10
-16.83582677165354
 20
7.254606299212599
 10
-16.85394881889764
 20
7.210803149606299
 10
-16.87955118110236
 20
7.174625984251969
 10
-16.91355905511811
 20
7.147645669291339
 10
-16.95073228346457
 20
7.12792125984252
 10
-16.98481889763779
 20
7.112169291338582
 10
-17.01524015748031
 20
7.099976377952756
 10
-17.04142519685039
 20
7.090933070866142
 10
-17.06279133858268
 20
7.084618110236221
 10
-17.07876771653543
 20
7.080622047244095
 10
-17.08877559055118
 20
7.078527559055118
 10
-17.09224015748032
 20
7.07792125984252
 10
-17.08688188976378
 20
6.752523622047244
 10
-17.08678346456693
 20
6.749688976377953
 10
-17.08704330708661
 20
6.742090551181103
 10
-17.08850393700788
 20
6.731082677165355
 10
-17.09201181102362
 20
6.718031496062992
 10
-17.09840157480315
 20
6.704291338582677
 10
-17.10852362204724
 20
6.691220472440945
 10
-17.1232125984252
 20
6.680181102362205
 10
-17.14331102362205
 20
6.672527559055118
 10
-17.17364566929134
 20
6.666472440944882
 10
-17.21782677165354
 20
6.660118110236221
 10
-17.2748937007874
 20
6.654669291338583
 10
-17.34387795275591
 20
6.651314960629922
 10
-17.42381102362205
 20
6.651255905511811
 10
-17.51372834645669
 20
6.655685039370079
 10
-17.61266535433071
 20
6.665807086614174
 10
-17.71965748031496
 20
6.682814960629921
 10
-17.72997637795276
 20
6.68351968503937
  0
LWPOLYLINE
  5
62
330
1F
100
AcDbEntity
  8
Layer 1
 62
     7
370
     9
100
AcDbPolyline
 90
       10
 70
     0
 43
0.0
 10
-17.72997637795276
 20
6.68351968503937
 10
-17.75713385826772
 20
6.702118110236221
 10
-17.78140157480315
 20
6.72207874015748
 10
-17.80255905511811
 20
6.743248031496063
 10
-17.8203779527559
 20
6.765472440944882
 10
-17.83462992125984
 20
6.788602362204724
 10
-17.8450905511811
 20
6.812488188976378
 10
-17.85153543307086
 20
6.836976377952756
 10
-17.85373228346457
 20
6.861909448818897
 10
-17.85255118110236
 20
6.880023622047244
  0
LWPOLYLINE
  5
63
330
1F
100
AcDbEntity
  8
Layer 1
 62
     7
370
     9
100
AcDbPolyline
 90
       33
 70
     1
 43
0.0
 10
-19.49997637795276
 20
8.773055118110236
 10
-19.51379133858268
 20
8.77084251968504
 10
-19.52678346456693
 20
8.7645
 10
-19.53866929133858
 20
8.754464566929133
 10
-19.54915748031496
 20
8.741173228346456
 10
-19.55796062992126
 20
8.725062992125984
 10
-19.56479527559055
 20
8.706570866141732
 10
-19.56937007874016
 20
8.68613779527559
 10
-19.57139763779528
 20
8.6641968503937
 10
-19.57065748031496
 20
8.642255905511812
 10
-19.5672874015748
 20
8.62182283464567
 10
-19.56153937007874
 20
8.603330708661417
 10
-19.55368110236221
 20
8.587220472440945
 10
-19.54397637795276
 20
8.573925196850393
 10
-19.5326811023622
 20
8.563889763779528
 10
-19.52005905511811
 20
8.557547244094488
 10
-19.50637401574803
 20
8.55533464566929
 10
-19.49255905511811
 20
8.557547244094488
 10
-19.47956692913386
 20
8.563889763779528
 10
-19.4676811023622
 20
8.573925196850393
 10
-19.45719291338583
 20
8.587220472440945
 10
-19.44838976377953
 20
8.603330708661417
 10
-19.44155511811024
 20
8.62182283464567
 10
-19.43698031496063
 20
8.642255905511812
 10
-19.43495275590551
 20
8.6641968503937
 10
-19.43569291338583
 20
8.68613779527559
 10
-19.43906299212598
 20
8.706570866141732
 10
-19.44481102362205
 20
8.725062992125984
 10
-19.45266929133858
 20
8.741173228346456
 10
-19.46237401574803
 20
8.754464566929133
 10
-19.47366929133858
 20
8.7645
 10
-19.48629133858268
 20
8.77084251968504
 10
-19.49997637795276
 20
8.773055118110236
  0
LWPOLYLINE
  5
64
330
1F
100
AcDbEntity
  8
Layer 1
 62
     7
370
     9
100
AcDbPolyline
 90
       33
 70
     1
 43
0.0
 10
-19.48203937007874
 20
8.677074803149607
 10
-19.48722440944882
 20
8.676393700787402
 10
-19.4921062992126
 20
8.674444881889764
 10
-19.49656692913386
 20
8.671354330708661
 10
-19.50050787401575
 20
8.667267716535433
 10
-19.50381102362205
 20
8.662311023622047
 10
-19.5063779527559
 20
8.656622047244095
 10
-19.50809448818898
 20
8.650338582677165
 10
-19.50885433070866
 20
8.643590551181102
 10
-19.50857874015748
 20
8.63684251968504
 10
-19.50731102362205
 20
8.630555118110236
 10
-19.50515354330709
 20
8.624866141732284
 10
-19.50220472440945
 20
8.619909448818898
 10
-19.49855905511811
 20
8.61582283464567
 10
-19.49431496062992
 20
8.612732283464567
 10
-19.48957874015748
 20
8.610783464566929
 10
-19.48444094488189
 20
8.610102362204724
 10
-19.47925590551181
 20
8.610783464566929
 10
-19.47437401574803
 20
8.612732283464567
 10
-19.46991338582677
 20
8.61582283464567
 10
-19.46597244094488
 20
8.619909448818898
 10
-19.46266535433071
 20
8.624866141732284
 10
-19.46009448818898
 20
8.630555118110236
 10
-19.45837401574803
 20
8.63684251968504
 10
-19.45761023622047
 20
8.643590551181102
 10
-19.45788976377953
 20
8.650338582677165
 10
-19.45915748031496
 20
8.656622047244095
 10
-19.4613188976378
 20
8.662311023622047
 10
-19.46426771653543
 20
8.667267716535433
 10
-19.46791338582677
 20
8.671354330708661
 10
-19.47215748031496
 20
8.674444881889764
 10
-19.47689763779528
 20
8.676393700787402
 10
-19.48203937007874
 20
8.677074803149607
  0
LWPOLYLINE
  5
65
330
1F
100
AcDbEntity
  8
Layer 1
 62
     7
370
     9
100
AcDbPolyline
 90
       25
 70
     0
 43
0.0
 10
-16.85633070866142
 20
7.500661417322835
 10
-16.87172047244094
 20
7.494153543307086
 10
-16.91550393700787
 20
7.477503937007874
 10
-16.98411023622047
 20
7.455011811023622
 10
-17.07396456692913
 20
7.430984251968504
 10
-17.18149606299212
 20
7.409724409448819
 10
-17.30312598425197
 20
7.395531496062993
 10
-17.4352874015748
 20
7.392716535433071
 10
-17.57440551181102
 20
7.405574803149606
 10
-17.80876377952756
 20
7.453374015748031
 10
-18.19201968503937
 20
7.542673228346457
 10
-18.66864960629921
 20
7.658712598425197
 10
-19.18312598425197
 20
7.786744094488189
 10
-19.67992913385827
 20
7.912007874015748
 10
-20.10353149606299
 20
8.019751968503938
 10
-20.39841338582677
 20
8.095216535433071
 10
-20.50904330708661
 20
8.123649606299212
 10
-20.51468503937008
 20
8.12594094488189
 10
-20.52962992125984
 20
8.132433070866142
 10
-20.55089763779528
 20
8.142562992125985
 10
-20.57550787401575
 20
8.155767716535433
 10
-20.60048031496063
 20
8.171484251968504
 10
-20.62283858267716
 20
8.189145669291339
 10
-20.63959842519685
 20
8.208188976377953
 10
-20.6477874015748
 20
8.228047244094489
  0
LWPOLYLINE
  5
66
330
1F
100
AcDbEntity
  8
Layer 1
 62
     7
370
     9
100
AcDbPolyline
 90
       17
 70
     0
 43
0.0
 10
-19.41702362204724
 20
4.243641732283464
 10
-19.42448818897638
 20
4.233606299212599
 10
-19.44877165354331
 20
4.207220472440945
 10
-19.49272440944882
 20
4.170082677165355
 10
-19.55918503937008
 20
4.127775590551181
 10
-19.65099606299212
 20
4.085889763779528
 10
-19.771
 20
4.050015748031496
 10
-19.92204330708661
 20
4.025744094488189
 10
-20.10696456692913
 20
4.018661417322835
 10
-20.28763385826772
 20
4.030913385826771
 10
-20.42746062992126
 20
4.057614173228346
 10
-20.53161417322834
 20
4.093803149606299
 10
-20.60525196850394
 20
4.134527559055118
 10
-20.65353937007874
 20
4.174830708661418
 10
-20.68163779527559
 20
4.209755905511811
 10
-20.6947125984252
 20
4.23434251968504
 10
-20.69792125984252
 20
4.243641732283464
  0
LWPOLYLINE
  5
67
330
1F
100
AcDbEntity
  8
Layer 1
 62
     7
370
     9
100
AcDbPolyline
 90
       17
 70
     0
 43
0.0
 10
-16.96959448818898
 20
7.153862204724409
 10
-16.98633858267717
 20
7.148531496062992
 10
-17.03487007874016
 20
7.135590551181102
 10
-17.11262204724409
 20
7.119602362204724
 10
-17.21704330708661
 20
7.10513779527559
 10
-17.34557480314961
 20
7.096763779527559
 10
-17.49564960629921
 20
7.099047244094488
 10
-17.66471653543307
 20
7.116559055118111
 10
-17.85021653543307
 20
7.153862204724409
 10
-18.08712992125984
 20
7.213047244094488
 10
-18.39174409448819
 20
7.288251968503937
 10
-18.73346456692913
 20
7.37209842519685
 10
-19.08167716535433
 20
7.457224409448819
 10
-19.40578346456693
 20
7.536259842519685
 10
-19.67517716535433
 20
7.601838582677165
 10
-19.85925590551181
 20
7.646586614173228
 10
-19.92741732283465
 20
7.663141732283465
  0
LWPOLYLINE
  5
68
330
1F
100
AcDbEntity
  8
Layer 1
 62
     7
370
     9
100
AcDbPolyline
 90
       17
 70
     0
 43
0.0
 10
-20.27194881889764
 20
8.99777559055118
 10
-20.26765354330709
 20
8.998909448818898
 10
-20.25524803149606
 20
9.001657480314961
 10
-20.23546062992126
 20
9.005055118110237
 10
-20.20901181102362
 20
9.008129921259842
 10
-20.17662204724409
 20
9.009909448818897
 10
-20.13901968503937
 20
9.009425196850394
 10
-20.09692519685039
 20
9.00570472440945
 10
-20.05106299212598
 20
8.99777559055118
 10
-19.98531102362205
 20
8.98209842519685
 10
-19.89078346456693
 20
8.957956692913386
 10
-19.77905118110236
 20
8.928598425196851
 10
-19.66168503937008
 20
8.897279527559055
 10
-19.55025590551181
 20
8.867259842519685
 10
-19.45633464566929
 20
8.841783464566928
 10
-19.3915
 20
8.824114173228347
 10
-19.36731496062992
 20
8.8175
  0
LWPOLYLINE
  5
69
330
1F
100
AcDbEntity
  8
Layer 1
 62
     7
370
     9
100
AcDbPolyline
 90
       17
 70
     0
 43
0.0
 10
-19.43073622047244
 20
8.305913385826772
 10
-19.43949212598425
 20
8.301370078740158
 10
-19.46565748031496
 20
8.289393700787402
 10
-19.50908661417323
 20
8.27246062992126
 10
-19.56963385826772
 20
8.253051181102363
 10
-19.64714960629921
 20
8.233637795275591
 10
-19.74149212598425
 20
8.216704724409448
 10
-19.85250393700787
 20
8.204728346456694
 10
-19.98004724409449
 20
8.200185039370078
 10
-20.10840157480315
 20
8.206452755905511
 10
-20.22155118110236
 20
8.222968503937008
 10
-20.3189094488189
 20
8.24632283464567
 10
-20.39988976377953
 20
8.273098425196851
 10
-20.46389763779528
 20
8.299870078740158
 10
-20.51035039370079
 20
8.32322440944882
 10
-20.53864960629921
 20
8.339740157480316
 10
-20.54821653543307
 20
8.346007874015749
  0
LWPOLYLINE
  5
6A
330
1F
100
AcDbEntity
  8
Layer 1
 62
     7
370
     9
100
AcDbPolyline
 90
        9
 70
     0
 43
0.0
 10
-17.84677165354331
 20
7.023122047244095
 10
-17.82977559055118
 20
7.015248031496063
 10
-17.78185826771654
 20
6.99611811023622
 10
-17.70764173228346
 20
6.972492125984252
 10
-17.61173622047244
 20
6.951114173228347
 10
-17.49875196850394
 20
6.938736220472441
 10
-17.37331102362205
 20
6.942110236220472
 10
-17.24002362204724
 20
6.967992125984252
 10
-17.10350393700788
 20
7.023122047244095
  0
LWPOLYLINE
  5
6B
330
1F
100
AcDbEntity
  8
Layer 1
 62
     7
370
     9
100
AcDbPolyline
 90
        9
 70
     0
 43
0.0
 10
-17.85255118110236
 20
6.880023622047244
 10
-17.8394094488189
 20
6.872846456692914
 10
-17.80116535433071
 20
6.855173228346457
 10
-17.73957874015748
 20
6.832799212598426
 10
-17.65641732283465
 20
6.811511811023622
 10
-17.55344488188976
 20
6.797106299212598
 10
-17.43242519685039
 20
6.795374015748031
 10
-17.29512598425197
 20
6.812106299212599
 10
-17.14331102362205
 20
6.853094488188977
  0
LWPOLYLINE
  5
6C
330
1F
100
AcDbEntity
  8
Layer 1
 62
     7
370
    18
100
AcDbPolyline
 90
        2
 70
     0
 43
0.0
 10
-21.07863385826772
 20
9.480838582677166
 10
-21.07863385826772
 20
3.720007874015748
  0
LWPOLYLINE
  5
6D
330
1F
100
AcDbEntity
  8
Layer 1
 62
     7
370
    18
100
AcDbPolyline
 90
        2
 70
     0
 43
0.0
 10
-19.30009842519685
 20
3.527425196850394
 10
-20.84813385826772
 20
3.527425196850394
  0
LWPOLYLINE
  5
6E
330
1F
100
AcDbEntity
  8
Layer 1
 62
     7
370
    18
100
AcDbPolyline
 90
        2
 70
     0
 43
0.0
 10
-21.16352755905512
 20
9.480838582677166
 10
-20.9896968503937
 20
9.480838582677166
  0
LWPOLYLINE
  5
6F
330
1F
100
AcDbEntity
  8
Layer 1
 62
     7
370
    18
100
AcDbPolyline
 90
        2
 70
     0
 43
0.0
 10
-21.16352755905512
 20
3.720011811023622
 10
-20.9896968503937
 20
3.720011811023622
  0
LWPOLYLINE
  5
70
330
1F
100
AcDbEntity
  8
Layer 1
 62
     7
370
    18
100
AcDbPolyline
 90
        2
 70
     0
 43
0.0
 10
-20.84813385826772
 20
3.44051968503937
 10
-20.84813385826772
 20
3.614350393700787
  0
LWPOLYLINE
  5
71
330
1F
100
AcDbEntity
  8
Layer 1
 62
     7
370
    18
100
AcDbPolyline
 90
        2
 70
     0
 43
0.0
 10
-19.30009448818898
 20
3.44051968503937
 10
-19.30009448818898
 20
3.614350393700787
  0
LWPOLYLINE
  5
72
330
1F
100
AcDbEntity
  8
Layer 1
 62
     7
370
     9
100
AcDbPolyline
 90
        7
 70
     1
 43
0.0
 10
-21.31320472440945
 20
6.613842519685039
 10
-21.31320472440945
 20
6.64544094488189
 10
-21.62386220472441
 20
6.64544094488189
 10
-21.61573622047244
 20
6.569586614173228
 10
-21.58818503937008
 20
6.569586614173228
 10
-21.58818503937008
 20
6.613842519685039
 10
-21.31320472440945
 20
6.613842519685039
  0
LWPOLYLINE
  5
73
330
1F
100
AcDbEntity
  8
Layer 1
 62
     7
370
     9
100
AcDbPolyline
 90
       65
 70
     1
 43
0.0
 10
-21.48071653543307
 20
6.792874015748032
 10
-21.48038582677165
 20
6.80007874015748
 10
-21.47938976377953
 20
6.807011811023622
 10
-21.47773228346457
 20
6.813681102362205
 10
-21.47541338582677
 20
6.820078740157481
 10
-21.47242913385827
 20
6.826212598425196
 10
-21.46878346456693
 20
6.832074803149606
 10
-21.46447637795276
 20
6.837669291338583
 10
-21.45950393700787
 20
6.843
 10
-21.45412598425197
 20
6.847814960629921
 10
-21.44849606299213
 20
6.851988188976378
 10
-21.44261417322835
 20
6.85551968503937
 10
-21.43647244094488
 20
6.858409448818898
 10
-21.43008267716536
 20
6.860653543307087
 10
-21.42343307086614
 20
6.862259842519685
 10
-21.41653543307087
 20
6.863220472440945
 10
-21.40937795275591
 20
6.863543307086614
 10
-21.40238582677165
 20
6.863220472440945
 10
-21.39563779527559
 20
6.862244094488189
 10
-21.38912598425197
 20
6.860622047244094
 10
-21.38285433070866
 20
6.858350393700787
 10
-21.37682283464567
 20
6.855429133858268
 10
-21.37103149606299
 20
6.851858267716535
 10
-21.36547637795276
 20
6.847641732283464
 10
-21.36016141732284
 20
6.842775590551181
 10
-21.35539763779527
 20
6.837547244094488
 10
-21.35127165354331
 20
6.83201968503937
 10
-21.34777559055118
 20
6.826200787401575
 10
-21.34492125984252
 20
6.820082677165354
 10
-21.3426968503937
 20
6.813669291338583
 10
-21.34111023622047
 20
6.80696062992126
 10
-21.34016141732284
 20
6.799952755905512
 10
-21.33984251968504
 20
6.792649606299213
 10
-21.34016929133858
 20
6.785492125984252
 10
-21.34115748031496
 20
6.778570866141732
 10
-21.34279921259843
 20
6.771889763779527
 10
-21.34509448818898
 20
6.765448818897638
 10
-21.34804724409449
 20
6.759244094488189
 10
-21.35165354330709
 20
6.75328346456693
 10
-21.35591732283465
 20
6.74755905511811
 10
-21.36083464566929
 20
6.742074803149606
 10
-21.36616141732284
 20
6.737102362204724
 10
-21.37174409448819
 20
6.732795275590552
 10
-21.3775905511811
 20
6.729149606299212
 10
-21.3836968503937
 20
6.726165354330709
 10
-21.39006299212598
 20
6.723846456692914
 10
-21.39669291338583
 20
6.722188976377953
 10
-21.40358267716535
 20
6.721192913385827
 10
-21.41073622047244
 20
6.720862204724409
 10
-21.41785039370079
 20
6.721192913385827
 10
-21.42469291338583
 20
6.722188976377953
 10
-21.43125590551181
 20
6.723846456692914
 10
-21.43754724409449
 20
6.726165354330709
 10
-21.44355905511811
 20
6.729149606299212
 10
-21.44929921259843
 20
6.732795275590552
 10
-21.45475984251969
 20
6.737102362204724
 10
-21.45994881889764
 20
6.742074803149606
 10
-21.46444881889764
 20
6.747240157480315
 10
-21.46847244094488
 20
6.752803149606299
 10
-21.4720157480315
 20
6.758759842519685
 10
-21.47508661417323
 20
6.765114173228347
 10
-21.47755118110236
 20
6.771755905511811
 10
-21.47931102362205
 20
6.778598425196851
 10
-21.48036614173228
 20
6.785637795275591
 10
-21.48071653543307
 20
6.792874015748032
  0
LWPOLYLINE
  5
74
330
1F
100
AcDbEntity
  8
Layer 1
 62
     7
370
     9
100
AcDbPolyline
 90
       69
 70
     1
 43
0.0
 10
-21.41163385826772
 20
6.895606299212599
 10
-21.42250787401575
 20
6.895110236220472
 10
-21.43288976377953
 20
6.893629921259842
 10
-21.44277559055118
 20
6.891157480314961
 10
-21.45216535433071
 20
6.887700787401575
 10
-21.46106299212599
 20
6.883255905511811
 10
-21.46946456692913
 20
6.877822834645669
 10
-21.47737007874016
 20
6.87140157480315
 10
-21.48477952755906
 20
6.863992125984252
 10
-21.49103149606299
 20
6.85642125984252
 10
-21.49651181102362
 20
6.848318897637795
 10
-21.50122047244095
 20
6.839685039370079
 10
-21.50516141732284
 20
6.830523622047244
 10
-21.50833070866142
 20
6.820834645669291
 10
-21.51073228346457
 20
6.810614173228347
 10
-21.51236614173228
 20
6.799866141732283
 10
-21.51322834645669
 20
6.788586614173228
 10
-21.50735826771654
 20
6.779562992125984
 10
-21.62024803149606
 20
6.87348031496063
 10
-21.62024803149606
 20
6.831929133858267
 10
-21.47531102362205
 20
6.71182283464567
 10
-21.46824803149606
 20
6.706429133858268
 10
-21.46089763779528
 20
6.701751968503937
 10
-21.45325984251969
 20
6.697795275590551
 10
-21.44533464566929
 20
6.694555118110237
 10
-21.43711811023622
 20
6.69203937007874
 10
-21.42861417322835
 20
6.690240157480315
 10
-21.4198188976378
 20
6.689157480314961
 10
-21.41073622047244
 20
6.688799212598425
 10
-21.40026771653543
 20
6.689271653543307
 10
-21.39020472440945
 20
6.690688976377952
 10
-21.38054330708662
 20
6.693051181102362
 10
-21.37127952755905
 20
6.69636220472441
 10
-21.36242125984252
 20
6.700614173228346
 10
-21.35396456692913
 20
6.705814960629922
 10
-21.34591338582677
 20
6.71196062992126
 10
-21.33825984251969
 20
6.719051181102362
 10
-21.33122440944882
 20
6.72686220472441
 10
-21.32512598425197
 20
6.735051181102362
 10
-21.31996850393701
 20
6.743625984251969
 10
-21.31574803149606
 20
6.75257874015748
 10
-21.31246456692913
 20
6.761913385826771
 10
-21.31011811023622
 20
6.771629921259843
 10
-21.3087125984252
 20
6.781724409448818
 10
-21.30824409448819
 20
6.792200787401574
 10
-21.30870866141732
 20
6.802826771653543
 10
-21.3101062992126
 20
6.813027559055118
 10
-21.31242913385827
 20
6.822807086614173
 10
-21.31568897637795
 20
6.832161417322834
 10
-21.31987795275591
 20
6.841094488188976
 10
-21.32499606299213
 20
6.849602362204725
 10
-21.33105118110236
 20
6.857688976377953
 10
-21.33803543307087
 20
6.865350393700788
 10
-21.34160236220472
 20
6.868755905511811
 10
-21.34531496062992
 20
6.87198031496063
 10
-21.34916929133858
 20
6.87501968503937
 10
-21.35316141732283
 20
6.877877952755905
 10
-21.35729921259842
 20
6.880555118110236
 10
-21.3615748031496
 20
6.883047244094488
 10
-21.36599212598425
 20
6.885354330708662
 10
-21.37054724409449
 20
6.88748031496063
 10
-21.37524015748032
 20
6.889381889763779
 10
-21.38006299212599
 20
6.891031496062992
 10
-21.38500787401575
 20
6.892425196850394
 10
-21.39008267716535
 20
6.893570866141732
 10
-21.39527952755905
 20
6.89446062992126
 10
-21.4006062992126
 20
6.89509842519685
 10
-21.40605511811023
 20
6.89548031496063
 10
-21.41163385826772
 20
6.895606299212599
  0
LWPOLYLINE
  5
75
330
1F
100
AcDbEntity
  8
Layer 1
 62
     7
370
     9
100
AcDbPolyline
 90
      128
 70
     1
 43
0.0
 10
-21.50646062992126
 20
6.988625984251969
 10
-21.58863385826772
 20
7.009393700787402
 10
-21.58863385826772
 20
7.120476377952756
 10
-21.62024803149606
 20
7.120476377952756
 10
-21.62024803149606
 20
6.98546062992126
 10
-21.48252362204724
 20
6.950244094488189
 10
-21.4671811023622
 20
6.984562992125984
 10
-21.47056692913386
 20
6.98953937007874
 10
-21.47350393700787
 20
6.994763779527559
 10
-21.47598818897638
 20
7.000232283464567
 10
-21.47801968503937
 20
7.005952755905512
 10
-21.47959842519685
 20
7.011913385826771
 10
-21.48072834645669
 20
7.018125984251968
 10
-21.48140551181102
 20
7.024586614173228
 10
-21.48162992125984
 20
7.031295275590551
 10
-21.48129921259843
 20
7.03803937007874
 10
-21.4803031496063
 20
7.044559055118111
 10
-21.47864566929134
 20
7.050850393700787
 10
-21.47632283464567
 20
7.056917322834646
 10
-21.47333858267717
 20
7.062759842519685
 10
-21.46968897637795
 20
7.068374015748032
 10
-21.46537401574803
 20
7.073763779527559
 10
-21.46039763779527
 20
7.078929133858268
 10
-21.45485433070866
 20
7.083799212598425
 10
-21.44910236220472
 20
7.08801968503937
 10
-21.44314566929134
 20
7.091586614173228
 10
-21.43698031496063
 20
7.094507874015748
 10
-21.43061417322835
 20
7.096775590551181
 10
-21.42404330708661
 20
7.098397637795276
 10
-21.41726771653543
 20
7.099370078740158
 10
-21.4102874015748
 20
7.099692913385827
 10
-21.40306692913386
 20
7.099362204724409
 10
-21.39613385826772
 20
7.098366141732283
 10
-21.38948818897638
 20
7.096708661417323
 10
-21.38313385826772
 20
7.094389763779527
 10
-21.37707086614173
 20
7.091405511811024
 10
-21.37129527559055
 20
7.087759842519685
 10
-21.36580708661417
 20
7.083452755905512
 10
-21.36061023622047
 20
7.07848031496063
 10
-21.35611023622047
 20
7.073326771653544
 10
-21.3520905511811
 20
7.067811023622047
 10
-21.34855118110236
 20
7.061929133858268
 10
-21.34549212598425
 20
7.055681102362205
 10
-21.34416929133858
 20
7.052366141732284
 10
-21.34302362204724
 20
7.048874015748032
 10
-21.34205118110236
 20
7.045196850393701
 10
-21.34125590551181
 20
7.041334645669291
 10
-21.3401968503937
 20
7.033066929133859
 10
-21.33984251968504
 20
7.024066929133858
 10
-21.34003937007874
 20
7.019385826771654
 10
-21.34063385826772
 20
7.014708661417322
 10
-21.34162204724409
 20
7.010043307086614
 10
-21.34300787401575
 20
7.00538188976378
 10
-21.34478346456693
 20
7.000728346456693
 10
-21.34695669291339
 20
6.996086614173229
 10
-21.34952362204724
 20
6.991448818897638
 10
-21.35248425196851
 20
6.986818897637796
 10
-21.35576377952756
 20
6.982358267716536
 10
-21.3592874015748
 20
6.978236220472441
 10
-21.36304724409449
 20
6.974452755905512
 10
-21.36705118110236
 20
6.971011811023622
 10
-21.37129133858268
 20
6.967909448818897
 10
-21.37577165354331
 20
6.965141732283465
 10
-21.38049606299213
 20
6.962716535433071
 10
-21.38545669291339
 20
6.960625984251968
 10
-21.37551968503937
 20
6.929925196850394
 10
-21.36808661417323
 20
6.93294094488189
 10
-21.36102755905512
 20
6.936456692913386
 10
-21.35434251968504
 20
6.940476377952756
 10
-21.34803149606299
 20
6.944996062992126
 10
-21.34209448818898
 20
6.950015748031496
 10
-21.33653149606299
 20
6.955535433070867
 10
-21.33134251968504
 20
6.96155905511811
 10
-21.32653149606299
 20
6.968082677165354
 10
-21.32213779527559
 20
6.97501968503937
 10
-21.31833070866142
 20
6.982106299212599
 10
-21.3151062992126
 20
6.989354330708662
 10
-21.31246850393701
 20
6.996751968503937
 10
-21.31041732283465
 20
7.004307086614173
 10
-21.30895275590551
 20
7.01201968503937
 10
-21.30807086614173
 20
7.019885826771653
 10
-21.30777952755906
 20
7.027905511811023
 10
-21.30826377952756
 20
7.038594488188976
 10
-21.3097125984252
 20
7.048874015748032
 10
-21.31213385826772
 20
7.058744094488189
 10
-21.3155157480315
 20
7.068204724409449
 10
-21.31987007874016
 20
7.077251968503937
 10
-21.32518897637795
 20
7.085893700787402
 10
-21.33147244094488
 20
7.094125984251969
 10
-21.33872440944882
 20
7.101948818897638
 10
-21.3465905511811
 20
7.109043307086615
 10
-21.35484645669291
 20
7.115188976377953
 10
-21.36349212598425
 20
7.120389763779528
 10
-21.37252362204724
 20
7.124641732283465
 10
-21.38194488188977
 20
7.127952755905512
 10
-21.39175590551181
 20
7.130314960629922
 10
-21.40195669291339
 20
7.131732283464567
 10
-21.41254330708662
 20
7.132204724409449
 10
-21.42307480314961
 20
7.131740157480315
 10
-21.43315748031496
 20
7.13034251968504
 10
-21.44279921259843
 20
7.128015748031496
 10
-21.45199606299213
 20
7.124755905511811
 10
-21.46074803149606
 20
7.120566929133858
 10
-21.46905511811024
 20
7.115444881889764
 10
-21.47691732283464
 20
7.109393700787401
 10
-21.48433464566929
 20
7.102413385826772
 10
-21.48763385826772
 20
7.098838582677165
 10
-21.49075590551181
 20
7.095125984251968
 10
-21.49370078740158
 20
7.091275590551181
 10
-21.49647244094488
 20
7.087283464566929
 10
-21.49906299212599
 20
7.083149606299212
 10
-21.50148031496063
 20
7.078874015748031
 10
-21.50372047244095
 20
7.07446062992126
 10
-21.5057874015748
 20
7.069905511811023
 10
-21.50763779527559
 20
7.065251968503937
 10
-21.50924409448819
 20
7.060559055118111
 10
-21.51060236220473
 20
7.055826771653543
 10
-21.5117125984252
 20
7.05105905511811
 10
-21.51257874015748
 20
7.046248031496063
 10
-21.5131968503937
 20
7.041405511811024
 10
-21.51357086614173
 20
7.03651968503937
 10
-21.51369291338583
 20
7.031602362204724
 10
-21.51357874015748
 20
7.026586614173229
 10
-21.51324015748031
 20
7.021468503937008
 10
-21.51267322834646
 20
7.016248031496063
 10
-21.51188188976378
 20
7.010929133858268
 10
-21.50962204724409
 20
6.999984251968504
 10
-21.50646062992126
 20
6.988625984251969
  0
LWPOLYLINE
  5
76
330
1F
100
AcDbEntity
  8
Layer 1
 62
     7
370
     9
100
AcDbPolyline
 90
        4
 70
     1
 43
0.0
 10
-20.14852755905512
 20
3.26159842519685
 10
-20.14852755905512
 20
3.084145669291339
 10
-20.26592913385827
 20
3.084145669291339
 10
-20.14852755905512
 20
3.26159842519685
  0
LWPOLYLINE
  5
77
330
1F
100
AcDbEntity
  8
Layer 1
 62
     7
370
     9
100
AcDbPolyline
 90
       11
 70
     1
 43
0.0
 10
-20.11556692913386
 20
3.051637795275591
 10
-20.07673622047244
 20
3.051637795275591
 10
-20.07673622047244
 20
3.084145669291339
 10
-20.11556692913386
 20
3.084145669291339
 10
-20.1160157480315
 20
3.295917322834646
 10
-20.16027165354331
 20
3.295917322834646
 10
-20.32192913385827
 20
3.051637795275591
 10
-20.14852755905512
 20
3.051637795275591
 10
-20.14852755905512
 20
2.988870078740157
 10
-20.11556692913386
 20
2.988870078740157
 10
-20.11556692913386
 20
3.051637795275591
  0
LWPOLYLINE
  5
78
330
1F
100
AcDbEntity
  8
Layer 1
 62
     7
370
     9
100
AcDbPolyline
 90
       81
 70
     1
 43
0.0
 10
-19.90448818897638
 20
3.260236220472441
 10
-19.89927165354331
 20
3.256696850393701
 10
-19.8944094488189
 20
3.25267716535433
 10
-19.88989763779528
 20
3.248177165354331
 10
-19.88574409448819
 20
3.243196850393701
 10
-19.88194094488189
 20
3.237740157480315
 10
-19.87849212598425
 20
3.231799212598425
 10
-19.8753937007874
 20
3.22538188976378
 10
-19.87264960629921
 20
3.21848031496063
 10
-19.86957874015748
 20
3.209322834645669
 10
-19.86691732283465
 20
3.200031496062992
 10
-19.86466929133858
 20
3.190610236220472
 10
-19.86283070866142
 20
3.181051181102362
 10
-19.86140157480315
 20
3.17136220472441
 10
-19.8603779527559
 20
3.161535433070866
 10
-19.85976771653543
 20
3.15157874015748
 10
-19.85956299212598
 20
3.141488188976378
 10
-19.86090551181102
 20
3.119137795275591
 10
-19.86247244094488
 20
3.107
 10
-19.8645157480315
 20
3.095531496062992
 10
-19.86704330708661
 20
3.084732283464567
 10
-19.87005118110236
 20
3.074606299212598
 10
-19.87353543307087
 20
3.065149606299213
 10
-19.87750393700787
 20
3.056366141732283
 10
-19.88194881889764
 20
3.048251968503937
 10
-19.88687401574803
 20
3.040807086614173
 10
-19.89136614173228
 20
3.035192913385827
 10
-19.89610236220473
 20
3.030330708661417
 10
-19.9010748031496
 20
3.026216535433071
 10
-19.9062874015748
 20
3.022850393700788
 10
-19.91174015748031
 20
3.020232283464567
 10
-19.91743700787402
 20
3.018366141732284
 10
-19.92337007874016
 20
3.017244094488189
 10
-19.92954330708661
 20
3.016870078740157
 10
-19.93643307086614
 20
3.017240157480315
 10
-19.94299212598425
 20
3.018350393700787
 10
-19.94922047244095
 20
3.020204724409449
 10
-19.95511417322835
 20
3.022795275590551
 10
-19.96067716535433
 20
3.026129921259843
 10
-19.9659094488189
 20
3.030200787401575
 10
-19.97081102362205
 20
3.035015748031496
 10
-19.97538188976378
 20
3.040566929133858
 10
-19.97916141732284
 20
3.046047244094488
 10
-19.98260236220472
 20
3.051862204724409
 10
-19.98570472440945
 20
3.058011811023622
 10
-19.98846850393701
 20
3.0645
 10
-19.9909094488189
 20
3.071204724409449
 10
-19.99303937007874
 20
3.077992125984252
 10
-19.99486220472441
 20
3.084866141732284
 10
-19.99637401574803
 20
3.091826771653543
 10
-20.0002125984252
 20
3.118913385826771
 10
-20.00133464566929
 20
3.149090551181102
 10
-20.00102362204725
 20
3.158122047244095
 10
-20.00009448818898
 20
3.168177165354331
 10
-19.99854724409449
 20
3.179263779527559
 10
-19.99637401574803
 20
3.191389763779528
 10
-19.98869291338583
 20
3.218700787401575
 10
-19.98602755905512
 20
3.225299212598425
 10
-19.98299606299213
 20
3.231566929133858
 10
-19.97959448818898
 20
3.237496062992126
 10
-19.97583070866142
 20
3.243086614173228
 10
-19.9716811023622
 20
3.248240157480315
 10
-19.96713385826772
 20
3.252858267716535
 10
-19.96218897637795
 20
3.256933070866142
 10
-19.95685433070866
 20
3.260476377952756
 10
-19.95403149606299
 20
3.262007874015748
 10
-19.95107874015748
 20
3.263334645669291
 10
-19.94799606299213
 20
3.26446062992126
 10
-19.9447874015748
 20
3.26538188976378
 10
-19.94145275590551
 20
3.266098425196851
 10
-19.93798818897638
 20
3.266610236220473
 10
-19.93439763779527
 20
3.266917322834646
 10
-19.9306811023622
 20
3.26701968503937
 10
-19.92696062992126
 20
3.266913385826772
 10
-19.92336614173228
 20
3.26659842519685
 10
-19.91990157480315
 20
3.266066929133858
 10
-19.91656299212599
 20
3.265326771653543
 10
-19.91335433070866
 20
3.264374015748031
 10
-19.91027165354331
 20
3.263204724409449
 10
-19.9073188976378
 20
3.261826771653543
 10
-19.90448818897638
 20
3.260236220472441
  0
LWPOLYLINE
  5
79
330
1F
100
AcDbEntity
  8
Layer 1
 62
     7
370
     9
100
AcDbPolyline
 90
       65
 70
     1
 43
0.0
 10
-19.92909448818898
 20
2.984807086614173
 10
-19.91591338582677
 20
2.985641732283465
 10
-19.90357086614173
 20
2.988153543307086
 10
-19.89206692913386
 20
2.992330708661417
 10
-19.88140157480315
 20
2.998185039370079
 10
-19.87157480314961
 20
3.005708661417323
 10
-19.8625905511811
 20
3.014905511811024
 10
-19.85444881889764
 20
3.025771653543307
 10
-19.84714566929134
 20
3.038311023622047
 10
-19.84201181102362
 20
3.049255905511811
 10
-19.83756299212599
 20
3.060807086614173
 10
-19.83379527559055
 20
3.072964566929134
 10
-19.83071653543307
 20
3.085728346456693
 10
-19.82832283464567
 20
3.099094488188976
 10
-19.82661417322835
 20
3.113070866141732
 10
-19.82558661417323
 20
3.127657480314961
 10
-19.82524409448819
 20
3.142850393700787
 10
-19.82558661417323
 20
3.15803937007874
 10
-19.82661417322835
 20
3.172622047244094
 10
-19.82832283464567
 20
3.18659842519685
 10
-19.83071653543307
 20
3.199968503937008
 10
-19.83379527559055
 20
3.212728346456693
 10
-19.83756299212599
 20
3.224885826771653
 10
-19.84201181102362
 20
3.236433070866142
 10
-19.84714566929134
 20
3.247374015748032
 10
-19.85444881889764
 20
3.259917322834646
 10
-19.8625905511811
 20
3.270783464566929
 10
-19.87157480314961
 20
3.27998031496063
 10
-19.88140157480315
 20
3.287503937007874
 10
-19.89206692913386
 20
3.293354330708661
 10
-19.90357086614173
 20
3.297531496062992
 10
-19.91591338582677
 20
3.30003937007874
 10
-19.92909448818898
 20
3.300874015748032
 10
-19.94227559055118
 20
3.30003937007874
 10
-19.95461811023622
 20
3.297531496062992
 10
-19.9661220472441
 20
3.293354330708661
 10
-19.97678346456693
 20
3.287503937007874
 10
-19.9866062992126
 20
3.27998031496063
 10
-19.9955905511811
 20
3.270783464566929
 10
-20.00373622047244
 20
3.259917322834646
 10
-20.01104330708661
 20
3.247374015748032
 10
-20.0161811023622
 20
3.236433070866142
 10
-20.02062992125984
 20
3.224885826771653
 10
-20.0243937007874
 20
3.212728346456693
 10
-20.02747637795276
 20
3.199968503937008
 10
-20.02987007874016
 20
3.18659842519685
 10
-20.03157874015748
 20
3.172622047244094
 10
-20.0326062992126
 20
3.15803937007874
 10
-20.03294881889764
 20
3.142850393700787
 10
-20.0326062992126
 20
3.127657480314961
 10
-20.03157874015748
 20
3.113070866141732
 10
-20.02987007874016
 20
3.099094488188976
 10
-20.02747637795276
 20
3.085728346456693
 10
-20.0243937007874
 20
3.072964566929134
 10
-20.02062992125984
 20
3.060807086614173
 10
-20.0161811023622
 20
3.049255905511811
 10
-20.01104330708661
 20
3.038311023622047
 10
-20.00373622047244
 20
3.025771653543307
 10
-19.9955905511811
 20
3.014905511811024
 10
-19.9866062992126
 20
3.005708661417323
 10
-19.97678346456693
 20
2.998185039370079
 10
-19.9661220472441
 20
2.992330708661417
 10
-19.95461811023622
 20
2.988153543307086
 10
-19.94227559055118
 20
2.985641732283465
 10
-19.92909448818898
 20
2.984807086614173
  0
LWPOLYLINE
  5
7A
330
1F
100
AcDbEntity
  8
Layer 1
 62
     7
100
AcDbPolyline
 90
       67
 70
     1
 43
0.0
 10
-19.16109448818898
 20
10.11562992125984
 10
-19.16673622047244
 20
10.12645275590551
 10
-19.17201574803149
 20
10.13743700787402
 10
-19.17692913385827
 20
10.14857086614173
 10
-19.18147637795276
 20
10.15986614173228
 10
-19.18566141732283
 20
10.17131496062992
 10
-19.18948031496063
 20
10.18291732283465
 10
-19.19292913385827
 20
10.19467716535433
 10
-19.19601181102362
 20
10.20659448818898
 10
-19.19875196850394
 20
10.2186968503937
 10
-19.20112598425197
 20
10.23096062992126
 10
-19.20312992125984
 20
10.24338976377953
 10
-19.20476771653543
 20
10.25598031496063
 10
-19.20604330708661
 20
10.26873228346457
 10
-19.20695275590551
 20
10.28164566929134
 10
-19.20749606299212
 20
10.29472047244094
 10
-19.20767716535433
 20
10.30796062992126
 10
-19.20749606299212
 20
10.32185433070866
 10
-19.20695275590551
 20
10.3355
 10
-19.20605118110236
 20
10.34888976377953
 10
-19.2047874015748
 20
10.36203149606299
 10
-19.20316141732284
 20
10.37491732283465
 10
-19.20118110236221
 20
10.38755118110236
 10
-19.19884251968504
 20
10.39993307086614
 10
-19.19614566929134
 20
10.41205511811024
 10
-19.19306299212598
 20
10.42397637795276
 10
-19.18961023622047
 20
10.4356968503937
 10
-19.1857874015748
 20
10.44722047244094
 10
-19.18159448818898
 20
10.45854724409449
 10
-19.17703149606299
 20
10.46967322834646
 10
-19.1720905511811
 20
10.4806062992126
 10
-19.16677952755905
 20
10.49134645669291
 10
-19.16109448818898
 20
10.50188976377953
 10
-19.12929921259843
 20
10.49229133858268
 10
-19.13435433070866
 20
10.48188976377953
 10
-19.13907480314961
 20
10.47137401574803
 10
-19.14345669291339
 20
10.46074409448819
 10
-19.14750393700787
 20
10.45000787401575
 10
-19.15122047244094
 20
10.43915354330709
 10
-19.15459842519685
 20
10.42818897637795
 10
-19.15764566929134
 20
10.41711417322835
 10
-19.16035826771654
 20
10.40592519685039
 10
-19.16272834645669
 20
10.39453937007874
 10
-19.16478346456693
 20
10.38292913385827
 10
-19.16652362204724
 20
10.37108661417323
 10
-19.16794881889764
 20
10.3590157480315
 10
-19.16905905511811
 20
10.34670866141732
 10
-19.16985433070866
 20
10.33416535433071
 10
-19.17033070866142
 20
10.32138582677165
 10
-19.17048818897638
 20
10.30836220472441
 10
-19.17033070866142
 20
10.29475590551181
 10
-19.16986220472441
 20
10.2814842519685
 10
-19.16907874015748
 20
10.26853937007874
 10
-19.16798031496063
 20
10.25592913385827
 10
-19.16656692913386
 20
10.24364960629921
 10
-19.16483858267717
 20
10.23170078740158
 10
-19.16279133858268
 20
10.22008267716535
 10
-19.16042519685039
 20
10.20879527559055
 10
-19.15775196850394
 20
10.19774803149606
 10
-19.15472834645669
 20
10.18690157480315
 10
-19.15135826771654
 20
10.17625196850394
 10
-19.14763779527559
 20
10.1658031496063
 10
-19.14357086614173
 20
10.15554724409449
 10
-19.13916141732284
 20
10.14548818897638
 10
-19.13440157480315
 20
10.13562598425197
 10
-19.12929921259843
 20
10.12596062992126
 10
-19.16109448818898
 20
10.11562992125984
  0
LWPOLYLINE
  5
7B
330
1F
100
AcDbEntity
  8
Layer 1
 62
     7
100
AcDbPolyline
 90
        7
 70
     1
 43
0.0
 10
-19.01368110236221
 20
10.20279921259842
 10
-19.01368110236221
 20
10.44911023622047
 10
-19.07285826771654
 20
10.44911023622047
 10
-19.05487007874016
 20
10.48588976377953
 10
-18.97129921259842
 20
10.48588976377953
 10
-18.97129921259842
 20
10.20279921259842
 10
-19.01368110236221
 20
10.20279921259842
  0
LWPOLYLINE
  5
7C
330
1F
100
AcDbEntity
  8
Layer 1
 62
     7
100
AcDbPolyline
 90
      125
 70
     1
 43
0.0
 10
-18.83168503937008
 20
10.2711062992126
 10
-18.82909842519685
 20
10.26664173228346
 10
-18.82633464566929
 20
10.26244881889764
 10
-18.82339763779527
 20
10.25852362204724
 10
-18.8202874015748
 20
10.25487007874016
 10
-18.817
 20
10.25148818897638
 10
-18.81353937007874
 20
10.24837795275591
 10
-18.80990551181102
 20
10.24554330708661
 10
-18.80609448818898
 20
10.24298031496063
 10
-18.80211811023622
 20
10.24068503937008
 10
-18.79803543307086
 20
10.2386968503937
 10
-18.79384645669291
 20
10.23701181102362
 10
-18.78955118110236
 20
10.23563385826772
 10
-18.78514566929134
 20
10.23456299212598
 10
-18.78063779527559
 20
10.23379921259843
 10
-18.77602362204724
 20
10.23333858267717
 10
-18.7713031496063
 20
10.23318503937008
 10
-18.7643779527559
 20
10.23346456692913
 10
-18.75779527559055
 20
10.23431102362205
 10
-18.75155511811024
 20
10.23572047244095
 10
-18.74564960629921
 20
10.23769291338583
 10
-18.74008267716535
 20
10.24023228346457
 10
-18.73485039370079
 20
10.24333464566929
 10
-18.72995275590551
 20
10.24700393700787
 10
-18.72538976377953
 20
10.25124409448819
 10
-18.72126771653543
 20
10.25594881889764
 10
-18.71769291338583
 20
10.26100393700787
 10
-18.71466929133858
 20
10.26641732283464
 10
-18.71219291338583
 20
10.27218897637795
 10
-18.71027165354331
 20
10.27831496062992
 10
-18.7088937007874
 20
10.28479527559055
 10
-18.70807086614173
 20
10.29163385826772
 10
-18.70779527559055
 20
10.29882677165354
 10
-18.70808267716535
 20
10.30575590551181
 10
-18.70894488188976
 20
10.31235039370079
 10
-18.71038582677165
 20
10.31861023622047
 10
-18.71240157480315
 20
10.32453543307087
 10
-18.71499606299212
 20
10.33012992125984
 10
-18.71816929133858
 20
10.33539763779527
 10
-18.72192125984252
 20
10.34033464566929
 10
-18.72625590551181
 20
10.34494488188976
 10
-18.73105511811024
 20
10.34911417322835
 10
-18.7362125984252
 20
10.35272834645669
 10
-18.74172834645669
 20
10.3557874015748
 10
-18.74759842519685
 20
10.3582874015748
 10
-18.75382283464567
 20
10.36023622047244
 10
-18.76040551181102
 20
10.36162598425197
 10
-18.76734251968504
 20
10.36245669291339
 10
-18.77463779527559
 20
10.36273622047244
 10
-18.77909448818898
 20
10.36263779527559
 10
-18.78346062992126
 20
10.36235039370079
 10
-18.78774803149606
 20
10.36186614173228
 10
-18.79194881889764
 20
10.3611968503937
 10
-18.79606692913386
 20
10.36033070866142
 10
-18.80011023622047
 20
10.35927952755906
 10
-18.80407086614173
 20
10.35803543307087
 10
-18.80795669291339
 20
10.3566062992126
 10
-18.81172440944882
 20
10.35496850393701
 10
-18.81538188976378
 20
10.35314566929134
 10
-18.81892519685039
 20
10.35113779527559
 10
-18.82236220472441
 20
10.34894488188976
 10
-18.82568503937008
 20
10.34656299212598
 10
-18.82890551181102
 20
10.34399212598425
 10
-18.83201574803149
 20
10.34123228346457
 10
-18.83501968503937
 20
10.33827952755906
 10
-18.84654330708661
 20
10.34088188976378
 10
-18.81096062992126
 20
10.48588976377953
 10
-18.67587401574803
 20
10.48588976377953
 10
-18.67587401574803
 20
10.44830708661417
 10
-18.78303543307086
 20
10.44830708661417
 10
-18.79982677165354
 20
10.3851968503937
 10
-18.77716929133858
 20
10.3923937007874
 10
-18.77172047244094
 20
10.39340551181102
 10
-18.76626377952756
 20
10.39413385826772
 10
-18.76079921259842
 20
10.39457874015748
 10
-18.75531102362205
 20
10.39472834645669
 10
-18.74535433070866
 20
10.3943188976378
 10
-18.73587007874016
 20
10.3930905511811
 10
-18.72686614173228
 20
10.39104330708661
 10
-18.71833464566929
 20
10.38817716535433
 10
-18.71028346456693
 20
10.38449606299213
 10
-18.70270866141732
 20
10.37999606299213
 10
-18.69561811023622
 20
10.37467716535433
 10
-18.68900393700788
 20
10.36853937007874
 10
-18.68300393700788
 20
10.36176377952756
 10
-18.67780708661417
 20
10.35449212598425
 10
-18.6734094488189
 20
10.34672440944882
 10
-18.66981102362205
 20
10.33845669291339
 10
-18.66701181102362
 20
10.32969291338583
 10
-18.66501181102362
 20
10.32043307086614
 10
-18.66381496062992
 20
10.31067716535433
 10
-18.66341338582677
 20
10.30042913385827
 10
-18.6638779527559
 20
10.28873228346457
 10
-18.66527559055118
 20
10.27763779527559
 10
-18.6676062992126
 20
10.26714566929134
 10
-18.67087007874016
 20
10.25725984251969
 10
-18.67506692913386
 20
10.24798031496063
 10
-18.6801968503937
 20
10.23930708661417
 10
-18.68626771653543
 20
10.23124409448819
 10
-18.69327165354331
 20
10.22379133858268
 10
-18.70105905511811
 20
10.2170905511811
 10
-18.70947637795276
 20
10.21128346456693
 10
-18.71853149606299
 20
10.20637007874016
 10
-18.72821653543307
 20
10.20235039370079
 10
-18.73853543307087
 20
10.19922047244095
 10
-18.74948818897638
 20
10.19698818897638
 10
-18.76107874015748
 20
10.19564566929134
 10
-18.77330708661417
 20
10.19520078740157
 10
-18.7806062992126
 20
10.19535826771654
 10
-18.78766535433071
 20
10.19583858267717
 10
-18.79447637795275
 20
10.19663779527559
 10
-18.80104724409449
 20
10.19775984251969
 10
-18.80737007874016
 20
10.19920078740157
 10
-18.81345275590551
 20
10.20096456692913
 10
-18.81929133858268
 20
10.20305118110236
 10
-18.82488582677165
 20
10.20546456692913
 10
-18.83024409448819
 20
10.20818897637795
 10
-18.83541732283464
 20
10.21126377952756
 10
-18.84040551181102
 20
10.21468897637795
 10
-18.8452125984252
 20
10.21846850393701
 10
-18.84982677165354
 20
10.22259842519685
 10
-18.85425590551181
 20
10.22708267716535
 10
-18.85849212598425
 20
10.23192519685039
 10
-18.86253543307087
 20
10.23711811023622
 10
-18.83168503937008
 20
10.2711062992126
  0
LWPOLYLINE
  5
7D
330
1F
100
AcDbEntity
  8
Layer 1
 62
     7
100
AcDbPolyline
 90
       65
 70
     1
 43
0.0
 10
-18.41270472440945
 20
10.34041732283465
 10
-18.41313385826772
 20
10.32385433070866
 10
-18.41441732283464
 20
10.30821653543307
 10
-18.41656299212599
 20
10.29349212598425
 10
-18.41956299212599
 20
10.27969291338583
 10
-18.42342125984252
 20
10.26681496062992
 10
-18.42814173228346
 20
10.25486220472441
 10
-18.43372440944882
 20
10.24383070866142
 10
-18.44016535433071
 20
10.23372047244094
 10
-18.44733464566929
 20
10.22470078740158
 10
-18.45514566929134
 20
10.21687795275591
 10
-18.46360236220472
 20
10.21025590551181
 10
-18.47270078740157
 20
10.20483858267717
 10
-18.48244488188976
 20
10.20062204724409
 10
-18.49283070866142
 20
10.19761023622047
 10
-18.50385826771653
 20
10.1958031496063
 10
-18.51553149606299
 20
10.19520078740157
 10
-18.52736220472441
 20
10.19581102362205
 10
-18.53851181102362
 20
10.19763779527559
 10
-18.54898425196851
 20
10.20068110236221
 10
-18.55877559055118
 20
10.20494094488189
 10
-18.56788976377953
 20
10.21041338582677
 10
-18.57632677165354
 20
10.21710236220472
 10
-18.58408661417323
 20
10.22500787401575
 10
-18.59117322834646
 20
10.23412204724409
 10
-18.59751968503937
 20
10.24435826771654
 10
-18.60301968503937
 20
10.25557480314961
 10
-18.60766929133858
 20
10.26777559055118
 10
-18.61147244094488
 20
10.28096062992126
 10
-18.61442913385827
 20
10.29512992125984
 10
-18.61653937007874
 20
10.31028346456693
 10
-18.61780708661417
 20
10.32642125984252
 10
-18.61822834645669
 20
10.34354724409449
 10
-18.61779921259842
 20
10.36053543307087
 10
-18.6165157480315
 20
10.37655905511811
 10
-18.61438188976378
 20
10.39162204724409
 10
-18.61138976377953
 20
10.40571653543307
 10
-18.60754724409449
 20
10.41884645669291
 10
-18.60285039370079
 20
10.43101181102362
 10
-18.5973031496063
 20
10.44220866141732
 10
-18.59090551181102
 20
10.45243700787402
 10
-18.58374803149606
 20
10.46159842519685
 10
-18.5759251968504
 20
10.46953543307087
 10
-18.56743307086614
 20
10.47624803149606
 10
-18.55827559055118
 20
10.48173622047244
 10
-18.54845669291339
 20
10.48600393700787
 10
-18.53796850393701
 20
10.48905118110236
 10
-18.5268188976378
 20
10.49087795275591
 10
-18.51500393700787
 20
10.49148818897638
 10
-18.50305905511811
 20
10.49087795275591
 10
-18.49182283464567
 20
10.48903937007874
 10
-18.48129527559055
 20
10.48598031496063
 10
-18.47146850393701
 20
10.48170078740158
 10
-18.46235039370079
 20
10.47620078740158
 10
-18.45394094488189
 20
10.46947637795276
 10
-18.44623228346457
 20
10.46153543307087
 10
-18.43923228346457
 20
10.45237401574803
 10
-18.43302362204724
 20
10.44205118110236
 10
-18.42763779527559
 20
10.4306811023622
 10
-18.42307874015748
 20
10.41825984251969
 10
-18.41934645669291
 20
10.4047874015748
 10
-18.41644094488189
 20
10.39026771653543
 10
-18.41436614173228
 20
10.37470078740157
 10
-18.41312204724409
 20
10.35808267716535
 10
-18.41270472440945
 20
10.34041732283465
  0
LWPOLYLINE
  5
7E
330
1F
100
AcDbEntity
  8
Layer 1
 62
     7
100
AcDbPolyline
 90
       65
 70
     1
 43
0.0
 10
-18.51633464566929
 20
10.2351811023622
 10
-18.50942913385827
 20
10.2356062992126
 10
-18.50296456692913
 20
10.23688188976378
 10
-18.49694094488189
 20
10.23900787401575
 10
-18.49136220472441
 20
10.24198818897638
 10
-18.48622047244094
 20
10.2458188976378
 10
-18.48152755905512
 20
10.25050787401575
 10
-18.47728346456693
 20
10.25604724409449
 10
-18.4734842519685
 20
10.26244094488189
 10
-18.47011023622047
 20
10.26966535433071
 10
-18.46718503937008
 20
10.27773622047244
 10
-18.4647125984252
 20
10.28665354330709
 10
-18.46268897637795
 20
10.29642125984252
 10
-18.46111417322835
 20
10.30703543307087
 10
-18.45998818897638
 20
10.31849212598425
 10
-18.45931496062992
 20
10.33079527559055
 10
-18.4590905511811
 20
10.34394488188976
 10
-18.45931102362205
 20
10.35672440944882
 10
-18.45997637795276
 20
10.36872440944882
 10
-18.46108661417323
 20
10.37993700787402
 10
-18.46263779527559
 20
10.39037007874016
 10
-18.46463385826772
 20
10.4000157480315
 10
-18.46707480314961
 20
10.4088779527559
 10
-18.46995669291339
 20
10.41695669291339
 10
-18.47328346456693
 20
10.42424803149606
 10
-18.4770157480315
 20
10.43073622047244
 10
-18.48115748031496
 20
10.43635826771654
 10
-18.48570866141732
 20
10.44111417322835
 10
-18.49067322834646
 20
10.445
 10
-18.49604330708662
 20
10.44802362204724
 10
-18.50182283464567
 20
10.45018503937008
 10
-18.50801181102362
 20
10.45147637795276
 10
-18.5146062992126
 20
10.4519094488189
 10
-18.52146062992126
 20
10.45147637795276
 10
-18.52788582677166
 20
10.45018503937008
 10
-18.5338779527559
 20
10.44803149606299
 10
-18.53944094488189
 20
10.44501968503937
 10
-18.54457480314961
 20
10.44114566929134
 10
-18.54927559055118
 20
10.43641338582677
 10
-18.55354724409449
 20
10.43082677165354
 10
-18.55738582677165
 20
10.42438188976378
 10
-18.56078346456693
 20
10.41707874015748
 10
-18.56372440944882
 20
10.40896062992126
 10
-18.56620866141732
 20
10.40003149606299
 10
-18.56824409448819
 20
10.3902874015748
 10
-18.56982283464567
 20
10.37972440944882
 10
-18.57094881889764
 20
10.36835039370079
 10
-18.57162598425197
 20
10.35615748031496
 10
-18.57185039370079
 20
10.34314566929134
 10
-18.57162598425197
 20
10.3305
 10
-18.57094881889764
 20
10.3186062992126
 10
-18.56982677165354
 20
10.30746456692913
 10
-18.56825196850394
 20
10.29707874015748
 10
-18.56622440944882
 20
10.28744881889764
 10
-18.56375196850394
 20
10.27857480314961
 10
-18.56082677165354
 20
10.27046062992126
 10
-18.55745275590551
 20
10.2631062992126
 10
-18.55368503937008
 20
10.25656692913386
 10
-18.54951968503937
 20
10.25090157480315
 10
-18.54496456692913
 20
10.24610236220472
 10
-18.54001968503937
 20
10.24217322834646
 10
-18.5346811023622
 20
10.23911417322835
 10
-18.52895669291339
 20
10.23692913385827
 10
-18.52283858267717
 20
10.23561811023622
 10
-18.51633464566929
 20
10.2351811023622
  0
LWPOLYLINE
  5
7F
330
1F
100
AcDbEntity
  8
Layer 1
 62
     7
100
AcDbPolyline
 90
      149
 70
     1
 43
0.0
 10
-18.32313779527559
 20
10.20279921259842
 10
-18.36552362204725
 20
10.20279921259842
 10
-18.36552362204725
 20
10.38792913385827
 10
-18.32567716535433
 20
10.38792913385827
 10
-18.32567716535433
 20
10.35753937007874
 10
-18.32244881889764
 20
10.36222440944882
 10
-18.31911417322835
 20
10.36658267716535
 10
-18.31567322834645
 20
10.37061811023622
 10
-18.31212598425197
 20
10.37432283464567
 10
-18.30847637795275
 20
10.37770472440945
 10
-18.30471653543307
 20
10.38075196850394
 10
-18.30085433070866
 20
10.38347244094488
 10
-18.29688582677165
 20
10.38586220472441
 10
-18.29277165354331
 20
10.38794488188976
 10
-18.28847637795275
 20
10.38975196850394
 10
-18.284
 20
10.39127559055118
 10
-18.27934251968504
 20
10.39251968503937
 10
-18.27450393700788
 20
10.39348818897638
 10
-18.2694842519685
 20
10.39417716535433
 10
-18.26427952755905
 20
10.3945905511811
 10
-18.25889763779528
 20
10.39472834645669
 10
-18.2535905511811
 20
10.39458661417323
 10
-18.2485157480315
 20
10.39416535433071
 10
-18.24367322834646
 20
10.39345669291339
 10
-18.23906299212598
 20
10.39246850393701
 10
-18.23468897637795
 20
10.39119291338583
 10
-18.23054724409449
 20
10.38963779527559
 10
-18.22664566929134
 20
10.38779133858268
 10
-18.22297637795275
 20
10.38566141732283
 10
-18.21951181102362
 20
10.38324015748032
 10
-18.21626377952756
 20
10.3805157480315
 10
-18.21323622047244
 20
10.37749606299213
 10
-18.21042519685039
 20
10.37417716535433
 10
-18.20782677165354
 20
10.37056299212598
 10
-18.20544488188976
 20
10.36664960629921
 10
-18.20327559055118
 20
10.36244488188976
 10
-18.20132283464567
 20
10.35794094488189
 10
-18.1976220472441
 20
10.36257480314961
 10
-18.19386220472441
 20
10.36688582677165
 10
-18.19004724409449
 20
10.37087401574803
 10
-18.18617716535433
 20
10.37453543307087
 10
-18.18224803149606
 20
10.37787007874016
 10
-18.17826771653543
 20
10.38088188976378
 10
-18.17422834645669
 20
10.38356692913386
 10
-18.17013385826772
 20
10.38592913385827
 10
-18.16593700787402
 20
10.38799212598425
 10
-18.16159842519685
 20
10.38977952755905
 10
-18.15711417322835
 20
10.39129133858268
 10
-18.15248818897638
 20
10.39252755905512
 10
-18.14772047244094
 20
10.39349212598425
 10
-18.1428031496063
 20
10.39417716535433
 10
-18.13774803149606
 20
10.3945905511811
 10
-18.13254330708661
 20
10.39472834645669
 10
-18.12804330708661
 20
10.39462204724409
 10
-18.12368503937008
 20
10.3943031496063
 10
-18.11947244094488
 20
10.39377559055118
 10
-18.11540157480315
 20
10.39303937007874
 10
-18.11147637795276
 20
10.3920905511811
 10
-18.10769291338583
 20
10.39093307086614
 10
-18.10405118110236
 20
10.38956692913386
 10
-18.10055511811024
 20
10.38799606299213
 10
-18.09722834645669
 20
10.38620078740158
 10
-18.09409448818898
 20
10.38422047244094
 10
-18.09115354330709
 20
10.38205118110236
 10
-18.08840551181102
 20
10.37968897637795
 10
-18.08584251968504
 20
10.37714173228346
 10
-18.08347244094488
 20
10.37439763779528
 10
-18.08129133858268
 20
10.37146456692913
 10
-18.07929921259842
 20
10.36833464566929
 10
-18.07762204724409
 20
10.36517716535433
 10
-18.0761968503937
 20
10.36170472440945
 10
-18.07502362204724
 20
10.35793700787402
 10
-18.07409842519685
 20
10.35387795275591
 10
-18.07335826771654
 20
10.34922834645669
 10
-18.07283858267716
 20
10.3436811023622
 10
-18.07253149606299
 20
10.33723228346457
 10
-18.07242913385827
 20
10.32988188976378
 10
-18.07242913385827
 20
10.31502362204724
 10
-18.07242913385827
 20
10.20279921259842
 10
-18.11481496062992
 20
10.20279921259842
 10
-18.11481496062992
 20
10.29782677165354
 10
-18.11494094488189
 20
10.30675196850394
 10
-18.11531496062992
 20
10.31488582677165
 10
-18.11593700787402
 20
10.32222047244094
 10
-18.11680708661417
 20
10.32875984251969
 10
-18.11792125984252
 20
10.3345
 10
-18.1192874015748
 20
10.33944488188976
 10
-18.1208937007874
 20
10.34359448818898
 10
-18.12274803149606
 20
10.34694094488189
 10
-18.12491732283464
 20
10.34970866141732
 10
-18.12747244094488
 20
10.3521062992126
 10
-18.13041732283465
 20
10.35413385826772
 10
-18.13374409448819
 20
10.35579527559055
 10
-18.13746456692913
 20
10.35708267716536
 10
-18.14156692913386
 20
10.35800787401575
 10
-18.14605905511811
 20
10.35855905511811
 10
-18.15094094488189
 20
10.35874409448819
 10
-18.15696456692913
 20
10.35849606299213
 10
-18.16253543307086
 20
10.35774409448819
 10
-18.16765748031496
 20
10.3565
 10
-18.17233070866142
 20
10.35475590551181
 10
-18.17655118110236
 20
10.35251181102362
 10
-18.18032677165354
 20
10.34977559055118
 10
-18.18364960629921
 20
10.34654330708661
 10
-18.18652362204724
 20
10.34281496062992
 10
-18.18903149606299
 20
10.33846456692913
 10
-18.19120078740157
 20
10.33336614173228
 10
-18.19303149606299
 20
10.32752362204724
 10
-18.19453149606299
 20
10.32092913385827
 10
-18.19569291338583
 20
10.3135905511811
 10
-18.19652362204724
 20
10.30550393700787
 10
-18.19701968503937
 20
10.29667716535433
 10
-18.19718503937008
 20
10.28710236220472
 10
-18.19718503937008
 20
10.20279921259842
 10
-18.23997244094488
 20
10.20279921259842
 10
-18.23997244094488
 20
10.29782677165354
 10
-18.24010236220472
 20
10.30609448818898
 10
-18.2404842519685
 20
10.3136968503937
 10
-18.24112598425197
 20
10.32064173228346
 10
-18.24202755905512
 20
10.32692519685039
 10
-18.24318897637795
 20
10.33254724409449
 10
-18.24461023622047
 20
10.3375157480315
 10
-18.24629133858268
 20
10.34182677165354
 10
-18.24823622047244
 20
10.34548031496063
 10
-18.2505
 20
10.34859448818898
 10
-18.25314566929134
 20
10.35129133858268
 10
-18.25616535433071
 20
10.35357086614173
 10
-18.25956692913386
 20
10.35543700787402
 10
-18.26333858267716
 20
10.35688582677165
 10
-18.2674842519685
 20
10.35791732283464
 10
-18.27200393700787
 20
10.35853937007874
 10
-18.2768937007874
 20
10.35874409448819
 10
-18.28300393700787
 20
10.3583937007874
 10
-18.28883858267717
 20
10.35733464566929
 10
-18.29439763779527
 20
10.35556299212598
 10
-18.29968503937008
 20
10.35307480314961
 10
-18.3046062992126
 20
10.34996456692913
 10
-18.30898818897638
 20
10.34632677165354
 10
-18.31283070866142
 20
10.34216929133858
 10
-18.31614173228347
 20
10.3374842519685
 10
-18.31794488188977
 20
10.33405905511811
 10
-18.31945275590551
 20
10.33028346456693
 10
-18.32066929133858
 20
10.32616141732283
 10
-18.3216062992126
 20
10.32168897637795
 10
-18.32226771653543
 20
10.31600393700787
 10
-18.32274803149606
 20
10.30834251968504
 10
-18.32303937007874
 20
10.2987125984252
 10
-18.32313779527559
 20
10.28710236220472
 10
-18.32313779527559
 20
10.20279921259842
  0
LWPOLYLINE
  5
80
330
1F
100
AcDbEntity
  8
Layer 1
 62
     7
100
AcDbPolyline
 90
      149
 70
     1
 43
0.0
 10
-17.97326771653543
 20
10.20279921259842
 10
-18.01564960629921
 20
10.20279921259842
 10
-18.01564960629921
 20
10.38792913385827
 10
-17.9758031496063
 20
10.38792913385827
 10
-17.9758031496063
 20
10.35753937007874
 10
-17.97257480314961
 20
10.36222440944882
 10
-17.96924409448819
 20
10.36658267716535
 10
-17.9658031496063
 20
10.37061811023622
 10
-17.96225590551181
 20
10.37432283464567
 10
-17.95860236220473
 20
10.37770472440945
 10
-17.95484645669291
 20
10.38075196850394
 10
-17.95098031496063
 20
10.38347244094488
 10
-17.94701181102362
 20
10.38586220472441
 10
-17.94289763779528
 20
10.38794488188976
 10
-17.93860236220473
 20
10.38975196850394
 10
-17.93412598425197
 20
10.39127559055118
 10
-17.92946850393701
 20
10.39251968503937
 10
-17.92462992125984
 20
10.39348818897638
 10
-17.91961023622047
 20
10.39417716535433
 10
-17.91440551181102
 20
10.3945905511811
 10
-17.90902362204724
 20
10.39472834645669
 10
-17.90371653543307
 20
10.39458661417323
 10
-17.89864173228347
 20
10.39416535433071
 10
-17.89379921259842
 20
10.39345669291339
 10
-17.88919291338583
 20
10.39246850393701
 10
-17.88481496062992
 20
10.39119291338583
 10
-17.88067322834646
 20
10.38963779527559
 10
-17.87677165354331
 20
10.38779133858268
 10
-17.87310236220473
 20
10.38566141732283
 10
-17.86963779527559
 20
10.38324015748032
 10
-17.8663937007874
 20
10.3805157480315
 10
-17.86336220472441
 20
10.37749606299213
 10
-17.86055118110236
 20
10.37417716535433
 10
-17.85795275590551
 20
10.37056299212598
 10
-17.85557086614173
 20
10.36664960629921
 10
-17.85340551181102
 20
10.36244488188976
 10
-17.85144881889764
 20
10.35794094488189
 10
-17.84774803149606
 20
10.36257480314961
 10
-17.84398818897638
 20
10.36688582677165
 10
-17.84017322834646
 20
10.37087401574803
 10
-17.8363031496063
 20
10.37453543307087
 10
-17.83237795275591
 20
10.37787007874016
 10
-17.8283937007874
 20
10.38088188976378
 10
-17.82435433070866
 20
10.38356692913386
 10
-17.82025984251969
 20
10.38592913385827
 10
-17.81606299212599
 20
10.38799212598425
 10
-17.81172440944882
 20
10.38977952755905
 10
-17.80724015748032
 20
10.39129133858268
 10
-17.80261417322835
 20
10.39252755905512
 10
-17.79784645669291
 20
10.39349212598425
 10
-17.79293307086614
 20
10.39417716535433
 10
-17.78787401574803
 20
10.3945905511811
 10
-17.78267322834646
 20
10.39472834645669
 10
-17.77817322834646
 20
10.39462204724409
 10
-17.77381496062992
 20
10.3943031496063
 10
-17.76959842519685
 20
10.39377559055118
 10
-17.76552755905512
 20
10.39303937007874
 10
-17.76160236220472
 20
10.3920905511811
 10
-17.75781889763779
 20
10.39093307086614
 10
-17.75417716535433
 20
10.38956692913386
 10
-17.7506811023622
 20
10.38799606299213
 10
-17.74735433070866
 20
10.38620078740158
 10
-17.74422047244094
 20
10.38422047244094
 10
-17.74127952755905
 20
10.38205118110236
 10
-17.73853149606299
 20
10.37968897637795
 10
-17.73597244094488
 20
10.37714173228346
 10
-17.73360236220472
 20
10.37439763779528
 10
-17.73142125984252
 20
10.37146456692913
 10
-17.72942913385827
 20
10.36833464566929
 10
-17.72775196850394
 20
10.36517716535433
 10
-17.72632677165354
 20
10.36170472440945
 10
-17.72514960629921
 20
10.35793700787402
 10
-17.72422440944882
 20
10.35387795275591
 10
-17.72348818897638
 20
10.34922834645669
 10
-17.72296850393701
 20
10.3436811023622
 10
-17.72266141732284
 20
10.33723228346457
 10
-17.72255905511811
 20
10.32988188976378
 10
-17.72255905511811
 20
10.31502362204724
 10
-17.72255905511811
 20
10.20279921259842
 10
-17.76494488188976
 20
10.20279921259842
 10
-17.76494488188976
 20
10.29782677165354
 10
-17.76507086614173
 20
10.30675196850394
 10
-17.76544488188976
 20
10.31488582677165
 10
-17.76606692913386
 20
10.32222047244094
 10
-17.76693700787402
 20
10.32875984251969
 10
-17.76805118110236
 20
10.3345
 10
-17.76941338582677
 20
10.33944488188976
 10
-17.77102362204725
 20
10.34359448818898
 10
-17.77287401574803
 20
10.34694094488189
 10
-17.77504330708662
 20
10.34970866141732
 10
-17.77759842519685
 20
10.3521062992126
 10
-17.78054330708661
 20
10.35413385826772
 10
-17.78387401574803
 20
10.35579527559055
 10
-17.7875905511811
 20
10.35708267716536
 10
-17.7916968503937
 20
10.35800787401575
 10
-17.79618897637795
 20
10.35855905511811
 10
-17.80106692913386
 20
10.35874409448819
 10
-17.8070905511811
 20
10.35849606299213
 10
-17.81266141732284
 20
10.35774409448819
 10
-17.81778346456693
 20
10.3565
 10
-17.82245669291338
 20
10.35475590551181
 10
-17.8266811023622
 20
10.35251181102362
 10
-17.83045669291339
 20
10.34977559055118
 10
-17.83377952755906
 20
10.34654330708661
 10
-17.83665354330709
 20
10.34281496062992
 10
-17.83915748031496
 20
10.33846456692913
 10
-17.84132677165355
 20
10.33336614173228
 10
-17.84316141732284
 20
10.32752362204724
 10
-17.84465748031496
 20
10.32092913385827
 10
-17.84582283464567
 20
10.3135905511811
 10
-17.84665354330709
 20
10.30550393700787
 10
-17.84714960629921
 20
10.29667716535433
 10
-17.84731496062992
 20
10.28710236220472
 10
-17.84731496062992
 20
10.20279921259842
 10
-17.89009842519685
 20
10.20279921259842
 10
-17.89009842519685
 20
10.29782677165354
 10
-17.89022834645669
 20
10.30609448818898
 10
-17.89061023622047
 20
10.3136968503937
 10
-17.89125590551181
 20
10.32064173228346
 10
-17.89215748031496
 20
10.32692519685039
 10
-17.89331496062992
 20
10.33254724409449
 10
-17.89473622047244
 20
10.3375157480315
 10
-17.89641732283464
 20
10.34182677165354
 10
-17.89836220472441
 20
10.34548031496063
 10
-17.90062598425197
 20
10.34859448818898
 10
-17.90327165354331
 20
10.35129133858268
 10
-17.90629527559055
 20
10.35357086614173
 10
-17.90969291338583
 20
10.35543700787402
 10
-17.91346456692913
 20
10.35688582677165
 10
-17.91761023622047
 20
10.35791732283464
 10
-17.92212992125984
 20
10.35853937007874
 10
-17.92701968503937
 20
10.35874409448819
 10
-17.93312992125984
 20
10.3583937007874
 10
-17.93896456692913
 20
10.35733464566929
 10
-17.94452755905512
 20
10.35556299212598
 10
-17.94981102362205
 20
10.35307480314961
 10
-17.95473622047244
 20
10.34996456692913
 10
-17.95911417322835
 20
10.34632677165354
 10
-17.96295669291339
 20
10.34216929133858
 10
-17.96626771653543
 20
10.3374842519685
 10
-17.96807086614173
 20
10.33405905511811
 10
-17.96957874015748
 20
10.33028346456693
 10
-17.97079527559055
 20
10.32616141732283
 10
-17.97173228346457
 20
10.32168897637795
 10
-17.97239763779528
 20
10.31600393700787
 10
-17.9728779527559
 20
10.30834251968504
 10
-17.97316929133858
 20
10.2987125984252
 10
-17.97326771653543
 20
10.28710236220472
 10
-17.97326771653543
 20
10.20279921259842
  0
LWPOLYLINE
  5
81
330
1F
100
AcDbEntity
  8
Layer 1
 62
     7
100
AcDbPolyline
 90
       67
 70
     1
 43
0.0
 10
-17.65458267716535
 20
10.11562992125984
 10
-17.68617322834646
 20
10.12596062992126
 10
-17.68107086614173
 20
10.13562598425197
 10
-17.67631496062992
 20
10.14548818897638
 10
-17.67190551181102
 20
10.15554724409449
 10
-17.66783858267717
 20
10.1658031496063
 10
-17.66411811023622
 20
10.17625196850394
 10
-17.66074803149606
 20
10.18690157480315
 10
-17.65772440944882
 20
10.19774803149606
 10
-17.65505118110236
 20
10.20879527559055
 10
-17.65268897637795
 20
10.22008267716535
 10
-17.65064173228346
 20
10.23170078740158
 10
-17.6489094488189
 20
10.24364960629921
 10
-17.64749606299213
 20
10.25592913385827
 10
-17.64639763779527
 20
10.26853937007874
 10
-17.64561417322835
 20
10.2814842519685
 10
-17.64514566929134
 20
10.29475590551181
 10
-17.64498818897638
 20
10.30836220472441
 10
-17.64514566929134
 20
10.32138582677165
 10
-17.64561417322835
 20
10.33416535433071
 10
-17.64639763779527
 20
10.34670866141732
 10
-17.64749606299213
 20
10.3590157480315
 10
-17.6489094488189
 20
10.37108661417323
 10
-17.65064173228346
 20
10.38292913385827
 10
-17.65268897637795
 20
10.39453937007874
 10
-17.65505118110236
 20
10.40592519685039
 10
-17.65772440944882
 20
10.41711417322835
 10
-17.66074803149606
 20
10.42818897637795
 10
-17.66411811023622
 20
10.43915354330709
 10
-17.66783858267717
 20
10.45000787401575
 10
-17.67190551181102
 20
10.46074409448819
 10
-17.67631496062992
 20
10.47137401574803
 10
-17.68107086614173
 20
10.48188976377953
 10
-17.68617322834646
 20
10.49229133858268
 10
-17.65458267716535
 20
10.50188976377953
 10
-17.64885039370079
 20
10.49134645669291
 10
-17.6435
 20
10.4806062992126
 10
-17.63852755905512
 20
10.46967322834646
 10
-17.63393307086614
 20
10.45854724409449
 10
-17.62971653543307
 20
10.44722047244094
 10
-17.62587795275591
 20
10.4356968503937
 10
-17.62241732283465
 20
10.42397637795276
 10
-17.61933070866142
 20
10.41205511811024
 10
-17.61663385826771
 20
10.39993307086614
 10
-17.61429921259843
 20
10.38755118110236
 10
-17.61231496062992
 20
10.37491732283465
 10
-17.61069291338583
 20
10.36203149606299
 10
-17.60942913385827
 20
10.34888976377953
 10
-17.60852755905512
 20
10.3355
 10
-17.6079842519685
 20
10.32185433070866
 10
-17.6078031496063
 20
10.30796062992126
 10
-17.6079842519685
 20
10.29472047244094
 10
-17.60852755905512
 20
10.28164566929134
 10
-17.60943700787401
 20
10.26873228346457
 10
-17.61070866141732
 20
10.25598031496063
 10
-17.61234645669292
 20
10.24338976377953
 10
-17.61435039370079
 20
10.23096062992126
 10
-17.61672440944882
 20
10.2186968503937
 10
-17.61946062992126
 20
10.20659448818898
 10
-17.62254724409449
 20
10.19467716535433
 10
-17.62600787401575
 20
10.18291732283465
 10
-17.62984251968504
 20
10.17131496062992
 10
-17.63405118110236
 20
10.15986614173228
 10
-17.63862598425197
 20
10.14857086614173
 10
-17.6435748031496
 20
10.13743700787402
 10
-17.6488937007874
 20
10.12645275590551
 10
-17.65458267716535
 20
10.11562992125984
  0
LWPOLYLINE
  5
82
330
1F
100
AcDbEntity
  8
Layer 1
 62
     7
100
AcDbPolyline
 90
      145
 70
     1
 43
0.0
 10
-20.75835433070866
 20
10.25056692913386
 10
-20.80002362204725
 20
10.25056692913386
 10
-20.805
 20
10.24185826771654
 10
-20.81045669291339
 20
10.23358661417323
 10
-20.81639763779528
 20
10.22575590551181
 10
-20.8228188976378
 20
10.21836614173228
 10
-20.82972440944882
 20
10.21141732283465
 10
-20.83711023622047
 20
10.20490551181102
 10
-20.84497637795275
 20
10.19883464566929
 10
-20.85332677165354
 20
10.19320078740157
 10
-20.86202362204724
 20
10.18812992125984
 10
-20.87093307086614
 20
10.18373228346457
 10
-20.88005118110236
 20
10.18001181102362
 10
-20.88938188976378
 20
10.17696850393701
 10
-20.89892519685039
 20
10.17459842519685
 10
-20.90867716535433
 20
10.1729094488189
 10
-20.91864173228347
 20
10.1718937007874
 10
-20.9288188976378
 20
10.17155511811024
 10
-20.94366929133858
 20
10.17225590551181
 10
-20.95797637795276
 20
10.17436220472441
 10
-20.97174015748032
 20
10.17787007874016
 10
-20.98496456692913
 20
10.18278346456693
 10
-20.99764960629921
 20
10.18909842519685
 10
-21.00979133858268
 20
10.1968188976378
 10
-21.0213937007874
 20
10.20594094488189
 10
-21.03245275590551
 20
10.21646850393701
 10
-21.04228346456693
 20
10.22766929133858
 10
-21.0508031496063
 20
10.23942125984252
 10
-21.05801181102362
 20
10.25172047244095
 10
-21.0639094488189
 20
10.26457086614173
 10
-21.06849606299212
 20
10.27796850393701
 10
-21.07177165354331
 20
10.29191338582677
 10
-21.07374015748032
 20
10.3064094488189
 10
-21.0743937007874
 20
10.32145669291339
 10
-21.07374015748032
 20
10.33662992125984
 10
-21.07177165354331
 20
10.35124015748032
 10
-21.06849606299212
 20
10.36527952755906
 10
-21.0639094488189
 20
10.37875196850394
 10
-21.05801181102362
 20
10.39166141732283
 10
-21.0508031496063
 20
10.40400393700787
 10
-21.04228346456693
 20
10.41577952755905
 10
-21.03245275590551
 20
10.42698818897638
 10
-21.0274094488189
 20
10.43199606299213
 10
-21.02215354330709
 20
10.43674409448819
 10
-21.01668503937008
 20
10.44123228346457
 10
-21.01100787401575
 20
10.44545669291339
 10
-21.00511811023622
 20
10.44941732283465
 10
-20.99901968503937
 20
10.45311417322835
 10
-20.99270472440945
 20
10.45655118110236
 10
-20.98618110236221
 20
10.45972834645669
 10
-20.97957086614173
 20
10.46258267716535
 10
-20.97299212598425
 20
10.46505511811024
 10
-20.96644488188976
 20
10.46714566929134
 10
-20.95993700787401
 20
10.46885826771654
 10
-20.95345669291338
 20
10.47018897637795
 10
-20.9470157480315
 20
10.47114173228347
 10
-20.9406062992126
 20
10.4717125984252
 10
-20.93423228346457
 20
10.47190157480315
 10
-20.92190551181102
 20
10.47154724409449
 10
-20.91035433070866
 20
10.47048031496063
 10
-20.90487007874016
 20
10.46968110236221
 10
-20.89958267716536
 20
10.46870472440945
 10
-20.89448818897638
 20
10.46755118110236
 10
-20.88958661417323
 20
10.46622047244094
 10
-20.87526377952756
 20
10.46127165354331
 10
-20.86185039370079
 20
10.45515748031496
 10
-20.84935433070866
 20
10.44787795275591
 10
-20.83776771653543
 20
10.43943307086614
 10
-20.82709842519685
 20
10.4298188976378
 10
-20.81733858267717
 20
10.41903937007874
 10
-20.80849606299213
 20
10.4070905511811
 10
-20.80056299212599
 20
10.39397637795276
 10
-20.75888976377953
 20
10.39397637795276
 10
-20.76449606299213
 20
10.40678346456693
 10
-20.77089763779528
 20
10.41895275590551
 10
-20.77809448818898
 20
10.43049212598425
 10
-20.78608661417323
 20
10.4413937007874
 10
-20.79487007874016
 20
10.45166141732284
 10
-20.80445275590551
 20
10.46129921259842
 10
-20.81482677165354
 20
10.47029921259842
 10
-20.82599606299213
 20
10.47866535433071
 10
-20.83772440944882
 20
10.4862125984252
 10
-20.84977559055118
 20
10.49275196850394
 10
-20.86214566929134
 20
10.4982874015748
 10
-20.87483858267716
 20
10.50281496062992
 10
-20.88785039370079
 20
10.50633858267716
 10
-20.90118503937008
 20
10.50885433070866
 10
-20.91484251968504
 20
10.51036220472441
 10
-20.9288188976378
 20
10.51086614173228
 10
-20.94757874015748
 20
10.50998818897638
 10
-20.96563385826772
 20
10.50735039370079
 10
-20.98299212598425
 20
10.50295275590551
 10
-20.99964566929134
 20
10.49679527559055
 10
-21.01559448818898
 20
10.48888188976378
 10
-21.03084645669291
 20
10.47920866141732
 10
-21.0453937007874
 20
10.46777559055118
 10
-21.05924015748031
 20
10.45458267716536
 10
-21.06529527559055
 20
10.44795669291339
 10
-21.07101181102362
 20
10.44107086614173
 10
-21.07638976377953
 20
10.43392125984252
 10
-21.08142913385827
 20
10.42651181102362
 10
-21.08612992125984
 20
10.41883858267717
 10
-21.09049212598425
 20
10.41090157480315
 10
-21.09451968503937
 20
10.40270472440945
 10
-21.09820472440945
 20
10.39424409448819
 10
-21.10150393700787
 20
10.3855905511811
 10
-21.10436220472441
 20
10.37680708661417
 10
-21.10677952755906
 20
10.36790157480315
 10
-21.10875984251969
 20
10.35886614173228
 10
-21.11029527559055
 20
10.34970472440945
 10
-21.11139763779527
 20
10.34041732283465
 10
-21.11205511811024
 20
10.331
 10
-21.11227559055118
 20
10.32145669291339
 10
-21.11144881889764
 20
10.30248818897638
 10
-21.10896062992126
 20
10.28420472440945
 10
-21.1048188976378
 20
10.26660236220472
 10
-21.0990157480315
 20
10.24968897637795
 10
-21.09155905511811
 20
10.23345669291339
 10
-21.08244488188976
 20
10.2179094488189
 10
-21.07166929133858
 20
10.20305118110236
 10
-21.05924015748031
 20
10.18887401574803
 10
-21.0453937007874
 20
10.1756811023622
 10
-21.03084645669291
 20
10.16424803149606
 10
-21.01559448818898
 20
10.15457480314961
 10
-20.99964566929134
 20
10.14666141732283
 10
-20.98299212598425
 20
10.14050393700787
 10
-20.96563385826772
 20
10.1361062992126
 10
-20.94757874015748
 20
10.13346850393701
 10
-20.9288188976378
 20
10.1325905511811
 10
-20.9148937007874
 20
10.13310236220472
 10
-20.90125196850394
 20
10.13463779527559
 10
-20.88790157480315
 20
10.13719291338583
 10
-20.87483858267716
 20
10.14077559055118
 10
-20.86206299212598
 20
10.14537795275591
 10
-20.84957480314961
 20
10.15100787401575
 10
-20.83737401574803
 20
10.15765748031496
 10
-20.82546062992126
 20
10.16533070866142
 10
-20.81420078740157
 20
10.17376771653543
 10
-20.80376377952756
 20
10.18283464566929
 10
-20.79414173228346
 20
10.19253937007874
 10
-20.78534251968504
 20
10.20287795275591
 10
-20.77736614173228
 20
10.21384645669291
 10
-20.77020866141732
 20
10.22545275590551
 10
-20.76387007874016
 20
10.23769291338583
 10
-20.75835433070866
 20
10.25056692913386
  0
LWPOLYLINE
  5
83
330
1F
100
AcDbEntity
  8
Layer 1
 62
     7
100
AcDbPolyline
 90
       65
 70
     1
 43
0.0
 10
-20.37737007874016
 20
10.32307874015748
 10
-20.37806299212598
 20
10.30767322834646
 10
-20.38014566929134
 20
10.29284251968504
 10
-20.38361023622047
 20
10.27858661417323
 10
-20.38846456692913
 20
10.26490551181102
 10
-20.39470472440945
 20
10.25179921259843
 10
-20.40233464566929
 20
10.23927165354331
 10
-20.41134645669291
 20
10.22731496062992
 10
-20.42174803149606
 20
10.21593307086614
 10
-20.43312992125984
 20
10.20553149606299
 10
-20.44508661417323
 20
10.1965157480315
 10
-20.45761811023622
 20
10.18888976377953
 10
-20.47072440944882
 20
10.18264960629921
 10
-20.48440551181102
 20
10.17779527559055
 10
-20.49866141732284
 20
10.17432677165354
 10
-20.51349212598425
 20
10.17224803149606
 10
-20.52889763779527
 20
10.17155511811024
 10
-20.54417716535433
 20
10.17224803149606
 10
-20.55890157480315
 20
10.17432677165354
 10
-20.57306299212598
 20
10.17779527559055
 10
-20.58666929133858
 20
10.18264960629921
 10
-20.59971653543307
 20
10.18888976377953
 10
-20.61220472440945
 20
10.1965157480315
 10
-20.62413385826772
 20
10.20553149606299
 10
-20.63550787401575
 20
10.21593307086614
 10
-20.6459094488189
 20
10.22731496062992
 10
-20.65492125984252
 20
10.23927165354331
 10
-20.66255118110236
 20
10.25179921259843
 10
-20.66879133858268
 20
10.26490551181102
 10
-20.67364566929134
 20
10.27858661417323
 10
-20.67711023622047
 20
10.29284251968504
 10
-20.67919291338583
 20
10.30767322834646
 10
-20.67988582677165
 20
10.32307874015748
 10
-20.67919291338583
 20
10.33835826771653
 10
-20.67711023622047
 20
10.35308267716535
 10
-20.67364566929134
 20
10.36724409448819
 10
-20.66879133858268
 20
10.38085039370079
 10
-20.66255118110236
 20
10.39389763779528
 10
-20.65492125984252
 20
10.40638582677165
 10
-20.6459094488189
 20
10.41831496062992
 10
-20.63550787401575
 20
10.42968897637795
 10
-20.62413385826772
 20
10.4400905511811
 10
-20.61220472440945
 20
10.4491062992126
 10
-20.59971653543307
 20
10.45673228346457
 10
-20.58666929133858
 20
10.46297244094488
 10
-20.57306299212598
 20
10.46782677165354
 10
-20.55890157480315
 20
10.47129527559055
 10
-20.54417716535433
 20
10.47337401574803
 10
-20.52889763779527
 20
10.47406692913386
 10
-20.51349212598425
 20
10.47337401574803
 10
-20.49866141732284
 20
10.47129527559055
 10
-20.48440551181102
 20
10.46782677165354
 10
-20.47072440944882
 20
10.46297244094488
 10
-20.45761811023622
 20
10.45673228346457
 10
-20.44508661417323
 20
10.4491062992126
 10
-20.43312992125984
 20
10.4400905511811
 10
-20.42174803149606
 20
10.42968897637795
 10
-20.41134645669291
 20
10.41831496062992
 10
-20.40233464566929
 20
10.40638582677165
 10
-20.39470472440945
 20
10.39389763779528
 10
-20.38846456692913
 20
10.38085039370079
 10
-20.38361023622047
 20
10.36724409448819
 10
-20.38014566929134
 20
10.35308267716535
 10
-20.37806299212598
 20
10.33835826771653
 10
-20.37737007874016
 20
10.32307874015748
  0
LWPOLYLINE
  5
84
330
1F
100
AcDbEntity
  8
Layer 1
 62
     7
100
AcDbPolyline
 90
      129
 70
     1
 43
0.0
 10
-20.33948818897638
 20
10.32307874015748
 10
-20.33972047244094
 20
10.33275196850394
 10
-20.34041732283465
 20
10.34229133858268
 10
-20.34158267716536
 20
10.3516968503937
 10
-20.3432125984252
 20
10.36096456692913
 10
-20.3453031496063
 20
10.37009448818898
 10
-20.34786220472441
 20
10.37909448818898
 10
-20.35088582677165
 20
10.38795275590551
 10
-20.35437401574803
 20
10.3966811023622
 10
-20.35826377952756
 20
10.4051968503937
 10
-20.36248818897638
 20
10.41342519685039
 10
-20.36705511811024
 20
10.42136220472441
 10
-20.37196062992126
 20
10.4290157480315
 10
-20.37720078740157
 20
10.43638188976378
 10
-20.38278346456693
 20
10.44345669291339
 10
-20.38870078740158
 20
10.45024803149606
 10
-20.39495669291339
 20
10.45674803149606
 10
-20.40152362204724
 20
10.46294488188976
 10
-20.40837007874016
 20
10.46880708661417
 10
-20.41549212598425
 20
10.47434251968504
 10
-20.42289763779528
 20
10.47954724409449
 10
-20.43057874015748
 20
10.48442125984252
 10
-20.43853937007874
 20
10.48896850393701
 10
-20.44677952755906
 20
10.4931811023622
 10
-20.45529921259843
 20
10.49706692913386
 10
-20.46402755905512
 20
10.50055511811024
 10
-20.47288976377953
 20
10.50357874015748
 10
-20.48188582677165
 20
10.50613385826772
 10
-20.49101968503937
 20
10.50822834645669
 10
-20.50028346456693
 20
10.50985433070866
 10
-20.50968897637795
 20
10.51101968503937
 10
-20.51922440944882
 20
10.51171653543307
 10
-20.52889763779527
 20
10.51194881889764
 10
-20.53856692913386
 20
10.51171653543307
 10
-20.54809448818898
 20
10.51101968503937
 10
-20.55747637795276
 20
10.50985433070866
 10
-20.5667125984252
 20
10.50822834645669
 10
-20.57580708661417
 20
10.50613385826772
 10
-20.58475984251968
 20
10.50357874015748
 10
-20.59356692913386
 20
10.50055511811024
 10
-20.60222834645669
 20
10.49706692913386
 10
-20.61068503937008
 20
10.4931811023622
 10
-20.61887007874016
 20
10.48896850393701
 10
-20.62678346456693
 20
10.48442125984252
 10
-20.63442519685039
 20
10.47954724409449
 10
-20.64179921259842
 20
10.47434251968504
 10
-20.64890157480315
 20
10.46880708661417
 10
-20.65573228346457
 20
10.46294488188976
 10
-20.66229527559055
 20
10.45674803149606
 10
-20.66855118110236
 20
10.45024803149606
 10
-20.67447244094488
 20
10.44345669291339
 10
-20.68005511811024
 20
10.43638188976378
 10
-20.68529527559055
 20
10.4290157480315
 10
-20.69020078740158
 20
10.42136220472441
 10
-20.69476771653543
 20
10.41342519685039
 10
-20.69899606299213
 20
10.4051968503937
 10
-20.70288582677165
 20
10.3966811023622
 10
-20.70637401574803
 20
10.38795275590551
 10
-20.70939763779528
 20
10.37909448818898
 10
-20.71195275590551
 20
10.37009448818898
 10
-20.71404724409449
 20
10.36096456692913
 10
-20.71567322834646
 20
10.3516968503937
 10
-20.71683858267717
 20
10.34229133858268
 10
-20.71753543307087
 20
10.33275196850394
 10
-20.71776771653543
 20
10.32307874015748
 10
-20.71753543307087
 20
10.31340551181102
 10
-20.71683858267717
 20
10.30387007874016
 10
-20.71567322834646
 20
10.29446850393701
 10
-20.71404724409449
 20
10.28520078740157
 10
-20.71195275590551
 20
10.27607086614173
 10
-20.70939763779528
 20
10.26707086614173
 10
-20.70637401574803
 20
10.2582125984252
 10
-20.70288582677165
 20
10.2494842519685
 10
-20.69899606299213
 20
10.24096456692913
 10
-20.69476771653543
 20
10.23272440944882
 10
-20.69020078740158
 20
10.22476377952756
 10
-20.68529527559055
 20
10.21708267716535
 10
-20.68005511811024
 20
10.20967716535433
 10
-20.67447244094488
 20
10.20255511811024
 10
-20.66855118110236
 20
10.19570866141732
 10
-20.66229527559055
 20
10.18914566929134
 10
-20.65573228346457
 20
10.18288976377953
 10
-20.64890157480315
 20
10.17696850393701
 10
-20.64179921259842
 20
10.17138582677165
 10
-20.63442519685039
 20
10.16614566929134
 10
-20.62678346456693
 20
10.16124015748031
 10
-20.61887007874016
 20
10.15667322834646
 10
-20.61068503937008
 20
10.15244488188976
 10
-20.60222834645669
 20
10.14855511811024
 10
-20.59356692913386
 20
10.14506692913386
 10
-20.58475984251968
 20
10.14204330708661
 10
-20.57580708661417
 20
10.13948818897638
 10
-20.5667125984252
 20
10.1373937007874
 10
-20.55747637795276
 20
10.13576771653543
 10
-20.54809448818898
 20
10.13460236220472
 10
-20.53856692913386
 20
10.13390551181102
 10
-20.52889763779527
 20
10.13367322834646
 10
-20.51922440944882
 20
10.13390551181102
 10
-20.50968897637795
 20
10.13460236220472
 10
-20.50028346456693
 20
10.13576771653543
 10
-20.49101968503937
 20
10.1373937007874
 10
-20.48188582677165
 20
10.13948818897638
 10
-20.47288976377953
 20
10.14204330708661
 10
-20.46402755905512
 20
10.14506692913386
 10
-20.45529921259843
 20
10.14855511811024
 10
-20.44677952755906
 20
10.15244488188976
 10
-20.43853937007874
 20
10.15667322834646
 10
-20.43057874015748
 20
10.16124015748031
 10
-20.42289763779528
 20
10.16614566929134
 10
-20.41549212598425
 20
10.17138582677165
 10
-20.40837007874016
 20
10.17696850393701
 10
-20.40152362204724
 20
10.18288976377953
 10
-20.39495669291339
 20
10.18914566929134
 10
-20.38870078740158
 20
10.19570866141732
 10
-20.38278346456693
 20
10.20255511811024
 10
-20.37720078740157
 20
10.20967716535433
 10
-20.37196062992126
 20
10.21708267716535
 10
-20.36705511811024
 20
10.22476377952756
 10
-20.36248818897638
 20
10.23272440944882
 10
-20.35826377952756
 20
10.24096456692913
 10
-20.35437401574803
 20
10.2494842519685
 10
-20.35088582677165
 20
10.2582125984252
 10
-20.34786220472441
 20
10.26707086614173
 10
-20.3453031496063
 20
10.27607086614173
 10
-20.3432125984252
 20
10.28520078740157
 10
-20.34158267716536
 20
10.29446850393701
 10
-20.34041732283465
 20
10.30387007874016
 10
-20.33972047244094
 20
10.31340551181102
 10
-20.33948818897638
 20
10.32307874015748
  0
LWPOLYLINE
  5
85
330
1F
100
AcDbEntity
  8
Layer 1
 62
     7
100
AcDbPolyline
 90
       86
 70
     1
 43
0.0
 10
-20.13411811023622
 20
10.46324409448819
 10
-20.12787007874016
 20
10.459
 10
-20.12204330708661
 20
10.4541811023622
 10
-20.11663779527559
 20
10.44878346456693
 10
-20.11166141732284
 20
10.44281496062992
 10
-20.10710236220472
 20
10.43627165354331
 10
-20.10296850393701
 20
10.42914960629921
 10
-20.09925590551181
 20
10.42145669291339
 10
-20.09596850393701
 20
10.41318503937008
 10
-20.09229133858268
 20
10.4022125984252
 10
-20.08910236220472
 20
10.39108267716535
 10
-20.08640157480315
 20
10.37979133858268
 10
-20.0841968503937
 20
10.36833858267716
 10
-20.08248031496063
 20
10.35672440944882
 10
-20.08125196850394
 20
10.34494881889764
 10
-20.08051574803149
 20
10.3330157480315
 10
-20.08027165354331
 20
10.32091732283465
 10
-20.0818937007874
 20
10.29412598425197
 10
-20.08377165354331
 20
10.27957874015748
 10
-20.08622440944882
 20
10.26583464566929
 10
-20.08925196850394
 20
10.2528937007874
 10
-20.09285433070866
 20
10.24075590551181
 10
-20.09703149606299
 20
10.22942125984252
 10
-20.10178346456693
 20
10.21888976377953
 10
-20.10711023622047
 20
10.20916141732283
 10
-20.11301181102362
 20
10.20023622047244
 10
-20.11839763779528
 20
10.19351181102362
 10
-20.12407086614173
 20
10.18768897637795
 10
-20.13003543307087
 20
10.18275984251969
 10
-20.13628346456693
 20
10.17872440944882
 10
-20.1428188976378
 20
10.17558661417323
 10
-20.14964566929134
 20
10.17334645669291
 10
-20.15675590551181
 20
10.17200393700787
 10
-20.16415354330709
 20
10.17155511811024
 10
-20.1724094488189
 20
10.172
 10
-20.18027165354331
 20
10.17333070866142
 10
-20.18773228346457
 20
10.17555118110236
 10
-20.19479921259843
 20
10.17865748031496
 10
-20.20146456692913
 20
10.18265354330709
 10
-20.20773228346457
 20
10.18753543307087
 10
-20.2136062992126
 20
10.19330708661417
 10
-20.21907874015748
 20
10.19996850393701
 10
-20.22361417322834
 20
10.20652755905512
 10
-20.22774015748032
 20
10.21349606299213
 10
-20.23146062992126
 20
10.22087007874016
 10
-20.23477559055118
 20
10.22864960629921
 10
-20.23770078740158
 20
10.2366811023622
 10
-20.24025590551181
 20
10.24481496062992
 10
-20.24243700787402
 20
10.25305118110236
 10
-20.24424409448819
 20
10.26138976377953
 10
-20.24884645669291
 20
10.29386220472441
 10
-20.2501968503937
 20
10.33002755905512
 10
-20.24982677165354
 20
10.34085039370079
 10
-20.24870866141732
 20
10.35290157480315
 10
-20.24685039370079
 20
10.36618897637795
 10
-20.24424409448819
 20
10.38071653543307
 10
-20.24245275590551
 20
10.38895275590551
 10
-20.24032283464567
 20
10.39715354330709
 10
-20.23785433070866
 20
10.40532283464567
 10
-20.23504330708661
 20
10.41345669291339
 10
-20.23185039370079
 20
10.42137007874016
 10
-20.2282125984252
 20
10.42887795275591
 10
-20.22413779527559
 20
10.4359842519685
 10
-20.21962204724409
 20
10.4426811023622
 10
-20.21464960629921
 20
10.44885433070866
 10
-20.20920472440945
 20
10.45438188976378
 10
-20.2063031496063
 20
10.45690551181102
 10
-20.2032874015748
 20
10.45927165354331
 10
-20.20014960629921
 20
10.46147244094488
 10
-20.1968937007874
 20
10.4635157480315
 10
-20.19350393700788
 20
10.46535433070866
 10
-20.18996062992126
 20
10.46694881889764
 10
-20.18626377952756
 20
10.46829921259843
 10
-20.18241732283465
 20
10.46940157480315
 10
-20.17841732283464
 20
10.47025984251968
 10
-20.17426771653543
 20
10.47087007874016
 10
-20.16996456692913
 20
10.47124015748031
 10
-20.16550787401575
 20
10.47136220472441
 10
-20.16105118110236
 20
10.47123622047244
 10
-20.15674803149606
 20
10.47085433070866
 10
-20.15259448818898
 20
10.47022047244094
 10
-20.14859448818898
 20
10.46933464566929
 10
-20.14474803149606
 20
10.46819291338583
 10
-20.14105118110236
 20
10.46679527559055
 10
-20.13750787401575
 20
10.46514566929134
 10
-20.13411811023622
 20
10.46324409448819
  0
LWPOLYLINE
  5
86
330
1F
100
AcDbEntity
  8
Layer 1
 62
     7
100
AcDbPolyline
 90
       65
 70
     1
 43
0.0
 10
-20.16361023622047
 20
10.13313385826772
 10
-20.14781102362205
 20
10.13413385826772
 10
-20.13301968503937
 20
10.13714173228346
 10
-20.11923228346457
 20
10.14214960629921
 10
-20.10645275590551
 20
10.14916535433071
 10
-20.09467716535433
 20
10.1581811023622
 10
-20.0839094488189
 20
10.16920472440945
 10
-20.07414566929134
 20
10.18222834645669
 10
-20.06538976377953
 20
10.19725984251968
 10
-20.05923622047244
 20
10.21037401574803
 10
-20.05390551181102
 20
10.22421653543307
 10
-20.0493937007874
 20
10.2387874015748
 10
-20.04570472440945
 20
10.25408267716535
 10
-20.04283070866142
 20
10.2701062992126
 10
-20.04078346456693
 20
10.28685826771654
 10
-20.03955118110236
 20
10.30433858267716
 10
-20.03914173228346
 20
10.32254330708661
 10
-20.03955118110236
 20
10.34074803149606
 10
-20.04078346456693
 20
10.35822440944882
 10
-20.04283070866142
 20
10.37497244094488
 10
-20.04570472440945
 20
10.39099606299213
 10
-20.0493937007874
 20
10.40629133858268
 10
-20.05390551181102
 20
10.42086220472441
 10
-20.05923622047244
 20
10.43470472440945
 10
-20.06538976377953
 20
10.4478188976378
 10
-20.07414566929134
 20
10.46285039370079
 10
-20.0839094488189
 20
10.4758779527559
 10
-20.09467716535433
 20
10.48689763779528
 10
-20.10645275590551
 20
10.49591732283465
 10
-20.11923228346457
 20
10.50293307086614
 10
-20.13301968503937
 20
10.50794094488189
 10
-20.14781102362205
 20
10.51094881889764
 10
-20.16361023622047
 20
10.51194881889764
 10
-20.1794094488189
 20
10.51094881889764
 10
-20.19420472440945
 20
10.50794094488189
 10
-20.20799212598425
 20
10.50293307086614
 10
-20.22077165354331
 20
10.49591732283465
 10
-20.23254724409449
 20
10.48689763779528
 10
-20.24331496062992
 20
10.4758779527559
 10
-20.25307874015748
 20
10.46285039370079
 10
-20.26183464566929
 20
10.4478188976378
 10
-20.26798818897638
 20
10.43470472440945
 10
-20.2733188976378
 20
10.42086220472441
 10
-20.27783070866142
 20
10.40629133858268
 10
-20.28151968503937
 20
10.39099606299213
 10
-20.28438976377953
 20
10.37497244094488
 10
-20.28644094488189
 20
10.35822440944882
 10
-20.28766929133858
 20
10.34074803149606
 10
-20.28807874015748
 20
10.32254330708661
 10
-20.28766929133858
 20
10.30433858267716
 10
-20.28644094488189
 20
10.28685826771654
 10
-20.28438976377953
 20
10.2701062992126
 10
-20.28151968503937
 20
10.25408267716535
 10
-20.27783070866142
 20
10.2387874015748
 10
-20.2733188976378
 20
10.22421653543307
 10
-20.26798818897638
 20
10.21037401574803
 10
-20.26183464566929
 20
10.19725984251968
 10
-20.25307874015748
 20
10.18222834645669
 10
-20.24331496062992
 20
10.16920472440945
 10
-20.23254724409449
 20
10.1581811023622
 10
-20.22077165354331
 20
10.14916535433071
 10
-20.20799212598425
 20
10.14214960629921
 10
-20.19420472440945
 20
10.13714173228346
 10
-20.1794094488189
 20
10.13413385826772
 10
-20.16361023622047
 20
10.13313385826772
  0
LWPOLYLINE
  5
87
330
1F
100
AcDbEntity
  8
Layer 1
 62
     7
100
AcDbPolyline
 90
       86
 70
     1
 43
0.0
 10
-19.83106299212599
 20
10.46324409448819
 10
-19.82481496062992
 20
10.459
 10
-19.81898818897638
 20
10.4541811023622
 10
-19.81358661417323
 20
10.44878346456693
 10
-19.8086062992126
 20
10.44281496062992
 10
-19.80404724409449
 20
10.43627165354331
 10
-19.79991338582677
 20
10.42914960629921
 10
-19.79620078740157
 20
10.42145669291339
 10
-19.79291338582677
 20
10.41318503937008
 10
-19.78923622047244
 20
10.4022125984252
 10
-19.78604724409449
 20
10.39108267716535
 10
-19.78335039370079
 20
10.37979133858268
 10
-19.78114173228347
 20
10.36833858267716
 10
-19.77942519685039
 20
10.35672440944882
 10
-19.7781968503937
 20
10.34494881889764
 10
-19.77746062992126
 20
10.3330157480315
 10
-19.77721653543307
 20
10.32091732283465
 10
-19.77884251968504
 20
10.29412598425197
 10
-19.78072047244094
 20
10.27957874015748
 10
-19.78317322834646
 20
10.26583464566929
 10
-19.78620078740158
 20
10.2528937007874
 10
-19.7898031496063
 20
10.24075590551181
 10
-19.79397637795276
 20
10.22942125984252
 10
-19.79873228346457
 20
10.21888976377953
 10
-19.80405905511811
 20
10.20916141732283
 10
-19.80996062992126
 20
10.20023622047244
 10
-19.81534645669291
 20
10.19351181102362
 10
-19.82101968503937
 20
10.18768897637795
 10
-19.8269842519685
 20
10.18275984251969
 10
-19.83323228346457
 20
10.17872440944882
 10
-19.83976771653543
 20
10.17558661417323
 10
-19.8465905511811
 20
10.17334645669291
 10
-19.85370472440945
 20
10.17200393700787
 10
-19.86110236220473
 20
10.17155511811024
 10
-19.86935826771654
 20
10.172
 10
-19.87721653543307
 20
10.17333070866142
 10
-19.8846811023622
 20
10.17555118110236
 10
-19.89174409448819
 20
10.17865748031496
 10
-19.8984094488189
 20
10.18265354330709
 10
-19.9046811023622
 20
10.18753543307087
 10
-19.91055118110236
 20
10.19330708661417
 10
-19.91602755905512
 20
10.19996850393701
 10
-19.92055905511811
 20
10.20652755905512
 10
-19.92468897637795
 20
10.21349606299213
 10
-19.9284094488189
 20
10.22087007874016
 10
-19.93172440944882
 20
10.22864960629921
 10
-19.93464960629921
 20
10.2366811023622
 10
-19.93720472440945
 20
10.24481496062992
 10
-19.93938582677166
 20
10.25305118110236
 10
-19.94119291338583
 20
10.26138976377953
 10
-19.94579527559055
 20
10.29386220472441
 10
-19.94714566929134
 20
10.33002755905512
 10
-19.94677559055118
 20
10.34085039370079
 10
-19.94565748031496
 20
10.35290157480315
 10
-19.94379921259842
 20
10.36618897637795
 10
-19.94119291338583
 20
10.38071653543307
 10
-19.93940157480315
 20
10.38895275590551
 10
-19.93727165354331
 20
10.39715354330709
 10
-19.93479921259842
 20
10.40532283464567
 10
-19.93199212598425
 20
10.41345669291339
 10
-19.92879527559055
 20
10.42137007874016
 10
-19.92516141732283
 20
10.42887795275591
 10
-19.92108661417323
 20
10.4359842519685
 10
-19.91657086614173
 20
10.4426811023622
 10
-19.91159842519685
 20
10.44885433070866
 10
-19.90615354330709
 20
10.45438188976378
 10
-19.90325196850394
 20
10.45690551181102
 10
-19.90023228346457
 20
10.45927165354331
 10
-19.89709842519685
 20
10.46147244094488
 10
-19.89384251968504
 20
10.4635157480315
 10
-19.89045275590551
 20
10.46535433070866
 10
-19.8869094488189
 20
10.46694881889764
 10
-19.8832125984252
 20
10.46829921259843
 10
-19.87936614173228
 20
10.46940157480315
 10
-19.87536614173228
 20
10.47025984251968
 10
-19.8712125984252
 20
10.47087007874016
 10
-19.8669094488189
 20
10.47124015748031
 10
-19.86245275590551
 20
10.47136220472441
 10
-19.85799606299213
 20
10.47123622047244
 10
-19.85369291338583
 20
10.47085433070866
 10
-19.84953937007874
 20
10.47022047244094
 10
-19.84554330708661
 20
10.46933464566929
 10
-19.84169291338583
 20
10.46819291338583
 10
-19.838
 20
10.46679527559055
 10
-19.83445669291338
 20
10.46514566929134
 10
-19.83106299212599
 20
10.46324409448819
  0
LWPOLYLINE
  5
88
330
1F
100
AcDbEntity
  8
Layer 1
 62
     7
100
AcDbPolyline
 90
       65
 70
     1
 43
0.0
 10
-19.86055905511811
 20
10.13313385826772
 10
-19.84475984251969
 20
10.13413385826772
 10
-19.82996456692914
 20
10.13714173228346
 10
-19.81617716535433
 20
10.14214960629921
 10
-19.80339763779527
 20
10.14916535433071
 10
-19.79162204724409
 20
10.1581811023622
 10
-19.78085433070866
 20
10.16920472440945
 10
-19.7710905511811
 20
10.18222834645669
 10
-19.76233464566929
 20
10.19725984251968
 10
-19.75618503937008
 20
10.21037401574803
 10
-19.75085433070866
 20
10.22421653543307
 10
-19.74634251968504
 20
10.2387874015748
 10
-19.74265354330709
 20
10.25408267716535
 10
-19.73977952755905
 20
10.2701062992126
 10
-19.73773228346457
 20
10.28685826771654
 10
-19.7365
 20
10.30433858267716
 10
-19.7360905511811
 20
10.32254330708661
 10
-19.7365
 20
10.34074803149606
 10
-19.73773228346457
 20
10.35822440944882
 10
-19.73977952755905
 20
10.37497244094488
 10
-19.74265354330709
 20
10.39099606299213
 10
-19.74634251968504
 20
10.40629133858268
 10
-19.75085433070866
 20
10.42086220472441
 10
-19.75618503937008
 20
10.43470472440945
 10
-19.76233464566929
 20
10.4478188976378
 10
-19.7710905511811
 20
10.46285039370079
 10
-19.78085433070866
 20
10.4758779527559
 10
-19.79162204724409
 20
10.48689763779528
 10
-19.80339763779527
 20
10.49591732283465
 10
-19.81617716535433
 20
10.50293307086614
 10
-19.82996456692914
 20
10.50794094488189
 10
-19.84475984251969
 20
10.51094881889764
 10
-19.86055905511811
 20
10.51194881889764
 10
-19.87635826771654
 20
10.51094881889764
 10
-19.89115354330709
 20
10.50794094488189
 10
-19.90494094488189
 20
10.50293307086614
 10
-19.91772047244094
 20
10.49591732283465
 10
-19.92949606299213
 20
10.48689763779528
 10
-19.94026377952756
 20
10.4758779527559
 10
-19.95002755905512
 20
10.46285039370079
 10
-19.95878346456693
 20
10.4478188976378
 10
-19.96493307086614
 20
10.43470472440945
 10
-19.97026377952756
 20
10.42086220472441
 10
-19.97477559055118
 20
10.40629133858268
 10
-19.97846850393701
 20
10.39099606299213
 10
-19.98133858267716
 20
10.37497244094488
 10
-19.98338582677165
 20
10.35822440944882
 10
-19.98461811023622
 20
10.34074803149606
 10
-19.98502755905512
 20
10.32254330708661
 10
-19.98461811023622
 20
10.30433858267716
 10
-19.98338582677165
 20
10.28685826771654
 10
-19.98133858267716
 20
10.2701062992126
 10
-19.97846850393701
 20
10.25408267716535
 10
-19.97477559055118
 20
10.2387874015748
 10
-19.97026377952756
 20
10.22421653543307
 10
-19.96493307086614
 20
10.21037401574803
 10
-19.95878346456693
 20
10.19725984251968
 10
-19.95002755905512
 20
10.18222834645669
 10
-19.94026377952756
 20
10.16920472440945
 10
-19.92949606299213
 20
10.1581811023622
 10
-19.91772047244094
 20
10.14916535433071
 10
-19.90494094488189
 20
10.14214960629921
 10
-19.89115354330709
 20
10.13714173228346
 10
-19.87635826771654
 20
10.13413385826772
 10
-19.86055905511811
 20
10.13313385826772
  0
LWPOLYLINE
  5
89
330
1F
100
AcDbEntity
  8
Layer 1
 62
     7
100
AcDbPolyline
 90
        4
 70
     1
 43
0.0
 10
-19.4931062992126
 20
10.46487007874016
 10
-19.4931062992126
 20
10.25218897637795
 10
-19.63381102362205
 20
10.25218897637795
 10
-19.4931062992126
 20
10.46487007874016
  0
LWPOLYLINE
  5
8A
330
1F
100
AcDbEntity
  8
Layer 1
 62
     7
100
AcDbPolyline
 90
       11
 70
     1
 43
0.0
 10
-19.45360236220472
 20
10.21322440944882
 10
-19.40705905511811
 20
10.21322440944882
 10
-19.40705905511811
 20
10.25218897637795
 10
-19.45360236220472
 20
10.25218897637795
 10
-19.45414173228346
 20
10.50599606299213
 10
-19.50717716535433
 20
10.50599606299213
 10
-19.70091732283464
 20
10.21322440944882
 10
-19.4931062992126
 20
10.21322440944882
 10
-19.4931062992126
 20
10.13800393700787
 10
-19.45360236220472
 20
10.13800393700787
 10
-19.45360236220472
 20
10.21322440944882
  0
ENDSEC
  0
SECTION
  2
OBJECTS
  0
DICTIONARY
  5
C
330
0
100
AcDbDictionary
281
     1
  3
ACAD_DETAILVIEWSTYLE
350
92
  3
ACAD_GROUP
350
D
  3
ACAD_LAYOUT
350
1A
  3
ACAD_MATERIAL
350
43
  3
ACAD_MLEADERSTYLE
350
5B
  3
ACAD_MLINESTYLE
350
17
  3
ACAD_PLOTSETTINGS
350
19
  3
ACAD_PLOTSTYLENAME
350
E
  3
ACAD_SCALELIST
350
47
  3
ACAD_SECTIONVIEWSTYLE
350
93
  3
ACAD_TABLESTYLE
350
59
  3
ACAD_VISUALSTYLE
350
2A
  3
ACDB_RECOMPOSE_DATA
350
8F
  3
AcDbVariableDictionary
350
8B
  0
SUN
  5
5D
330
29
100
AcDbSun
 90
        1
290
     0
 63
     7
421
 16777215
 40
1.0
291
     1
 91
  2455826
 92
 54000000
292
     0
 70
     2
 71
   256
280
     1
  0
DICTIONARY
  5
92
102
{ACAD_REACTORS
330
C
102
}
330
C
100
AcDbDictionary
281
     1
  0
DICTIONARY
  5
D
102
{ACAD_REACTORS
330
C
102
}
330
C
100
AcDbDictionary
281
     1
  0
DICTIONARY
  5
1A
102
{ACAD_REACTORS
330
C
102
}
330
C
100
AcDbDictionary
281
     1
  3
Layout1
350
1E
  3
Layout2
350
26
  3
Model
350
22
  0
DICTIONARY
  5
43
102
{ACAD_REACTORS
330
C
102
}
330
C
100
AcDbDictionary
281
     1
  3
ByBlock
350
45
  3
ByLayer
350
44
  3
Global
350
46
  0
DICTIONARY
  5
5B
102
{ACAD_REACTORS
330
C
102
}
330
C
100
AcDbDictionary
281
     1
  3
Standard
350
5C
  0
DICTIONARY
  5
17
102
{ACAD_REACTORS
330
C
102
}
330
C
100
AcDbDictionary
281
     1
  3
Standard
350
18
  0
DICTIONARY
  5
19
102
{ACAD_REACTORS
330
C
102
}
330
C
100
AcDbDictionary
281
     1
  0
ACDBDICTIONARYWDFLT
  5
E
102
{ACAD_REACTORS
330
C
102
}
330
C
100
AcDbDictionary
281
     1
  3
Normal
350
F
100
AcDbDictionaryWithDefault
340
F
  0
DICTIONARY
  5
47
102
{ACAD_REACTORS
330
C
102
}
330
C
100
AcDbDictionary
281
     1
  3
A0
350
48
  3
A1
350
49
  3
A2
350
4A
  3
A3
350
4B
  3
A4
350
4C
  3
A5
350
4D
  3
A6
350
4E
  3
A7
350
4F
  3
A8
350
50
  3
A9
350
51
  3
B1
350
52
  3
B2
350
53
  3
B3
350
54
  3
B4
350
55
  3
B5
350
56
  3
B6
350
57
  3
B7
350
58
  0
DICTIONARY
  5
93
102
{ACAD_REACTORS
330
C
102
}
330
C
100
AcDbDictionary
281
     1
  0
DICTIONARY
  5
59
102
{ACAD_REACTORS
330
C
102
}
330
C
100
AcDbDictionary
281
     1
  3
Standard
350
5A
  0
DICTIONARY
  5
2A
102
{ACAD_REACTORS
330
C
102
}
330
C
100
AcDbDictionary
281
     1
  3
2dWireframe
350
2F
  3
Basic
350
32
  3
Brighten
350
36
  3
ColorChange
350
3A
  3
Conceptual
350
34
  3
Dim
350
35
  3
EdgeColorOff
350
3D
  3
Facepattern
350
39
  3
Flat
350
2B
  3
FlatWithEdges
350
2C
  3
Gouraud
350
2D
  3
GouraudWithEdges
350
2E
  3
Hidden
350
31
  3
JitterOff
350
3B
  3
Linepattern
350
38
  3
OverhangOff
350
3C
  3
Realistic
350
33
  3
Shaded
350
42
  3
Shaded with edges
350
41
  3
Shades of Gray
350
3E
  3
Sketchy
350
3F
  3
Thicken
350
37
  3
Wireframe
350
30
  3
X-Ray
350
40
  0
XRECORD
  5
8F
102
{ACAD_REACTORS
330
C
102
}
330
C
100
AcDbXrecord
280
     1
 90
        1
330
5A
  0
DICTIONARY
  5
8B
102
{ACAD_REACTORS
330
C
102
}
330
C
100
AcDbDictionary
281
     1
  3
CANNOSCALE
350
8C
  3
CMLEADERSTYLE
350
91
  3
CTABLESTYLE
350
90
  0
LAYOUT
  5
1E
102
{ACAD_REACTORS
330
1A
102
}
330
1A
100
AcDbPlotSettings
  1

  2
none_device
  4

  6

 40
0.0
 41
0.0
 42
0.0
 43
0.0
 44
0.0
 45
0.0
 46
0.0
 47
0.0
 48
0.0
 49
0.0
140
0.0
141
0.0
142
1.0
143
1.0
 70
   688
 72
     0
 73
     0
 74
     5
  7

 75
    16
 76
     0
 77
     2
 78
   300
147
1.0
148
0.0
149
0.0
100
AcDbLayout
  1
Layout1
 70
     1
 71
     1
 10
0.0
 20
0.0
 11
12.0
 21
9.0
 12
0.0
 22
0.0
 32
0.0
 14
1.000000000000000E+20
 24
1.000000000000000E+20
 34
1.000000000000000E+20
 15
-1.000000000000000E+20
 25
-1.000000000000000E+20
 35
-1.000000000000000E+20
146
0.0
 13
0.0
 23
0.0
 33
0.0
 16
1.0
 26
0.0
 36
0.0
 17
0.0
 27
1.0
 37
0.0
 76
     0
330
1B
  0
LAYOUT
  5
26
102
{ACAD_REACTORS
330
1A
102
}
330
1A
100
AcDbPlotSettings
  1

  2
none_device
  4

  6

 40
0.0
 41
0.0
 42
0.0
 43
0.0
 44
0.0
 45
0.0
 46
0.0
 47
0.0
 48
0.0
 49
0.0
140
0.0
141
0.0
142
1.0
143
1.0
 70
   688
 72
     0
 73
     0
 74
     5
  7

 75
    16
 76
     0
 77
     2
 78
   300
147
1.0
148
0.0
149
0.0
100
AcDbLayout
  1
Layout2
 70
     1
 71
     2
 10
0.0
 20
0.0
 11
0.0
 21
0.0
 12
0.0
 22
0.0
 32
0.0
 14
0.0
 24
0.0
 34
0.0
 15
0.0
 25
0.0
 35
0.0
146
0.0
 13
0.0
 23
0.0
 33
0.0
 16
1.0
 26
0.0
 36
0.0
 17
0.0
 27
1.0
 37
0.0
 76
     0
330
23
  0
LAYOUT
  5
22
102
{ACAD_REACTORS
330
1A
102
}
330
1A
100
AcDbPlotSettings
  1

  2
none_device
  4
Letter_(8.50_x_11.00_Inches)
  6

 40
6.35
 41
6.35
 42
6.35000508
 43
6.35000508
 44
215.9
 45
279.4
 46
0.0
 47
0.0
 48
0.0
 49
0.0
140
0.0
141
0.0
142
1.0
143
1.0
 70
  1712
 72
     0
 73
     0
 74
     0
  7

 75
     0
 76
     0
 77
     2
 78
   300
147
1.0
148
0.0
149
0.0
100
AcDbLayout
  1
Model
 70
     1
 71
     0
 10
0.0
 20
0.0
 11
12.0
 21
9.0
 12
0.0
 22
0.0
 32
0.0
 14
-22.39900393700787
 24
2.878484251968504
 34
0.0
 15
-16.50883070866142
 25
10.92333858267716
 35
0.0
146
0.0
 13
0.0
 23
0.0
 33
0.0
 16
1.0
 26
0.0
 36
0.0
 17
0.0
 27
1.0
 37
0.0
 76
     0
330
1F
331
29
  0
MATERIAL
  5
45
102
{ACAD_REACTORS
330
43
102
}
330
43
100
AcDbMaterial
  1
ByBlock
 72
     1
 94
      127
  0
MATERIAL
  5
44
102
{ACAD_REACTORS
330
43
102
}
330
43
100
AcDbMaterial
  1
ByLayer
 72
     1
 94
      127
  0
MATERIAL
  5
46
102
{ACAD_REACTORS
330
43
102
}
330
43
100
AcDbMaterial
  1
Global
 72
     1
 94
      127
  0
MLEADERSTYLE
  5
5C
102
{ACAD_REACTORS
330
5B
102
}
330
5B
100
AcDbMLeaderStyle
179
     2
170
     2
171
     1
172
     0
 90
        2
 40
0.0
 41
0.0
173
     1
 91
-1056964608
340
14
 92
       -2
290
     1
 42
0.09
291
     1
 43
0.36
  3
Standard
341
0
 44
0.18
300

342
11
174
     1
178
     6
175
     1
176
     0
 93
-1056964608
 45
0.18
292
     0
297
     0
 46
0.18
343
0
 94
-1056964608
 47
1.0
 49
1.0
140
1.0
293
     1
141
0.0
294
     1
177
     0
142
1.0
295
     0
296
     0
143
0.125
271
     0
272
     9
273
     9
298
     0
  0
MLINESTYLE
  5
18
102
{ACAD_REACTORS
330
17
102
}
330
17
100
AcDbMlineStyle
  2
Standard
 70
     0
  3

 62
   256
 51
90.0
 52
90.0
 71
     2
 49
0.5
 62
   256
  6
BYLAYER
 49
-0.5
 62
   256
  6
BYLAYER
  0
ACDBPLACEHOLDER
  5
F
102
{ACAD_REACTORS
330
E
102
}
330
E
  0
SCALE
  5
48
102
{ACAD_REACTORS
330
47
102
}
330
47
100
AcDbScale
 70
     0
300
1:1
140
1.0
141
1.0
290
     1
  0
SCALE
  5
49
102
{ACAD_REACTORS
330
47
102
}
330
47
100
AcDbScale
 70
     0
300
1/128" = 1'-0"
140
0.0078125
141
12.0
290
     0
  0
SCALE
  5
4A
102
{ACAD_REACTORS
330
47
102
}
330
47
100
AcDbScale
 70
     0
300
1/64" = 1'-0"
140
0.015625
141
12.0
290
     0
  0
SCALE
  5
4B
102
{ACAD_REACTORS
330
47
102
}
330
47
100
AcDbScale
 70
     0
300
1/32" = 1'-0"
140
0.03125
141
12.0
290
     0
  0
SCALE
  5
4C
102
{ACAD_REACTORS
330
47
102
}
330
47
100
AcDbScale
 70
     0
300
1/16" = 1'-0"
140
0.0625
141
12.0
290
     0
  0
SCALE
  5
4D
102
{ACAD_REACTORS
330
47
102
}
330
47
100
AcDbScale
 70
     0
300
3/32" = 1'-0"
140
0.09375
141
12.0
290
     0
  0
SCALE
  5
4E
102
{ACAD_REACTORS
330
47
102
}
330
47
100
AcDbScale
 70
     0
300
1/8" = 1'-0"
140
0.125
141
12.0
290
     0
  0
SCALE
  5
4F
102
{ACAD_REACTORS
330
47
102
}
330
47
100
AcDbScale
 70
     0
300
3/16" = 1'-0"
140
0.1875
141
12.0
290
     0
  0
SCALE
  5
50
102
{ACAD_REACTORS
330
47
102
}
330
47
100
AcDbScale
 70
     0
300
1/4" = 1'-0"
140
0.25
141
12.0
290
     0
  0
SCALE
  5
51
102
{ACAD_REACTORS
330
47
102
}
330
47
100
AcDbScale
 70
     0
300
3/8" = 1'-0"
140
0.375
141
12.0
290
     0
  0
SCALE
  5
52
102
{ACAD_REACTORS
330
47
102
}
330
47
100
AcDbScale
 70
     0
300
1/2" = 1'-0"
140
0.5
141
12.0
290
     0
  0
SCALE
  5
53
102
{ACAD_REACTORS
330
47
102
}
330
47
100
AcDbScale
 70
     0
300
3/4" = 1'-0"
140
0.75
141
12.0
290
     0
  0
SCALE
  5
54
102
{ACAD_REACTORS
330
47
102
}
330
47
100
AcDbScale
 70
     0
300
1" = 1'-0"
140
1.0
141
12.0
290
     0
  0
SCALE
  5
55
102
{ACAD_REACTORS
330
47
102
}
330
47
100
AcDbScale
 70
     0
300
1-1/2" = 1'-0"
140
1.5
141
12.0
290
     0
  0
SCALE
  5
56
102
{ACAD_REACTORS
330
47
102
}
330
47
100
AcDbScale
 70
     0
300
3" = 1'-0"
140
3.0
141
12.0
290
     0
  0
SCALE
  5
57
102
{ACAD_REACTORS
330
47
102
}
330
47
100
AcDbScale
 70
     0
300
6" = 1'-0"
140
6.0
141
12.0
290
     0
  0
SCALE
  5
58
102
{ACAD_REACTORS
330
47
102
}
330
47
100
AcDbScale
 70
     0
300
1'-0" = 1'-0"
140
12.0
141
12.0
290
     0
  0
TABLESTYLE
  5
5A
102
{ACAD_REACTORS
330
59
102
}
102
{ACAD_XDICTIONARY
360
8D
102
}
330
59
100
AcDbTableStyle
  3
Standard
 70
     0
 71
     0
 40
0.06
 41
0.06
280
     0
281
     0
  7
Standard
140
0.18
170
     2
 62
     0
 63
   257
283
     0
 90
        4
 91
        0
  1

274
    -2
284
     1
 64
     0
275
    -2
285
     1
 65
     0
276
    -2
286
     1
 66
     0
277
    -2
287
     1
 67
     0
278
    -2
288
     1
 68
     0
279
    -2
289
     1
 69
     0
  7
Standard
140
0.25
170
     5
 62
     0
 63
   257
283
     0
 90
        4
 91
        0
  1

274
    -2
284
     1
 64
     0
275
    -2
285
     1
 65
     0
276
    -2
286
     1
 66
     0
277
    -2
287
     1
 67
     0
278
    -2
288
     1
 68
     0
279
    -2
289
     1
 69
     0
  7
Standard
140
0.18
170
     5
 62
     0
 63
   257
283
     0
 90
        4
 91
        0
  1

274
    -2
284
     1
 64
     0
275
    -2
285
     1
 65
     0
276
    -2
286
     1
 66
     0
277
    -2
287
     1
 67
     0
278
    -2
288
     1
 68
     0
279
    -2
289
     1
 69
     0
  0
VISUALSTYLE
  5
2F
102
{ACAD_REACTORS
330
2A
102
}
330
2A
100
AcDbVisualStyle
  2
2dWireframe
 70
     4
177
     3
291
     0
 70
    58
 90
        0
176
     1
 90
        2
176
     1
 90
        0
176
     1
 90
        0
176
     1
 40
0.6
176
     1
 40
30.0
176
     1
 62
     7
420
 16777215
176
     1
 90
        1
176
     1
 90
        4
176
     1
 62
     7
176
     1
 62
   257
176
     1
 90
        1
176
     1
 90
        1
176
     1
 40
1.0
176
     1
 90
        0
176
     1
 62
   257
176
     1
 40
1.0
176
     1
 90
        1
176
     1
 90
        6
176
     1
 90
        2
176
     1
 62
     7
176
     1
 90
        5
176
     1
 90
        0
176
     1
 90
        0
176
     1
290
     0
176
     1
 90
        1
176
     1
 40
0.0
176
     1
 90
        0
176
     1
290
     1
176
     1
290
     1
176
     1
290
     0
176
     1
290
     0
176
     1
290
     0
176
     1
290
     0
176
     1
290
     0
176
     1
290
     0
176
     1
290
     0
176
     1
 90
       50
176
     1
 40
0.0
176
     1
 40
1.0
176
     1
 90
        0
176
     1
 62
    18
420
        0
176
     1
 90
       50
176
     1
 90
        3
176
     1
 62
     5
420
      255
176
     1
290
     0
176
     1
 90
       50
176
     1
 90
       50
176
     1
 90
       50
176
     1
290
     0
176
     1
 90
       50
176
     1
 62
   256
176
     0
 40
1.0
176
     0
 90
        2
176
     1
  1
strokes_ogs.tif
176
     1
290
     0
176
     1
 40
1.0
176
     1
 40
1.0
176
     1
  0
VISUALSTYLE
  5
32
102
{ACAD_REACTORS
330
2A
102
}
330
2A
100
AcDbVisualStyle
  2
Basic
 70
     7
177
     3
291
     1
 70
    58
 90
        1
176
     1
 90
        0
176
     1
 90
        1
176
     1
 90
        0
176
     1
 40
0.6
176
     1
 40
30.0
176
     1
 62
     7
420
 16777215
176
     1
 90
        0
176
     1
 90
        4
176
     1
 62
     7
176
     1
 62
   257
176
     1
 90
        1
176
     1
 90
        1
176
     1
 40
1.0
176
     1
 90
        8
176
     1
 62
     7
176
     1
 40
1.0
176
     1
 90
        1
176
     1
 90
        6
176
     1
 90
        2
176
     1
 62
     7
176
     1
 90
        5
176
     1
 90
        0
176
     1
 90
        0
176
     1
290
     0
176
     1
 90
        1
176
     1
 40
0.0
176
     1
 90
        0
176
     1
290
     0
176
     1
290
     1
176
     1
290
     1
176
     1
290
     0
176
     1
290
     0
176
     1
290
     0
176
     1
290
     0
176
     1
290
     0
176
     1
290
     0
176
     1
 90
       50
176
     1
 40
0.0
176
     1
 40
1.0
176
     1
 90
        0
176
     1
 62
    18
420
        0
176
     1
 90
       50
176
     1
 90
        3
176
     1
 62
     5
420
      255
176
     1
290
     0
176
     1
 90
       50
176
     1
 90
       50
176
     1
 90
       50
176
     1
290
     0
176
     1
 90
       50
176
     1
 62
   256
176
     0
 40
1.0
176
     0
 90
        2
176
     1
  1
strokes_ogs.tif
176
     1
290
     0
176
     1
 40
1.0
176
     1
 40
1.0
176
     1
  0
VISUALSTYLE
  5
36
102
{ACAD_REACTORS
330
2A
102
}
330
2A
100
AcDbVisualStyle
  2
Brighten
 70
    12
177
     3
291
     1
 70
    58
 90
        2
176
     1
 90
        2
176
     1
 90
        0
176
     1
 90
        0
176
     1
 40
0.6
176
     1
 40
30.0
176
     1
 62
     7
420
 16777215
176
     1
 90
        1
176
     1
 90
        4
176
     1
 62
     7
176
     1
 62
   257
176
     1
 90
        1
176
     1
 90
        1
176
     1
 40
1.0
176
     1
 90
        8
176
     1
 62
     7
176
     1
 40
1.0
176
     1
 90
        1
176
     1
 90
        6
176
     1
 90
        2
176
     1
 62
     7
176
     1
 90
        5
176
     1
 90
        0
176
     1
 90
        0
176
     1
290
     0
176
     1
 90
        1
176
     1
 40
50.0
176
     1
 90
        0
176
     1
290
     0
176
     1
290
     1
176
     1
290
     1
176
     1
290
     0
176
     1
290
     0
176
     1
290
     0
176
     1
290
     0
176
     1
290
     0
176
     1
290
     0
176
     1
 90
       50
176
     1
 40
0.0
176
     1
 40
1.0
176
     1
 90
        0
176
     1
 62
    18
420
        0
176
     1
 90
       50
176
     1
 90
        3
176
     1
 62
     5
420
      255
176
     1
290
     0
176
     1
 90
       50
176
     1
 90
       50
176
     1
 90
       50
176
     1
290
     0
176
     1
 90
       50
176
     1
 62
   256
176
     0
 40
1.0
176
     0
 90
        2
176
     1
  1
strokes_ogs.tif
176
     1
290
     0
176
     1
 40
1.0
176
     1
 40
1.0
176
     1
  0
VISUALSTYLE
  5
3A
102
{ACAD_REACTORS
330
2A
102
}
330
2A
100
AcDbVisualStyle
  2
ColorChange
 70
    16
177
     3
291
     1
 70
    58
 90
        2
176
     1
 90
        2
176
     1
 90
        3
176
     1
 90
        0
176
     1
 40
0.6
176
     1
 40
30.0
176
     1
 62
     8
420
  8421504
176
     1
 90
        1
176
     1
 90
        4
176
     1
 62
     7
176
     1
 62
   257
176
     1
 90
        1
176
     1
 90
        1
176
     1
 40
1.0
176
     1
 90
        8
176
     1
 62
     8
420
  8421504
176
     1
 40
1.0
176
     1
 90
        1
176
     1
 90
        6
176
     1
 90
        2
176
     1
 62
     7
176
     1
 90
        5
176
     1
 90
        0
176
     1
 90
        0
176
     1
290
     0
176
     1
 90
        1
176
     1
 40
0.0
176
     1
 90
        0
176
     1
290
     0
176
     1
290
     1
176
     1
290
     1
176
     1
290
     0
176
     1
290
     0
176
     1
290
     0
176
     1
290
     0
176
     1
290
     0
176
     1
290
     0
176
     1
 90
       50
176
     1
 40
0.0
176
     1
 40
1.0
176
     1
 90
        0
176
     1
 62
    18
420
        0
176
     1
 90
       50
176
     1
 90
        3
176
     1
 62
     5
420
      255
176
     1
290
     0
176
     1
 90
       50
176
     1
 90
       50
176
     1
 90
       50
176
     1
290
     0
176
     1
 90
       50
176
     1
 62
   256
176
     0
 40
1.0
176
     0
 90
        2
176
     1
  1
strokes_ogs.tif
176
     1
290
     0
176
     1
 40
1.0
176
     1
 40
1.0
176
     1
  0
VISUALSTYLE
  5
34
102
{ACAD_REACTORS
330
2A
102
}
330
2A
100
AcDbVisualStyle
  2
Conceptual
 70
     9
177
     3
291
     0
 70
    58
 90
        3
176
     1
 90
        2
176
     1
 90
        0
176
     1
 90
        0
176
     1
 40
0.6
176
     1
 40
30.0
176
     1
 62
     7
420
 16777215
176
     1
 90
        2
176
     1
 90
        2
176
     1
 62
     7
176
     1
 62
   257
176
     1
 90
        1
176
     1
 90
        1
176
     1
 40
179.0
176
     1
 90
        8
176
     1
 62
     7
176
     1
 40
1.0
176
     1
 90
        1
176
     1
 90
        6
176
     1
 90
        2
176
     1
 62
     7
176
     1
 90
        3
176
     1
 90
        0
176
     1
 90
        0
176
     1
290
     0
176
     1
 90
        1
176
     1
 40
0.0
176
     1
 90
        0
176
     1
290
     0
176
     1
290
     1
176
     1
290
     1
176
     1
290
     0
176
     1
290
     0
176
     1
290
     0
176
     1
290
     0
176
     1
290
     0
176
     1
290
     0
176
     1
 90
       50
176
     1
 40
0.0
176
     1
 40
1.0
176
     1
 90
        0
176
     1
 62
    18
420
        0
176
     1
 90
       50
176
     1
 90
        3
176
     1
 62
     5
420
      255
176
     1
290
     0
176
     1
 90
       50
176
     1
 90
       50
176
     1
 90
       50
176
     1
290
     0
176
     1
 90
       50
176
     1
 62
   256
176
     0
 40
1.0
176
     0
 90
        2
176
     1
  1
strokes_ogs.tif
176
     1
290
     0
176
     1
 40
1.0
176
     1
 40
1.0
176
     1
  0
VISUALSTYLE
  5
35
102
{ACAD_REACTORS
330
2A
102
}
330
2A
100
AcDbVisualStyle
  2
Dim
 70
    11
177
     3
291
     1
 70
    58
 90
        2
176
     1
 90
        2
176
     1
 90
        0
176
     1
 90
        0
176
     1
 40
0.6
176
     1
 40
30.0
176
     1
 62
     7
420
 16777215
176
     1
 90
        1
176
     1
 90
        4
176
     1
 62
     7
176
     1
 62
   257
176
     1
 90
        1
176
     1
 90
        1
176
     1
 40
1.0
176
     1
 90
        8
176
     1
 62
     7
176
     1
 40
1.0
176
     1
 90
        1
176
     1
 90
        6
176
     1
 90
        2
176
     1
 62
     7
176
     1
 90
        5
176
     1
 90
        0
176
     1
 90
        0
176
     1
290
     0
176
     1
 90
        1
176
     1
 40
-50.0
176
     1
 90
        0
176
     1
290
     0
176
     1
290
     1
176
     1
290
     1
176
     1
290
     0
176
     1
290
     0
176
     1
290
     0
176
     1
290
     0
176
     1
290
     0
176
     1
290
     0
176
     1
 90
       50
176
     1
 40
0.0
176
     1
 40
1.0
176
     1
 90
        0
176
     1
 62
    18
420
        0
176
     1
 90
       50
176
     1
 90
        3
176
     1
 62
     5
420
      255
176
     1
290
     0
176
     1
 90
       50
176
     1
 90
       50
176
     1
 90
       50
176
     1
290
     0
176
     1
 90
       50
176
     1
 62
   256
176
     0
 40
1.0
176
     0
 90
        2
176
     1
  1
strokes_ogs.tif
176
     1
290
     0
176
     1
 40
1.0
176
     1
 40
1.0
176
     1
  0
VISUALSTYLE
  5
3D
102
{ACAD_REACTORS
330
2A
102
}
330
2A
100
AcDbVisualStyle
  2
EdgeColorOff
 70
    22
177
     3
291
     1
 70
    58
 90
        2
176
     0
 90
        2
176
     0
 90
        0
176
     0
 90
        0
176
     0
 40
0.6
176
     0
 40
30.0
176
     0
 62
     7
420
 16777215
176
     0
 90
        1
176
     0
 90
        4
176
     0
 62
     7
176
     0
 62
   257
176
     0
 90
        1
176
     0
 90
        1
176
     0
 40
1.0
176
     0
 90
        8
176
     2
 62
     7
176
     0
 40
1.0
176
     0
 90
        1
176
     0
 90
        6
176
     0
 90
        2
176
     0
 62
     7
176
     0
 90
        5
176
     0
 90
        0
176
     0
 90
        0
176
     0
290
     0
176
     0
 90
        1
176
     0
 40
0.0
176
     0
 90
        0
176
     0
290
     0
176
     0
290
     1
176
     0
290
     1
176
     0
290
     0
176
     0
290
     0
176
     0
290
     0
176
     0
290
     0
176
     0
290
     0
176
     0
290
     0
176
     0
 90
       50
176
     0
 40
0.0
176
     0
 40
1.0
176
     0
 90
        0
176
     0
 62
    18
420
        0
176
     0
 90
       50
176
     0
 90
        3
176
     0
 62
     5
420
      255
176
     0
290
     0
176
     0
 90
       50
176
     0
 90
       50
176
     0
 90
       50
176
     0
290
     0
176
     0
 90
       50
176
     0
 62
   256
176
     0
 40
1.0
176
     0
 90
        2
176
     0
  1
strokes_ogs.tif
176
     0
290
     0
176
     0
 40
1.0
176
     0
 40
1.0
176
     0
  0
VISUALSTYLE
  5
39
102
{ACAD_REACTORS
330
2A
102
}
330
2A
100
AcDbVisualStyle
  2
Facepattern
 70
    15
177
     3
291
     1
 70
    58
 90
        2
176
     1
 90
        2
176
     1
 90
        0
176
     1
 90
        0
176
     1
 40
0.6
176
     1
 40
30.0
176
     1
 62
     7
420
 16777215
176
     1
 90
        1
176
     1
 90
        4
176
     1
 62
     7
176
     1
 62
   257
176
     1
 90
        1
176
     1
 90
        1
176
     1
 40
1.0
176
     1
 90
        8
176
     1
 62
     7
176
     1
 40
1.0
176
     1
 90
        1
176
     1
 90
        6
176
     1
 90
        2
176
     1
 62
     7
176
     1
 90
        5
176
     1
 90
        0
176
     1
 90
        0
176
     1
290
     0
176
     1
 90
        1
176
     1
 40
0.0
176
     1
 90
        0
176
     1
290
     0
176
     1
290
     1
176
     1
290
     1
176
     1
290
     0
176
     1
290
     0
176
     1
290
     0
176
     1
290
     0
176
     1
290
     0
176
     1
290
     0
176
     1
 90
       50
176
     1
 40
0.0
176
     1
 40
1.0
176
     1
 90
        0
176
     1
 62
    18
420
        0
176
     1
 90
       50
176
     1
 90
        3
176
     1
 62
     5
420
      255
176
     1
290
     0
176
     1
 90
       50
176
     1
 90
       50
176
     1
 90
       50
176
     1
290
     0
176
     1
 90
       50
176
     1
 62
   256
176
     0
 40
1.0
176
     0
 90
        2
176
     1
  1
strokes_ogs.tif
176
     1
290
     0
176
     1
 40
1.0
176
     1
 40
1.0
176
     1
  0
VISUALSTYLE
  5
2B
102
{ACAD_REACTORS
330
2A
102
}
330
2A
100
AcDbVisualStyle
  2
Flat
 70
     0
177
     3
291
     1
 70
    58
 90
        2
176
     1
 90
        1
176
     1
 90
        1
176
     1
 90
        2
176
     1
 40
0.6
176
     1
 40
30.0
176
     1
 62
     7
420
 16777215
176
     1
 90
        0
176
     1
 90
        0
176
     1
 62
     7
176
     1
 62
   257
176
     1
 90
        1
176
     1
 90
        1
176
     1
 40
1.0
176
     1
 90
        8
176
     1
 62
     7
176
     1
 40
1.0
176
     1
 90
        1
176
     1
 90
        6
176
     1
 90
        2
176
     1
 62
     7
176
     1
 90
        5
176
     1
 90
        0
176
     1
 90
        0
176
     1
290
     0
176
     1
 90
       13
176
     1
 40
0.0
176
     1
 90
        0
176
     1
290
     0
176
     1
290
     1
176
     1
290
     1
176
     1
290
     0
176
     1
290
     0
176
     1
290
     0
176
     1
290
     0
176
     1
290
     0
176
     1
290
     0
176
     1
 90
       50
176
     1
 40
0.0
176
     1
 40
1.0
176
     1
 90
        0
176
     1
 62
    18
420
        0
176
     1
 90
       50
176
     1
 90
        3
176
     1
 62
     5
420
      255
176
     1
290
     0
176
     1
 90
       50
176
     1
 90
       50
176
     1
 90
       50
176
     1
290
     0
176
     1
 90
       50
176
     1
 62
   256
176
     0
 40
1.0
176
     0
 90
        2
176
     1
  1
strokes_ogs.tif
176
     1
290
     0
176
     1
 40
1.0
176
     1
 40
1.0
176
     1
  0
VISUALSTYLE
  5
2C
102
{ACAD_REACTORS
330
2A
102
}
330
2A
100
AcDbVisualStyle
  2
FlatWithEdges
 70
     1
177
     3
291
     1
 70
    58
 90
        2
176
     1
 90
        1
176
     1
 90
        1
176
     1
 90
        2
176
     1
 40
0.6
176
     1
 40
30.0
176
     1
 62
     7
420
 16777215
176
     1
 90
        1
176
     1
 90
        0
176
     1
 62
     7
176
     1
 62
   257
176
     1
 90
        1
176
     1
 90
        1
176
     1
 40
1.0
176
     1
 90
        0
176
     1
 62
   257
176
     1
 40
1.0
176
     1
 90
        1
176
     1
 90
        6
176
     1
 90
        2
176
     1
 62
     7
176
     1
 90
        5
176
     1
 90
        0
176
     1
 90
        0
176
     1
290
     0
176
     1
 90
       13
176
     1
 40
0.0
176
     1
 90
        0
176
     1
290
     0
176
     1
290
     1
176
     1
290
     1
176
     1
290
     0
176
     1
290
     0
176
     1
290
     0
176
     1
290
     0
176
     1
290
     0
176
     1
290
     0
176
     1
 90
       50
176
     1
 40
0.0
176
     1
 40
1.0
176
     1
 90
        0
176
     1
 62
    18
420
        0
176
     1
 90
       50
176
     1
 90
        3
176
     1
 62
     5
420
      255
176
     1
290
     0
176
     1
 90
       50
176
     1
 90
       50
176
     1
 90
       50
176
     1
290
     0
176
     1
 90
       50
176
     1
 62
   256
176
     0
 40
1.0
176
     0
 90
        2
176
     1
  1
strokes_ogs.tif
176
     1
290
     0
176
     1
 40
1.0
176
     1
 40
1.0
176
     1
  0
VISUALSTYLE
  5
2D
102
{ACAD_REACTORS
330
2A
102
}
330
2A
100
AcDbVisualStyle
  2
Gouraud
 70
     2
177
     3
291
     1
 70
    58
 90
        2
176
     1
 90
        2
176
     1
 90
        1
176
     1
 90
        2
176
     1
 40
0.6
176
     1
 40
30.0
176
     1
 62
     7
420
 16777215
176
     1
 90
        0
176
     1
 90
        0
176
     1
 62
     7
176
     1
 62
   257
176
     1
 90
        1
176
     1
 90
        1
176
     1
 40
1.0
176
     1
 90
        0
176
     1
 62
     7
176
     1
 40
1.0
176
     1
 90
        1
176
     1
 90
        6
176
     1
 90
        2
176
     1
 62
     7
176
     1
 90
        5
176
     1
 90
        0
176
     1
 90
        0
176
     1
290
     0
176
     1
 90
       13
176
     1
 40
0.0
176
     1
 90
        0
176
     1
290
     0
176
     1
290
     1
176
     1
290
     1
176
     1
290
     0
176
     1
290
     0
176
     1
290
     0
176
     1
290
     0
176
     1
290
     0
176
     1
290
     0
176
     1
 90
       50
176
     1
 40
0.0
176
     1
 40
1.0
176
     1
 90
        0
176
     1
 62
    18
420
        0
176
     1
 90
       50
176
     1
 90
        3
176
     1
 62
     5
420
      255
176
     1
290
     0
176
     1
 90
       50
176
     1
 90
       50
176
     1
 90
       50
176
     1
290
     0
176
     1
 90
       50
176
     1
 62
   256
176
     0
 40
1.0
176
     0
 90
        2
176
     1
  1
strokes_ogs.tif
176
     1
290
     0
176
     1
 40
1.0
176
     1
 40
1.0
176
     1
  0
VISUALSTYLE
  5
2E
102
{ACAD_REACTORS
330
2A
102
}
330
2A
100
AcDbVisualStyle
  2
GouraudWithEdges
 70
     3
177
     3
291
     1
 70
    58
 90
        2
176
     1
 90
        2
176
     1
 90
        1
176
     1
 90
        2
176
     1
 40
0.6
176
     1
 40
30.0
176
     1
 62
     7
420
 16777215
176
     1
 90
        1
176
     1
 90
        0
176
     1
 62
     7
176
     1
 62
   257
176
     1
 90
        1
176
     1
 90
        1
176
     1
 40
1.0
176
     1
 90
        0
176
     1
 62
   257
176
     1
 40
1.0
176
     1
 90
        1
176
     1
 90
        6
176
     1
 90
        2
176
     1
 62
     7
176
     1
 90
        5
176
     1
 90
        0
176
     1
 90
        0
176
     1
290
     0
176
     1
 90
       13
176
     1
 40
0.0
176
     1
 90
        0
176
     1
290
     0
176
     1
290
     1
176
     1
290
     1
176
     1
290
     0
176
     1
290
     0
176
     1
290
     0
176
     1
290
     0
176
     1
290
     0
176
     1
290
     0
176
     1
 90
       50
176
     1
 40
0.0
176
     1
 40
1.0
176
     1
 90
        0
176
     1
 62
    18
420
        0
176
     1
 90
       50
176
     1
 90
        3
176
     1
 62
     5
420
      255
176
     1
290
     0
176
     1
 90
       50
176
     1
 90
       50
176
     1
 90
       50
176
     1
290
     0
176
     1
 90
       50
176
     1
 62
   256
176
     0
 40
1.0
176
     0
 90
        2
176
     1
  1
strokes_ogs.tif
176
     1
290
     0
176
     1
 40
1.0
176
     1
 40
1.0
176
     1
  0
VISUALSTYLE
  5
31
102
{ACAD_REACTORS
330
2A
102
}
330
2A
100
AcDbVisualStyle
  2
Hidden
 70
     6
177
     3
291
     0
 70
    58
 90
        1
176
     1
 90
        2
176
     1
 90
        2
176
     1
 90
        0
176
     1
 40
0.6
176
     1
 40
30.0
176
     1
 62
     7
420
 16777215
176
     1
 90
        2
176
     1
 90
        2
176
     1
 62
     7
176
     1
 62
   257
176
     1
 90
        2
176
     1
 90
        1
176
     1
 40
40.0
176
     1
 90
        0
176
     1
 62
   257
176
     1
 40
1.0
176
     1
 90
        1
176
     1
 90
        6
176
     1
 90
        2
176
     1
 62
     7
176
     1
 90
        3
176
     1
 90
        0
176
     1
 90
        0
176
     1
290
     0
176
     1
 90
        1
176
     1
 40
0.0
176
     1
 90
        0
176
     1
290
     0
176
     1
290
     1
176
     1
290
     1
176
     1
290
     0
176
     1
290
     0
176
     1
290
     0
176
     1
290
     0
176
     1
290
     0
176
     1
290
     0
176
     1
 90
       50
176
     1
 40
0.0
176
     1
 40
1.0
176
     1
 90
        0
176
     1
 62
    18
420
        0
176
     1
 90
       50
176
     1
 90
        3
176
     1
 62
     5
420
      255
176
     1
290
     0
176
     1
 90
       50
176
     1
 90
       50
176
     1
 90
       50
176
     1
290
     0
176
     1
 90
       50
176
     1
 62
   256
176
     0
 40
1.0
176
     0
 90
        2
176
     1
  1
strokes_ogs.tif
176
     1
290
     0
176
     1
 40
1.0
176
     1
 40
1.0
176
     1
  0
VISUALSTYLE
  5
3B
102
{ACAD_REACTORS
330
2A
102
}
330
2A
100
AcDbVisualStyle
  2
JitterOff
 70
    20
177
     3
291
     1
 70
    58
 90
        2
176
     0
 90
        2
176
     0
 90
        0
176
     0
 90
        0
176
     0
 40
0.6
176
     0
 40
30.0
176
     0
 62
     7
420
 16777215
176
     0
 90
        1
176
     0
 90
        4
176
     0
 62
     7
176
     0
 62
   257
176
     0
 90
        1
176
     0
 90
        1
176
     0
 40
1.0
176
     0
 90
       10
176
     2
 62
     7
176
     0
 40
1.0
176
     0
 90
        1
176
     0
 90
        6
176
     0
 90
        2
176
     0
 62
     7
176
     0
 90
        5
176
     0
 90
        0
176
     0
 90
        0
176
     0
290
     0
176
     0
 90
        1
176
     0
 40
0.0
176
     0
 90
        0
176
     0
290
     0
176
     0
290
     1
176
     0
290
     1
176
     0
290
     0
176
     0
290
     0
176
     0
290
     0
176
     0
290
     0
176
     0
290
     0
176
     0
290
     0
176
     0
 90
       50
176
     0
 40
0.0
176
     0
 40
1.0
176
     0
 90
        0
176
     0
 62
    18
420
        0
176
     0
 90
       50
176
     0
 90
        3
176
     0
 62
     5
420
      255
176
     0
290
     0
176
     0
 90
       50
176
     0
 90
       50
176
     0
 90
       50
176
     0
290
     0
176
     0
 90
       50
176
     0
 62
   256
176
     0
 40
1.0
176
     0
 90
        2
176
     0
  1
strokes_ogs.tif
176
     0
290
     0
176
     0
 40
1.0
176
     0
 40
1.0
176
     0
  0
VISUALSTYLE
  5
38
102
{ACAD_REACTORS
330
2A
102
}
330
2A
100
AcDbVisualStyle
  2
Linepattern
 70
    14
177
     3
291
     1
 70
    58
 90
        2
176
     1
 90
        2
176
     1
 90
        0
176
     1
 90
        0
176
     1
 40
0.6
176
     1
 40
30.0
176
     1
 62
     7
420
 16777215
176
     1
 90
        1
176
     1
 90
        4
176
     1
 62
     7
176
     1
 62
   257
176
     1
 90
        7
176
     1
 90
        7
176
     1
 40
1.0
176
     1
 90
        8
176
     1
 62
     7
176
     1
 40
1.0
176
     1
 90
        1
176
     1
 90
        6
176
     1
 90
        2
176
     1
 62
     7
176
     1
 90
        5
176
     1
 90
        0
176
     1
 90
        0
176
     1
290
     0
176
     1
 90
        1
176
     1
 40
0.0
176
     1
 90
        0
176
     1
290
     0
176
     1
290
     1
176
     1
290
     1
176
     1
290
     0
176
     1
290
     0
176
     1
290
     0
176
     1
290
     0
176
     1
290
     0
176
     1
290
     0
176
     1
 90
       50
176
     1
 40
0.0
176
     1
 40
1.0
176
     1
 90
        0
176
     1
 62
    18
420
        0
176
     1
 90
       50
176
     1
 90
        3
176
     1
 62
     5
420
      255
176
     1
290
     0
176
     1
 90
       50
176
     1
 90
       50
176
     1
 90
       50
176
     1
290
     0
176
     1
 90
       50
176
     1
 62
   256
176
     0
 40
1.0
176
     0
 90
        2
176
     1
  1
strokes_ogs.tif
176
     1
290
     0
176
     1
 40
1.0
176
     1
 40
1.0
176
     1
  0
VISUALSTYLE
  5
3C
102
{ACAD_REACTORS
330
2A
102
}
330
2A
100
AcDbVisualStyle
  2
OverhangOff
 70
    21
177
     3
291
     1
 70
    58
 90
        2
176
     0
 90
        2
176
     0
 90
        0
176
     0
 90
        0
176
     0
 40
0.6
176
     0
 40
30.0
176
     0
 62
     7
420
 16777215
176
     0
 90
        1
176
     0
 90
        4
176
     0
 62
     7
176
     0
 62
   257
176
     0
 90
        1
176
     0
 90
        1
176
     0
 40
1.0
176
     0
 90
        9
176
     2
 62
     7
176
     0
 40
1.0
176
     0
 90
        1
176
     0
 90
        6
176
     0
 90
        2
176
     0
 62
     7
176
     0
 90
        5
176
     0
 90
        0
176
     0
 90
        0
176
     0
290
     0
176
     0
 90
        1
176
     0
 40
0.0
176
     0
 90
        0
176
     0
290
     0
176
     0
290
     1
176
     0
290
     1
176
     0
290
     0
176
     0
290
     0
176
     0
290
     0
176
     0
290
     0
176
     0
290
     0
176
     0
290
     0
176
     0
 90
       50
176
     0
 40
0.0
176
     0
 40
1.0
176
     0
 90
        0
176
     0
 62
    18
420
        0
176
     0
 90
       50
176
     0
 90
        3
176
     0
 62
     5
420
      255
176
     0
290
     0
176
     0
 90
       50
176
     0
 90
       50
176
     0
 90
       50
176
     0
290
     0
176
     0
 90
       50
176
     0
 62
   256
176
     0
 40
1.0
176
     0
 90
        2
176
     0
  1
strokes_ogs.tif
176
     0
290
     0
176
     0
 40
1.0
176
     0
 40
1.0
176
     0
  0
VISUALSTYLE
  5
33
102
{ACAD_REACTORS
330
2A
102
}
330
2A
100
AcDbVisualStyle
  2
Realistic
 70
     8
177
     3
291
     0
 70
    58
 90
        2
176
     1
 90
        3
176
     1
 90
        0
176
     1
 90
        2
176
     1
 40
0.6
176
     1
 40
30.0
176
     1
 62
     7
420
 16777215
176
     1
 90
        0
176
     1
 90
        0
176
     1
 62
     7
176
     1
 62
   257
176
     1
 90
        1
176
     1
 90
        1
176
     1
 40
1.0
176
     1
 90
        8
176
     1
 62
   257
176
     1
 40
1.0
176
     1
 90
        1
176
     1
 90
        6
176
     1
 90
        2
176
     1
 62
     7
176
     1
 90
        3
176
     1
 90
        0
176
     1
 90
        0
176
     1
290
     0
176
     1
 90
       13
176
     1
 40
0.0
176
     1
 90
        0
176
     1
290
     0
176
     1
290
     1
176
     1
290
     1
176
     1
290
     0
176
     1
290
     0
176
     1
290
     0
176
     1
290
     0
176
     1
290
     0
176
     1
290
     0
176
     1
 90
       50
176
     1
 40
0.0
176
     1
 40
1.0
176
     1
 90
        0
176
     1
 62
    18
420
        0
176
     1
 90
       50
176
     1
 90
        3
176
     1
 62
     5
420
      255
176
     1
290
     0
176
     1
 90
       50
176
     1
 90
       50
176
     1
 90
       50
176
     1
290
     0
176
     1
 90
       50
176
     1
 62
   256
176
     0
 40
1.0
176
     0
 90
        2
176
     1
  1
strokes_ogs.tif
176
     1
290
     0
176
     1
 40
1.0
176
     1
 40
1.0
176
     1
  0
VISUALSTYLE
  5
42
102
{ACAD_REACTORS
330
2A
102
}
330
2A
100
AcDbVisualStyle
  2
Shaded
 70
    27
177
     3
291
     0
 70
    58
 90
        2
176
     1
 90
        2
176
     1
 90
        1
176
     1
 90
        2
176
     1
 40
0.6
176
     1
 40
30.0
176
     1
 62
     7
420
 16777215
176
     1
 90
        0
176
     1
 90
        4
176
     1
 62
     7
176
     1
 62
   257
176
     1
 90
        1
176
     1
 90
        1
176
     1
 40
1.0
176
     1
 90
        8
176
     1
 62
   257
176
     1
 40
1.0
176
     1
 90
        1
176
     1
 90
        6
176
     1
 90
        2
176
     1
 62
     8
420
  7895160
176
     1
 90
        3
176
     1
 90
        0
176
     1
 90
        0
176
     1
290
     0
176
     1
 90
        5
176
     1
 40
0.0
176
     1
 90
        0
176
     1
290
     0
176
     1
290
     1
176
     1
290
     1
176
     1
290
     0
176
     1
290
     0
176
     1
290
     0
176
     1
290
     0
176
     1
290
     0
176
     1
290
     0
176
     1
 90
       50
176
     1
 40
0.0
176
     1
 40
1.0
176
     1
 90
        0
176
     1
 62
    18
420
        0
176
     1
 90
       50
176
     1
 90
        3
176
     1
 62
     5
420
      255
176
     1
290
     0
176
     1
 90
       50
176
     1
 90
       50
176
     1
 90
       50
176
     1
290
     0
176
     1
 90
       50
176
     1
 62
   256
176
     0
 40
1.0
176
     0
 90
        2
176
     1
  1
strokes_ogs.tif
176
     1
290
     0
176
     1
 40
1.0
176
     1
 40
1.0
176
     1
  0
VISUALSTYLE
  5
41
102
{ACAD_REACTORS
330
2A
102
}
330
2A
100
AcDbVisualStyle
  2
Shaded with edges
 70
    26
177
     3
291
     0
 70
    58
 90
        2
176
     1
 90
        2
176
     1
 90
        1
176
     1
 90
        2
176
     1
 40
0.6
176
     1
 40
30.0
176
     1
 62
     7
420
 16777215
176
     1
 90
        1
176
     1
 90
       10
176
     1
 62
     7
176
     1
 62
   257
176
     1
 90
        2
176
     1
 90
        1
176
     1
 40
1.0
176
     1
 90
        8
176
     1
 62
   257
176
     1
 40
1.0
176
     1
 90
        1
176
     1
 90
        6
176
     1
 90
        2
176
     1
 62
     7
176
     1
 90
        3
176
     1
 90
        0
176
     1
 90
        0
176
     1
290
     0
176
     1
 90
        5
176
     1
 40
0.0
176
     1
 90
        0
176
     1
290
     0
176
     1
290
     1
176
     1
290
     1
176
     1
290
     0
176
     1
290
     0
176
     1
290
     0
176
     1
290
     0
176
     1
290
     0
176
     1
290
     0
176
     1
 90
       50
176
     1
 40
0.0
176
     1
 40
1.0
176
     1
 90
        0
176
     1
 62
    18
420
        0
176
     1
 90
       50
176
     1
 90
        3
176
     1
 62
     5
420
      255
176
     1
290
     0
176
     1
 90
       50
176
     1
 90
       50
176
     1
 90
       50
176
     1
290
     0
176
     1
 90
       50
176
     1
 62
   256
176
     0
 40
1.0
176
     0
 90
        2
176
     1
  1
strokes_ogs.tif
176
     1
290
     0
176
     1
 40
1.0
176
     1
 40
1.0
176
     1
  0
VISUALSTYLE
  5
3E
102
{ACAD_REACTORS
330
2A
102
}
330
2A
100
AcDbVisualStyle
  2
Shades of Gray
 70
    23
177
     3
291
     0
 70
    58
 90
        2
176
     1
 90
        2
176
     1
 90
        3
176
     1
 90
        0
176
     1
 40
0.6
176
     1
 40
30.0
176
     1
 62
     7
420
 16777215
176
     1
 90
        2
176
     1
 90
        2
176
     1
 62
     7
176
     1
 62
     7
176
     1
 90
        1
176
     1
 90
        1
176
     1
 40
40.0
176
     1
 90
        8
176
     1
 62
     7
176
     1
 40
1.0
176
     1
 90
        1
176
     1
 90
        6
176
     1
 90
        2
176
     1
 62
     7
176
     1
 90
        3
176
     1
 90
        0
176
     1
 90
        0
176
     1
290
     0
176
     1
 90
        1
176
     1
 40
0.0
176
     1
 90
        0
176
     1
290
     0
176
     1
290
     1
176
     1
290
     1
176
     1
290
     0
176
     1
290
     0
176
     1
290
     0
176
     1
290
     0
176
     1
290
     0
176
     1
290
     0
176
     1
 90
       50
176
     1
 40
0.0
176
     1
 40
1.0
176
     1
 90
        0
176
     1
 62
    18
420
        0
176
     1
 90
       50
176
     1
 90
        3
176
     1
 62
     5
420
      255
176
     1
290
     0
176
     1
 90
       50
176
     1
 90
       50
176
     1
 90
       50
176
     1
290
     0
176
     1
 90
       50
176
     1
 62
   256
176
     0
 40
1.0
176
     0
 90
        2
176
     1
  1
strokes_ogs.tif
176
     1
290
     0
176
     1
 40
1.0
176
     1
 40
1.0
176
     1
  0
VISUALSTYLE
  5
3F
102
{ACAD_REACTORS
330
2A
102
}
330
2A
100
AcDbVisualStyle
  2
Sketchy
 70
    24
177
     3
291
     0
 70
    58
 90
        1
176
     1
 90
        2
176
     1
 90
        2
176
     1
 90
        0
176
     1
 40
0.6
176
     1
 40
30.0
176
     1
 62
     7
420
 16777215
176
     1
 90
        2
176
     1
 90
        2
176
     1
 62
     7
176
     1
 62
     7
176
     1
 90
        1
176
     1
 90
        1
176
     1
 40
40.0
176
     1
 90
       11
176
     1
 62
     7
176
     1
 40
1.0
176
     1
 90
        1
176
     1
 90
        6
176
     1
 90
        2
176
     1
 62
     7
176
     1
 90
        6
176
     1
 90
        0
176
     1
 90
        0
176
     1
290
     0
176
     1
 90
        1
176
     1
 40
0.0
176
     1
 90
        0
176
     1
290
     0
176
     1
290
     1
176
     1
290
     1
176
     1
290
     0
176
     1
290
     0
176
     1
290
     0
176
     1
290
     0
176
     1
290
     0
176
     1
290
     0
176
     1
 90
       50
176
     1
 40
0.0
176
     1
 40
1.0
176
     1
 90
        0
176
     1
 62
    18
420
        0
176
     1
 90
       50
176
     1
 90
        3
176
     1
 62
     5
420
      255
176
     1
290
     0
176
     1
 90
       50
176
     1
 90
       50
176
     1
 90
       50
176
     1
290
     0
176
     1
 90
       50
176
     1
 62
   256
176
     0
 40
1.0
176
     0
 90
        2
176
     1
  1
strokes_ogs.tif
176
     1
290
     0
176
     1
 40
1.0
176
     1
 40
1.0
176
     1
  0
VISUALSTYLE
  5
37
102
{ACAD_REACTORS
330
2A
102
}
330
2A
100
AcDbVisualStyle
  2
Thicken
 70
    13
177
     3
291
     1
 70
    58
 90
        2
176
     1
 90
        2
176
     1
 90
        0
176
     1
 90
        0
176
     1
 40
0.6
176
     1
 40
30.0
176
     1
 62
     7
420
 16777215
176
     1
 90
        1
176
     1
 90
        4
176
     1
 62
     7
176
     1
 62
   257
176
     1
 90
        1
176
     1
 90
        1
176
     1
 40
1.0
176
     1
 90
       12
176
     1
 62
     7
176
     1
 40
1.0
176
     1
 90
        1
176
     1
 90
        6
176
     1
 90
        2
176
     1
 62
     7
176
     1
 90
        5
176
     1
 90
        0
176
     1
 90
        0
176
     1
290
     0
176
     1
 90
        1
176
     1
 40
0.0
176
     1
 90
        0
176
     1
290
     0
176
     1
290
     1
176
     1
290
     1
176
     1
290
     0
176
     1
290
     0
176
     1
290
     0
176
     1
290
     0
176
     1
290
     0
176
     1
290
     0
176
     1
 90
       50
176
     1
 40
0.0
176
     1
 40
1.0
176
     1
 90
        0
176
     1
 62
    18
420
        0
176
     1
 90
       50
176
     1
 90
        3
176
     1
 62
     5
420
      255
176
     1
290
     0
176
     1
 90
       50
176
     1
 90
       50
176
     1
 90
       50
176
     1
290
     0
176
     1
 90
       50
176
     1
 62
   256
176
     0
 40
1.0
176
     0
 90
        2
176
     1
  1
strokes_ogs.tif
176
     1
290
     0
176
     1
 40
1.0
176
     1
 40
1.0
176
     1
  0
VISUALSTYLE
  5
30
102
{ACAD_REACTORS
330
2A
102
}
330
2A
100
AcDbVisualStyle
  2
Wireframe
 70
     5
177
     3
291
     0
 70
    58
 90
        0
176
     1
 90
        2
176
     1
 90
        0
176
     1
 90
        0
176
     1
 40
0.6
176
     1
 40
30.0
176
     1
 62
     7
420
 16777215
176
     1
 90
        1
176
     1
 90
        4
176
     1
 62
     7
176
     1
 62
   257
176
     1
 90
        1
176
     1
 90
        1
176
     1
 40
1.0
176
     1
 90
        0
176
     1
 62
   257
176
     1
 40
1.0
176
     1
 90
        1
176
     1
 90
        6
176
     1
 90
        2
176
     1
 62
     7
176
     1
 90
        3
176
     1
 90
        0
176
     1
 90
        0
176
     1
290
     0
176
     1
 90
        1
176
     1
 40
0.0
176
     1
 90
        0
176
     1
290
     0
176
     1
290
     1
176
     1
290
     1
176
     1
290
     0
176
     1
290
     0
176
     1
290
     0
176
     1
290
     0
176
     1
290
     0
176
     1
290
     0
176
     1
 90
       50
176
     1
 40
0.0
176
     1
 40
1.0
176
     1
 90
        0
176
     1
 62
    18
420
        0
176
     1
 90
       50
176
     1
 90
        3
176
     1
 62
     5
420
      255
176
     1
290
     0
176
     1
 90
       50
176
     1
 90
       50
176
     1
 90
       50
176
     1
290
     0
176
     1
 90
       50
176
     1
 62
   256
176
     0
 40
1.0
176
     0
 90
        2
176
     1
  1
strokes_ogs.tif
176
     1
290
     0
176
     1
 40
1.0
176
     1
 40
1.0
176
     1
  0
VISUALSTYLE
  5
40
102
{ACAD_REACTORS
330
2A
102
}
330
2A
100
AcDbVisualStyle
  2
X-Ray
 70
    25
177
     3
291
     0
 70
    58
 90
        2
176
     1
 90
        2
176
     1
 90
        1
176
     1
 90
        1
176
     1
 40
0.5
176
     1
 40
30.0
176
     1
 62
     7
420
 16777215
176
     1
 90
        1
176
     1
 90
        0
176
     1
 62
     7
176
     1
 62
   257
176
     1
 90
        1
176
     1
 90
        1
176
     1
 40
1.0
176
     1
 90
        8
176
     1
 62
     7
176
     1
 40
1.0
176
     1
 90
        1
176
     1
 90
        6
176
     1
 90
        2
176
     1
 62
     7
176
     1
 90
        3
176
     1
 90
        0
176
     1
 90
        0
176
     1
290
     0
176
     1
 90
       13
176
     1
 40
0.0
176
     1
 90
        0
176
     1
290
     0
176
     1
290
     1
176
     1
290
     1
176
     1
290
     0
176
     1
290
     0
176
     1
290
     0
176
     1
290
     0
176
     1
290
     0
176
     1
290
     0
176
     1
 90
       50
176
     1
 40
0.0
176
     1
 40
1.0
176
     1
 90
        0
176
     1
 62
    18
420
        0
176
     1
 90
       50
176
     1
 90
        3
176
     1
 62
     5
420
      255
176
     1
290
     0
176
     1
 90
       50
176
     1
 90
       50
176
     1
 90
       50
176
     1
290
     0
176
     1
 90
       50
176
     1
 62
   256
176
     0
 40
1.0
176
     0
 90
        2
176
     1
  1
strokes_ogs.tif
176
     1
290
     0
176
     1
 40
1.0
176
     1
 40
1.0
176
     1
  0
DICTIONARYVAR
  5
8C
102
{ACAD_REACTORS
330
8B
102
}
330
8B
100
DictionaryVariables
280
     0
  1
1:1
  0
DICTIONARYVAR
  5
91
102
{ACAD_REACTORS
330
8B
102
}
330
8B
100
DictionaryVariables
280
     0
  1
Standard
  0
DICTIONARYVAR
  5
90
102
{ACAD_REACTORS
330
8B
102
}
330
8B
100
DictionaryVariables
280
     0
  1
Standard
  0
DICTIONARY
  5
8D
330
5A
100
AcDbDictionary
280
     1
281
     1
  3
ACAD_ROUNDTRIP_2008_TABLESTYLE_CELLSTYLEMAP
360
8E
  0
CELLSTYLEMAP
  5
8E
102
{ACAD_REACTORS
330
8D
102
}
330
8D
100
AcDbCellStyleMap
 90
        3
300
CELLSTYLE
  1
TABLEFORMAT_BEGIN
 90
        5
170
     1
 91
        0
 92
    32768
 62
   257
 93
        1
300
CONTENTFORMAT
  1
CONTENTFORMAT_BEGIN
 90
        0
 91
        0
 92
        4
 93
        0
300

 40
0.0
140
1.0
 94
        5
 62
     0
340
11
144
0.25
309
CONTENTFORMAT_END
171
     1
301
MARGIN
  1
CELLMARGIN_BEGIN
 40
0.06
 40
0.06
 40
0.06
 40
0.06
 40
0.06
 40
0.06
309
CELLMARGIN_END
 94
        6
 95
        1
302
GRIDFORMAT
  1
GRIDFORMAT_BEGIN
 90
        0
 91
        1
 62
     0
 92
       -2
340
14
 93
        0
 40
0.045
309
GRIDFORMAT_END
 95
        2
302
GRIDFORMAT
  1
GRIDFORMAT_BEGIN
 90
        0
 91
        1
 62
     0
 92
       -2
340
14
 93
        0
 40
0.045
309
GRIDFORMAT_END
 95
        4
302
GRIDFORMAT
  1
GRIDFORMAT_BEGIN
 90
        0
 91
        1
 62
     0
 92
       -2
340
14
 93
        0
 40
0.045
309
GRIDFORMAT_END
 95
        8
302
GRIDFORMAT
  1
GRIDFORMAT_BEGIN
 90
        0
 91
        1
 62
     0
 92
       -2
340
14
 93
        0
 40
0.045
309
GRIDFORMAT_END
 95
       16
302
GRIDFORMAT
  1
GRIDFORMAT_BEGIN
 90
        0
 91
        1
 62
     0
 92
       -2
340
14
 93
        0
 40
0.045
309
GRIDFORMAT_END
 95
       32
302
GRIDFORMAT
  1
GRIDFORMAT_BEGIN
 90
        0
 91
        1
 62
     0
 92
       -2
340
14
 93
        0
 40
0.045
309
GRIDFORMAT_END
309
TABLEFORMAT_END
  1
CELLSTYLE_BEGIN
 90
        1
 91
        1
300
_TITLE
309
CELLSTYLE_END
300
CELLSTYLE
  1
TABLEFORMAT_BEGIN
 90
        5
170
     1
 91
        0
 92
        0
 62
   257
 93
        1
300
CONTENTFORMAT
  1
CONTENTFORMAT_BEGIN
 90
        0
 91
        0
 92
        4
 93
        0
300

 40
0.0
140
1.0
 94
        5
 62
     0
340
11
144
0.18
309
CONTENTFORMAT_END
171
     1
301
MARGIN
  1
CELLMARGIN_BEGIN
 40
0.06
 40
0.06
 40
0.06
 40
0.06
 40
0.06
 40
0.06
309
CELLMARGIN_END
 94
        6
 95
        1
302
GRIDFORMAT
  1
GRIDFORMAT_BEGIN
 90
        0
 91
        1
 62
     0
 92
       -2
340
14
 93
        0
 40
0.045
309
GRIDFORMAT_END
 95
        2
302
GRIDFORMAT
  1
GRIDFORMAT_BEGIN
 90
        0
 91
        1
 62
     0
 92
       -2
340
14
 93
        0
 40
0.045
309
GRIDFORMAT_END
 95
        4
302
GRIDFORMAT
  1
GRIDFORMAT_BEGIN
 90
        0
 91
        1
 62
     0
 92
       -2
340
14
 93
        0
 40
0.045
309
GRIDFORMAT_END
 95
        8
302
GRIDFORMAT
  1
GRIDFORMAT_BEGIN
 90
        0
 91
        1
 62
     0
 92
       -2
340
14
 93
        0
 40
0.045
309
GRIDFORMAT_END
 95
       16
302
GRIDFORMAT
  1
GRIDFORMAT_BEGIN
 90
        0
 91
        1
 62
     0
 92
       -2
340
14
 93
        0
 40
0.045
309
GRIDFORMAT_END
 95
       32
302
GRIDFORMAT
  1
GRIDFORMAT_BEGIN
 90
        0
 91
        1
 62
     0
 92
       -2
340
14
 93
        0
 40
0.045
309
GRIDFORMAT_END
309
TABLEFORMAT_END
  1
CELLSTYLE_BEGIN
 90
        2
 91
        1
300
_HEADER
309
CELLSTYLE_END
300
CELLSTYLE
  1
TABLEFORMAT_BEGIN
 90
        5
170
     1
 91
        0
 92
        0
 62
   257
 93
        1
300
CONTENTFORMAT
  1
CONTENTFORMAT_BEGIN
 90
        0
 91
        0
 92
        4
 93
        0
300

 40
0.0
140
1.0
 94
        2
 62
     0
340
11
144
0.18
309
CONTENTFORMAT_END
171
     1
301
MARGIN
  1
CELLMARGIN_BEGIN
 40
0.06
 40
0.06
 40
0.06
 40
0.06
 40
0.06
 40
0.06
309
CELLMARGIN_END
 94
        6
 95
        1
302
GRIDFORMAT
  1
GRIDFORMAT_BEGIN
 90
        0
 91
        1
 62
     0
 92
       -2
340
14
 93
        0
 40
0.045
309
GRIDFORMAT_END
 95
        2
302
GRIDFORMAT
  1
GRIDFORMAT_BEGIN
 90
        0
 91
        1
 62
     0
 92
       -2
340
14
 93
        0
 40
0.045
309
GRIDFORMAT_END
 95
        4
302
GRIDFORMAT
  1
GRIDFORMAT_BEGIN
 90
        0
 91
        1
 62
     0
 92
       -2
340
14
 93
        0
 40
0.045
309
GRIDFORMAT_END
 95
        8
302
GRIDFORMAT
  1
GRIDFORMAT_BEGIN
 90
        0
 91
        1
 62
     0
 92
       -2
340
14
 93
        0
 40
0.045
309
GRIDFORMAT_END
 95
       16
302
GRIDFORMAT
  1
GRIDFORMAT_BEGIN
 90
        0
 91
        1
 62
     0
 92
       -2
340
14
 93
        0
 40
0.045
309
GRIDFORMAT_END
 95
       32
302
GRIDFORMAT
  1
GRIDFORMAT_BEGIN
 90
        0
 91
        1
 62
     0
 92
       -2
340
14
 93
        0
 40
0.045
309
GRIDFORMAT_END
309
TABLEFORMAT_END
  1
CELLSTYLE_BEGIN
 90
        3
 91
        2
300
_DATA
309
CELLSTYLE_END
  0
ENDSEC
  0
EOF
