  0
SECTION
  2
HEADER
  9
$ACADVER
  1
AC1027
  9
$ACADMAINTVER
 70
   105
  9
$DWGCODEPAGE
  3
ANSI_1252
  9
$LASTSAVEDBY
  1
Office Desk
  9
$REQUIREDVERSIONS
160
                 0
  9
$INSBASE
 10
0.0
 20
0.0
 30
0.0
  9
$EXTMIN
 10
-22.51656299212598
 20
-7.068929133858267
 30
0.0
  9
$EXTMAX
 10
-16.62638976377953
 20
0.4597755905511811
 30
0.0
  9
$LIMMIN
 10
0.0
 20
0.0
  9
$LIMMAX
 10
12.0
 20
9.0
  9
$ORTHOMODE
 70
     0
  9
$REGENMODE
 70
     1
  9
$FILLMODE
 70
     1
  9
$QTEXTMODE
 70
     0
  9
$MIRRTEXT
 70
     1
  9
$LTSCALE
 40
1.0
  9
$ATTMODE
 70
     1
  9
$TEXTSIZE
 40
0.2
  9
$TRACEWID
 40
0.05
  9
$TEXTSTYLE
  7
Standard
  9
$CLAYER
  8
0
  9
$CELTYPE
  6
ByLayer
  9
$CECOLOR
 62
   256
  9
$CELTSCALE
 40
1.0
  9
$DISPSILH
 70
     0
  9
$DIMSCALE
 40
1.0
  9
$DIMASZ
 40
0.18
  9
$DIMEXO
 40
0.0625
  9
$DIMDLI
 40
0.38
  9
$DIMRND
 40
0.0
  9
$DIMDLE
 40
0.0
  9
$DIMEXE
 40
0.18
  9
$DIMTP
 40
0.0
  9
$DIMTM
 40
0.0
  9
$DIMTXT
 40
0.18
  9
$DIMCEN
 40
0.09
  9
$DIMTSZ
 40
0.0
  9
$DIMTOL
 70
     0
  9
$DIMLIM
 70
     0
  9
$DIMTIH
 70
     1
  9
$DIMTOH
 70
     1
  9
$DIMSE1
 70
     0
  9
$DIMSE2
 70
     0
  9
$DIMTAD
 70
     0
  9
$DIMZIN
 70
     0
  9
$DIMBLK
  1

  9
$DIMASO
 70
     1
  9
$DIMSHO
 70
     1
  9
$DIMPOST
  1

  9
$DIMAPOST
  1

  9
$DIMALT
 70
     0
  9
$DIMALTD
 70
     2
  9
$DIMALTF
 40
25.4
  9
$DIMLFAC
 40
1.0
  9
$DIMTOFL
 70
     0
  9
$DIMTVP
 40
0.0
  9
$DIMTIX
 70
     0
  9
$DIMSOXD
 70
     0
  9
$DIMSAH
 70
     0
  9
$DIMBLK1
  1

  9
$DIMBLK2
  1

  9
$DIMSTYLE
  2
Standard
  9
$DIMCLRD
 70
     0
  9
$DIMCLRE
 70
     0
  9
$DIMCLRT
 70
     0
  9
$DIMTFAC
 40
1.0
  9
$DIMGAP
 40
0.09
  9
$DIMJUST
 70
     0
  9
$DIMSD1
 70
     0
  9
$DIMSD2
 70
     0
  9
$DIMTOLJ
 70
     1
  9
$DIMTZIN
 70
     0
  9
$DIMALTZ
 70
     0
  9
$DIMALTTZ
 70
     0
  9
$DIMUPT
 70
     0
  9
$DIMDEC
 70
     4
  9
$DIMTDEC
 70
     4
  9
$DIMALTU
 70
     2
  9
$DIMALTTD
 70
     2
  9
$DIMTXSTY
  7
Standard
  9
$DIMAUNIT
 70
     0
  9
$DIMADEC
 70
     0
  9
$DIMALTRND
 40
0.0
  9
$DIMAZIN
 70
     0
  9
$DIMDSEP
 70
    46
  9
$DIMATFIT
 70
     3
  9
$DIMFRAC
 70
     0
  9
$DIMLDRBLK
  1

  9
$DIMLUNIT
 70
     2
  9
$DIMLWD
 70
    -2
  9
$DIMLWE
 70
    -2
  9
$DIMTMOVE
 70
     0
  9
$DIMFXL
 40
1.0
  9
$DIMFXLON
 70
     0
  9
$DIMJOGANG
 40
0.7853981633974483
  9
$DIMTFILL
 70
     0
  9
$DIMTFILLCLR
 70
     0
  9
$DIMARCSYM
 70
     0
  9
$DIMLTYPE
  6

  9
$DIMLTEX1
  6

  9
$DIMLTEX2
  6

  9
$DIMTXTDIRECTION
 70
     0
  9
$LUNITS
 70
     2
  9
$LUPREC
 70
     4
  9
$SKETCHINC
 40
0.1
  9
$FILLETRAD
 40
0.0
  9
$AUNITS
 70
     0
  9
$AUPREC
 70
     0
  9
$MENU
  1
.
  9
$ELEVATION
 40
0.0
  9
$PELEVATION
 40
0.0
  9
$THICKNESS
 40
0.0
  9
$LIMCHECK
 70
     0
  9
$CHAMFERA
 40
0.0
  9
$CHAMFERB
 40
0.0
  9
$CHAMFERC
 40
0.0
  9
$CHAMFERD
 40
0.0
  9
$SKPOLY
 70
     0
  9
$TDCREATE
 40
2461020.636414479
  9
$TDUCREATE
 40
2461020.407247813
  9
$TDUPDATE
 40
2461020.636414514
  9
$TDUUPDATE
 40
2461020.407247848
  9
$TDINDWG
 40
0.0000000116
  9
$TDUSRTIMER
 40
0.0000000116
  9
$USRTIMER
 70
     1
  9
$ANGBASE
 50
0.0
  9
$ANGDIR
 70
     0
  9
$PDMODE
 70
     0
  9
$PDSIZE
 40
0.0
  9
$PLINEWID
 40
0.0
  9
$SPLFRAME
 70
     0
  9
$SPLINETYPE
 70
     6
  9
$SPLINESEGS
 70
     8
  9
$HANDSEED
  5
95
  9
$SURFTAB1
 70
     6
  9
$SURFTAB2
 70
     6
  9
$SURFTYPE
 70
     6
  9
$SURFU
 70
     6
  9
$SURFV
 70
     6
  9
$UCSBASE
  2

  9
$UCSNAME
  2

  9
$UCSORG
 10
0.0
 20
0.0
 30
0.0
  9
$UCSXDIR
 10
1.0
 20
0.0
 30
0.0
  9
$UCSYDIR
 10
0.0
 20
1.0
 30
0.0
  9
$UCSORTHOREF
  2

  9
$UCSORTHOVIEW
 70
     0
  9
$UCSORGTOP
 10
0.0
 20
0.0
 30
0.0
  9
$UCSORGBOTTOM
 10
0.0
 20
0.0
 30
0.0
  9
$UCSORGLEFT
 10
0.0
 20
0.0
 30
0.0
  9
$UCSORGRIGHT
 10
0.0
 20
0.0
 30
0.0
  9
$UCSORGFRONT
 10
0.0
 20
0.0
 30
0.0
  9
$UCSORGBACK
 10
0.0
 20
0.0
 30
0.0
  9
$PUCSBASE
  2

  9
$PUCSNAME
  2

  9
$PUCSORG
 10
0.0
 20
0.0
 30
0.0
  9
$PUCSXDIR
 10
1.0
 20
0.0
 30
0.0
  9
$PUCSYDIR
 10
0.0
 20
1.0
 30
0.0
  9
$PUCSORTHOREF
  2

  9
$PUCSORTHOVIEW
 70
     0
  9
$PUCSORGTOP
 10
0.0
 20
0.0
 30
0.0
  9
$PUCSORGBOTTOM
 10
0.0
 20
0.0
 30
0.0
  9
$PUCSORGLEFT
 10
0.0
 20
0.0
 30
0.0
  9
$PUCSORGRIGHT
 10
0.0
 20
0.0
 30
0.0
  9
$PUCSORGFRONT
 10
0.0
 20
0.0
 30
0.0
  9
$PUCSORGBACK
 10
0.0
 20
0.0
 30
0.0
  9
$USERI1
 70
     0
  9
$USERI2
 70
     0
  9
$USERI3
 70
     0
  9
$USERI4
 70
     0
  9
$USERI5
 70
     0
  9
$USERR1
 40
0.0
  9
$USERR2
 40
0.0
  9
$USERR3
 40
0.0
  9
$USERR4
 40
0.0
  9
$USERR5
 40
0.0
  9
$WORLDVIEW
 70
     1
  9
$SHADEDGE
 70
     3
  9
$SHADEDIF
 70
    70
  9
$TILEMODE
 70
     1
  9
$MAXACTVP
 70
    64
  9
$PINSBASE
 10
0.0
 20
0.0
 30
0.0
  9
$PLIMCHECK
 70
     0
  9
$PEXTMIN
 10
1.000000000000000E+20
 20
1.000000000000000E+20
 30
1.000000000000000E+20
  9
$PEXTMAX
 10
-1.000000000000000E+20
 20
-1.000000000000000E+20
 30
-1.000000000000000E+20
  9
$PLIMMIN
 10
0.0
 20
0.0
  9
$PLIMMAX
 10
12.0
 20
9.0
  9
$UNITMODE
 70
     0
  9
$VISRETAIN
 70
     1
  9
$PLINEGEN
 70
     0
  9
$PSLTSCALE
 70
     1
  9
$TREEDEPTH
 70
  3020
  9
$CMLSTYLE
  2
Standard
  9
$CMLJUST
 70
     0
  9
$CMLSCALE
 40
1.0
  9
$PROXYGRAPHICS
 70
     1
  9
$MEASUREMENT
 70
     0
  9
$CELWEIGHT
370
    -1
  9
$ENDCAPS
280
     0
  9
$JOINSTYLE
280
     0
  9
$LWDISPLAY
290
     0
  9
$INSUNITS
 70
     1
  9
$HYPERLINKBASE
  1

  9
$STYLESHEET
  1

  9
$XEDIT
290
     1
  9
$CEPSNTYPE
380
     0
  9
$PSTYLEMODE
290
     1
  9
$FINGERPRINTGUID
  2
{6c549592-245e-4a1d-8683-4e64e7a36324}
  9
$VERSIONGUID
  2
{FAEB1C32-E019-11D5-929B-00C0DF256EC4}
  9
$EXTNAMES
290
     1
  9
$PSVPSCALE
 40
0.0
  9
$OLESTARTUP
290
     0
  9
$SORTENTS
280
   127
  9
$INDEXCTL
280
     0
  9
$HIDETEXT
280
     1
  9
$XCLIPFRAME
280
     2
  9
$HALOGAP
280
     0
  9
$OBSCOLOR
 70
   257
  9
$OBSLTYPE
280
     0
  9
$INTERSECTIONDISPLAY
280
     0
  9
$INTERSECTIONCOLOR
 70
   257
  9
$DIMASSOC
280
     2
  9
$PROJECTNAME
  1

  9
$CAMERADISPLAY
290
     0
  9
$LENSLENGTH
 40
50.0
  9
$CAMERAHEIGHT
 40
0.0
  9
$STEPSPERSEC
 40
2.0
  9
$STEPSIZE
 40
6.0
  9
$3DDWFPREC
 40
2.0
  9
$PSOLWIDTH
 40
0.25
  9
$PSOLHEIGHT
 40
4.0
  9
$LOFTANG1
 40
1.570796326794897
  9
$LOFTANG2
 40
1.570796326794897
  9
$LOFTMAG1
 40
0.0
  9
$LOFTMAG2
 40
0.0
  9
$LOFTPARAM
 70
     7
  9
$LOFTNORMALS
280
     1
  9
$LATITUDE
 40
37.795
  9
$LONGITUDE
 40
-122.394
  9
$NORTHDIRECTION
 40
0.0
  9
$TIMEZONE
 70
 -8000
  9
$LIGHTGLYPHDISPLAY
280
     1
  9
$TILEMODELIGHTSYNCH
280
     1
  9
$CMATERIAL
347
44
  9
$SOLIDHIST
280
     0
  9
$SHOWHIST
280
     1
  9
$DWFFRAME
280
     2
  9
$DGNFRAME
280
     2
  9
$REALWORLDSCALE
290
     1
  9
$INTERFERECOLOR
 62
   256
  9
$CSHADOW
280
     0
  9
$SHADOWPLANELOCATION
 40
0.0
  0
ENDSEC
  0
SECTION
  2
CLASSES
  0
CLASS
  1
ACDBDICTIONARYWDFLT
  2
AcDbDictionaryWithDefault
  3
ObjectDBX Classes
 90
        0
 91
        3
280
     0
281
     0
  0
CLASS
  1
VISUALSTYLE
  2
AcDbVisualStyle
  3
ObjectDBX Classes
 90
     4095
 91
        3
280
     0
281
     0
  0
CLASS
  1
MATERIAL
  2
AcDbMaterial
  3
ObjectDBX Classes
 90
     1153
 91
        3
280
     0
281
     0
  0
CLASS
  1
SCALE
  2
AcDbScale
  3
ObjectDBX Classes
 90
     1153
 91
        3
280
     0
281
     0
  0
CLASS
  1
TABLESTYLE
  2
AcDbTableStyle
  3
ObjectDBX Classes
 90
     4095
 91
        3
280
     0
281
     0
  0
CLASS
  1
MLEADERSTYLE
  2
AcDbMLeaderStyle
  3
ACDB_MLEADERSTYLE_CLASS
 90
     4095
 91
        3
280
     0
281
     0
  0
CLASS
  1
SUN
  2
AcDbSun
  3
SCENEOE
 90
     1153
 91
        3
280
     0
281
     0
  0
CLASS
  1
DICTIONARYVAR
  2
AcDbDictionaryVar
  3
ObjectDBX Classes
 90
        0
 91
        3
280
     0
281
     0
  0
CLASS
  1
CELLSTYLEMAP
  2
AcDbCellStyleMap
  3
ObjectDBX Classes
 90
     1152
 91
        3
280
     0
281
     0
  0
ENDSEC
  0
SECTION
  2
TABLES
  0
TABLE
  2
VPORT
  5
8
330
0
100
AcDbSymbolTable
 70
     1
  0
VPORT
  5
29
330
8
100
AcDbSymbolTableRecord
100
AcDbViewportTableRecord
  2
*Active
 70
     0
 10
0.0
 20
0.0
 11
1.0
 21
1.0
 12
10.42990654205607
 22
4.5
 13
0.0
 23
0.0
 14
0.5
 24
0.5
 15
0.5
 25
0.5
 16
0.0
 26
0.0
 36
1.0
 17
0.0
 27
0.0
 37
0.0
 40
9.0
 41
1.972972972850329
 42
50.0
 43
0.0
 44
0.0
 50
0.0
 51
0.0
 71
     0
 72
   100
 73
     1
 74
     3
 75
     0
 76
     0
 77
     0
 78
     0
281
     0
 65
     1
110
0.0
120
0.0
130
0.0
111
1.0
121
0.0
131
0.0
112
0.0
122
1.0
132
0.0
 79
     0
146
0.0
348
2F
 60
     3
 61
     5
292
     1
282
     1
141
0.0
142
0.0
 63
   250
361
5D
  0
ENDTAB
  0
TABLE
  2
LTYPE
  5
5
330
0
100
AcDbSymbolTable
 70
     1
  0
LTYPE
  5
14
330
5
100
AcDbSymbolTableRecord
100
AcDbLinetypeTableRecord
  2
ByBlock
 70
     0
  3

 72
    65
 73
     0
 40
0.0
  0
LTYPE
  5
15
330
5
100
AcDbSymbolTableRecord
100
AcDbLinetypeTableRecord
  2
ByLayer
 70
     0
  3

 72
    65
 73
     0
 40
0.0
  0
LTYPE
  5
16
330
5
100
AcDbSymbolTableRecord
100
AcDbLinetypeTableRecord
  2
Continuous
 70
     0
  3
Solid line
 72
    65
 73
     0
 40
0.0
  0
ENDTAB
  0
TABLE
  2
LAYER
  5
2
330
0
100
AcDbSymbolTable
 70
     2
  0
LAYER
  5
10
330
2
100
AcDbSymbolTableRecord
100
AcDbLayerTableRecord
  2
0
 70
     0
 62
     7
  6
Continuous
370
    -3
390
F
347
46
348
0
  0
LAYER
  5
5F
330
2
100
AcDbSymbolTableRecord
100
AcDbLayerTableRecord
  2
Layer 1
 70
     0
 62
     7
  6
Continuous
370
    -3
390
F
347
46
348
0
  0
ENDTAB
  0
TABLE
  2
STYLE
  5
3
330
0
100
AcDbSymbolTable
 70
     1
  0
STYLE
  5
11
330
3
100
AcDbSymbolTableRecord
100
AcDbTextStyleTableRecord
  2
Standard
 70
     0
 40
0.0
 41
1.0
 50
0.0
 71
     0
 42
0.2
  3
txt
  4

  0
ENDTAB
  0
TABLE
  2
VIEW
  5
6
330
0
100
AcDbSymbolTable
 70
     0
  0
ENDTAB
  0
TABLE
  2
UCS
  5
7
330
0
100
AcDbSymbolTable
 70
     0
  0
ENDTAB
  0
TABLE
  2
APPID
  5
9
330
0
100
AcDbSymbolTable
 70
     2
  0
APPID
  5
12
330
9
100
AcDbSymbolTableRecord
100
AcDbRegAppTableRecord
  2
ACAD
 70
     0
  0
APPID
  5
5E
330
9
100
AcDbSymbolTableRecord
100
AcDbRegAppTableRecord
  2
ODA
 70
     0
  0
ENDTAB
  0
TABLE
  2
DIMSTYLE
  5
A
330
0
100
AcDbSymbolTable
 70
     1
100
AcDbDimStyleTable
  0
DIMSTYLE
105
27
330
A
100
AcDbSymbolTableRecord
100
AcDbDimStyleTableRecord
  2
Standard
 70
     0
178
     0
340
11
  0
ENDTAB
  0
TABLE
  2
BLOCK_RECORD
  5
1
330
0
100
AcDbSymbolTable
 70
     1
  0
BLOCK_RECORD
  5
1F
330
1
100
AcDbSymbolTableRecord
100
AcDbBlockTableRecord
  2
*Model_Space
340
22
 70
     0
280
     1
281
     0
  0
BLOCK_RECORD
  5
1B
330
1
100
AcDbSymbolTableRecord
100
AcDbBlockTableRecord
  2
*Paper_Space
340
1E
 70
     0
280
     1
281
     0
  0
BLOCK_RECORD
  5
23
330
1
100
AcDbSymbolTableRecord
100
AcDbBlockTableRecord
  2
*Paper_Space0
340
26
 70
     0
280
     1
281
     0
  0
ENDTAB
  0
ENDSEC
  0
SECTION
  2
BLOCKS
  0
BLOCK
  5
20
330
1F
100
AcDbEntity
  8
0
100
AcDbBlockBegin
  2
*Model_Space
 70
     0
 10
0.0
 20
0.0
 30
0.0
  3
*Model_Space
  1

  0
ENDBLK
  5
21
330
1F
100
AcDbEntity
  8
0
100
AcDbBlockEnd
  0
BLOCK
  5
1C
330
1B
100
AcDbEntity
 67
     1
  8
0
100
AcDbBlockBegin
  2
*Paper_Space
 70
     0
 10
0.0
 20
0.0
 30
0.0
  3
*Paper_Space
  1

  0
ENDBLK
  5
1D
330
1B
100
AcDbEntity
 67
     1
  8
0
100
AcDbBlockEnd
  0
BLOCK
  5
24
330
23
100
AcDbEntity
  8
0
100
AcDbBlockBegin
  2
*Paper_Space0
 70
     0
 10
0.0
 20
0.0
 30
0.0
  3
*Paper_Space0
  1

  0
ENDBLK
  5
25
330
23
100
AcDbEntity
  8
0
100
AcDbBlockEnd
  0
ENDSEC
  0
SECTION
  2
ENTITIES
  0
LWPOLYLINE
  5
60
330
1F
100
AcDbEntity
  8
Layer 1
 62
   250
370
     9
100
AcDbPolyline
 90
        5
 70
     1
 43
0.0
 10
-22.51506299212598
 20
-7.067425196850394
 10
-16.62788976377953
 20
-7.067425196850394
 10
-16.62788976377953
 20
0.4582755905511811
 10
-22.51506299212598
 20
0.4582755905511811
 10
-22.51506299212598
 20
-7.067425196850394
  0
LWPOLYLINE
  5
61
330
1F
100
AcDbEntity
  8
Layer 1
 62
     7
370
    18
100
AcDbPolyline
 90
      184
 70
     1
 43
0.0
 10
-21.06120078740157
 20
-2.270771653543307
 10
-21.06120078740157
 20
-1.609169291338583
 10
-21.06176377952756
 20
-1.603362204724409
 10
-21.06231496062992
 20
-1.587748031496063
 10
-21.06116141732284
 20
-1.56503937007874
 10
-21.05661023622047
 20
-1.537948818897638
 10
-21.04695669291339
 20
-1.509192913385827
 10
-21.03050393700788
 20
-1.481484251968504
 10
-21.00556299212598
 20
-1.45753937007874
 10
-20.97042913385827
 20
-1.440062992125984
 10
-20.92436614173228
 20
-1.421066929133858
 10
-20.86550393700787
 20
-1.394007874015748
 10
-20.79046062992126
 20
-1.363755905511811
 10
-20.69585433070866
 20
-1.335200787401575
 10
-20.5783031496063
 20
-1.313212598425197
 10
-20.43442125984252
 20
-1.302673228346457
 10
-20.26083070866142
 20
-1.30846062992126
 10
-20.05414566929134
 20
-1.335456692913386
 10
-19.79126377952756
 20
-1.390307086614173
 10
-19.47044488188977
 20
-1.469826771653543
 10
-19.12034645669291
 20
-1.564161417322835
 10
-18.76963385826772
 20
-1.663452755905512
 10
-18.44696456692913
 20
-1.757842519685039
 10
-18.181
 20
-1.837464566929134
 10
-18.00040551181102
 20
-1.892468503937008
 10
-17.93383858267716
 20
-1.912996062992126
 10
-17.92929921259843
 20
-1.916555118110236
 10
-17.91848818897638
 20
-1.926527559055118
 10
-17.90561811023622
 20
-1.941850393700787
 10
-17.89491338582677
 20
-1.961468503937008
 10
-17.89057874015748
 20
-1.984326771653543
 10
-17.89683464566929
 20
-2.009358267716535
 10
-17.9178937007874
 20
-2.035507874015748
 10
-17.95797244094488
 20
-2.061720472440945
 10
-18.02162598425197
 20
-2.089677165354331
 10
-18.10483464566929
 20
-2.120433070866142
 10
-18.19895669291338
 20
-2.151976377952756
 10
-18.29534645669291
 20
-2.182295275590551
 10
-18.38536220472441
 20
-2.209377952755906
 10
-18.46036220472441
 20
-2.231212598425197
 10
-18.51170078740158
 20
-2.245787401574803
 10
-18.53073228346457
 20
-2.251094488188977
 10
-18.53798031496063
 20
-2.25309842519685
 10
-18.55825590551181
 20
-2.258145669291339
 10
-18.58937007874016
 20
-2.264779527559055
 10
-18.62912598425197
 20
-2.27153937007874
 10
-18.67533070866142
 20
-2.276976377952756
 10
-18.7257874015748
 20
-2.279629921259843
 10
-18.7783031496063
 20
-2.278047244094488
 10
-18.83068503937008
 20
-2.270771653543307
 10
-18.90223622047244
 20
-2.254043307086614
 10
-19.0052874015748
 20
-2.227535433070866
 10
-19.12718897637795
 20
-2.194952755905512
 10
-19.25529527559055
 20
-2.159996062992126
 10
-19.37695669291339
 20
-2.126366141732284
 10
-19.4795157480315
 20
-2.097759842519685
 10
-19.55032677165354
 20
-2.077885826771654
 10
-19.57674409448819
 20
-2.070437007874016
 10
-19.59070078740157
 20
-2.491799212598425
 10
-19.59111811023622
 20
-2.495629921259843
 10
-19.59279133858268
 20
-2.50596062992126
 10
-19.59635433070866
 20
-2.521047244094488
 10
-19.60244094488189
 20
-2.539145669291339
 10
-19.61168503937008
 20
-2.55851968503937
 10
-19.62471653543307
 20
-2.57742125984252
 10
-19.64217322834646
 20
-2.594110236220473
 10
-19.66468897637795
 20
-2.606846456692913
 10
-19.66682283464567
 20
-2.641688976377953
 10
-19.66045275590551
 20
-2.645425196850394
 10
-19.64284251968504
 20
-2.655452755905512
 10
-19.61625196850394
 20
-2.669996062992126
 10
-19.58293307086614
 20
-2.687279527559055
 10
-19.54514566929134
 20
-2.705527559055118
 10
-19.50514566929134
 20
-2.722964566929134
 10
-19.46518897637795
 20
-2.737814960629921
 10
-19.42752755905512
 20
-2.748303149606299
 10
-19.29643307086614
 20
-2.7845
 10
-19.01015354330709
 20
-2.867125984251969
 10
-18.62190157480315
 20
-2.980381889763779
 10
-18.18489763779528
 20
-3.108472440944882
 10
-17.75236614173228
 20
-3.235598425196851
 10
-17.37752362204725
 20
-3.345964566929134
 10
-17.11358661417323
 20
-3.423767716535433
 10
-17.01378346456693
 20
-3.453212598425197
 10
-17.00576771653543
 20
-3.455468503937008
 10
-16.98470078740158
 20
-3.461893700787402
 10
-16.95504724409449
 20
-3.471976377952756
 10
-16.92126377952756
 20
-3.485192913385827
 10
-16.88781496062992
 20
-3.501027559055118
 10
-16.85916929133858
 20
-3.518972440944882
 10
-16.83978346456693
 20
-3.538503937007874
 10
-16.83412204724409
 20
-3.559110236220473
 10
-16.83725590551181
 20
-3.576212598425197
 10
-16.84909842519685
 20
-3.622409448818898
 10
-16.87333070866142
 20
-3.690035433070866
 10
-16.91362598425197
 20
-3.771429133858268
 10
-16.97365748031496
 20
-3.858913385826772
 10
-17.05709842519685
 20
-3.944834645669292
 10
-17.16762598425197
 20
-4.02151968503937
 10
-17.3089094488189
 20
-4.081303149606299
 10
-17.31299606299213
 20
-4.220015748031496
 10
-17.3150157480315
 20
-4.224291338582677
 10
-17.32217716535433
 20
-4.235838582677165
 10
-17.33612598425197
 20
-4.252748031496063
 10
-17.35850393700787
 20
-4.273102362204725
 10
-17.39096062992126
 20
-4.294984251968504
 10
-17.43514566929134
 20
-4.31648031496063
 10
-17.4926968503937
 20
-4.335677165354331
 10
-17.56527165354331
 20
-4.35065748031496
 10
-17.64867716535433
 20
-4.360023622047244
 10
-17.73479527559055
 20
-4.36442125984252
 10
-17.81935826771653
 20
-4.364992125984252
 10
-17.8981062992126
 20
-4.362889763779528
 10
-17.96677559055118
 20
-4.359259842519685
 10
-18.02110236220473
 20
-4.355244094488189
 10
-18.05682283464567
 20
-4.351996062992126
 10
-18.06967716535433
 20
-4.35065748031496
 10
-18.07361417322835
 20
-4.349574803149606
 10
-18.08405511811024
 20
-4.346334645669291
 10
-18.09895275590551
 20
-4.340968503937008
 10
-18.11625984251969
 20
-4.3335
 10
-18.13392125984252
 20
-4.323948818897637
 10
-18.14988976377953
 20
-4.312342519685039
 10
-18.16211417322835
 20
-4.298704724409449
 10
-18.16854724409449
 20
-4.28305905511811
 10
-18.17143700787402
 20
-4.259208661417323
 10
-18.17433070866142
 20
-4.223937007874015
 10
-18.17710236220472
 20
-4.181740157480315
 10
-18.17963779527559
 20
-4.137125984251968
 10
-18.1818188976378
 20
-4.094590551181103
 10
-18.18351968503937
 20
-4.05863779527559
 10
-18.18462992125984
 20
-4.033763779527559
 10
-18.18502755905512
 20
-4.024472440944882
 10
-19.64338582677165
 20
-3.572200787401575
 10
-19.64338582677165
 20
-5.52813779527559
 10
-19.63537795275591
 20
-5.533216535433071
 10
-19.61495669291338
 20
-5.548216535433071
 10
-19.58752362204724
 20
-5.572791338582677
 10
-19.55848031496063
 20
-5.60659842519685
 10
-19.53322440944882
 20
-5.649283464566929
 10
-19.51715748031496
 20
-5.700503937007874
 10
-19.51568503937008
 20
-5.759909448818898
 10
-19.53420472440945
 20
-5.827157480314961
 10
-19.57435826771654
 20
-5.896248031496063
 10
-19.63366141732283
 20
-5.960456692913386
 10
-19.7113188976378
 20
-6.018358267716535
 10
-19.80654330708661
 20
-6.06851968503937
 10
-19.91854330708662
 20
-6.109511811023622
 10
-20.04652755905512
 20
-6.139905511811024
 10
-20.18970472440945
 20
-6.158263779527559
 10
-20.3472874015748
 20
-6.163165354330709
 10
-20.51111811023622
 20
-6.15613779527559
 10
-20.67042913385827
 20
-6.138854330708662
 10
-20.82050787401575
 20
-6.110094488188976
 10
-20.95662992125984
 20
-6.068633858267717
 10
-21.07407874015748
 20
-6.013255905511811
 10
-21.16814566929134
 20
-5.942728346456693
 10
-21.2341062992126
 20
-5.855838582677166
 10
-21.26724803149606
 20
-5.751358267716536
 10
-21.2676968503937
 20
-5.743511811023622
 10
-21.26705118110236
 20
-5.722228346456693
 10
-21.26231889763779
 20
-5.690881889763779
 10
-21.2505157480315
 20
-5.652838582677165
 10
-21.22864173228346
 20
-5.611484251968504
 10
-21.1937125984252
 20
-5.570185039370079
 10
-21.14273622047244
 20
-5.53232283464567
 10
-21.07272440944882
 20
-5.501263779527559
 10
-21.07272440944882
 20
-2.709641732283464
 10
-21.0711968503937
 20
-2.702114173228346
 10
-21.06606299212599
 20
-2.682334645669291
 10
-21.05650393700788
 20
-2.654523622047244
 10
-21.04169291338583
 20
-2.622885826771653
 10
-21.02080708661417
 20
-2.591637795275591
 10
-20.99302755905512
 20
-2.564992125984252
 10
-20.95752362204724
 20
-2.547161417322835
 10
-20.91348031496063
 20
-2.542354330708661
 10
-20.91908267716535
 20
-2.538007874015748
 10
-20.93401181102362
 20
-2.525027559055118
 10
-20.95543700787401
 20
-2.5035
 10
-20.98053543307087
 20
-2.47351968503937
 10
-21.00648818897638
 20
-2.435165354330709
 10
-21.03046456692913
 20
-2.388531496062992
 10
-21.04964173228347
 20
-2.333704724409449
 10
-21.06120078740157
 20
-2.270771653543307
  0
LWPOLYLINE
  5
62
330
1F
100
AcDbEntity
  8
Layer 1
 62
     7
370
    18
100
AcDbPolyline
 90
       33
 70
     1
 43
0.0
 10
-19.7903779527559
 20
-2.110397637795276
 10
-19.77253149606299
 20
-2.113169291338583
 10
-19.75591338582677
 20
-2.121118110236221
 10
-19.74087007874016
 20
-2.133692913385827
 10
-19.72776771653543
 20
-2.150350393700788
 10
-19.71695275590551
 20
-2.170535433070866
 10
-19.70879133858268
 20
-2.193704724409449
 10
-19.70362992125984
 20
-2.219303149606299
 10
-19.70183070866142
 20
-2.246787401574803
 10
-19.70362992125984
 20
-2.274275590551181
 10
-19.70879133858268
 20
-2.299874015748031
 10
-19.71695275590551
 20
-2.323043307086614
 10
-19.72776771653543
 20
-2.343228346456693
 10
-19.74087007874016
 20
-2.35988188976378
 10
-19.75591338582677
 20
-2.372456692913386
 10
-19.77253149606299
 20
-2.38040157480315
 10
-19.7903779527559
 20
-2.383173228346457
 10
-19.80822047244094
 20
-2.38040157480315
 10
-19.82483858267717
 20
-2.372456692913386
 10
-19.83987401574803
 20
-2.35988188976378
 10
-19.85298031496063
 20
-2.343228346456693
 10
-19.86379133858268
 20
-2.323043307086614
 10
-19.87195669291339
 20
-2.299874015748031
 10
-19.87711417322835
 20
-2.274275590551181
 10
-19.87891338582677
 20
-2.246787401574803
 10
-19.87711417322835
 20
-2.219303149606299
 10
-19.87195669291339
 20
-2.193704724409449
 10
-19.86379133858268
 20
-2.170535433070866
 10
-19.85298031496063
 20
-2.150350393700788
 10
-19.83987401574803
 20
-2.133692913385827
 10
-19.82483858267717
 20
-2.121118110236221
 10
-19.80822047244094
 20
-2.113169291338583
 10
-19.7903779527559
 20
-2.110397637795276
  0
LWPOLYLINE
  5
63
330
1F
100
AcDbEntity
  8
Layer 1
 62
     7
370
     9
100
AcDbPolyline
 90
       33
 70
     1
 43
0.0
 10
-19.77584251968504
 20
-2.221614173228347
 10
-19.76984251968504
 20
-2.222547244094488
 10
-19.76425590551181
 20
-2.225216535433071
 10
-19.7591968503937
 20
-2.229444881889764
 10
-19.75479133858268
 20
-2.235043307086614
 10
-19.75115354330709
 20
-2.241830708661417
 10
-19.7484094488189
 20
-2.249622047244094
 10
-19.74667322834646
 20
-2.258228346456693
 10
-19.74606692913386
 20
-2.267472440944882
 10
-19.74667322834646
 20
-2.276712598425197
 10
-19.7484094488189
 20
-2.285318897637795
 10
-19.75115354330709
 20
-2.293110236220472
 10
-19.75479133858268
 20
-2.299897637795276
 10
-19.7591968503937
 20
-2.3055
 10
-19.76425590551181
 20
-2.309728346456693
 10
-19.76984251968504
 20
-2.312401574803149
 10
-19.77584251968504
 20
-2.313334645669291
 10
-19.78184645669291
 20
-2.312401574803149
 10
-19.78743700787401
 20
-2.309728346456693
 10
-19.79249606299213
 20
-2.3055
 10
-19.79690157480315
 20
-2.299897637795276
 10
-19.80053937007874
 20
-2.293110236220472
 10
-19.80328346456693
 20
-2.285318897637795
 10
-19.8050157480315
 20
-2.276712598425197
 10
-19.8056220472441
 20
-2.267472440944882
 10
-19.8050157480315
 20
-2.258228346456693
 10
-19.80328346456693
 20
-2.249622047244094
 10
-19.80053937007874
 20
-2.241830708661417
 10
-19.79690157480315
 20
-2.235043307086614
 10
-19.79249606299213
 20
-2.229444881889764
 10
-19.78743700787401
 20
-2.225216535433071
 10
-19.78184645669291
 20
-2.222547244094488
 10
-19.77584251968504
 20
-2.221614173228347
  0
LWPOLYLINE
  5
64
330
1F
100
AcDbEntity
  8
Layer 1
 62
     7
370
    18
100
AcDbPolyline
 90
       17
 70
     0
 43
0.0
 10
-21.0252125984252
 20
-1.567874015748032
 10
-21.02366929133858
 20
-1.573291338582677
 10
-21.0160905511811
 20
-1.58803937007874
 10
-20.99807086614173
 20
-1.609842519685039
 10
-20.96518897637795
 20
-1.636433070866142
 10
-20.91303543307087
 20
-1.665543307086614
 10
-20.8371968503937
 20
-1.694909448818898
 10
-20.73325984251969
 20
-1.722259842519685
 10
-20.59680708661417
 20
-1.745322834645669
 10
-20.3970905511811
 20
-1.782307086614173
 10
-20.12635826771654
 20
-1.846362204724409
 10
-19.81470866141732
 20
-1.92761811023622
 10
-19.49224015748031
 20
-2.016216535433071
 10
-19.18903937007874
 20
-2.102295275590551
 10
-18.93520866141732
 20
-2.175992125984252
 10
-18.76084251968504
 20
-2.22744094488189
 10
-18.69603149606299
 20
-2.246783464566929
  0
LWPOLYLINE
  5
65
330
1F
100
AcDbEntity
  8
Layer 1
 62
     7
370
    18
100
AcDbPolyline
 90
       17
 70
     0
 43
0.0
 10
-20.6152874015748
 20
-1.820342519685039
 10
-20.60720472440945
 20
-1.819232283464567
 10
-20.5833031496063
 20
-1.817114173228346
 10
-20.54412204724409
 20
-1.815803149606299
 10
-20.49018503937008
 20
-1.817114173228346
 10
-20.42202362204725
 20
-1.822862204724409
 10
-20.34016535433071
 20
-1.834870078740158
 10
-20.24514566929134
 20
-1.854944881889764
 10
-20.13749212598425
 20
-1.884909448818898
 10
-20.02279133858268
 20
-1.919708661417323
 10
-19.90918897637795
 20
-1.952527559055118
 10
-19.80105905511811
 20
-1.982555118110236
 10
-19.70278346456693
 20
-2.008964566929134
 10
-19.61873228346457
 20
-2.030933070866142
 10
-19.55327952755906
 20
-2.047641732283465
 10
-19.51079921259842
 20
-2.058271653543307
 10
-19.49566535433071
 20
-2.061996062992126
  0
LWPOLYLINE
  5
66
330
1F
100
AcDbEntity
  8
Layer 1
 62
     7
370
    18
100
AcDbPolyline
 90
       11
 70
     0
 43
0.0
 10
-18.12800393700788
 20
-4.039814960629921
 10
-17.78861023622047
 20
-4.108511811023622
 10
-17.77777952755905
 20
-4.103850393700787
 10
-17.74899606299213
 20
-4.089956692913386
 10
-17.70782677165354
 20
-4.066952755905512
 10
-17.65984251968504
 20
-4.034976377952756
 10
-17.61061023622047
 20
-3.994153543307087
 10
-17.56570078740157
 20
-3.94461811023622
 10
-17.53067322834646
 20
-3.886492125984252
 10
-17.51110236220472
 20
-3.819913385826772
 10
-20.3335
 20
-2.925448818897638
  0
LWPOLYLINE
  5
67
330
1F
100
AcDbEntity
  8
Layer 1
 62
     7
370
    18
100
AcDbPolyline
 90
        9
 70
     0
 43
0.0
 10
-16.87605118110236
 20
-3.588346456692913
 10
-16.88812598425197
 20
-3.596307086614173
 10
-16.92246456692913
 20
-3.6175
 10
-16.97622047244095
 20
-3.647881889763779
 10
-17.04656692913386
 20
-3.683409448818898
 10
-17.13066141732283
 20
-3.720051181102362
 10
-17.22566929133858
 20
-3.753763779527559
 10
-17.32875196850394
 20
-3.780503937007874
 10
-17.43707480314961
 20
-3.796236220472441
  0
LWPOLYLINE
  5
68
330
1F
100
AcDbEntity
  8
Layer 1
 62
     7
370
    18
100
AcDbPolyline
 90
        9
 70
     0
 43
0.0
 10
-21.01791732283464
 20
-2.724708661417323
 10
-21.00680708661417
 20
-2.736964566929134
 10
-20.97042519685039
 20
-2.767732283464567
 10
-20.90420078740157
 20
-2.808015748031496
 10
-20.80355905511811
 20
-2.848811023622047
 10
-20.66393700787401
 20
-2.881122047244094
 10
-20.48075196850394
 20
-2.895948818897638
 10
-20.24944094488189
 20
-2.884287401574803
 10
-19.96542519685039
 20
-2.837145669291338
  0
LWPOLYLINE
  5
69
330
1F
100
AcDbEntity
  8
Layer 1
 62
     7
370
    18
100
AcDbPolyline
 90
        9
 70
     0
 43
0.0
 10
-20.87227165354331
 20
-2.582295275590551
 10
-20.85496456692913
 20
-2.595248031496063
 10
-20.80287795275591
 20
-2.62734251968504
 10
-20.71576377952756
 20
-2.66842125984252
 10
-20.59337401574803
 20
-2.708334645669291
 10
-20.43545669291339
 20
-2.736933070866142
 10
-20.24176771653543
 20
-2.744062992125984
 10
-20.01205511811024
 20
-2.719570866141732
 10
-19.74607086614173
 20
-2.653307086614173
  0
LWPOLYLINE
  5
6A
330
1F
100
AcDbEntity
  8
Layer 1
 62
     7
370
    18
100
AcDbPolyline
 90
        9
 70
     0
 43
0.0
 10
-17.32998818897638
 20
-4.088188976377952
 10
-17.34193307086614
 20
-4.090633858267717
 10
-17.3751968503937
 20
-4.096716535433071
 10
-17.42591338582677
 20
-4.104570866141732
 10
-17.49021653543307
 20
-4.112326771653543
 10
-17.56424409448819
 20
-4.118114173228347
 10
-17.64412598425197
 20
-4.120066929133858
 10
-17.72600393700787
 20
-4.116311023622047
 10
-17.80601181102362
 20
-4.10498031496063
  0
LWPOLYLINE
  5
6B
330
1F
100
AcDbEntity
  8
Layer 1
 62
     7
370
    18
100
AcDbPolyline
 90
        9
 70
     0
 43
0.0
 10
-19.60179921259843
 20
-5.716307086614173
 10
-19.63581102362205
 20
-5.733031496062992
 10
-19.73194488188976
 20
-5.77340157480315
 10
-19.88133070866142
 20
-5.822692913385827
 10
-20.0751062992126
 20
-5.866192913385826
 10
-20.30441338582677
 20
-5.889185039370079
 10
-20.56038188976378
 20
-5.876952755905512
 10
-20.83414960629921
 20
-5.814779527559055
 10
-21.11685826771653
 20
-5.687948818897638
  0
LWPOLYLINE
  5
6C
330
1F
100
AcDbEntity
  8
Layer 1
 62
     7
370
    18
100
AcDbPolyline
 90
        2
 70
     0
 43
0.0
 10
-21.53603543307086
 20
-1.302362204724409
 10
-21.53603543307086
 20
-6.163354330708661
  0
LWPOLYLINE
  5
6D
330
1F
100
AcDbEntity
  8
Layer 1
 62
     7
370
    18
100
AcDbPolyline
 90
        2
 70
     0
 43
0.0
 10
-19.53421653543307
 20
-6.340350393700787
 10
-21.26775984251968
 20
-6.340350393700787
  0
LWPOLYLINE
  5
6E
330
1F
100
AcDbEntity
  8
Layer 1
 62
     7
370
    18
100
AcDbPolyline
 90
        2
 70
     0
 43
0.0
 10
-21.26776377952756
 20
-6.411606299212599
 10
-21.26776377952756
 20
-6.269078740157481
  0
LWPOLYLINE
  5
6F
330
1F
100
AcDbEntity
  8
Layer 1
 62
     7
370
    18
100
AcDbPolyline
 90
        2
 70
     0
 43
0.0
 10
-19.5342125984252
 20
-6.411606299212599
 10
-19.5342125984252
 20
-6.269078740157481
  0
LWPOLYLINE
  5
70
330
1F
100
AcDbEntity
  8
Layer 1
 62
     7
370
    18
100
AcDbPolyline
 90
        2
 70
     0
 43
0.0
 10
-21.53603937007874
 20
-6.163350393700787
 10
-21.39351181102362
 20
-6.163350393700787
  0
LWPOLYLINE
  5
71
330
1F
100
AcDbEntity
  8
Layer 1
 62
     7
370
    18
100
AcDbPolyline
 90
        2
 70
     0
 43
0.0
 10
-21.60730708661417
 20
-1.302358267716536
 10
-21.46477952755906
 20
-1.302358267716536
  0
LWPOLYLINE
  5
72
330
1F
100
AcDbEntity
  8
Layer 1
 62
     7
370
     9
100
AcDbPolyline
 90
        7
 70
     1
 43
0.0
 10
-21.64490551181103
 20
-4.056724409448819
 10
-21.64490551181103
 20
-4.030814960629921
 10
-21.89961417322835
 20
-4.030814960629921
 10
-21.89295275590551
 20
-4.093007874015748
 10
-21.87036220472441
 20
-4.093007874015748
 10
-21.87036220472441
 20
-4.056724409448819
 10
-21.64490551181103
 20
-4.056724409448819
  0
LWPOLYLINE
  5
73
330
1F
100
AcDbEntity
  8
Layer 1
 62
     7
370
     9
100
AcDbPolyline
 90
        4
 70
     1
 43
0.0
 10
-21.86851181102362
 20
-3.85753937007874
 10
-21.72301968503937
 20
-3.85753937007874
 10
-21.72301968503937
 20
-3.953799212598425
 10
-21.86851181102362
 20
-3.85753937007874
  0
LWPOLYLINE
  5
74
330
1F
100
AcDbEntity
  8
Layer 1
 62
     7
370
     9
100
AcDbPolyline
 90
       11
 70
     1
 43
0.0
 10
-21.69636614173228
 20
-3.830515748031496
 10
-21.69636614173228
 20
-3.798681102362205
 10
-21.72301968503937
 20
-3.798681102362205
 10
-21.72301968503937
 20
-3.830515748031496
 10
-21.89664960629921
 20
-3.830885826771654
 10
-21.89664960629921
 20
-3.867169291338583
 10
-21.69636614173228
 20
-3.999712598425197
 10
-21.69636614173228
 20
-3.85753937007874
 10
-21.64490551181103
 20
-3.85753937007874
 10
-21.64490551181103
 20
-3.830515748031496
 10
-21.69636614173228
 20
-3.830515748031496
  0
LWPOLYLINE
  5
75
330
1F
100
AcDbEntity
  8
Layer 1
 62
     7
370
     9
100
AcDbPolyline
 90
       72
 70
     1
 43
0.0
 10
-21.86739763779527
 20
-3.657452755905512
 10
-21.86449606299212
 20
-3.653173228346457
 10
-21.86120078740158
 20
-3.649188976377953
 10
-21.85750787401575
 20
-3.645488188976378
 10
-21.85342913385827
 20
-3.642082677165354
 10
-21.84895275590551
 20
-3.638964566929134
 10
-21.84408267716535
 20
-3.636133858267717
 10
-21.8388188976378
 20
-3.633594488188976
 10
-21.83316141732283
 20
-3.631346456692913
 10
-21.82565354330709
 20
-3.628830708661417
 10
-21.81803543307086
 20
-3.626649606299213
 10
-21.81031102362205
 20
-3.624803149606299
 10
-21.80247244094488
 20
-3.623295275590551
 10
-21.79452755905512
 20
-3.622125984251968
 10
-21.78647244094488
 20
-3.621287401574803
 10
-21.77830708661417
 20
-3.620783464566929
 10
-21.77003543307087
 20
-3.62061811023622
 10
-21.75170866141732
 20
-3.621720472440945
 10
-21.74175590551181
 20
-3.623003937007874
 10
-21.73235433070866
 20
-3.624681102362205
 10
-21.7235
 20
-3.626751968503937
 10
-21.7151968503937
 20
-3.629216535433071
 10
-21.70744488188976
 20
-3.632074803149606
 10
-21.70024015748032
 20
-3.635326771653543
 10
-21.69358661417323
 20
-3.638968503937008
 10
-21.6874842519685
 20
-3.643007874015748
 10
-21.68288188976378
 20
-3.646692913385827
 10
-21.67889763779528
 20
-3.650574803149606
 10
-21.67552362204724
 20
-3.654653543307087
 10
-21.67276377952756
 20
-3.658929133858268
 10
-21.67061811023622
 20
-3.663401574803149
 10
-21.66908661417323
 20
-3.668070866141732
 10
-21.66816929133858
 20
-3.672933070866142
 10
-21.66786220472441
 20
-3.677996062992126
 10
-21.66816535433071
 20
-3.683645669291339
 10
-21.66907480314961
 20
-3.689023622047244
 10
-21.67059448818897
 20
-3.694125984251968
 10
-21.67272047244094
 20
-3.69896062992126
 10
-21.67544881889764
 20
-3.703523622047244
 10
-21.67879133858268
 20
-3.707814960629921
 10
-21.68273622047244
 20
-3.711830708661418
 10
-21.6872874015748
 20
-3.71557874015748
 10
-21.69178346456693
 20
-3.718677165354331
 10
-21.69655118110236
 20
-3.7215
 10
-21.70159448818898
 20
-3.724043307086614
 10
-21.70691338582677
 20
-3.726307086614173
 10
-21.7293188976378
 20
-3.732787401574803
 10
-21.75152755905512
 20
-3.735937007874016
 10
-21.77626771653543
 20
-3.736854330708661
 10
-21.78367322834645
 20
-3.736602362204724
 10
-21.79191732283465
 20
-3.735838582677165
 10
-21.80101181102362
 20
-3.734570866141732
 10
-21.81095275590551
 20
-3.732787401574803
 10
-21.83334251968504
 20
-3.726492125984252
 10
-21.83875196850394
 20
-3.724303149606299
 10
-21.84388976377953
 20
-3.721818897637795
 10
-21.84874803149606
 20
-3.719031496062992
 10
-21.85333464566929
 20
-3.715944881889764
 10
-21.85755905511811
 20
-3.712543307086614
 10
-21.86134645669291
 20
-3.708814960629921
 10
-21.86468897637795
 20
-3.704759842519685
 10
-21.86759448818898
 20
-3.700385826771654
 10
-21.86993700787401
 20
-3.695649606299213
 10
-21.87161417322835
 20
-3.690492125984252
 10
-21.87262204724409
 20
-3.684917322834646
 10
-21.87296062992126
 20
-3.678925196850394
 10
-21.87261417322835
 20
-3.672929133858268
 10
-21.87157086614173
 20
-3.667354330708661
 10
-21.8707874015748
 20
-3.664720472440945
 10
-21.86983464566929
 20
-3.662196850393701
 10
-21.86870078740158
 20
-3.659771653543307
 10
-21.86739763779527
 20
-3.657452755905512
  0
LWPOLYLINE
  5
76
330
1F
100
AcDbEntity
  8
Layer 1
 62
     7
370
     9
100
AcDbPolyline
 90
       65
 70
     1
 43
0.0
 10
-21.64157086614173
 20
-3.677625984251968
 10
-21.64225590551181
 20
-3.666818897637795
 10
-21.64431496062992
 20
-3.656696850393701
 10
-21.64774015748031
 20
-3.647267716535433
 10
-21.65253937007874
 20
-3.638523622047244
 10
-21.65870866141732
 20
-3.630468503937008
 10
-21.66624803149606
 20
-3.623102362204724
 10
-21.67515748031496
 20
-3.616425196850394
 10
-21.68543700787401
 20
-3.610437007874016
 10
-21.69441338582677
 20
-3.606228346456693
 10
-21.70388188976378
 20
-3.60257874015748
 10
-21.71385039370079
 20
-3.599492125984252
 10
-21.72431496062992
 20
-3.596968503937008
 10
-21.73527559055118
 20
-3.595003937007874
 10
-21.74673622047244
 20
-3.593602362204725
 10
-21.75869291338583
 20
-3.592759842519685
 10
-21.77114960629921
 20
-3.59248031496063
 10
-21.78360236220473
 20
-3.592759842519685
 10
-21.79555905511811
 20
-3.593602362204725
 10
-21.80701968503937
 20
-3.595003937007874
 10
-21.81798031496063
 20
-3.596968503937008
 10
-21.82844488188976
 20
-3.599492125984252
 10
-21.83841338582677
 20
-3.60257874015748
 10
-21.84788188976378
 20
-3.606228346456693
 10
-21.85685039370079
 20
-3.610437007874016
 10
-21.86713385826772
 20
-3.616425196850394
 10
-21.87604330708661
 20
-3.623102362204724
 10
-21.88358661417323
 20
-3.630468503937008
 10
-21.88975196850394
 20
-3.638523622047244
 10
-21.89455118110236
 20
-3.647267716535433
 10
-21.89797637795276
 20
-3.656696850393701
 10
-21.90003149606299
 20
-3.666818897637795
 10
-21.90071653543307
 20
-3.677625984251968
 10
-21.90003149606299
 20
-3.688433070866142
 10
-21.89797637795276
 20
-3.698555118110236
 10
-21.89455118110236
 20
-3.707984251968504
 10
-21.88975196850394
 20
-3.716728346456693
 10
-21.88358661417323
 20
-3.724783464566929
 10
-21.87604330708661
 20
-3.732149606299213
 10
-21.86713385826772
 20
-3.738826771653543
 10
-21.85685039370079
 20
-3.744818897637795
 10
-21.84788188976378
 20
-3.749027559055118
 10
-21.83841338582677
 20
-3.75267716535433
 10
-21.82844488188976
 20
-3.755763779527559
 10
-21.81798031496063
 20
-3.758287401574803
 10
-21.80701968503937
 20
-3.760251968503937
 10
-21.79555905511811
 20
-3.761653543307087
 10
-21.78360236220473
 20
-3.762496062992126
 10
-21.77114960629921
 20
-3.762775590551181
 10
-21.75869291338583
 20
-3.762496062992126
 10
-21.74673622047244
 20
-3.761653543307087
 10
-21.73527559055118
 20
-3.760251968503937
 10
-21.72431496062992
 20
-3.758287401574803
 10
-21.71385039370079
 20
-3.755763779527559
 10
-21.70388188976378
 20
-3.75267716535433
 10
-21.69441338582677
 20
-3.749027559055118
 10
-21.68543700787401
 20
-3.744818897637795
 10
-21.67515748031496
 20
-3.738826771653543
 10
-21.66624803149606
 20
-3.732149606299213
 10
-21.65870866141732
 20
-3.724783464566929
 10
-21.65253937007874
 20
-3.716728346456693
 10
-21.64774015748031
 20
-3.707984251968504
 10
-21.64431496062992
 20
-3.698555118110236
 10
-21.64225590551181
 20
-3.688433070866142
 10
-21.64157086614173
 20
-3.677625984251968
  0
LWPOLYLINE
  5
77
330
1F
100
AcDbEntity
  8
Layer 1
 62
     7
370
     9
100
AcDbPolyline
 90
        4
 70
     1
 43
0.0
 10
-20.40312992125984
 20
-6.590535433070866
 10
-20.40312992125984
 20
-6.736027559055118
 10
-20.49938976377953
 20
-6.736027559055118
 10
-20.40312992125984
 20
-6.590535433070866
  0
LWPOLYLINE
  5
78
330
1F
100
AcDbEntity
  8
Layer 1
 62
     7
370
     9
100
AcDbPolyline
 90
       11
 70
     1
 43
0.0
 10
-20.37611023622047
 20
-6.762681102362205
 10
-20.34427165354331
 20
-6.762681102362205
 10
-20.34427165354331
 20
-6.736027559055118
 10
-20.37611023622047
 20
-6.736027559055118
 10
-20.37647637795276
 20
-6.562397637795276
 10
-20.41275984251968
 20
-6.562397637795276
 10
-20.5453031496063
 20
-6.762681102362205
 10
-20.40312992125984
 20
-6.762681102362205
 10
-20.40312992125984
 20
-6.814145669291339
 10
-20.37611023622047
 20
-6.814145669291339
 10
-20.37611023622047
 20
-6.762681102362205
  0
LWPOLYLINE
  5
79
330
1F
100
AcDbEntity
  8
Layer 1
 62
     7
370
     9
100
AcDbPolyline
 90
       87
 70
     1
 43
0.0
 10
-20.30355118110236
 20
-6.814145669291339
 10
-20.12622440944882
 20
-6.814145669291339
 10
-20.12622440944882
 20
-6.788224409448819
 10
-20.24098031496063
 20
-6.788224409448819
 10
-20.15324803149606
 20
-6.701224409448819
 10
-20.14751968503937
 20
-6.694964566929134
 10
-20.14255511811024
 20
-6.688389763779528
 10
-20.13835433070866
 20
-6.6815
 10
-20.13491732283465
 20
-6.674299212598426
 10
-20.13224409448819
 20
-6.666783464566929
 10
-20.13033464566929
 20
-6.658956692913386
 10
-20.12918897637795
 20
-6.650818897637795
 10
-20.12880708661417
 20
-6.642366141732284
 10
-20.1291968503937
 20
-6.633724409448819
 10
-20.13037007874016
 20
-6.625429133858268
 10
-20.13232283464567
 20
-6.61748031496063
 10
-20.13505511811024
 20
-6.609877952755905
 10
-20.13857086614173
 20
-6.602625984251969
 10
-20.14286614173228
 20
-6.595716535433071
 10
-20.14794094488189
 20
-6.58915748031496
 10
-20.15379921259843
 20
-6.58294094488189
 10
-20.16030708661417
 20
-6.577173228346457
 10
-20.1671062992126
 20
-6.572173228346457
 10
-20.17419291338583
 20
-6.567944881889764
 10
-20.18156692913386
 20
-6.564484251968504
 10
-20.18922834645669
 20
-6.561791338582677
 10
-20.1971811023622
 20
-6.559870078740158
 10
-20.20542519685039
 20
-6.558716535433071
 10
-20.21395669291338
 20
-6.558330708661417
 10
-20.22281889763779
 20
-6.558736220472441
 10
-20.23135039370079
 20
-6.559948818897638
 10
-20.23954724409449
 20
-6.561972440944882
 10
-20.24741732283465
 20
-6.564807086614174
 10
-20.25495669291339
 20
-6.568448818897638
 10
-20.26216929133858
 20
-6.572905511811023
 10
-20.26904724409449
 20
-6.578165354330709
 10
-20.27559842519685
 20
-6.584240157480315
 10
-20.28143307086614
 20
-6.590775590551181
 10
-20.28644094488189
 20
-6.597649606299212
 10
-20.2906220472441
 20
-6.604870078740158
 10
-20.29397244094488
 20
-6.612425196850394
 10
-20.2965
 20
-6.62032283464567
 10
-20.2981968503937
 20
-6.628562992125985
 10
-20.29906692913386
 20
-6.637141732283465
 10
-20.2991062992126
 20
-6.646062992125985
 10
-20.27283070866142
 20
-6.646062992125985
 10
-20.27305118110236
 20
-6.640275590551181
 10
-20.27264566929134
 20
-6.634622047244094
 10
-20.27161417322835
 20
-6.62909842519685
 10
-20.26995669291339
 20
-6.623712598425197
 10
-20.26767716535433
 20
-6.618456692913385
 10
-20.26477165354331
 20
-6.613338582677166
 10
-20.26124409448819
 20
-6.608350393700787
 10
-20.2570905511811
 20
-6.603496062992126
 10
-20.25264960629921
 20
-6.59915748031496
 10
-20.24797637795276
 20
-6.595397637795275
 10
-20.24307086614173
 20
-6.592216535433071
 10
-20.23793700787402
 20
-6.589614173228346
 10
-20.23256692913386
 20
-6.587590551181102
 10
-20.22696456692913
 20
-6.586145669291339
 10
-20.22113385826772
 20
-6.585275590551182
 10
-20.21507086614173
 20
-6.584988188976378
 10
-20.20912204724409
 20
-6.585248031496063
 10
-20.20340157480315
 20
-6.586027559055118
 10
-20.19790157480315
 20
-6.587330708661417
 10
-20.19262992125984
 20
-6.589149606299213
 10
-20.18758267716536
 20
-6.591492125984252
 10
-20.18275984251969
 20
-6.594354330708661
 10
-20.17816141732283
 20
-6.597740157480315
 10
-20.17379133858268
 20
-6.601645669291338
 10
-20.16975590551181
 20
-6.60596062992126
 10
-20.16625984251969
 20
-6.610484251968504
 10
-20.16329921259842
 20
-6.615212598425197
 10
-20.16088188976378
 20
-6.620153543307087
 10
-20.15899606299213
 20
-6.6253031496063
 10
-20.15765354330709
 20
-6.63065748031496
 10
-20.15684645669291
 20
-6.636224409448819
 10
-20.15657874015748
 20
-6.641996062992126
 10
-20.15683858267716
 20
-6.647897637795276
 10
-20.15761811023622
 20
-6.653566929133858
 10
-20.15892125984252
 20
-6.659003937007874
 10
-20.16074409448819
 20
-6.664212598425197
 10
-20.16308661417323
 20
-6.669185039370078
 10
-20.16594881889764
 20
-6.673929133858268
 10
-20.16933464566929
 20
-6.678437007874016
 10
-20.17324015748031
 20
-6.68271653543307
 10
-20.30355118110236
 20
-6.814145669291339
  0
LWPOLYLINE
  5
7A
330
1F
100
AcDbEntity
  8
Layer 1
 62
     7
100
AcDbPolyline
 90
      147
 70
     1
 43
0.0
 10
-21.10052755905512
 20
-0.3775354330708661
 10
-21.14938188976378
 20
-0.3775354330708661
 10
-21.15521653543307
 20
-0.387748031496063
 10
-21.16161811023622
 20
-0.3974409448818897
 10
-21.16858267716535
 20
-0.4066220472440945
 10
-21.17611417322835
 20
-0.4152874015748031
 10
-21.18420866141732
 20
-0.4234370078740157
 10
-21.19286614173229
 20
-0.4310708661417323
 10
-21.2020905511811
 20
-0.4381889763779527
 10
-21.21188188976378
 20
-0.4447913385826772
 10
-21.22207874015748
 20
-0.450740157480315
 10
-21.23252362204724
 20
-0.4558976377952756
 10
-21.24321653543307
 20
-0.460259842519685
 10
-21.25415748031496
 20
-0.4638267716535433
 10
-21.26534645669291
 20
-0.4666023622047244
 10
-21.27677952755905
 20
-0.4685866141732283
 10
-21.28846456692913
 20
-0.4697755905511811
 10
-21.30039763779527
 20
-0.4701732283464567
 10
-21.31780708661417
 20
-0.4693503937007874
 10
-21.33457874015748
 20
-0.4668818897637795
 10
-21.35072047244094
 20
-0.4627677165354331
 10
-21.36622440944882
 20
-0.4570078740157481
 10
-21.38109842519685
 20
-0.4496023622047244
 10
-21.39533464566929
 20
-0.4405472440944882
 10
-21.40893700787402
 20
-0.4298503937007874
 10
-21.42190551181102
 20
-0.417507874015748
 10
-21.43342913385827
 20
-0.4043779527559055
 10
-21.44342125984252
 20
-0.3906023622047244
 10
-21.45187007874016
 20
-0.3761811023622047
 10
-21.4587874015748
 20
-0.3611181102362205
 10
-21.46416535433071
 20
-0.3454094488188976
 10
-21.46800393700788
 20
-0.3290551181102362
 10
-21.47031102362205
 20
-0.3120590551181102
 10
-21.47107874015748
 20
-0.2944173228346457
 10
-21.47031102362205
 20
-0.2766259842519685
 10
-21.46800393700788
 20
-0.2595
 10
-21.46416535433071
 20
-0.2430354330708661
 10
-21.4587874015748
 20
-0.2272362204724409
 10
-21.45187007874016
 20
-0.2121023622047244
 10
-21.44342125984252
 20
-0.1976338582677165
 10
-21.43342913385827
 20
-0.1838267716535433
 10
-21.42190551181102
 20
-0.1706850393700787
 10
-21.41599212598425
 20
-0.1648110236220472
 10
-21.40983070866142
 20
-0.159244094488189
 10
-21.40342125984252
 20
-0.1539842519685039
 10
-21.39676377952756
 20
-0.1490314960629921
 10
-21.38985826771654
 20
-0.1443858267716535
 10
-21.38270472440945
 20
-0.1400511811023622
 10
-21.3753031496063
 20
-0.1360196850393701
 10
-21.36765354330709
 20
-0.1322952755905512
 10
-21.35990157480315
 20
-0.1289488188976378
 10
-21.35218897637795
 20
-0.1260511811023622
 10
-21.3445157480315
 20
-0.1235984251968504
 10
-21.33688188976378
 20
-0.1215905511811024
 10
-21.3292874015748
 20
-0.1200275590551181
 10
-21.32173622047244
 20
-0.1189133858267716
 10
-21.31422047244094
 20
-0.118244094488189
 10
-21.30674409448819
 20
-0.1180196850393701
 10
-21.29940157480315
 20
-0.1181220472440945
 10
-21.2922874015748
 20
-0.1184370078740157
 10
-21.28540157480315
 20
-0.1189566929133858
 10
-21.27874409448819
 20
-0.1196850393700787
 10
-21.27231496062992
 20
-0.1206220472440945
 10
-21.26611417322835
 20
-0.1217677165354331
 10
-21.26014173228346
 20
-0.1231220472440945
 10
-21.2543937007874
 20
-0.1246850393700787
 10
-21.23760236220473
 20
-0.1304842519685039
 10
-21.22187795275591
 20
-0.1376496062992126
 10
-21.20722440944882
 20
-0.1461850393700787
 10
-21.19364173228346
 20
-0.1560905511811023
 10
-21.18112992125984
 20
-0.1673622047244094
 10
-21.16968897637795
 20
-0.180003937007874
 10
-21.1593188976378
 20
-0.1940157480314961
 10
-21.15001968503937
 20
-0.2093937007874016
 10
-21.10116141732284
 20
-0.2093937007874016
 10
-21.10773622047244
 20
-0.1943779527559055
 10
-21.11524015748032
 20
-0.1801062992125984
 10
-21.12367716535433
 20
-0.1665748031496063
 10
-21.13304724409449
 20
-0.1537913385826772
 10
-21.14335039370079
 20
-0.141748031496063
 10
-21.15458267716535
 20
-0.1304527559055118
 10
-21.16674803149606
 20
-0.1198976377952756
 10
-21.17984251968504
 20
-0.1100866141732283
 10
-21.19359448818897
 20
-0.1012362204724409
 10
-21.20772047244094
 20
-0.0935708661417323
 10
-21.22222440944882
 20
-0.0870826771653543
 10
-21.2371062992126
 20
-0.0817716535433071
 10
-21.25236220472441
 20
-0.0776417322834646
 10
-21.26799606299213
 20
-0.0746929133858268
 10
-21.28400787401575
 20
-0.0729251968503937
 10
-21.30039763779527
 20
-0.0723346456692913
 10
-21.3223937007874
 20
-0.0733661417322835
 10
-21.34356299212599
 20
-0.0764606299212598
 10
-21.36391338582677
 20
-0.0816141732283465
 10
-21.38344094488189
 20
-0.0888346456692913
 10
-21.40214173228346
 20
-0.0981141732283465
 10
-21.42002362204724
 20
-0.1094527559055118
 10
-21.43707874015748
 20
-0.1228582677165354
 10
-21.45331496062992
 20
-0.1383228346456693
 10
-21.46041338582677
 20
-0.1460905511811024
 10
-21.46711417322835
 20
-0.1541653543307087
 10
-21.47342125984252
 20
-0.1625472440944882
 10
-21.47933070866142
 20
-0.171240157480315
 10
-21.48484251968504
 20
-0.180236220472441
 10
-21.48995669291338
 20
-0.1895393700787402
 10
-21.49467716535433
 20
-0.1991535433070866
 10
-21.499
 20
-0.2090708661417323
 10
-21.50286614173228
 20
-0.2192204724409449
 10
-21.50621653543307
 20
-0.2295157480314961
 10
-21.50905118110236
 20
-0.2399606299212599
 10
-21.51137007874016
 20
-0.2505551181102362
 10
-21.51317716535433
 20
-0.2612952755905512
 10
-21.51446456692914
 20
-0.2721889763779528
 10
-21.51524015748031
 20
-0.2832283464566929
 10
-21.51549606299213
 20
-0.2944173228346457
 10
-21.51452362204724
 20
-0.3166574803149606
 10
-21.51161023622047
 20
-0.3380944881889764
 10
-21.50675196850394
 20
-0.3587322834645669
 10
-21.49995275590551
 20
-0.3785629921259843
 10
-21.49120866141732
 20
-0.3975944881889764
 10
-21.48051968503937
 20
-0.4158228346456693
 10
-21.46788976377953
 20
-0.433244094488189
 10
-21.45331496062992
 20
-0.4498661417322835
 10
-21.43707874015748
 20
-0.4653346456692913
 10
-21.42002362204724
 20
-0.478736220472441
 10
-21.40214173228346
 20
-0.4900787401574803
 10
-21.38344094488189
 20
-0.4993582677165354
 10
-21.36391338582677
 20
-0.5065748031496063
 10
-21.34356299212599
 20
-0.5117322834645669
 10
-21.3223937007874
 20
-0.5148228346456692
 10
-21.30039763779527
 20
-0.5158543307086614
 10
-21.28407086614173
 20
-0.515255905511811
 10
-21.26807874015748
 20
-0.5134566929133858
 10
-21.25242125984252
 20
-0.5104566929133858
 10
-21.2371062992126
 20
-0.506259842519685
 10
-21.22212598425197
 20
-0.5008622047244095
 10
-21.20748425196851
 20
-0.4942637795275591
 10
-21.19317716535433
 20
-0.4864645669291339
 10
-21.17920866141732
 20
-0.4774685039370078
 10
-21.16600787401575
 20
-0.4675787401574803
 10
-21.15376771653543
 20
-0.4569448818897638
 10
-21.14249212598425
 20
-0.4455669291338583
 10
-21.13217322834646
 20
-0.4334488188976378
 10
-21.1228188976378
 20
-0.4205866141732283
 10
-21.11442913385827
 20
-0.4069803149606299
 10
-21.10699606299213
 20
-0.3926299212598425
 10
-21.10052755905512
 20
-0.3775354330708661
  0
LWPOLYLINE
  5
7B
330
1F
100
AcDbEntity
  8
Layer 1
 62
     7
100
AcDbPolyline
 90
       68
 70
     1
 43
0.0
 10
-20.69888976377953
 20
-0.2937795275590551
 10
-20.69916141732283
 20
-0.2821535433070866
 10
-20.69998031496063
 20
-0.270759842519685
 10
-20.70134251968504
 20
-0.2595905511811024
 10
-20.70324803149606
 20
-0.2486496062992126
 10
-20.70570078740158
 20
-0.2379370078740158
 10
-20.70870078740158
 20
-0.2274527559055118
 10
-20.71224409448819
 20
-0.2171968503937008
 10
-20.71633464566929
 20
-0.2071692913385827
 10
-20.72088976377953
 20
-0.1974291338582677
 10
-20.72583464566929
 20
-0.1880354330708661
 10
-20.73116141732283
 20
-0.1789881889763779
 10
-20.7368779527559
 20
-0.1702913385826772
 10
-20.74298031496063
 20
-0.1619370078740157
 10
-20.74946850393701
 20
-0.1539330708661417
 10
-20.75634251968504
 20
-0.1462716535433071
 10
-20.76360236220473
 20
-0.1389606299212598
 10
-20.77122834645669
 20
-0.1320157480314961
 10
-20.77918897637795
 20
-0.1254566929133858
 10
-20.78748818897638
 20
-0.1192834645669291
 10
-20.79612598425197
 20
-0.1135
 10
-20.80509842519685
 20
-0.1081023622047244
 10
-20.81440551181102
 20
-0.1030905511811024
 10
-20.82405118110236
 20
-0.0984645669291339
 10
-20.83403543307087
 20
-0.0942283464566929
 10
-20.84427559055118
 20
-0.0904370078740157
 10
-20.8546968503937
 20
-0.0871496062992126
 10
-20.86529527559055
 20
-0.0843661417322835
 10
-20.87607086614173
 20
-0.0820944881889764
 10
-20.88702755905512
 20
-0.0803228346456693
 10
-20.89816141732284
 20
-0.0790590551181102
 10
-20.90947244094488
 20
-0.0782992125984252
 10
-20.92096456692913
 20
-0.0780472440944882
 10
-21.0339094488189
 20
-0.0780472440944882
 10
-21.0339094488189
 20
-0.5095118110236221
 10
-20.92096456692913
 20
-0.5095118110236221
 10
-20.90947244094488
 20
-0.509259842519685
 10
-20.89816141732284
 20
-0.5085
 10
-20.88702755905512
 20
-0.507236220472441
 10
-20.87607086614173
 20
-0.5054685039370079
 10
-20.86529527559055
 20
-0.5031929133858267
 10
-20.8546968503937
 20
-0.5004094488188976
 10
-20.84427559055118
 20
-0.4971220472440945
 10
-20.83403543307087
 20
-0.4933307086614173
 10
-20.82405118110236
 20
-0.4890905511811023
 10
-20.81440551181102
 20
-0.4844685039370079
 10
-20.80509842519685
 20
-0.4794566929133858
 10
-20.79612598425197
 20
-0.4740590551181103
 10
-20.78748818897638
 20
-0.4682716535433071
 10
-20.77918897637795
 20
-0.4621023622047244
 10
-20.77122834645669
 20
-0.4555433070866142
 10
-20.76360236220473
 20
-0.4485984251968504
 10
-20.75634251968504
 20
-0.4412874015748032
 10
-20.74946850393701
 20
-0.4336299212598425
 10
-20.74298031496063
 20
-0.4256220472440945
 10
-20.7368779527559
 20
-0.4172716535433071
 10
-20.73116141732283
 20
-0.4085708661417323
 10
-20.72583464566929
 20
-0.3995275590551181
 10
-20.72088976377953
 20
-0.3901338582677165
 10
-20.71633464566929
 20
-0.3803937007874016
 10
-20.71224409448819
 20
-0.3703622047244094
 10
-20.70870078740158
 20
-0.3601062992125984
 10
-20.70570078740158
 20
-0.3496220472440945
 10
-20.70324803149606
 20
-0.3389094488188976
 10
-20.70134251968504
 20
-0.3279685039370079
 10
-20.69998031496063
 20
-0.3167992125984252
 10
-20.69916141732283
 20
-0.3054055118110236
 10
-20.69888976377953
 20
-0.2937795275590551
  0
LWPOLYLINE
  5
7C
330
1F
100
AcDbEntity
  8
Layer 1
 62
     7
100
AcDbPolyline
 90
       36
 70
     1
 43
0.0
 10
-20.74203149606299
 20
-0.2937795275590551
 10
-20.74284251968504
 20
-0.3118385826771654
 10
-20.74528346456693
 20
-0.3291338582677165
 10
-20.74934645669291
 20
-0.3456653543307087
 10
-20.75503937007874
 20
-0.3614330708661417
 10
-20.76235433070866
 20
-0.3764370078740157
 10
-20.77129527559055
 20
-0.3906771653543307
 10
-20.78186614173228
 20
-0.4041574803149606
 10
-20.79405905511811
 20
-0.4168700787401575
 10
-20.80716141732283
 20
-0.4281732283464567
 10
-20.82100787401575
 20
-0.4379685039370079
 10
-20.83559842519685
 20
-0.446255905511811
 10
-20.85093307086614
 20
-0.4530393700787402
 10
-20.86700787401575
 20
-0.4583110236220472
 10
-20.88382677165354
 20
-0.4620787401574803
 10
-20.90138976377953
 20
-0.4643425196850394
 10
-20.9196968503937
 20
-0.4650944881889764
 10
-20.98949212598425
 20
-0.4650944881889764
 10
-20.98949212598425
 20
-0.1224645669291339
 10
-20.9196968503937
 20
-0.1224645669291339
 10
-20.90138976377953
 20
-0.1232165354330709
 10
-20.88382677165354
 20
-0.1254803149606299
 10
-20.86700787401575
 20
-0.129244094488189
 10
-20.85093307086614
 20
-0.1345196850393701
 10
-20.83559842519685
 20
-0.1413031496062992
 10
-20.82100787401575
 20
-0.1495905511811024
 10
-20.80716141732283
 20
-0.1593818897637795
 10
-20.79405905511811
 20
-0.1706850393700787
 10
-20.78186614173228
 20
-0.1834015748031496
 10
-20.77129527559055
 20
-0.1968779527559055
 10
-20.76235433070866
 20
-0.2111181102362205
 10
-20.75503937007874
 20
-0.2261259842519685
 10
-20.74934645669291
 20
-0.2418937007874016
 10
-20.74528346456693
 20
-0.2584251968503937
 10
-20.74284251968504
 20
-0.2757204724409449
 10
-20.74203149606299
 20
-0.2937795275590551
  0
LWPOLYLINE
  5
7D
330
1F
100
AcDbEntity
  8
Layer 1
 62
     7
100
AcDbPolyline
 90
       92
 70
     1
 43
0.0
 10
-20.4580905511811
 20
-0.1281732283464567
 10
-20.45076377952756
 20
-0.1331496062992126
 10
-20.44393307086614
 20
-0.1387992125984252
 10
-20.43759842519685
 20
-0.1451259842519685
 10
-20.43175984251969
 20
-0.1521259842519685
 10
-20.42641338582677
 20
-0.1597992125984252
 10
-20.42156692913386
 20
-0.1681456692913386
 10
-20.4172125984252
 20
-0.1771653543307087
 10
-20.41335433070866
 20
-0.1868622047244095
 10
-20.40904330708661
 20
-0.1997283464566929
 10
-20.4053031496063
 20
-0.2127795275590551
 10
-20.40214173228346
 20
-0.2260196850393701
 10
-20.39955511811024
 20
-0.2394488188976378
 10
-20.39754330708661
 20
-0.2530669291338583
 10
-20.3961062992126
 20
-0.2668740157480315
 10
-20.39524409448819
 20
-0.2808661417322835
 10
-20.39495669291339
 20
-0.2950472440944882
 10
-20.39685826771654
 20
-0.3264566929133858
 10
-20.39905905511811
 20
-0.343511811023622
 10
-20.40193700787401
 20
-0.3596299212598425
 10
-20.4054842519685
 20
-0.3748031496062992
 10
-20.40970866141732
 20
-0.3890354330708661
 10
-20.4146062992126
 20
-0.4023267716535433
 10
-20.42017716535433
 20
-0.4146732283464567
 10
-20.42642125984252
 20
-0.4260787401574803
 10
-20.43334251968504
 20
-0.4365433070866142
 10
-20.43965748031496
 20
-0.4444251968503937
 10
-20.44631102362205
 20
-0.4512559055118111
 10
-20.45329921259842
 20
-0.4570354330708661
 10
-20.46062598425197
 20
-0.461763779527559
 10
-20.4682874015748
 20
-0.4654448818897638
 10
-20.47629133858268
 20
-0.4680708661417323
 10
-20.48462992125984
 20
-0.4696496062992126
 10
-20.4933031496063
 20
-0.4701732283464567
 10
-20.5029842519685
 20
-0.4696535433070866
 10
-20.51220078740158
 20
-0.4680905511811024
 10
-20.52095275590551
 20
-0.4654881889763779
 10
-20.52923622047244
 20
-0.4618425196850394
 10
-20.53705118110236
 20
-0.4571574803149606
 10
-20.54440551181102
 20
-0.4514330708661417
 10
-20.55129133858268
 20
-0.4446653543307086
 10
-20.55770866141732
 20
-0.4368582677165354
 10
-20.56301968503937
 20
-0.4291653543307087
 10
-20.56785826771653
 20
-0.420996062992126
 10
-20.57222047244095
 20
-0.4123503937007874
 10
-20.5761062992126
 20
-0.4032322834645669
 10
-20.57953937007874
 20
-0.3938149606299213
 10
-20.58253149606299
 20
-0.3842755905511811
 10
-20.5850905511811
 20
-0.3746181102362205
 10
-20.5872125984252
 20
-0.3648425196850394
 10
-20.59260236220473
 20
-0.3267716535433071
 10
-20.59418897637795
 20
-0.2843700787401575
 10
-20.59407874015748
 20
-0.2782047244094488
 10
-20.59375196850394
 20
-0.2716771653543307
 10
-20.59320866141732
 20
-0.2647913385826772
 10
-20.59244488188977
 20
-0.2575472440944882
 10
-20.59146456692913
 20
-0.2499409448818898
 10
-20.59026771653543
 20
-0.2419685039370079
 10
-20.58885039370079
 20
-0.2336377952755906
 10
-20.5872125984252
 20
-0.2249370078740157
 10
-20.58511023622047
 20
-0.2152795275590551
 10
-20.58261023622047
 20
-0.2056614173228346
 10
-20.57971653543307
 20
-0.1960826771653543
 10
-20.57642125984252
 20
-0.1865472440944882
 10
-20.57267716535433
 20
-0.1772677165354331
 10
-20.56841338582677
 20
-0.1684645669291339
 10
-20.56363779527559
 20
-0.1601338582677165
 10
-20.55834251968504
 20
-0.1522834645669291
 10
-20.55549606299213
 20
-0.1485708661417323
 10
-20.55251181102362
 20
-0.1450472440944882
 10
-20.54938976377953
 20
-0.1417086614173228
 10
-20.54612598425197
 20
-0.1385629921259842
 10
-20.54272834645669
 20
-0.1356023622047244
 10
-20.53918897637795
 20
-0.1328307086614173
 10
-20.53550787401575
 20
-0.130248031496063
 10
-20.53168897637795
 20
-0.1278543307086614
 10
-20.5277125984252
 20
-0.1257007874015748
 10
-20.52355905511811
 20
-0.1238307086614173
 10
-20.51922834645669
 20
-0.122251968503937
 10
-20.51472047244095
 20
-0.1209566929133858
 10
-20.51002755905512
 20
-0.1199527559055118
 10
-20.50516141732284
 20
-0.1192322834645669
 10
-20.50011417322835
 20
-0.1188031496062992
 10
-20.49488976377953
 20
-0.1186574803149606
 10
-20.48966535433071
 20
-0.1188070866141732
 10
-20.48461811023622
 20
-0.119251968503937
 10
-20.47975196850394
 20
-0.119996062992126
 10
-20.47506299212598
 20
-0.1210354330708661
 10
-20.47055118110236
 20
-0.1223740157480315
 10
-20.46622047244094
 20
-0.124007874015748
 10
-20.46206692913386
 20
-0.1259409448818898
 10
-20.4580905511811
 20
-0.1281732283464567
  0
LWPOLYLINE
  5
7E
330
1F
100
AcDbEntity
  8
Layer 1
 62
     7
100
AcDbPolyline
 90
       65
 70
     1
 43
0.0
 10
-20.49266929133858
 20
-0.5152244094488189
 10
-20.47414566929134
 20
-0.5140511811023623
 10
-20.45679921259843
 20
-0.5105236220472441
 10
-20.44063385826772
 20
-0.5046496062992126
 10
-20.42564960629921
 20
-0.4964251968503937
 10
-20.41184251968504
 20
-0.4858543307086614
 10
-20.39921653543307
 20
-0.4729291338582677
 10
-20.38777165354331
 20
-0.4576535433070866
 10
-20.37750787401575
 20
-0.4400314960629921
 10
-20.37029527559055
 20
-0.4246535433070866
 10
-20.36404330708661
 20
-0.4084251968503937
 10
-20.35875590551181
 20
-0.3913464566929134
 10
-20.35442913385827
 20
-0.3734094488188976
 10
-20.35106299212599
 20
-0.3546220472440945
 10
-20.34865748031496
 20
-0.334984251968504
 10
-20.34721653543307
 20
-0.314492125984252
 10
-20.34673622047244
 20
-0.2931456692913386
 10
-20.34721653543307
 20
-0.2717992125984252
 10
-20.34865748031496
 20
-0.2513070866141732
 10
-20.35106299212599
 20
-0.2316653543307087
 10
-20.35442913385827
 20
-0.2128779527559055
 10
-20.35875590551181
 20
-0.1949448818897638
 10
-20.36404330708661
 20
-0.1778622047244094
 10
-20.37029527559055
 20
-0.1616338582677165
 10
-20.37750787401575
 20
-0.146255905511811
 10
-20.38777165354331
 20
-0.1286338582677165
 10
-20.39921653543307
 20
-0.1133582677165354
 10
-20.41184251968504
 20
-0.1004370078740157
 10
-20.42564960629921
 20
-0.0898622047244095
 10
-20.44063385826772
 20
-0.0816377952755905
 10
-20.45679921259843
 20
-0.0757637795275591
 10
-20.47414566929134
 20
-0.072240157480315
 10
-20.49266929133858
 20
-0.0710669291338583
 10
-20.51119291338583
 20
-0.072240157480315
 10
-20.52853937007874
 20
-0.0757637795275591
 10
-20.54470472440945
 20
-0.0816377952755905
 10
-20.55968897637795
 20
-0.0898622047244095
 10
-20.57349606299213
 20
-0.1004370078740157
 10
-20.5861220472441
 20
-0.1133582677165354
 10
-20.59756692913386
 20
-0.1286338582677165
 10
-20.60783464566929
 20
-0.146255905511811
 10
-20.61504724409449
 20
-0.1616338582677165
 10
-20.62129921259843
 20
-0.1778622047244094
 10
-20.62658661417323
 20
-0.1949448818897638
 10
-20.63091338582677
 20
-0.2128779527559055
 10
-20.63427952755906
 20
-0.2316653543307087
 10
-20.63668503937008
 20
-0.2513070866141732
 10
-20.63812598425197
 20
-0.2717992125984252
 10
-20.6386062992126
 20
-0.2931456692913386
 10
-20.63812598425197
 20
-0.314492125984252
 10
-20.63668503937008
 20
-0.334984251968504
 10
-20.63427952755906
 20
-0.3546220472440945
 10
-20.63091338582677
 20
-0.3734094488188976
 10
-20.62658661417323
 20
-0.3913464566929134
 10
-20.62129921259843
 20
-0.4084251968503937
 10
-20.61504724409449
 20
-0.4246535433070866
 10
-20.60783464566929
 20
-0.4400314960629921
 10
-20.59756692913386
 20
-0.4576535433070866
 10
-20.5861220472441
 20
-0.4729291338582677
 10
-20.57349606299213
 20
-0.4858543307086614
 10
-20.55968897637795
 20
-0.4964251968503937
 10
-20.54470472440945
 20
-0.5046496062992126
 10
-20.52853937007874
 20
-0.5105236220472441
 10
-20.51119291338583
 20
-0.5140511811023623
 10
-20.49266929133858
 20
-0.5152244094488189
  0
LWPOLYLINE
  5
7F
330
1F
100
AcDbEntity
  8
Layer 1
 62
     7
100
AcDbPolyline
 90
       92
 70
     1
 43
0.0
 10
-20.10276771653543
 20
-0.1281732283464567
 10
-20.09544094488189
 20
-0.1331496062992126
 10
-20.08861023622047
 20
-0.1387992125984252
 10
-20.08227559055118
 20
-0.1451259842519685
 10
-20.07643700787402
 20
-0.1521259842519685
 10
-20.0710905511811
 20
-0.1597992125984252
 10
-20.06624409448819
 20
-0.1681456692913386
 10
-20.06188976377953
 20
-0.1771653543307087
 10
-20.05803149606299
 20
-0.1868622047244095
 10
-20.05372047244094
 20
-0.1997283464566929
 10
-20.04998031496063
 20
-0.2127795275590551
 10
-20.0468188976378
 20
-0.2260196850393701
 10
-20.04423228346457
 20
-0.2394488188976378
 10
-20.04222047244095
 20
-0.2530669291338583
 10
-20.04078346456693
 20
-0.2668740157480315
 10
-20.03992125984252
 20
-0.2808661417322835
 10
-20.03963385826772
 20
-0.2950472440944882
 10
-20.04153543307087
 20
-0.3264566929133858
 10
-20.04373622047244
 20
-0.343511811023622
 10
-20.04661417322835
 20
-0.3596299212598425
 10
-20.05016141732283
 20
-0.3748031496062992
 10
-20.05438582677165
 20
-0.3890354330708661
 10
-20.05928346456693
 20
-0.4023267716535433
 10
-20.06485433070866
 20
-0.4146732283464567
 10
-20.07109842519685
 20
-0.4260787401574803
 10
-20.07801968503937
 20
-0.4365433070866142
 10
-20.08433464566929
 20
-0.4444251968503937
 10
-20.09098818897638
 20
-0.4512559055118111
 10
-20.09797637795275
 20
-0.4570354330708661
 10
-20.1053031496063
 20
-0.461763779527559
 10
-20.11296456692913
 20
-0.4654448818897638
 10
-20.12096850393701
 20
-0.4680708661417323
 10
-20.12930708661417
 20
-0.4696496062992126
 10
-20.13798031496063
 20
-0.4701732283464567
 10
-20.14766141732283
 20
-0.4696535433070866
 10
-20.15687795275591
 20
-0.4680905511811024
 10
-20.16562992125984
 20
-0.4654881889763779
 10
-20.17391338582677
 20
-0.4618425196850394
 10
-20.18172834645669
 20
-0.4571574803149606
 10
-20.18908267716536
 20
-0.4514330708661417
 10
-20.19596850393701
 20
-0.4446653543307086
 10
-20.20238582677165
 20
-0.4368582677165354
 10
-20.2076968503937
 20
-0.4291653543307087
 10
-20.21253543307087
 20
-0.420996062992126
 10
-20.21689763779527
 20
-0.4123503937007874
 10
-20.22078346456693
 20
-0.4032322834645669
 10
-20.22421653543307
 20
-0.3938149606299213
 10
-20.22720866141732
 20
-0.3842755905511811
 10
-20.22976771653543
 20
-0.3746181102362205
 10
-20.23188976377953
 20
-0.3648425196850394
 10
-20.23728346456693
 20
-0.3267716535433071
 10
-20.23886614173228
 20
-0.2843700787401575
 10
-20.23875590551181
 20
-0.2782047244094488
 10
-20.23842913385827
 20
-0.2716771653543307
 10
-20.23788582677165
 20
-0.2647913385826772
 10
-20.2371220472441
 20
-0.2575472440944882
 10
-20.23614173228346
 20
-0.2499409448818898
 10
-20.23494488188976
 20
-0.2419685039370079
 10
-20.23352755905512
 20
-0.2336377952755906
 10
-20.23188976377953
 20
-0.2249370078740157
 10
-20.2297874015748
 20
-0.2152795275590551
 10
-20.2272874015748
 20
-0.2056614173228346
 10
-20.2243937007874
 20
-0.1960826771653543
 10
-20.22109842519685
 20
-0.1865472440944882
 10
-20.21735433070866
 20
-0.1772677165354331
 10
-20.2130905511811
 20
-0.1684645669291339
 10
-20.20831496062992
 20
-0.1601338582677165
 10
-20.20301968503937
 20
-0.1522834645669291
 10
-20.20017322834646
 20
-0.1485708661417323
 10
-20.19718897637795
 20
-0.1450472440944882
 10
-20.19406692913386
 20
-0.1417086614173228
 10
-20.1908031496063
 20
-0.1385629921259842
 10
-20.18740551181102
 20
-0.1356023622047244
 10
-20.18386614173228
 20
-0.1328307086614173
 10
-20.18018503937008
 20
-0.130248031496063
 10
-20.17636614173228
 20
-0.1278543307086614
 10
-20.17238976377953
 20
-0.1257007874015748
 10
-20.16823622047244
 20
-0.1238307086614173
 10
-20.16390551181102
 20
-0.122251968503937
 10
-20.15939763779528
 20
-0.1209566929133858
 10
-20.15470472440945
 20
-0.1199527559055118
 10
-20.14983858267717
 20
-0.1192322834645669
 10
-20.14479133858268
 20
-0.1188031496062992
 10
-20.13956692913386
 20
-0.1186574803149606
 10
-20.13434251968504
 20
-0.1188070866141732
 10
-20.12929527559055
 20
-0.119251968503937
 10
-20.12442913385827
 20
-0.119996062992126
 10
-20.11974015748032
 20
-0.1210354330708661
 10
-20.11522834645669
 20
-0.1223740157480315
 10
-20.11089763779528
 20
-0.124007874015748
 10
-20.10674409448819
 20
-0.1259409448818898
 10
-20.10276771653543
 20
-0.1281732283464567
  0
LWPOLYLINE
  5
80
330
1F
100
AcDbEntity
  8
Layer 1
 62
     7
100
AcDbPolyline
 90
       65
 70
     1
 43
0.0
 10
-20.13734645669291
 20
-0.5152244094488189
 10
-20.11882283464567
 20
-0.5140511811023623
 10
-20.10148031496063
 20
-0.5105236220472441
 10
-20.08531496062992
 20
-0.5046496062992126
 10
-20.07033070866142
 20
-0.4964251968503937
 10
-20.05652362204724
 20
-0.4858543307086614
 10
-20.04389763779528
 20
-0.4729291338582677
 10
-20.03245275590551
 20
-0.4576535433070866
 10
-20.02218503937008
 20
-0.4400314960629921
 10
-20.01497244094488
 20
-0.4246535433070866
 10
-20.00872047244095
 20
-0.4084251968503937
 10
-20.00343307086614
 20
-0.3913464566929134
 10
-19.9991062992126
 20
-0.3734094488188976
 10
-19.99574015748032
 20
-0.3546220472440945
 10
-19.99333464566929
 20
-0.334984251968504
 10
-19.9918937007874
 20
-0.314492125984252
 10
-19.99141338582677
 20
-0.2931456692913386
 10
-19.9918937007874
 20
-0.2717992125984252
 10
-19.99333464566929
 20
-0.2513070866141732
 10
-19.99574015748032
 20
-0.2316653543307087
 10
-19.9991062992126
 20
-0.2128779527559055
 10
-20.00343307086614
 20
-0.1949448818897638
 10
-20.00872047244095
 20
-0.1778622047244094
 10
-20.01497244094488
 20
-0.1616338582677165
 10
-20.02218503937008
 20
-0.146255905511811
 10
-20.03245275590551
 20
-0.1286338582677165
 10
-20.04389763779528
 20
-0.1133582677165354
 10
-20.05652362204724
 20
-0.1004370078740157
 10
-20.07033070866142
 20
-0.0898622047244095
 10
-20.08531496062992
 20
-0.0816377952755905
 10
-20.10148031496063
 20
-0.0757637795275591
 10
-20.11882283464567
 20
-0.072240157480315
 10
-20.13734645669291
 20
-0.0710669291338583
 10
-20.15587007874016
 20
-0.072240157480315
 10
-20.17321653543307
 20
-0.0757637795275591
 10
-20.18938188976378
 20
-0.0816377952755905
 10
-20.20436614173228
 20
-0.0898622047244095
 10
-20.21817322834646
 20
-0.1004370078740157
 10
-20.23079921259842
 20
-0.1133582677165354
 10
-20.24224409448819
 20
-0.1286338582677165
 10
-20.25251181102362
 20
-0.146255905511811
 10
-20.25972440944882
 20
-0.1616338582677165
 10
-20.26597637795276
 20
-0.1778622047244094
 10
-20.27126377952756
 20
-0.1949448818897638
 10
-20.2755905511811
 20
-0.2128779527559055
 10
-20.27895669291339
 20
-0.2316653543307087
 10
-20.28136220472441
 20
-0.2513070866141732
 10
-20.2828031496063
 20
-0.2717992125984252
 10
-20.28328346456693
 20
-0.2931456692913386
 10
-20.2828031496063
 20
-0.314492125984252
 10
-20.28136220472441
 20
-0.334984251968504
 10
-20.27895669291339
 20
-0.3546220472440945
 10
-20.2755905511811
 20
-0.3734094488188976
 10
-20.27126377952756
 20
-0.3913464566929134
 10
-20.26597637795276
 20
-0.4084251968503937
 10
-20.25972440944882
 20
-0.4246535433070866
 10
-20.25251181102362
 20
-0.4400314960629921
 10
-20.24224409448819
 20
-0.4576535433070866
 10
-20.23079921259842
 20
-0.4729291338582677
 10
-20.21817322834646
 20
-0.4858543307086614
 10
-20.20436614173228
 20
-0.4964251968503937
 10
-20.18938188976378
 20
-0.5046496062992126
 10
-20.17321653543307
 20
-0.5105236220472441
 10
-20.15587007874016
 20
-0.5140511811023623
 10
-20.13734645669291
 20
-0.5152244094488189
  0
LWPOLYLINE
  5
81
330
1F
100
AcDbEntity
  8
Layer 1
 62
     7
100
AcDbPolyline
 90
        4
 70
     1
 43
0.0
 10
-19.7065157480315
 20
-0.1262677165354331
 10
-19.7065157480315
 20
-0.3756299212598425
 10
-19.87148818897638
 20
-0.3756299212598425
 10
-19.7065157480315
 20
-0.1262677165354331
  0
LWPOLYLINE
  5
82
330
1F
100
AcDbEntity
  8
Layer 1
 62
     7
100
AcDbPolyline
 90
       11
 70
     1
 43
0.0
 10
-19.66020078740157
 20
-0.4213149606299212
 10
-19.60563385826772
 20
-0.4213149606299212
 10
-19.60563385826772
 20
-0.3756299212598425
 10
-19.66020078740157
 20
-0.3756299212598425
 10
-19.66083464566929
 20
-0.0780472440944882
 10
-19.7230157480315
 20
-0.0780472440944882
 10
-19.95016929133858
 20
-0.4213149606299212
 10
-19.7065157480315
 20
-0.4213149606299212
 10
-19.7065157480315
 20
-0.5095118110236221
 10
-19.66020078740157
 20
-0.5095118110236221
 10
-19.66020078740157
 20
-0.4213149606299212
  0
LWPOLYLINE
  5
83
330
1F
100
AcDbEntity
  8
Layer 1
 62
     7
100
AcDbPolyline
 90
       67
 70
     1
 43
0.0
 10
-19.40445275590551
 20
-0.5079606299212598
 10
-19.41077952755905
 20
-0.4958188976377953
 10
-19.41670078740157
 20
-0.4835
 10
-19.4222125984252
 20
-0.471007874015748
 10
-19.42731496062992
 20
-0.4583385826771654
 10
-19.43201181102362
 20
-0.445496062992126
 10
-19.43629133858268
 20
-0.4324763779527559
 10
-19.44016535433071
 20
-0.4192834645669291
 10
-19.44362204724409
 20
-0.4059133858267717
 10
-19.4466968503937
 20
-0.3923385826771654
 10
-19.44935826771654
 20
-0.3785826771653543
 10
-19.4516062992126
 20
-0.3646417322834646
 10
-19.45344488188976
 20
-0.3505196850393701
 10
-19.45487007874016
 20
-0.3362125984251969
 10
-19.45588976377953
 20
-0.3217244094488189
 10
-19.4565
 20
-0.3070551181102362
 10
-19.45670472440945
 20
-0.2922047244094488
 10
-19.4565
 20
-0.2766181102362205
 10
-19.4558937007874
 20
-0.2613110236220472
 10
-19.4548779527559
 20
-0.2462874015748031
 10
-19.45346456692914
 20
-0.2315472440944882
 10
-19.45164173228347
 20
-0.2170905511811024
 10
-19.44942125984252
 20
-0.2029212598425197
 10
-19.44679527559055
 20
-0.1890354330708661
 10
-19.44377165354331
 20
-0.1754330708661417
 10
-19.44031496062992
 20
-0.1620629921259842
 10
-19.43644094488189
 20
-0.1489133858267717
 10
-19.43215354330709
 20
-0.1359842519685039
 10
-19.42744881889764
 20
-0.1232795275590551
 10
-19.42232677165354
 20
-0.1107952755905512
 10
-19.4167874015748
 20
-0.0985314960629921
 10
-19.41083070866142
 20
-0.0864842519685039
 10
-19.40445275590551
 20
-0.0746574803149606
 10
-19.36879133858268
 20
-0.0854251968503937
 10
-19.37446062992126
 20
-0.0970944881889764
 10
-19.37975196850394
 20
-0.1088897637795276
 10
-19.38466929133858
 20
-0.1208110236220473
 10
-19.38920866141732
 20
-0.1328582677165354
 10
-19.39337401574803
 20
-0.1450314960629921
 10
-19.39716535433071
 20
-0.1573307086614173
 10
-19.40058267716535
 20
-0.169759842519685
 10
-19.40362992125984
 20
-0.1823110236220472
 10
-19.4062874015748
 20
-0.1950826771653543
 10
-19.4085905511811
 20
-0.2081102362204724
 10
-19.41054330708661
 20
-0.2213937007874016
 10
-19.41214173228347
 20
-0.2349370078740158
 10
-19.41338582677165
 20
-0.248740157480315
 10
-19.41427559055118
 20
-0.2628110236220472
 10
-19.41481102362205
 20
-0.2771535433070866
 10
-19.41498818897638
 20
-0.2917637795275591
 10
-19.41481102362205
 20
-0.3070236220472441
 10
-19.4142874015748
 20
-0.3219133858267716
 10
-19.4134094488189
 20
-0.3364330708661417
 10
-19.41217716535433
 20
-0.3505787401574803
 10
-19.4105905511811
 20
-0.3643543307086614
 10
-19.40864960629921
 20
-0.377755905511811
 10
-19.40635433070866
 20
-0.3907874015748031
 10
-19.40370078740158
 20
-0.4034488188976378
 10
-19.40070078740158
 20
-0.4158385826771653
 10
-19.39731102362205
 20
-0.428007874015748
 10
-19.39352755905512
 20
-0.4399527559055118
 10
-19.38935826771653
 20
-0.4516811023622047
 10
-19.38479527559055
 20
-0.4631811023622047
 10
-19.37984645669291
 20
-0.4744685039370079
 10
-19.37451181102362
 20
-0.4855314960629921
 10
-19.36879133858268
 20
-0.4963779527559055
 10
-19.40445275590551
 20
-0.5079606299212598
  0
LWPOLYLINE
  5
84
330
1F
100
AcDbEntity
  8
Layer 1
 62
     7
100
AcDbPolyline
 90
        7
 70
     1
 43
0.0
 10
-19.23908661417323
 20
-0.4101771653543307
 10
-19.23908661417323
 20
-0.1338661417322835
 10
-19.30546850393701
 20
-0.1338661417322835
 10
-19.28528346456693
 20
-0.0925984251968504
 10
-19.19153937007874
 20
-0.0925984251968504
 10
-19.19153937007874
 20
-0.4101771653543307
 10
-19.23908661417323
 20
-0.4101771653543307
  0
LWPOLYLINE
  5
85
330
1F
100
AcDbEntity
  8
Layer 1
 62
     7
100
AcDbPolyline
 90
       65
 70
     1
 43
0.0
 10
-18.83583464566929
 20
-0.2557992125984252
 10
-18.83631496062992
 20
-0.2743779527559055
 10
-18.83775590551181
 20
-0.2919212598425197
 10
-18.84016141732284
 20
-0.3084370078740157
 10
-18.84352755905512
 20
-0.3239173228346457
 10
-18.84785433070866
 20
-0.3383622047244094
 10
-18.85314960629921
 20
-0.3517716535433071
 10
-18.8594094488189
 20
-0.3641496062992126
 10
-18.86663385826771
 20
-0.375488188976378
 10
-18.87467716535433
 20
-0.3856102362204724
 10
-18.88344094488189
 20
-0.3943818897637795
 10
-18.89292913385827
 20
-0.4018110236220472
 10
-18.90313779527559
 20
-0.4078897637795276
 10
-18.91406692913386
 20
-0.4126181102362205
 10
-18.92572047244094
 20
-0.415996062992126
 10
-18.93809448818898
 20
-0.4180236220472441
 10
-18.95118897637795
 20
-0.4187007874015748
 10
-18.96445669291339
 20
-0.418015748031496
 10
-18.97696456692913
 20
-0.4159685039370078
 10
-18.9887125984252
 20
-0.4125551181102362
 10
-18.9996968503937
 20
-0.4077755905511811
 10
-19.00992125984252
 20
-0.4016338582677165
 10
-19.01938582677165
 20
-0.3941299212598425
 10
-19.0280905511811
 20
-0.3852637795275591
 10
-19.03603937007874
 20
-0.3750393700787402
 10
-19.04316141732284
 20
-0.3635551181102362
 10
-19.04933070866142
 20
-0.3509724409448819
 10
-19.05454724409449
 20
-0.3372834645669291
 10
-19.05881496062992
 20
-0.322496062992126
 10
-19.06212992125984
 20
-0.3066023622047244
 10
-19.0645
 20
-0.2896023622047244
 10
-19.06592125984252
 20
-0.2715
 10
-19.0663937007874
 20
-0.2522874015748032
 10
-19.06591338582677
 20
-0.2332283464566929
 10
-19.06447244094488
 20
-0.215251968503937
 10
-19.06207480314961
 20
-0.1983582677165354
 10
-19.05872047244095
 20
-0.1825472440944882
 10
-19.0544094488189
 20
-0.1678149606299213
 10
-19.04914173228346
 20
-0.1541692913385827
 10
-19.04292125984252
 20
-0.1416062992125984
 10
-19.03574409448819
 20
-0.1301299212598425
 10
-19.0277125984252
 20
-0.1198543307086614
 10
-19.01893307086614
 20
-0.1109527559055118
 10
-19.0094094488189
 20
-0.1034212598425197
 10
-18.99913779527559
 20
-0.0972637795275591
 10
-18.98811811023622
 20
-0.0924724409448819
 10
-18.97635433070866
 20
-0.0890551181102362
 10
-18.96384251968504
 20
-0.087003937007874
 10
-18.9505905511811
 20
-0.0863188976377953
 10
-18.93719291338583
 20
-0.087003937007874
 10
-18.92458661417323
 20
-0.0890669291338583
 10
-18.91277559055118
 20
-0.092496062992126
 10
-18.90175196850394
 20
-0.0972992125984252
 10
-18.89152362204725
 20
-0.1034724409448819
 10
-18.88208661417323
 20
-0.1110157480314961
 10
-18.87344094488189
 20
-0.1199251968503937
 10
-18.86558661417323
 20
-0.1302047244094488
 10
-18.85862204724409
 20
-0.1417834645669291
 10
-18.85257874015748
 20
-0.1545393700787402
 10
-18.84746850393701
 20
-0.1684724409448819
 10
-18.84328346456693
 20
-0.1835826771653543
 10
-18.84002362204724
 20
-0.1998700787401575
 10
-18.8376968503937
 20
-0.2173385826771654
 10
-18.83629921259843
 20
-0.2359803149606299
 10
-18.83583464566929
 20
-0.2557992125984252
  0
LWPOLYLINE
  5
86
330
1F
100
AcDbEntity
  8
Layer 1
 62
     7
100
AcDbPolyline
 90
       65
 70
     1
 43
0.0
 10
-18.95208661417323
 20
-0.3738425196850393
 10
-18.94434251968504
 20
-0.3733661417322834
 10
-18.9370905511811
 20
-0.3719370078740157
 10
-18.93033070866142
 20
-0.3695511811023622
 10
-18.92407086614173
 20
-0.3662086614173228
 10
-18.9183031496063
 20
-0.3619133858267716
 10
-18.91303937007874
 20
-0.3566574803149606
 10
-18.90827559055118
 20
-0.3504448818897638
 10
-18.9040157480315
 20
-0.3432716535433071
 10
-18.90023228346457
 20
-0.3351692913385827
 10
-18.89695275590551
 20
-0.3261141732283465
 10
-18.89417322834646
 20
-0.3161062992125984
 10
-18.89190157480315
 20
-0.3051496062992126
 10
-18.89013385826772
 20
-0.293244094488189
 10
-18.88887401574803
 20
-0.2803897637795276
 10
-18.88811417322835
 20
-0.2665866141732283
 10
-18.88786220472441
 20
-0.2518385826771654
 10
-18.88811023622047
 20
-0.237503937007874
 10
-18.88885826771654
 20
-0.2240433070866142
 10
-18.89010236220473
 20
-0.2114606299212598
 10
-18.89184645669291
 20
-0.199759842519685
 10
-18.89408267716535
 20
-0.1889370078740157
 10
-18.89682283464567
 20
-0.178996062992126
 10
-18.90005511811023
 20
-0.1699330708661417
 10
-18.9037874015748
 20
-0.161755905511811
 10
-18.90797244094488
 20
-0.1544763779527559
 10
-18.91261811023622
 20
-0.1481692913385827
 10
-18.91772834645669
 20
-0.1428346456692913
 10
-18.92329133858268
 20
-0.1384724409448819
 10
-18.9293188976378
 20
-0.1350826771653543
 10
-18.9358031496063
 20
-0.1326614173228347
 10
-18.94274409448819
 20
-0.1312086614173228
 10
-18.95014173228347
 20
-0.1307244094488189
 10
-18.95783464566929
 20
-0.1312086614173228
 10
-18.96504330708661
 20
-0.1326574803149606
 10
-18.97176771653543
 20
-0.1350748031496063
 10
-18.97800787401575
 20
-0.1384527559055118
 10
-18.98376377952756
 20
-0.1427992125984252
 10
-18.98903937007874
 20
-0.1481062992125984
 10
-18.99383070866142
 20
-0.1543740157480315
 10
-18.99813779527559
 20
-0.1616023622047244
 10
-19.00194488188976
 20
-0.1697952755905512
 10
-19.00524409448819
 20
-0.1789015748031496
 10
-19.00803149606299
 20
-0.1889212598425197
 10
-19.01031102362205
 20
-0.1998543307086614
 10
-19.01208267716535
 20
-0.2117007874015748
 10
-19.01334645669291
 20
-0.2244606299212598
 10
-19.0141062992126
 20
-0.2381417322834646
 10
-19.01435826771653
 20
-0.2527362204724409
 10
-19.0141062992126
 20
-0.2669212598425197
 10
-19.01335039370079
 20
-0.280263779527559
 10
-19.01208661417323
 20
-0.2927598425196851
 10
-19.01032283464567
 20
-0.3044133858267716
 10
-19.00805118110236
 20
-0.3152165354330709
 10
-19.00527559055118
 20
-0.3251692913385827
 10
-19.00199606299213
 20
-0.3342716535433071
 10
-18.9982125984252
 20
-0.3425196850393701
 10
-18.9939842519685
 20
-0.3498543307086614
 10
-18.98931496062992
 20
-0.3562125984251969
 10
-18.98420472440945
 20
-0.3615984251968504
 10
-18.97865354330709
 20
-0.366003937007874
 10
-18.97266929133858
 20
-0.3694330708661417
 10
-18.96624409448819
 20
-0.3718818897637795
 10
-18.95938188976378
 20
-0.3733503937007874
 10
-18.95208661417323
 20
-0.3738425196850393
  0
LWPOLYLINE
  5
87
330
1F
100
AcDbEntity
  8
Layer 1
 62
     7
100
AcDbPolyline
 90
       65
 70
     1
 43
0.0
 10
-18.5649094488189
 20
-0.2557992125984252
 10
-18.56538976377953
 20
-0.2743779527559055
 10
-18.56683070866142
 20
-0.2919212598425197
 10
-18.56923622047244
 20
-0.3084370078740157
 10
-18.57260236220472
 20
-0.3239173228346457
 10
-18.57692913385827
 20
-0.3383622047244094
 10
-18.58222440944882
 20
-0.3517716535433071
 10
-18.5884842519685
 20
-0.3641496062992126
 10
-18.59570866141732
 20
-0.375488188976378
 10
-18.60375196850394
 20
-0.3856102362204724
 10
-18.61251574803149
 20
-0.3943818897637795
 10
-18.62200393700788
 20
-0.4018110236220472
 10
-18.6322125984252
 20
-0.4078897637795276
 10
-18.64314173228346
 20
-0.4126181102362205
 10
-18.65479527559055
 20
-0.415996062992126
 10
-18.66716929133858
 20
-0.4180236220472441
 10
-18.68026377952756
 20
-0.4187007874015748
 10
-18.69353149606299
 20
-0.418015748031496
 10
-18.70603937007874
 20
-0.4159685039370078
 10
-18.7177874015748
 20
-0.4125551181102362
 10
-18.72877165354331
 20
-0.4077755905511811
 10
-18.73899606299213
 20
-0.4016338582677165
 10
-18.74846062992126
 20
-0.3941299212598425
 10
-18.75716535433071
 20
-0.3852637795275591
 10
-18.76511417322835
 20
-0.3750393700787402
 10
-18.77223622047244
 20
-0.3635551181102362
 10
-18.77840551181102
 20
-0.3509724409448819
 10
-18.78362204724409
 20
-0.3372834645669291
 10
-18.78788976377953
 20
-0.322496062992126
 10
-18.79120472440945
 20
-0.3066023622047244
 10
-18.79357480314961
 20
-0.2896023622047244
 10
-18.79499606299213
 20
-0.2715
 10
-18.79546850393701
 20
-0.2522874015748032
 10
-18.79498818897638
 20
-0.2332283464566929
 10
-18.79354724409449
 20
-0.215251968503937
 10
-18.79114960629921
 20
-0.1983582677165354
 10
-18.78779527559055
 20
-0.1825472440944882
 10
-18.7834842519685
 20
-0.1678149606299213
 10
-18.77821653543307
 20
-0.1541692913385827
 10
-18.77199606299213
 20
-0.1416062992125984
 10
-18.7648188976378
 20
-0.1301299212598425
 10
-18.7567874015748
 20
-0.1198543307086614
 10
-18.74800787401575
 20
-0.1109527559055118
 10
-18.7384842519685
 20
-0.1034212598425197
 10
-18.7282125984252
 20
-0.0972637795275591
 10
-18.71719291338583
 20
-0.0924724409448819
 10
-18.70542913385827
 20
-0.0890551181102362
 10
-18.69291732283465
 20
-0.087003937007874
 10
-18.67966535433071
 20
-0.0863188976377953
 10
-18.66626771653543
 20
-0.087003937007874
 10
-18.65366141732283
 20
-0.0890669291338583
 10
-18.64185039370079
 20
-0.092496062992126
 10
-18.63082677165354
 20
-0.0972992125984252
 10
-18.62059842519685
 20
-0.1034724409448819
 10
-18.61116141732283
 20
-0.1110157480314961
 10
-18.6025157480315
 20
-0.1199251968503937
 10
-18.59466141732284
 20
-0.1302047244094488
 10
-18.5876968503937
 20
-0.1417834645669291
 10
-18.58165354330709
 20
-0.1545393700787402
 10
-18.57654330708661
 20
-0.1684724409448819
 10
-18.57235826771653
 20
-0.1835826771653543
 10
-18.56909842519685
 20
-0.1998700787401575
 10
-18.56677165354331
 20
-0.2173385826771654
 10
-18.56537401574803
 20
-0.2359803149606299
 10
-18.5649094488189
 20
-0.2557992125984252
  0
LWPOLYLINE
  5
88
330
1F
100
AcDbEntity
  8
Layer 1
 62
     7
100
AcDbPolyline
 90
       65
 70
     1
 43
0.0
 10
-18.68116141732283
 20
-0.3738425196850393
 10
-18.67341732283464
 20
-0.3733661417322834
 10
-18.66616535433071
 20
-0.3719370078740157
 10
-18.65940551181102
 20
-0.3695511811023622
 10
-18.65314566929134
 20
-0.3662086614173228
 10
-18.64737795275591
 20
-0.3619133858267716
 10
-18.64211417322835
 20
-0.3566574803149606
 10
-18.63735039370079
 20
-0.3504448818897638
 10
-18.6330905511811
 20
-0.3432716535433071
 10
-18.62930708661417
 20
-0.3351692913385827
 10
-18.62602755905512
 20
-0.3261141732283465
 10
-18.62324803149606
 20
-0.3161062992125984
 10
-18.62097637795275
 20
-0.3051496062992126
 10
-18.61920866141732
 20
-0.293244094488189
 10
-18.61794881889764
 20
-0.2803897637795276
 10
-18.61718897637795
 20
-0.2665866141732283
 10
-18.61693700787401
 20
-0.2518385826771654
 10
-18.61718503937008
 20
-0.237503937007874
 10
-18.61793307086614
 20
-0.2240433070866142
 10
-18.61917716535433
 20
-0.2114606299212598
 10
-18.62092125984252
 20
-0.199759842519685
 10
-18.62315748031496
 20
-0.1889370078740157
 10
-18.62589763779528
 20
-0.178996062992126
 10
-18.62912992125984
 20
-0.1699330708661417
 10
-18.63286220472441
 20
-0.161755905511811
 10
-18.63704724409449
 20
-0.1544763779527559
 10
-18.64169291338583
 20
-0.1481692913385827
 10
-18.6468031496063
 20
-0.1428346456692913
 10
-18.65236614173228
 20
-0.1384724409448819
 10
-18.6583937007874
 20
-0.1350826771653543
 10
-18.6648779527559
 20
-0.1326614173228347
 10
-18.6718188976378
 20
-0.1312086614173228
 10
-18.67921653543307
 20
-0.1307244094488189
 10
-18.6869094488189
 20
-0.1312086614173228
 10
-18.69411811023622
 20
-0.1326574803149606
 10
-18.70084251968504
 20
-0.1350748031496063
 10
-18.70708267716535
 20
-0.1384527559055118
 10
-18.71283858267716
 20
-0.1427992125984252
 10
-18.71811417322835
 20
-0.1481062992125984
 10
-18.72290551181102
 20
-0.1543740157480315
 10
-18.7272125984252
 20
-0.1616023622047244
 10
-18.73101968503937
 20
-0.1697952755905512
 10
-18.7343188976378
 20
-0.1789015748031496
 10
-18.7371062992126
 20
-0.1889212598425197
 10
-18.73938582677165
 20
-0.1998543307086614
 10
-18.74115748031496
 20
-0.2117007874015748
 10
-18.74242125984252
 20
-0.2244606299212598
 10
-18.7431811023622
 20
-0.2381417322834646
 10
-18.74343307086614
 20
-0.2527362204724409
 10
-18.7431811023622
 20
-0.2669212598425197
 10
-18.74242519685039
 20
-0.280263779527559
 10
-18.74116141732284
 20
-0.2927598425196851
 10
-18.73939763779527
 20
-0.3044133858267716
 10
-18.73712598425197
 20
-0.3152165354330709
 10
-18.73435039370079
 20
-0.3251692913385827
 10
-18.73107086614173
 20
-0.3342716535433071
 10
-18.7272874015748
 20
-0.3425196850393701
 10
-18.72305905511811
 20
-0.3498543307086614
 10
-18.71838976377953
 20
-0.3562125984251969
 10
-18.71327952755906
 20
-0.3615984251968504
 10
-18.70772834645669
 20
-0.366003937007874
 10
-18.70174409448819
 20
-0.3694330708661417
 10
-18.69531889763779
 20
-0.3718818897637795
 10
-18.68845669291339
 20
-0.3733503937007874
 10
-18.68116141732283
 20
-0.3738425196850393
  0
LWPOLYLINE
  5
89
330
1F
100
AcDbEntity
  8
Layer 1
 62
     7
100
AcDbPolyline
 90
      157
 70
     1
 43
0.0
 10
-18.46443700787401
 20
-0.4101771653543307
 10
-18.51198031496063
 20
-0.4101771653543307
 10
-18.51198031496063
 20
-0.202496062992126
 10
-18.46727559055118
 20
-0.202496062992126
 10
-18.46727559055118
 20
-0.2365866141732283
 10
-18.46365748031496
 20
-0.2313307086614173
 10
-18.45991732283465
 20
-0.2264409448818898
 10
-18.45605905511811
 20
-0.2219133858267716
 10
-18.45207874015748
 20
-0.217755905511811
 10
-18.4479842519685
 20
-0.2139645669291338
 10
-18.44376771653543
 20
-0.2105433070866142
 10
-18.43943307086614
 20
-0.207492125984252
 10
-18.43498031496063
 20
-0.2048110236220473
 10
-18.43036614173228
 20
-0.2024763779527559
 10
-18.42554724409449
 20
-0.2004527559055118
 10
-18.42052362204725
 20
-0.198744094488189
 10
-18.41529921259843
 20
-0.1973464566929134
 10
-18.40987007874016
 20
-0.1962637795275591
 10
-18.40424015748032
 20
-0.195488188976378
 10
-18.39840551181102
 20
-0.1950236220472441
 10
-18.39236614173228
 20
-0.1948700787401575
 10
-18.38641338582677
 20
-0.1950275590551181
 10
-18.38071653543307
 20
-0.195503937007874
 10
-18.3752874015748
 20
-0.1962952755905512
 10
-18.37011417322835
 20
-0.1974015748031496
 10
-18.36520866141732
 20
-0.1988307086614173
 10
-18.36056299212598
 20
-0.2005787401574803
 10
-18.3561811023622
 20
-0.2026456692913386
 10
-18.35206692913386
 20
-0.2050354330708661
 10
-18.3481811023622
 20
-0.207755905511811
 10
-18.34453937007874
 20
-0.2108110236220472
 10
-18.34114173228346
 20
-0.2142007874015748
 10
-18.33798818897638
 20
-0.2179251968503937
 10
-18.33507480314961
 20
-0.2219842519685039
 10
-18.33240157480315
 20
-0.2263700787401575
 10
-18.32996850393701
 20
-0.2310905511811024
 10
-18.32777559055118
 20
-0.2361377952755906
 10
-18.32362204724409
 20
-0.2309370078740157
 10
-18.31940551181102
 20
-0.2261023622047244
 10
-18.31512598425197
 20
-0.2216299212598425
 10
-18.3107874015748
 20
-0.2175236220472441
 10
-18.30638188976378
 20
-0.2137795275590551
 10
-18.30191338582677
 20
-0.2104015748031496
 10
-18.29738188976378
 20
-0.2073897637795276
 10
-18.29279133858268
 20
-0.204740157480315
 10
-18.28808267716536
 20
-0.2024291338582677
 10
-18.28321653543307
 20
-0.2004212598425197
 10
-18.27818503937008
 20
-0.1987244094488189
 10
-18.27299606299212
 20
-0.1973385826771654
 10
-18.26764566929134
 20
-0.196259842519685
 10
-18.26213385826772
 20
-0.195488188976378
 10
-18.25646062992126
 20
-0.1950236220472441
 10
-18.25062598425197
 20
-0.1948700787401575
 10
-18.24557480314961
 20
-0.194988188976378
 10
-18.24068503937008
 20
-0.1953464566929134
 10
-18.23595669291339
 20
-0.1959409448818898
 10
-18.2313937007874
 20
-0.1967677165354331
 10
-18.22698818897638
 20
-0.1978307086614173
 10
-18.22274409448819
 20
-0.1991299212598425
 10
-18.21866141732283
 20
-0.2006614173228347
 10
-18.21474015748031
 20
-0.2024251968503937
 10
-18.21100787401575
 20
-0.2044370078740158
 10
-18.20749212598425
 20
-0.2066574803149606
 10
-18.20418897637795
 20
-0.2090905511811024
 10
-18.2011062992126
 20
-0.211740157480315
 10
-18.19823228346457
 20
-0.2145984251968504
 10
-18.19557480314961
 20
-0.2176771653543307
 10
-18.19312598425197
 20
-0.2209685039370079
 10
-18.19088976377953
 20
-0.2244763779527559
 10
-18.18901181102362
 20
-0.2280196850393701
 10
-18.18741338582677
 20
-0.2319133858267717
 10
-18.18609448818898
 20
-0.2361456692913386
 10
-18.18505905511811
 20
-0.2406968503937008
 10
-18.18423228346457
 20
-0.2459094488188976
 10
-18.18364566929134
 20
-0.2521338582677166
 10
-18.1833031496063
 20
-0.2593700787401575
 10
-18.18318897637795
 20
-0.2676102362204724
 10
-18.18318897637795
 20
-0.2842795275590551
 10
-18.18318897637795
 20
-0.4101771653543307
 10
-18.23073622047244
 20
-0.4101771653543307
 10
-18.23073622047244
 20
-0.3035708661417323
 10
-18.2308779527559
 20
-0.2935590551181103
 10
-18.23129527559055
 20
-0.2844409448818898
 10
-18.23199606299213
 20
-0.2762125984251969
 10
-18.23296850393701
 20
-0.2688740157480315
 10
-18.23422047244095
 20
-0.2624330708661418
 10
-18.23575196850394
 20
-0.2568818897637795
 10
-18.23755511811024
 20
-0.2522283464566929
 10
-18.23962992125984
 20
-0.2484724409448819
 10
-18.24206299212598
 20
-0.2453700787401575
 10
-18.24492913385827
 20
-0.2426850393700787
 10
-18.24823228346457
 20
-0.2404094488188976
 10
-18.25196850393701
 20
-0.2385511811023622
 10
-18.25613779527559
 20
-0.2371023622047244
 10
-18.26074409448819
 20
-0.2360708661417323
 10
-18.26578346456693
 20
-0.2354488188976378
 10
-18.27125590551181
 20
-0.235244094488189
 10
-18.27801181102362
 20
-0.2355236220472441
 10
-18.28426377952756
 20
-0.2363661417322835
 10
-18.29001181102362
 20
-0.2377637795275591
 10
-18.29525196850394
 20
-0.2397204724409449
 10
-18.29998818897638
 20
-0.2422322834645669
 10
-18.30422440944882
 20
-0.2453031496062992
 10
-18.30794881889764
 20
-0.2489291338582677
 10
-18.31117322834646
 20
-0.2531102362204725
 10
-18.3139842519685
 20
-0.2579881889763779
 10
-18.31642125984252
 20
-0.2637047244094488
 10
-18.31847637795276
 20
-0.270263779527559
 10
-18.32015748031496
 20
-0.2776574803149606
 10
-18.32146062992126
 20
-0.2858897637795276
 10
-18.3223937007874
 20
-0.2949606299212598
 10
-18.32295275590551
 20
-0.3048661417322835
 10
-18.32313779527559
 20
-0.3156062992125984
 10
-18.32313779527559
 20
-0.4101771653543307
 10
-18.37113385826772
 20
-0.4101771653543307
 10
-18.37113385826772
 20
-0.3035708661417323
 10
-18.37127952755905
 20
-0.2942992125984252
 10
-18.37170866141732
 20
-0.2857677165354331
 10
-18.37242913385827
 20
-0.2779803149606299
 10
-18.37344094488189
 20
-0.2709291338582677
 10
-18.37474409448819
 20
-0.2646220472440945
 10
-18.37633858267716
 20
-0.2590511811023622
 10
-18.37822834645669
 20
-0.2542165354330709
 10
-18.3804094488189
 20
-0.2501181102362205
 10
-18.38294881889764
 20
-0.2466259842519685
 10
-18.38591338582677
 20
-0.2435984251968504
 10
-18.3893031496063
 20
-0.2410433070866142
 10
-18.39311417322835
 20
-0.2389527559055118
 10
-18.39734645669291
 20
-0.2373307086614173
 10
-18.402
 20
-0.2361692913385827
 10
-18.40707086614173
 20
-0.2354763779527559
 10
-18.41255511811024
 20
-0.235244094488189
 10
-18.41601968503937
 20
-0.2353425196850394
 10
-18.4194094488189
 20
-0.2356377952755906
 10
-18.42272047244094
 20
-0.2361299212598425
 10
-18.42595275590551
 20
-0.2368188976377953
 10
-18.42911023622047
 20
-0.2377125984251968
 10
-18.43218897637795
 20
-0.2388031496062992
 10
-18.43519291338583
 20
-0.2400984251968504
 10
-18.43811811023622
 20
-0.2415944881889764
 10
-18.44095669291339
 20
-0.2432677165354331
 10
-18.44364566929134
 20
-0.2450866141732284
 10
-18.44617716535433
 20
-0.2470511811023622
 10
-18.44855905511811
 20
-0.2491653543307087
 10
-18.4507874015748
 20
-0.2514251968503937
 10
-18.45287007874016
 20
-0.2538346456692913
 10
-18.45479921259842
 20
-0.2563897637795275
 10
-18.45658267716535
 20
-0.2590905511811024
 10
-18.4586062992126
 20
-0.2629330708661417
 10
-18.46029527559055
 20
-0.2671653543307086
 10
-18.46166141732283
 20
-0.2717913385826772
 10
-18.4627125984252
 20
-0.2768070866141732
 10
-18.46345669291339
 20
-0.2831889763779528
 10
-18.46399606299213
 20
-0.2917795275590551
 10
-18.46432677165354
 20
-0.3025866141732284
 10
-18.46443700787401
 20
-0.3156062992125984
 10
-18.46443700787401
 20
-0.4101771653543307
  0
LWPOLYLINE
  5
8A
330
1F
100
AcDbEntity
  8
Layer 1
 62
     7
100
AcDbPolyline
 90
      157
 70
     1
 43
0.0
 10
-18.07194881889764
 20
-0.4101771653543307
 10
-18.11949212598425
 20
-0.4101771653543307
 10
-18.11949212598425
 20
-0.202496062992126
 10
-18.0747874015748
 20
-0.202496062992126
 10
-18.0747874015748
 20
-0.2365866141732283
 10
-18.07116929133858
 20
-0.2313307086614173
 10
-18.06742913385827
 20
-0.2264409448818898
 10
-18.06357086614173
 20
-0.2219133858267716
 10
-18.0595905511811
 20
-0.217755905511811
 10
-18.05549606299213
 20
-0.2139645669291338
 10
-18.05127952755905
 20
-0.2105433070866142
 10
-18.04694488188976
 20
-0.207492125984252
 10
-18.04249212598425
 20
-0.2048110236220473
 10
-18.03787795275591
 20
-0.2024763779527559
 10
-18.03305905511811
 20
-0.2004527559055118
 10
-18.02803543307087
 20
-0.198744094488189
 10
-18.02281102362205
 20
-0.1973464566929134
 10
-18.01738188976378
 20
-0.1962637795275591
 10
-18.01175196850394
 20
-0.195488188976378
 10
-18.00591732283464
 20
-0.1950236220472441
 10
-17.99987795275591
 20
-0.1948700787401575
 10
-17.99392519685039
 20
-0.1950275590551181
 10
-17.98822834645669
 20
-0.195503937007874
 10
-17.98279921259843
 20
-0.1962952755905512
 10
-17.97762598425197
 20
-0.1974015748031496
 10
-17.97272047244094
 20
-0.1988307086614173
 10
-17.96807480314961
 20
-0.2005787401574803
 10
-17.96369291338583
 20
-0.2026456692913386
 10
-17.95957874015748
 20
-0.2050354330708661
 10
-17.95569291338583
 20
-0.207755905511811
 10
-17.95205118110236
 20
-0.2108110236220472
 10
-17.94865354330708
 20
-0.2142007874015748
 10
-17.9455
 20
-0.2179251968503937
 10
-17.94258661417323
 20
-0.2219842519685039
 10
-17.93991338582677
 20
-0.2263700787401575
 10
-17.93748031496063
 20
-0.2310905511811024
 10
-17.9352874015748
 20
-0.2361377952755906
 10
-17.93113385826772
 20
-0.2309370078740157
 10
-17.92691732283464
 20
-0.2261023622047244
 10
-17.92263779527559
 20
-0.2216299212598425
 10
-17.91829921259842
 20
-0.2175236220472441
 10
-17.9138937007874
 20
-0.2137795275590551
 10
-17.90942519685039
 20
-0.2104015748031496
 10
-17.9048937007874
 20
-0.2073897637795276
 10
-17.9003031496063
 20
-0.204740157480315
 10
-17.89559448818898
 20
-0.2024291338582677
 10
-17.89072834645669
 20
-0.2004212598425197
 10
-17.8856968503937
 20
-0.1987244094488189
 10
-17.88050787401575
 20
-0.1973385826771654
 10
-17.87515748031496
 20
-0.196259842519685
 10
-17.86964566929134
 20
-0.195488188976378
 10
-17.86397244094488
 20
-0.1950236220472441
 10
-17.85813779527559
 20
-0.1948700787401575
 10
-17.85308661417323
 20
-0.194988188976378
 10
-17.8481968503937
 20
-0.1953464566929134
 10
-17.84346850393701
 20
-0.1959409448818898
 10
-17.83890551181102
 20
-0.1967677165354331
 10
-17.8345
 20
-0.1978307086614173
 10
-17.83025590551181
 20
-0.1991299212598425
 10
-17.82617322834646
 20
-0.2006614173228347
 10
-17.82225196850394
 20
-0.2024251968503937
 10
-17.81851968503937
 20
-0.2044370078740158
 10
-17.81500393700787
 20
-0.2066574803149606
 10
-17.81170078740157
 20
-0.2090905511811024
 10
-17.80861811023622
 20
-0.211740157480315
 10
-17.80574409448819
 20
-0.2145984251968504
 10
-17.80308661417323
 20
-0.2176771653543307
 10
-17.80063779527559
 20
-0.2209685039370079
 10
-17.79840157480315
 20
-0.2244763779527559
 10
-17.79652362204724
 20
-0.2280196850393701
 10
-17.79492519685039
 20
-0.2319133858267717
 10
-17.7936062992126
 20
-0.2361456692913386
 10
-17.79257086614173
 20
-0.2406968503937008
 10
-17.79174409448819
 20
-0.2459094488188976
 10
-17.79115748031496
 20
-0.2521338582677166
 10
-17.79081496062992
 20
-0.2593700787401575
 10
-17.79070078740158
 20
-0.2676102362204724
 10
-17.79070078740158
 20
-0.2842795275590551
 10
-17.79070078740158
 20
-0.4101771653543307
 10
-17.83824803149606
 20
-0.4101771653543307
 10
-17.83824803149606
 20
-0.3035708661417323
 10
-17.83838976377953
 20
-0.2935590551181103
 10
-17.83880708661417
 20
-0.2844409448818898
 10
-17.83950787401575
 20
-0.2762125984251969
 10
-17.84048031496063
 20
-0.2688740157480315
 10
-17.84173228346457
 20
-0.2624330708661418
 10
-17.84326377952756
 20
-0.2568818897637795
 10
-17.84506692913386
 20
-0.2522283464566929
 10
-17.84714173228346
 20
-0.2484724409448819
 10
-17.84957480314961
 20
-0.2453700787401575
 10
-17.85244094488189
 20
-0.2426850393700787
 10
-17.85574409448819
 20
-0.2404094488188976
 10
-17.85948031496063
 20
-0.2385511811023622
 10
-17.86364960629921
 20
-0.2371023622047244
 10
-17.86825590551181
 20
-0.2360708661417323
 10
-17.87329527559055
 20
-0.2354488188976378
 10
-17.87876771653543
 20
-0.235244094488189
 10
-17.88552362204724
 20
-0.2355236220472441
 10
-17.89177559055118
 20
-0.2363661417322835
 10
-17.89752362204725
 20
-0.2377637795275591
 10
-17.90276377952756
 20
-0.2397204724409449
 10
-17.9075
 20
-0.2422322834645669
 10
-17.91173622047244
 20
-0.2453031496062992
 10
-17.91546062992126
 20
-0.2489291338582677
 10
-17.91868503937008
 20
-0.2531102362204725
 10
-17.92149606299213
 20
-0.2579881889763779
 10
-17.92393307086614
 20
-0.2637047244094488
 10
-17.92598818897638
 20
-0.270263779527559
 10
-17.92766929133858
 20
-0.2776574803149606
 10
-17.92897244094488
 20
-0.2858897637795276
 10
-17.92990551181103
 20
-0.2949606299212598
 10
-17.93046456692914
 20
-0.3048661417322835
 10
-17.93064960629921
 20
-0.3156062992125984
 10
-17.93064960629921
 20
-0.4101771653543307
 10
-17.97864566929134
 20
-0.4101771653543307
 10
-17.97864566929134
 20
-0.3035708661417323
 10
-17.97879133858268
 20
-0.2942992125984252
 10
-17.97922047244095
 20
-0.2857677165354331
 10
-17.97994094488189
 20
-0.2779803149606299
 10
-17.98095275590551
 20
-0.2709291338582677
 10
-17.98225590551181
 20
-0.2646220472440945
 10
-17.98385039370079
 20
-0.2590511811023622
 10
-17.98574015748031
 20
-0.2542165354330709
 10
-17.98792125984252
 20
-0.2501181102362205
 10
-17.99046062992126
 20
-0.2466259842519685
 10
-17.99342519685039
 20
-0.2435984251968504
 10
-17.99681496062992
 20
-0.2410433070866142
 10
-18.00062598425197
 20
-0.2389527559055118
 10
-18.00485826771654
 20
-0.2373307086614173
 10
-18.00951181102362
 20
-0.2361692913385827
 10
-18.01458267716535
 20
-0.2354763779527559
 10
-18.02006692913386
 20
-0.235244094488189
 10
-18.02353149606299
 20
-0.2353425196850394
 10
-18.02692125984252
 20
-0.2356377952755906
 10
-18.03023228346457
 20
-0.2361299212598425
 10
-18.03346456692913
 20
-0.2368188976377953
 10
-18.03662204724409
 20
-0.2377125984251968
 10
-18.03970078740157
 20
-0.2388031496062992
 10
-18.04270472440945
 20
-0.2400984251968504
 10
-18.04562992125984
 20
-0.2415944881889764
 10
-18.04846850393701
 20
-0.2432677165354331
 10
-18.05115748031496
 20
-0.2450866141732284
 10
-18.05368897637795
 20
-0.2470511811023622
 10
-18.05607086614173
 20
-0.2491653543307087
 10
-18.05829921259842
 20
-0.2514251968503937
 10
-18.06038188976378
 20
-0.2538346456692913
 10
-18.06231102362205
 20
-0.2563897637795275
 10
-18.06409448818898
 20
-0.2590905511811024
 10
-18.06611811023622
 20
-0.2629330708661417
 10
-18.06780708661417
 20
-0.2671653543307086
 10
-18.06917322834646
 20
-0.2717913385826772
 10
-18.07022440944882
 20
-0.2768070866141732
 10
-18.07096850393701
 20
-0.2831889763779528
 10
-18.07150787401575
 20
-0.2917795275590551
 10
-18.07183858267717
 20
-0.3025866141732284
 10
-18.07194881889764
 20
-0.3156062992125984
 10
-18.07194881889764
 20
-0.4101771653543307
  0
LWPOLYLINE
  5
8B
330
1F
100
AcDbEntity
  8
Layer 1
 62
     7
100
AcDbPolyline
 90
       67
 70
     1
 43
0.0
 10
-17.71444488188977
 20
-0.5079606299212598
 10
-17.74987795275591
 20
-0.4963779527559055
 10
-17.74415748031496
 20
-0.4855314960629921
 10
-17.73882283464567
 20
-0.4744685039370079
 10
-17.73387401574803
 20
-0.4631811023622047
 10
-17.72931496062992
 20
-0.4516811023622047
 10
-17.72514173228346
 20
-0.4399527559055118
 10
-17.72136220472441
 20
-0.428007874015748
 10
-17.71797244094488
 20
-0.4158385826771653
 10
-17.71497244094488
 20
-0.4034488188976378
 10
-17.7123188976378
 20
-0.3907874015748031
 10
-17.71002362204725
 20
-0.377755905511811
 10
-17.70808267716535
 20
-0.3643543307086614
 10
-17.70649606299213
 20
-0.3505787401574803
 10
-17.70526377952756
 20
-0.3364330708661417
 10
-17.70438188976378
 20
-0.3219133858267716
 10
-17.70385826771653
 20
-0.3070236220472441
 10
-17.7036811023622
 20
-0.2917637795275591
 10
-17.70385826771653
 20
-0.2771535433070866
 10
-17.70438188976378
 20
-0.2628110236220472
 10
-17.70526377952756
 20
-0.248740157480315
 10
-17.70649606299213
 20
-0.2349370078740158
 10
-17.70808267716535
 20
-0.2213937007874016
 10
-17.71002362204725
 20
-0.2081102362204724
 10
-17.7123188976378
 20
-0.1950826771653543
 10
-17.71497244094488
 20
-0.1823110236220472
 10
-17.71797244094488
 20
-0.169759842519685
 10
-17.72136220472441
 20
-0.1573307086614173
 10
-17.72514173228346
 20
-0.1450314960629921
 10
-17.72931496062992
 20
-0.1328582677165354
 10
-17.73387401574803
 20
-0.1208110236220473
 10
-17.73882283464567
 20
-0.1088897637795276
 10
-17.74415748031496
 20
-0.0970944881889764
 10
-17.74987795275591
 20
-0.0854251968503937
 10
-17.71444488188977
 20
-0.0746574803149606
 10
-17.7080157480315
 20
-0.0864842519685039
 10
-17.70201181102362
 20
-0.0985314960629921
 10
-17.69643307086614
 20
-0.1107952755905512
 10
-17.69127952755905
 20
-0.1232795275590551
 10
-17.68655118110236
 20
-0.1359842519685039
 10
-17.68224803149606
 20
-0.1489133858267717
 10
-17.67836220472441
 20
-0.1620629921259842
 10
-17.67490157480315
 20
-0.1754330708661417
 10
-17.67187401574803
 20
-0.1890354330708661
 10
-17.66925196850394
 20
-0.2029212598425197
 10
-17.66702755905512
 20
-0.2170905511811024
 10
-17.66520866141732
 20
-0.2315472440944882
 10
-17.66379133858268
 20
-0.2462874015748031
 10
-17.66277559055118
 20
-0.2613110236220472
 10
-17.66216929133858
 20
-0.2766181102362205
 10
-17.66196456692913
 20
-0.2922047244094488
 10
-17.66216929133858
 20
-0.3070551181102362
 10
-17.66277952755906
 20
-0.3217244094488189
 10
-17.66379921259843
 20
-0.3362125984251969
 10
-17.66522440944882
 20
-0.3505196850393701
 10
-17.66706299212598
 20
-0.3646417322834646
 10
-17.66931102362205
 20
-0.3785826771653543
 10
-17.67197244094488
 20
-0.3923385826771654
 10
-17.67504724409449
 20
-0.4059133858267717
 10
-17.67850787401575
 20
-0.4192834645669291
 10
-17.68238976377953
 20
-0.4324763779527559
 10
-17.68668897637795
 20
-0.445496062992126
 10
-17.6914094488189
 20
-0.4583385826771654
 10
-17.69654330708661
 20
-0.471007874015748
 10
-17.70209448818898
 20
-0.4835
 10
-17.70806299212598
 20
-0.4958188976377953
 10
-17.71444488188977
 20
-0.5079606299212598
  0
ENDSEC
  0
SECTION
  2
OBJECTS
  0
DICTIONARY
  5
C
330
0
100
AcDbDictionary
281
     1
  3
ACAD_DETAILVIEWSTYLE
350
93
  3
ACAD_GROUP
350
D
  3
ACAD_LAYOUT
350
1A
  3
ACAD_MATERIAL
350
43
  3
ACAD_MLEADERSTYLE
350
5B
  3
ACAD_MLINESTYLE
350
17
  3
ACAD_PLOTSETTINGS
350
19
  3
ACAD_PLOTSTYLENAME
350
E
  3
ACAD_SCALELIST
350
47
  3
ACAD_SECTIONVIEWSTYLE
350
94
  3
ACAD_TABLESTYLE
350
59
  3
ACAD_VISUALSTYLE
350
2A
  3
ACDB_RECOMPOSE_DATA
350
90
  3
AcDbVariableDictionary
350
8C
  0
SUN
  5
5D
330
29
100
AcDbSun
 90
        1
290
     0
 63
     7
421
 16777215
 40
1.0
291
     1
 91
  2455826
 92
 54000000
292
     0
 70
     2
 71
   256
280
     1
  0
DICTIONARY
  5
93
102
{ACAD_REACTORS
330
C
102
}
330
C
100
AcDbDictionary
281
     1
  0
DICTIONARY
  5
D
102
{ACAD_REACTORS
330
C
102
}
330
C
100
AcDbDictionary
281
     1
  0
DICTIONARY
  5
1A
102
{ACAD_REACTORS
330
C
102
}
330
C
100
AcDbDictionary
281
     1
  3
Layout1
350
1E
  3
Layout2
350
26
  3
Model
350
22
  0
DICTIONARY
  5
43
102
{ACAD_REACTORS
330
C
102
}
330
C
100
AcDbDictionary
281
     1
  3
ByBlock
350
45
  3
ByLayer
350
44
  3
Global
350
46
  0
DICTIONARY
  5
5B
102
{ACAD_REACTORS
330
C
102
}
330
C
100
AcDbDictionary
281
     1
  3
Standard
350
5C
  0
DICTIONARY
  5
17
102
{ACAD_REACTORS
330
C
102
}
330
C
100
AcDbDictionary
281
     1
  3
Standard
350
18
  0
DICTIONARY
  5
19
102
{ACAD_REACTORS
330
C
102
}
330
C
100
AcDbDictionary
281
     1
  0
ACDBDICTIONARYWDFLT
  5
E
102
{ACAD_REACTORS
330
C
102
}
330
C
100
AcDbDictionary
281
     1
  3
Normal
350
F
100
AcDbDictionaryWithDefault
340
F
  0
DICTIONARY
  5
47
102
{ACAD_REACTORS
330
C
102
}
330
C
100
AcDbDictionary
281
     1
  3
A0
350
48
  3
A1
350
49
  3
A2
350
4A
  3
A3
350
4B
  3
A4
350
4C
  3
A5
350
4D
  3
A6
350
4E
  3
A7
350
4F
  3
A8
350
50
  3
A9
350
51
  3
B1
350
52
  3
B2
350
53
  3
B3
350
54
  3
B4
350
55
  3
B5
350
56
  3
B6
350
57
  3
B7
350
58
  0
DICTIONARY
  5
94
102
{ACAD_REACTORS
330
C
102
}
330
C
100
AcDbDictionary
281
     1
  0
DICTIONARY
  5
59
102
{ACAD_REACTORS
330
C
102
}
330
C
100
AcDbDictionary
281
     1
  3
Standard
350
5A
  0
DICTIONARY
  5
2A
102
{ACAD_REACTORS
330
C
102
}
330
C
100
AcDbDictionary
281
     1
  3
2dWireframe
350
2F
  3
Basic
350
32
  3
Brighten
350
36
  3
ColorChange
350
3A
  3
Conceptual
350
34
  3
Dim
350
35
  3
EdgeColorOff
350
3D
  3
Facepattern
350
39
  3
Flat
350
2B
  3
FlatWithEdges
350
2C
  3
Gouraud
350
2D
  3
GouraudWithEdges
350
2E
  3
Hidden
350
31
  3
JitterOff
350
3B
  3
Linepattern
350
38
  3
OverhangOff
350
3C
  3
Realistic
350
33
  3
Shaded
350
42
  3
Shaded with edges
350
41
  3
Shades of Gray
350
3E
  3
Sketchy
350
3F
  3
Thicken
350
37
  3
Wireframe
350
30
  3
X-Ray
350
40
  0
XRECORD
  5
90
102
{ACAD_REACTORS
330
C
102
}
330
C
100
AcDbXrecord
280
     1
 90
        1
330
5A
  0
DICTIONARY
  5
8C
102
{ACAD_REACTORS
330
C
102
}
330
C
100
AcDbDictionary
281
     1
  3
CANNOSCALE
350
8D
  3
CMLEADERSTYLE
350
92
  3
CTABLESTYLE
350
91
  0
LAYOUT
  5
1E
102
{ACAD_REACTORS
330
1A
102
}
330
1A
100
AcDbPlotSettings
  1

  2
none_device
  4

  6

 40
0.0
 41
0.0
 42
0.0
 43
0.0
 44
0.0
 45
0.0
 46
0.0
 47
0.0
 48
0.0
 49
0.0
140
0.0
141
0.0
142
1.0
143
1.0
 70
   688
 72
     0
 73
     0
 74
     5
  7

 75
    16
 76
     0
 77
     2
 78
   300
147
1.0
148
0.0
149
0.0
100
AcDbLayout
  1
Layout1
 70
     1
 71
     1
 10
0.0
 20
0.0
 11
12.0
 21
9.0
 12
0.0
 22
0.0
 32
0.0
 14
1.000000000000000E+20
 24
1.000000000000000E+20
 34
1.000000000000000E+20
 15
-1.000000000000000E+20
 25
-1.000000000000000E+20
 35
-1.000000000000000E+20
146
0.0
 13
0.0
 23
0.0
 33
0.0
 16
1.0
 26
0.0
 36
0.0
 17
0.0
 27
1.0
 37
0.0
 76
     0
330
1B
  0
LAYOUT
  5
26
102
{ACAD_REACTORS
330
1A
102
}
330
1A
100
AcDbPlotSettings
  1

  2
none_device
  4

  6

 40
0.0
 41
0.0
 42
0.0
 43
0.0
 44
0.0
 45
0.0
 46
0.0
 47
0.0
 48
0.0
 49
0.0
140
0.0
141
0.0
142
1.0
143
1.0
 70
   688
 72
     0
 73
     0
 74
     5
  7

 75
    16
 76
     0
 77
     2
 78
   300
147
1.0
148
0.0
149
0.0
100
AcDbLayout
  1
Layout2
 70
     1
 71
     2
 10
0.0
 20
0.0
 11
0.0
 21
0.0
 12
0.0
 22
0.0
 32
0.0
 14
0.0
 24
0.0
 34
0.0
 15
0.0
 25
0.0
 35
0.0
146
0.0
 13
0.0
 23
0.0
 33
0.0
 16
1.0
 26
0.0
 36
0.0
 17
0.0
 27
1.0
 37
0.0
 76
     0
330
23
  0
LAYOUT
  5
22
102
{ACAD_REACTORS
330
1A
102
}
330
1A
100
AcDbPlotSettings
  1

  2
none_device
  4
Letter_(8.50_x_11.00_Inches)
  6

 40
6.35
 41
6.35
 42
6.35000508
 43
6.35000508
 44
215.9
 45
279.4
 46
0.0
 47
0.0
 48
0.0
 49
0.0
140
0.0
141
0.0
142
1.0
143
1.0
 70
  1712
 72
     0
 73
     0
 74
     0
  7

 75
     0
 76
     0
 77
     2
 78
   300
147
1.0
148
0.0
149
0.0
100
AcDbLayout
  1
Model
 70
     1
 71
     0
 10
0.0
 20
0.0
 11
12.0
 21
9.0
 12
0.0
 22
0.0
 32
0.0
 14
-22.51656299212598
 24
-7.068929133858267
 34
0.0
 15
-16.62638976377953
 25
0.4597755905511811
 35
0.0
146
0.0
 13
0.0
 23
0.0
 33
0.0
 16
1.0
 26
0.0
 36
0.0
 17
0.0
 27
1.0
 37
0.0
 76
     0
330
1F
331
29
  0
MATERIAL
  5
45
102
{ACAD_REACTORS
330
43
102
}
330
43
100
AcDbMaterial
  1
ByBlock
 72
     1
 94
      127
  0
MATERIAL
  5
44
102
{ACAD_REACTORS
330
43
102
}
330
43
100
AcDbMaterial
  1
ByLayer
 72
     1
 94
      127
  0
MATERIAL
  5
46
102
{ACAD_REACTORS
330
43
102
}
330
43
100
AcDbMaterial
  1
Global
 72
     1
 94
      127
  0
MLEADERSTYLE
  5
5C
102
{ACAD_REACTORS
330
5B
102
}
330
5B
100
AcDbMLeaderStyle
179
     2
170
     2
171
     1
172
     0
 90
        2
 40
0.0
 41
0.0
173
     1
 91
-1056964608
340
14
 92
       -2
290
     1
 42
0.09
291
     1
 43
0.36
  3
Standard
341
0
 44
0.18
300

342
11
174
     1
178
     6
175
     1
176
     0
 93
-1056964608
 45
0.18
292
     0
297
     0
 46
0.18
343
0
 94
-1056964608
 47
1.0
 49
1.0
140
1.0
293
     1
141
0.0
294
     1
177
     0
142
1.0
295
     0
296
     0
143
0.125
271
     0
272
     9
273
     9
298
     0
  0
MLINESTYLE
  5
18
102
{ACAD_REACTORS
330
17
102
}
330
17
100
AcDbMlineStyle
  2
Standard
 70
     0
  3

 62
   256
 51
90.0
 52
90.0
 71
     2
 49
0.5
 62
   256
  6
BYLAYER
 49
-0.5
 62
   256
  6
BYLAYER
  0
ACDBPLACEHOLDER
  5
F
102
{ACAD_REACTORS
330
E
102
}
330
E
  0
SCALE
  5
48
102
{ACAD_REACTORS
330
47
102
}
330
47
100
AcDbScale
 70
     0
300
1:1
140
1.0
141
1.0
290
     1
  0
SCALE
  5
49
102
{ACAD_REACTORS
330
47
102
}
330
47
100
AcDbScale
 70
     0
300
1/128" = 1'-0"
140
0.0078125
141
12.0
290
     0
  0
SCALE
  5
4A
102
{ACAD_REACTORS
330
47
102
}
330
47
100
AcDbScale
 70
     0
300
1/64" = 1'-0"
140
0.015625
141
12.0
290
     0
  0
SCALE
  5
4B
102
{ACAD_REACTORS
330
47
102
}
330
47
100
AcDbScale
 70
     0
300
1/32" = 1'-0"
140
0.03125
141
12.0
290
     0
  0
SCALE
  5
4C
102
{ACAD_REACTORS
330
47
102
}
330
47
100
AcDbScale
 70
     0
300
1/16" = 1'-0"
140
0.0625
141
12.0
290
     0
  0
SCALE
  5
4D
102
{ACAD_REACTORS
330
47
102
}
330
47
100
AcDbScale
 70
     0
300
3/32" = 1'-0"
140
0.09375
141
12.0
290
     0
  0
SCALE
  5
4E
102
{ACAD_REACTORS
330
47
102
}
330
47
100
AcDbScale
 70
     0
300
1/8" = 1'-0"
140
0.125
141
12.0
290
     0
  0
SCALE
  5
4F
102
{ACAD_REACTORS
330
47
102
}
330
47
100
AcDbScale
 70
     0
300
3/16" = 1'-0"
140
0.1875
141
12.0
290
     0
  0
SCALE
  5
50
102
{ACAD_REACTORS
330
47
102
}
330
47
100
AcDbScale
 70
     0
300
1/4" = 1'-0"
140
0.25
141
12.0
290
     0
  0
SCALE
  5
51
102
{ACAD_REACTORS
330
47
102
}
330
47
100
AcDbScale
 70
     0
300
3/8" = 1'-0"
140
0.375
141
12.0
290
     0
  0
SCALE
  5
52
102
{ACAD_REACTORS
330
47
102
}
330
47
100
AcDbScale
 70
     0
300
1/2" = 1'-0"
140
0.5
141
12.0
290
     0
  0
SCALE
  5
53
102
{ACAD_REACTORS
330
47
102
}
330
47
100
AcDbScale
 70
     0
300
3/4" = 1'-0"
140
0.75
141
12.0
290
     0
  0
SCALE
  5
54
102
{ACAD_REACTORS
330
47
102
}
330
47
100
AcDbScale
 70
     0
300
1" = 1'-0"
140
1.0
141
12.0
290
     0
  0
SCALE
  5
55
102
{ACAD_REACTORS
330
47
102
}
330
47
100
AcDbScale
 70
     0
300
1-1/2" = 1'-0"
140
1.5
141
12.0
290
     0
  0
SCALE
  5
56
102
{ACAD_REACTORS
330
47
102
}
330
47
100
AcDbScale
 70
     0
300
3" = 1'-0"
140
3.0
141
12.0
290
     0
  0
SCALE
  5
57
102
{ACAD_REACTORS
330
47
102
}
330
47
100
AcDbScale
 70
     0
300
6" = 1'-0"
140
6.0
141
12.0
290
     0
  0
SCALE
  5
58
102
{ACAD_REACTORS
330
47
102
}
330
47
100
AcDbScale
 70
     0
300
1'-0" = 1'-0"
140
12.0
141
12.0
290
     0
  0
TABLESTYLE
  5
5A
102
{ACAD_REACTORS
330
59
102
}
102
{ACAD_XDICTIONARY
360
8E
102
}
330
59
100
AcDbTableStyle
  3
Standard
 70
     0
 71
     0
 40
0.06
 41
0.06
280
     0
281
     0
  7
Standard
140
0.18
170
     2
 62
     0
 63
   257
283
     0
 90
        4
 91
        0
  1

274
    -2
284
     1
 64
     0
275
    -2
285
     1
 65
     0
276
    -2
286
     1
 66
     0
277
    -2
287
     1
 67
     0
278
    -2
288
     1
 68
     0
279
    -2
289
     1
 69
     0
  7
Standard
140
0.25
170
     5
 62
     0
 63
   257
283
     0
 90
        4
 91
        0
  1

274
    -2
284
     1
 64
     0
275
    -2
285
     1
 65
     0
276
    -2
286
     1
 66
     0
277
    -2
287
     1
 67
     0
278
    -2
288
     1
 68
     0
279
    -2
289
     1
 69
     0
  7
Standard
140
0.18
170
     5
 62
     0
 63
   257
283
     0
 90
        4
 91
        0
  1

274
    -2
284
     1
 64
     0
275
    -2
285
     1
 65
     0
276
    -2
286
     1
 66
     0
277
    -2
287
     1
 67
     0
278
    -2
288
     1
 68
     0
279
    -2
289
     1
 69
     0
  0
VISUALSTYLE
  5
2F
102
{ACAD_REACTORS
330
2A
102
}
330
2A
100
AcDbVisualStyle
  2
2dWireframe
 70
     4
177
     3
291
     0
 70
    58
 90
        0
176
     1
 90
        2
176
     1
 90
        0
176
     1
 90
        0
176
     1
 40
0.6
176
     1
 40
30.0
176
     1
 62
     7
420
 16777215
176
     1
 90
        1
176
     1
 90
        4
176
     1
 62
     7
176
     1
 62
   257
176
     1
 90
        1
176
     1
 90
        1
176
     1
 40
1.0
176
     1
 90
        0
176
     1
 62
   257
176
     1
 40
1.0
176
     1
 90
        1
176
     1
 90
        6
176
     1
 90
        2
176
     1
 62
     7
176
     1
 90
        5
176
     1
 90
        0
176
     1
 90
        0
176
     1
290
     0
176
     1
 90
        1
176
     1
 40
0.0
176
     1
 90
        0
176
     1
290
     1
176
     1
290
     1
176
     1
290
     0
176
     1
290
     0
176
     1
290
     0
176
     1
290
     0
176
     1
290
     0
176
     1
290
     0
176
     1
290
     0
176
     1
 90
       50
176
     1
 40
0.0
176
     1
 40
1.0
176
     1
 90
        0
176
     1
 62
    18
420
        0
176
     1
 90
       50
176
     1
 90
        3
176
     1
 62
     5
420
      255
176
     1
290
     0
176
     1
 90
       50
176
     1
 90
       50
176
     1
 90
       50
176
     1
290
     0
176
     1
 90
       50
176
     1
 62
   256
176
     0
 40
1.0
176
     0
 90
        2
176
     1
  1
strokes_ogs.tif
176
     1
290
     0
176
     1
 40
1.0
176
     1
 40
1.0
176
     1
  0
VISUALSTYLE
  5
32
102
{ACAD_REACTORS
330
2A
102
}
330
2A
100
AcDbVisualStyle
  2
Basic
 70
     7
177
     3
291
     1
 70
    58
 90
        1
176
     1
 90
        0
176
     1
 90
        1
176
     1
 90
        0
176
     1
 40
0.6
176
     1
 40
30.0
176
     1
 62
     7
420
 16777215
176
     1
 90
        0
176
     1
 90
        4
176
     1
 62
     7
176
     1
 62
   257
176
     1
 90
        1
176
     1
 90
        1
176
     1
 40
1.0
176
     1
 90
        8
176
     1
 62
     7
176
     1
 40
1.0
176
     1
 90
        1
176
     1
 90
        6
176
     1
 90
        2
176
     1
 62
     7
176
     1
 90
        5
176
     1
 90
        0
176
     1
 90
        0
176
     1
290
     0
176
     1
 90
        1
176
     1
 40
0.0
176
     1
 90
        0
176
     1
290
     0
176
     1
290
     1
176
     1
290
     1
176
     1
290
     0
176
     1
290
     0
176
     1
290
     0
176
     1
290
     0
176
     1
290
     0
176
     1
290
     0
176
     1
 90
       50
176
     1
 40
0.0
176
     1
 40
1.0
176
     1
 90
        0
176
     1
 62
    18
420
        0
176
     1
 90
       50
176
     1
 90
        3
176
     1
 62
     5
420
      255
176
     1
290
     0
176
     1
 90
       50
176
     1
 90
       50
176
     1
 90
       50
176
     1
290
     0
176
     1
 90
       50
176
     1
 62
   256
176
     0
 40
1.0
176
     0
 90
        2
176
     1
  1
strokes_ogs.tif
176
     1
290
     0
176
     1
 40
1.0
176
     1
 40
1.0
176
     1
  0
VISUALSTYLE
  5
36
102
{ACAD_REACTORS
330
2A
102
}
330
2A
100
AcDbVisualStyle
  2
Brighten
 70
    12
177
     3
291
     1
 70
    58
 90
        2
176
     1
 90
        2
176
     1
 90
        0
176
     1
 90
        0
176
     1
 40
0.6
176
     1
 40
30.0
176
     1
 62
     7
420
 16777215
176
     1
 90
        1
176
     1
 90
        4
176
     1
 62
     7
176
     1
 62
   257
176
     1
 90
        1
176
     1
 90
        1
176
     1
 40
1.0
176
     1
 90
        8
176
     1
 62
     7
176
     1
 40
1.0
176
     1
 90
        1
176
     1
 90
        6
176
     1
 90
        2
176
     1
 62
     7
176
     1
 90
        5
176
     1
 90
        0
176
     1
 90
        0
176
     1
290
     0
176
     1
 90
        1
176
     1
 40
50.0
176
     1
 90
        0
176
     1
290
     0
176
     1
290
     1
176
     1
290
     1
176
     1
290
     0
176
     1
290
     0
176
     1
290
     0
176
     1
290
     0
176
     1
290
     0
176
     1
290
     0
176
     1
 90
       50
176
     1
 40
0.0
176
     1
 40
1.0
176
     1
 90
        0
176
     1
 62
    18
420
        0
176
     1
 90
       50
176
     1
 90
        3
176
     1
 62
     5
420
      255
176
     1
290
     0
176
     1
 90
       50
176
     1
 90
       50
176
     1
 90
       50
176
     1
290
     0
176
     1
 90
       50
176
     1
 62
   256
176
     0
 40
1.0
176
     0
 90
        2
176
     1
  1
strokes_ogs.tif
176
     1
290
     0
176
     1
 40
1.0
176
     1
 40
1.0
176
     1
  0
VISUALSTYLE
  5
3A
102
{ACAD_REACTORS
330
2A
102
}
330
2A
100
AcDbVisualStyle
  2
ColorChange
 70
    16
177
     3
291
     1
 70
    58
 90
        2
176
     1
 90
        2
176
     1
 90
        3
176
     1
 90
        0
176
     1
 40
0.6
176
     1
 40
30.0
176
     1
 62
     8
420
  8421504
176
     1
 90
        1
176
     1
 90
        4
176
     1
 62
     7
176
     1
 62
   257
176
     1
 90
        1
176
     1
 90
        1
176
     1
 40
1.0
176
     1
 90
        8
176
     1
 62
     8
420
  8421504
176
     1
 40
1.0
176
     1
 90
        1
176
     1
 90
        6
176
     1
 90
        2
176
     1
 62
     7
176
     1
 90
        5
176
     1
 90
        0
176
     1
 90
        0
176
     1
290
     0
176
     1
 90
        1
176
     1
 40
0.0
176
     1
 90
        0
176
     1
290
     0
176
     1
290
     1
176
     1
290
     1
176
     1
290
     0
176
     1
290
     0
176
     1
290
     0
176
     1
290
     0
176
     1
290
     0
176
     1
290
     0
176
     1
 90
       50
176
     1
 40
0.0
176
     1
 40
1.0
176
     1
 90
        0
176
     1
 62
    18
420
        0
176
     1
 90
       50
176
     1
 90
        3
176
     1
 62
     5
420
      255
176
     1
290
     0
176
     1
 90
       50
176
     1
 90
       50
176
     1
 90
       50
176
     1
290
     0
176
     1
 90
       50
176
     1
 62
   256
176
     0
 40
1.0
176
     0
 90
        2
176
     1
  1
strokes_ogs.tif
176
     1
290
     0
176
     1
 40
1.0
176
     1
 40
1.0
176
     1
  0
VISUALSTYLE
  5
34
102
{ACAD_REACTORS
330
2A
102
}
330
2A
100
AcDbVisualStyle
  2
Conceptual
 70
     9
177
     3
291
     0
 70
    58
 90
        3
176
     1
 90
        2
176
     1
 90
        0
176
     1
 90
        0
176
     1
 40
0.6
176
     1
 40
30.0
176
     1
 62
     7
420
 16777215
176
     1
 90
        2
176
     1
 90
        2
176
     1
 62
     7
176
     1
 62
   257
176
     1
 90
        1
176
     1
 90
        1
176
     1
 40
179.0
176
     1
 90
        8
176
     1
 62
     7
176
     1
 40
1.0
176
     1
 90
        1
176
     1
 90
        6
176
     1
 90
        2
176
     1
 62
     7
176
     1
 90
        3
176
     1
 90
        0
176
     1
 90
        0
176
     1
290
     0
176
     1
 90
        1
176
     1
 40
0.0
176
     1
 90
        0
176
     1
290
     0
176
     1
290
     1
176
     1
290
     1
176
     1
290
     0
176
     1
290
     0
176
     1
290
     0
176
     1
290
     0
176
     1
290
     0
176
     1
290
     0
176
     1
 90
       50
176
     1
 40
0.0
176
     1
 40
1.0
176
     1
 90
        0
176
     1
 62
    18
420
        0
176
     1
 90
       50
176
     1
 90
        3
176
     1
 62
     5
420
      255
176
     1
290
     0
176
     1
 90
       50
176
     1
 90
       50
176
     1
 90
       50
176
     1
290
     0
176
     1
 90
       50
176
     1
 62
   256
176
     0
 40
1.0
176
     0
 90
        2
176
     1
  1
strokes_ogs.tif
176
     1
290
     0
176
     1
 40
1.0
176
     1
 40
1.0
176
     1
  0
VISUALSTYLE
  5
35
102
{ACAD_REACTORS
330
2A
102
}
330
2A
100
AcDbVisualStyle
  2
Dim
 70
    11
177
     3
291
     1
 70
    58
 90
        2
176
     1
 90
        2
176
     1
 90
        0
176
     1
 90
        0
176
     1
 40
0.6
176
     1
 40
30.0
176
     1
 62
     7
420
 16777215
176
     1
 90
        1
176
     1
 90
        4
176
     1
 62
     7
176
     1
 62
   257
176
     1
 90
        1
176
     1
 90
        1
176
     1
 40
1.0
176
     1
 90
        8
176
     1
 62
     7
176
     1
 40
1.0
176
     1
 90
        1
176
     1
 90
        6
176
     1
 90
        2
176
     1
 62
     7
176
     1
 90
        5
176
     1
 90
        0
176
     1
 90
        0
176
     1
290
     0
176
     1
 90
        1
176
     1
 40
-50.0
176
     1
 90
        0
176
     1
290
     0
176
     1
290
     1
176
     1
290
     1
176
     1
290
     0
176
     1
290
     0
176
     1
290
     0
176
     1
290
     0
176
     1
290
     0
176
     1
290
     0
176
     1
 90
       50
176
     1
 40
0.0
176
     1
 40
1.0
176
     1
 90
        0
176
     1
 62
    18
420
        0
176
     1
 90
       50
176
     1
 90
        3
176
     1
 62
     5
420
      255
176
     1
290
     0
176
     1
 90
       50
176
     1
 90
       50
176
     1
 90
       50
176
     1
290
     0
176
     1
 90
       50
176
     1
 62
   256
176
     0
 40
1.0
176
     0
 90
        2
176
     1
  1
strokes_ogs.tif
176
     1
290
     0
176
     1
 40
1.0
176
     1
 40
1.0
176
     1
  0
VISUALSTYLE
  5
3D
102
{ACAD_REACTORS
330
2A
102
}
330
2A
100
AcDbVisualStyle
  2
EdgeColorOff
 70
    22
177
     3
291
     1
 70
    58
 90
        2
176
     0
 90
        2
176
     0
 90
        0
176
     0
 90
        0
176
     0
 40
0.6
176
     0
 40
30.0
176
     0
 62
     7
420
 16777215
176
     0
 90
        1
176
     0
 90
        4
176
     0
 62
     7
176
     0
 62
   257
176
     0
 90
        1
176
     0
 90
        1
176
     0
 40
1.0
176
     0
 90
        8
176
     2
 62
     7
176
     0
 40
1.0
176
     0
 90
        1
176
     0
 90
        6
176
     0
 90
        2
176
     0
 62
     7
176
     0
 90
        5
176
     0
 90
        0
176
     0
 90
        0
176
     0
290
     0
176
     0
 90
        1
176
     0
 40
0.0
176
     0
 90
        0
176
     0
290
     0
176
     0
290
     1
176
     0
290
     1
176
     0
290
     0
176
     0
290
     0
176
     0
290
     0
176
     0
290
     0
176
     0
290
     0
176
     0
290
     0
176
     0
 90
       50
176
     0
 40
0.0
176
     0
 40
1.0
176
     0
 90
        0
176
     0
 62
    18
420
        0
176
     0
 90
       50
176
     0
 90
        3
176
     0
 62
     5
420
      255
176
     0
290
     0
176
     0
 90
       50
176
     0
 90
       50
176
     0
 90
       50
176
     0
290
     0
176
     0
 90
       50
176
     0
 62
   256
176
     0
 40
1.0
176
     0
 90
        2
176
     0
  1
strokes_ogs.tif
176
     0
290
     0
176
     0
 40
1.0
176
     0
 40
1.0
176
     0
  0
VISUALSTYLE
  5
39
102
{ACAD_REACTORS
330
2A
102
}
330
2A
100
AcDbVisualStyle
  2
Facepattern
 70
    15
177
     3
291
     1
 70
    58
 90
        2
176
     1
 90
        2
176
     1
 90
        0
176
     1
 90
        0
176
     1
 40
0.6
176
     1
 40
30.0
176
     1
 62
     7
420
 16777215
176
     1
 90
        1
176
     1
 90
        4
176
     1
 62
     7
176
     1
 62
   257
176
     1
 90
        1
176
     1
 90
        1
176
     1
 40
1.0
176
     1
 90
        8
176
     1
 62
     7
176
     1
 40
1.0
176
     1
 90
        1
176
     1
 90
        6
176
     1
 90
        2
176
     1
 62
     7
176
     1
 90
        5
176
     1
 90
        0
176
     1
 90
        0
176
     1
290
     0
176
     1
 90
        1
176
     1
 40
0.0
176
     1
 90
        0
176
     1
290
     0
176
     1
290
     1
176
     1
290
     1
176
     1
290
     0
176
     1
290
     0
176
     1
290
     0
176
     1
290
     0
176
     1
290
     0
176
     1
290
     0
176
     1
 90
       50
176
     1
 40
0.0
176
     1
 40
1.0
176
     1
 90
        0
176
     1
 62
    18
420
        0
176
     1
 90
       50
176
     1
 90
        3
176
     1
 62
     5
420
      255
176
     1
290
     0
176
     1
 90
       50
176
     1
 90
       50
176
     1
 90
       50
176
     1
290
     0
176
     1
 90
       50
176
     1
 62
   256
176
     0
 40
1.0
176
     0
 90
        2
176
     1
  1
strokes_ogs.tif
176
     1
290
     0
176
     1
 40
1.0
176
     1
 40
1.0
176
     1
  0
VISUALSTYLE
  5
2B
102
{ACAD_REACTORS
330
2A
102
}
330
2A
100
AcDbVisualStyle
  2
Flat
 70
     0
177
     3
291
     1
 70
    58
 90
        2
176
     1
 90
        1
176
     1
 90
        1
176
     1
 90
        2
176
     1
 40
0.6
176
     1
 40
30.0
176
     1
 62
     7
420
 16777215
176
     1
 90
        0
176
     1
 90
        0
176
     1
 62
     7
176
     1
 62
   257
176
     1
 90
        1
176
     1
 90
        1
176
     1
 40
1.0
176
     1
 90
        8
176
     1
 62
     7
176
     1
 40
1.0
176
     1
 90
        1
176
     1
 90
        6
176
     1
 90
        2
176
     1
 62
     7
176
     1
 90
        5
176
     1
 90
        0
176
     1
 90
        0
176
     1
290
     0
176
     1
 90
       13
176
     1
 40
0.0
176
     1
 90
        0
176
     1
290
     0
176
     1
290
     1
176
     1
290
     1
176
     1
290
     0
176
     1
290
     0
176
     1
290
     0
176
     1
290
     0
176
     1
290
     0
176
     1
290
     0
176
     1
 90
       50
176
     1
 40
0.0
176
     1
 40
1.0
176
     1
 90
        0
176
     1
 62
    18
420
        0
176
     1
 90
       50
176
     1
 90
        3
176
     1
 62
     5
420
      255
176
     1
290
     0
176
     1
 90
       50
176
     1
 90
       50
176
     1
 90
       50
176
     1
290
     0
176
     1
 90
       50
176
     1
 62
   256
176
     0
 40
1.0
176
     0
 90
        2
176
     1
  1
strokes_ogs.tif
176
     1
290
     0
176
     1
 40
1.0
176
     1
 40
1.0
176
     1
  0
VISUALSTYLE
  5
2C
102
{ACAD_REACTORS
330
2A
102
}
330
2A
100
AcDbVisualStyle
  2
FlatWithEdges
 70
     1
177
     3
291
     1
 70
    58
 90
        2
176
     1
 90
        1
176
     1
 90
        1
176
     1
 90
        2
176
     1
 40
0.6
176
     1
 40
30.0
176
     1
 62
     7
420
 16777215
176
     1
 90
        1
176
     1
 90
        0
176
     1
 62
     7
176
     1
 62
   257
176
     1
 90
        1
176
     1
 90
        1
176
     1
 40
1.0
176
     1
 90
        0
176
     1
 62
   257
176
     1
 40
1.0
176
     1
 90
        1
176
     1
 90
        6
176
     1
 90
        2
176
     1
 62
     7
176
     1
 90
        5
176
     1
 90
        0
176
     1
 90
        0
176
     1
290
     0
176
     1
 90
       13
176
     1
 40
0.0
176
     1
 90
        0
176
     1
290
     0
176
     1
290
     1
176
     1
290
     1
176
     1
290
     0
176
     1
290
     0
176
     1
290
     0
176
     1
290
     0
176
     1
290
     0
176
     1
290
     0
176
     1
 90
       50
176
     1
 40
0.0
176
     1
 40
1.0
176
     1
 90
        0
176
     1
 62
    18
420
        0
176
     1
 90
       50
176
     1
 90
        3
176
     1
 62
     5
420
      255
176
     1
290
     0
176
     1
 90
       50
176
     1
 90
       50
176
     1
 90
       50
176
     1
290
     0
176
     1
 90
       50
176
     1
 62
   256
176
     0
 40
1.0
176
     0
 90
        2
176
     1
  1
strokes_ogs.tif
176
     1
290
     0
176
     1
 40
1.0
176
     1
 40
1.0
176
     1
  0
VISUALSTYLE
  5
2D
102
{ACAD_REACTORS
330
2A
102
}
330
2A
100
AcDbVisualStyle
  2
Gouraud
 70
     2
177
     3
291
     1
 70
    58
 90
        2
176
     1
 90
        2
176
     1
 90
        1
176
     1
 90
        2
176
     1
 40
0.6
176
     1
 40
30.0
176
     1
 62
     7
420
 16777215
176
     1
 90
        0
176
     1
 90
        0
176
     1
 62
     7
176
     1
 62
   257
176
     1
 90
        1
176
     1
 90
        1
176
     1
 40
1.0
176
     1
 90
        0
176
     1
 62
     7
176
     1
 40
1.0
176
     1
 90
        1
176
     1
 90
        6
176
     1
 90
        2
176
     1
 62
     7
176
     1
 90
        5
176
     1
 90
        0
176
     1
 90
        0
176
     1
290
     0
176
     1
 90
       13
176
     1
 40
0.0
176
     1
 90
        0
176
     1
290
     0
176
     1
290
     1
176
     1
290
     1
176
     1
290
     0
176
     1
290
     0
176
     1
290
     0
176
     1
290
     0
176
     1
290
     0
176
     1
290
     0
176
     1
 90
       50
176
     1
 40
0.0
176
     1
 40
1.0
176
     1
 90
        0
176
     1
 62
    18
420
        0
176
     1
 90
       50
176
     1
 90
        3
176
     1
 62
     5
420
      255
176
     1
290
     0
176
     1
 90
       50
176
     1
 90
       50
176
     1
 90
       50
176
     1
290
     0
176
     1
 90
       50
176
     1
 62
   256
176
     0
 40
1.0
176
     0
 90
        2
176
     1
  1
strokes_ogs.tif
176
     1
290
     0
176
     1
 40
1.0
176
     1
 40
1.0
176
     1
  0
VISUALSTYLE
  5
2E
102
{ACAD_REACTORS
330
2A
102
}
330
2A
100
AcDbVisualStyle
  2
GouraudWithEdges
 70
     3
177
     3
291
     1
 70
    58
 90
        2
176
     1
 90
        2
176
     1
 90
        1
176
     1
 90
        2
176
     1
 40
0.6
176
     1
 40
30.0
176
     1
 62
     7
420
 16777215
176
     1
 90
        1
176
     1
 90
        0
176
     1
 62
     7
176
     1
 62
   257
176
     1
 90
        1
176
     1
 90
        1
176
     1
 40
1.0
176
     1
 90
        0
176
     1
 62
   257
176
     1
 40
1.0
176
     1
 90
        1
176
     1
 90
        6
176
     1
 90
        2
176
     1
 62
     7
176
     1
 90
        5
176
     1
 90
        0
176
     1
 90
        0
176
     1
290
     0
176
     1
 90
       13
176
     1
 40
0.0
176
     1
 90
        0
176
     1
290
     0
176
     1
290
     1
176
     1
290
     1
176
     1
290
     0
176
     1
290
     0
176
     1
290
     0
176
     1
290
     0
176
     1
290
     0
176
     1
290
     0
176
     1
 90
       50
176
     1
 40
0.0
176
     1
 40
1.0
176
     1
 90
        0
176
     1
 62
    18
420
        0
176
     1
 90
       50
176
     1
 90
        3
176
     1
 62
     5
420
      255
176
     1
290
     0
176
     1
 90
       50
176
     1
 90
       50
176
     1
 90
       50
176
     1
290
     0
176
     1
 90
       50
176
     1
 62
   256
176
     0
 40
1.0
176
     0
 90
        2
176
     1
  1
strokes_ogs.tif
176
     1
290
     0
176
     1
 40
1.0
176
     1
 40
1.0
176
     1
  0
VISUALSTYLE
  5
31
102
{ACAD_REACTORS
330
2A
102
}
330
2A
100
AcDbVisualStyle
  2
Hidden
 70
     6
177
     3
291
     0
 70
    58
 90
        1
176
     1
 90
        2
176
     1
 90
        2
176
     1
 90
        0
176
     1
 40
0.6
176
     1
 40
30.0
176
     1
 62
     7
420
 16777215
176
     1
 90
        2
176
     1
 90
        2
176
     1
 62
     7
176
     1
 62
   257
176
     1
 90
        2
176
     1
 90
        1
176
     1
 40
40.0
176
     1
 90
        0
176
     1
 62
   257
176
     1
 40
1.0
176
     1
 90
        1
176
     1
 90
        6
176
     1
 90
        2
176
     1
 62
     7
176
     1
 90
        3
176
     1
 90
        0
176
     1
 90
        0
176
     1
290
     0
176
     1
 90
        1
176
     1
 40
0.0
176
     1
 90
        0
176
     1
290
     0
176
     1
290
     1
176
     1
290
     1
176
     1
290
     0
176
     1
290
     0
176
     1
290
     0
176
     1
290
     0
176
     1
290
     0
176
     1
290
     0
176
     1
 90
       50
176
     1
 40
0.0
176
     1
 40
1.0
176
     1
 90
        0
176
     1
 62
    18
420
        0
176
     1
 90
       50
176
     1
 90
        3
176
     1
 62
     5
420
      255
176
     1
290
     0
176
     1
 90
       50
176
     1
 90
       50
176
     1
 90
       50
176
     1
290
     0
176
     1
 90
       50
176
     1
 62
   256
176
     0
 40
1.0
176
     0
 90
        2
176
     1
  1
strokes_ogs.tif
176
     1
290
     0
176
     1
 40
1.0
176
     1
 40
1.0
176
     1
  0
VISUALSTYLE
  5
3B
102
{ACAD_REACTORS
330
2A
102
}
330
2A
100
AcDbVisualStyle
  2
JitterOff
 70
    20
177
     3
291
     1
 70
    58
 90
        2
176
     0
 90
        2
176
     0
 90
        0
176
     0
 90
        0
176
     0
 40
0.6
176
     0
 40
30.0
176
     0
 62
     7
420
 16777215
176
     0
 90
        1
176
     0
 90
        4
176
     0
 62
     7
176
     0
 62
   257
176
     0
 90
        1
176
     0
 90
        1
176
     0
 40
1.0
176
     0
 90
       10
176
     2
 62
     7
176
     0
 40
1.0
176
     0
 90
        1
176
     0
 90
        6
176
     0
 90
        2
176
     0
 62
     7
176
     0
 90
        5
176
     0
 90
        0
176
     0
 90
        0
176
     0
290
     0
176
     0
 90
        1
176
     0
 40
0.0
176
     0
 90
        0
176
     0
290
     0
176
     0
290
     1
176
     0
290
     1
176
     0
290
     0
176
     0
290
     0
176
     0
290
     0
176
     0
290
     0
176
     0
290
     0
176
     0
290
     0
176
     0
 90
       50
176
     0
 40
0.0
176
     0
 40
1.0
176
     0
 90
        0
176
     0
 62
    18
420
        0
176
     0
 90
       50
176
     0
 90
        3
176
     0
 62
     5
420
      255
176
     0
290
     0
176
     0
 90
       50
176
     0
 90
       50
176
     0
 90
       50
176
     0
290
     0
176
     0
 90
       50
176
     0
 62
   256
176
     0
 40
1.0
176
     0
 90
        2
176
     0
  1
strokes_ogs.tif
176
     0
290
     0
176
     0
 40
1.0
176
     0
 40
1.0
176
     0
  0
VISUALSTYLE
  5
38
102
{ACAD_REACTORS
330
2A
102
}
330
2A
100
AcDbVisualStyle
  2
Linepattern
 70
    14
177
     3
291
     1
 70
    58
 90
        2
176
     1
 90
        2
176
     1
 90
        0
176
     1
 90
        0
176
     1
 40
0.6
176
     1
 40
30.0
176
     1
 62
     7
420
 16777215
176
     1
 90
        1
176
     1
 90
        4
176
     1
 62
     7
176
     1
 62
   257
176
     1
 90
        7
176
     1
 90
        7
176
     1
 40
1.0
176
     1
 90
        8
176
     1
 62
     7
176
     1
 40
1.0
176
     1
 90
        1
176
     1
 90
        6
176
     1
 90
        2
176
     1
 62
     7
176
     1
 90
        5
176
     1
 90
        0
176
     1
 90
        0
176
     1
290
     0
176
     1
 90
        1
176
     1
 40
0.0
176
     1
 90
        0
176
     1
290
     0
176
     1
290
     1
176
     1
290
     1
176
     1
290
     0
176
     1
290
     0
176
     1
290
     0
176
     1
290
     0
176
     1
290
     0
176
     1
290
     0
176
     1
 90
       50
176
     1
 40
0.0
176
     1
 40
1.0
176
     1
 90
        0
176
     1
 62
    18
420
        0
176
     1
 90
       50
176
     1
 90
        3
176
     1
 62
     5
420
      255
176
     1
290
     0
176
     1
 90
       50
176
     1
 90
       50
176
     1
 90
       50
176
     1
290
     0
176
     1
 90
       50
176
     1
 62
   256
176
     0
 40
1.0
176
     0
 90
        2
176
     1
  1
strokes_ogs.tif
176
     1
290
     0
176
     1
 40
1.0
176
     1
 40
1.0
176
     1
  0
VISUALSTYLE
  5
3C
102
{ACAD_REACTORS
330
2A
102
}
330
2A
100
AcDbVisualStyle
  2
OverhangOff
 70
    21
177
     3
291
     1
 70
    58
 90
        2
176
     0
 90
        2
176
     0
 90
        0
176
     0
 90
        0
176
     0
 40
0.6
176
     0
 40
30.0
176
     0
 62
     7
420
 16777215
176
     0
 90
        1
176
     0
 90
        4
176
     0
 62
     7
176
     0
 62
   257
176
     0
 90
        1
176
     0
 90
        1
176
     0
 40
1.0
176
     0
 90
        9
176
     2
 62
     7
176
     0
 40
1.0
176
     0
 90
        1
176
     0
 90
        6
176
     0
 90
        2
176
     0
 62
     7
176
     0
 90
        5
176
     0
 90
        0
176
     0
 90
        0
176
     0
290
     0
176
     0
 90
        1
176
     0
 40
0.0
176
     0
 90
        0
176
     0
290
     0
176
     0
290
     1
176
     0
290
     1
176
     0
290
     0
176
     0
290
     0
176
     0
290
     0
176
     0
290
     0
176
     0
290
     0
176
     0
290
     0
176
     0
 90
       50
176
     0
 40
0.0
176
     0
 40
1.0
176
     0
 90
        0
176
     0
 62
    18
420
        0
176
     0
 90
       50
176
     0
 90
        3
176
     0
 62
     5
420
      255
176
     0
290
     0
176
     0
 90
       50
176
     0
 90
       50
176
     0
 90
       50
176
     0
290
     0
176
     0
 90
       50
176
     0
 62
   256
176
     0
 40
1.0
176
     0
 90
        2
176
     0
  1
strokes_ogs.tif
176
     0
290
     0
176
     0
 40
1.0
176
     0
 40
1.0
176
     0
  0
VISUALSTYLE
  5
33
102
{ACAD_REACTORS
330
2A
102
}
330
2A
100
AcDbVisualStyle
  2
Realistic
 70
     8
177
     3
291
     0
 70
    58
 90
        2
176
     1
 90
        3
176
     1
 90
        0
176
     1
 90
        2
176
     1
 40
0.6
176
     1
 40
30.0
176
     1
 62
     7
420
 16777215
176
     1
 90
        0
176
     1
 90
        0
176
     1
 62
     7
176
     1
 62
   257
176
     1
 90
        1
176
     1
 90
        1
176
     1
 40
1.0
176
     1
 90
        8
176
     1
 62
   257
176
     1
 40
1.0
176
     1
 90
        1
176
     1
 90
        6
176
     1
 90
        2
176
     1
 62
     7
176
     1
 90
        3
176
     1
 90
        0
176
     1
 90
        0
176
     1
290
     0
176
     1
 90
       13
176
     1
 40
0.0
176
     1
 90
        0
176
     1
290
     0
176
     1
290
     1
176
     1
290
     1
176
     1
290
     0
176
     1
290
     0
176
     1
290
     0
176
     1
290
     0
176
     1
290
     0
176
     1
290
     0
176
     1
 90
       50
176
     1
 40
0.0
176
     1
 40
1.0
176
     1
 90
        0
176
     1
 62
    18
420
        0
176
     1
 90
       50
176
     1
 90
        3
176
     1
 62
     5
420
      255
176
     1
290
     0
176
     1
 90
       50
176
     1
 90
       50
176
     1
 90
       50
176
     1
290
     0
176
     1
 90
       50
176
     1
 62
   256
176
     0
 40
1.0
176
     0
 90
        2
176
     1
  1
strokes_ogs.tif
176
     1
290
     0
176
     1
 40
1.0
176
     1
 40
1.0
176
     1
  0
VISUALSTYLE
  5
42
102
{ACAD_REACTORS
330
2A
102
}
330
2A
100
AcDbVisualStyle
  2
Shaded
 70
    27
177
     3
291
     0
 70
    58
 90
        2
176
     1
 90
        2
176
     1
 90
        1
176
     1
 90
        2
176
     1
 40
0.6
176
     1
 40
30.0
176
     1
 62
     7
420
 16777215
176
     1
 90
        0
176
     1
 90
        4
176
     1
 62
     7
176
     1
 62
   257
176
     1
 90
        1
176
     1
 90
        1
176
     1
 40
1.0
176
     1
 90
        8
176
     1
 62
   257
176
     1
 40
1.0
176
     1
 90
        1
176
     1
 90
        6
176
     1
 90
        2
176
     1
 62
     8
420
  7895160
176
     1
 90
        3
176
     1
 90
        0
176
     1
 90
        0
176
     1
290
     0
176
     1
 90
        5
176
     1
 40
0.0
176
     1
 90
        0
176
     1
290
     0
176
     1
290
     1
176
     1
290
     1
176
     1
290
     0
176
     1
290
     0
176
     1
290
     0
176
     1
290
     0
176
     1
290
     0
176
     1
290
     0
176
     1
 90
       50
176
     1
 40
0.0
176
     1
 40
1.0
176
     1
 90
        0
176
     1
 62
    18
420
        0
176
     1
 90
       50
176
     1
 90
        3
176
     1
 62
     5
420
      255
176
     1
290
     0
176
     1
 90
       50
176
     1
 90
       50
176
     1
 90
       50
176
     1
290
     0
176
     1
 90
       50
176
     1
 62
   256
176
     0
 40
1.0
176
     0
 90
        2
176
     1
  1
strokes_ogs.tif
176
     1
290
     0
176
     1
 40
1.0
176
     1
 40
1.0
176
     1
  0
VISUALSTYLE
  5
41
102
{ACAD_REACTORS
330
2A
102
}
330
2A
100
AcDbVisualStyle
  2
Shaded with edges
 70
    26
177
     3
291
     0
 70
    58
 90
        2
176
     1
 90
        2
176
     1
 90
        1
176
     1
 90
        2
176
     1
 40
0.6
176
     1
 40
30.0
176
     1
 62
     7
420
 16777215
176
     1
 90
        1
176
     1
 90
       10
176
     1
 62
     7
176
     1
 62
   257
176
     1
 90
        2
176
     1
 90
        1
176
     1
 40
1.0
176
     1
 90
        8
176
     1
 62
   257
176
     1
 40
1.0
176
     1
 90
        1
176
     1
 90
        6
176
     1
 90
        2
176
     1
 62
     7
176
     1
 90
        3
176
     1
 90
        0
176
     1
 90
        0
176
     1
290
     0
176
     1
 90
        5
176
     1
 40
0.0
176
     1
 90
        0
176
     1
290
     0
176
     1
290
     1
176
     1
290
     1
176
     1
290
     0
176
     1
290
     0
176
     1
290
     0
176
     1
290
     0
176
     1
290
     0
176
     1
290
     0
176
     1
 90
       50
176
     1
 40
0.0
176
     1
 40
1.0
176
     1
 90
        0
176
     1
 62
    18
420
        0
176
     1
 90
       50
176
     1
 90
        3
176
     1
 62
     5
420
      255
176
     1
290
     0
176
     1
 90
       50
176
     1
 90
       50
176
     1
 90
       50
176
     1
290
     0
176
     1
 90
       50
176
     1
 62
   256
176
     0
 40
1.0
176
     0
 90
        2
176
     1
  1
strokes_ogs.tif
176
     1
290
     0
176
     1
 40
1.0
176
     1
 40
1.0
176
     1
  0
VISUALSTYLE
  5
3E
102
{ACAD_REACTORS
330
2A
102
}
330
2A
100
AcDbVisualStyle
  2
Shades of Gray
 70
    23
177
     3
291
     0
 70
    58
 90
        2
176
     1
 90
        2
176
     1
 90
        3
176
     1
 90
        0
176
     1
 40
0.6
176
     1
 40
30.0
176
     1
 62
     7
420
 16777215
176
     1
 90
        2
176
     1
 90
        2
176
     1
 62
     7
176
     1
 62
     7
176
     1
 90
        1
176
     1
 90
        1
176
     1
 40
40.0
176
     1
 90
        8
176
     1
 62
     7
176
     1
 40
1.0
176
     1
 90
        1
176
     1
 90
        6
176
     1
 90
        2
176
     1
 62
     7
176
     1
 90
        3
176
     1
 90
        0
176
     1
 90
        0
176
     1
290
     0
176
     1
 90
        1
176
     1
 40
0.0
176
     1
 90
        0
176
     1
290
     0
176
     1
290
     1
176
     1
290
     1
176
     1
290
     0
176
     1
290
     0
176
     1
290
     0
176
     1
290
     0
176
     1
290
     0
176
     1
290
     0
176
     1
 90
       50
176
     1
 40
0.0
176
     1
 40
1.0
176
     1
 90
        0
176
     1
 62
    18
420
        0
176
     1
 90
       50
176
     1
 90
        3
176
     1
 62
     5
420
      255
176
     1
290
     0
176
     1
 90
       50
176
     1
 90
       50
176
     1
 90
       50
176
     1
290
     0
176
     1
 90
       50
176
     1
 62
   256
176
     0
 40
1.0
176
     0
 90
        2
176
     1
  1
strokes_ogs.tif
176
     1
290
     0
176
     1
 40
1.0
176
     1
 40
1.0
176
     1
  0
VISUALSTYLE
  5
3F
102
{ACAD_REACTORS
330
2A
102
}
330
2A
100
AcDbVisualStyle
  2
Sketchy
 70
    24
177
     3
291
     0
 70
    58
 90
        1
176
     1
 90
        2
176
     1
 90
        2
176
     1
 90
        0
176
     1
 40
0.6
176
     1
 40
30.0
176
     1
 62
     7
420
 16777215
176
     1
 90
        2
176
     1
 90
        2
176
     1
 62
     7
176
     1
 62
     7
176
     1
 90
        1
176
     1
 90
        1
176
     1
 40
40.0
176
     1
 90
       11
176
     1
 62
     7
176
     1
 40
1.0
176
     1
 90
        1
176
     1
 90
        6
176
     1
 90
        2
176
     1
 62
     7
176
     1
 90
        6
176
     1
 90
        0
176
     1
 90
        0
176
     1
290
     0
176
     1
 90
        1
176
     1
 40
0.0
176
     1
 90
        0
176
     1
290
     0
176
     1
290
     1
176
     1
290
     1
176
     1
290
     0
176
     1
290
     0
176
     1
290
     0
176
     1
290
     0
176
     1
290
     0
176
     1
290
     0
176
     1
 90
       50
176
     1
 40
0.0
176
     1
 40
1.0
176
     1
 90
        0
176
     1
 62
    18
420
        0
176
     1
 90
       50
176
     1
 90
        3
176
     1
 62
     5
420
      255
176
     1
290
     0
176
     1
 90
       50
176
     1
 90
       50
176
     1
 90
       50
176
     1
290
     0
176
     1
 90
       50
176
     1
 62
   256
176
     0
 40
1.0
176
     0
 90
        2
176
     1
  1
strokes_ogs.tif
176
     1
290
     0
176
     1
 40
1.0
176
     1
 40
1.0
176
     1
  0
VISUALSTYLE
  5
37
102
{ACAD_REACTORS
330
2A
102
}
330
2A
100
AcDbVisualStyle
  2
Thicken
 70
    13
177
     3
291
     1
 70
    58
 90
        2
176
     1
 90
        2
176
     1
 90
        0
176
     1
 90
        0
176
     1
 40
0.6
176
     1
 40
30.0
176
     1
 62
     7
420
 16777215
176
     1
 90
        1
176
     1
 90
        4
176
     1
 62
     7
176
     1
 62
   257
176
     1
 90
        1
176
     1
 90
        1
176
     1
 40
1.0
176
     1
 90
       12
176
     1
 62
     7
176
     1
 40
1.0
176
     1
 90
        1
176
     1
 90
        6
176
     1
 90
        2
176
     1
 62
     7
176
     1
 90
        5
176
     1
 90
        0
176
     1
 90
        0
176
     1
290
     0
176
     1
 90
        1
176
     1
 40
0.0
176
     1
 90
        0
176
     1
290
     0
176
     1
290
     1
176
     1
290
     1
176
     1
290
     0
176
     1
290
     0
176
     1
290
     0
176
     1
290
     0
176
     1
290
     0
176
     1
290
     0
176
     1
 90
       50
176
     1
 40
0.0
176
     1
 40
1.0
176
     1
 90
        0
176
     1
 62
    18
420
        0
176
     1
 90
       50
176
     1
 90
        3
176
     1
 62
     5
420
      255
176
     1
290
     0
176
     1
 90
       50
176
     1
 90
       50
176
     1
 90
       50
176
     1
290
     0
176
     1
 90
       50
176
     1
 62
   256
176
     0
 40
1.0
176
     0
 90
        2
176
     1
  1
strokes_ogs.tif
176
     1
290
     0
176
     1
 40
1.0
176
     1
 40
1.0
176
     1
  0
VISUALSTYLE
  5
30
102
{ACAD_REACTORS
330
2A
102
}
330
2A
100
AcDbVisualStyle
  2
Wireframe
 70
     5
177
     3
291
     0
 70
    58
 90
        0
176
     1
 90
        2
176
     1
 90
        0
176
     1
 90
        0
176
     1
 40
0.6
176
     1
 40
30.0
176
     1
 62
     7
420
 16777215
176
     1
 90
        1
176
     1
 90
        4
176
     1
 62
     7
176
     1
 62
   257
176
     1
 90
        1
176
     1
 90
        1
176
     1
 40
1.0
176
     1
 90
        0
176
     1
 62
   257
176
     1
 40
1.0
176
     1
 90
        1
176
     1
 90
        6
176
     1
 90
        2
176
     1
 62
     7
176
     1
 90
        3
176
     1
 90
        0
176
     1
 90
        0
176
     1
290
     0
176
     1
 90
        1
176
     1
 40
0.0
176
     1
 90
        0
176
     1
290
     0
176
     1
290
     1
176
     1
290
     1
176
     1
290
     0
176
     1
290
     0
176
     1
290
     0
176
     1
290
     0
176
     1
290
     0
176
     1
290
     0
176
     1
 90
       50
176
     1
 40
0.0
176
     1
 40
1.0
176
     1
 90
        0
176
     1
 62
    18
420
        0
176
     1
 90
       50
176
     1
 90
        3
176
     1
 62
     5
420
      255
176
     1
290
     0
176
     1
 90
       50
176
     1
 90
       50
176
     1
 90
       50
176
     1
290
     0
176
     1
 90
       50
176
     1
 62
   256
176
     0
 40
1.0
176
     0
 90
        2
176
     1
  1
strokes_ogs.tif
176
     1
290
     0
176
     1
 40
1.0
176
     1
 40
1.0
176
     1
  0
VISUALSTYLE
  5
40
102
{ACAD_REACTORS
330
2A
102
}
330
2A
100
AcDbVisualStyle
  2
X-Ray
 70
    25
177
     3
291
     0
 70
    58
 90
        2
176
     1
 90
        2
176
     1
 90
        1
176
     1
 90
        1
176
     1
 40
0.5
176
     1
 40
30.0
176
     1
 62
     7
420
 16777215
176
     1
 90
        1
176
     1
 90
        0
176
     1
 62
     7
176
     1
 62
   257
176
     1
 90
        1
176
     1
 90
        1
176
     1
 40
1.0
176
     1
 90
        8
176
     1
 62
     7
176
     1
 40
1.0
176
     1
 90
        1
176
     1
 90
        6
176
     1
 90
        2
176
     1
 62
     7
176
     1
 90
        3
176
     1
 90
        0
176
     1
 90
        0
176
     1
290
     0
176
     1
 90
       13
176
     1
 40
0.0
176
     1
 90
        0
176
     1
290
     0
176
     1
290
     1
176
     1
290
     1
176
     1
290
     0
176
     1
290
     0
176
     1
290
     0
176
     1
290
     0
176
     1
290
     0
176
     1
290
     0
176
     1
 90
       50
176
     1
 40
0.0
176
     1
 40
1.0
176
     1
 90
        0
176
     1
 62
    18
420
        0
176
     1
 90
       50
176
     1
 90
        3
176
     1
 62
     5
420
      255
176
     1
290
     0
176
     1
 90
       50
176
     1
 90
       50
176
     1
 90
       50
176
     1
290
     0
176
     1
 90
       50
176
     1
 62
   256
176
     0
 40
1.0
176
     0
 90
        2
176
     1
  1
strokes_ogs.tif
176
     1
290
     0
176
     1
 40
1.0
176
     1
 40
1.0
176
     1
  0
DICTIONARYVAR
  5
8D
102
{ACAD_REACTORS
330
8C
102
}
330
8C
100
DictionaryVariables
280
     0
  1
1:1
  0
DICTIONARYVAR
  5
92
102
{ACAD_REACTORS
330
8C
102
}
330
8C
100
DictionaryVariables
280
     0
  1
Standard
  0
DICTIONARYVAR
  5
91
102
{ACAD_REACTORS
330
8C
102
}
330
8C
100
DictionaryVariables
280
     0
  1
Standard
  0
DICTIONARY
  5
8E
330
5A
100
AcDbDictionary
280
     1
281
     1
  3
ACAD_ROUNDTRIP_2008_TABLESTYLE_CELLSTYLEMAP
360
8F
  0
CELLSTYLEMAP
  5
8F
102
{ACAD_REACTORS
330
8E
102
}
330
8E
100
AcDbCellStyleMap
 90
        3
300
CELLSTYLE
  1
TABLEFORMAT_BEGIN
 90
        5
170
     1
 91
        0
 92
    32768
 62
   257
 93
        1
300
CONTENTFORMAT
  1
CONTENTFORMAT_BEGIN
 90
        0
 91
        0
 92
        4
 93
        0
300

 40
0.0
140
1.0
 94
        5
 62
     0
340
11
144
0.25
309
CONTENTFORMAT_END
171
     1
301
MARGIN
  1
CELLMARGIN_BEGIN
 40
0.06
 40
0.06
 40
0.06
 40
0.06
 40
0.06
 40
0.06
309
CELLMARGIN_END
 94
        6
 95
        1
302
GRIDFORMAT
  1
GRIDFORMAT_BEGIN
 90
        0
 91
        1
 62
     0
 92
       -2
340
14
 93
        0
 40
0.045
309
GRIDFORMAT_END
 95
        2
302
GRIDFORMAT
  1
GRIDFORMAT_BEGIN
 90
        0
 91
        1
 62
     0
 92
       -2
340
14
 93
        0
 40
0.045
309
GRIDFORMAT_END
 95
        4
302
GRIDFORMAT
  1
GRIDFORMAT_BEGIN
 90
        0
 91
        1
 62
     0
 92
       -2
340
14
 93
        0
 40
0.045
309
GRIDFORMAT_END
 95
        8
302
GRIDFORMAT
  1
GRIDFORMAT_BEGIN
 90
        0
 91
        1
 62
     0
 92
       -2
340
14
 93
        0
 40
0.045
309
GRIDFORMAT_END
 95
       16
302
GRIDFORMAT
  1
GRIDFORMAT_BEGIN
 90
        0
 91
        1
 62
     0
 92
       -2
340
14
 93
        0
 40
0.045
309
GRIDFORMAT_END
 95
       32
302
GRIDFORMAT
  1
GRIDFORMAT_BEGIN
 90
        0
 91
        1
 62
     0
 92
       -2
340
14
 93
        0
 40
0.045
309
GRIDFORMAT_END
309
TABLEFORMAT_END
  1
CELLSTYLE_BEGIN
 90
        1
 91
        1
300
_TITLE
309
CELLSTYLE_END
300
CELLSTYLE
  1
TABLEFORMAT_BEGIN
 90
        5
170
     1
 91
        0
 92
        0
 62
   257
 93
        1
300
CONTENTFORMAT
  1
CONTENTFORMAT_BEGIN
 90
        0
 91
        0
 92
        4
 93
        0
300

 40
0.0
140
1.0
 94
        5
 62
     0
340
11
144
0.18
309
CONTENTFORMAT_END
171
     1
301
MARGIN
  1
CELLMARGIN_BEGIN
 40
0.06
 40
0.06
 40
0.06
 40
0.06
 40
0.06
 40
0.06
309
CELLMARGIN_END
 94
        6
 95
        1
302
GRIDFORMAT
  1
GRIDFORMAT_BEGIN
 90
        0
 91
        1
 62
     0
 92
       -2
340
14
 93
        0
 40
0.045
309
GRIDFORMAT_END
 95
        2
302
GRIDFORMAT
  1
GRIDFORMAT_BEGIN
 90
        0
 91
        1
 62
     0
 92
       -2
340
14
 93
        0
 40
0.045
309
GRIDFORMAT_END
 95
        4
302
GRIDFORMAT
  1
GRIDFORMAT_BEGIN
 90
        0
 91
        1
 62
     0
 92
       -2
340
14
 93
        0
 40
0.045
309
GRIDFORMAT_END
 95
        8
302
GRIDFORMAT
  1
GRIDFORMAT_BEGIN
 90
        0
 91
        1
 62
     0
 92
       -2
340
14
 93
        0
 40
0.045
309
GRIDFORMAT_END
 95
       16
302
GRIDFORMAT
  1
GRIDFORMAT_BEGIN
 90
        0
 91
        1
 62
     0
 92
       -2
340
14
 93
        0
 40
0.045
309
GRIDFORMAT_END
 95
       32
302
GRIDFORMAT
  1
GRIDFORMAT_BEGIN
 90
        0
 91
        1
 62
     0
 92
       -2
340
14
 93
        0
 40
0.045
309
GRIDFORMAT_END
309
TABLEFORMAT_END
  1
CELLSTYLE_BEGIN
 90
        2
 91
        1
300
_HEADER
309
CELLSTYLE_END
300
CELLSTYLE
  1
TABLEFORMAT_BEGIN
 90
        5
170
     1
 91
        0
 92
        0
 62
   257
 93
        1
300
CONTENTFORMAT
  1
CONTENTFORMAT_BEGIN
 90
        0
 91
        0
 92
        4
 93
        0
300

 40
0.0
140
1.0
 94
        2
 62
     0
340
11
144
0.18
309
CONTENTFORMAT_END
171
     1
301
MARGIN
  1
CELLMARGIN_BEGIN
 40
0.06
 40
0.06
 40
0.06
 40
0.06
 40
0.06
 40
0.06
309
CELLMARGIN_END
 94
        6
 95
        1
302
GRIDFORMAT
  1
GRIDFORMAT_BEGIN
 90
        0
 91
        1
 62
     0
 92
       -2
340
14
 93
        0
 40
0.045
309
GRIDFORMAT_END
 95
        2
302
GRIDFORMAT
  1
GRIDFORMAT_BEGIN
 90
        0
 91
        1
 62
     0
 92
       -2
340
14
 93
        0
 40
0.045
309
GRIDFORMAT_END
 95
        4
302
GRIDFORMAT
  1
GRIDFORMAT_BEGIN
 90
        0
 91
        1
 62
     0
 92
       -2
340
14
 93
        0
 40
0.045
309
GRIDFORMAT_END
 95
        8
302
GRIDFORMAT
  1
GRIDFORMAT_BEGIN
 90
        0
 91
        1
 62
     0
 92
       -2
340
14
 93
        0
 40
0.045
309
GRIDFORMAT_END
 95
       16
302
GRIDFORMAT
  1
GRIDFORMAT_BEGIN
 90
        0
 91
        1
 62
     0
 92
       -2
340
14
 93
        0
 40
0.045
309
GRIDFORMAT_END
 95
       32
302
GRIDFORMAT
  1
GRIDFORMAT_BEGIN
 90
        0
 91
        1
 62
     0
 92
       -2
340
14
 93
        0
 40
0.045
309
GRIDFORMAT_END
309
TABLEFORMAT_END
  1
CELLSTYLE_BEGIN
 90
        3
 91
        2
300
_DATA
309
CELLSTYLE_END
  0
ENDSEC
  0
EOF
