  0
SECTION
  2
HEADER
  9
$ACADVER
  1
AC1027
  9
$ACADMAINTVER
 70
   105
  9
$DWGCODEPAGE
  3
ANSI_1252
  9
$LASTSAVEDBY
  1
Office Desk
  9
$REQUIREDVERSIONS
160
                 0
  9
$INSBASE
 10
0.0
 20
0.0
 30
0.0
  9
$EXTMIN
 10
7.046614173228346
 20
-9.53963779527559
 30
0.0
  9
$EXTMAX
 10
12.9367874015748
 20
-0.9227755905511811
 30
0.0
  9
$LIMMIN
 10
0.0
 20
0.0
  9
$LIMMAX
 10
12.0
 20
9.0
  9
$ORTHOMODE
 70
     0
  9
$REGENMODE
 70
     1
  9
$FILLMODE
 70
     1
  9
$QTEXTMODE
 70
     0
  9
$MIRRTEXT
 70
     1
  9
$LTSCALE
 40
1.0
  9
$ATTMODE
 70
     1
  9
$TEXTSIZE
 40
0.2
  9
$TRACEWID
 40
0.05
  9
$TEXTSTYLE
  7
Standard
  9
$CLAYER
  8
0
  9
$CELTYPE
  6
ByLayer
  9
$CECOLOR
 62
   256
  9
$CELTSCALE
 40
1.0
  9
$DISPSILH
 70
     0
  9
$DIMSCALE
 40
1.0
  9
$DIMASZ
 40
0.18
  9
$DIMEXO
 40
0.0625
  9
$DIMDLI
 40
0.38
  9
$DIMRND
 40
0.0
  9
$DIMDLE
 40
0.0
  9
$DIMEXE
 40
0.18
  9
$DIMTP
 40
0.0
  9
$DIMTM
 40
0.0
  9
$DIMTXT
 40
0.18
  9
$DIMCEN
 40
0.09
  9
$DIMTSZ
 40
0.0
  9
$DIMTOL
 70
     0
  9
$DIMLIM
 70
     0
  9
$DIMTIH
 70
     1
  9
$DIMTOH
 70
     1
  9
$DIMSE1
 70
     0
  9
$DIMSE2
 70
     0
  9
$DIMTAD
 70
     0
  9
$DIMZIN
 70
     0
  9
$DIMBLK
  1

  9
$DIMASO
 70
     1
  9
$DIMSHO
 70
     1
  9
$DIMPOST
  1

  9
$DIMAPOST
  1

  9
$DIMALT
 70
     0
  9
$DIMALTD
 70
     2
  9
$DIMALTF
 40
25.4
  9
$DIMLFAC
 40
1.0
  9
$DIMTOFL
 70
     0
  9
$DIMTVP
 40
0.0
  9
$DIMTIX
 70
     0
  9
$DIMSOXD
 70
     0
  9
$DIMSAH
 70
     0
  9
$DIMBLK1
  1

  9
$DIMBLK2
  1

  9
$DIMSTYLE
  2
Standard
  9
$DIMCLRD
 70
     0
  9
$DIMCLRE
 70
     0
  9
$DIMCLRT
 70
     0
  9
$DIMTFAC
 40
1.0
  9
$DIMGAP
 40
0.09
  9
$DIMJUST
 70
     0
  9
$DIMSD1
 70
     0
  9
$DIMSD2
 70
     0
  9
$DIMTOLJ
 70
     1
  9
$DIMTZIN
 70
     0
  9
$DIMALTZ
 70
     0
  9
$DIMALTTZ
 70
     0
  9
$DIMUPT
 70
     0
  9
$DIMDEC
 70
     4
  9
$DIMTDEC
 70
     4
  9
$DIMALTU
 70
     2
  9
$DIMALTTD
 70
     2
  9
$DIMTXSTY
  7
Standard
  9
$DIMAUNIT
 70
     0
  9
$DIMADEC
 70
     0
  9
$DIMALTRND
 40
0.0
  9
$DIMAZIN
 70
     0
  9
$DIMDSEP
 70
    46
  9
$DIMATFIT
 70
     3
  9
$DIMFRAC
 70
     0
  9
$DIMLDRBLK
  1

  9
$DIMLUNIT
 70
     2
  9
$DIMLWD
 70
    -2
  9
$DIMLWE
 70
    -2
  9
$DIMTMOVE
 70
     0
  9
$DIMFXL
 40
1.0
  9
$DIMFXLON
 70
     0
  9
$DIMJOGANG
 40
0.7853981633974483
  9
$DIMTFILL
 70
     0
  9
$DIMTFILLCLR
 70
     0
  9
$DIMARCSYM
 70
     0
  9
$DIMLTYPE
  6

  9
$DIMLTEX1
  6

  9
$DIMLTEX2
  6

  9
$DIMTXTDIRECTION
 70
     0
  9
$LUNITS
 70
     2
  9
$LUPREC
 70
     4
  9
$SKETCHINC
 40
0.1
  9
$FILLETRAD
 40
0.0
  9
$AUNITS
 70
     0
  9
$AUPREC
 70
     0
  9
$MENU
  1
.
  9
$ELEVATION
 40
0.0
  9
$PELEVATION
 40
0.0
  9
$THICKNESS
 40
0.0
  9
$LIMCHECK
 70
     0
  9
$CHAMFERA
 40
0.0
  9
$CHAMFERB
 40
0.0
  9
$CHAMFERC
 40
0.0
  9
$CHAMFERD
 40
0.0
  9
$SKPOLY
 70
     0
  9
$TDCREATE
 40
2461020.63517044
  9
$TDUCREATE
 40
2461020.406003773
  9
$TDUPDATE
 40
2461020.63517066
  9
$TDUUPDATE
 40
2461020.406003993
  9
$TDINDWG
 40
0.0000000116
  9
$TDUSRTIMER
 40
0.0000000116
  9
$USRTIMER
 70
     1
  9
$ANGBASE
 50
0.0
  9
$ANGDIR
 70
     0
  9
$PDMODE
 70
     0
  9
$PDSIZE
 40
0.0
  9
$PLINEWID
 40
0.0
  9
$SPLFRAME
 70
     0
  9
$SPLINETYPE
 70
     6
  9
$SPLINESEGS
 70
     8
  9
$HANDSEED
  5
94
  9
$SURFTAB1
 70
     6
  9
$SURFTAB2
 70
     6
  9
$SURFTYPE
 70
     6
  9
$SURFU
 70
     6
  9
$SURFV
 70
     6
  9
$UCSBASE
  2

  9
$UCSNAME
  2

  9
$UCSORG
 10
0.0
 20
0.0
 30
0.0
  9
$UCSXDIR
 10
1.0
 20
0.0
 30
0.0
  9
$UCSYDIR
 10
0.0
 20
1.0
 30
0.0
  9
$UCSORTHOREF
  2

  9
$UCSORTHOVIEW
 70
     0
  9
$UCSORGTOP
 10
0.0
 20
0.0
 30
0.0
  9
$UCSORGBOTTOM
 10
0.0
 20
0.0
 30
0.0
  9
$UCSORGLEFT
 10
0.0
 20
0.0
 30
0.0
  9
$UCSORGRIGHT
 10
0.0
 20
0.0
 30
0.0
  9
$UCSORGFRONT
 10
0.0
 20
0.0
 30
0.0
  9
$UCSORGBACK
 10
0.0
 20
0.0
 30
0.0
  9
$PUCSBASE
  2

  9
$PUCSNAME
  2

  9
$PUCSORG
 10
0.0
 20
0.0
 30
0.0
  9
$PUCSXDIR
 10
1.0
 20
0.0
 30
0.0
  9
$PUCSYDIR
 10
0.0
 20
1.0
 30
0.0
  9
$PUCSORTHOREF
  2

  9
$PUCSORTHOVIEW
 70
     0
  9
$PUCSORGTOP
 10
0.0
 20
0.0
 30
0.0
  9
$PUCSORGBOTTOM
 10
0.0
 20
0.0
 30
0.0
  9
$PUCSORGLEFT
 10
0.0
 20
0.0
 30
0.0
  9
$PUCSORGRIGHT
 10
0.0
 20
0.0
 30
0.0
  9
$PUCSORGFRONT
 10
0.0
 20
0.0
 30
0.0
  9
$PUCSORGBACK
 10
0.0
 20
0.0
 30
0.0
  9
$USERI1
 70
     0
  9
$USERI2
 70
     0
  9
$USERI3
 70
     0
  9
$USERI4
 70
     0
  9
$USERI5
 70
     0
  9
$USERR1
 40
0.0
  9
$USERR2
 40
0.0
  9
$USERR3
 40
0.0
  9
$USERR4
 40
0.0
  9
$USERR5
 40
0.0
  9
$WORLDVIEW
 70
     1
  9
$SHADEDGE
 70
     3
  9
$SHADEDIF
 70
    70
  9
$TILEMODE
 70
     1
  9
$MAXACTVP
 70
    64
  9
$PINSBASE
 10
0.0
 20
0.0
 30
0.0
  9
$PLIMCHECK
 70
     0
  9
$PEXTMIN
 10
1.000000000000000E+20
 20
1.000000000000000E+20
 30
1.000000000000000E+20
  9
$PEXTMAX
 10
-1.000000000000000E+20
 20
-1.000000000000000E+20
 30
-1.000000000000000E+20
  9
$PLIMMIN
 10
0.0
 20
0.0
  9
$PLIMMAX
 10
12.0
 20
9.0
  9
$UNITMODE
 70
     0
  9
$VISRETAIN
 70
     1
  9
$PLINEGEN
 70
     0
  9
$PSLTSCALE
 70
     1
  9
$TREEDEPTH
 70
  3020
  9
$CMLSTYLE
  2
Standard
  9
$CMLJUST
 70
     0
  9
$CMLSCALE
 40
1.0
  9
$PROXYGRAPHICS
 70
     1
  9
$MEASUREMENT
 70
     0
  9
$CELWEIGHT
370
    -1
  9
$ENDCAPS
280
     0
  9
$JOINSTYLE
280
     0
  9
$LWDISPLAY
290
     0
  9
$INSUNITS
 70
     1
  9
$HYPERLINKBASE
  1

  9
$STYLESHEET
  1

  9
$XEDIT
290
     1
  9
$CEPSNTYPE
380
     0
  9
$PSTYLEMODE
290
     1
  9
$FINGERPRINTGUID
  2
{a3327723-d2c2-4661-a6f8-6630470f8b33}
  9
$VERSIONGUID
  2
{FAEB1C32-E019-11D5-929B-00C0DF256EC4}
  9
$EXTNAMES
290
     1
  9
$PSVPSCALE
 40
0.0
  9
$OLESTARTUP
290
     0
  9
$SORTENTS
280
   127
  9
$INDEXCTL
280
     0
  9
$HIDETEXT
280
     1
  9
$XCLIPFRAME
280
     2
  9
$HALOGAP
280
     0
  9
$OBSCOLOR
 70
   257
  9
$OBSLTYPE
280
     0
  9
$INTERSECTIONDISPLAY
280
     0
  9
$INTERSECTIONCOLOR
 70
   257
  9
$DIMASSOC
280
     2
  9
$PROJECTNAME
  1

  9
$CAMERADISPLAY
290
     0
  9
$LENSLENGTH
 40
50.0
  9
$CAMERAHEIGHT
 40
0.0
  9
$STEPSPERSEC
 40
2.0
  9
$STEPSIZE
 40
6.0
  9
$3DDWFPREC
 40
2.0
  9
$PSOLWIDTH
 40
0.25
  9
$PSOLHEIGHT
 40
4.0
  9
$LOFTANG1
 40
1.570796326794897
  9
$LOFTANG2
 40
1.570796326794897
  9
$LOFTMAG1
 40
0.0
  9
$LOFTMAG2
 40
0.0
  9
$LOFTPARAM
 70
     7
  9
$LOFTNORMALS
280
     1
  9
$LATITUDE
 40
37.795
  9
$LONGITUDE
 40
-122.394
  9
$NORTHDIRECTION
 40
0.0
  9
$TIMEZONE
 70
 -8000
  9
$LIGHTGLYPHDISPLAY
280
     1
  9
$TILEMODELIGHTSYNCH
280
     1
  9
$CMATERIAL
347
44
  9
$SOLIDHIST
280
     0
  9
$SHOWHIST
280
     1
  9
$DWFFRAME
280
     2
  9
$DGNFRAME
280
     2
  9
$REALWORLDSCALE
290
     1
  9
$INTERFERECOLOR
 62
   256
  9
$CSHADOW
280
     0
  9
$SHADOWPLANELOCATION
 40
0.0
  0
ENDSEC
  0
SECTION
  2
CLASSES
  0
CLASS
  1
ACDBDICTIONARYWDFLT
  2
AcDbDictionaryWithDefault
  3
ObjectDBX Classes
 90
        0
 91
        3
280
     0
281
     0
  0
CLASS
  1
VISUALSTYLE
  2
AcDbVisualStyle
  3
ObjectDBX Classes
 90
     4095
 91
        3
280
     0
281
     0
  0
CLASS
  1
MATERIAL
  2
AcDbMaterial
  3
ObjectDBX Classes
 90
     1153
 91
        3
280
     0
281
     0
  0
CLASS
  1
SCALE
  2
AcDbScale
  3
ObjectDBX Classes
 90
     1153
 91
        3
280
     0
281
     0
  0
CLASS
  1
TABLESTYLE
  2
AcDbTableStyle
  3
ObjectDBX Classes
 90
     4095
 91
        3
280
     0
281
     0
  0
CLASS
  1
MLEADERSTYLE
  2
AcDbMLeaderStyle
  3
ACDB_MLEADERSTYLE_CLASS
 90
     4095
 91
        3
280
     0
281
     0
  0
CLASS
  1
SUN
  2
AcDbSun
  3
SCENEOE
 90
     1153
 91
        3
280
     0
281
     0
  0
CLASS
  1
DICTIONARYVAR
  2
AcDbDictionaryVar
  3
ObjectDBX Classes
 90
        0
 91
        3
280
     0
281
     0
  0
CLASS
  1
CELLSTYLEMAP
  2
AcDbCellStyleMap
  3
ObjectDBX Classes
 90
     1152
 91
        3
280
     0
281
     0
  0
ENDSEC
  0
SECTION
  2
TABLES
  0
TABLE
  2
VPORT
  5
8
330
0
100
AcDbSymbolTable
 70
     1
  0
VPORT
  5
29
330
8
100
AcDbSymbolTableRecord
100
AcDbViewportTableRecord
  2
*Active
 70
     0
 10
0.0
 20
0.0
 11
1.0
 21
1.0
 12
10.42990654205607
 22
4.5
 13
0.0
 23
0.0
 14
0.5
 24
0.5
 15
0.5
 25
0.5
 16
0.0
 26
0.0
 36
1.0
 17
0.0
 27
0.0
 37
0.0
 40
9.0
 41
1.972972972850329
 42
50.0
 43
0.0
 44
0.0
 50
0.0
 51
0.0
 71
     0
 72
   100
 73
     1
 74
     3
 75
     0
 76
     0
 77
     0
 78
     0
281
     0
 65
     1
110
0.0
120
0.0
130
0.0
111
1.0
121
0.0
131
0.0
112
0.0
122
1.0
132
0.0
 79
     0
146
0.0
348
2F
 60
     3
 61
     5
292
     1
282
     1
141
0.0
142
0.0
 63
   250
361
5D
  0
ENDTAB
  0
TABLE
  2
LTYPE
  5
5
330
0
100
AcDbSymbolTable
 70
     1
  0
LTYPE
  5
14
330
5
100
AcDbSymbolTableRecord
100
AcDbLinetypeTableRecord
  2
ByBlock
 70
     0
  3

 72
    65
 73
     0
 40
0.0
  0
LTYPE
  5
15
330
5
100
AcDbSymbolTableRecord
100
AcDbLinetypeTableRecord
  2
ByLayer
 70
     0
  3

 72
    65
 73
     0
 40
0.0
  0
LTYPE
  5
16
330
5
100
AcDbSymbolTableRecord
100
AcDbLinetypeTableRecord
  2
Continuous
 70
     0
  3
Solid line
 72
    65
 73
     0
 40
0.0
  0
ENDTAB
  0
TABLE
  2
LAYER
  5
2
330
0
100
AcDbSymbolTable
 70
     2
  0
LAYER
  5
10
330
2
100
AcDbSymbolTableRecord
100
AcDbLayerTableRecord
  2
0
 70
     0
 62
     7
  6
Continuous
370
    -3
390
F
347
46
348
0
  0
LAYER
  5
5F
330
2
100
AcDbSymbolTableRecord
100
AcDbLayerTableRecord
  2
Layer 1
 70
     0
 62
     7
  6
Continuous
370
    -3
390
F
347
46
348
0
  0
ENDTAB
  0
TABLE
  2
STYLE
  5
3
330
0
100
AcDbSymbolTable
 70
     1
  0
STYLE
  5
11
330
3
100
AcDbSymbolTableRecord
100
AcDbTextStyleTableRecord
  2
Standard
 70
     0
 40
0.0
 41
1.0
 50
0.0
 71
     0
 42
0.2
  3
txt
  4

  0
ENDTAB
  0
TABLE
  2
VIEW
  5
6
330
0
100
AcDbSymbolTable
 70
     0
  0
ENDTAB
  0
TABLE
  2
UCS
  5
7
330
0
100
AcDbSymbolTable
 70
     0
  0
ENDTAB
  0
TABLE
  2
APPID
  5
9
330
0
100
AcDbSymbolTable
 70
     2
  0
APPID
  5
12
330
9
100
AcDbSymbolTableRecord
100
AcDbRegAppTableRecord
  2
ACAD
 70
     0
  0
APPID
  5
5E
330
9
100
AcDbSymbolTableRecord
100
AcDbRegAppTableRecord
  2
ODA
 70
     0
  0
ENDTAB
  0
TABLE
  2
DIMSTYLE
  5
A
330
0
100
AcDbSymbolTable
 70
     1
100
AcDbDimStyleTable
  0
DIMSTYLE
105
27
330
A
100
AcDbSymbolTableRecord
100
AcDbDimStyleTableRecord
  2
Standard
 70
     0
178
     0
340
11
  0
ENDTAB
  0
TABLE
  2
BLOCK_RECORD
  5
1
330
0
100
AcDbSymbolTable
 70
     1
  0
BLOCK_RECORD
  5
1F
330
1
100
AcDbSymbolTableRecord
100
AcDbBlockTableRecord
  2
*Model_Space
340
22
 70
     0
280
     1
281
     0
  0
BLOCK_RECORD
  5
1B
330
1
100
AcDbSymbolTableRecord
100
AcDbBlockTableRecord
  2
*Paper_Space
340
1E
 70
     0
280
     1
281
     0
  0
BLOCK_RECORD
  5
23
330
1
100
AcDbSymbolTableRecord
100
AcDbBlockTableRecord
  2
*Paper_Space0
340
26
 70
     0
280
     1
281
     0
  0
ENDTAB
  0
ENDSEC
  0
SECTION
  2
BLOCKS
  0
BLOCK
  5
20
330
1F
100
AcDbEntity
  8
0
100
AcDbBlockBegin
  2
*Model_Space
 70
     0
 10
0.0
 20
0.0
 30
0.0
  3
*Model_Space
  1

  0
ENDBLK
  5
21
330
1F
100
AcDbEntity
  8
0
100
AcDbBlockEnd
  0
BLOCK
  5
1C
330
1B
100
AcDbEntity
 67
     1
  8
0
100
AcDbBlockBegin
  2
*Paper_Space
 70
     0
 10
0.0
 20
0.0
 30
0.0
  3
*Paper_Space
  1

  0
ENDBLK
  5
1D
330
1B
100
AcDbEntity
 67
     1
  8
0
100
AcDbBlockEnd
  0
BLOCK
  5
24
330
23
100
AcDbEntity
  8
0
100
AcDbBlockBegin
  2
*Paper_Space0
 70
     0
 10
0.0
 20
0.0
 30
0.0
  3
*Paper_Space0
  1

  0
ENDBLK
  5
25
330
23
100
AcDbEntity
  8
0
100
AcDbBlockEnd
  0
ENDSEC
  0
SECTION
  2
ENTITIES
  0
LWPOLYLINE
  5
60
330
1F
100
AcDbEntity
  8
Layer 1
 62
   250
370
     9
100
AcDbPolyline
 90
        5
 70
     1
 43
0.0
 10
7.048114173228346
 20
-9.538133858267717
 10
12.9352874015748
 20
-9.538133858267717
 10
12.9352874015748
 20
-0.9242755905511811
 10
7.048114173228346
 20
-0.9242755905511811
 10
7.048114173228346
 20
-9.538133858267717
  0
LWPOLYLINE
  5
61
330
1F
100
AcDbEntity
  8
Layer 1
 62
     7
370
    18
100
AcDbPolyline
 90
      184
 70
     1
 43
0.0
 10
11.4238031496063
 20
-3.356397637795276
 10
11.4238031496063
 20
-2.780299212598425
 10
11.42429133858268
 20
-2.775244094488189
 10
11.42477165354331
 20
-2.761645669291338
 10
11.42376771653543
 20
-2.741877952755905
 10
11.4198031496063
 20
-2.718291338582677
 10
11.41139763779528
 20
-2.693255905511811
 10
11.39707480314961
 20
-2.669129921259842
 10
11.37535826771654
 20
-2.648275590551181
 10
11.34476771653543
 20
-2.63305905511811
 10
11.30465748031496
 20
-2.61651968503937
 10
11.25340551181102
 20
-2.592956692913386
 10
11.18805905511811
 20
-2.566618110236221
 10
11.1056811023622
 20
-2.541751968503937
 10
11.00332283464567
 20
-2.522606299212598
 10
10.87803937007874
 20
-2.513429133858267
 10
10.72688582677165
 20
-2.518468503937008
 10
10.54691732283464
 20
-2.541976377952756
 10
10.31801181102362
 20
-2.589736220472441
 10
10.03866141732284
 20
-2.658976377952756
 10
9.733814960629921
 20
-2.74111811023622
 10
9.428433070866141
 20
-2.827570866141732
 10
9.147472440944881
 20
-2.909755905511811
 10
8.915885826771653
 20
-2.979086614173228
 10
8.758633858267716
 20
-3.02698031496063
 10
8.700669291338583
 20
-3.044854330708661
 10
8.69671653543307
 20
-3.047952755905512
 10
8.687299212598425
 20
-3.056637795275591
 10
8.676094488188976
 20
-3.069984251968504
 10
8.666767716535434
 20
-3.087066929133858
 10
8.662992125984252
 20
-3.106968503937008
 10
8.66844094488189
 20
-3.128767716535433
 10
8.686779527559056
 20
-3.151535433070866
 10
8.721681102362204
 20
-3.174354330708661
 10
8.777110236220473
 20
-3.198696850393701
 10
8.849562992125984
 20
-3.225476377952756
 10
8.93151968503937
 20
-3.25294094488189
 10
9.015452755905512
 20
-3.279342519685039
 10
9.093830708661418
 20
-3.302925196850394
 10
9.159133858267717
 20
-3.321937007874016
 10
9.203838582677164
 20
-3.334629921259843
 10
9.220409448818897
 20
-3.339251968503937
 10
9.226720472440945
 20
-3.341
 10
9.244377952755906
 20
-3.345393700787402
 10
9.271468503937008
 20
-3.351169291338583
 10
9.306086614173228
 20
-3.35705905511811
 10
9.346318897637795
 20
-3.361791338582677
 10
9.390255905511811
 20
-3.364106299212598
 10
9.435984251968504
 20
-3.362728346456693
 10
9.481594488188977
 20
-3.356397637795276
 10
9.543893700787402
 20
-3.341830708661417
 10
9.63362598425197
 20
-3.318751968503937
 10
9.739771653543308
 20
-3.29038188976378
 10
9.851318897637796
 20
-3.25994094488189
 10
9.957248031496063
 20
-3.230653543307087
 10
10.04655118110236
 20
-3.205744094488189
 10
10.1082125984252
 20
-3.188433070866142
 10
10.1312125984252
 20
-3.181948818897638
 10
10.14337007874016
 20
-3.548858267716535
 10
10.14373228346457
 20
-3.552192913385827
 10
10.14518897637795
 20
-3.561185039370079
 10
10.14829527559055
 20
-3.574318897637795
 10
10.15359448818898
 20
-3.59007874015748
 10
10.16164173228347
 20
-3.606944881889764
 10
10.17299212598425
 20
-3.623405511811024
 10
10.18819291338583
 20
-3.637937007874016
 10
10.20779921259843
 20
-3.649023622047244
 10
10.20965354330709
 20
-3.67936220472441
 10
10.2041062992126
 20
-3.68261811023622
 10
10.18877165354331
 20
-3.691350393700787
 10
10.16561811023622
 20
-3.704015748031496
 10
10.1366062992126
 20
-3.719066929133858
 10
10.10370078740157
 20
-3.734956692913386
 10
10.06887007874016
 20
-3.750141732283465
 10
10.03407480314961
 20
-3.763070866141732
 10
10.00127952755905
 20
-3.772204724409449
 10
9.887133858267717
 20
-3.803724409448819
 10
9.637858267716535
 20
-3.875669291338583
 10
9.299791338582677
 20
-3.974287401574803
 10
8.919271653543307
 20
-4.085822834645669
 10
8.542649606299213
 20
-4.19651968503937
 10
8.216255905511812
 20
-4.29261811023622
 10
7.986437007874016
 20
-4.360366141732284
 10
7.899531496062992
 20
-4.386003937007874
 10
7.892555118110236
 20
-4.387968503937008
 10
7.874208661417323
 20
-4.393562992125984
 10
7.848385826771653
 20
-4.402338582677165
 10
7.818968503937008
 20
-4.413846456692913
 10
7.789842519685039
 20
-4.427637795275591
 10
7.764897637795276
 20
-4.443255905511811
 10
7.748015748031496
 20
-4.460263779527559
 10
7.743082677165354
 20
-4.478200787401575
 10
7.745811023622047
 20
-4.493094488188976
 10
7.756125984251969
 20
-4.533318897637796
 10
7.777228346456693
 20
-4.592204724409449
 10
7.812318897637796
 20
-4.663074803149606
 10
7.864590551181102
 20
-4.739255905511811
 10
7.937248031496063
 20
-4.814066929133858
 10
8.033492125984251
 20
-4.880842519685039
 10
8.156515748031497
 20
-4.932897637795276
 10
8.160070866141732
 20
-5.053692913385826
 10
8.161830708661418
 20
-5.057417322834645
 10
8.168066929133857
 20
-5.067472440944882
 10
8.180208661417323
 20
-5.082196850393701
 10
8.199696850393702
 20
-5.099917322834646
 10
8.22796062992126
 20
-5.118968503937008
 10
8.266433070866142
 20
-5.137685039370079
 10
8.316547244094489
 20
-5.154397637795276
 10
8.379740157480315
 20
-5.167437007874016
 10
8.452362204724409
 20
-5.175590551181102
 10
8.527346456692914
 20
-5.179417322834646
 10
8.60098031496063
 20
-5.179917322834646
 10
8.669551181102362
 20
-5.178086614173228
 10
8.729342519685039
 20
-5.174925196850394
 10
8.776649606299213
 20
-5.171429133858267
 10
8.807755905511812
 20
-5.168602362204725
 10
8.818948818897638
 20
-5.167437007874016
 10
8.822377952755906
 20
-5.166492125984252
 10
8.831468503937009
 20
-5.163673228346457
 10
8.84444094488189
 20
-5.159003937007874
 10
8.859507874015748
 20
-5.1525
 10
8.874889763779528
 20
-5.144185039370079
 10
8.888791338582678
 20
-5.13407874015748
 10
8.899437007874015
 20
-5.122208661417323
 10
8.90503937007874
 20
-5.108590551181102
 10
8.907555118110237
 20
-5.087822834645669
 10
8.910066929133858
 20
-5.057106299212599
 10
8.91248031496063
 20
-5.020366141732284
 10
8.914688976377953
 20
-4.981515748031496
 10
8.916582677165355
 20
-4.944476377952756
 10
8.918066929133857
 20
-4.913165354330709
 10
8.919031496062992
 20
-4.891507874015748
 10
8.919377952755905
 20
-4.883417322834646
 10
10.18924803149606
 20
-4.489610236220472
 10
10.18924803149606
 20
-8.121090551181103
 10
10.18227559055118
 20
-8.125511811023623
 10
10.16449606299213
 20
-8.138574803149606
 10
10.14061023622047
 20
-8.159976377952756
 10
10.1153188976378
 20
-8.189409448818898
 10
10.09333070866142
 20
-8.22657874015748
 10
10.07934251968504
 20
-8.271181102362204
 10
10.07805905511811
 20
-8.322909448818898
 10
10.0941811023622
 20
-8.38146062992126
 10
10.12914173228346
 20
-8.44161811023622
 10
10.18077559055118
 20
-8.497531496062992
 10
10.24839763779528
 20
-8.547948818897638
 10
10.33131496062992
 20
-8.59162598425197
 10
10.42883858267717
 20
-8.627318897637796
 10
10.54027952755906
 20
-8.65378346456693
 10
10.66495275590551
 20
-8.669767716535434
 10
10.80216535433071
 20
-8.674035433070866
 10
10.94482283464567
 20
-8.667913385826772
 10
11.08354330708661
 20
-8.652862204724409
 10
11.21422047244094
 20
-8.627818897637795
 10
11.33274803149606
 20
-8.591720472440945
 10
11.43501968503937
 20
-8.5435
 10
11.51692519685039
 20
-8.482090551181102
 10
11.57436220472441
 20
-8.406433070866141
 10
11.60321653543307
 20
-8.315456692913386
 10
11.6036062992126
 20
-8.308625984251968
 10
11.60304724409449
 20
-8.290094488188977
 10
11.59892519685039
 20
-8.262795275590552
 10
11.58864566929134
 20
-8.229673228346456
 10
11.56960236220472
 20
-8.193661417322835
 10
11.53918897637795
 20
-8.157700787401575
 10
11.4948031496063
 20
-8.124732283464567
 10
11.43383858267716
 20
-8.097688976377952
 10
11.43383858267716
 20
-3.738531496062992
 10
11.43250787401575
 20
-3.731976377952756
 10
11.42803937007874
 20
-3.714755905511811
 10
11.4197125984252
 20
-3.69053937007874
 10
11.40681889763779
 20
-3.662992125984252
 10
11.38863385826772
 20
-3.635783464566929
 10
11.36444094488189
 20
-3.612582677165354
 10
11.33352755905512
 20
-3.597055118110236
 10
11.29517716535433
 20
-3.592866141732284
 10
11.30005511811024
 20
-3.589082677165354
 10
11.31305511811024
 20
-3.577779527559055
 10
11.33170866141732
 20
-3.55903937007874
 10
11.35356692913386
 20
-3.532933070866142
 10
11.37616141732283
 20
-3.49953937007874
 10
11.39703937007874
 20
-3.458933070866142
 10
11.41374015748032
 20
-3.411192913385827
 10
11.4238031496063
 20
-3.356397637795276
  0
LWPOLYLINE
  5
62
330
1F
100
AcDbEntity
  8
Layer 1
 62
     7
370
    18
100
AcDbPolyline
 90
       33
 70
     1
 43
0.0
 10
10.31722834645669
 20
-3.221799212598425
 10
10.30169291338583
 20
-3.224212598425197
 10
10.28722440944882
 20
-3.231129921259842
 10
10.27412992125984
 20
-3.24207874015748
 10
10.26272047244094
 20
-3.25657874015748
 10
10.2533031496063
 20
-3.274153543307087
 10
10.2461968503937
 20
-3.294326771653543
 10
10.24170472440945
 20
-3.316618110236221
 10
10.24013779527559
 20
-3.340551181102362
 10
10.24170472440945
 20
-3.36448031496063
 10
10.2461968503937
 20
-3.386771653543307
 10
10.2533031496063
 20
-3.40694094488189
 10
10.26272047244094
 20
-3.42451968503937
 10
10.27412992125984
 20
-3.43901968503937
 10
10.28722440944882
 20
-3.449968503937008
 10
10.30169291338583
 20
-3.456889763779528
 10
10.31722834645669
 20
-3.459303149606299
 10
10.33277165354331
 20
-3.456889763779528
 10
10.34724409448819
 20
-3.449968503937008
 10
10.36034251968504
 20
-3.43901968503937
 10
10.37175590551181
 20
-3.42451968503937
 10
10.38116929133858
 20
-3.40694094488189
 10
10.38827952755905
 20
-3.386771653543307
 10
10.39277165354331
 20
-3.36448031496063
 10
10.39433858267716
 20
-3.340551181102362
 10
10.39277165354331
 20
-3.316618110236221
 10
10.38827952755905
 20
-3.294326771653543
 10
10.38116929133858
 20
-3.274153543307087
 10
10.37175590551181
 20
-3.25657874015748
 10
10.36034251968504
 20
-3.24207874015748
 10
10.34724409448819
 20
-3.231129921259842
 10
10.33277165354331
 20
-3.224212598425197
 10
10.31722834645669
 20
-3.221799212598425
  0
LWPOLYLINE
  5
63
330
1F
100
AcDbEntity
  8
Layer 1
 62
     7
370
     9
100
AcDbPolyline
 90
       33
 70
     1
 43
0.0
 10
10.30458267716535
 20
-3.318614173228347
 10
10.29935826771653
 20
-3.319425196850394
 10
10.29449212598425
 20
-3.321751968503937
 10
10.2900905511811
 20
-3.325437007874016
 10
10.28625590551181
 20
-3.330314960629921
 10
10.2830905511811
 20
-3.336224409448819
 10
10.2806968503937
 20
-3.343011811023622
 10
10.27918897637795
 20
-3.350507874015748
 10
10.27866141732284
 20
-3.35855905511811
 10
10.27918897637795
 20
-3.366606299212598
 10
10.2806968503937
 20
-3.37409842519685
 10
10.2830905511811
 20
-3.38088188976378
 10
10.28625590551181
 20
-3.386795275590551
 10
10.2900905511811
 20
-3.391669291338583
 10
10.29449212598425
 20
-3.395354330708662
 10
10.29935826771653
 20
-3.397681102362205
 10
10.30458267716535
 20
-3.398492125984252
 10
10.30980708661417
 20
-3.397681102362205
 10
10.31467322834646
 20
-3.395354330708662
 10
10.31907480314961
 20
-3.391669291338583
 10
10.32291338582677
 20
-3.386795275590551
 10
10.32607874015748
 20
-3.38088188976378
 10
10.32846850393701
 20
-3.37409842519685
 10
10.32998031496063
 20
-3.366606299212598
 10
10.33050787401575
 20
-3.35855905511811
 10
10.32998031496063
 20
-3.350507874015748
 10
10.32846850393701
 20
-3.343011811023622
 10
10.32607874015748
 20
-3.336224409448819
 10
10.32291338582677
 20
-3.330314960629921
 10
10.31907480314961
 20
-3.325437007874016
 10
10.31467322834646
 20
-3.321751968503937
 10
10.30980708661417
 20
-3.319425196850394
 10
10.30458267716535
 20
-3.318614173228347
  0
LWPOLYLINE
  5
64
330
1F
100
AcDbEntity
  8
Layer 1
 62
     7
370
    18
100
AcDbPolyline
 90
       17
 70
     0
 43
0.0
 10
11.39246850393701
 20
-2.749385826771654
 10
11.39112204724409
 20
-2.754106299212598
 10
11.38452755905512
 20
-2.766944881889764
 10
11.36883464566929
 20
-2.785929133858268
 10
11.34020472440945
 20
-2.809082677165355
 10
11.29479133858268
 20
-2.834433070866142
 10
11.22875590551181
 20
-2.86
 10
11.13825196850394
 20
-2.883814960629921
 10
11.01943700787402
 20
-2.903897637795275
 10
10.84553149606299
 20
-2.936102362204724
 10
10.60979527559055
 20
-2.991877952755905
 10
10.33842913385827
 20
-3.062629921259842
 10
10.05763779527559
 20
-3.139779527559055
 10
9.793629921259843
 20
-3.214732283464567
 10
9.572606299212598
 20
-3.27890157480315
 10
9.42077559055118
 20
-3.323700787401575
 10
9.364342519685039
 20
-3.340543307086614
  0
LWPOLYLINE
  5
65
330
1F
100
AcDbEntity
  8
Layer 1
 62
     7
370
    18
100
AcDbPolyline
 90
       17
 70
     0
 43
0.0
 10
11.03552755905512
 20
-2.969220472440945
 10
11.02848818897638
 20
-2.968255905511811
 10
11.00767716535433
 20
-2.966409448818898
 10
10.97355905511811
 20
-2.965267716535433
 10
10.92659448818898
 20
-2.966409448818898
 10
10.86724015748032
 20
-2.971417322834646
 10
10.79596456692913
 20
-2.981870078740157
 10
10.71322834645669
 20
-2.999350393700787
 10
10.61948818897638
 20
-3.02544094488189
 10
10.51961023622047
 20
-3.055740157480315
 10
10.42069291338583
 20
-3.084322834645669
 10
10.32654330708661
 20
-3.110468503937008
 10
10.24096850393701
 20
-3.133464566929134
 10
10.16777952755906
 20
-3.152594488188976
 10
10.11078346456693
 20
-3.167145669291338
 10
10.07379527559055
 20
-3.176397637795275
 10
10.06061811023622
 20
-3.179641732283465
  0
LWPOLYLINE
  5
66
330
1F
100
AcDbEntity
  8
Layer 1
 62
     7
370
    18
100
AcDbPolyline
 90
       11
 70
     0
 43
0.0
 10
8.869736220472442
 20
-4.901818897637796
 10
8.574212598425197
 20
-4.961637795275591
 10
8.564779527559056
 20
-4.95757874015748
 10
8.53971653543307
 20
-4.94548031496063
 10
8.503870078740157
 20
-4.925448818897638
 10
8.462090551181102
 20
-4.897606299212598
 10
8.419220472440944
 20
-4.86205905511811
 10
8.380110236220473
 20
-4.818925196850394
 10
8.349614173228346
 20
-4.768311023622047
 10
8.332570866141733
 20
-4.710338582677165
 10
10.79016141732284
 20
-3.931488188976378
  0
LWPOLYLINE
  5
67
330
1F
100
AcDbEntity
  8
Layer 1
 62
     7
370
    18
100
AcDbPolyline
 90
        9
 70
     0
 43
0.0
 10
7.779602362204725
 20
-4.508700787401575
 10
7.790118110236221
 20
-4.515633858267717
 10
7.820015748031496
 20
-4.534086614173228
 10
7.866826771653543
 20
-4.56053937007874
 10
7.92807874015748
 20
-4.59148031496063
 10
8.001303149606299
 20
-4.623385826771654
 10
8.084031496062993
 20
-4.652740157480315
 10
8.173791338582678
 20
-4.676023622047244
 10
8.268110236220473
 20
-4.689720472440944
  0
LWPOLYLINE
  5
68
330
1F
100
AcDbEntity
  8
Layer 1
 62
     7
370
    18
100
AcDbPolyline
 90
        9
 70
     0
 43
0.0
 10
11.38611417322835
 20
-3.756696850393701
 10
11.37644094488189
 20
-3.767370078740158
 10
11.34475984251969
 20
-3.794161417322835
 10
11.28709448818898
 20
-3.829236220472441
 10
11.19946456692913
 20
-3.864759842519685
 10
11.07788582677165
 20
-3.892893700787401
 10
10.91838188976378
 20
-3.905803149606299
 10
10.71696456692913
 20
-3.895649606299213
 10
10.46966141732283
 20
-3.85459842519685
  0
LWPOLYLINE
  5
69
330
1F
100
AcDbEntity
  8
Layer 1
 62
     7
370
    18
100
AcDbPolyline
 90
        9
 70
     0
 43
0.0
 10
11.25929527559055
 20
-3.632688976377953
 10
11.24422440944882
 20
-3.643968503937008
 10
11.19887007874016
 20
-3.671913385826772
 10
11.1230157480315
 20
-3.707681102362205
 10
11.01644488188976
 20
-3.742437007874016
 10
10.87894094488189
 20
-3.767338582677165
 10
10.71028346456693
 20
-3.773547244094488
 10
10.51026377952756
 20
-3.752220472440945
 10
10.27866141732284
 20
-3.69451968503937
  0
LWPOLYLINE
  5
6A
330
1F
100
AcDbEntity
  8
Layer 1
 62
     7
370
    18
100
AcDbPolyline
 90
        9
 70
     0
 43
0.0
 10
8.174870078740158
 20
-4.94394094488189
 10
8.185271653543307
 20
-4.946066929133858
 10
8.214236220472442
 20
-4.951366141732284
 10
8.258397637795275
 20
-4.958204724409449
 10
8.314385826771653
 20
-4.96496062992126
 10
8.378846456692914
 20
-4.97
 10
8.44840157480315
 20
-4.971696850393701
 10
8.5196968503937
 20
-4.968429133858268
 10
8.58936220472441
 20
-4.958562992125985
  0
LWPOLYLINE
  5
6B
330
1F
100
AcDbEntity
  8
Layer 1
 62
     7
370
    18
100
AcDbPolyline
 90
        9
 70
     0
 43
0.0
 10
10.15303937007874
 20
-8.284933070866142
 10
10.18265748031496
 20
-8.299496062992127
 10
10.26636220472441
 20
-8.334645669291339
 10
10.39643700787401
 20
-8.377566929133858
 10
10.56516929133858
 20
-8.415444881889764
 10
10.76483464566929
 20
-8.435468503937008
 10
10.98771653543307
 20
-8.424814960629922
 10
11.22610236220472
 20
-8.370681102362205
 10
11.47226771653543
 20
-8.26024409448819
  0
LWPOLYLINE
  5
6C
330
1F
100
AcDbEntity
  8
Layer 1
 62
     7
370
    18
100
AcDbPolyline
 90
        2
 70
     0
 43
0.0
 10
11.77836220472441
 20
-2.292610236220472
 10
11.77836220472441
 20
-8.67420472440945
  0
LWPOLYLINE
  5
6D
330
1F
100
AcDbEntity
  8
Layer 1
 62
     7
370
    18
100
AcDbPolyline
 90
        2
 70
     0
 43
0.0
 10
9.983094488188977
 20
-8.95061811023622
 10
11.60366535433071
 20
-8.95061811023622
  0
LWPOLYLINE
  5
6E
330
1F
100
AcDbEntity
  8
Layer 1
 62
     7
370
    18
100
AcDbPolyline
 90
        2
 70
     0
 43
0.0
 10
9.983090551181103
 20
-9.034590551181102
 10
9.983090551181103
 20
-8.866629921259843
  0
LWPOLYLINE
  5
6F
330
1F
100
AcDbEntity
  8
Layer 1
 62
     7
370
    18
100
AcDbPolyline
 90
        2
 70
     0
 43
0.0
 10
11.60366535433071
 20
-9.034590551181102
 10
11.60366535433071
 20
-8.866629921259843
  0
LWPOLYLINE
  5
70
330
1F
100
AcDbEntity
  8
Layer 1
 62
     7
370
    18
100
AcDbPolyline
 90
        2
 70
     0
 43
0.0
 10
11.6943937007874
 20
-2.292610236220472
 10
11.86235039370079
 20
-2.292610236220472
  0
LWPOLYLINE
  5
71
330
1F
100
AcDbEntity
  8
Layer 1
 62
     7
370
    18
100
AcDbPolyline
 90
        2
 70
     0
 43
0.0
 10
11.6943937007874
 20
-8.674200787401574
 10
11.86235039370079
 20
-8.674200787401574
  0
LWPOLYLINE
  5
72
330
1F
100
AcDbEntity
  8
Layer 1
 62
     7
370
     9
100
AcDbPolyline
 90
        7
 70
     1
 43
0.0
 10
11.91133858267717
 20
-5.444287401574803
 10
11.91133858267717
 20
-5.474818897637795
 10
12.2115
 20
-5.474818897637795
 10
12.20364960629921
 20
-5.401527559055118
 10
12.17702755905512
 20
-5.401527559055118
 10
12.17702755905512
 20
-5.444287401574803
 10
11.91133858267717
 20
-5.444287401574803
  0
LWPOLYLINE
  5
73
330
1F
100
AcDbEntity
  8
Layer 1
 62
     7
370
     9
100
AcDbPolyline
 90
       65
 70
     1
 43
0.0
 10
12.06229527559055
 20
-5.619665354330708
 10
12.0620157480315
 20
-5.626141732283465
 10
12.06117716535433
 20
-5.63236220472441
 10
12.05977952755905
 20
-5.638334645669292
 10
12.05782283464567
 20
-5.644051181102363
 10
12.05530708661417
 20
-5.649511811023622
 10
12.05223228346457
 20
-5.654724409448819
 10
12.04859842519685
 20
-5.659681102362205
 10
12.0444094488189
 20
-5.664385826771653
 10
12.03986220472441
 20
-5.668629921259843
 10
12.03505511811024
 20
-5.672307086614174
 10
12.02999212598425
 20
-5.67542125984252
 10
12.02466535433071
 20
-5.677964566929134
 10
12.01908267716535
 20
-5.679944881889764
 10
12.01324015748031
 20
-5.681358267716536
 10
12.00714173228346
 20
-5.682204724409448
 10
12.00078346456693
 20
-5.682488188976378
 10
11.99447637795276
 20
-5.682208661417323
 10
11.98838582677165
 20
-5.681374015748031
 10
11.98250393700787
 20
-5.679976377952756
 10
11.97683858267717
 20
-5.678023622047244
 10
11.97138188976378
 20
-5.675507874015748
 10
11.96613779527559
 20
-5.672433070866142
 10
11.96110236220473
 20
-5.668799212598425
 10
11.95627952755905
 20
-5.664602362204724
 10
11.95188188976378
 20
-5.660015748031496
 10
11.94807086614173
 20
-5.655133858267717
 10
11.94484645669291
 20
-5.64996062992126
 10
11.94220472440945
 20
-5.644488188976378
 10
11.94015354330709
 20
-5.638724409448819
 10
11.93868503937008
 20
-5.632665354330709
 10
11.93780708661417
 20
-5.626311023622047
 10
11.93751181102362
 20
-5.619665354330708
 10
11.93780708661417
 20
-5.613023622047244
 10
11.93868503937008
 20
-5.606673228346457
 10
11.94015354330709
 20
-5.600618110236221
 10
11.94220472440945
 20
-5.594854330708661
 10
11.94484645669291
 20
-5.589385826771654
 10
11.94807086614173
 20
-5.584212598425196
 10
11.95188188976378
 20
-5.579330708661417
 10
11.95627952755905
 20
-5.574744094488189
 10
11.96110236220473
 20
-5.570547244094488
 10
11.96613779527559
 20
-5.566909448818897
 10
11.97138188976378
 20
-5.563834645669291
 10
11.97683858267717
 20
-5.561318897637795
 10
11.98250393700787
 20
-5.559358267716536
 10
11.98838582677165
 20
-5.55796062992126
 10
11.99447637795276
 20
-5.557122047244095
 10
12.00078346456693
 20
-5.55684251968504
 10
12.00714173228346
 20
-5.557125984251969
 10
12.01324015748031
 20
-5.557976377952756
 10
12.01908267716535
 20
-5.559389763779528
 10
12.02466535433071
 20
-5.561374015748031
 10
12.02999212598425
 20
-5.56392125984252
 10
12.03505511811024
 20
-5.567035433070866
 10
12.03986220472441
 20
-5.570716535433071
 10
12.0444094488189
 20
-5.57496062992126
 10
12.04859842519685
 20
-5.579665354330709
 10
12.05223228346457
 20
-5.584625984251969
 10
12.05530708661417
 20
-5.589834645669291
 10
12.05782283464567
 20
-5.595295275590551
 10
12.05977952755905
 20
-5.601011811023622
 10
12.06117716535433
 20
-5.606976377952756
 10
12.0620157480315
 20
-5.613196850393701
 10
12.06229527559055
 20
-5.619665354330708
  0
LWPOLYLINE
  5
74
330
1F
100
AcDbEntity
  8
Layer 1
 62
     7
370
     9
100
AcDbPolyline
 90
       65
 70
     1
 43
0.0
 10
12.18270078740158
 20
-5.619665354330708
 10
12.1824842519685
 20
-5.624885826771654
 10
12.18182677165354
 20
-5.629909448818897
 10
12.18073622047244
 20
-5.634732283464567
 10
12.1792125984252
 20
-5.639358267716536
 10
12.17724803149606
 20
-5.643783464566929
 10
12.17484645669291
 20
-5.648015748031496
 10
12.17201181102362
 20
-5.652047244094488
 10
12.16874015748031
 20
-5.655885826771653
 10
12.16506299212598
 20
-5.659464566929134
 10
12.16117716535433
 20
-5.662562992125984
 10
12.15707874015748
 20
-5.665188976377952
 10
12.15276771653543
 20
-5.667338582677165
 10
12.14824409448819
 20
-5.669007874015748
 10
12.14350787401575
 20
-5.670200787401575
 10
12.13856299212598
 20
-5.670917322834645
 10
12.13340551181102
 20
-5.67115748031496
 10
12.12836220472441
 20
-5.670917322834645
 10
12.12348031496063
 20
-5.670200787401575
 10
12.11875984251968
 20
-5.669007874015748
 10
12.11420866141732
 20
-5.667338582677165
 10
12.1098188976378
 20
-5.665188976377952
 10
12.1055905511811
 20
-5.662562992125984
 10
12.10153149606299
 20
-5.659464566929134
 10
12.09763385826772
 20
-5.655885826771653
 10
12.09415748031496
 20
-5.652074803149606
 10
12.09114173228346
 20
-5.648055118110237
 10
12.0885905511811
 20
-5.643834645669291
 10
12.08650393700787
 20
-5.639409448818897
 10
12.0848779527559
 20
-5.634779527559055
 10
12.08372047244094
 20
-5.629944881889764
 10
12.08302362204724
 20
-5.624909448818897
 10
12.08279133858268
 20
-5.619665354330708
 10
12.08302362204724
 20
-5.614425196850394
 10
12.08372047244094
 20
-5.609385826771653
 10
12.0848779527559
 20
-5.604555118110237
 10
12.08650393700787
 20
-5.599929133858268
 10
12.0885905511811
 20
-5.595507874015748
 10
12.09114173228346
 20
-5.591287401574803
 10
12.09415748031496
 20
-5.587271653543307
 10
12.09763385826772
 20
-5.58346062992126
 10
12.10153149606299
 20
-5.579881889763779
 10
12.1055905511811
 20
-5.576779527559055
 10
12.1098188976378
 20
-5.574153543307086
 10
12.11420866141732
 20
-5.572003937007874
 10
12.11875984251968
 20
-5.570334645669291
 10
12.12348031496063
 20
-5.569141732283464
 10
12.12836220472441
 20
-5.568429133858268
 10
12.13340551181102
 20
-5.568188976377953
 10
12.13856299212598
 20
-5.568429133858268
 10
12.14350787401575
 20
-5.569141732283464
 10
12.14824409448819
 20
-5.570334645669291
 10
12.15276771653543
 20
-5.572003937007874
 10
12.15707874015748
 20
-5.574153543307086
 10
12.16117716535433
 20
-5.576779527559055
 10
12.16506299212598
 20
-5.579881889763779
 10
12.16874015748031
 20
-5.58346062992126
 10
12.17201181102362
 20
-5.587295275590551
 10
12.17484645669291
 20
-5.591326771653543
 10
12.17724803149606
 20
-5.595555118110236
 10
12.1792125984252
 20
-5.59998031496063
 10
12.18073622047244
 20
-5.604606299212598
 10
12.18182677165354
 20
-5.609429133858268
 10
12.1824842519685
 20
-5.614448818897638
 10
12.18270078740158
 20
-5.619665354330708
  0
LWPOLYLINE
  5
75
330
1F
100
AcDbEntity
  8
Layer 1
 62
     7
370
     9
100
AcDbPolyline
 90
      121
 70
     1
 43
0.0
 10
11.90698031496063
 20
-5.619665354330708
 10
11.90735826771654
 20
-5.629665354330709
 10
11.90849212598425
 20
-5.639263779527559
 10
11.91038582677165
 20
-5.648456692913386
 10
11.91303149606299
 20
-5.657248031496063
 10
11.91643700787402
 20
-5.665633858267716
 10
11.92059842519685
 20
-5.67361811023622
 10
11.9255157480315
 20
-5.681196850393701
 10
11.93118897637795
 20
-5.688377952755905
 10
11.93415748031496
 20
-5.69161811023622
 10
11.93727165354331
 20
-5.694681102362205
 10
11.94053937007874
 20
-5.697562992125984
 10
11.94395275590551
 20
-5.700271653543307
 10
11.9475157480315
 20
-5.702803149606299
 10
11.95123228346457
 20
-5.705157480314961
 10
11.95509448818898
 20
-5.707330708661417
 10
11.9591062992126
 20
-5.709326771653544
 10
11.96327165354331
 20
-5.711114173228347
 10
11.9675905511811
 20
-5.712665354330709
 10
11.97205511811024
 20
-5.713976377952756
 10
11.97667322834646
 20
-5.715051181102362
 10
11.98143700787402
 20
-5.715885826771654
 10
11.98635039370079
 20
-5.716484251968504
 10
11.99141338582677
 20
-5.71684251968504
 10
11.99662598425197
 20
-5.716960629921259
 10
12.00191338582677
 20
-5.716759842519685
 10
12.00718110236221
 20
-5.716153543307087
 10
12.01244094488189
 20
-5.715149606299213
 10
12.01768110236221
 20
-5.713740157480315
 10
12.0229094488189
 20
-5.711929133858268
 10
12.02812598425197
 20
-5.709716535433071
 10
12.03333070866142
 20
-5.707102362204725
 10
12.03851968503937
 20
-5.704086614173228
 10
12.04357874015748
 20
-5.700692913385827
 10
12.04839763779528
 20
-5.696956692913385
 10
12.05298031496063
 20
-5.692870078740158
 10
12.05732283464567
 20
-5.688437007874016
 10
12.06142913385827
 20
-5.683653543307087
 10
12.06529921259843
 20
-5.678527559055119
 10
12.06893307086614
 20
-5.673051181102363
 10
12.07232677165354
 20
-5.667232283464567
 10
12.0797125984252
 20
-5.675515748031496
 10
12.08725590551181
 20
-5.682692913385827
 10
12.09495669291339
 20
-5.688767716535433
 10
12.10281102362205
 20
-5.693736220472441
 10
12.11082283464567
 20
-5.697602362204725
 10
12.11899212598425
 20
-5.700362204724409
 10
12.12731496062992
 20
-5.70201968503937
 10
12.13579921259842
 20
-5.702570866141732
 10
12.14416929133858
 20
-5.702192913385827
 10
12.15214960629921
 20
-5.701055118110236
 10
12.15974015748031
 20
-5.699161417322834
 10
12.16694094488189
 20
-5.696511811023622
 10
12.17375590551181
 20
-5.693102362204725
 10
12.18018110236221
 20
-5.68894094488189
 10
12.18622047244095
 20
-5.68401968503937
 10
12.19187007874016
 20
-5.678346456692913
 10
12.19677559055118
 20
-5.672346456692914
 10
12.20102755905512
 20
-5.665968503937008
 10
12.20462598425197
 20
-5.659204724409449
 10
12.20756692913386
 20
-5.652062992125984
 10
12.20985826771654
 20
-5.644535433070867
 10
12.21149212598425
 20
-5.636629921259843
 10
12.21247244094488
 20
-5.628338582677165
 10
12.21279921259842
 20
-5.619665354330708
 10
12.21247244094488
 20
-5.610996062992126
 10
12.21149212598425
 20
-5.602708661417322
 10
12.20985826771654
 20
-5.5948031496063
 10
12.20756692913386
 20
-5.587275590551181
 10
12.20462598425197
 20
-5.580133858267716
 10
12.20102755905512
 20
-5.573374015748032
 10
12.19677559055118
 20
-5.566996062992126
 10
12.19187007874016
 20
-5.561
 10
12.18622440944882
 20
-5.555322834645669
 10
12.1801968503937
 20
-5.55040157480315
 10
12.1737874015748
 20
-5.546236220472441
 10
12.16699606299213
 20
-5.542830708661417
 10
12.15982677165354
 20
-5.540181102362205
 10
12.15227165354331
 20
-5.538287401574803
 10
12.14433464566929
 20
-5.537153543307086
 10
12.1360157480315
 20
-5.536775590551181
 10
12.1274842519685
 20
-5.537326771653543
 10
12.11911417322835
 20
-5.538984251968504
 10
12.1109094488189
 20
-5.541744094488189
 10
12.10286614173228
 20
-5.545610236220472
 10
12.09498818897638
 20
-5.55057874015748
 10
12.08727165354331
 20
-5.556653543307086
 10
12.07971653543307
 20
-5.563830708661417
 10
12.07232677165354
 20
-5.572114173228346
 10
12.06893307086614
 20
-5.566287401574803
 10
12.06529921259843
 20
-5.560811023622048
 10
12.06142913385827
 20
-5.555681102362205
 10
12.05732283464567
 20
-5.550897637795275
 10
12.05298031496063
 20
-5.546464566929134
 10
12.04839763779528
 20
-5.542377952755905
 10
12.04357874015748
 20
-5.538637795275591
 10
12.03851968503937
 20
-5.535248031496063
 10
12.03331889763779
 20
-5.532232283464567
 10
12.02808661417323
 20
-5.52961811023622
 10
12.0228188976378
 20
-5.527405511811024
 10
12.01751968503937
 20
-5.525598425196851
 10
12.01218503937008
 20
-5.524192913385827
 10
12.0068188976378
 20
-5.523188976377953
 10
12.00141338582677
 20
-5.522586614173228
 10
11.99597637795276
 20
-5.522385826771654
 10
11.98623228346457
 20
-5.522830708661417
 10
11.97696062992126
 20
-5.524169291338582
 10
11.96815748031496
 20
-5.52640157480315
 10
11.95982677165354
 20
-5.529527559055119
 10
11.95196062992126
 20
-5.533543307086614
 10
11.94456692913386
 20
-5.538452755905512
 10
11.93764566929134
 20
-5.544255905511811
 10
11.93118897637795
 20
-5.550952755905512
 10
11.9255157480315
 20
-5.558137795275591
 10
11.92059842519685
 20
-5.565724409448819
 10
11.91643700787402
 20
-5.573708661417323
 10
11.91303149606299
 20
-5.58209842519685
 10
11.91038582677165
 20
-5.590885826771654
 10
11.90849212598425
 20
-5.600074803149607
 10
11.90735826771654
 20
-5.609669291338583
 10
11.90698031496063
 20
-5.619665354330708
  0
LWPOLYLINE
  5
76
330
1F
100
AcDbEntity
  8
Layer 1
 62
     7
370
     9
100
AcDbPolyline
 90
       81
 70
     1
 43
0.0
 10
12.17353543307087
 20
-5.880346456692913
 10
12.17011417322835
 20
-5.885385826771653
 10
12.16623228346457
 20
-5.890086614173228
 10
12.16188188976378
 20
-5.89444094488189
 10
12.15707086614173
 20
-5.898456692913386
 10
12.15179527559055
 20
-5.902129921259842
 10
12.14605905511811
 20
-5.905464566929134
 10
12.13985433070866
 20
-5.908456692913385
 10
12.13318897637795
 20
-5.911106299212598
 10
12.12434251968504
 20
-5.914074803149607
 10
12.11536614173228
 20
-5.916641732283464
 10
12.10625984251969
 20
-5.918814960629922
 10
12.09702755905512
 20
-5.920594488188977
 10
12.08766141732283
 20
-5.921976377952756
 10
12.07816929133858
 20
-5.922964566929134
 10
12.06855118110236
 20
-5.923555118110237
 10
12.05879921259842
 20
-5.923751968503937
 10
12.03720472440945
 20
-5.922452755905512
 10
12.02547637795276
 20
-5.92094094488189
 10
12.01439763779528
 20
-5.918964566929134
 10
12.00396456692913
 20
-5.916523622047244
 10
11.99418110236221
 20
-5.913618110236221
 10
11.98504330708661
 20
-5.910251968503937
 10
11.97655511811024
 20
-5.90642125984252
 10
11.9687125984252
 20
-5.902125984251969
 10
11.96151968503937
 20
-5.897366141732284
 10
11.95609448818898
 20
-5.893023622047244
 10
11.95139763779528
 20
-5.888448818897638
 10
11.94742125984252
 20
-5.883645669291338
 10
11.94416929133858
 20
-5.878606299212598
 10
11.94164173228346
 20
-5.873338582677166
 10
11.93983858267717
 20
-5.867834645669292
 10
11.93875590551181
 20
-5.862102362204724
 10
11.9383937007874
 20
-5.856137795275591
 10
11.93875196850394
 20
-5.84948031496063
 10
11.93982677165354
 20
-5.843141732283464
 10
11.94161417322835
 20
-5.837125984251968
 10
11.94411811023622
 20
-5.831429133858268
 10
11.94733858267717
 20
-5.826051181102362
 10
11.95127165354331
 20
-5.820996062992126
 10
11.95592125984252
 20
-5.816259842519685
 10
11.9612874015748
 20
-5.811846456692914
 10
11.96658267716535
 20
-5.808192913385827
 10
11.97220078740157
 20
-5.804870078740158
 10
11.97814173228346
 20
-5.801870078740158
 10
11.98441338582677
 20
-5.799200787401575
 10
11.99088976377953
 20
-5.796846456692913
 10
11.99744488188976
 20
-5.794787401574803
 10
12.00408661417323
 20
-5.793027559055118
 10
12.01081496062992
 20
-5.791566929133858
 10
12.03698818897638
 20
-5.787854330708662
 10
12.06614173228346
 20
-5.786775590551181
 10
12.07486614173228
 20
-5.787074803149606
 10
12.08458267716535
 20
-5.787972440944882
 10
12.09529921259842
 20
-5.789468503937008
 10
12.1070157480315
 20
-5.791566929133858
 10
12.13340551181102
 20
-5.798984251968504
 10
12.13977952755905
 20
-5.801562992125985
 10
12.14583464566929
 20
-5.804492125984252
 10
12.15155905511811
 20
-5.807775590551181
 10
12.15696062992126
 20
-5.811413385826771
 10
12.16194094488189
 20
-5.81542125984252
 10
12.16640157480315
 20
-5.819814960629921
 10
12.17034251968504
 20
-5.824590551181102
 10
12.17376771653543
 20
-5.829748031496063
 10
12.17524803149606
 20
-5.832476377952756
 10
12.17653149606299
 20
-5.835330708661417
 10
12.17761417322835
 20
-5.838307086614173
 10
12.17850787401575
 20
-5.841409448818897
 10
12.1791968503937
 20
-5.844629921259843
 10
12.17969291338583
 20
-5.84798031496063
 10
12.17999212598425
 20
-5.851448818897638
 10
12.1800905511811
 20
-5.85503937007874
 10
12.17998818897638
 20
-5.858633858267717
 10
12.1796811023622
 20
-5.862106299212599
 10
12.17916929133858
 20
-5.865452755905512
 10
12.17845275590551
 20
-5.868677165354331
 10
12.17753149606299
 20
-5.871779527559055
 10
12.17640551181102
 20
-5.874755905511811
 10
12.17507480314961
 20
-5.877610236220472
 10
12.17353543307087
 20
-5.880346456692913
  0
LWPOLYLINE
  5
77
330
1F
100
AcDbEntity
  8
Layer 1
 62
     7
370
     9
100
AcDbPolyline
 90
       65
 70
     1
 43
0.0
 10
11.90741338582677
 20
-5.856570866141732
 10
11.90822047244095
 20
-5.869307086614174
 10
11.91064566929134
 20
-5.881232283464567
 10
11.91468503937008
 20
-5.892346456692914
 10
11.92033858267717
 20
-5.902649606299213
 10
11.9276062992126
 20
-5.912141732283464
 10
11.93649212598425
 20
-5.920822834645669
 10
11.94699212598425
 20
-5.928692913385826
 10
11.9591062992126
 20
-5.935748031496063
 10
11.96968110236221
 20
-5.940708661417323
 10
11.98084251968504
 20
-5.945007874015748
 10
11.9925905511811
 20
-5.948645669291339
 10
12.00492125984252
 20
-5.951622047244094
 10
12.01783858267716
 20
-5.953937007874016
 10
12.03134251968504
 20
-5.955590551181102
 10
12.04543307086614
 20
-5.956582677165354
 10
12.06011417322835
 20
-5.956913385826772
 10
12.0747874015748
 20
-5.956582677165354
 10
12.08887795275591
 20
-5.955590551181102
 10
12.10238188976378
 20
-5.953937007874016
 10
12.11529921259842
 20
-5.951622047244094
 10
12.12762992125984
 20
-5.948645669291339
 10
12.13937401574803
 20
-5.945007874015748
 10
12.15053543307087
 20
-5.940708661417323
 10
12.1611062992126
 20
-5.935748031496063
 10
12.17322440944882
 20
-5.928692913385826
 10
12.18372834645669
 20
-5.920822834645669
 10
12.19261023622047
 20
-5.912141732283464
 10
12.19988188976378
 20
-5.902649606299213
 10
12.20553149606299
 20
-5.892346456692914
 10
12.20957086614173
 20
-5.881232283464567
 10
12.21199212598425
 20
-5.869307086614174
 10
12.21279921259842
 20
-5.856570866141732
 10
12.21199212598425
 20
-5.843834645669292
 10
12.20957086614173
 20
-5.831909448818898
 10
12.20553149606299
 20
-5.820795275590551
 10
12.19988188976378
 20
-5.810492125984252
 10
12.19261023622047
 20
-5.801
 10
12.18372834645669
 20
-5.792318897637795
 10
12.17322440944882
 20
-5.784448818897638
 10
12.1611062992126
 20
-5.777389763779528
 10
12.15053543307087
 20
-5.772429133858267
 10
12.13937401574803
 20
-5.768129921259843
 10
12.12762992125984
 20
-5.764492125984252
 10
12.11529921259842
 20
-5.761515748031496
 10
12.10238188976378
 20
-5.759200787401575
 10
12.08887795275591
 20
-5.757551181102362
 10
12.0747874015748
 20
-5.75655905511811
 10
12.06011417322835
 20
-5.756228346456693
 10
12.04543307086614
 20
-5.75655905511811
 10
12.03134251968504
 20
-5.757551181102362
 10
12.01783858267716
 20
-5.759200787401575
 10
12.00492125984252
 20
-5.761515748031496
 10
11.9925905511811
 20
-5.764492125984252
 10
11.98084251968504
 20
-5.768129921259843
 10
11.96968110236221
 20
-5.772429133858267
 10
11.9591062992126
 20
-5.777389763779528
 10
11.94699212598425
 20
-5.784448818897638
 10
11.93649212598425
 20
-5.792318897637795
 10
11.9276062992126
 20
-5.801
 10
11.92033858267717
 20
-5.810492125984252
 10
11.91468503937008
 20
-5.820795275590551
 10
11.91064566929134
 20
-5.831909448818898
 10
11.90822047244095
 20
-5.843834645669292
 10
11.90741338582677
 20
-5.856570866141732
  0
LWPOLYLINE
  5
78
330
1F
100
AcDbEntity
  8
Layer 1
 62
     7
370
     9
100
AcDbPolyline
 90
        4
 70
     1
 43
0.0
 10
10.72836614173228
 20
-9.115685039370078
 10
10.72836614173228
 20
-9.28713779527559
 10
10.61493307086614
 20
-9.28713779527559
 10
10.72836614173228
 20
-9.115685039370078
  0
LWPOLYLINE
  5
79
330
1F
100
AcDbEntity
  8
Layer 1
 62
     7
370
     9
100
AcDbPolyline
 90
       11
 70
     1
 43
0.0
 10
10.7602125984252
 20
-9.318547244094487
 10
10.79773228346457
 20
-9.318547244094487
 10
10.79773228346457
 20
-9.28713779527559
 10
10.7602125984252
 20
-9.28713779527559
 10
10.75977952755906
 20
-9.082527559055118
 10
10.71701968503937
 20
-9.082527559055118
 10
10.56082677165354
 20
-9.318547244094487
 10
10.72836614173228
 20
-9.318547244094487
 10
10.72836614173228
 20
-9.379192913385827
 10
10.7602125984252
 20
-9.379192913385827
 10
10.7602125984252
 20
-9.318547244094487
  0
LWPOLYLINE
  5
7A
330
1F
100
AcDbEntity
  8
Layer 1
 62
     7
370
     9
100
AcDbPolyline
 90
       87
 70
     1
 43
0.0
 10
10.8457125984252
 20
-9.379192913385827
 10
11.05468503937008
 20
-9.379192913385827
 10
11.05468503937008
 20
-9.348645669291338
 10
10.91945275590551
 20
-9.348645669291338
 10
11.02283858267717
 20
-9.246125984251968
 10
11.0295905511811
 20
-9.238748031496064
 10
11.03543700787402
 20
-9.231
 10
11.04038976377953
 20
-9.22288188976378
 10
11.04443700787402
 20
-9.2143937007874
 10
11.04758661417323
 20
-9.205539370078741
 10
11.04983858267716
 20
-9.196314960629921
 10
11.05118897637795
 20
-9.18672440944882
 10
11.05163779527559
 20
-9.176763779527558
 10
11.05117716535433
 20
-9.16657874015748
 10
11.04979921259842
 20
-9.156803149606299
 10
11.04749606299213
 20
-9.147437007874016
 10
11.04427559055118
 20
-9.13848031496063
 10
11.04013385826772
 20
-9.129929133858267
 10
11.03507480314961
 20
-9.121791338582677
 10
11.0290905511811
 20
-9.11405905511811
 10
11.02218897637795
 20
-9.106736220472442
 10
11.01451968503937
 20
-9.099937007874015
 10
11.00650787401575
 20
-9.094043307086615
 10
10.99815748031496
 20
-9.08905905511811
 10
10.98946850393701
 20
-9.08498031496063
 10
10.98043700787402
 20
-9.081811023622047
 10
10.97106299212598
 20
-9.079543307086615
 10
10.96135039370079
 20
-9.078185039370078
 10
10.95129527559055
 20
-9.077732283464567
 10
10.94085433070866
 20
-9.078208661417323
 10
10.93079921259842
 20
-9.079641732283465
 10
10.92113779527559
 20
-9.082023622047243
 10
10.91186220472441
 20
-9.08536220472441
 10
10.90297637795276
 20
-9.08965748031496
 10
10.89448031496063
 20
-9.094905511811024
 10
10.88637401574803
 20
-9.1011062992126
 10
10.87865748031496
 20
-9.10826377952756
 10
10.87178346456693
 20
-9.115964566929135
 10
10.86588188976378
 20
-9.124070866141732
 10
10.86095275590551
 20
-9.132574803149605
 10
10.85700393700787
 20
-9.14148031496063
 10
10.85402755905512
 20
-9.150791338582676
 10
10.85202755905512
 20
-9.1605
 10
10.851
 20
-9.170610236220472
 10
10.85095275590551
 20
-9.181122047244095
 10
10.88191732283465
 20
-9.181122047244095
 10
10.88166141732284
 20
-9.174303149606299
 10
10.88213779527559
 20
-9.16763779527559
 10
10.88335433070866
 20
-9.161129921259842
 10
10.8853031496063
 20
-9.154783464566929
 10
10.88799212598425
 20
-9.148590551181103
 10
10.89141338582677
 20
-9.142555118110236
 10
10.89557480314961
 20
-9.13667716535433
 10
10.90046850393701
 20
-9.130956692913387
 10
10.90570078740157
 20
-9.125842519685039
 10
10.91120472440945
 20
-9.121413385826772
 10
10.91698818897638
 20
-9.117661417322834
 10
10.92303937007874
 20
-9.114594488188976
 10
10.92936614173228
 20
-9.112212598425197
 10
10.93596456692913
 20
-9.110507874015749
 10
10.94283858267717
 20
-9.109484251968503
 10
10.9499842519685
 20
-9.109145669291339
 10
10.95699212598425
 20
-9.109452755905512
 10
10.96373622047244
 20
-9.11037401574803
 10
10.97021653543307
 20
-9.111905511811024
 10
10.97642913385827
 20
-9.114051181102361
 10
10.98237795275591
 20
-9.116811023622047
 10
10.98805905511811
 20
-9.120188976377953
 10
10.99347637795276
 20
-9.12417716535433
 10
10.99862992125984
 20
-9.128779527559056
 10
11.00338582677165
 20
-9.133862204724409
 10
11.00750787401575
 20
-9.139192913385827
 10
11.01099212598425
 20
-9.144767716535434
 10
11.01384645669291
 20
-9.150590551181102
 10
11.01606299212598
 20
-9.156653543307087
 10
11.01764566929134
 20
-9.162968503937007
 10
11.01859842519685
 20
-9.169523622047244
 10
11.01891338582677
 20
-9.176330708661418
 10
11.0186062992126
 20
-9.183283464566928
 10
11.01768897637795
 20
-9.189964566929135
 10
11.01615354330709
 20
-9.196374015748031
 10
11.01400787401575
 20
-9.202507874015748
 10
11.01124803149606
 20
-9.208370078740158
 10
11.00787007874016
 20
-9.213956692913387
 10
11.00388188976378
 20
-9.219271653543307
 10
10.99927952755906
 20
-9.224311023622047
 10
10.8457125984252
 20
-9.379192913385827
  0
LWPOLYLINE
  5
7B
330
1F
100
AcDbEntity
  8
Layer 1
 62
     7
100
AcDbPolyline
 90
       67
 70
     1
 43
0.0
 10
10.38371653543307
 20
-1.713704724409449
 10
10.37896456692913
 20
-1.704590551181102
 10
10.37452362204724
 20
-1.695346456692913
 10
10.37038582677165
 20
-1.685968503937008
 10
10.36655511811024
 20
-1.67646062992126
 10
10.36303149606299
 20
-1.666818897637795
 10
10.3598188976378
 20
-1.657047244094488
 10
10.35691338582677
 20
-1.647145669291339
 10
10.35431889763779
 20
-1.637114173228347
 10
10.35201181102362
 20
-1.626925196850394
 10
10.35001181102362
 20
-1.61659842519685
 10
10.34832677165354
 20
-1.606137795275591
 10
10.34694488188976
 20
-1.595535433070866
 10
10.34587401574803
 20
-1.584799212598425
 10
10.3451062992126
 20
-1.573925196850394
 10
10.34464960629921
 20
-1.562913385826772
 10
10.34449606299213
 20
-1.551767716535433
 10
10.34464960629921
 20
-1.540070866141732
 10
10.3451062992126
 20
-1.528582677165354
 10
10.34586614173228
 20
-1.517307086614173
 10
10.34692913385827
 20
-1.506244094488189
 10
10.34829527559055
 20
-1.495393700787402
 10
10.34996456692913
 20
-1.484755905511811
 10
10.35193307086614
 20
-1.474334645669291
 10
10.35420472440945
 20
-1.464125984251968
 10
10.35679921259842
 20
-1.454090551181102
 10
10.35970866141732
 20
-1.444220472440945
 10
10.36292519685039
 20
-1.434515748031496
 10
10.36645669291339
 20
-1.42498031496063
 10
10.37029921259843
 20
-1.415610236220473
 10
10.37445669291339
 20
-1.406405511811024
 10
10.37892913385827
 20
-1.397366141732284
 10
10.38371653543307
 20
-1.388488188976378
 10
10.4104842519685
 20
-1.396570866141732
 10
10.40622834645669
 20
-1.405330708661417
 10
10.40225590551181
 20
-1.414181102362205
 10
10.39856692913386
 20
-1.423129921259843
 10
10.39515748031496
 20
-1.432173228346457
 10
10.39203149606299
 20
-1.441307086614173
 10
10.38918897637795
 20
-1.45053937007874
 10
10.38662204724409
 20
-1.459866141732284
 10
10.38433858267716
 20
-1.469287401574803
 10
10.38234251968504
 20
-1.478874015748032
 10
10.38061023622047
 20
-1.488649606299213
 10
10.37914566929134
 20
-1.49861811023622
 10
10.37794488188976
 20
-1.508783464566929
 10
10.37701181102362
 20
-1.519145669291339
 10
10.37634251968504
 20
-1.529704724409449
 10
10.37594094488189
 20
-1.540468503937008
 10
10.37580708661417
 20
-1.551433070866142
 10
10.37593700787402
 20
-1.562885826771653
 10
10.37633464566929
 20
-1.574062992125984
 10
10.37699212598425
 20
-1.58496062992126
 10
10.37791732283465
 20
-1.59557874015748
 10
10.3791062992126
 20
-1.605917322834646
 10
10.38056299212598
 20
-1.615976377952756
 10
10.3822874015748
 20
-1.625755905511811
 10
10.38427952755906
 20
-1.635259842519685
 10
10.38653149606299
 20
-1.644562992125984
 10
10.38907480314961
 20
-1.653692913385827
 10
10.39191338582677
 20
-1.662661417322835
 10
10.39504330708662
 20
-1.67146062992126
 10
10.39846850393701
 20
-1.680094488188976
 10
10.4021811023622
 20
-1.688562992125984
 10
10.40618897637795
 20
-1.696866141732283
 10
10.4104842519685
 20
-1.705003937007874
 10
10.38371653543307
 20
-1.713704724409449
  0
LWPOLYLINE
  5
7C
330
1F
100
AcDbEntity
  8
Layer 1
 62
     7
100
AcDbPolyline
 90
        7
 70
     1
 43
0.0
 10
10.50783464566929
 20
-1.640311023622047
 10
10.50783464566929
 20
-1.432925196850394
 10
10.45800787401575
 20
-1.432925196850394
 10
10.47315354330709
 20
-1.40196062992126
 10
10.5435157480315
 20
-1.40196062992126
 10
10.5435157480315
 20
-1.640311023622047
 10
10.50783464566929
 20
-1.640311023622047
  0
LWPOLYLINE
  5
7D
330
1F
100
AcDbEntity
  8
Layer 1
 62
     7
100
AcDbPolyline
 90
      114
 70
     1
 43
0.0
 10
10.66106692913386
 20
-1.582799212598425
 10
10.66324409448819
 20
-1.58655905511811
 10
10.66557086614173
 20
-1.590090551181102
 10
10.66804330708661
 20
-1.593393700787402
 10
10.67066141732283
 20
-1.596468503937008
 10
10.67342913385827
 20
-1.599314960629921
 10
10.67634251968504
 20
-1.601933070866142
 10
10.67940551181102
 20
-1.604322834645669
 10
10.68261417322835
 20
-1.60648031496063
 10
10.68596062992126
 20
-1.608413385826772
 10
10.68939763779528
 20
-1.610086614173228
 10
10.69292519685039
 20
-1.611503937007874
 10
10.69654330708661
 20
-1.612665354330709
 10
10.70024803149606
 20
-1.613566929133858
 10
10.70404330708661
 20
-1.614212598425197
 10
10.70792913385827
 20
-1.61459842519685
 10
10.71190551181102
 20
-1.614728346456693
 10
10.71773622047244
 20
-1.614492125984252
 10
10.72327952755906
 20
-1.613779527559055
 10
10.72853543307087
 20
-1.612594488188976
 10
10.73350393700787
 20
-1.610933070866142
 10
10.73819291338583
 20
-1.608795275590551
 10
10.74259448818898
 20
-1.606181102362205
 10
10.74672047244094
 20
-1.603090551181102
 10
10.75056299212598
 20
-1.59951968503937
 10
10.75403543307087
 20
-1.59555905511811
 10
10.75704330708661
 20
-1.591303149606299
 10
10.7595905511811
 20
-1.586744094488189
 10
10.76167322834646
 20
-1.581885826771654
 10
10.76329527559055
 20
-1.576728346456693
 10
10.76445275590551
 20
-1.571271653543307
 10
10.76514566929134
 20
-1.565515748031496
 10
10.76537795275591
 20
-1.55946062992126
 10
10.76513385826772
 20
-1.553625984251968
 10
10.7644094488189
 20
-1.548074803149606
 10
10.7631968503937
 20
-1.542803149606299
 10
10.7615
 20
-1.537814960629921
 10
10.75931496062992
 20
-1.533102362204724
 10
10.75664173228346
 20
-1.528669291338583
 10
10.75348031496063
 20
-1.524511811023622
 10
10.74983464566929
 20
-1.520629921259842
 10
10.74579133858268
 20
-1.517118110236221
 10
10.74144881889764
 20
-1.514074803149606
 10
10.73680708661417
 20
-1.5115
 10
10.73186614173228
 20
-1.509393700787402
 10
10.72662204724409
 20
-1.507755905511811
 10
10.72108267716535
 20
-1.506586614173228
 10
10.71524015748031
 20
-1.50588188976378
 10
10.70909842519685
 20
-1.505649606299213
 10
10.70166929133858
 20
-1.505976377952756
 10
10.69452362204724
 20
-1.506948818897638
 10
10.68764960629921
 20
-1.508562992125984
 10
10.68104330708661
 20
-1.510811023622047
 10
10.67479133858268
 20
-1.513724409448819
 10
10.66891732283465
 20
-1.517263779527559
 10
10.6634094488189
 20
-1.521433070866142
 10
10.65825984251969
 20
-1.526244094488189
 10
10.64855511811024
 20
-1.524051181102362
 10
10.6785157480315
 20
-1.40196062992126
 10
10.79225196850394
 20
-1.40196062992126
 10
10.79225196850394
 20
-1.433602362204724
 10
10.70202755905512
 20
-1.433602362204724
 10
10.68788976377953
 20
-1.486736220472441
 10
10.70696456692913
 20
-1.480681102362205
 10
10.72537007874016
 20
-1.478712598425197
 10
10.73375590551181
 20
-1.47905905511811
 10
10.74174015748032
 20
-1.480090551181102
 10
10.74932283464567
 20
-1.481814960629921
 10
10.75650393700787
 20
-1.484228346456693
 10
10.76328346456693
 20
-1.487326771653543
 10
10.76965748031496
 20
-1.491118110236221
 10
10.77562992125984
 20
-1.49559842519685
 10
10.7811968503937
 20
-1.500763779527559
 10
10.78624803149606
 20
-1.506468503937008
 10
10.79062598425197
 20
-1.512590551181102
 10
10.79432677165354
 20
-1.519133858267717
 10
10.79735826771654
 20
-1.526094488188976
 10
10.7997125984252
 20
-1.533472440944882
 10
10.80139763779528
 20
-1.541267716535433
 10
10.80240551181102
 20
-1.54948031496063
 10
10.80274409448819
 20
-1.558110236220472
 10
10.80235039370079
 20
-1.567956692913386
 10
10.80117716535433
 20
-1.577299212598425
 10
10.79921653543307
 20
-1.586129921259843
 10
10.79646850393701
 20
-1.594456692913386
 10
10.79293307086614
 20
-1.602271653543307
 10
10.78861417322835
 20
-1.609574803149606
 10
10.78350393700787
 20
-1.61636220472441
 10
10.7776062992126
 20
-1.622637795275591
 10
10.77105118110236
 20
-1.628279527559055
 10
10.76396062992126
 20
-1.633169291338583
 10
10.75633858267716
 20
-1.637307086614173
 10
10.74818503937008
 20
-1.640692913385827
 10
10.73949606299213
 20
-1.643322834645669
 10
10.73027165354331
 20
-1.645204724409449
 10
10.72051181102362
 20
-1.646330708661417
 10
10.71021653543307
 20
-1.646708661417323
 10
10.70407086614173
 20
-1.646574803149606
 10
10.69812992125984
 20
-1.646169291338583
 10
10.6923937007874
 20
-1.6455
 10
10.68686220472441
 20
-1.644555118110236
 10
10.68153937007874
 20
-1.643342519685039
 10
10.67641732283465
 20
-1.641854330708661
 10
10.6715
 20
-1.64009842519685
 10
10.66679133858268
 20
-1.638066929133858
 10
10.66227952755906
 20
-1.635771653543307
 10
10.65792519685039
 20
-1.633185039370079
 10
10.65372047244094
 20
-1.630299212598425
 10
10.64967716535433
 20
-1.62711811023622
 10
10.64579133858268
 20
-1.623641732283465
 10
10.64206299212598
 20
-1.619866141732283
 10
10.63849606299213
 20
-1.615791338582677
 10
10.6350905511811
 20
-1.611417322834646
 10
10.66106692913386
 20
-1.582799212598425
  0
LWPOLYLINE
  5
7E
330
1F
100
AcDbEntity
  8
Layer 1
 62
     7
100
AcDbPolyline
 90
       65
 70
     1
 43
0.0
 10
11.01383070866142
 20
-1.524444881889764
 10
11.01346850393701
 20
-1.538385826771653
 10
11.01238976377953
 20
-1.551555118110236
 10
11.01058267716535
 20
-1.563948818897638
 10
11.00805905511811
 20
-1.575566929133858
 10
11.00480708661417
 20
-1.586409448818898
 10
11.00083070866142
 20
-1.596476377952756
 10
10.99613385826772
 20
-1.605763779527559
 10
10.99070866141732
 20
-1.614275590551181
 10
10.98467322834646
 20
-1.621870078740157
 10
10.97809842519685
 20
-1.628456692913386
 10
10.97097637795276
 20
-1.634031496062992
 10
10.96331496062992
 20
-1.638594488188976
 10
10.95511417322835
 20
-1.642141732283465
 10
10.94636614173228
 20
-1.644677165354331
 10
10.93708267716536
 20
-1.646200787401575
 10
10.92725196850394
 20
-1.646708661417323
 10
10.91729133858268
 20
-1.646196850393701
 10
10.90790551181102
 20
-1.644657480314961
 10
10.8990905511811
 20
-1.642094488188976
 10
10.89084645669291
 20
-1.638507874015748
 10
10.88316929133858
 20
-1.633897637795276
 10
10.87606692913386
 20
-1.628267716535433
 10
10.86953149606299
 20
-1.621614173228346
 10
10.86356692913386
 20
-1.61394094488189
 10
10.85822440944882
 20
-1.605322834645669
 10
10.85359448818898
 20
-1.595874015748032
 10
10.84967716535433
 20
-1.585602362204724
 10
10.84647637795276
 20
-1.5745
 10
10.8439842519685
 20
-1.562570866141732
 10
10.84220866141732
 20
-1.549814960629921
 10
10.84114173228346
 20
-1.536224409448819
 10
10.8407874015748
 20
-1.521807086614173
 10
10.84114566929134
 20
-1.507503937007874
 10
10.84222834645669
 20
-1.494011811023622
 10
10.84402755905512
 20
-1.481330708661417
 10
10.84654330708661
 20
-1.469464566929134
 10
10.84977952755906
 20
-1.458405511811024
 10
10.85373622047244
 20
-1.448165354330709
 10
10.85840551181102
 20
-1.438736220472441
 10
10.86379133858268
 20
-1.430125984251968
 10
10.8698188976378
 20
-1.422413385826772
 10
10.87640551181102
 20
-1.415728346456693
 10
10.88355511811024
 20
-1.41007874015748
 10
10.89126377952756
 20
-1.405456692913386
 10
10.89953543307087
 20
-1.401862204724409
 10
10.90836220472441
 20
-1.399295275590551
 10
10.91775196850394
 20
-1.397755905511811
 10
10.9276968503937
 20
-1.397244094488189
 10
10.93775196850394
 20
-1.397759842519685
 10
10.94721653543307
 20
-1.399303149606299
 10
10.95608267716535
 20
-1.401881889763779
 10
10.96435433070866
 20
-1.405484251968504
 10
10.97203149606299
 20
-1.410118110236221
 10
10.97911417322835
 20
-1.415779527559055
 10
10.98560236220472
 20
-1.422464566929134
 10
10.99149606299213
 20
-1.430181102362205
 10
10.99672440944882
 20
-1.438870078740157
 10
11.00125984251969
 20
-1.448444881889764
 10
11.00509842519685
 20
-1.45890157480315
 10
11.00824015748032
 20
-1.470244094488189
 10
11.01068503937008
 20
-1.482468503937008
 10
11.01243307086614
 20
-1.49557874015748
 10
11.01348031496063
 20
-1.509570866141732
 10
11.01383070866142
 20
-1.524444881889764
  0
LWPOLYLINE
  5
7F
330
1F
100
AcDbEntity
  8
Layer 1
 62
     7
100
AcDbPolyline
 90
       65
 70
     1
 43
0.0
 10
10.92657874015748
 20
-1.613043307086614
 10
10.93238976377953
 20
-1.612685039370079
 10
10.93783464566929
 20
-1.611610236220473
 10
10.94290551181102
 20
-1.609822834645669
 10
10.9476062992126
 20
-1.607314960629921
 10
10.95193307086614
 20
-1.604086614173228
 10
10.95588582677165
 20
-1.600141732283465
 10
10.95946062992126
 20
-1.59548031496063
 10
10.96265748031496
 20
-1.590094488188976
 10
10.96549606299213
 20
-1.584011811023622
 10
10.96796062992126
 20
-1.577216535433071
 10
10.97004330708661
 20
-1.569708661417323
 10
10.97174803149606
 20
-1.561484251968504
 10
10.97307086614173
 20
-1.552547244094488
 10
10.97401968503937
 20
-1.54290157480315
 10
10.97458661417323
 20
-1.53253937007874
 10
10.97477559055118
 20
-1.521468503937008
 10
10.9745905511811
 20
-1.510708661417323
 10
10.97402755905512
 20
-1.500610236220473
 10
10.97309448818898
 20
-1.491165354330709
 10
10.9717874015748
 20
-1.482385826771654
 10
10.9701062992126
 20
-1.474259842519685
 10
10.96805511811024
 20
-1.466799212598425
 10
10.96562598425197
 20
-1.459996062992126
 10
10.96282677165354
 20
-1.453858267716535
 10
10.95968503937008
 20
-1.448393700787401
 10
10.9561968503937
 20
-1.443661417322835
 10
10.95236614173228
 20
-1.439657480314961
 10
10.94818897637795
 20
-1.436385826771654
 10
10.94366535433071
 20
-1.433842519685039
 10
10.93879921259843
 20
-1.432023622047244
 10
10.93358661417323
 20
-1.430933070866142
 10
10.92803543307087
 20
-1.430570866141732
 10
10.92226377952756
 20
-1.430933070866142
 10
10.91685433070866
 20
-1.432023622047244
 10
10.91180708661417
 20
-1.433834645669291
 10
10.90712598425197
 20
-1.436370078740157
 10
10.9028031496063
 20
-1.439629921259842
 10
10.89884645669291
 20
-1.443614173228347
 10
10.89524803149606
 20
-1.448318897637795
 10
10.8920157480315
 20
-1.453744094488189
 10
10.88915748031496
 20
-1.459893700787402
 10
10.88668110236221
 20
-1.466728346456693
 10
10.88458661417323
 20
-1.474248031496063
 10
10.88287401574803
 20
-1.482452755905512
 10
10.88154724409449
 20
-1.491342519685039
 10
10.88059842519685
 20
-1.500925196850394
 10
10.88002755905512
 20
-1.511188976377953
 10
10.87983858267716
 20
-1.522145669291339
 10
10.88002755905512
 20
-1.532791338582677
 10
10.88059448818898
 20
-1.542807086614173
 10
10.88154330708661
 20
-1.552185039370079
 10
10.88287007874016
 20
-1.560929133858268
 10
10.88457086614173
 20
-1.56903937007874
 10
10.88665354330709
 20
-1.576507874015748
 10
10.88911811023622
 20
-1.583342519685039
 10
10.89195669291339
 20
-1.589531496062992
 10
10.89512992125984
 20
-1.595035433070866
 10
10.89863779527559
 20
-1.599811023622047
 10
10.90247244094488
 20
-1.603850393700787
 10
10.90663779527559
 20
-1.607157480314961
 10
10.91112992125984
 20
-1.609732283464567
 10
10.91595275590551
 20
-1.611570866141732
 10
10.92110236220472
 20
-1.612677165354331
 10
10.92657874015748
 20
-1.613043307086614
  0
LWPOLYLINE
  5
80
330
1F
100
AcDbEntity
  8
Layer 1
 62
     7
100
AcDbPolyline
 90
      141
 70
     1
 43
0.0
 10
11.08924409448819
 20
-1.640311023622047
 10
11.05355511811024
 20
-1.640311023622047
 10
11.05355511811024
 20
-1.48444094488189
 10
11.0871062992126
 20
-1.48444094488189
 10
11.0871062992126
 20
-1.510023622047244
 10
11.08982283464567
 20
-1.50607874015748
 10
11.09262992125984
 20
-1.502409448818898
 10
11.09552755905512
 20
-1.499015748031496
 10
11.09851181102362
 20
-1.495893700787402
 10
11.10158661417323
 20
-1.493051181102362
 10
11.10475196850394
 20
-1.490484251968504
 10
11.10800393700787
 20
-1.488192913385827
 10
11.11134645669291
 20
-1.486181102362205
 10
11.11481102362205
 20
-1.484425196850394
 10
11.11842913385827
 20
-1.482905511811024
 10
11.1221968503937
 20
-1.481622047244094
 10
11.12611811023622
 20
-1.480574803149606
 10
11.13019291338583
 20
-1.479759842519685
 10
11.13441732283465
 20
-1.479177165354331
 10
11.13879921259842
 20
-1.478826771653543
 10
11.14333070866142
 20
-1.478712598425197
 10
11.14779921259843
 20
-1.478830708661417
 10
11.15207086614173
 20
-1.479188976377953
 10
11.15614960629921
 20
-1.479783464566929
 10
11.16003149606299
 20
-1.480614173228346
 10
11.1637125984252
 20
-1.481688976377953
 10
11.16720078740157
 20
-1.483
 10
11.17048818897638
 20
-1.484551181102362
 10
11.17357480314961
 20
-1.486346456692913
 10
11.17649212598425
 20
-1.488385826771654
 10
11.17922440944882
 20
-1.490677165354331
 10
11.18177559055118
 20
-1.493220472440945
 10
11.18414566929134
 20
-1.496015748031496
 10
11.18633070866142
 20
-1.49905905511811
 10
11.18833464566929
 20
-1.502354330708661
 10
11.19016141732283
 20
-1.505897637795276
 10
11.19180708661417
 20
-1.509688976377953
 10
11.19492519685039
 20
-1.505787401574803
 10
11.19808661417323
 20
-1.502157480314961
 10
11.20129921259842
 20
-1.498799212598425
 10
11.20455905511811
 20
-1.495716535433071
 10
11.20786614173228
 20
-1.492909448818898
 10
11.21122047244094
 20
-1.490374015748031
 10
11.21461811023622
 20
-1.488110236220472
 10
11.21806692913386
 20
-1.486122047244095
 10
11.22159842519685
 20
-1.484385826771654
 10
11.22525196850394
 20
-1.482881889763779
 10
11.22902755905512
 20
-1.481606299212598
 10
11.23292519685039
 20
-1.480566929133858
 10
11.23694094488189
 20
-1.479755905511811
 10
11.24107874015748
 20
-1.479177165354331
 10
11.24533464566929
 20
-1.478826771653543
 10
11.24971653543307
 20
-1.478712598425197
 10
11.25717716535433
 20
-1.479070866141732
 10
11.26414960629921
 20
-1.480137795275591
 10
11.26745669291339
 20
-1.480937007874016
 10
11.27064173228347
 20
-1.481909448818898
 10
11.27370472440945
 20
-1.48305905511811
 10
11.27664960629921
 20
-1.484381889763779
 10
11.27944881889764
 20
-1.485893700787402
 10
11.28208661417323
 20
-1.487562992125984
 10
11.28456299212598
 20
-1.489389763779527
 10
11.2868779527559
 20
-1.491374015748032
 10
11.28903543307087
 20
-1.493523622047244
 10
11.29102755905512
 20
-1.495830708661417
 10
11.29286614173228
 20
-1.498303149606299
 10
11.29454330708661
 20
-1.500937007874016
 10
11.29595669291339
 20
-1.503594488188976
 10
11.29715748031496
 20
-1.506515748031496
 10
11.29814566929134
 20
-1.509692913385827
 10
11.29892519685039
 20
-1.513110236220472
 10
11.30033070866142
 20
-1.533311023622047
 10
11.30033070866142
 20
-1.545822834645669
 10
11.30033070866142
 20
-1.640311023622047
 10
11.26464173228347
 20
-1.640311023622047
 10
11.26464173228347
 20
-1.560299212598425
 10
11.26453543307087
 20
-1.552783464566929
 10
11.26422047244094
 20
-1.54594094488189
 10
11.2636968503937
 20
-1.539763779527559
 10
11.26296456692913
 20
-1.534255905511811
 10
11.26202362204724
 20
-1.52942125984252
 10
11.26087795275591
 20
-1.525259842519685
 10
11.25952362204724
 20
-1.521767716535433
 10
11.25796456692913
 20
-1.518948818897638
 10
11.25613779527559
 20
-1.51661811023622
 10
11.2539842519685
 20
-1.514602362204724
 10
11.25150787401575
 20
-1.512893700787401
 10
11.24870472440945
 20
-1.511496062992126
 10
11.24557480314961
 20
-1.510409448818898
 10
11.24211811023622
 20
-1.509633858267716
 10
11.23833464566929
 20
-1.509165354330709
 10
11.23422834645669
 20
-1.509011811023622
 10
11.22915748031496
 20
-1.509220472440945
 10
11.22446456692913
 20
-1.509854330708661
 10
11.22015354330709
 20
-1.51090157480315
 10
11.21622047244094
 20
-1.512370078740157
 10
11.21266141732283
 20
-1.514259842519685
 10
11.2094842519685
 20
-1.516562992125984
 10
11.20668897637795
 20
-1.519287401574803
 10
11.20426771653543
 20
-1.522425196850394
 10
11.20215748031496
 20
-1.526086614173228
 10
11.20033070866142
 20
-1.530377952755906
 10
11.1987874015748
 20
-1.535299212598425
 10
11.19752755905512
 20
-1.540850393700787
 10
11.19654724409449
 20
-1.547027559055118
 10
11.19584645669291
 20
-1.553834645669291
 10
11.19542519685039
 20
-1.561271653543307
 10
11.1952874015748
 20
-1.569330708661417
 10
11.1952874015748
 20
-1.640311023622047
 10
11.15926377952756
 20
-1.640311023622047
 10
11.15926377952756
 20
-1.560299212598425
 10
11.15915748031496
 20
-1.553338582677165
 10
11.15883070866142
 20
-1.546937007874016
 10
11.15829133858268
 20
-1.541090551181102
 10
11.15753543307087
 20
-1.535799212598425
 10
11.15655511811024
 20
-1.531066929133858
 10
11.15536220472441
 20
-1.526885826771654
 10
11.15394488188976
 20
-1.523255905511811
 10
11.15230708661417
 20
-1.520181102362205
 10
11.15040157480315
 20
-1.51755905511811
 10
11.14817322834646
 20
-1.515287401574803
 10
11.14562992125984
 20
-1.513370078740157
 10
11.14276771653543
 20
-1.511799212598425
 10
11.1395905511811
 20
-1.51057874015748
 10
11.13610236220472
 20
-1.509708661417323
 10
11.13229527559055
 20
-1.509185039370079
 10
11.12818110236221
 20
-1.509011811023622
 10
11.12303543307087
 20
-1.509307086614173
 10
11.11812204724409
 20
-1.510200787401575
 10
11.11344094488189
 20
-1.511688976377953
 10
11.10898818897638
 20
-1.513783464566929
 10
11.10484645669291
 20
-1.51640157480315
 10
11.10115748031496
 20
-1.519464566929134
 10
11.09792125984252
 20
-1.522968503937008
 10
11.09513385826772
 20
-1.526913385826772
 10
11.09361811023622
 20
-1.529795275590551
 10
11.09235039370079
 20
-1.532972440944882
 10
11.09132283464567
 20
-1.536444881889764
 10
11.09053149606299
 20
-1.540208661417323
 10
11.08924409448819
 20
-1.569330708661417
 10
11.08924409448819
 20
-1.640311023622047
  0
LWPOLYLINE
  5
81
330
1F
100
AcDbEntity
  8
Layer 1
 62
     7
100
AcDbPolyline
 90
      141
 70
     1
 43
0.0
 10
11.38382283464567
 20
-1.640311023622047
 10
11.34813385826772
 20
-1.640311023622047
 10
11.34813385826772
 20
-1.48444094488189
 10
11.38168503937008
 20
-1.48444094488189
 10
11.38168503937008
 20
-1.510023622047244
 10
11.38440157480315
 20
-1.50607874015748
 10
11.38720866141732
 20
-1.502409448818898
 10
11.3901062992126
 20
-1.499015748031496
 10
11.3930905511811
 20
-1.495893700787402
 10
11.39616535433071
 20
-1.493051181102362
 10
11.39933070866142
 20
-1.490484251968504
 10
11.40258267716535
 20
-1.488192913385827
 10
11.40592519685039
 20
-1.486181102362205
 10
11.40938976377953
 20
-1.484425196850394
 10
11.41300787401575
 20
-1.482905511811024
 10
11.41677559055118
 20
-1.481622047244094
 10
11.4206968503937
 20
-1.480574803149606
 10
11.42477165354331
 20
-1.479759842519685
 10
11.42899606299213
 20
-1.479177165354331
 10
11.43337795275591
 20
-1.478826771653543
 10
11.4379094488189
 20
-1.478712598425197
 10
11.4423779527559
 20
-1.478830708661417
 10
11.44665354330709
 20
-1.479188976377953
 10
11.45072834645669
 20
-1.479783464566929
 10
11.45461023622047
 20
-1.480614173228346
 10
11.45829133858268
 20
-1.481688976377953
 10
11.46177952755906
 20
-1.483
 10
11.46506692913386
 20
-1.484551181102362
 10
11.46815354330709
 20
-1.486346456692913
 10
11.47107086614173
 20
-1.488385826771654
 10
11.4738031496063
 20
-1.490677165354331
 10
11.47635433070866
 20
-1.493220472440945
 10
11.47872440944882
 20
-1.496015748031496
 10
11.4809094488189
 20
-1.49905905511811
 10
11.48291338582677
 20
-1.502354330708661
 10
11.48474015748032
 20
-1.505897637795276
 10
11.48638582677165
 20
-1.509688976377953
 10
11.48950393700787
 20
-1.505787401574803
 10
11.49266929133858
 20
-1.502157480314961
 10
11.49587795275591
 20
-1.498799212598425
 10
11.49913779527559
 20
-1.495716535433071
 10
11.50244488188976
 20
-1.492909448818898
 10
11.50579921259843
 20
-1.490374015748031
 10
11.50920078740157
 20
-1.488110236220472
 10
11.51264566929134
 20
-1.486122047244095
 10
11.51617716535433
 20
-1.484385826771654
 10
11.51983070866142
 20
-1.482881889763779
 10
11.5236062992126
 20
-1.481606299212598
 10
11.52750393700787
 20
-1.480566929133858
 10
11.53151968503937
 20
-1.479755905511811
 10
11.53565748031496
 20
-1.479177165354331
 10
11.53991338582677
 20
-1.478826771653543
 10
11.54429527559055
 20
-1.478712598425197
 10
11.55175590551181
 20
-1.479070866141732
 10
11.55872834645669
 20
-1.480137795275591
 10
11.56203543307087
 20
-1.480937007874016
 10
11.56522047244095
 20
-1.481909448818898
 10
11.56828346456693
 20
-1.48305905511811
 10
11.57122834645669
 20
-1.484381889763779
 10
11.57403149606299
 20
-1.485893700787402
 10
11.57666929133858
 20
-1.487562992125984
 10
11.57914566929134
 20
-1.489389763779527
 10
11.58146062992126
 20
-1.491374015748032
 10
11.58361417322835
 20
-1.493523622047244
 10
11.58561023622047
 20
-1.495830708661417
 10
11.58744488188976
 20
-1.498303149606299
 10
11.58912204724409
 20
-1.500937007874016
 10
11.59053543307087
 20
-1.503594488188976
 10
11.59173622047244
 20
-1.506515748031496
 10
11.59272440944882
 20
-1.509692913385827
 10
11.59350393700787
 20
-1.513110236220472
 10
11.5949094488189
 20
-1.533311023622047
 10
11.5949094488189
 20
-1.545822834645669
 10
11.5949094488189
 20
-1.640311023622047
 10
11.55922047244094
 20
-1.640311023622047
 10
11.55922047244094
 20
-1.560299212598425
 10
11.55911417322835
 20
-1.552783464566929
 10
11.55879921259842
 20
-1.54594094488189
 10
11.55827559055118
 20
-1.539763779527559
 10
11.55754330708661
 20
-1.534255905511811
 10
11.55660236220472
 20
-1.52942125984252
 10
11.55545669291339
 20
-1.525259842519685
 10
11.55410236220473
 20
-1.521767716535433
 10
11.55254330708661
 20
-1.518948818897638
 10
11.55071653543307
 20
-1.51661811023622
 10
11.54856692913386
 20
-1.514602362204724
 10
11.54608661417323
 20
-1.512893700787401
 10
11.54328346456693
 20
-1.511496062992126
 10
11.54015354330709
 20
-1.510409448818898
 10
11.5366968503937
 20
-1.509633858267716
 10
11.53291338582677
 20
-1.509165354330709
 10
11.52880708661417
 20
-1.509011811023622
 10
11.52373622047244
 20
-1.509220472440945
 10
11.51904330708661
 20
-1.509854330708661
 10
11.51473228346457
 20
-1.51090157480315
 10
11.51079921259842
 20
-1.512370078740157
 10
11.50724015748031
 20
-1.514259842519685
 10
11.50406299212598
 20
-1.516562992125984
 10
11.50126771653543
 20
-1.519287401574803
 10
11.49884645669291
 20
-1.522425196850394
 10
11.49673622047244
 20
-1.526086614173228
 10
11.4949094488189
 20
-1.530377952755906
 10
11.49336614173228
 20
-1.535299212598425
 10
11.4921062992126
 20
-1.540850393700787
 10
11.49112598425197
 20
-1.547027559055118
 10
11.49042913385827
 20
-1.553834645669291
 10
11.49000787401575
 20
-1.561271653543307
 10
11.48987007874016
 20
-1.569330708661417
 10
11.48987007874016
 20
-1.640311023622047
 10
11.45384645669291
 20
-1.640311023622047
 10
11.45384645669291
 20
-1.560299212598425
 10
11.45374015748031
 20
-1.553338582677165
 10
11.45341338582677
 20
-1.546937007874016
 10
11.45287401574803
 20
-1.541090551181102
 10
11.45211417322835
 20
-1.535799212598425
 10
11.45113779527559
 20
-1.531066929133858
 10
11.44994094488189
 20
-1.526885826771654
 10
11.44852362204724
 20
-1.523255905511811
 10
11.44688582677165
 20
-1.520181102362205
 10
11.44498031496063
 20
-1.51755905511811
 10
11.44275196850394
 20
-1.515287401574803
 10
11.44020866141732
 20
-1.513370078740157
 10
11.43734645669291
 20
-1.511799212598425
 10
11.43416929133858
 20
-1.51057874015748
 10
11.4306811023622
 20
-1.509708661417323
 10
11.42687401574803
 20
-1.509185039370079
 10
11.42275984251969
 20
-1.509011811023622
 10
11.41761417322835
 20
-1.509307086614173
 10
11.41270078740157
 20
-1.510200787401575
 10
11.40801968503937
 20
-1.511688976377953
 10
11.40357086614173
 20
-1.513783464566929
 10
11.39942519685039
 20
-1.51640157480315
 10
11.39573622047244
 20
-1.519464566929134
 10
11.3925
 20
-1.522968503937008
 10
11.3897125984252
 20
-1.526913385826772
 10
11.3881968503937
 20
-1.529795275590551
 10
11.38692913385827
 20
-1.532972440944882
 10
11.38590157480315
 20
-1.536444881889764
 10
11.38511417322835
 20
-1.540208661417323
 10
11.38382283464567
 20
-1.569330708661417
 10
11.38382283464567
 20
-1.640311023622047
  0
LWPOLYLINE
  5
82
330
1F
100
AcDbEntity
  8
Layer 1
 62
     7
100
AcDbPolyline
 90
       67
 70
     1
 43
0.0
 10
11.65214173228346
 20
-1.713704724409449
 10
11.62554330708661
 20
-1.705003937007874
 10
11.62983858267716
 20
-1.696866141732283
 10
11.63384251968504
 20
-1.688562992125984
 10
11.63755905511811
 20
-1.680094488188976
 10
11.64098031496063
 20
-1.67146062992126
 10
11.64411023622047
 20
-1.662661417322835
 10
11.64694881889764
 20
-1.653692913385827
 10
11.64949606299213
 20
-1.644562992125984
 10
11.65174409448819
 20
-1.635259842519685
 10
11.65373622047244
 20
-1.625755905511811
 10
11.65546062992126
 20
-1.615976377952756
 10
11.65691732283465
 20
-1.605917322834646
 10
11.6581062992126
 20
-1.59557874015748
 10
11.65903149606299
 20
-1.58496062992126
 10
11.65968897637795
 20
-1.574062992125984
 10
11.66008661417323
 20
-1.562885826771653
 10
11.66021653543307
 20
-1.551433070866142
 10
11.66008661417323
 20
-1.540468503937008
 10
11.65968897637795
 20
-1.529704724409449
 10
11.65903149606299
 20
-1.519145669291339
 10
11.6581062992126
 20
-1.508783464566929
 10
11.65691732283465
 20
-1.49861811023622
 10
11.65546062992126
 20
-1.488649606299213
 10
11.65373622047244
 20
-1.478874015748032
 10
11.65174409448819
 20
-1.469287401574803
 10
11.64949606299213
 20
-1.459866141732284
 10
11.64694881889764
 20
-1.45053937007874
 10
11.64411023622047
 20
-1.441307086614173
 10
11.64098031496063
 20
-1.432173228346457
 10
11.63755905511811
 20
-1.423129921259843
 10
11.63384251968504
 20
-1.414181102362205
 10
11.62983858267716
 20
-1.405330708661417
 10
11.62554330708661
 20
-1.396570866141732
 10
11.65214173228346
 20
-1.388488188976378
 10
11.65696850393701
 20
-1.397366141732284
 10
11.66147244094488
 20
-1.406405511811024
 10
11.66566141732283
 20
-1.415610236220473
 10
11.66952755905512
 20
-1.42498031496063
 10
11.67307480314961
 20
-1.434515748031496
 10
11.67630708661417
 20
-1.444220472440945
 10
11.67922440944882
 20
-1.454090551181102
 10
11.68182283464567
 20
-1.464125984251968
 10
11.6840905511811
 20
-1.474334645669291
 10
11.68605905511811
 20
-1.484755905511811
 10
11.68772834645669
 20
-1.495393700787402
 10
11.68909448818898
 20
-1.506244094488189
 10
11.69015748031496
 20
-1.517307086614173
 10
11.69091732283465
 20
-1.528582677165354
 10
11.69137401574803
 20
-1.540070866141732
 10
11.69152755905512
 20
-1.551767716535433
 10
11.69137401574803
 20
-1.562913385826772
 10
11.69091732283465
 20
-1.573925196850394
 10
11.69014960629921
 20
-1.584799212598425
 10
11.68907874015748
 20
-1.595535433070866
 10
11.68770078740157
 20
-1.606137795275591
 10
11.68601181102362
 20
-1.61659842519685
 10
11.6840157480315
 20
-1.626925196850394
 10
11.6817125984252
 20
-1.637114173228347
 10
11.67911023622047
 20
-1.647145669291339
 10
11.6761968503937
 20
-1.657047244094488
 10
11.67296850393701
 20
-1.666818897637795
 10
11.66942913385827
 20
-1.67646062992126
 10
11.66557480314961
 20
-1.685968503937008
 10
11.6614094488189
 20
-1.695346456692913
 10
11.65692913385827
 20
-1.704590551181102
 10
11.65214173228346
 20
-1.713704724409449
  0
LWPOLYLINE
  5
83
330
1F
100
AcDbEntity
  8
Layer 1
 62
     7
100
AcDbPolyline
 90
      143
 70
     1
 43
0.0
 10
9.066188976377953
 20
-1.575669291338583
 10
9.028708661417323
 20
-1.575669291338583
 10
9.024232283464567
 20
-1.5835
 10
9.019326771653544
 20
-1.590937007874016
 10
9.013984251968504
 20
-1.59798031496063
 10
9.008208661417322
 20
-1.604625984251969
 10
9.002
 20
-1.610877952755906
 10
8.995354330708661
 20
-1.616732283464567
 10
8.988279527559055
 20
-1.622192913385827
 10
8.980767716535434
 20
-1.627259842519685
 10
8.972944881889763
 20
-1.631822834645669
 10
8.964937007874015
 20
-1.635775590551181
 10
8.956736220472441
 20
-1.639122047244094
 10
8.94834251968504
 20
-1.641862204724409
 10
8.939759842519685
 20
-1.643988188976378
 10
8.930988188976379
 20
-1.645511811023622
 10
8.922027559055119
 20
-1.646425196850394
 10
8.91287401574803
 20
-1.646728346456693
 10
8.89951968503937
 20
-1.64609842519685
 10
8.886653543307087
 20
-1.644204724409449
 10
8.874271653543307
 20
-1.641047244094488
 10
8.862377952755905
 20
-1.636629921259843
 10
8.850972440944881
 20
-1.630948818897638
 10
8.840051181102362
 20
-1.624003937007874
 10
8.82961811023622
 20
-1.615799212598425
 10
8.819673228346456
 20
-1.606330708661417
 10
8.810834645669292
 20
-1.596259842519685
 10
8.803169291338582
 20
-1.585692913385827
 10
8.796688976377952
 20
-1.574629921259842
 10
8.79138188976378
 20
-1.563074803149606
 10
8.787255905511811
 20
-1.551023622047244
 10
8.784311023622047
 20
-1.53848031496063
 10
8.782543307086614
 20
-1.52544094488189
 10
8.781952755905511
 20
-1.511909448818898
 10
8.782543307086614
 20
-1.498263779527559
 10
8.784311023622047
 20
-1.485125984251968
 10
8.787255905511811
 20
-1.4725
 10
8.79138188976378
 20
-1.460381889763779
 10
8.796688976377952
 20
-1.448775590551181
 10
8.803169291338582
 20
-1.437677165354331
 10
8.810834645669292
 20
-1.427086614173228
 10
8.819673228346456
 20
-1.417003937007874
 10
8.824208661417323
 20
-1.4125
 10
8.828937007874016
 20
-1.408228346456693
 10
8.833850393700788
 20
-1.404196850393701
 10
8.838956692913387
 20
-1.400397637795276
 10
8.844255905511812
 20
-1.396834645669291
 10
8.849740157480316
 20
-1.393507874015748
 10
8.855417322834645
 20
-1.390417322834646
 10
8.86128346456693
 20
-1.38755905511811
 10
8.867232283464567
 20
-1.384992125984252
 10
8.873149606299213
 20
-1.382767716535433
 10
8.879035433070866
 20
-1.380885826771654
 10
8.884889763779528
 20
-1.379346456692913
 10
8.890716535433071
 20
-1.378149606299213
 10
8.896511811023622
 20
-1.377295275590551
 10
8.90227559055118
 20
-1.376779527559055
 10
8.908007874015748
 20
-1.376610236220472
 10
8.919094488188977
 20
-1.376929133858268
 10
8.929484251968503
 20
-1.377889763779528
 10
8.939173228346457
 20
-1.379484251968504
 10
8.948161417322835
 20
-1.381720472440945
 10
8.961043307086614
 20
-1.386169291338583
 10
8.9731062992126
 20
-1.391669291338583
 10
8.98434251968504
 20
-1.398216535433071
 10
8.99476377952756
 20
-1.405811023622047
 10
9.004358267716535
 20
-1.414456692913386
 10
9.013133858267716
 20
-1.424153543307087
 10
9.021086614173228
 20
-1.434897637795276
 10
9.028220472440944
 20
-1.446692913385827
 10
9.065700787401575
 20
-1.446692913385827
 10
9.06065748031496
 20
-1.435177165354331
 10
9.05490157480315
 20
-1.424228346456693
 10
9.048429133858267
 20
-1.413854330708662
 10
9.041244094488189
 20
-1.404047244094488
 10
9.03334251968504
 20
-1.394811023622047
 10
9.024724409448819
 20
-1.386145669291339
 10
9.015393700787401
 20
-1.378051181102362
 10
9.005350393700787
 20
-1.370527559055118
 10
8.9948031496063
 20
-1.363740157480315
 10
8.983964566929133
 20
-1.357858267716535
 10
8.972838582677165
 20
-1.352877952755906
 10
8.961425196850394
 20
-1.348807086614173
 10
8.949720472440944
 20
-1.34563779527559
 10
8.937728346456693
 20
-1.343377952755906
 10
8.925444881889764
 20
-1.34201968503937
 10
8.91287401574803
 20
-1.341566929133858
 10
8.896003937007874
 20
-1.342358267716535
 10
8.87976377952756
 20
-1.344732283464567
 10
8.86415748031496
 20
-1.348685039370079
 10
8.84917716535433
 20
-1.354220472440945
 10
8.834830708661418
 20
-1.361338582677165
 10
8.82111811023622
 20
-1.37003937007874
 10
8.808031496062991
 20
-1.380322834645669
 10
8.795578740157481
 20
-1.392185039370079
 10
8.790133858267717
 20
-1.398141732283465
 10
8.784996062992127
 20
-1.404334645669291
 10
8.780161417322836
 20
-1.410763779527559
 10
8.775625984251969
 20
-1.417429133858268
 10
8.771397637795275
 20
-1.424330708661417
 10
8.767476377952756
 20
-1.431468503937008
 10
8.76385433070866
 20
-1.438842519685039
 10
8.76053937007874
 20
-1.446448818897638
 10
8.757574803149605
 20
-1.454232283464567
 10
8.755003937007874
 20
-1.462129921259842
 10
8.752826771653544
 20
-1.470145669291339
 10
8.751047244094488
 20
-1.478271653543307
 10
8.749665354330709
 20
-1.486507874015748
 10
8.74867716535433
 20
-1.494862204724409
 10
8.748082677165355
 20
-1.503330708661417
 10
8.747885826771654
 20
-1.511909448818898
 10
8.748629921259843
 20
-1.528972440944882
 10
8.750866141732283
 20
-1.545417322834646
 10
8.754594488188976
 20
-1.561248031496063
 10
8.759811023622047
 20
-1.57646062992126
 10
8.766515748031496
 20
-1.59105905511811
 10
8.774712598425197
 20
-1.60503937007874
 10
8.78440157480315
 20
-1.618405511811024
 10
8.795578740157481
 20
-1.631153543307087
 10
8.808031496062991
 20
-1.643015748031496
 10
8.82111811023622
 20
-1.653299212598425
 10
8.834830708661418
 20
-1.661996062992126
 10
8.84917716535433
 20
-1.669114173228347
 10
8.86415748031496
 20
-1.674649606299213
 10
8.87976377952756
 20
-1.678606299212599
 10
8.896003937007874
 20
-1.680976377952756
 10
8.91287401574803
 20
-1.681767716535433
 10
8.925397637795276
 20
-1.681307086614173
 10
8.937665354330708
 20
-1.679929133858268
 10
8.949673228346457
 20
-1.677629921259842
 10
8.96142125984252
 20
-1.674409448818898
 10
8.972913385826772
 20
-1.670267716535433
 10
8.984145669291339
 20
-1.665204724409449
 10
8.99511811023622
 20
-1.659224409448819
 10
9.00583464566929
 20
-1.652322834645669
 10
9.01596062992126
 20
-1.644736220472441
 10
9.025346456692914
 20
-1.636582677165354
 10
9.034
 20
-1.627854330708661
 10
9.041913385826772
 20
-1.61855905511811
 10
9.049086614173229
 20
-1.608692913385827
 10
9.055523622047245
 20
-1.598255905511811
 10
9.061224409448819
 20
-1.587248031496063
 10
9.066188976377953
 20
-1.575669291338583
  0
LWPOLYLINE
  5
84
330
1F
100
AcDbEntity
  8
Layer 1
 62
     7
100
AcDbPolyline
 90
       68
 70
     1
 43
0.0
 10
9.37426377952756
 20
-1.511425196850394
 10
9.374055118110237
 20
-1.502507874015748
 10
9.373429133858268
 20
-1.493767716535433
 10
9.37238188976378
 20
-1.485200787401575
 10
9.370917322834647
 20
-1.476807086614173
 10
9.369035433070867
 20
-1.468590551181102
 10
9.366736220472442
 20
-1.460551181102362
 10
9.364015748031496
 20
-1.452681102362205
 10
9.360877952755905
 20
-1.444988188976378
 10
9.357385826771653
 20
-1.43751968503937
 10
9.353594488188977
 20
-1.430314960629921
 10
9.349507874015748
 20
-1.423374015748031
 10
9.345122047244095
 20
-1.416700787401575
 10
9.34044094488189
 20
-1.410295275590551
 10
9.335464566929135
 20
-1.404153543307087
 10
9.330188976377952
 20
-1.398279527559055
 10
9.324618110236221
 20
-1.392673228346457
 10
9.318771653543306
 20
-1.387346456692913
 10
9.312665354330708
 20
-1.382314960629921
 10
9.306299212598425
 20
-1.37757874015748
 10
9.29967716535433
 20
-1.373141732283464
 10
9.292795275590551
 20
-1.369
 10
9.285653543307086
 20
-1.365157480314961
 10
9.278255905511811
 20
-1.361610236220473
 10
9.27059842519685
 20
-1.358358267716535
 10
9.26274409448819
 20
-1.355448818897638
 10
9.254748031496064
 20
-1.352929133858268
 10
9.24661811023622
 20
-1.350795275590551
 10
9.238354330708662
 20
-1.349051181102362
 10
9.229952755905511
 20
-1.347692913385827
 10
9.221409448818898
 20
-1.346724409448819
 10
9.212736220472442
 20
-1.346141732283465
 10
9.20392125984252
 20
-1.345948818897638
 10
9.117287401574803
 20
-1.345948818897638
 10
9.117287401574803
 20
-1.676901574803149
 10
9.20392125984252
 20
-1.676901574803149
 10
9.212736220472442
 20
-1.676708661417323
 10
9.221409448818898
 20
-1.676125984251968
 10
9.229952755905511
 20
-1.675157480314961
 10
9.238354330708662
 20
-1.673799212598425
 10
9.24661811023622
 20
-1.672055118110236
 10
9.254748031496064
 20
-1.66992125984252
 10
9.26274409448819
 20
-1.66740157480315
 10
9.27059842519685
 20
-1.664492125984252
 10
9.278255905511811
 20
-1.661240157480315
 10
9.285653543307086
 20
-1.657692913385827
 10
9.292795275590551
 20
-1.653850393700787
 10
9.29967716535433
 20
-1.649708661417323
 10
9.306299212598425
 20
-1.645271653543307
 10
9.312665354330708
 20
-1.640535433070866
 10
9.318771653543306
 20
-1.635503937007874
 10
9.324618110236221
 20
-1.630177165354331
 10
9.330188976377952
 20
-1.624570866141732
 10
9.335464566929135
 20
-1.618696850393701
 10
9.34044094488189
 20
-1.612555118110236
 10
9.345122047244095
 20
-1.606149606299213
 10
9.349507874015748
 20
-1.599476377952756
 10
9.353594488188977
 20
-1.592535433070866
 10
9.357385826771653
 20
-1.585330708661417
 10
9.360877952755905
 20
-1.57786220472441
 10
9.364015748031496
 20
-1.570169291338583
 10
9.366736220472442
 20
-1.562299212598425
 10
9.369035433070867
 20
-1.554259842519685
 10
9.370917322834647
 20
-1.546043307086614
 10
9.37238188976378
 20
-1.537649606299213
 10
9.373429133858268
 20
-1.529082677165354
 10
9.374055118110237
 20
-1.520342519685039
 10
9.37426377952756
 20
-1.511425196850394
  0
LWPOLYLINE
  5
85
330
1F
100
AcDbEntity
  8
Layer 1
 62
     7
100
AcDbPolyline
 90
       36
 70
     1
 43
0.0
 10
9.341169291338582
 20
-1.511425196850394
 10
9.340547244094488
 20
-1.525275590551181
 10
9.338673228346456
 20
-1.538543307086614
 10
9.335555118110236
 20
-1.551224409448819
 10
9.331192913385827
 20
-1.563318897637795
 10
9.32557874015748
 20
-1.574830708661417
 10
9.318720472440944
 20
-1.585751968503937
 10
9.310614173228347
 20
-1.596094488188976
 10
9.301259842519684
 20
-1.605846456692913
 10
9.291212598425197
 20
-1.614515748031496
 10
9.280590551181103
 20
-1.622027559055118
 10
9.26940157480315
 20
-1.628385826771654
 10
9.257641732283465
 20
-1.633586614173228
 10
9.245307086614174
 20
-1.637633858267717
 10
9.232405511811024
 20
-1.640523622047244
 10
9.218937007874016
 20
-1.642255905511811
 10
9.204893700787402
 20
-1.642834645669291
 10
9.151354330708662
 20
-1.642834645669291
 10
9.151354330708662
 20
-1.380015748031496
 10
9.204893700787402
 20
-1.380015748031496
 10
9.218937007874016
 20
-1.380594488188976
 10
9.232405511811024
 20
-1.382326771653543
 10
9.245307086614174
 20
-1.385216535433071
 10
9.257641732283465
 20
-1.389263779527559
 10
9.26940157480315
 20
-1.394464566929134
 10
9.280590551181103
 20
-1.400822834645669
 10
9.291212598425197
 20
-1.408334645669291
 10
9.301259842519684
 20
-1.417003937007874
 10
9.310614173228347
 20
-1.426755905511811
 10
9.318720472440944
 20
-1.437094488188976
 10
9.32557874015748
 20
-1.44801968503937
 10
9.331192913385827
 20
-1.459531496062992
 10
9.335555118110236
 20
-1.471625984251969
 10
9.338673228346456
 20
-1.484307086614173
 10
9.340547244094488
 20
-1.497574803149606
 10
9.341169291338582
 20
-1.511425196850394
  0
LWPOLYLINE
  5
86
330
1F
100
AcDbEntity
  8
Layer 1
 62
     7
100
AcDbPolyline
 90
       84
 70
     1
 43
0.0
 10
9.558964566929134
 20
-1.384397637795276
 10
9.564586614173228
 20
-1.388212598425197
 10
9.569826771653544
 20
-1.392547244094488
 10
9.57468503937008
 20
-1.39740157480315
 10
9.579165354330708
 20
-1.402767716535433
 10
9.58326377952756
 20
-1.408653543307087
 10
9.586984251968504
 20
-1.41505905511811
 10
9.590322834645669
 20
-1.42198031496063
 10
9.593279527559055
 20
-1.429417322834646
 10
9.596586614173228
 20
-1.439283464566929
 10
9.599452755905512
 20
-1.449295275590551
 10
9.601877952755906
 20
-1.459452755905512
 10
9.60386220472441
 20
-1.469751968503937
 10
9.605405511811023
 20
-1.480196850393701
 10
9.606507874015747
 20
-1.490787401574803
 10
9.607169291338582
 20
-1.50151968503937
 10
9.607389763779528
 20
-1.512397637795276
 10
9.605933070866142
 20
-1.536488188976378
 10
9.60424409448819
 20
-1.549570866141732
 10
9.60203937007874
 20
-1.561933070866142
 10
9.599314960629922
 20
-1.573574803149606
 10
9.596074803149607
 20
-1.584492125984252
 10
9.592318897637796
 20
-1.594685039370079
 10
9.588043307086615
 20
-1.604157480314961
 10
9.583251968503937
 20
-1.612905511811024
 10
9.577944881889763
 20
-1.620933070866142
 10
9.573102362204724
 20
-1.626976377952756
 10
9.568
 20
-1.632216535433071
 10
9.56263779527559
 20
-1.636649606299213
 10
9.557015748031496
 20
-1.640279527559055
 10
9.55113779527559
 20
-1.64309842519685
 10
9.545
 20
-1.645114173228347
 10
9.5386062992126
 20
-1.646326771653543
 10
9.531952755905511
 20
-1.646728346456693
 10
9.524527559055118
 20
-1.646330708661417
 10
9.51746062992126
 20
-1.645129921259842
 10
9.510748031496062
 20
-1.643133858267717
 10
9.504393700787402
 20
-1.640338582677165
 10
9.498397637795275
 20
-1.636748031496063
 10
9.49275590551181
 20
-1.632354330708661
 10
9.487476377952756
 20
-1.627165354330709
 10
9.482551181102362
 20
-1.621177165354331
 10
9.478476377952756
 20
-1.615275590551181
 10
9.474763779527558
 20
-1.609007874015748
 10
9.471417322834645
 20
-1.602377952755905
 10
9.468437007874016
 20
-1.595381889763779
 10
9.465807086614173
 20
-1.588157480314961
 10
9.463511811023622
 20
-1.580842519685039
 10
9.461551181102362
 20
-1.573433070866142
 10
9.45992125984252
 20
-1.565933070866142
 10
9.45578346456693
 20
-1.536736220472441
 10
9.454566929133858
 20
-1.504204724409449
 10
9.45490157480315
 20
-1.494472440944882
 10
9.455905511811023
 20
-1.483633858267716
 10
9.45757874015748
 20
-1.471685039370079
 10
9.45992125984252
 20
-1.458618110236221
 10
9.461535433070866
 20
-1.451212598425197
 10
9.463452755905513
 20
-1.443834645669291
 10
9.465673228346457
 20
-1.436488188976378
 10
9.468196850393701
 20
-1.429173228346457
 10
9.471070866141732
 20
-1.422055118110236
 10
9.47434251968504
 20
-1.415303149606299
 10
9.478003937007873
 20
-1.408913385826772
 10
9.482066929133858
 20
-1.402889763779527
 10
9.48653937007874
 20
-1.397338582677165
 10
9.491437007874016
 20
-1.392366141732283
 10
9.496759842519685
 20
-1.387972440944882
 10
9.502507874015748
 20
-1.384153543307087
 10
9.50555905511811
 20
-1.3825
 10
9.50874409448819
 20
-1.381066929133858
 10
9.512066929133859
 20
-1.379854330708661
 10
9.515527559055117
 20
-1.378858267716536
 10
9.519122047244094
 20
-1.378086614173228
 10
9.522858267716536
 20
-1.377535433070866
 10
9.526728346456693
 20
-1.377204724409449
 10
9.530736220472441
 20
-1.377094488188976
 10
9.53474409448819
 20
-1.377208661417323
 10
9.538614173228346
 20
-1.377551181102362
 10
9.542350393700787
 20
-1.378122047244094
 10
9.545944881889763
 20
-1.37892125984252
 10
9.549405511811024
 20
-1.379948818897638
 10
9.552728346456693
 20
-1.381204724409449
 10
9.555913385826772
 20
-1.382685039370079
 10
9.558964566929134
 20
-1.384397637795276
  0
LWPOLYLINE
  5
87
330
1F
100
AcDbEntity
  8
Layer 1
 62
     7
100
AcDbPolyline
 90
       65
 70
     1
 43
0.0
 10
9.53244094488189
 20
-1.681283464566929
 10
9.546649606299212
 20
-1.680381889763779
 10
9.559952755905512
 20
-1.677677165354331
 10
9.572350393700788
 20
-1.673173228346457
 10
9.583846456692914
 20
-1.666866141732283
 10
9.594437007874015
 20
-1.658755905511811
 10
9.604122047244095
 20
-1.648842519685039
 10
9.61290157480315
 20
-1.637125984251969
 10
9.620775590551181
 20
-1.623610236220473
 10
9.626307086614172
 20
-1.611814960629921
 10
9.631102362204725
 20
-1.599366141732284
 10
9.635161417322834
 20
-1.586263779527559
 10
9.63848031496063
 20
-1.572507874015748
 10
9.641062992125985
 20
-1.55809842519685
 10
9.642905511811023
 20
-1.543031496062992
 10
9.644011811023622
 20
-1.527314960629921
 10
9.64438188976378
 20
-1.51094094488189
 10
9.644011811023622
 20
-1.494566929133858
 10
9.642905511811023
 20
-1.478846456692913
 10
9.641062992125985
 20
-1.463783464566929
 10
9.63848031496063
 20
-1.449374015748031
 10
9.635161417322834
 20
-1.435614173228347
 10
9.631102362204725
 20
-1.422511811023622
 10
9.626307086614172
 20
-1.410062992125984
 10
9.620775590551181
 20
-1.398267716535433
 10
9.61290157480315
 20
-1.384751968503937
 10
9.604122047244095
 20
-1.373035433070866
 10
9.594437007874015
 20
-1.363122047244095
 10
9.583846456692914
 20
-1.355011811023622
 10
9.572350393700788
 20
-1.348704724409449
 10
9.559952755905512
 20
-1.344200787401575
 10
9.546649606299212
 20
-1.341496062992126
 10
9.53244094488189
 20
-1.340594488188976
 10
9.518232283464567
 20
-1.341496062992126
 10
9.504925196850394
 20
-1.344200787401575
 10
9.492527559055118
 20
-1.348704724409449
 10
9.481031496062991
 20
-1.355011811023622
 10
9.470444881889764
 20
-1.363122047244095
 10
9.460759842519685
 20
-1.373035433070866
 10
9.451976377952755
 20
-1.384751968503937
 10
9.444102362204724
 20
-1.398267716535433
 10
9.438570866141733
 20
-1.410062992125984
 10
9.433775590551182
 20
-1.422511811023622
 10
9.429720472440945
 20
-1.435614173228347
 10
9.42640157480315
 20
-1.449374015748031
 10
9.423818897637796
 20
-1.463783464566929
 10
9.421976377952756
 20
-1.478846456692913
 10
9.420870078740158
 20
-1.494566929133858
 10
9.4205
 20
-1.51094094488189
 10
9.420870078740158
 20
-1.527314960629921
 10
9.421976377952756
 20
-1.543031496062992
 10
9.423818897637796
 20
-1.55809842519685
 10
9.42640157480315
 20
-1.572507874015748
 10
9.429720472440945
 20
-1.586263779527559
 10
9.433775590551182
 20
-1.599366141732284
 10
9.438570866141733
 20
-1.611814960629921
 10
9.444102362204724
 20
-1.623610236220473
 10
9.451976377952755
 20
-1.637125984251969
 10
9.460759842519685
 20
-1.648842519685039
 10
9.470444881889764
 20
-1.658755905511811
 10
9.481031496062991
 20
-1.666866141732283
 10
9.492527559055118
 20
-1.673173228346457
 10
9.504925196850394
 20
-1.677677165354331
 10
9.518232283464567
 20
-1.680381889763779
 10
9.53244094488189
 20
-1.681283464566929
  0
LWPOLYLINE
  5
88
330
1F
100
AcDbEntity
  8
Layer 1
 62
     7
100
AcDbPolyline
 90
       84
 70
     1
 43
0.0
 10
9.831515748031496
 20
-1.384397637795276
 10
9.837137795275591
 20
-1.388212598425197
 10
9.842377952755905
 20
-1.392547244094488
 10
9.84723622047244
 20
-1.39740157480315
 10
9.85171653543307
 20
-1.402767716535433
 10
9.855814960629921
 20
-1.408653543307087
 10
9.859535433070866
 20
-1.41505905511811
 10
9.862874015748032
 20
-1.42198031496063
 10
9.865830708661417
 20
-1.429417322834646
 10
9.869137795275591
 20
-1.439283464566929
 10
9.872003937007873
 20
-1.449295275590551
 10
9.874429133858268
 20
-1.459452755905512
 10
9.87641338582677
 20
-1.469751968503937
 10
9.877956692913386
 20
-1.480196850393701
 10
9.87905905511811
 20
-1.490787401574803
 10
9.879720472440946
 20
-1.50151968503937
 10
9.87994094488189
 20
-1.512397637795276
 10
9.878484251968503
 20
-1.536488188976378
 10
9.87679527559055
 20
-1.549570866141732
 10
9.874590551181102
 20
-1.561933070866142
 10
9.871866141732283
 20
-1.573574803149606
 10
9.868625984251969
 20
-1.584492125984252
 10
9.864870078740157
 20
-1.594685039370079
 10
9.860594488188976
 20
-1.604157480314961
 10
9.855803149606299
 20
-1.612905511811024
 10
9.850496062992127
 20
-1.620933070866142
 10
9.845653543307087
 20
-1.626976377952756
 10
9.840551181102363
 20
-1.632216535433071
 10
9.835188976377953
 20
-1.636649606299213
 10
9.829566929133858
 20
-1.640279527559055
 10
9.823688976377953
 20
-1.64309842519685
 10
9.817551181102361
 20
-1.645114173228347
 10
9.81115748031496
 20
-1.646326771653543
 10
9.804503937007874
 20
-1.646728346456693
 10
9.797078740157481
 20
-1.646330708661417
 10
9.790011811023621
 20
-1.645129921259842
 10
9.783299212598425
 20
-1.643133858267717
 10
9.776944881889763
 20
-1.640338582677165
 10
9.770948818897638
 20
-1.636748031496063
 10
9.765307086614174
 20
-1.632354330708661
 10
9.760027559055118
 20
-1.627165354330709
 10
9.755102362204724
 20
-1.621177165354331
 10
9.751027559055117
 20
-1.615275590551181
 10
9.747314960629922
 20
-1.609007874015748
 10
9.743968503937008
 20
-1.602377952755905
 10
9.740988188976377
 20
-1.595381889763779
 10
9.738358267716535
 20
-1.588157480314961
 10
9.736062992125984
 20
-1.580842519685039
 10
9.73409842519685
 20
-1.573433070866142
 10
9.732472440944882
 20
-1.565933070866142
 10
9.72833464566929
 20
-1.536736220472441
 10
9.727118110236221
 20
-1.504204724409449
 10
9.727452755905512
 20
-1.494472440944882
 10
9.728456692913387
 20
-1.483633858267716
 10
9.730129921259843
 20
-1.471685039370079
 10
9.732472440944882
 20
-1.458618110236221
 10
9.73408661417323
 20
-1.451212598425197
 10
9.736003937007874
 20
-1.443834645669291
 10
9.738224409448819
 20
-1.436488188976378
 10
9.740748031496063
 20
-1.429173228346457
 10
9.743622047244095
 20
-1.422055118110236
 10
9.746893700787401
 20
-1.415303149606299
 10
9.750555118110237
 20
-1.408913385826772
 10
9.75461811023622
 20
-1.402889763779527
 10
9.759090551181103
 20
-1.397338582677165
 10
9.763988188976377
 20
-1.392366141732283
 10
9.769311023622047
 20
-1.387972440944882
 10
9.77505905511811
 20
-1.384153543307087
 10
9.778110236220472
 20
-1.3825
 10
9.781295275590551
 20
-1.381066929133858
 10
9.78461811023622
 20
-1.379854330708661
 10
9.78807874015748
 20
-1.378858267716536
 10
9.791673228346456
 20
-1.378086614173228
 10
9.795409448818898
 20
-1.377535433070866
 10
9.799279527559055
 20
-1.377204724409449
 10
9.803287401574803
 20
-1.377094488188976
 10
9.807295275590551
 20
-1.377208661417323
 10
9.811165354330708
 20
-1.377551181102362
 10
9.81490157480315
 20
-1.378122047244094
 10
9.818496062992127
 20
-1.37892125984252
 10
9.821956692913385
 20
-1.379948818897638
 10
9.825279527559054
 20
-1.381204724409449
 10
9.828464566929133
 20
-1.382685039370079
 10
9.831515748031496
 20
-1.384397637795276
  0
LWPOLYLINE
  5
89
330
1F
100
AcDbEntity
  8
Layer 1
 62
     7
100
AcDbPolyline
 90
       65
 70
     1
 43
0.0
 10
9.804992125984253
 20
-1.681283464566929
 10
9.819200787401575
 20
-1.680381889763779
 10
9.832503937007875
 20
-1.677677165354331
 10
9.84490157480315
 20
-1.673173228346457
 10
9.856397637795276
 20
-1.666866141732283
 10
9.866984251968503
 20
-1.658755905511811
 10
9.876669291338583
 20
-1.648842519685039
 10
9.885452755905511
 20
-1.637125984251969
 10
9.893326771653543
 20
-1.623610236220473
 10
9.898858267716536
 20
-1.611814960629921
 10
9.903653543307087
 20
-1.599366141732284
 10
9.907712598425197
 20
-1.586263779527559
 10
9.911031496062993
 20
-1.572507874015748
 10
9.913614173228346
 20
-1.55809842519685
 10
9.915456692913386
 20
-1.543031496062992
 10
9.916562992125984
 20
-1.527314960629921
 10
9.916933070866142
 20
-1.51094094488189
 10
9.916562992125984
 20
-1.494566929133858
 10
9.915456692913386
 20
-1.478846456692913
 10
9.913614173228346
 20
-1.463783464566929
 10
9.911031496062993
 20
-1.449374015748031
 10
9.907712598425197
 20
-1.435614173228347
 10
9.903653543307087
 20
-1.422511811023622
 10
9.898858267716536
 20
-1.410062992125984
 10
9.893326771653543
 20
-1.398267716535433
 10
9.885452755905511
 20
-1.384751968503937
 10
9.876669291338583
 20
-1.373035433070866
 10
9.866984251968503
 20
-1.363122047244095
 10
9.856397637795276
 20
-1.355011811023622
 10
9.84490157480315
 20
-1.348704724409449
 10
9.832503937007875
 20
-1.344200787401575
 10
9.819200787401575
 20
-1.341496062992126
 10
9.804992125984253
 20
-1.340594488188976
 10
9.790783464566928
 20
-1.341496062992126
 10
9.777476377952755
 20
-1.344200787401575
 10
9.765078740157481
 20
-1.348704724409449
 10
9.753582677165355
 20
-1.355011811023622
 10
9.742996062992127
 20
-1.363122047244095
 10
9.733311023622047
 20
-1.373035433070866
 10
9.724527559055119
 20
-1.384751968503937
 10
9.716653543307087
 20
-1.398267716535433
 10
9.711122047244094
 20
-1.410062992125984
 10
9.706326771653544
 20
-1.422511811023622
 10
9.702271653543306
 20
-1.435614173228347
 10
9.698952755905513
 20
-1.449374015748031
 10
9.696370078740157
 20
-1.463783464566929
 10
9.694527559055118
 20
-1.478846456692913
 10
9.69342125984252
 20
-1.494566929133858
 10
9.693051181102362
 20
-1.51094094488189
 10
9.69342125984252
 20
-1.527314960629921
 10
9.694527559055118
 20
-1.543031496062992
 10
9.696370078740157
 20
-1.55809842519685
 10
9.698952755905513
 20
-1.572507874015748
 10
9.702271653543306
 20
-1.586263779527559
 10
9.706326771653544
 20
-1.599366141732284
 10
9.711122047244094
 20
-1.611814960629921
 10
9.716653543307087
 20
-1.623610236220473
 10
9.724527559055119
 20
-1.637125984251969
 10
9.733311023622047
 20
-1.648842519685039
 10
9.742996062992127
 20
-1.658755905511811
 10
9.753582677165355
 20
-1.666866141732283
 10
9.765078740157481
 20
-1.673173228346457
 10
9.777476377952755
 20
-1.677677165354331
 10
9.790783464566928
 20
-1.680381889763779
 10
9.804992125984253
 20
-1.681283464566929
  0
LWPOLYLINE
  5
8A
330
1F
100
AcDbEntity
  8
Layer 1
 62
     7
100
AcDbPolyline
 90
      132
 70
     1
 43
0.0
 10
10.02838582677165
 20
-1.468594488188976
 10
10.05077165354331
 20
-1.380015748031496
 10
10.17050393700787
 20
-1.380015748031496
 10
10.17050393700787
 20
-1.345948818897638
 10
10.02497637795276
 20
-1.345948818897638
 10
9.987015748031496
 20
-1.494389763779528
 10
10.02400393700787
 20
-1.51094094488189
 10
10.02937007874016
 20
-1.507291338582677
 10
10.035
 20
-1.504125984251969
 10
10.04089763779528
 20
-1.501448818897638
 10
10.04706299212598
 20
-1.499255905511811
 10
10.05349212598425
 20
-1.497551181102362
 10
10.06018897637795
 20
-1.496334645669291
 10
10.06714960629921
 20
-1.495606299212598
 10
10.07437795275591
 20
-1.49536220472441
 10
10.08164566929134
 20
-1.495720472440945
 10
10.08867322834646
 20
-1.496791338582677
 10
10.09545669291339
 20
-1.49857874015748
 10
10.10199606299213
 20
-1.501082677165354
 10
10.10829527559055
 20
-1.504299212598425
 10
10.11435039370079
 20
-1.508228346456693
 10
10.12016141732284
 20
-1.512874015748032
 10
10.12572834645669
 20
-1.518236220472441
 10
10.13097244094488
 20
-1.524216535433071
 10
10.13551968503937
 20
-1.53042125984252
 10
10.13937007874016
 20
-1.536842519685039
 10
10.1425157480315
 20
-1.543484251968504
 10
10.14496456692913
 20
-1.550350393700787
 10
10.14671653543307
 20
-1.557433070866142
 10
10.14776377952756
 20
-1.564740157480315
 10
10.14811417322835
 20
-1.572263779527559
 10
10.14775590551181
 20
-1.580047244094488
 10
10.14668503937008
 20
-1.587515748031496
 10
10.14489763779528
 20
-1.594677165354331
 10
10.1423937007874
 20
-1.601523622047244
 10
10.13917716535433
 20
-1.608062992125984
 10
10.13524803149606
 20
-1.614287401574803
 10
10.13060236220472
 20
-1.620196850393701
 10
10.12524015748031
 20
-1.625799212598425
 10
10.11968897637795
 20
-1.630649606299213
 10
10.11374015748031
 20
-1.634984251968504
 10
10.10739763779528
 20
-1.638803149606299
 10
10.10066141732283
 20
-1.642102362204724
 10
10.09709448818898
 20
-1.643527559055118
 10
10.09333070866142
 20
-1.644763779527559
 10
10.08937007874016
 20
-1.645811023622047
 10
10.08520866141732
 20
-1.646665354330709
 10
10.08085039370079
 20
-1.647330708661417
 10
10.07629527559055
 20
-1.647807086614173
 10
10.07154330708661
 20
-1.648090551181102
 10
10.0665905511811
 20
-1.648185039370079
 10
10.06154330708661
 20
-1.647972440944882
 10
10.05650787401575
 20
-1.647334645669291
 10
10.05147637795276
 20
-1.646271653543307
 10
10.04645275590551
 20
-1.644779527559055
 10
10.04143700787402
 20
-1.642866141732283
 10
10.03643307086614
 20
-1.640523622047244
 10
10.03143307086614
 20
-1.637755905511811
 10
10.02644094488189
 20
-1.634562992125984
 10
10.02163385826772
 20
-1.631023622047244
 10
10.01719291338583
 20
-1.627228346456693
 10
10.01311811023622
 20
-1.623177165354331
 10
10.00940551181102
 20
-1.618866141732283
 10
10.00605905511811
 20
-1.614295275590551
 10
10.00307874015748
 20
-1.609464566929134
 10
10.00046062992126
 20
-1.604377952755905
 10
9.998208661417323
 20
-1.599031496062992
 10
9.965114173228347
 20
-1.609736220472441
 10
9.968366141732284
 20
-1.617748031496063
 10
9.97215748031496
 20
-1.625358267716535
 10
9.976488188976377
 20
-1.632562992125984
 10
9.981358267716535
 20
-1.639366141732284
 10
9.986767716535432
 20
-1.645763779527559
 10
9.992720472440945
 20
-1.651763779527559
 10
9.999208661417322
 20
-1.657354330708661
 10
10.00624015748032
 20
-1.662547244094488
 10
10.01371653543307
 20
-1.667279527559055
 10
10.02135826771654
 20
-1.67138188976378
 10
10.02916929133858
 20
-1.674854330708661
 10
10.03714566929134
 20
-1.677692913385827
 10
10.04529133858268
 20
-1.67990157480315
 10
10.05360236220472
 20
-1.68148031496063
 10
10.06208267716536
 20
-1.682429133858268
 10
10.07072834645669
 20
-1.682744094488189
 10
10.08224803149606
 20
-1.682224409448819
 10
10.09333070866142
 20
-1.680661417322835
 10
10.10396850393701
 20
-1.678055118110236
 10
10.11416535433071
 20
-1.674409448818898
 10
10.12392125984252
 20
-1.669720472440945
 10
10.13324015748032
 20
-1.663992125984252
 10
10.14211417322835
 20
-1.657220472440945
 10
10.15054724409449
 20
-1.649405511811024
 10
10.15818897637795
 20
-1.64092125984252
 10
10.16481496062992
 20
-1.63201968503937
 10
10.17041732283464
 20
-1.622700787401575
 10
10.17500393700787
 20
-1.612964566929134
 10
10.17857086614173
 20
-1.602807086614173
 10
10.18111811023622
 20
-1.592232283464567
 10
10.18264960629921
 20
-1.581240157480315
 10
10.18315748031496
 20
-1.569830708661417
 10
10.18265748031496
 20
-1.55848031496063
 10
10.18114960629921
 20
-1.547610236220472
 10
10.17864173228346
 20
-1.537216535433071
 10
10.17512598425197
 20
-1.527303149606299
 10
10.17061023622047
 20
-1.517870078740158
 10
10.16508661417323
 20
-1.508913385826772
 10
10.15856299212598
 20
-1.500437007874016
 10
10.15103543307087
 20
-1.49244094488189
 10
10.14718897637795
 20
-1.488885826771654
 10
10.14318503937008
 20
-1.485523622047244
 10
10.13903543307087
 20
-1.482346456692913
 10
10.13472834645669
 20
-1.479362204724409
 10
10.13027165354331
 20
-1.476566929133858
 10
10.12566535433071
 20
-1.473964566929134
 10
10.12090551181102
 20
-1.471547244094488
 10
10.11599212598425
 20
-1.469322834645669
 10
10.11098031496063
 20
-1.467326771653543
 10
10.10592519685039
 20
-1.46559842519685
 10
10.10082677165354
 20
-1.464133858267717
 10
10.09568503937008
 20
-1.462937007874016
 10
10.0905
 20
-1.462003937007874
 10
10.08527559055118
 20
-1.461338582677165
 10
10.08000787401575
 20
-1.46094094488189
 10
10.07470472440945
 20
-1.460807086614173
 10
10.06929527559055
 20
-1.460929133858268
 10
10.06377952755905
 20
-1.461295275590551
 10
10.05815748031496
 20
-1.46190157480315
 10
10.05242519685039
 20
-1.462751968503937
 10
10.04658267716535
 20
-1.463850393700787
 10
10.04062992125984
 20
-1.465185039370079
 10
10.03456299212598
 20
-1.466767716535433
 10
10.02838582677165
 20
-1.468594488188976
  0
ENDSEC
  0
SECTION
  2
OBJECTS
  0
DICTIONARY
  5
C
330
0
100
AcDbDictionary
281
     1
  3
ACAD_DETAILVIEWSTYLE
350
92
  3
ACAD_GROUP
350
D
  3
ACAD_LAYOUT
350
1A
  3
ACAD_MATERIAL
350
43
  3
ACAD_MLEADERSTYLE
350
5B
  3
ACAD_MLINESTYLE
350
17
  3
ACAD_PLOTSETTINGS
350
19
  3
ACAD_PLOTSTYLENAME
350
E
  3
ACAD_SCALELIST
350
47
  3
ACAD_SECTIONVIEWSTYLE
350
93
  3
ACAD_TABLESTYLE
350
59
  3
ACAD_VISUALSTYLE
350
2A
  3
ACDB_RECOMPOSE_DATA
350
8F
  3
AcDbVariableDictionary
350
8B
  0
SUN
  5
5D
330
29
100
AcDbSun
 90
        1
290
     0
 63
     7
421
 16777215
 40
1.0
291
     1
 91
  2455826
 92
 54000000
292
     0
 70
     2
 71
   256
280
     1
  0
DICTIONARY
  5
92
102
{ACAD_REACTORS
330
C
102
}
330
C
100
AcDbDictionary
281
     1
  0
DICTIONARY
  5
D
102
{ACAD_REACTORS
330
C
102
}
330
C
100
AcDbDictionary
281
     1
  0
DICTIONARY
  5
1A
102
{ACAD_REACTORS
330
C
102
}
330
C
100
AcDbDictionary
281
     1
  3
Layout1
350
1E
  3
Layout2
350
26
  3
Model
350
22
  0
DICTIONARY
  5
43
102
{ACAD_REACTORS
330
C
102
}
330
C
100
AcDbDictionary
281
     1
  3
ByBlock
350
45
  3
ByLayer
350
44
  3
Global
350
46
  0
DICTIONARY
  5
5B
102
{ACAD_REACTORS
330
C
102
}
330
C
100
AcDbDictionary
281
     1
  3
Standard
350
5C
  0
DICTIONARY
  5
17
102
{ACAD_REACTORS
330
C
102
}
330
C
100
AcDbDictionary
281
     1
  3
Standard
350
18
  0
DICTIONARY
  5
19
102
{ACAD_REACTORS
330
C
102
}
330
C
100
AcDbDictionary
281
     1
  0
ACDBDICTIONARYWDFLT
  5
E
102
{ACAD_REACTORS
330
C
102
}
330
C
100
AcDbDictionary
281
     1
  3
Normal
350
F
100
AcDbDictionaryWithDefault
340
F
  0
DICTIONARY
  5
47
102
{ACAD_REACTORS
330
C
102
}
330
C
100
AcDbDictionary
281
     1
  3
A0
350
48
  3
A1
350
49
  3
A2
350
4A
  3
A3
350
4B
  3
A4
350
4C
  3
A5
350
4D
  3
A6
350
4E
  3
A7
350
4F
  3
A8
350
50
  3
A9
350
51
  3
B1
350
52
  3
B2
350
53
  3
B3
350
54
  3
B4
350
55
  3
B5
350
56
  3
B6
350
57
  3
B7
350
58
  0
DICTIONARY
  5
93
102
{ACAD_REACTORS
330
C
102
}
330
C
100
AcDbDictionary
281
     1
  0
DICTIONARY
  5
59
102
{ACAD_REACTORS
330
C
102
}
330
C
100
AcDbDictionary
281
     1
  3
Standard
350
5A
  0
DICTIONARY
  5
2A
102
{ACAD_REACTORS
330
C
102
}
330
C
100
AcDbDictionary
281
     1
  3
2dWireframe
350
2F
  3
Basic
350
32
  3
Brighten
350
36
  3
ColorChange
350
3A
  3
Conceptual
350
34
  3
Dim
350
35
  3
EdgeColorOff
350
3D
  3
Facepattern
350
39
  3
Flat
350
2B
  3
FlatWithEdges
350
2C
  3
Gouraud
350
2D
  3
GouraudWithEdges
350
2E
  3
Hidden
350
31
  3
JitterOff
350
3B
  3
Linepattern
350
38
  3
OverhangOff
350
3C
  3
Realistic
350
33
  3
Shaded
350
42
  3
Shaded with edges
350
41
  3
Shades of Gray
350
3E
  3
Sketchy
350
3F
  3
Thicken
350
37
  3
Wireframe
350
30
  3
X-Ray
350
40
  0
XRECORD
  5
8F
102
{ACAD_REACTORS
330
C
102
}
330
C
100
AcDbXrecord
280
     1
 90
        1
330
5A
  0
DICTIONARY
  5
8B
102
{ACAD_REACTORS
330
C
102
}
330
C
100
AcDbDictionary
281
     1
  3
CANNOSCALE
350
8C
  3
CMLEADERSTYLE
350
91
  3
CTABLESTYLE
350
90
  0
LAYOUT
  5
1E
102
{ACAD_REACTORS
330
1A
102
}
330
1A
100
AcDbPlotSettings
  1

  2
none_device
  4

  6

 40
0.0
 41
0.0
 42
0.0
 43
0.0
 44
0.0
 45
0.0
 46
0.0
 47
0.0
 48
0.0
 49
0.0
140
0.0
141
0.0
142
1.0
143
1.0
 70
   688
 72
     0
 73
     0
 74
     5
  7

 75
    16
 76
     0
 77
     2
 78
   300
147
1.0
148
0.0
149
0.0
100
AcDbLayout
  1
Layout1
 70
     1
 71
     1
 10
0.0
 20
0.0
 11
12.0
 21
9.0
 12
0.0
 22
0.0
 32
0.0
 14
1.000000000000000E+20
 24
1.000000000000000E+20
 34
1.000000000000000E+20
 15
-1.000000000000000E+20
 25
-1.000000000000000E+20
 35
-1.000000000000000E+20
146
0.0
 13
0.0
 23
0.0
 33
0.0
 16
1.0
 26
0.0
 36
0.0
 17
0.0
 27
1.0
 37
0.0
 76
     0
330
1B
  0
LAYOUT
  5
26
102
{ACAD_REACTORS
330
1A
102
}
330
1A
100
AcDbPlotSettings
  1

  2
none_device
  4

  6

 40
0.0
 41
0.0
 42
0.0
 43
0.0
 44
0.0
 45
0.0
 46
0.0
 47
0.0
 48
0.0
 49
0.0
140
0.0
141
0.0
142
1.0
143
1.0
 70
   688
 72
     0
 73
     0
 74
     5
  7

 75
    16
 76
     0
 77
     2
 78
   300
147
1.0
148
0.0
149
0.0
100
AcDbLayout
  1
Layout2
 70
     1
 71
     2
 10
0.0
 20
0.0
 11
0.0
 21
0.0
 12
0.0
 22
0.0
 32
0.0
 14
0.0
 24
0.0
 34
0.0
 15
0.0
 25
0.0
 35
0.0
146
0.0
 13
0.0
 23
0.0
 33
0.0
 16
1.0
 26
0.0
 36
0.0
 17
0.0
 27
1.0
 37
0.0
 76
     0
330
23
  0
LAYOUT
  5
22
102
{ACAD_REACTORS
330
1A
102
}
330
1A
100
AcDbPlotSettings
  1

  2
none_device
  4
Letter_(8.50_x_11.00_Inches)
  6

 40
6.35
 41
6.35
 42
6.35000508
 43
6.35000508
 44
215.9
 45
279.4
 46
0.0
 47
0.0
 48
0.0
 49
0.0
140
0.0
141
0.0
142
1.0
143
1.0
 70
  1712
 72
     0
 73
     0
 74
     0
  7

 75
     0
 76
     0
 77
     2
 78
   300
147
1.0
148
0.0
149
0.0
100
AcDbLayout
  1
Model
 70
     1
 71
     0
 10
0.0
 20
0.0
 11
12.0
 21
9.0
 12
0.0
 22
0.0
 32
0.0
 14
7.046614173228346
 24
-9.53963779527559
 34
0.0
 15
12.9367874015748
 25
-0.9227755905511811
 35
0.0
146
0.0
 13
0.0
 23
0.0
 33
0.0
 16
1.0
 26
0.0
 36
0.0
 17
0.0
 27
1.0
 37
0.0
 76
     0
330
1F
331
29
  0
MATERIAL
  5
45
102
{ACAD_REACTORS
330
43
102
}
330
43
100
AcDbMaterial
  1
ByBlock
 72
     1
 94
      127
  0
MATERIAL
  5
44
102
{ACAD_REACTORS
330
43
102
}
330
43
100
AcDbMaterial
  1
ByLayer
 72
     1
 94
      127
  0
MATERIAL
  5
46
102
{ACAD_REACTORS
330
43
102
}
330
43
100
AcDbMaterial
  1
Global
 72
     1
 94
      127
  0
MLEADERSTYLE
  5
5C
102
{ACAD_REACTORS
330
5B
102
}
330
5B
100
AcDbMLeaderStyle
179
     2
170
     2
171
     1
172
     0
 90
        2
 40
0.0
 41
0.0
173
     1
 91
-1056964608
340
14
 92
       -2
290
     1
 42
0.09
291
     1
 43
0.36
  3
Standard
341
0
 44
0.18
300

342
11
174
     1
178
     6
175
     1
176
     0
 93
-1056964608
 45
0.18
292
     0
297
     0
 46
0.18
343
0
 94
-1056964608
 47
1.0
 49
1.0
140
1.0
293
     1
141
0.0
294
     1
177
     0
142
1.0
295
     0
296
     0
143
0.125
271
     0
272
     9
273
     9
298
     0
  0
MLINESTYLE
  5
18
102
{ACAD_REACTORS
330
17
102
}
330
17
100
AcDbMlineStyle
  2
Standard
 70
     0
  3

 62
   256
 51
90.0
 52
90.0
 71
     2
 49
0.5
 62
   256
  6
BYLAYER
 49
-0.5
 62
   256
  6
BYLAYER
  0
ACDBPLACEHOLDER
  5
F
102
{ACAD_REACTORS
330
E
102
}
330
E
  0
SCALE
  5
48
102
{ACAD_REACTORS
330
47
102
}
330
47
100
AcDbScale
 70
     0
300
1:1
140
1.0
141
1.0
290
     1
  0
SCALE
  5
49
102
{ACAD_REACTORS
330
47
102
}
330
47
100
AcDbScale
 70
     0
300
1/128" = 1'-0"
140
0.0078125
141
12.0
290
     0
  0
SCALE
  5
4A
102
{ACAD_REACTORS
330
47
102
}
330
47
100
AcDbScale
 70
     0
300
1/64" = 1'-0"
140
0.015625
141
12.0
290
     0
  0
SCALE
  5
4B
102
{ACAD_REACTORS
330
47
102
}
330
47
100
AcDbScale
 70
     0
300
1/32" = 1'-0"
140
0.03125
141
12.0
290
     0
  0
SCALE
  5
4C
102
{ACAD_REACTORS
330
47
102
}
330
47
100
AcDbScale
 70
     0
300
1/16" = 1'-0"
140
0.0625
141
12.0
290
     0
  0
SCALE
  5
4D
102
{ACAD_REACTORS
330
47
102
}
330
47
100
AcDbScale
 70
     0
300
3/32" = 1'-0"
140
0.09375
141
12.0
290
     0
  0
SCALE
  5
4E
102
{ACAD_REACTORS
330
47
102
}
330
47
100
AcDbScale
 70
     0
300
1/8" = 1'-0"
140
0.125
141
12.0
290
     0
  0
SCALE
  5
4F
102
{ACAD_REACTORS
330
47
102
}
330
47
100
AcDbScale
 70
     0
300
3/16" = 1'-0"
140
0.1875
141
12.0
290
     0
  0
SCALE
  5
50
102
{ACAD_REACTORS
330
47
102
}
330
47
100
AcDbScale
 70
     0
300
1/4" = 1'-0"
140
0.25
141
12.0
290
     0
  0
SCALE
  5
51
102
{ACAD_REACTORS
330
47
102
}
330
47
100
AcDbScale
 70
     0
300
3/8" = 1'-0"
140
0.375
141
12.0
290
     0
  0
SCALE
  5
52
102
{ACAD_REACTORS
330
47
102
}
330
47
100
AcDbScale
 70
     0
300
1/2" = 1'-0"
140
0.5
141
12.0
290
     0
  0
SCALE
  5
53
102
{ACAD_REACTORS
330
47
102
}
330
47
100
AcDbScale
 70
     0
300
3/4" = 1'-0"
140
0.75
141
12.0
290
     0
  0
SCALE
  5
54
102
{ACAD_REACTORS
330
47
102
}
330
47
100
AcDbScale
 70
     0
300
1" = 1'-0"
140
1.0
141
12.0
290
     0
  0
SCALE
  5
55
102
{ACAD_REACTORS
330
47
102
}
330
47
100
AcDbScale
 70
     0
300
1-1/2" = 1'-0"
140
1.5
141
12.0
290
     0
  0
SCALE
  5
56
102
{ACAD_REACTORS
330
47
102
}
330
47
100
AcDbScale
 70
     0
300
3" = 1'-0"
140
3.0
141
12.0
290
     0
  0
SCALE
  5
57
102
{ACAD_REACTORS
330
47
102
}
330
47
100
AcDbScale
 70
     0
300
6" = 1'-0"
140
6.0
141
12.0
290
     0
  0
SCALE
  5
58
102
{ACAD_REACTORS
330
47
102
}
330
47
100
AcDbScale
 70
     0
300
1'-0" = 1'-0"
140
12.0
141
12.0
290
     0
  0
TABLESTYLE
  5
5A
102
{ACAD_REACTORS
330
59
102
}
102
{ACAD_XDICTIONARY
360
8D
102
}
330
59
100
AcDbTableStyle
  3
Standard
 70
     0
 71
     0
 40
0.06
 41
0.06
280
     0
281
     0
  7
Standard
140
0.18
170
     2
 62
     0
 63
   257
283
     0
 90
        4
 91
        0
  1

274
    -2
284
     1
 64
     0
275
    -2
285
     1
 65
     0
276
    -2
286
     1
 66
     0
277
    -2
287
     1
 67
     0
278
    -2
288
     1
 68
     0
279
    -2
289
     1
 69
     0
  7
Standard
140
0.25
170
     5
 62
     0
 63
   257
283
     0
 90
        4
 91
        0
  1

274
    -2
284
     1
 64
     0
275
    -2
285
     1
 65
     0
276
    -2
286
     1
 66
     0
277
    -2
287
     1
 67
     0
278
    -2
288
     1
 68
     0
279
    -2
289
     1
 69
     0
  7
Standard
140
0.18
170
     5
 62
     0
 63
   257
283
     0
 90
        4
 91
        0
  1

274
    -2
284
     1
 64
     0
275
    -2
285
     1
 65
     0
276
    -2
286
     1
 66
     0
277
    -2
287
     1
 67
     0
278
    -2
288
     1
 68
     0
279
    -2
289
     1
 69
     0
  0
VISUALSTYLE
  5
2F
102
{ACAD_REACTORS
330
2A
102
}
330
2A
100
AcDbVisualStyle
  2
2dWireframe
 70
     4
177
     3
291
     0
 70
    58
 90
        0
176
     1
 90
        2
176
     1
 90
        0
176
     1
 90
        0
176
     1
 40
0.6
176
     1
 40
30.0
176
     1
 62
     7
420
 16777215
176
     1
 90
        1
176
     1
 90
        4
176
     1
 62
     7
176
     1
 62
   257
176
     1
 90
        1
176
     1
 90
        1
176
     1
 40
1.0
176
     1
 90
        0
176
     1
 62
   257
176
     1
 40
1.0
176
     1
 90
        1
176
     1
 90
        6
176
     1
 90
        2
176
     1
 62
     7
176
     1
 90
        5
176
     1
 90
        0
176
     1
 90
        0
176
     1
290
     0
176
     1
 90
        1
176
     1
 40
0.0
176
     1
 90
        0
176
     1
290
     1
176
     1
290
     1
176
     1
290
     0
176
     1
290
     0
176
     1
290
     0
176
     1
290
     0
176
     1
290
     0
176
     1
290
     0
176
     1
290
     0
176
     1
 90
       50
176
     1
 40
0.0
176
     1
 40
1.0
176
     1
 90
        0
176
     1
 62
    18
420
        0
176
     1
 90
       50
176
     1
 90
        3
176
     1
 62
     5
420
      255
176
     1
290
     0
176
     1
 90
       50
176
     1
 90
       50
176
     1
 90
       50
176
     1
290
     0
176
     1
 90
       50
176
     1
 62
   256
176
     0
 40
1.0
176
     0
 90
        2
176
     1
  1
strokes_ogs.tif
176
     1
290
     0
176
     1
 40
1.0
176
     1
 40
1.0
176
     1
  0
VISUALSTYLE
  5
32
102
{ACAD_REACTORS
330
2A
102
}
330
2A
100
AcDbVisualStyle
  2
Basic
 70
     7
177
     3
291
     1
 70
    58
 90
        1
176
     1
 90
        0
176
     1
 90
        1
176
     1
 90
        0
176
     1
 40
0.6
176
     1
 40
30.0
176
     1
 62
     7
420
 16777215
176
     1
 90
        0
176
     1
 90
        4
176
     1
 62
     7
176
     1
 62
   257
176
     1
 90
        1
176
     1
 90
        1
176
     1
 40
1.0
176
     1
 90
        8
176
     1
 62
     7
176
     1
 40
1.0
176
     1
 90
        1
176
     1
 90
        6
176
     1
 90
        2
176
     1
 62
     7
176
     1
 90
        5
176
     1
 90
        0
176
     1
 90
        0
176
     1
290
     0
176
     1
 90
        1
176
     1
 40
0.0
176
     1
 90
        0
176
     1
290
     0
176
     1
290
     1
176
     1
290
     1
176
     1
290
     0
176
     1
290
     0
176
     1
290
     0
176
     1
290
     0
176
     1
290
     0
176
     1
290
     0
176
     1
 90
       50
176
     1
 40
0.0
176
     1
 40
1.0
176
     1
 90
        0
176
     1
 62
    18
420
        0
176
     1
 90
       50
176
     1
 90
        3
176
     1
 62
     5
420
      255
176
     1
290
     0
176
     1
 90
       50
176
     1
 90
       50
176
     1
 90
       50
176
     1
290
     0
176
     1
 90
       50
176
     1
 62
   256
176
     0
 40
1.0
176
     0
 90
        2
176
     1
  1
strokes_ogs.tif
176
     1
290
     0
176
     1
 40
1.0
176
     1
 40
1.0
176
     1
  0
VISUALSTYLE
  5
36
102
{ACAD_REACTORS
330
2A
102
}
330
2A
100
AcDbVisualStyle
  2
Brighten
 70
    12
177
     3
291
     1
 70
    58
 90
        2
176
     1
 90
        2
176
     1
 90
        0
176
     1
 90
        0
176
     1
 40
0.6
176
     1
 40
30.0
176
     1
 62
     7
420
 16777215
176
     1
 90
        1
176
     1
 90
        4
176
     1
 62
     7
176
     1
 62
   257
176
     1
 90
        1
176
     1
 90
        1
176
     1
 40
1.0
176
     1
 90
        8
176
     1
 62
     7
176
     1
 40
1.0
176
     1
 90
        1
176
     1
 90
        6
176
     1
 90
        2
176
     1
 62
     7
176
     1
 90
        5
176
     1
 90
        0
176
     1
 90
        0
176
     1
290
     0
176
     1
 90
        1
176
     1
 40
50.0
176
     1
 90
        0
176
     1
290
     0
176
     1
290
     1
176
     1
290
     1
176
     1
290
     0
176
     1
290
     0
176
     1
290
     0
176
     1
290
     0
176
     1
290
     0
176
     1
290
     0
176
     1
 90
       50
176
     1
 40
0.0
176
     1
 40
1.0
176
     1
 90
        0
176
     1
 62
    18
420
        0
176
     1
 90
       50
176
     1
 90
        3
176
     1
 62
     5
420
      255
176
     1
290
     0
176
     1
 90
       50
176
     1
 90
       50
176
     1
 90
       50
176
     1
290
     0
176
     1
 90
       50
176
     1
 62
   256
176
     0
 40
1.0
176
     0
 90
        2
176
     1
  1
strokes_ogs.tif
176
     1
290
     0
176
     1
 40
1.0
176
     1
 40
1.0
176
     1
  0
VISUALSTYLE
  5
3A
102
{ACAD_REACTORS
330
2A
102
}
330
2A
100
AcDbVisualStyle
  2
ColorChange
 70
    16
177
     3
291
     1
 70
    58
 90
        2
176
     1
 90
        2
176
     1
 90
        3
176
     1
 90
        0
176
     1
 40
0.6
176
     1
 40
30.0
176
     1
 62
     8
420
  8421504
176
     1
 90
        1
176
     1
 90
        4
176
     1
 62
     7
176
     1
 62
   257
176
     1
 90
        1
176
     1
 90
        1
176
     1
 40
1.0
176
     1
 90
        8
176
     1
 62
     8
420
  8421504
176
     1
 40
1.0
176
     1
 90
        1
176
     1
 90
        6
176
     1
 90
        2
176
     1
 62
     7
176
     1
 90
        5
176
     1
 90
        0
176
     1
 90
        0
176
     1
290
     0
176
     1
 90
        1
176
     1
 40
0.0
176
     1
 90
        0
176
     1
290
     0
176
     1
290
     1
176
     1
290
     1
176
     1
290
     0
176
     1
290
     0
176
     1
290
     0
176
     1
290
     0
176
     1
290
     0
176
     1
290
     0
176
     1
 90
       50
176
     1
 40
0.0
176
     1
 40
1.0
176
     1
 90
        0
176
     1
 62
    18
420
        0
176
     1
 90
       50
176
     1
 90
        3
176
     1
 62
     5
420
      255
176
     1
290
     0
176
     1
 90
       50
176
     1
 90
       50
176
     1
 90
       50
176
     1
290
     0
176
     1
 90
       50
176
     1
 62
   256
176
     0
 40
1.0
176
     0
 90
        2
176
     1
  1
strokes_ogs.tif
176
     1
290
     0
176
     1
 40
1.0
176
     1
 40
1.0
176
     1
  0
VISUALSTYLE
  5
34
102
{ACAD_REACTORS
330
2A
102
}
330
2A
100
AcDbVisualStyle
  2
Conceptual
 70
     9
177
     3
291
     0
 70
    58
 90
        3
176
     1
 90
        2
176
     1
 90
        0
176
     1
 90
        0
176
     1
 40
0.6
176
     1
 40
30.0
176
     1
 62
     7
420
 16777215
176
     1
 90
        2
176
     1
 90
        2
176
     1
 62
     7
176
     1
 62
   257
176
     1
 90
        1
176
     1
 90
        1
176
     1
 40
179.0
176
     1
 90
        8
176
     1
 62
     7
176
     1
 40
1.0
176
     1
 90
        1
176
     1
 90
        6
176
     1
 90
        2
176
     1
 62
     7
176
     1
 90
        3
176
     1
 90
        0
176
     1
 90
        0
176
     1
290
     0
176
     1
 90
        1
176
     1
 40
0.0
176
     1
 90
        0
176
     1
290
     0
176
     1
290
     1
176
     1
290
     1
176
     1
290
     0
176
     1
290
     0
176
     1
290
     0
176
     1
290
     0
176
     1
290
     0
176
     1
290
     0
176
     1
 90
       50
176
     1
 40
0.0
176
     1
 40
1.0
176
     1
 90
        0
176
     1
 62
    18
420
        0
176
     1
 90
       50
176
     1
 90
        3
176
     1
 62
     5
420
      255
176
     1
290
     0
176
     1
 90
       50
176
     1
 90
       50
176
     1
 90
       50
176
     1
290
     0
176
     1
 90
       50
176
     1
 62
   256
176
     0
 40
1.0
176
     0
 90
        2
176
     1
  1
strokes_ogs.tif
176
     1
290
     0
176
     1
 40
1.0
176
     1
 40
1.0
176
     1
  0
VISUALSTYLE
  5
35
102
{ACAD_REACTORS
330
2A
102
}
330
2A
100
AcDbVisualStyle
  2
Dim
 70
    11
177
     3
291
     1
 70
    58
 90
        2
176
     1
 90
        2
176
     1
 90
        0
176
     1
 90
        0
176
     1
 40
0.6
176
     1
 40
30.0
176
     1
 62
     7
420
 16777215
176
     1
 90
        1
176
     1
 90
        4
176
     1
 62
     7
176
     1
 62
   257
176
     1
 90
        1
176
     1
 90
        1
176
     1
 40
1.0
176
     1
 90
        8
176
     1
 62
     7
176
     1
 40
1.0
176
     1
 90
        1
176
     1
 90
        6
176
     1
 90
        2
176
     1
 62
     7
176
     1
 90
        5
176
     1
 90
        0
176
     1
 90
        0
176
     1
290
     0
176
     1
 90
        1
176
     1
 40
-50.0
176
     1
 90
        0
176
     1
290
     0
176
     1
290
     1
176
     1
290
     1
176
     1
290
     0
176
     1
290
     0
176
     1
290
     0
176
     1
290
     0
176
     1
290
     0
176
     1
290
     0
176
     1
 90
       50
176
     1
 40
0.0
176
     1
 40
1.0
176
     1
 90
        0
176
     1
 62
    18
420
        0
176
     1
 90
       50
176
     1
 90
        3
176
     1
 62
     5
420
      255
176
     1
290
     0
176
     1
 90
       50
176
     1
 90
       50
176
     1
 90
       50
176
     1
290
     0
176
     1
 90
       50
176
     1
 62
   256
176
     0
 40
1.0
176
     0
 90
        2
176
     1
  1
strokes_ogs.tif
176
     1
290
     0
176
     1
 40
1.0
176
     1
 40
1.0
176
     1
  0
VISUALSTYLE
  5
3D
102
{ACAD_REACTORS
330
2A
102
}
330
2A
100
AcDbVisualStyle
  2
EdgeColorOff
 70
    22
177
     3
291
     1
 70
    58
 90
        2
176
     0
 90
        2
176
     0
 90
        0
176
     0
 90
        0
176
     0
 40
0.6
176
     0
 40
30.0
176
     0
 62
     7
420
 16777215
176
     0
 90
        1
176
     0
 90
        4
176
     0
 62
     7
176
     0
 62
   257
176
     0
 90
        1
176
     0
 90
        1
176
     0
 40
1.0
176
     0
 90
        8
176
     2
 62
     7
176
     0
 40
1.0
176
     0
 90
        1
176
     0
 90
        6
176
     0
 90
        2
176
     0
 62
     7
176
     0
 90
        5
176
     0
 90
        0
176
     0
 90
        0
176
     0
290
     0
176
     0
 90
        1
176
     0
 40
0.0
176
     0
 90
        0
176
     0
290
     0
176
     0
290
     1
176
     0
290
     1
176
     0
290
     0
176
     0
290
     0
176
     0
290
     0
176
     0
290
     0
176
     0
290
     0
176
     0
290
     0
176
     0
 90
       50
176
     0
 40
0.0
176
     0
 40
1.0
176
     0
 90
        0
176
     0
 62
    18
420
        0
176
     0
 90
       50
176
     0
 90
        3
176
     0
 62
     5
420
      255
176
     0
290
     0
176
     0
 90
       50
176
     0
 90
       50
176
     0
 90
       50
176
     0
290
     0
176
     0
 90
       50
176
     0
 62
   256
176
     0
 40
1.0
176
     0
 90
        2
176
     0
  1
strokes_ogs.tif
176
     0
290
     0
176
     0
 40
1.0
176
     0
 40
1.0
176
     0
  0
VISUALSTYLE
  5
39
102
{ACAD_REACTORS
330
2A
102
}
330
2A
100
AcDbVisualStyle
  2
Facepattern
 70
    15
177
     3
291
     1
 70
    58
 90
        2
176
     1
 90
        2
176
     1
 90
        0
176
     1
 90
        0
176
     1
 40
0.6
176
     1
 40
30.0
176
     1
 62
     7
420
 16777215
176
     1
 90
        1
176
     1
 90
        4
176
     1
 62
     7
176
     1
 62
   257
176
     1
 90
        1
176
     1
 90
        1
176
     1
 40
1.0
176
     1
 90
        8
176
     1
 62
     7
176
     1
 40
1.0
176
     1
 90
        1
176
     1
 90
        6
176
     1
 90
        2
176
     1
 62
     7
176
     1
 90
        5
176
     1
 90
        0
176
     1
 90
        0
176
     1
290
     0
176
     1
 90
        1
176
     1
 40
0.0
176
     1
 90
        0
176
     1
290
     0
176
     1
290
     1
176
     1
290
     1
176
     1
290
     0
176
     1
290
     0
176
     1
290
     0
176
     1
290
     0
176
     1
290
     0
176
     1
290
     0
176
     1
 90
       50
176
     1
 40
0.0
176
     1
 40
1.0
176
     1
 90
        0
176
     1
 62
    18
420
        0
176
     1
 90
       50
176
     1
 90
        3
176
     1
 62
     5
420
      255
176
     1
290
     0
176
     1
 90
       50
176
     1
 90
       50
176
     1
 90
       50
176
     1
290
     0
176
     1
 90
       50
176
     1
 62
   256
176
     0
 40
1.0
176
     0
 90
        2
176
     1
  1
strokes_ogs.tif
176
     1
290
     0
176
     1
 40
1.0
176
     1
 40
1.0
176
     1
  0
VISUALSTYLE
  5
2B
102
{ACAD_REACTORS
330
2A
102
}
330
2A
100
AcDbVisualStyle
  2
Flat
 70
     0
177
     3
291
     1
 70
    58
 90
        2
176
     1
 90
        1
176
     1
 90
        1
176
     1
 90
        2
176
     1
 40
0.6
176
     1
 40
30.0
176
     1
 62
     7
420
 16777215
176
     1
 90
        0
176
     1
 90
        0
176
     1
 62
     7
176
     1
 62
   257
176
     1
 90
        1
176
     1
 90
        1
176
     1
 40
1.0
176
     1
 90
        8
176
     1
 62
     7
176
     1
 40
1.0
176
     1
 90
        1
176
     1
 90
        6
176
     1
 90
        2
176
     1
 62
     7
176
     1
 90
        5
176
     1
 90
        0
176
     1
 90
        0
176
     1
290
     0
176
     1
 90
       13
176
     1
 40
0.0
176
     1
 90
        0
176
     1
290
     0
176
     1
290
     1
176
     1
290
     1
176
     1
290
     0
176
     1
290
     0
176
     1
290
     0
176
     1
290
     0
176
     1
290
     0
176
     1
290
     0
176
     1
 90
       50
176
     1
 40
0.0
176
     1
 40
1.0
176
     1
 90
        0
176
     1
 62
    18
420
        0
176
     1
 90
       50
176
     1
 90
        3
176
     1
 62
     5
420
      255
176
     1
290
     0
176
     1
 90
       50
176
     1
 90
       50
176
     1
 90
       50
176
     1
290
     0
176
     1
 90
       50
176
     1
 62
   256
176
     0
 40
1.0
176
     0
 90
        2
176
     1
  1
strokes_ogs.tif
176
     1
290
     0
176
     1
 40
1.0
176
     1
 40
1.0
176
     1
  0
VISUALSTYLE
  5
2C
102
{ACAD_REACTORS
330
2A
102
}
330
2A
100
AcDbVisualStyle
  2
FlatWithEdges
 70
     1
177
     3
291
     1
 70
    58
 90
        2
176
     1
 90
        1
176
     1
 90
        1
176
     1
 90
        2
176
     1
 40
0.6
176
     1
 40
30.0
176
     1
 62
     7
420
 16777215
176
     1
 90
        1
176
     1
 90
        0
176
     1
 62
     7
176
     1
 62
   257
176
     1
 90
        1
176
     1
 90
        1
176
     1
 40
1.0
176
     1
 90
        0
176
     1
 62
   257
176
     1
 40
1.0
176
     1
 90
        1
176
     1
 90
        6
176
     1
 90
        2
176
     1
 62
     7
176
     1
 90
        5
176
     1
 90
        0
176
     1
 90
        0
176
     1
290
     0
176
     1
 90
       13
176
     1
 40
0.0
176
     1
 90
        0
176
     1
290
     0
176
     1
290
     1
176
     1
290
     1
176
     1
290
     0
176
     1
290
     0
176
     1
290
     0
176
     1
290
     0
176
     1
290
     0
176
     1
290
     0
176
     1
 90
       50
176
     1
 40
0.0
176
     1
 40
1.0
176
     1
 90
        0
176
     1
 62
    18
420
        0
176
     1
 90
       50
176
     1
 90
        3
176
     1
 62
     5
420
      255
176
     1
290
     0
176
     1
 90
       50
176
     1
 90
       50
176
     1
 90
       50
176
     1
290
     0
176
     1
 90
       50
176
     1
 62
   256
176
     0
 40
1.0
176
     0
 90
        2
176
     1
  1
strokes_ogs.tif
176
     1
290
     0
176
     1
 40
1.0
176
     1
 40
1.0
176
     1
  0
VISUALSTYLE
  5
2D
102
{ACAD_REACTORS
330
2A
102
}
330
2A
100
AcDbVisualStyle
  2
Gouraud
 70
     2
177
     3
291
     1
 70
    58
 90
        2
176
     1
 90
        2
176
     1
 90
        1
176
     1
 90
        2
176
     1
 40
0.6
176
     1
 40
30.0
176
     1
 62
     7
420
 16777215
176
     1
 90
        0
176
     1
 90
        0
176
     1
 62
     7
176
     1
 62
   257
176
     1
 90
        1
176
     1
 90
        1
176
     1
 40
1.0
176
     1
 90
        0
176
     1
 62
     7
176
     1
 40
1.0
176
     1
 90
        1
176
     1
 90
        6
176
     1
 90
        2
176
     1
 62
     7
176
     1
 90
        5
176
     1
 90
        0
176
     1
 90
        0
176
     1
290
     0
176
     1
 90
       13
176
     1
 40
0.0
176
     1
 90
        0
176
     1
290
     0
176
     1
290
     1
176
     1
290
     1
176
     1
290
     0
176
     1
290
     0
176
     1
290
     0
176
     1
290
     0
176
     1
290
     0
176
     1
290
     0
176
     1
 90
       50
176
     1
 40
0.0
176
     1
 40
1.0
176
     1
 90
        0
176
     1
 62
    18
420
        0
176
     1
 90
       50
176
     1
 90
        3
176
     1
 62
     5
420
      255
176
     1
290
     0
176
     1
 90
       50
176
     1
 90
       50
176
     1
 90
       50
176
     1
290
     0
176
     1
 90
       50
176
     1
 62
   256
176
     0
 40
1.0
176
     0
 90
        2
176
     1
  1
strokes_ogs.tif
176
     1
290
     0
176
     1
 40
1.0
176
     1
 40
1.0
176
     1
  0
VISUALSTYLE
  5
2E
102
{ACAD_REACTORS
330
2A
102
}
330
2A
100
AcDbVisualStyle
  2
GouraudWithEdges
 70
     3
177
     3
291
     1
 70
    58
 90
        2
176
     1
 90
        2
176
     1
 90
        1
176
     1
 90
        2
176
     1
 40
0.6
176
     1
 40
30.0
176
     1
 62
     7
420
 16777215
176
     1
 90
        1
176
     1
 90
        0
176
     1
 62
     7
176
     1
 62
   257
176
     1
 90
        1
176
     1
 90
        1
176
     1
 40
1.0
176
     1
 90
        0
176
     1
 62
   257
176
     1
 40
1.0
176
     1
 90
        1
176
     1
 90
        6
176
     1
 90
        2
176
     1
 62
     7
176
     1
 90
        5
176
     1
 90
        0
176
     1
 90
        0
176
     1
290
     0
176
     1
 90
       13
176
     1
 40
0.0
176
     1
 90
        0
176
     1
290
     0
176
     1
290
     1
176
     1
290
     1
176
     1
290
     0
176
     1
290
     0
176
     1
290
     0
176
     1
290
     0
176
     1
290
     0
176
     1
290
     0
176
     1
 90
       50
176
     1
 40
0.0
176
     1
 40
1.0
176
     1
 90
        0
176
     1
 62
    18
420
        0
176
     1
 90
       50
176
     1
 90
        3
176
     1
 62
     5
420
      255
176
     1
290
     0
176
     1
 90
       50
176
     1
 90
       50
176
     1
 90
       50
176
     1
290
     0
176
     1
 90
       50
176
     1
 62
   256
176
     0
 40
1.0
176
     0
 90
        2
176
     1
  1
strokes_ogs.tif
176
     1
290
     0
176
     1
 40
1.0
176
     1
 40
1.0
176
     1
  0
VISUALSTYLE
  5
31
102
{ACAD_REACTORS
330
2A
102
}
330
2A
100
AcDbVisualStyle
  2
Hidden
 70
     6
177
     3
291
     0
 70
    58
 90
        1
176
     1
 90
        2
176
     1
 90
        2
176
     1
 90
        0
176
     1
 40
0.6
176
     1
 40
30.0
176
     1
 62
     7
420
 16777215
176
     1
 90
        2
176
     1
 90
        2
176
     1
 62
     7
176
     1
 62
   257
176
     1
 90
        2
176
     1
 90
        1
176
     1
 40
40.0
176
     1
 90
        0
176
     1
 62
   257
176
     1
 40
1.0
176
     1
 90
        1
176
     1
 90
        6
176
     1
 90
        2
176
     1
 62
     7
176
     1
 90
        3
176
     1
 90
        0
176
     1
 90
        0
176
     1
290
     0
176
     1
 90
        1
176
     1
 40
0.0
176
     1
 90
        0
176
     1
290
     0
176
     1
290
     1
176
     1
290
     1
176
     1
290
     0
176
     1
290
     0
176
     1
290
     0
176
     1
290
     0
176
     1
290
     0
176
     1
290
     0
176
     1
 90
       50
176
     1
 40
0.0
176
     1
 40
1.0
176
     1
 90
        0
176
     1
 62
    18
420
        0
176
     1
 90
       50
176
     1
 90
        3
176
     1
 62
     5
420
      255
176
     1
290
     0
176
     1
 90
       50
176
     1
 90
       50
176
     1
 90
       50
176
     1
290
     0
176
     1
 90
       50
176
     1
 62
   256
176
     0
 40
1.0
176
     0
 90
        2
176
     1
  1
strokes_ogs.tif
176
     1
290
     0
176
     1
 40
1.0
176
     1
 40
1.0
176
     1
  0
VISUALSTYLE
  5
3B
102
{ACAD_REACTORS
330
2A
102
}
330
2A
100
AcDbVisualStyle
  2
JitterOff
 70
    20
177
     3
291
     1
 70
    58
 90
        2
176
     0
 90
        2
176
     0
 90
        0
176
     0
 90
        0
176
     0
 40
0.6
176
     0
 40
30.0
176
     0
 62
     7
420
 16777215
176
     0
 90
        1
176
     0
 90
        4
176
     0
 62
     7
176
     0
 62
   257
176
     0
 90
        1
176
     0
 90
        1
176
     0
 40
1.0
176
     0
 90
       10
176
     2
 62
     7
176
     0
 40
1.0
176
     0
 90
        1
176
     0
 90
        6
176
     0
 90
        2
176
     0
 62
     7
176
     0
 90
        5
176
     0
 90
        0
176
     0
 90
        0
176
     0
290
     0
176
     0
 90
        1
176
     0
 40
0.0
176
     0
 90
        0
176
     0
290
     0
176
     0
290
     1
176
     0
290
     1
176
     0
290
     0
176
     0
290
     0
176
     0
290
     0
176
     0
290
     0
176
     0
290
     0
176
     0
290
     0
176
     0
 90
       50
176
     0
 40
0.0
176
     0
 40
1.0
176
     0
 90
        0
176
     0
 62
    18
420
        0
176
     0
 90
       50
176
     0
 90
        3
176
     0
 62
     5
420
      255
176
     0
290
     0
176
     0
 90
       50
176
     0
 90
       50
176
     0
 90
       50
176
     0
290
     0
176
     0
 90
       50
176
     0
 62
   256
176
     0
 40
1.0
176
     0
 90
        2
176
     0
  1
strokes_ogs.tif
176
     0
290
     0
176
     0
 40
1.0
176
     0
 40
1.0
176
     0
  0
VISUALSTYLE
  5
38
102
{ACAD_REACTORS
330
2A
102
}
330
2A
100
AcDbVisualStyle
  2
Linepattern
 70
    14
177
     3
291
     1
 70
    58
 90
        2
176
     1
 90
        2
176
     1
 90
        0
176
     1
 90
        0
176
     1
 40
0.6
176
     1
 40
30.0
176
     1
 62
     7
420
 16777215
176
     1
 90
        1
176
     1
 90
        4
176
     1
 62
     7
176
     1
 62
   257
176
     1
 90
        7
176
     1
 90
        7
176
     1
 40
1.0
176
     1
 90
        8
176
     1
 62
     7
176
     1
 40
1.0
176
     1
 90
        1
176
     1
 90
        6
176
     1
 90
        2
176
     1
 62
     7
176
     1
 90
        5
176
     1
 90
        0
176
     1
 90
        0
176
     1
290
     0
176
     1
 90
        1
176
     1
 40
0.0
176
     1
 90
        0
176
     1
290
     0
176
     1
290
     1
176
     1
290
     1
176
     1
290
     0
176
     1
290
     0
176
     1
290
     0
176
     1
290
     0
176
     1
290
     0
176
     1
290
     0
176
     1
 90
       50
176
     1
 40
0.0
176
     1
 40
1.0
176
     1
 90
        0
176
     1
 62
    18
420
        0
176
     1
 90
       50
176
     1
 90
        3
176
     1
 62
     5
420
      255
176
     1
290
     0
176
     1
 90
       50
176
     1
 90
       50
176
     1
 90
       50
176
     1
290
     0
176
     1
 90
       50
176
     1
 62
   256
176
     0
 40
1.0
176
     0
 90
        2
176
     1
  1
strokes_ogs.tif
176
     1
290
     0
176
     1
 40
1.0
176
     1
 40
1.0
176
     1
  0
VISUALSTYLE
  5
3C
102
{ACAD_REACTORS
330
2A
102
}
330
2A
100
AcDbVisualStyle
  2
OverhangOff
 70
    21
177
     3
291
     1
 70
    58
 90
        2
176
     0
 90
        2
176
     0
 90
        0
176
     0
 90
        0
176
     0
 40
0.6
176
     0
 40
30.0
176
     0
 62
     7
420
 16777215
176
     0
 90
        1
176
     0
 90
        4
176
     0
 62
     7
176
     0
 62
   257
176
     0
 90
        1
176
     0
 90
        1
176
     0
 40
1.0
176
     0
 90
        9
176
     2
 62
     7
176
     0
 40
1.0
176
     0
 90
        1
176
     0
 90
        6
176
     0
 90
        2
176
     0
 62
     7
176
     0
 90
        5
176
     0
 90
        0
176
     0
 90
        0
176
     0
290
     0
176
     0
 90
        1
176
     0
 40
0.0
176
     0
 90
        0
176
     0
290
     0
176
     0
290
     1
176
     0
290
     1
176
     0
290
     0
176
     0
290
     0
176
     0
290
     0
176
     0
290
     0
176
     0
290
     0
176
     0
290
     0
176
     0
 90
       50
176
     0
 40
0.0
176
     0
 40
1.0
176
     0
 90
        0
176
     0
 62
    18
420
        0
176
     0
 90
       50
176
     0
 90
        3
176
     0
 62
     5
420
      255
176
     0
290
     0
176
     0
 90
       50
176
     0
 90
       50
176
     0
 90
       50
176
     0
290
     0
176
     0
 90
       50
176
     0
 62
   256
176
     0
 40
1.0
176
     0
 90
        2
176
     0
  1
strokes_ogs.tif
176
     0
290
     0
176
     0
 40
1.0
176
     0
 40
1.0
176
     0
  0
VISUALSTYLE
  5
33
102
{ACAD_REACTORS
330
2A
102
}
330
2A
100
AcDbVisualStyle
  2
Realistic
 70
     8
177
     3
291
     0
 70
    58
 90
        2
176
     1
 90
        3
176
     1
 90
        0
176
     1
 90
        2
176
     1
 40
0.6
176
     1
 40
30.0
176
     1
 62
     7
420
 16777215
176
     1
 90
        0
176
     1
 90
        0
176
     1
 62
     7
176
     1
 62
   257
176
     1
 90
        1
176
     1
 90
        1
176
     1
 40
1.0
176
     1
 90
        8
176
     1
 62
   257
176
     1
 40
1.0
176
     1
 90
        1
176
     1
 90
        6
176
     1
 90
        2
176
     1
 62
     7
176
     1
 90
        3
176
     1
 90
        0
176
     1
 90
        0
176
     1
290
     0
176
     1
 90
       13
176
     1
 40
0.0
176
     1
 90
        0
176
     1
290
     0
176
     1
290
     1
176
     1
290
     1
176
     1
290
     0
176
     1
290
     0
176
     1
290
     0
176
     1
290
     0
176
     1
290
     0
176
     1
290
     0
176
     1
 90
       50
176
     1
 40
0.0
176
     1
 40
1.0
176
     1
 90
        0
176
     1
 62
    18
420
        0
176
     1
 90
       50
176
     1
 90
        3
176
     1
 62
     5
420
      255
176
     1
290
     0
176
     1
 90
       50
176
     1
 90
       50
176
     1
 90
       50
176
     1
290
     0
176
     1
 90
       50
176
     1
 62
   256
176
     0
 40
1.0
176
     0
 90
        2
176
     1
  1
strokes_ogs.tif
176
     1
290
     0
176
     1
 40
1.0
176
     1
 40
1.0
176
     1
  0
VISUALSTYLE
  5
42
102
{ACAD_REACTORS
330
2A
102
}
330
2A
100
AcDbVisualStyle
  2
Shaded
 70
    27
177
     3
291
     0
 70
    58
 90
        2
176
     1
 90
        2
176
     1
 90
        1
176
     1
 90
        2
176
     1
 40
0.6
176
     1
 40
30.0
176
     1
 62
     7
420
 16777215
176
     1
 90
        0
176
     1
 90
        4
176
     1
 62
     7
176
     1
 62
   257
176
     1
 90
        1
176
     1
 90
        1
176
     1
 40
1.0
176
     1
 90
        8
176
     1
 62
   257
176
     1
 40
1.0
176
     1
 90
        1
176
     1
 90
        6
176
     1
 90
        2
176
     1
 62
     8
420
  7895160
176
     1
 90
        3
176
     1
 90
        0
176
     1
 90
        0
176
     1
290
     0
176
     1
 90
        5
176
     1
 40
0.0
176
     1
 90
        0
176
     1
290
     0
176
     1
290
     1
176
     1
290
     1
176
     1
290
     0
176
     1
290
     0
176
     1
290
     0
176
     1
290
     0
176
     1
290
     0
176
     1
290
     0
176
     1
 90
       50
176
     1
 40
0.0
176
     1
 40
1.0
176
     1
 90
        0
176
     1
 62
    18
420
        0
176
     1
 90
       50
176
     1
 90
        3
176
     1
 62
     5
420
      255
176
     1
290
     0
176
     1
 90
       50
176
     1
 90
       50
176
     1
 90
       50
176
     1
290
     0
176
     1
 90
       50
176
     1
 62
   256
176
     0
 40
1.0
176
     0
 90
        2
176
     1
  1
strokes_ogs.tif
176
     1
290
     0
176
     1
 40
1.0
176
     1
 40
1.0
176
     1
  0
VISUALSTYLE
  5
41
102
{ACAD_REACTORS
330
2A
102
}
330
2A
100
AcDbVisualStyle
  2
Shaded with edges
 70
    26
177
     3
291
     0
 70
    58
 90
        2
176
     1
 90
        2
176
     1
 90
        1
176
     1
 90
        2
176
     1
 40
0.6
176
     1
 40
30.0
176
     1
 62
     7
420
 16777215
176
     1
 90
        1
176
     1
 90
       10
176
     1
 62
     7
176
     1
 62
   257
176
     1
 90
        2
176
     1
 90
        1
176
     1
 40
1.0
176
     1
 90
        8
176
     1
 62
   257
176
     1
 40
1.0
176
     1
 90
        1
176
     1
 90
        6
176
     1
 90
        2
176
     1
 62
     7
176
     1
 90
        3
176
     1
 90
        0
176
     1
 90
        0
176
     1
290
     0
176
     1
 90
        5
176
     1
 40
0.0
176
     1
 90
        0
176
     1
290
     0
176
     1
290
     1
176
     1
290
     1
176
     1
290
     0
176
     1
290
     0
176
     1
290
     0
176
     1
290
     0
176
     1
290
     0
176
     1
290
     0
176
     1
 90
       50
176
     1
 40
0.0
176
     1
 40
1.0
176
     1
 90
        0
176
     1
 62
    18
420
        0
176
     1
 90
       50
176
     1
 90
        3
176
     1
 62
     5
420
      255
176
     1
290
     0
176
     1
 90
       50
176
     1
 90
       50
176
     1
 90
       50
176
     1
290
     0
176
     1
 90
       50
176
     1
 62
   256
176
     0
 40
1.0
176
     0
 90
        2
176
     1
  1
strokes_ogs.tif
176
     1
290
     0
176
     1
 40
1.0
176
     1
 40
1.0
176
     1
  0
VISUALSTYLE
  5
3E
102
{ACAD_REACTORS
330
2A
102
}
330
2A
100
AcDbVisualStyle
  2
Shades of Gray
 70
    23
177
     3
291
     0
 70
    58
 90
        2
176
     1
 90
        2
176
     1
 90
        3
176
     1
 90
        0
176
     1
 40
0.6
176
     1
 40
30.0
176
     1
 62
     7
420
 16777215
176
     1
 90
        2
176
     1
 90
        2
176
     1
 62
     7
176
     1
 62
     7
176
     1
 90
        1
176
     1
 90
        1
176
     1
 40
40.0
176
     1
 90
        8
176
     1
 62
     7
176
     1
 40
1.0
176
     1
 90
        1
176
     1
 90
        6
176
     1
 90
        2
176
     1
 62
     7
176
     1
 90
        3
176
     1
 90
        0
176
     1
 90
        0
176
     1
290
     0
176
     1
 90
        1
176
     1
 40
0.0
176
     1
 90
        0
176
     1
290
     0
176
     1
290
     1
176
     1
290
     1
176
     1
290
     0
176
     1
290
     0
176
     1
290
     0
176
     1
290
     0
176
     1
290
     0
176
     1
290
     0
176
     1
 90
       50
176
     1
 40
0.0
176
     1
 40
1.0
176
     1
 90
        0
176
     1
 62
    18
420
        0
176
     1
 90
       50
176
     1
 90
        3
176
     1
 62
     5
420
      255
176
     1
290
     0
176
     1
 90
       50
176
     1
 90
       50
176
     1
 90
       50
176
     1
290
     0
176
     1
 90
       50
176
     1
 62
   256
176
     0
 40
1.0
176
     0
 90
        2
176
     1
  1
strokes_ogs.tif
176
     1
290
     0
176
     1
 40
1.0
176
     1
 40
1.0
176
     1
  0
VISUALSTYLE
  5
3F
102
{ACAD_REACTORS
330
2A
102
}
330
2A
100
AcDbVisualStyle
  2
Sketchy
 70
    24
177
     3
291
     0
 70
    58
 90
        1
176
     1
 90
        2
176
     1
 90
        2
176
     1
 90
        0
176
     1
 40
0.6
176
     1
 40
30.0
176
     1
 62
     7
420
 16777215
176
     1
 90
        2
176
     1
 90
        2
176
     1
 62
     7
176
     1
 62
     7
176
     1
 90
        1
176
     1
 90
        1
176
     1
 40
40.0
176
     1
 90
       11
176
     1
 62
     7
176
     1
 40
1.0
176
     1
 90
        1
176
     1
 90
        6
176
     1
 90
        2
176
     1
 62
     7
176
     1
 90
        6
176
     1
 90
        0
176
     1
 90
        0
176
     1
290
     0
176
     1
 90
        1
176
     1
 40
0.0
176
     1
 90
        0
176
     1
290
     0
176
     1
290
     1
176
     1
290
     1
176
     1
290
     0
176
     1
290
     0
176
     1
290
     0
176
     1
290
     0
176
     1
290
     0
176
     1
290
     0
176
     1
 90
       50
176
     1
 40
0.0
176
     1
 40
1.0
176
     1
 90
        0
176
     1
 62
    18
420
        0
176
     1
 90
       50
176
     1
 90
        3
176
     1
 62
     5
420
      255
176
     1
290
     0
176
     1
 90
       50
176
     1
 90
       50
176
     1
 90
       50
176
     1
290
     0
176
     1
 90
       50
176
     1
 62
   256
176
     0
 40
1.0
176
     0
 90
        2
176
     1
  1
strokes_ogs.tif
176
     1
290
     0
176
     1
 40
1.0
176
     1
 40
1.0
176
     1
  0
VISUALSTYLE
  5
37
102
{ACAD_REACTORS
330
2A
102
}
330
2A
100
AcDbVisualStyle
  2
Thicken
 70
    13
177
     3
291
     1
 70
    58
 90
        2
176
     1
 90
        2
176
     1
 90
        0
176
     1
 90
        0
176
     1
 40
0.6
176
     1
 40
30.0
176
     1
 62
     7
420
 16777215
176
     1
 90
        1
176
     1
 90
        4
176
     1
 62
     7
176
     1
 62
   257
176
     1
 90
        1
176
     1
 90
        1
176
     1
 40
1.0
176
     1
 90
       12
176
     1
 62
     7
176
     1
 40
1.0
176
     1
 90
        1
176
     1
 90
        6
176
     1
 90
        2
176
     1
 62
     7
176
     1
 90
        5
176
     1
 90
        0
176
     1
 90
        0
176
     1
290
     0
176
     1
 90
        1
176
     1
 40
0.0
176
     1
 90
        0
176
     1
290
     0
176
     1
290
     1
176
     1
290
     1
176
     1
290
     0
176
     1
290
     0
176
     1
290
     0
176
     1
290
     0
176
     1
290
     0
176
     1
290
     0
176
     1
 90
       50
176
     1
 40
0.0
176
     1
 40
1.0
176
     1
 90
        0
176
     1
 62
    18
420
        0
176
     1
 90
       50
176
     1
 90
        3
176
     1
 62
     5
420
      255
176
     1
290
     0
176
     1
 90
       50
176
     1
 90
       50
176
     1
 90
       50
176
     1
290
     0
176
     1
 90
       50
176
     1
 62
   256
176
     0
 40
1.0
176
     0
 90
        2
176
     1
  1
strokes_ogs.tif
176
     1
290
     0
176
     1
 40
1.0
176
     1
 40
1.0
176
     1
  0
VISUALSTYLE
  5
30
102
{ACAD_REACTORS
330
2A
102
}
330
2A
100
AcDbVisualStyle
  2
Wireframe
 70
     5
177
     3
291
     0
 70
    58
 90
        0
176
     1
 90
        2
176
     1
 90
        0
176
     1
 90
        0
176
     1
 40
0.6
176
     1
 40
30.0
176
     1
 62
     7
420
 16777215
176
     1
 90
        1
176
     1
 90
        4
176
     1
 62
     7
176
     1
 62
   257
176
     1
 90
        1
176
     1
 90
        1
176
     1
 40
1.0
176
     1
 90
        0
176
     1
 62
   257
176
     1
 40
1.0
176
     1
 90
        1
176
     1
 90
        6
176
     1
 90
        2
176
     1
 62
     7
176
     1
 90
        3
176
     1
 90
        0
176
     1
 90
        0
176
     1
290
     0
176
     1
 90
        1
176
     1
 40
0.0
176
     1
 90
        0
176
     1
290
     0
176
     1
290
     1
176
     1
290
     1
176
     1
290
     0
176
     1
290
     0
176
     1
290
     0
176
     1
290
     0
176
     1
290
     0
176
     1
290
     0
176
     1
 90
       50
176
     1
 40
0.0
176
     1
 40
1.0
176
     1
 90
        0
176
     1
 62
    18
420
        0
176
     1
 90
       50
176
     1
 90
        3
176
     1
 62
     5
420
      255
176
     1
290
     0
176
     1
 90
       50
176
     1
 90
       50
176
     1
 90
       50
176
     1
290
     0
176
     1
 90
       50
176
     1
 62
   256
176
     0
 40
1.0
176
     0
 90
        2
176
     1
  1
strokes_ogs.tif
176
     1
290
     0
176
     1
 40
1.0
176
     1
 40
1.0
176
     1
  0
VISUALSTYLE
  5
40
102
{ACAD_REACTORS
330
2A
102
}
330
2A
100
AcDbVisualStyle
  2
X-Ray
 70
    25
177
     3
291
     0
 70
    58
 90
        2
176
     1
 90
        2
176
     1
 90
        1
176
     1
 90
        1
176
     1
 40
0.5
176
     1
 40
30.0
176
     1
 62
     7
420
 16777215
176
     1
 90
        1
176
     1
 90
        0
176
     1
 62
     7
176
     1
 62
   257
176
     1
 90
        1
176
     1
 90
        1
176
     1
 40
1.0
176
     1
 90
        8
176
     1
 62
     7
176
     1
 40
1.0
176
     1
 90
        1
176
     1
 90
        6
176
     1
 90
        2
176
     1
 62
     7
176
     1
 90
        3
176
     1
 90
        0
176
     1
 90
        0
176
     1
290
     0
176
     1
 90
       13
176
     1
 40
0.0
176
     1
 90
        0
176
     1
290
     0
176
     1
290
     1
176
     1
290
     1
176
     1
290
     0
176
     1
290
     0
176
     1
290
     0
176
     1
290
     0
176
     1
290
     0
176
     1
290
     0
176
     1
 90
       50
176
     1
 40
0.0
176
     1
 40
1.0
176
     1
 90
        0
176
     1
 62
    18
420
        0
176
     1
 90
       50
176
     1
 90
        3
176
     1
 62
     5
420
      255
176
     1
290
     0
176
     1
 90
       50
176
     1
 90
       50
176
     1
 90
       50
176
     1
290
     0
176
     1
 90
       50
176
     1
 62
   256
176
     0
 40
1.0
176
     0
 90
        2
176
     1
  1
strokes_ogs.tif
176
     1
290
     0
176
     1
 40
1.0
176
     1
 40
1.0
176
     1
  0
DICTIONARYVAR
  5
8C
102
{ACAD_REACTORS
330
8B
102
}
330
8B
100
DictionaryVariables
280
     0
  1
1:1
  0
DICTIONARYVAR
  5
91
102
{ACAD_REACTORS
330
8B
102
}
330
8B
100
DictionaryVariables
280
     0
  1
Standard
  0
DICTIONARYVAR
  5
90
102
{ACAD_REACTORS
330
8B
102
}
330
8B
100
DictionaryVariables
280
     0
  1
Standard
  0
DICTIONARY
  5
8D
330
5A
100
AcDbDictionary
280
     1
281
     1
  3
ACAD_ROUNDTRIP_2008_TABLESTYLE_CELLSTYLEMAP
360
8E
  0
CELLSTYLEMAP
  5
8E
102
{ACAD_REACTORS
330
8D
102
}
330
8D
100
AcDbCellStyleMap
 90
        3
300
CELLSTYLE
  1
TABLEFORMAT_BEGIN
 90
        5
170
     1
 91
        0
 92
    32768
 62
   257
 93
        1
300
CONTENTFORMAT
  1
CONTENTFORMAT_BEGIN
 90
        0
 91
        0
 92
        4
 93
        0
300

 40
0.0
140
1.0
 94
        5
 62
     0
340
11
144
0.25
309
CONTENTFORMAT_END
171
     1
301
MARGIN
  1
CELLMARGIN_BEGIN
 40
0.06
 40
0.06
 40
0.06
 40
0.06
 40
0.06
 40
0.06
309
CELLMARGIN_END
 94
        6
 95
        1
302
GRIDFORMAT
  1
GRIDFORMAT_BEGIN
 90
        0
 91
        1
 62
     0
 92
       -2
340
14
 93
        0
 40
0.045
309
GRIDFORMAT_END
 95
        2
302
GRIDFORMAT
  1
GRIDFORMAT_BEGIN
 90
        0
 91
        1
 62
     0
 92
       -2
340
14
 93
        0
 40
0.045
309
GRIDFORMAT_END
 95
        4
302
GRIDFORMAT
  1
GRIDFORMAT_BEGIN
 90
        0
 91
        1
 62
     0
 92
       -2
340
14
 93
        0
 40
0.045
309
GRIDFORMAT_END
 95
        8
302
GRIDFORMAT
  1
GRIDFORMAT_BEGIN
 90
        0
 91
        1
 62
     0
 92
       -2
340
14
 93
        0
 40
0.045
309
GRIDFORMAT_END
 95
       16
302
GRIDFORMAT
  1
GRIDFORMAT_BEGIN
 90
        0
 91
        1
 62
     0
 92
       -2
340
14
 93
        0
 40
0.045
309
GRIDFORMAT_END
 95
       32
302
GRIDFORMAT
  1
GRIDFORMAT_BEGIN
 90
        0
 91
        1
 62
     0
 92
       -2
340
14
 93
        0
 40
0.045
309
GRIDFORMAT_END
309
TABLEFORMAT_END
  1
CELLSTYLE_BEGIN
 90
        1
 91
        1
300
_TITLE
309
CELLSTYLE_END
300
CELLSTYLE
  1
TABLEFORMAT_BEGIN
 90
        5
170
     1
 91
        0
 92
        0
 62
   257
 93
        1
300
CONTENTFORMAT
  1
CONTENTFORMAT_BEGIN
 90
        0
 91
        0
 92
        4
 93
        0
300

 40
0.0
140
1.0
 94
        5
 62
     0
340
11
144
0.18
309
CONTENTFORMAT_END
171
     1
301
MARGIN
  1
CELLMARGIN_BEGIN
 40
0.06
 40
0.06
 40
0.06
 40
0.06
 40
0.06
 40
0.06
309
CELLMARGIN_END
 94
        6
 95
        1
302
GRIDFORMAT
  1
GRIDFORMAT_BEGIN
 90
        0
 91
        1
 62
     0
 92
       -2
340
14
 93
        0
 40
0.045
309
GRIDFORMAT_END
 95
        2
302
GRIDFORMAT
  1
GRIDFORMAT_BEGIN
 90
        0
 91
        1
 62
     0
 92
       -2
340
14
 93
        0
 40
0.045
309
GRIDFORMAT_END
 95
        4
302
GRIDFORMAT
  1
GRIDFORMAT_BEGIN
 90
        0
 91
        1
 62
     0
 92
       -2
340
14
 93
        0
 40
0.045
309
GRIDFORMAT_END
 95
        8
302
GRIDFORMAT
  1
GRIDFORMAT_BEGIN
 90
        0
 91
        1
 62
     0
 92
       -2
340
14
 93
        0
 40
0.045
309
GRIDFORMAT_END
 95
       16
302
GRIDFORMAT
  1
GRIDFORMAT_BEGIN
 90
        0
 91
        1
 62
     0
 92
       -2
340
14
 93
        0
 40
0.045
309
GRIDFORMAT_END
 95
       32
302
GRIDFORMAT
  1
GRIDFORMAT_BEGIN
 90
        0
 91
        1
 62
     0
 92
       -2
340
14
 93
        0
 40
0.045
309
GRIDFORMAT_END
309
TABLEFORMAT_END
  1
CELLSTYLE_BEGIN
 90
        2
 91
        1
300
_HEADER
309
CELLSTYLE_END
300
CELLSTYLE
  1
TABLEFORMAT_BEGIN
 90
        5
170
     1
 91
        0
 92
        0
 62
   257
 93
        1
300
CONTENTFORMAT
  1
CONTENTFORMAT_BEGIN
 90
        0
 91
        0
 92
        4
 93
        0
300

 40
0.0
140
1.0
 94
        2
 62
     0
340
11
144
0.18
309
CONTENTFORMAT_END
171
     1
301
MARGIN
  1
CELLMARGIN_BEGIN
 40
0.06
 40
0.06
 40
0.06
 40
0.06
 40
0.06
 40
0.06
309
CELLMARGIN_END
 94
        6
 95
        1
302
GRIDFORMAT
  1
GRIDFORMAT_BEGIN
 90
        0
 91
        1
 62
     0
 92
       -2
340
14
 93
        0
 40
0.045
309
GRIDFORMAT_END
 95
        2
302
GRIDFORMAT
  1
GRIDFORMAT_BEGIN
 90
        0
 91
        1
 62
     0
 92
       -2
340
14
 93
        0
 40
0.045
309
GRIDFORMAT_END
 95
        4
302
GRIDFORMAT
  1
GRIDFORMAT_BEGIN
 90
        0
 91
        1
 62
     0
 92
       -2
340
14
 93
        0
 40
0.045
309
GRIDFORMAT_END
 95
        8
302
GRIDFORMAT
  1
GRIDFORMAT_BEGIN
 90
        0
 91
        1
 62
     0
 92
       -2
340
14
 93
        0
 40
0.045
309
GRIDFORMAT_END
 95
       16
302
GRIDFORMAT
  1
GRIDFORMAT_BEGIN
 90
        0
 91
        1
 62
     0
 92
       -2
340
14
 93
        0
 40
0.045
309
GRIDFORMAT_END
 95
       32
302
GRIDFORMAT
  1
GRIDFORMAT_BEGIN
 90
        0
 91
        1
 62
     0
 92
       -2
340
14
 93
        0
 40
0.045
309
GRIDFORMAT_END
309
TABLEFORMAT_END
  1
CELLSTYLE_BEGIN
 90
        3
 91
        2
300
_DATA
309
CELLSTYLE_END
  0
ENDSEC
  0
EOF
