  0
SECTION
  2
HEADER
  9
$ACADVER
  1
AC1027
  9
$ACADMAINTVER
 70
   105
  9
$DWGCODEPAGE
  3
ANSI_1252
  9
$LASTSAVEDBY
  1
Office Desk
  9
$REQUIREDVERSIONS
160
                 0
  9
$INSBASE
 10
0.0
 20
0.0
 30
0.0
  9
$EXTMIN
 10
-32.89047244094488
 20
-4.547669291338583
 30
0.0
  9
$EXTMAX
 10
-23.5840748031496
 20
10.59623228346457
 30
0.0
  9
$LIMMIN
 10
0.0
 20
0.0
  9
$LIMMAX
 10
12.0
 20
9.0
  9
$ORTHOMODE
 70
     0
  9
$REGENMODE
 70
     1
  9
$FILLMODE
 70
     1
  9
$QTEXTMODE
 70
     0
  9
$MIRRTEXT
 70
     1
  9
$LTSCALE
 40
1.0
  9
$ATTMODE
 70
     1
  9
$TEXTSIZE
 40
0.2
  9
$TRACEWID
 40
0.05
  9
$TEXTSTYLE
  7
Standard
  9
$CLAYER
  8
0
  9
$CELTYPE
  6
ByLayer
  9
$CECOLOR
 62
   256
  9
$CELTSCALE
 40
1.0
  9
$DISPSILH
 70
     0
  9
$DIMSCALE
 40
1.0
  9
$DIMASZ
 40
0.18
  9
$DIMEXO
 40
0.0625
  9
$DIMDLI
 40
0.38
  9
$DIMRND
 40
0.0
  9
$DIMDLE
 40
0.0
  9
$DIMEXE
 40
0.18
  9
$DIMTP
 40
0.0
  9
$DIMTM
 40
0.0
  9
$DIMTXT
 40
0.18
  9
$DIMCEN
 40
0.09
  9
$DIMTSZ
 40
0.0
  9
$DIMTOL
 70
     0
  9
$DIMLIM
 70
     0
  9
$DIMTIH
 70
     1
  9
$DIMTOH
 70
     1
  9
$DIMSE1
 70
     0
  9
$DIMSE2
 70
     0
  9
$DIMTAD
 70
     0
  9
$DIMZIN
 70
     0
  9
$DIMBLK
  1

  9
$DIMASO
 70
     1
  9
$DIMSHO
 70
     1
  9
$DIMPOST
  1

  9
$DIMAPOST
  1

  9
$DIMALT
 70
     0
  9
$DIMALTD
 70
     2
  9
$DIMALTF
 40
25.4
  9
$DIMLFAC
 40
1.0
  9
$DIMTOFL
 70
     0
  9
$DIMTVP
 40
0.0
  9
$DIMTIX
 70
     0
  9
$DIMSOXD
 70
     0
  9
$DIMSAH
 70
     0
  9
$DIMBLK1
  1

  9
$DIMBLK2
  1

  9
$DIMSTYLE
  2
Standard
  9
$DIMCLRD
 70
     0
  9
$DIMCLRE
 70
     0
  9
$DIMCLRT
 70
     0
  9
$DIMTFAC
 40
1.0
  9
$DIMGAP
 40
0.09
  9
$DIMJUST
 70
     0
  9
$DIMSD1
 70
     0
  9
$DIMSD2
 70
     0
  9
$DIMTOLJ
 70
     1
  9
$DIMTZIN
 70
     0
  9
$DIMALTZ
 70
     0
  9
$DIMALTTZ
 70
     0
  9
$DIMUPT
 70
     0
  9
$DIMDEC
 70
     4
  9
$DIMTDEC
 70
     4
  9
$DIMALTU
 70
     2
  9
$DIMALTTD
 70
     2
  9
$DIMTXSTY
  7
Standard
  9
$DIMAUNIT
 70
     0
  9
$DIMADEC
 70
     0
  9
$DIMALTRND
 40
0.0
  9
$DIMAZIN
 70
     0
  9
$DIMDSEP
 70
    46
  9
$DIMATFIT
 70
     3
  9
$DIMFRAC
 70
     0
  9
$DIMLDRBLK
  1

  9
$DIMLUNIT
 70
     2
  9
$DIMLWD
 70
    -2
  9
$DIMLWE
 70
    -2
  9
$DIMTMOVE
 70
     0
  9
$DIMFXL
 40
1.0
  9
$DIMFXLON
 70
     0
  9
$DIMJOGANG
 40
0.7853981633974483
  9
$DIMTFILL
 70
     0
  9
$DIMTFILLCLR
 70
     0
  9
$DIMARCSYM
 70
     0
  9
$DIMLTYPE
  6

  9
$DIMLTEX1
  6

  9
$DIMLTEX2
  6

  9
$DIMTXTDIRECTION
 70
     0
  9
$LUNITS
 70
     2
  9
$LUPREC
 70
     4
  9
$SKETCHINC
 40
0.1
  9
$FILLETRAD
 40
0.0
  9
$AUNITS
 70
     0
  9
$AUPREC
 70
     0
  9
$MENU
  1
.
  9
$ELEVATION
 40
0.0
  9
$PELEVATION
 40
0.0
  9
$THICKNESS
 40
0.0
  9
$LIMCHECK
 70
     0
  9
$CHAMFERA
 40
0.0
  9
$CHAMFERB
 40
0.0
  9
$CHAMFERC
 40
0.0
  9
$CHAMFERD
 40
0.0
  9
$SKPOLY
 70
     0
  9
$TDCREATE
 40
2461020.638618403
  9
$TDUCREATE
 40
2461020.409451736
  9
$TDUPDATE
 40
2461020.638618623
  9
$TDUUPDATE
 40
2461020.409451956
  9
$TDINDWG
 40
0.0000000116
  9
$TDUSRTIMER
 40
0.0000000116
  9
$USRTIMER
 70
     1
  9
$ANGBASE
 50
0.0
  9
$ANGDIR
 70
     0
  9
$PDMODE
 70
     0
  9
$PDSIZE
 40
0.0
  9
$PLINEWID
 40
0.0
  9
$SPLFRAME
 70
     0
  9
$SPLINETYPE
 70
     6
  9
$SPLINESEGS
 70
     8
  9
$HANDSEED
  5
93
  9
$SURFTAB1
 70
     6
  9
$SURFTAB2
 70
     6
  9
$SURFTYPE
 70
     6
  9
$SURFU
 70
     6
  9
$SURFV
 70
     6
  9
$UCSBASE
  2

  9
$UCSNAME
  2

  9
$UCSORG
 10
0.0
 20
0.0
 30
0.0
  9
$UCSXDIR
 10
1.0
 20
0.0
 30
0.0
  9
$UCSYDIR
 10
0.0
 20
1.0
 30
0.0
  9
$UCSORTHOREF
  2

  9
$UCSORTHOVIEW
 70
     0
  9
$UCSORGTOP
 10
0.0
 20
0.0
 30
0.0
  9
$UCSORGBOTTOM
 10
0.0
 20
0.0
 30
0.0
  9
$UCSORGLEFT
 10
0.0
 20
0.0
 30
0.0
  9
$UCSORGRIGHT
 10
0.0
 20
0.0
 30
0.0
  9
$UCSORGFRONT
 10
0.0
 20
0.0
 30
0.0
  9
$UCSORGBACK
 10
0.0
 20
0.0
 30
0.0
  9
$PUCSBASE
  2

  9
$PUCSNAME
  2

  9
$PUCSORG
 10
0.0
 20
0.0
 30
0.0
  9
$PUCSXDIR
 10
1.0
 20
0.0
 30
0.0
  9
$PUCSYDIR
 10
0.0
 20
1.0
 30
0.0
  9
$PUCSORTHOREF
  2

  9
$PUCSORTHOVIEW
 70
     0
  9
$PUCSORGTOP
 10
0.0
 20
0.0
 30
0.0
  9
$PUCSORGBOTTOM
 10
0.0
 20
0.0
 30
0.0
  9
$PUCSORGLEFT
 10
0.0
 20
0.0
 30
0.0
  9
$PUCSORGRIGHT
 10
0.0
 20
0.0
 30
0.0
  9
$PUCSORGFRONT
 10
0.0
 20
0.0
 30
0.0
  9
$PUCSORGBACK
 10
0.0
 20
0.0
 30
0.0
  9
$USERI1
 70
     0
  9
$USERI2
 70
     0
  9
$USERI3
 70
     0
  9
$USERI4
 70
     0
  9
$USERI5
 70
     0
  9
$USERR1
 40
0.0
  9
$USERR2
 40
0.0
  9
$USERR3
 40
0.0
  9
$USERR4
 40
0.0
  9
$USERR5
 40
0.0
  9
$WORLDVIEW
 70
     1
  9
$SHADEDGE
 70
     3
  9
$SHADEDIF
 70
    70
  9
$TILEMODE
 70
     1
  9
$MAXACTVP
 70
    64
  9
$PINSBASE
 10
0.0
 20
0.0
 30
0.0
  9
$PLIMCHECK
 70
     0
  9
$PEXTMIN
 10
1.000000000000000E+20
 20
1.000000000000000E+20
 30
1.000000000000000E+20
  9
$PEXTMAX
 10
-1.000000000000000E+20
 20
-1.000000000000000E+20
 30
-1.000000000000000E+20
  9
$PLIMMIN
 10
0.0
 20
0.0
  9
$PLIMMAX
 10
12.0
 20
9.0
  9
$UNITMODE
 70
     0
  9
$VISRETAIN
 70
     1
  9
$PLINEGEN
 70
     0
  9
$PSLTSCALE
 70
     1
  9
$TREEDEPTH
 70
  3020
  9
$CMLSTYLE
  2
Standard
  9
$CMLJUST
 70
     0
  9
$CMLSCALE
 40
1.0
  9
$PROXYGRAPHICS
 70
     1
  9
$MEASUREMENT
 70
     0
  9
$CELWEIGHT
370
    -1
  9
$ENDCAPS
280
     0
  9
$JOINSTYLE
280
     0
  9
$LWDISPLAY
290
     0
  9
$INSUNITS
 70
     1
  9
$HYPERLINKBASE
  1

  9
$STYLESHEET
  1

  9
$XEDIT
290
     1
  9
$CEPSNTYPE
380
     0
  9
$PSTYLEMODE
290
     1
  9
$FINGERPRINTGUID
  2
{9d0dd464-2a66-4dc0-b9c0-9aabf6cad26f}
  9
$VERSIONGUID
  2
{FAEB1C32-E019-11D5-929B-00C0DF256EC4}
  9
$EXTNAMES
290
     1
  9
$PSVPSCALE
 40
0.0
  9
$OLESTARTUP
290
     0
  9
$SORTENTS
280
   127
  9
$INDEXCTL
280
     0
  9
$HIDETEXT
280
     1
  9
$XCLIPFRAME
280
     2
  9
$HALOGAP
280
     0
  9
$OBSCOLOR
 70
   257
  9
$OBSLTYPE
280
     0
  9
$INTERSECTIONDISPLAY
280
     0
  9
$INTERSECTIONCOLOR
 70
   257
  9
$DIMASSOC
280
     2
  9
$PROJECTNAME
  1

  9
$CAMERADISPLAY
290
     0
  9
$LENSLENGTH
 40
50.0
  9
$CAMERAHEIGHT
 40
0.0
  9
$STEPSPERSEC
 40
2.0
  9
$STEPSIZE
 40
6.0
  9
$3DDWFPREC
 40
2.0
  9
$PSOLWIDTH
 40
0.25
  9
$PSOLHEIGHT
 40
4.0
  9
$LOFTANG1
 40
1.570796326794897
  9
$LOFTANG2
 40
1.570796326794897
  9
$LOFTMAG1
 40
0.0
  9
$LOFTMAG2
 40
0.0
  9
$LOFTPARAM
 70
     7
  9
$LOFTNORMALS
280
     1
  9
$LATITUDE
 40
37.795
  9
$LONGITUDE
 40
-122.394
  9
$NORTHDIRECTION
 40
0.0
  9
$TIMEZONE
 70
 -8000
  9
$LIGHTGLYPHDISPLAY
280
     1
  9
$TILEMODELIGHTSYNCH
280
     1
  9
$CMATERIAL
347
44
  9
$SOLIDHIST
280
     0
  9
$SHOWHIST
280
     1
  9
$DWFFRAME
280
     2
  9
$DGNFRAME
280
     2
  9
$REALWORLDSCALE
290
     1
  9
$INTERFERECOLOR
 62
   256
  9
$CSHADOW
280
     0
  9
$SHADOWPLANELOCATION
 40
0.0
  0
ENDSEC
  0
SECTION
  2
CLASSES
  0
CLASS
  1
ACDBDICTIONARYWDFLT
  2
AcDbDictionaryWithDefault
  3
ObjectDBX Classes
 90
        0
 91
        3
280
     0
281
     0
  0
CLASS
  1
VISUALSTYLE
  2
AcDbVisualStyle
  3
ObjectDBX Classes
 90
     4095
 91
        3
280
     0
281
     0
  0
CLASS
  1
MATERIAL
  2
AcDbMaterial
  3
ObjectDBX Classes
 90
     1153
 91
        3
280
     0
281
     0
  0
CLASS
  1
SCALE
  2
AcDbScale
  3
ObjectDBX Classes
 90
     1153
 91
        3
280
     0
281
     0
  0
CLASS
  1
TABLESTYLE
  2
AcDbTableStyle
  3
ObjectDBX Classes
 90
     4095
 91
        3
280
     0
281
     0
  0
CLASS
  1
MLEADERSTYLE
  2
AcDbMLeaderStyle
  3
ACDB_MLEADERSTYLE_CLASS
 90
     4095
 91
        3
280
     0
281
     0
  0
CLASS
  1
SUN
  2
AcDbSun
  3
SCENEOE
 90
     1153
 91
        3
280
     0
281
     0
  0
CLASS
  1
DICTIONARYVAR
  2
AcDbDictionaryVar
  3
ObjectDBX Classes
 90
        0
 91
        3
280
     0
281
     0
  0
CLASS
  1
CELLSTYLEMAP
  2
AcDbCellStyleMap
  3
ObjectDBX Classes
 90
     1152
 91
        3
280
     0
281
     0
  0
ENDSEC
  0
SECTION
  2
TABLES
  0
TABLE
  2
VPORT
  5
8
330
0
100
AcDbSymbolTable
 70
     1
  0
VPORT
  5
29
330
8
100
AcDbSymbolTableRecord
100
AcDbViewportTableRecord
  2
*Active
 70
     0
 10
0.0
 20
0.0
 11
1.0
 21
1.0
 12
10.42990654205607
 22
4.5
 13
0.0
 23
0.0
 14
0.5
 24
0.5
 15
0.5
 25
0.5
 16
0.0
 26
0.0
 36
1.0
 17
0.0
 27
0.0
 37
0.0
 40
9.0
 41
1.972972972850329
 42
50.0
 43
0.0
 44
0.0
 50
0.0
 51
0.0
 71
     0
 72
   100
 73
     1
 74
     3
 75
     0
 76
     0
 77
     0
 78
     0
281
     0
 65
     1
110
0.0
120
0.0
130
0.0
111
1.0
121
0.0
131
0.0
112
0.0
122
1.0
132
0.0
 79
     0
146
0.0
348
2F
 60
     3
 61
     5
292
     1
282
     1
141
0.0
142
0.0
 63
   250
361
5D
  0
ENDTAB
  0
TABLE
  2
LTYPE
  5
5
330
0
100
AcDbSymbolTable
 70
     1
  0
LTYPE
  5
14
330
5
100
AcDbSymbolTableRecord
100
AcDbLinetypeTableRecord
  2
ByBlock
 70
     0
  3

 72
    65
 73
     0
 40
0.0
  0
LTYPE
  5
15
330
5
100
AcDbSymbolTableRecord
100
AcDbLinetypeTableRecord
  2
ByLayer
 70
     0
  3

 72
    65
 73
     0
 40
0.0
  0
LTYPE
  5
16
330
5
100
AcDbSymbolTableRecord
100
AcDbLinetypeTableRecord
  2
Continuous
 70
     0
  3
Solid line
 72
    65
 73
     0
 40
0.0
  0
ENDTAB
  0
TABLE
  2
LAYER
  5
2
330
0
100
AcDbSymbolTable
 70
     2
  0
LAYER
  5
10
330
2
100
AcDbSymbolTableRecord
100
AcDbLayerTableRecord
  2
0
 70
     0
 62
     7
  6
Continuous
370
    -3
390
F
347
46
348
0
  0
LAYER
  5
5F
330
2
100
AcDbSymbolTableRecord
100
AcDbLayerTableRecord
  2
Layer 1
 70
     0
 62
     7
  6
Continuous
370
    -3
390
F
347
46
348
0
  0
ENDTAB
  0
TABLE
  2
STYLE
  5
3
330
0
100
AcDbSymbolTable
 70
     1
  0
STYLE
  5
11
330
3
100
AcDbSymbolTableRecord
100
AcDbTextStyleTableRecord
  2
Standard
 70
     0
 40
0.0
 41
1.0
 50
0.0
 71
     0
 42
0.2
  3
txt
  4

  0
ENDTAB
  0
TABLE
  2
VIEW
  5
6
330
0
100
AcDbSymbolTable
 70
     0
  0
ENDTAB
  0
TABLE
  2
UCS
  5
7
330
0
100
AcDbSymbolTable
 70
     0
  0
ENDTAB
  0
TABLE
  2
APPID
  5
9
330
0
100
AcDbSymbolTable
 70
     2
  0
APPID
  5
12
330
9
100
AcDbSymbolTableRecord
100
AcDbRegAppTableRecord
  2
ACAD
 70
     0
  0
APPID
  5
5E
330
9
100
AcDbSymbolTableRecord
100
AcDbRegAppTableRecord
  2
ODA
 70
     0
  0
ENDTAB
  0
TABLE
  2
DIMSTYLE
  5
A
330
0
100
AcDbSymbolTable
 70
     1
100
AcDbDimStyleTable
  0
DIMSTYLE
105
27
330
A
100
AcDbSymbolTableRecord
100
AcDbDimStyleTableRecord
  2
Standard
 70
     0
178
     0
340
11
  0
ENDTAB
  0
TABLE
  2
BLOCK_RECORD
  5
1
330
0
100
AcDbSymbolTable
 70
     1
  0
BLOCK_RECORD
  5
1F
330
1
100
AcDbSymbolTableRecord
100
AcDbBlockTableRecord
  2
*Model_Space
340
22
 70
     0
280
     1
281
     0
  0
BLOCK_RECORD
  5
1B
330
1
100
AcDbSymbolTableRecord
100
AcDbBlockTableRecord
  2
*Paper_Space
340
1E
 70
     0
280
     1
281
     0
  0
BLOCK_RECORD
  5
23
330
1
100
AcDbSymbolTableRecord
100
AcDbBlockTableRecord
  2
*Paper_Space0
340
26
 70
     0
280
     1
281
     0
  0
ENDTAB
  0
ENDSEC
  0
SECTION
  2
BLOCKS
  0
BLOCK
  5
20
330
1F
100
AcDbEntity
  8
0
100
AcDbBlockBegin
  2
*Model_Space
 70
     0
 10
0.0
 20
0.0
 30
0.0
  3
*Model_Space
  1

  0
ENDBLK
  5
21
330
1F
100
AcDbEntity
  8
0
100
AcDbBlockEnd
  0
BLOCK
  5
1C
330
1B
100
AcDbEntity
 67
     1
  8
0
100
AcDbBlockBegin
  2
*Paper_Space
 70
     0
 10
0.0
 20
0.0
 30
0.0
  3
*Paper_Space
  1

  0
ENDBLK
  5
1D
330
1B
100
AcDbEntity
 67
     1
  8
0
100
AcDbBlockEnd
  0
BLOCK
  5
24
330
23
100
AcDbEntity
  8
0
100
AcDbBlockBegin
  2
*Paper_Space0
 70
     0
 10
0.0
 20
0.0
 30
0.0
  3
*Paper_Space0
  1

  0
ENDBLK
  5
25
330
23
100
AcDbEntity
  8
0
100
AcDbBlockEnd
  0
ENDSEC
  0
SECTION
  2
ENTITIES
  0
LWPOLYLINE
  5
60
330
1F
100
AcDbEntity
  8
Layer 1
 62
   250
370
     9
100
AcDbPolyline
 90
        5
 70
     1
 43
0.0
 10
-32.88897244094488
 20
-4.546165354330709
 10
-23.58557874015748
 20
-4.546165354330709
 10
-23.58557874015748
 20
10.59473228346457
 10
-32.88897244094488
 20
10.59473228346457
 10
-32.88897244094488
 20
-4.546165354330709
  0
LWPOLYLINE
  5
61
330
1F
100
AcDbEntity
  8
Layer 1
 62
     7
370
    18
100
AcDbPolyline
 90
      184
 70
     1
 43
0.0
 10
-29.64154724409449
 20
7.50244094488189
 10
-29.64154724409449
 20
8.387866141732284
 10
-29.64229921259842
 20
8.395641732283465
 10
-29.64303543307087
 20
8.41653937007874
 10
-29.64149212598425
 20
8.446937007874016
 10
-29.6353937007874
 20
8.483192913385826
 10
-29.62246850393701
 20
8.521681102362205
 10
-29.60045275590551
 20
8.55876377952756
 10
-29.56707086614173
 20
8.59081496062992
 10
-29.52005118110236
 20
8.6141968503937
 10
-29.4584094488189
 20
8.639606299212598
 10
-29.37963779527559
 20
8.675814960629921
 10
-29.2792125984252
 20
8.716291338582677
 10
-29.1526062992126
 20
8.754507874015747
 10
-28.9952874015748
 20
8.783933070866143
 10
-28.80273228346457
 20
8.79803937007874
 10
-28.57041732283465
 20
8.790295275590552
 10
-28.29380708661417
 20
8.754173228346456
 10
-27.94199606299212
 20
8.680775590551182
 10
-27.51264960629921
 20
8.574354330708662
 10
-27.04411811023622
 20
8.448106299212599
 10
-26.57476771653543
 20
8.315228346456692
 10
-26.14294488188976
 20
8.188909448818897
 10
-25.78701181102362
 20
8.082346456692914
 10
-25.54532677165354
 20
8.008732283464568
 10
-25.45624015748032
 20
7.981263779527559
 10
-25.45016535433071
 20
7.9765
 10
-25.43570078740158
 20
7.963153543307087
 10
-25.4184842519685
 20
7.942641732283464
 10
-25.40416141732284
 20
7.916381889763779
 10
-25.39836614173228
 20
7.885791338582677
 10
-25.40674409448819
 20
7.852291338582678
 10
-25.43493307086614
 20
7.817291338582677
 10
-25.48857086614173
 20
7.782212598425197
 10
-25.57374803149606
 20
7.744803149606299
 10
-25.68510236220472
 20
7.703645669291339
 10
-25.81105905511811
 20
7.661437007874015
 10
-25.94005511811024
 20
7.62086220472441
 10
-26.06052362204725
 20
7.584618110236221
 10
-26.16088976377953
 20
7.555397637795275
 10
-26.22959448818898
 20
7.535893700787401
 10
-26.25506692913386
 20
7.528791338582677
 10
-26.26476771653543
 20
7.526106299212598
 10
-26.29190551181102
 20
7.519354330708661
 10
-26.33354330708661
 20
7.51048031496063
 10
-26.38675196850394
 20
7.501433070866142
 10
-26.44858267716535
 20
7.494153543307086
 10
-26.5161062992126
 20
7.49059842519685
 10
-26.58638188976378
 20
7.492712598425197
 10
-26.65647244094488
 20
7.50244094488189
 10
-26.75222047244095
 20
7.524826771653544
 10
-26.89013385826772
 20
7.560299212598426
 10
-27.05327952755906
 20
7.603905511811024
 10
-27.22472440944882
 20
7.650692913385827
 10
-27.38754330708661
 20
7.695704724409449
 10
-27.5248031496063
 20
7.733988188976378
 10
-27.61957480314961
 20
7.760590551181102
 10
-27.65492913385827
 20
7.770559055118111
 10
-27.67359842519685
 20
7.206673228346457
 10
-27.67415748031496
 20
7.201547244094488
 10
-27.67639763779528
 20
7.187720472440945
 10
-27.68116535433071
 20
7.167523622047244
 10
-27.68931496062992
 20
7.143295275590551
 10
-27.70168503937008
 20
7.11736220472441
 10
-27.71912598425197
 20
7.092062992125984
 10
-27.74249212598425
 20
7.069720472440945
 10
-27.7726220472441
 20
7.05267716535433
 10
-27.77545669291339
 20
7.006066929133858
 10
-27.76693307086614
 20
7.001062992125984
 10
-27.74337007874016
 20
6.987641732283465
 10
-27.7077874015748
 20
6.968177165354331
 10
-27.66320866141732
 20
6.945043307086614
 10
-27.61264173228346
 20
6.920622047244095
 10
-27.55911417322835
 20
6.897283464566929
 10
-27.50563779527559
 20
6.877405511811023
 10
-27.45523228346457
 20
6.863370078740157
 10
-27.27979133858268
 20
6.814933070866141
 10
-26.89666535433071
 20
6.704358267716535
 10
-26.37707480314961
 20
6.552791338582677
 10
-25.79224409448819
 20
6.381366141732284
 10
-25.2133937007874
 20
6.211236220472441
 10
-24.71174803149606
 20
6.063535433070866
 10
-24.35853149606299
 20
5.959409448818898
 10
-24.22496456692913
 20
5.920003937007874
 10
-24.21424015748032
 20
5.916984251968504
 10
-24.18604724409449
 20
5.908385826771654
 10
-24.14635826771654
 20
5.894897637795276
 10
-24.10114566929134
 20
5.877216535433071
 10
-24.05638188976378
 20
5.856023622047244
 10
-24.01804330708661
 20
5.832011811023622
 10
-23.99210236220473
 20
5.805874015748032
 10
-23.98452755905512
 20
5.778299212598426
 10
-23.98872047244095
 20
5.755409448818898
 10
-24.00457086614173
 20
5.693586614173229
 10
-24.037
 20
5.603082677165355
 10
-24.09092519685039
 20
5.494157480314961
 10
-24.17126377952756
 20
5.377074803149607
 10
-24.28292913385827
 20
5.262090551181102
 10
-24.43083858267716
 20
5.159464566929134
 10
-24.61991338582677
 20
5.079456692913386
 10
-24.6253779527559
 20
4.893838582677166
 10
-24.62808267716536
 20
4.888118110236221
 10
-24.63766929133858
 20
4.87265748031496
 10
-24.65633858267717
 20
4.850027559055119
 10
-24.68629527559055
 20
4.822787401574804
 10
-24.72973622047244
 20
4.7935
 10
-24.78887007874016
 20
4.764732283464567
 10
-24.86589763779527
 20
4.739047244094488
 10
-24.96302362204725
 20
4.719003937007874
 10
-25.07464173228346
 20
4.706468503937008
 10
-25.18988582677165
 20
4.700582677165355
 10
-25.30305511811024
 20
4.699814960629921
 10
-25.40844488188976
 20
4.702629921259843
 10
-25.50034251968504
 20
4.707492125984252
 10
-25.57305118110236
 20
4.712862204724409
 10
-25.62085826771654
 20
4.717212598425196
 10
-25.63806299212598
 20
4.719003937007874
 10
-25.64333070866142
 20
4.720452755905511
 10
-25.65730708661417
 20
4.724783464566929
 10
-25.67724409448819
 20
4.731964566929133
 10
-25.70040157480315
 20
4.741956692913385
 10
-25.72403543307087
 20
4.754736220472441
 10
-25.74540157480315
 20
4.770263779527559
 10
-25.76175590551181
 20
4.788511811023622
 10
-25.77035826771654
 20
4.809448818897637
 10
-25.77422440944882
 20
4.841374015748031
 10
-25.77809448818898
 20
4.888582677165354
 10
-25.78180708661417
 20
4.945051181102362
 10
-25.78520472440945
 20
5.004755905511811
 10
-25.78812598425197
 20
5.061677165354331
 10
-25.7904094488189
 20
5.109791338582677
 10
-25.79189763779528
 20
5.14307874015748
 10
-25.79242913385827
 20
5.155511811023622
 10
-27.7440905511811
 20
5.760779527559055
 10
-27.7440905511811
 20
-2.155287401574803
 10
-27.73337795275591
 20
-2.162082677165354
 10
-27.70605118110236
 20
-2.182157480314961
 10
-27.66934251968504
 20
-2.215047244094488
 10
-27.63048031496063
 20
-2.260287401574803
 10
-27.59668897637795
 20
-2.317413385826772
 10
-27.57519291338583
 20
-2.38596062992126
 10
-27.57322834645669
 20
-2.465464566929134
 10
-27.59801181102362
 20
-2.55546062992126
 10
-27.65174409448819
 20
-2.647917322834646
 10
-27.73110236220472
 20
-2.733846456692913
 10
-27.83503149606299
 20
-2.811330708661417
 10
-27.96246850393701
 20
-2.878456692913386
 10
-28.11235826771653
 20
-2.933311023622047
 10
-28.28363779527559
 20
-2.97398031496063
 10
-28.47525196850394
 20
-2.998551181102362
 10
-28.68614173228346
 20
-3.005110236220472
 10
-28.90538976377953
 20
-2.995708661417323
 10
-29.1185905511811
 20
-2.972586614173228
 10
-29.31942913385827
 20
-2.934102362204724
 10
-29.50159842519685
 20
-2.87861811023622
 10
-29.65878346456693
 20
-2.804507874015748
 10
-29.78467322834646
 20
-2.710125984251968
 10
-29.87294881889764
 20
-2.593838582677165
 10
-29.91730708661417
 20
-2.454015748031496
 10
-29.9179094488189
 20
-2.443515748031496
 10
-29.91704330708662
 20
-2.415031496062992
 10
-29.91070866141732
 20
-2.37307874015748
 10
-29.89490157480315
 20
-2.322173228346457
 10
-29.86562598425197
 20
-2.266826771653543
 10
-29.81887401574803
 20
-2.21155905511811
 10
-29.75064960629921
 20
-2.160881889763779
 10
-29.65694881889764
 20
-2.119318897637795
 10
-29.65694881889764
 20
6.915141732283464
 10
-29.65490551181102
 20
6.925216535433071
 10
-29.64803937007874
 20
6.951685039370079
 10
-29.63524803149606
 20
6.988905511811024
 10
-29.61542913385827
 20
7.031244094488189
 10
-29.5874842519685
 20
7.073062992125984
 10
-29.55030708661417
 20
7.108720472440945
 10
-29.50279921259843
 20
7.132578740157481
 10
-29.44385433070866
 20
7.139003937007874
 10
-29.45135433070866
 20
7.144818897637795
 10
-29.47133070866142
 20
7.162192913385827
 10
-29.50000393700788
 20
7.191
 10
-29.53359448818898
 20
7.231125984251968
 10
-29.56832283464567
 20
7.282448818897638
 10
-29.60041338582677
 20
7.344854330708661
 10
-29.62607874015748
 20
7.418224409448819
 10
-29.64154724409449
 20
7.50244094488189
  0
LWPOLYLINE
  5
62
330
1F
100
AcDbEntity
  8
Layer 1
 62
     7
370
    18
100
AcDbPolyline
 90
       33
 70
     1
 43
0.0
 10
-27.94081102362205
 20
7.779405511811023
 10
-27.91692913385827
 20
7.775696850393701
 10
-27.89468897637795
 20
7.76505905511811
 10
-27.87456299212598
 20
7.748232283464567
 10
-27.85703149606299
 20
7.72594094488189
 10
-27.84256692913386
 20
7.698929133858268
 10
-27.83164173228347
 20
7.667925196850394
 10
-27.82474015748031
 20
7.633665354330708
 10
-27.82233464566929
 20
7.596885826771653
 10
-27.82474015748031
 20
7.560106299212598
 10
-27.83164173228347
 20
7.525846456692913
 10
-27.84256692913386
 20
7.494842519685039
 10
-27.85703149606299
 20
7.467830708661418
 10
-27.87456299212598
 20
7.44553937007874
 10
-27.89468897637795
 20
7.428712598425196
 10
-27.91692913385827
 20
7.418074803149606
 10
-27.94081102362205
 20
7.414366141732283
 10
-27.96469291338583
 20
7.418074803149606
 10
-27.98693700787402
 20
7.428712598425196
 10
-28.00706692913386
 20
7.44553937007874
 10
-28.0246062992126
 20
7.467830708661418
 10
-28.03907874015748
 20
7.494842519685039
 10
-28.05000393700787
 20
7.525846456692913
 10
-28.0569094488189
 20
7.560106299212598
 10
-28.05931889763779
 20
7.596885826771653
 10
-28.0569094488189
 20
7.633665354330708
 10
-28.05000393700787
 20
7.667925196850394
 10
-28.03907874015748
 20
7.698929133858268
 10
-28.0246062992126
 20
7.72594094488189
 10
-28.00706692913386
 20
7.748232283464567
 10
-27.98693700787402
 20
7.76505905511811
 10
-27.96469291338583
 20
7.775696850393701
 10
-27.94081102362205
 20
7.779405511811023
  0
LWPOLYLINE
  5
63
330
1F
100
AcDbEntity
  8
Layer 1
 62
     7
370
     9
100
AcDbPolyline
 90
       33
 70
     1
 43
0.0
 10
-27.92136614173228
 20
7.630582677165354
 10
-27.91334251968504
 20
7.629334645669291
 10
-27.90586614173228
 20
7.625759842519685
 10
-27.89910236220473
 20
7.620102362204724
 10
-27.89320472440945
 20
7.612610236220473
 10
-27.88833858267716
 20
7.603527559055118
 10
-27.88466535433071
 20
7.593102362204724
 10
-27.88234251968504
 20
7.581586614173228
 10
-27.88153149606299
 20
7.569220472440945
 10
-27.88234251968504
 20
7.556854330708662
 10
-27.88466535433071
 20
7.545334645669291
 10
-27.88833858267716
 20
7.534905511811024
 10
-27.89320472440945
 20
7.525818897637795
 10
-27.89910236220473
 20
7.518318897637795
 10
-27.90586614173228
 20
7.512657480314961
 10
-27.91334251968504
 20
7.50907874015748
 10
-27.92136614173228
 20
7.507830708661417
 10
-27.92940157480315
 20
7.50907874015748
 10
-27.93688188976378
 20
7.512657480314961
 10
-27.94365354330709
 20
7.518318897637795
 10
-27.94955511811024
 20
7.525818897637795
 10
-27.95442125984252
 20
7.534905511811024
 10
-27.95809448818898
 20
7.545334645669291
 10
-27.96041732283464
 20
7.556854330708662
 10
-27.96122834645669
 20
7.569220472440945
 10
-27.96041732283464
 20
7.581586614173228
 10
-27.95809448818898
 20
7.593102362204724
 10
-27.95442125984252
 20
7.603527559055118
 10
-27.94955511811024
 20
7.612610236220473
 10
-27.94365354330709
 20
7.620102362204724
 10
-27.93688188976378
 20
7.625759842519685
 10
-27.92940157480315
 20
7.629334645669291
 10
-27.92136614173228
 20
7.630582677165354
  0
LWPOLYLINE
  5
64
330
1F
100
AcDbEntity
  8
Layer 1
 62
     7
370
    18
100
AcDbPolyline
 90
       17
 70
     0
 43
0.0
 10
-29.59338188976378
 20
8.505468503937008
 10
-29.59131496062992
 20
8.498216535433071
 10
-29.58117716535433
 20
8.478484251968505
 10
-29.55705905511811
 20
8.449307086614173
 10
-29.51305511811024
 20
8.413720472440945
 10
-29.44325984251968
 20
8.374759842519685
 10
-29.34176377952756
 20
8.33546062992126
 10
-29.20266535433071
 20
8.29886220472441
 10
-29.02005511811024
 20
8.267996062992125
 10
-28.75277559055118
 20
8.2185
 10
-28.39046456692913
 20
8.132775590551182
 10
-27.97338976377953
 20
8.024031496062992
 10
-27.54183464566929
 20
7.90546062992126
 10
-27.13607086614173
 20
7.790263779527559
 10
-26.79637401574803
 20
7.69163779527559
 10
-26.56302362204724
 20
7.622783464566929
 10
-26.4762874015748
 20
7.596897637795275
  0
LWPOLYLINE
  5
65
330
1F
100
AcDbEntity
  8
Layer 1
 62
     7
370
    18
100
AcDbPolyline
 90
       17
 70
     0
 43
0.0
 10
-29.0447874015748
 20
8.167594488188977
 10
-29.03396850393701
 20
8.169078740157481
 10
-29.0019842519685
 20
8.171917322834645
 10
-28.94954724409449
 20
8.173669291338582
 10
-28.87736220472441
 20
8.171917322834645
 10
-28.78614173228346
 20
8.164220472440945
 10
-28.67659842519685
 20
8.148153543307087
 10
-28.54943307086614
 20
8.121287401574802
 10
-28.40536220472441
 20
8.081188976377954
 10
-28.25185826771654
 20
8.03461811023622
 10
-28.09982677165354
 20
7.990692913385827
 10
-27.9551220472441
 20
7.950507874015748
 10
-27.82360236220472
 20
7.915165354330709
 10
-27.71111417322835
 20
7.885767716535433
 10
-27.62351968503937
 20
7.863405511811024
 10
-27.56666929133858
 20
7.849181102362205
 10
-27.54641732283465
 20
7.844196850393701
  0
LWPOLYLINE
  5
66
330
1F
100
AcDbEntity
  8
Layer 1
 62
     7
370
    18
100
AcDbPolyline
 90
       11
 70
     0
 43
0.0
 10
-25.7161062992126
 20
5.197318897637795
 10
-25.26190157480315
 20
5.105381889763779
 10
-25.24740551181102
 20
5.11161811023622
 10
-25.20888582677165
 20
5.130216535433071
 10
-25.15379133858268
 20
5.161
 10
-25.08957480314961
 20
5.203795275590551
 10
-25.02368897637795
 20
5.258425196850394
 10
-24.96358267716536
 20
5.324720472440945
 10
-24.91670866141732
 20
5.402507874015748
 10
-24.8905157480315
 20
5.491610236220472
 10
-28.66767716535433
 20
6.688653543307087
  0
LWPOLYLINE
  5
67
330
1F
100
AcDbEntity
  8
Layer 1
 62
     7
370
    18
100
AcDbPolyline
 90
        9
 70
     0
 43
0.0
 10
-24.04064173228346
 20
5.801511811023622
 10
-24.0568031496063
 20
5.790858267716535
 10
-24.10275196850394
 20
5.762496062992126
 10
-24.1746968503937
 20
5.721838582677165
 10
-24.26883858267717
 20
5.674287401574803
 10
-24.38138188976378
 20
5.625251968503937
 10
-24.50852755905512
 20
5.580133858267716
 10
-24.64648031496063
 20
5.544346456692914
 10
-24.79144488188976
 20
5.523295275590551
  0
LWPOLYLINE
  5
68
330
1F
100
AcDbEntity
  8
Layer 1
 62
     7
370
    18
100
AcDbPolyline
 90
        9
 70
     0
 43
0.0
 10
-29.58361811023622
 20
6.957299212598425
 10
-29.56874803149606
 20
6.940897637795276
 10
-29.52005905511811
 20
6.899720472440944
 10
-29.43143307086614
 20
6.845811023622047
 10
-29.29674803149606
 20
6.791212598425197
 10
-29.10988976377953
 20
6.747972440944882
 10
-28.86474015748032
 20
6.728133858267716
 10
-28.55517716535433
 20
6.743736220472441
 10
-28.17508661417323
 20
6.806826771653543
  0
LWPOLYLINE
  5
69
330
1F
100
AcDbEntity
  8
Layer 1
 62
     7
370
    18
100
AcDbPolyline
 90
        9
 70
     0
 43
0.0
 10
-29.38870078740158
 20
7.147889763779528
 10
-29.36553937007874
 20
7.130555118110236
 10
-29.29583464566929
 20
7.087606299212599
 10
-29.17925196850394
 20
7.032629921259843
 10
-29.01545669291339
 20
6.979212598425197
 10
-28.8041220472441
 20
6.94094094488189
 10
-28.5449094488189
 20
6.931401574803149
 10
-28.23749212598425
 20
6.964177165354331
 10
-27.88153149606299
 20
7.052858267716536
  0
LWPOLYLINE
  5
6A
330
1F
100
AcDbEntity
  8
Layer 1
 62
     7
370
    18
100
AcDbPolyline
 90
        9
 70
     0
 43
0.0
 10
-24.64813779527559
 20
5.132578740157481
 10
-24.66412598425197
 20
5.129307086614173
 10
-24.70864173228346
 20
5.121169291338583
 10
-24.77651181102362
 20
5.110657480314961
 10
-24.86256692913386
 20
5.100275590551181
 10
-24.96163385826772
 20
5.092531496062992
 10
-25.06853937007874
 20
5.089921259842519
 10
-25.17811811023622
 20
5.094944881889764
 10
-25.28518897637795
 20
5.110110236220472
  0
LWPOLYLINE
  5
6B
330
1F
100
AcDbEntity
  8
Layer 1
 62
     7
370
    18
100
AcDbPolyline
 90
        9
 70
     0
 43
0.0
 10
-27.74408661417323
 20
-2.427692913385827
 10
-27.78703149606299
 20
-2.448811023622047
 10
-27.90840551181102
 20
-2.499775590551181
 10
-28.0970157480315
 20
-2.562011811023622
 10
-28.34167322834646
 20
-2.616933070866142
 10
-28.63118897637795
 20
-2.645964566929134
 10
-28.95437007874016
 20
-2.63051968503937
 10
-29.30002362204725
 20
-2.552023622047244
 10
-29.65696456692913
 20
-2.391889763779528
  0
LWPOLYLINE
  5
6C
330
1F
100
AcDbEntity
  8
Layer 1
 62
     7
370
    18
100
AcDbPolyline
 90
        2
 70
     0
 43
0.0
 10
-30.76312992125984
 20
8.798464566929134
 10
-30.76312992125984
 20
-2.794181102362205
  0
LWPOLYLINE
  5
6D
330
1F
100
AcDbEntity
  8
Layer 1
 62
     7
370
    18
100
AcDbPolyline
 90
        2
 70
     0
 43
0.0
 10
-27.66575590551181
 20
-3.363200787401575
 10
-29.91800787401575
 20
-3.363200787401575
  0
LWPOLYLINE
  5
6E
330
1F
100
AcDbEntity
  8
Layer 1
 62
     7
370
    18
100
AcDbPolyline
 90
        2
 70
     0
 43
0.0
 10
-27.66574803149606
 20
-3.510125984251968
 10
-27.66574803149606
 20
-3.216295275590551
  0
LWPOLYLINE
  5
6F
330
1F
100
AcDbEntity
  8
Layer 1
 62
     7
370
    18
100
AcDbPolyline
 90
        2
 70
     0
 43
0.0
 10
-29.91800787401575
 20
-3.510125984251968
 10
-29.91800787401575
 20
-3.216295275590551
  0
LWPOLYLINE
  5
70
330
1F
100
AcDbEntity
  8
Layer 1
 62
     7
370
    18
100
AcDbPolyline
 90
        2
 70
     0
 43
0.0
 10
-30.91005511811024
 20
8.798468503937007
 10
-30.61622440944882
 20
8.798468503937007
  0
LWPOLYLINE
  5
71
330
1F
100
AcDbEntity
  8
Layer 1
 62
     7
370
    18
100
AcDbPolyline
 90
        2
 70
     0
 43
0.0
 10
-30.91005511811024
 20
-2.794169291338583
 10
-30.61622440944882
 20
-2.794169291338583
  0
LWPOLYLINE
  5
72
330
1F
100
AcDbEntity
  8
Layer 1
 62
     7
370
     9
100
AcDbPolyline
 90
      137
 70
     1
 43
0.0
 10
-31.24729133858268
 20
2.605767716535433
 10
-31.25078346456693
 20
2.613570866141732
 10
-31.25458267716536
 20
2.621133858267716
 10
-31.25869291338583
 20
2.628456692913386
 10
-31.26311417322835
 20
2.63553937007874
 10
-31.26784645669292
 20
2.642385826771653
 10
-31.27288976377953
 20
2.648988188976378
 10
-31.27824409448819
 20
2.655354330708661
 10
-31.2839094488189
 20
2.661476377952756
 10
-31.29672047244095
 20
2.673551181102362
 10
-31.31024409448819
 20
2.684015748031496
 10
-31.32448818897638
 20
2.692870078740158
 10
-31.33944094488189
 20
2.70011811023622
 10
-31.35511417322835
 20
2.705751968503937
 10
-31.3715
 20
2.709775590551181
 10
-31.38860236220473
 20
2.712192913385827
 10
-31.40641732283465
 20
2.712996062992126
 10
-31.42424409448819
 20
2.712181102362205
 10
-31.44137795275591
 20
2.709728346456693
 10
-31.45782283464567
 20
2.705645669291338
 10
-31.47357874015748
 20
2.699929133858268
 10
-31.48863779527559
 20
2.69257874015748
 10
-31.50301181102362
 20
2.683594488188976
 10
-31.51668897637795
 20
2.672976377952756
 10
-31.5296811023622
 20
2.660720472440945
 10
-31.54088976377953
 20
2.648055118110236
 10
-31.55075984251969
 20
2.634578740157481
 10
-31.55929921259843
 20
2.620295275590551
 10
-31.5665
 20
2.605200787401575
 10
-31.57236614173229
 20
2.589291338582677
 10
-31.57689763779528
 20
2.572574803149606
 10
-31.58009448818898
 20
2.555043307086614
 10
-31.58195669291339
 20
2.536696850393701
 10
-31.56822047244095
 20
2.513791338582677
 10
-31.76055511811024
 20
2.676377952755906
 10
-31.76055511811024
 20
2.397015748031496
 10
-31.70711811023622
 20
2.397015748031496
 10
-31.70711811023622
 20
2.567988188976378
 10
-31.52394881889764
 20
2.410755905511811
 10
-31.49114566929134
 20
2.451212598425197
 10
-31.49973228346457
 20
2.460586614173228
 10
-31.50716929133858
 20
2.470389763779528
 10
-31.51346456692913
 20
2.480622047244094
 10
-31.51861417322835
 20
2.491283464566929
 10
-31.52261811023622
 20
2.502374015748031
 10
-31.52547637795276
 20
2.513893700787401
 10
-31.52719291338583
 20
2.525838582677165
 10
-31.52776377952756
 20
2.538212598425197
 10
-31.52720866141732
 20
2.550574803149606
 10
-31.52554724409449
 20
2.562476377952756
 10
-31.52277559055118
 20
2.573909448818898
 10
-31.51889763779528
 20
2.584877952755905
 10
-31.51390551181102
 20
2.595377952755905
 10
-31.50780708661417
 20
2.605413385826772
 10
-31.50059842519685
 20
2.614976377952756
 10
-31.49227952755906
 20
2.624074803149606
 10
-31.48318503937008
 20
2.632393700787401
 10
-31.47364960629921
 20
2.639606299212598
 10
-31.46367322834646
 20
2.645712598425197
 10
-31.45325590551181
 20
2.650704724409449
 10
-31.44239763779527
 20
2.654590551181102
 10
-31.43109842519685
 20
2.657366141732283
 10
-31.41935433070866
 20
2.659031496062992
 10
-31.40717322834646
 20
2.659586614173228
 10
-31.39525984251969
 20
2.65901968503937
 10
-31.38375196850394
 20
2.657318897637795
 10
-31.37264960629921
 20
2.654484251968504
 10
-31.36195669291338
 20
2.65051968503937
 10
-31.35166929133858
 20
2.645417322834646
 10
-31.34178346456693
 20
2.639185039370079
 10
-31.3323031496063
 20
2.631818897637795
 10
-31.32322834645669
 20
2.623318897637795
 10
-31.31932283464567
 20
2.619133858267717
 10
-31.31562204724409
 20
2.614763779527559
 10
-31.3121220472441
 20
2.610216535433071
 10
-31.30882677165354
 20
2.605492125984252
 10
-31.30572834645669
 20
2.600582677165354
 10
-31.30283464566929
 20
2.595496062992126
 10
-31.30013779527559
 20
2.590228346456693
 10
-31.29764566929134
 20
2.584783464566929
 10
-31.29541338582677
 20
2.579102362204724
 10
-31.29347637795276
 20
2.573137795275591
 10
-31.29184251968504
 20
2.566889763779527
 10
-31.29050393700787
 20
2.560354330708662
 10
-31.28946456692913
 20
2.553531496062992
 10
-31.28872047244095
 20
2.546425196850393
 10
-31.28827559055118
 20
2.539027559055118
 10
-31.28812598425197
 20
2.531342519685039
 10
-31.28845275590551
 20
2.523523622047244
 10
-31.28943700787402
 20
2.515704724409449
 10
-31.29107480314961
 20
2.507885826771654
 10
-31.29336614173228
 20
2.500062992125984
 10
-31.2963188976378
 20
2.492240157480315
 10
-31.29992519685039
 20
2.484417322834646
 10
-31.30418897637795
 20
2.476590551181102
 10
-31.30911417322835
 20
2.468763779527559
 10
-31.3145905511811
 20
2.461228346456693
 10
-31.32053149606299
 20
2.454267716535433
 10
-31.32694094488189
 20
2.447874015748031
 10
-31.33381496062992
 20
2.442055118110236
 10
-31.34115354330709
 20
2.436807086614173
 10
-31.34895669291339
 20
2.432129921259842
 10
-31.35722834645669
 20
2.428023622047244
 10
-31.36596062992126
 20
2.424492125984252
 10
-31.3484094488189
 20
2.372594488188976
 10
-31.33597244094488
 20
2.377527559055118
 10
-31.32412992125984
 20
2.383350393700788
 10
-31.31288582677166
 20
2.390070866141732
 10
-31.30224015748032
 20
2.397688976377953
 10
-31.29218503937008
 20
2.406196850393701
 10
-31.28272834645669
 20
2.415602362204724
 10
-31.27386614173228
 20
2.42590157480315
 10
-31.26559842519685
 20
2.437094488188976
 10
-31.26197637795276
 20
2.442594488188977
 10
-31.25855905511811
 20
2.448228346456693
 10
-31.25534645669291
 20
2.453996062992126
 10
-31.25233464566929
 20
2.459893700787402
 10
-31.24952362204725
 20
2.46592125984252
 10
-31.24691732283464
 20
2.472082677165354
 10
-31.2445157480315
 20
2.478374015748031
 10
-31.24231496062992
 20
2.484799212598425
 10
-31.24034645669291
 20
2.491377952755906
 10
-31.23864173228347
 20
2.498137795275591
 10
-31.23720078740158
 20
2.505074803149606
 10
-31.23602362204725
 20
2.512188976377953
 10
-31.23511023622047
 20
2.51948031496063
 10
-31.23445669291339
 20
2.526952755905512
 10
-31.23406299212598
 20
2.534602362204724
 10
-31.23393307086614
 20
2.542433070866142
 10
-31.23414173228347
 20
2.550350393700787
 10
-31.23476377952756
 20
2.558267716535433
 10
-31.23580708661417
 20
2.566185039370079
 10
-31.23726377952756
 20
2.57409842519685
 10
-31.23914173228346
 20
2.582015748031496
 10
-31.24143700787402
 20
2.589929133858268
 10
-31.24415354330709
 20
2.597846456692913
 10
-31.24729133858268
 20
2.605767716535433
  0
LWPOLYLINE
  5
73
330
1F
100
AcDbEntity
  8
Layer 1
 62
     7
370
     9
100
AcDbPolyline
 90
      137
 70
     1
 43
0.0
 10
-31.24729133858268
 20
3.002633858267716
 10
-31.25078346456693
 20
3.010437007874016
 10
-31.25458267716536
 20
3.018
 10
-31.25869291338583
 20
3.025322834645669
 10
-31.26311417322835
 20
3.032405511811024
 10
-31.26784645669292
 20
3.039251968503937
 10
-31.27288976377953
 20
3.045858267716536
 10
-31.27824409448819
 20
3.052220472440945
 10
-31.2839094488189
 20
3.058346456692913
 10
-31.29672047244095
 20
3.07042125984252
 10
-31.31024409448819
 20
3.080885826771654
 10
-31.32448818897638
 20
3.089740157480315
 10
-31.33944094488189
 20
3.096984251968504
 10
-31.35511417322835
 20
3.102618110236221
 10
-31.3715
 20
3.106641732283465
 10
-31.38860236220473
 20
3.10905905511811
 10
-31.40641732283465
 20
3.10986220472441
 10
-31.42424409448819
 20
3.109047244094488
 10
-31.44137795275591
 20
3.106598425196851
 10
-31.45782283464567
 20
3.102515748031496
 10
-31.47357874015748
 20
3.096799212598425
 10
-31.48863779527559
 20
3.089448818897638
 10
-31.50301181102362
 20
3.08046062992126
 10
-31.51668897637795
 20
3.069842519685039
 10
-31.5296811023622
 20
3.057586614173228
 10
-31.54088976377953
 20
3.044921259842519
 10
-31.55075984251969
 20
3.031448818897638
 10
-31.55929921259843
 20
3.017165354330709
 10
-31.5665
 20
3.002066929133858
 10
-31.57236614173229
 20
2.986161417322835
 10
-31.57689763779528
 20
2.969444881889764
 10
-31.58009448818898
 20
2.951913385826772
 10
-31.58195669291339
 20
2.933566929133858
 10
-31.56822047244095
 20
2.910657480314961
 10
-31.76055511811024
 20
3.073248031496063
 10
-31.76055511811024
 20
2.793885826771654
 10
-31.70711811023622
 20
2.793885826771654
 10
-31.70711811023622
 20
2.964854330708661
 10
-31.52394881889764
 20
2.807622047244095
 10
-31.49114566929134
 20
2.84807874015748
 10
-31.49973228346457
 20
2.857452755905512
 10
-31.50716929133858
 20
2.867255905511811
 10
-31.51346456692913
 20
2.877488188976378
 10
-31.51861417322835
 20
2.888153543307086
 10
-31.52261811023622
 20
2.899244094488189
 10
-31.52547637795276
 20
2.910759842519685
 10
-31.52719291338583
 20
2.922708661417323
 10
-31.52776377952756
 20
2.93507874015748
 10
-31.52720866141732
 20
2.947444881889764
 10
-31.52554724409449
 20
2.959342519685039
 10
-31.52277559055118
 20
2.970775590551181
 10
-31.51889763779528
 20
2.981744094488189
 10
-31.51390551181102
 20
2.992244094488189
 10
-31.50780708661417
 20
3.002279527559055
 10
-31.50059842519685
 20
3.011846456692914
 10
-31.49227952755906
 20
3.020944881889764
 10
-31.48318503937008
 20
3.029263779527559
 10
-31.47364960629921
 20
3.036476377952756
 10
-31.46367322834646
 20
3.04257874015748
 10
-31.45325590551181
 20
3.047570866141732
 10
-31.44239763779527
 20
3.051456692913386
 10
-31.43109842519685
 20
3.054232283464567
 10
-31.41935433070866
 20
3.055897637795276
 10
-31.40717322834646
 20
3.056452755905512
 10
-31.39525984251969
 20
3.055885826771653
 10
-31.38375196850394
 20
3.054185039370079
 10
-31.37264960629921
 20
3.051350393700787
 10
-31.36195669291338
 20
3.047385826771654
 10
-31.35166929133858
 20
3.042283464566929
 10
-31.34178346456693
 20
3.036051181102362
 10
-31.3323031496063
 20
3.028685039370079
 10
-31.32322834645669
 20
3.020185039370079
 10
-31.31932283464567
 20
3.016
 10
-31.31562204724409
 20
3.011629921259842
 10
-31.3121220472441
 20
3.007082677165354
 10
-31.30882677165354
 20
3.002358267716535
 10
-31.30572834645669
 20
2.997448818897638
 10
-31.30283464566929
 20
2.992362204724409
 10
-31.30013779527559
 20
2.987094488188976
 10
-31.29764566929134
 20
2.981649606299213
 10
-31.29541338582677
 20
2.975968503937008
 10
-31.29347637795276
 20
2.970003937007874
 10
-31.29184251968504
 20
2.963755905511811
 10
-31.29050393700787
 20
2.957220472440945
 10
-31.28946456692913
 20
2.95040157480315
 10
-31.28872047244095
 20
2.943291338582677
 10
-31.28827559055118
 20
2.935897637795275
 10
-31.28812598425197
 20
2.928212598425197
 10
-31.28845275590551
 20
2.920393700787402
 10
-31.28943700787402
 20
2.912570866141732
 10
-31.29107480314961
 20
2.904751968503937
 10
-31.29336614173228
 20
2.896929133858268
 10
-31.2963188976378
 20
2.889106299212598
 10
-31.29992519685039
 20
2.881283464566929
 10
-31.30418897637795
 20
2.873456692913386
 10
-31.30911417322835
 20
2.865629921259842
 10
-31.3145905511811
 20
2.858094488188976
 10
-31.32053149606299
 20
2.851133858267716
 10
-31.32694094488189
 20
2.844744094488189
 10
-31.33381496062992
 20
2.83892125984252
 10
-31.34115354330709
 20
2.833673228346457
 10
-31.34895669291339
 20
2.828996062992126
 10
-31.35722834645669
 20
2.824893700787402
 10
-31.36596062992126
 20
2.82136220472441
 10
-31.3484094488189
 20
2.769464566929134
 10
-31.33597244094488
 20
2.774393700787402
 10
-31.32412992125984
 20
2.780220472440945
 10
-31.31288582677166
 20
2.78694094488189
 10
-31.30224015748032
 20
2.794555118110236
 10
-31.29218503937008
 20
2.803062992125984
 10
-31.28272834645669
 20
2.812468503937008
 10
-31.27386614173228
 20
2.822767716535433
 10
-31.26559842519685
 20
2.833964566929134
 10
-31.26197637795276
 20
2.839464566929134
 10
-31.25855905511811
 20
2.84509842519685
 10
-31.25534645669291
 20
2.85086220472441
 10
-31.25233464566929
 20
2.856759842519685
 10
-31.24952362204725
 20
2.862791338582677
 10
-31.24691732283464
 20
2.868952755905512
 10
-31.2445157480315
 20
2.875244094488189
 10
-31.24231496062992
 20
2.881669291338583
 10
-31.24034645669291
 20
2.888248031496063
 10
-31.23864173228347
 20
2.895003937007874
 10
-31.23720078740158
 20
2.90194094488189
 10
-31.23602362204725
 20
2.909055118110236
 10
-31.23511023622047
 20
2.916346456692914
 10
-31.23445669291339
 20
2.923818897637795
 10
-31.23406299212598
 20
2.931468503937008
 10
-31.23393307086614
 20
2.939299212598425
 10
-31.23414173228347
 20
2.947220472440945
 10
-31.23476377952756
 20
2.95513779527559
 10
-31.23580708661417
 20
2.963051181102362
 10
-31.23726377952756
 20
2.970968503937008
 10
-31.23914173228346
 20
2.978881889763779
 10
-31.24143700787402
 20
2.986799212598425
 10
-31.24415354330709
 20
2.994716535433071
 10
-31.24729133858268
 20
3.002633858267716
  0
LWPOLYLINE
  5
74
330
1F
100
AcDbEntity
  8
Layer 1
 62
     7
370
     9
100
AcDbPolyline
 90
       99
 70
     1
 43
0.0
 10
-31.70024803149606
 20
3.382708661417323
 10
-31.69426377952756
 20
3.391527559055118
 10
-31.68746850393701
 20
3.399744094488189
 10
-31.67986220472441
 20
3.407366141732283
 10
-31.67144488188976
 20
3.414393700787401
 10
-31.66221653543307
 20
3.420818897637795
 10
-31.65217716535433
 20
3.426649606299212
 10
-31.64132677165354
 20
3.431885826771654
 10
-31.62966141732284
 20
3.436523622047244
 10
-31.61418503937008
 20
3.441712598425197
 10
-31.5984842519685
 20
3.446208661417323
 10
-31.58255511811024
 20
3.450011811023622
 10
-31.56640157480315
 20
3.453122047244094
 10
-31.55002362204725
 20
3.45553937007874
 10
-31.53341732283464
 20
3.457267716535433
 10
-31.51658661417323
 20
3.458299212598425
 10
-31.49952755905512
 20
3.458645669291339
 10
-31.46174803149606
 20
3.456374015748032
 10
-31.44123228346457
 20
3.453728346456693
 10
-31.42184645669291
 20
3.450267716535433
 10
-31.40359448818898
 20
3.446
 10
-31.38648031496063
 20
3.44092125984252
 10
-31.37049606299212
 20
3.435027559055118
 10
-31.35564566929134
 20
3.428322834645669
 10
-31.34192519685039
 20
3.420811023622047
 10
-31.32934251968504
 20
3.412484251968504
 10
-31.31985433070866
 20
3.404889763779527
 10
-31.31163385826772
 20
3.396885826771654
 10
-31.30468110236221
 20
3.38848031496063
 10
-31.29899212598425
 20
3.379665354330708
 10
-31.29457086614173
 20
3.370448818897638
 10
-31.29141338582677
 20
3.360822834645669
 10
-31.2895157480315
 20
3.350795275590551
 10
-31.28888582677165
 20
3.340358267716535
 10
-31.28951181102362
 20
3.328712598425197
 10
-31.29138976377953
 20
3.317625984251968
 10
-31.29451968503937
 20
3.307102362204724
 10
-31.29890157480315
 20
3.29713779527559
 10
-31.30453543307087
 20
3.287732283464567
 10
-31.31141732283465
 20
3.278885826771654
 10
-31.31955118110236
 20
3.270602362204724
 10
-31.32893700787401
 20
3.262877952755905
 10
-31.33820078740158
 20
3.256488188976378
 10
-31.34803149606299
 20
3.250673228346457
 10
-31.35842519685039
 20
3.245425196850394
 10
-31.3693937007874
 20
3.240755905511811
 10
-31.38072047244095
 20
3.236633858267716
 10
-31.3921968503937
 20
3.233031496062992
 10
-31.40381496062992
 20
3.229952755905512
 10
-31.41558661417323
 20
3.227397637795276
 10
-31.42731496062992
 20
3.225271653543307
 10
-31.43885039370079
 20
3.22348031496063
 10
-31.45020472440945
 20
3.222027559055118
 10
-31.46137007874016
 20
3.220905511811023
 10
-31.51237401574803
 20
3.219011811023622
 10
-31.51979133858268
 20
3.219141732283465
 10
-31.52763779527559
 20
3.219535433070866
 10
-31.53592125984252
 20
3.220188976377953
 10
-31.54463779527559
 20
3.221106299212599
 10
-31.55379133858268
 20
3.222283464566929
 10
-31.56338188976378
 20
3.223724409448819
 10
-31.5734094488189
 20
3.225429133858268
 10
-31.58387795275591
 20
3.227397637795276
 10
-31.5954842519685
 20
3.229929133858268
 10
-31.60705118110236
 20
3.232933070866142
 10
-31.61857480314961
 20
3.236417322834646
 10
-31.63004330708661
 20
3.240377952755905
 10
-31.63569291338583
 20
3.242555118110236
 10
-31.6411968503937
 20
3.244885826771653
 10
-31.64656299212598
 20
3.247374015748032
 10
-31.65178346456693
 20
3.250011811023622
 10
-31.65686614173228
 20
3.252807086614173
 10
-31.6618031496063
 20
3.255759842519685
 10
-31.66660236220472
 20
3.25886220472441
 10
-31.67125590551181
 20
3.262122047244095
 10
-31.67572440944882
 20
3.265543307086614
 10
-31.67996850393701
 20
3.269133858267717
 10
-31.6839842519685
 20
3.272889763779527
 10
-31.68777165354331
 20
3.276818897637795
 10
-31.69133070866142
 20
3.280913385826772
 10
-31.69466535433071
 20
3.285173228346457
 10
-31.69777165354331
 20
3.289602362204724
 10
-31.70065354330709
 20
3.294192913385827
 10
-31.70324015748032
 20
3.298968503937008
 10
-31.7054842519685
 20
3.30396062992126
 10
-31.70738582677165
 20
3.309169291338583
 10
-31.70894094488189
 20
3.314590551181102
 10
-31.71015354330709
 20
3.320232283464567
 10
-31.71101968503937
 20
3.326086614173228
 10
-31.71153937007874
 20
3.332153543307087
 10
-31.7117125984252
 20
3.338437007874016
 10
-31.71153543307087
 20
3.344728346456693
 10
-31.71099606299213
 20
3.350803149606299
 10
-31.71010236220473
 20
3.35665748031496
 10
-31.70885039370079
 20
3.362299212598425
 10
-31.70724015748031
 20
3.367720472440945
 10
-31.70526771653543
 20
3.372933070866142
 10
-31.70293700787402
 20
3.377925196850394
 10
-31.70024803149606
 20
3.382708661417323
  0
LWPOLYLINE
  5
75
330
1F
100
AcDbEntity
  8
Layer 1
 62
     7
370
     9
100
AcDbPolyline
 90
       65
 70
     1
 43
0.0
 10
-31.23468897637795
 20
3.341114173228346
 10
-31.23610236220473
 20
3.363397637795276
 10
-31.24034251968504
 20
3.384259842519685
 10
-31.2474094488189
 20
3.403708661417323
 10
-31.25729921259843
 20
3.421732283464567
 10
-31.27001968503937
 20
3.438338582677166
 10
-31.28556299212599
 20
3.453527559055118
 10
-31.30392913385827
 20
3.467291338582677
 10
-31.32512204724409
 20
3.479633858267717
 10
-31.34362598425197
 20
3.488314960629921
 10
-31.36314960629921
 20
3.495834645669291
 10
-31.3836968503937
 20
3.502196850393701
 10
-31.40527165354331
 20
3.507405511811024
 10
-31.42787007874016
 20
3.511452755905512
 10
-31.45149212598425
 20
3.51434251968504
 10
-31.47614566929134
 20
3.51607874015748
 10
-31.50182677165354
 20
3.516657480314961
 10
-31.5275
 20
3.51607874015748
 10
-31.55214960629921
 20
3.51434251968504
 10
-31.57577165354331
 20
3.511452755905512
 10
-31.59837007874016
 20
3.507405511811024
 10
-31.61994094488189
 20
3.502196850393701
 10
-31.64048818897638
 20
3.495834645669291
 10
-31.66000787401575
 20
3.488314960629921
 10
-31.67850393700787
 20
3.479633858267717
 10
-31.69970472440945
 20
3.467291338582677
 10
-31.71807480314961
 20
3.453527559055118
 10
-31.73361811023622
 20
3.438338582677166
 10
-31.74633464566929
 20
3.421732283464567
 10
-31.75622440944882
 20
3.403708661417323
 10
-31.7632874015748
 20
3.384259842519685
 10
-31.76752362204724
 20
3.363397637795276
 10
-31.76893700787402
 20
3.341114173228346
 10
-31.76752362204724
 20
3.318834645669291
 10
-31.7632874015748
 20
3.297972440944882
 10
-31.75622440944882
 20
3.278531496062992
 10
-31.74633464566929
 20
3.260507874015748
 10
-31.73361811023622
 20
3.24390157480315
 10
-31.71807480314961
 20
3.228716535433071
 10
-31.69970472440945
 20
3.214948818897638
 10
-31.67850393700787
 20
3.20259842519685
 10
-31.66000787401575
 20
3.193917322834646
 10
-31.64048818897638
 20
3.186397637795276
 10
-31.61994094488189
 20
3.180031496062992
 10
-31.59837007874016
 20
3.174826771653543
 10
-31.57577165354331
 20
3.170779527559055
 10
-31.55214960629921
 20
3.167885826771653
 10
-31.5275
 20
3.166153543307086
 10
-31.50182677165354
 20
3.165574803149606
 10
-31.47614566929134
 20
3.166153543307086
 10
-31.45149212598425
 20
3.167885826771653
 10
-31.42787007874016
 20
3.170779527559055
 10
-31.40527165354331
 20
3.174826771653543
 10
-31.3836968503937
 20
3.180031496062992
 10
-31.36314960629921
 20
3.186397637795276
 10
-31.34362598425197
 20
3.193917322834646
 10
-31.32512204724409
 20
3.20259842519685
 10
-31.30392913385827
 20
3.214948818897638
 10
-31.28556299212599
 20
3.228716535433071
 10
-31.27001968503937
 20
3.24390157480315
 10
-31.25729921259843
 20
3.260507874015748
 10
-31.2474094488189
 20
3.278531496062992
 10
-31.24034251968504
 20
3.297972440944882
 10
-31.23610236220473
 20
3.318834645669291
 10
-31.23468897637795
 20
3.341114173228346
  0
LWPOLYLINE
  5
76
330
1F
100
AcDbEntity
  8
Layer 1
 62
     7
370
     9
100
AcDbPolyline
 90
        4
 70
     1
 43
0.0
 10
-28.92228346456693
 20
-3.732618110236221
 10
-28.92228346456693
 20
-4.03255905511811
 10
-29.12073228346457
 20
-4.03255905511811
 10
-28.92228346456693
 20
-3.732618110236221
  0
LWPOLYLINE
  5
77
330
1F
100
AcDbEntity
  8
Layer 1
 62
     7
370
     9
100
AcDbPolyline
 90
       11
 70
     1
 43
0.0
 10
-28.86657480314961
 20
-4.087511811023622
 10
-28.80093700787402
 20
-4.087511811023622
 10
-28.80093700787402
 20
-4.03255905511811
 10
-28.86657480314961
 20
-4.03255905511811
 10
-28.86733070866142
 20
-3.674606299212599
 10
-28.94213385826772
 20
-3.674606299212599
 10
-29.21538582677166
 20
-4.087511811023622
 10
-28.92228346456693
 20
-4.087511811023622
 10
-28.92228346456693
 20
-4.193606299212599
 10
-28.86657480314961
 20
-4.193606299212599
 10
-28.86657480314961
 20
-4.087511811023622
  0
LWPOLYLINE
  5
78
330
1F
100
AcDbEntity
  8
Layer 1
 62
     7
370
     9
100
AcDbPolyline
 90
       87
 70
     1
 43
0.0
 10
-28.71699606299213
 20
-4.193606299212599
 10
-28.35141732283465
 20
-4.193606299212599
 10
-28.35141732283465
 20
-4.140165354330708
 10
-28.58799606299213
 20
-4.140165354330708
 10
-28.40712598425197
 20
-3.960811023622047
 10
-28.3953188976378
 20
-3.947901574803149
 10
-28.38508267716535
 20
-3.934346456692913
 10
-28.37642519685039
 20
-3.920145669291339
 10
-28.36933858267717
 20
-3.905299212598425
 10
-28.36383070866142
 20
-3.889807086614173
 10
-28.3598937007874
 20
-3.873673228346457
 10
-28.35753149606299
 20
-3.856889763779527
 10
-28.35674409448819
 20
-3.839464566929134
 10
-28.35754724409449
 20
-3.821649606299212
 10
-28.35996456692913
 20
-3.804547244094488
 10
-28.36398818897638
 20
-3.788161417322835
 10
-28.36962598425197
 20
-3.772492125984252
 10
-28.37687007874016
 20
-3.757535433070866
 10
-28.38572440944882
 20
-3.743295275590551
 10
-28.39618897637795
 20
-3.729767716535433
 10
-28.40826377952756
 20
-3.716956692913386
 10
-28.42168503937008
 20
-3.705062992125984
 10
-28.4356968503937
 20
-3.694755905511811
 10
-28.45030708661417
 20
-3.68603937007874
 10
-28.46551181102362
 20
-3.678905511811024
 10
-28.48130708661417
 20
-3.673354330708662
 10
-28.49770472440945
 20
-3.669393700787402
 10
-28.5146968503937
 20
-3.667015748031496
 10
-28.5322874015748
 20
-3.666224409448819
 10
-28.55055511811024
 20
-3.66705905511811
 10
-28.56814173228346
 20
-3.669562992125984
 10
-28.58504724409449
 20
-3.673732283464567
 10
-28.60127165354331
 20
-3.679574803149606
 10
-28.61681496062992
 20
-3.687082677165354
 10
-28.6316811023622
 20
-3.696263779527559
 10
-28.64586220472441
 20
-3.707114173228347
 10
-28.65936614173228
 20
-3.719633858267716
 10
-28.6713937007874
 20
-3.733110236220472
 10
-28.68171653543307
 20
-3.747283464566929
 10
-28.69033464566929
 20
-3.762165354330709
 10
-28.69724409448819
 20
-3.777744094488189
 10
-28.70245275590551
 20
-3.794027559055118
 10
-28.70595275590551
 20
-3.811015748031496
 10
-28.70774409448819
 20
-3.828704724409449
 10
-28.70782677165354
 20
-3.847094488188977
 10
-28.65365748031496
 20
-3.847094488188977
 10
-28.65411023622047
 20
-3.835161417322835
 10
-28.65327165354331
 20
-3.823503937007874
 10
-28.65114566929134
 20
-3.812122047244094
 10
-28.64773622047244
 20
-3.801011811023622
 10
-28.64303543307087
 20
-3.790181102362205
 10
-28.63704724409449
 20
-3.779622047244095
 10
-28.62976771653543
 20
-3.769342519685039
 10
-28.62120472440945
 20
-3.759334645669291
 10
-28.61205118110236
 20
-3.750389763779527
 10
-28.60241732283465
 20
-3.74263779527559
 10
-28.59230708661417
 20
-3.73607874015748
 10
-28.58171653543307
 20
-3.730712598425197
 10
-28.57064960629921
 20
-3.72653937007874
 10
-28.5591062992126
 20
-3.72355905511811
 10
-28.54708661417323
 20
-3.721771653543307
 10
-28.53458661417323
 20
-3.721177165354331
 10
-28.52232283464567
 20
-3.721712598425197
 10
-28.51052362204724
 20
-3.723322834645669
 10
-28.49918897637795
 20
-3.726003937007874
 10
-28.4883188976378
 20
-3.729759842519685
 10
-28.47791338582677
 20
-3.734590551181102
 10
-28.46796850393701
 20
-3.740492125984252
 10
-28.45849212598425
 20
-3.747472440944882
 10
-28.44947637795276
 20
-3.755523622047244
 10
-28.44115748031496
 20
-3.764417322834646
 10
-28.43394881889764
 20
-3.773744094488189
 10
-28.42785039370079
 20
-3.783496062992126
 10
-28.42286220472441
 20
-3.793681102362205
 10
-28.4189842519685
 20
-3.804291338582677
 10
-28.4162125984252
 20
-3.815334645669291
 10
-28.41455118110236
 20
-3.826807086614173
 10
-28.41399606299213
 20
-3.838708661417323
 10
-28.41453149606299
 20
-3.850874015748031
 10
-28.41614173228346
 20
-3.862562992125984
 10
-28.41882283464567
 20
-3.873771653543307
 10
-28.42257874015748
 20
-3.884503937007874
 10
-28.4274094488189
 20
-3.894759842519685
 10
-28.43331102362205
 20
-3.904535433070866
 10
-28.44029133858268
 20
-3.913834645669291
 10
-28.44834251968504
 20
-3.922653543307087
 10
-28.71699606299213
 20
-4.193606299212599
  0
LWPOLYLINE
  5
79
330
1F
100
AcDbEntity
  8
Layer 1
 62
     7
100
AcDbPolyline
 90
       67
 70
     1
 43
0.0
 10
-27.83127165354331
 20
9.495122047244095
 10
-27.84021653543307
 20
9.512283464566929
 10
-27.84858267716535
 20
9.529696850393702
 10
-27.85637401574803
 20
9.54735433070866
 10
-27.8635905511811
 20
9.565259842519685
 10
-27.87022047244094
 20
9.583409448818898
 10
-27.87627559055118
 20
9.601811023622048
 10
-27.88174409448819
 20
9.620456692913386
 10
-27.88663385826772
 20
9.639350393700788
 10
-27.89097637795276
 20
9.65853937007874
 10
-27.89474015748031
 20
9.677984251968503
 10
-27.89791732283464
 20
9.697688976377952
 10
-27.90051968503937
 20
9.717649606299213
 10
-27.90253543307087
 20
9.737870078740157
 10
-27.90398031496063
 20
9.758346456692914
 10
-27.90484251968504
 20
9.77907874015748
 10
-27.90512992125984
 20
9.800070866141732
 10
-27.90484251968504
 20
9.822102362204724
 10
-27.90398031496063
 20
9.843732283464567
 10
-27.90254724409449
 20
9.864968503937009
 10
-27.90054330708661
 20
9.8858031496063
 10
-27.89797244094488
 20
9.90623622047244
 10
-27.89483070866142
 20
9.926267716535433
 10
-27.8911220472441
 20
9.945893700787401
 10
-27.88684645669291
 20
9.96511811023622
 10
-27.88195669291338
 20
9.98401968503937
 10
-27.8764842519685
 20
10.00260236220472
 10
-27.87042519685039
 20
10.02087401574803
 10
-27.86377559055118
 20
10.03883070866142
 10
-27.85653543307087
 20
10.05647637795276
 10
-27.84870866141732
 20
10.07381102362205
 10
-27.8402874015748
 20
10.09083464566929
 10
-27.83127165354331
 20
10.10755118110236
 10
-27.78086220472441
 20
10.09233070866142
 10
-27.7888779527559
 20
10.07583858267717
 10
-27.79635826771653
 20
10.05916535433071
 10
-27.80330708661417
 20
10.04231496062992
 10
-27.80972440944882
 20
10.0252874015748
 10
-27.81561023622047
 20
10.00808267716535
 10
-27.82096850393701
 20
9.9906968503937
 10
-27.82579921259843
 20
9.973133858267717
 10
-27.83010236220472
 20
9.955393700787402
 10
-27.83385826771654
 20
9.93734251968504
 10
-27.83711811023622
 20
9.918933070866142
 10
-27.83987795275591
 20
9.900157480314961
 10
-27.84214173228347
 20
9.88101968503937
 10
-27.84390157480315
 20
9.861503937007875
 10
-27.84516141732284
 20
9.84161811023622
 10
-27.84591732283464
 20
9.821354330708662
 10
-27.84616929133858
 20
9.80070472440945
 10
-27.84592125984252
 20
9.779133858267716
 10
-27.84517716535433
 20
9.758086614173228
 10
-27.84393307086614
 20
9.737566929133859
 10
-27.84219291338583
 20
9.717570866141733
 10
-27.83994881889764
 20
9.698102362204724
 10
-27.83720866141732
 20
9.679153543307086
 10
-27.83396062992126
 20
9.66073622047244
 10
-27.8302125984252
 20
9.642838582677165
 10
-27.82597244094488
 20
9.625322834645669
 10
-27.82117716535433
 20
9.608125984251968
 10
-27.81583070866142
 20
9.591240157480314
 10
-27.80993700787402
 20
9.574669291338582
 10
-27.80348818897638
 20
9.558413385826771
 10
-27.79649606299213
 20
9.542464566929134
 10
-27.78895275590551
 20
9.526826771653543
 10
-27.78086220472441
 20
9.5115
 10
-27.83127165354331
 20
9.495122047244095
  0
LWPOLYLINE
  5
7A
330
1F
100
AcDbEntity
  8
Layer 1
 62
     7
100
AcDbPolyline
 90
      103
 70
     1
 43
0.0
 10
-27.44792125984252
 20
9.692291338582677
 10
-27.44792125984252
 20
9.633330708661417
 10
-27.75160236220472
 20
9.633330708661417
 10
-27.58211811023622
 20
9.83609842519685
 10
-27.5745
 20
9.845464566929135
 10
-27.56741338582677
 20
9.85453937007874
 10
-27.56086220472441
 20
9.86333464566929
 10
-27.55484251968504
 20
9.871838582677166
 10
-27.54935039370079
 20
9.880055118110237
 10
-27.54438582677165
 20
9.887988188976378
 10
-27.53995275590551
 20
9.895629921259843
 10
-27.53604330708662
 20
9.902988188976378
 10
-27.53262598425197
 20
9.91007874015748
 10
-27.52966535433071
 20
9.917011811023622
 10
-27.52716141732283
 20
9.923787401574803
 10
-27.52511023622047
 20
9.930401574803149
 10
-27.5235157480315
 20
9.936858267716536
 10
-27.52237795275591
 20
9.94315748031496
 10
-27.5216968503937
 20
9.949299212598426
 10
-27.52146850393701
 20
9.955283464566929
 10
-27.52177952755905
 20
9.963464566929133
 10
-27.52271653543307
 20
9.971208661417323
 10
-27.52427559055118
 20
9.978511811023623
 10
-27.52646062992126
 20
9.98537401574803
 10
-27.52927165354331
 20
9.991787401574802
 10
-27.53270472440945
 20
9.997755905511811
 10
-27.53675984251969
 20
10.00327165354331
 10
-27.54144094488189
 20
10.00833464566929
 10
-27.54666535433071
 20
10.01286614173228
 10
-27.55235039370079
 20
10.01679527559055
 10
-27.5585
 20
10.02011811023622
 10
-27.5651062992126
 20
10.02283464566929
 10
-27.57216929133858
 20
10.02494881889764
 10
-27.57968503937008
 20
10.02646062992126
 10
-27.58764960629921
 20
10.02736614173228
 10
-27.59606692913386
 20
10.02766929133858
 10
-27.60365748031496
 20
10.02736614173228
 10
-27.61090551181102
 20
10.02646062992126
 10
-27.61780708661417
 20
10.02494881889764
 10
-27.62437007874016
 20
10.02283464566929
 10
-27.63058661417323
 20
10.02011811023622
 10
-27.63646456692913
 20
10.01679527559055
 10
-27.642
 20
10.01286614173228
 10
-27.64720078740157
 20
10.00833464566929
 10
-27.65195669291339
 20
10.00327559055118
 10
-27.65616141732283
 20
9.997846456692914
 10
-27.65981102362205
 20
9.992043307086615
 10
-27.6629094488189
 20
9.985866141732284
 10
-27.66546062992126
 20
9.979303149606299
 10
-27.66745669291339
 20
9.972354330708662
 10
-27.6689094488189
 20
9.96501968503937
 10
-27.66981496062992
 20
9.957291338582678
 10
-27.74081889763779
 20
9.957291338582678
 10
-27.7401811023622
 20
9.972161417322834
 10
-27.73826377952756
 20
9.986259842519685
 10
-27.73507086614173
 20
9.999590551181102
 10
-27.73059842519685
 20
10.01214960629921
 10
-27.72484645669291
 20
10.02393700787402
 10
-27.71781889763779
 20
10.03496456692913
 10
-27.7095157480315
 20
10.04522440944882
 10
-27.69992913385827
 20
10.05472047244094
 10
-27.68927165354331
 20
10.06322834645669
 10
-27.67773622047244
 20
10.0706062992126
 10
-27.66532677165354
 20
10.07685039370079
 10
-27.65203937007874
 20
10.08196456692913
 10
-27.63786614173228
 20
10.08594094488189
 10
-27.62281102362205
 20
10.08878346456693
 10
-27.60687007874016
 20
10.09048818897638
 10
-27.59004330708661
 20
10.09105905511811
 10
-27.57406692913386
 20
10.09053543307087
 10
-27.55895669291339
 20
10.08895669291339
 10
-27.5447125984252
 20
10.08633070866142
 10
-27.53133070866142
 20
10.08264960629921
 10
-27.5188188976378
 20
10.07791338582677
 10
-27.50717322834646
 20
10.0721220472441
 10
-27.49639763779528
 20
10.06527165354331
 10
-27.48649212598425
 20
10.05736220472441
 10
-27.47761023622047
 20
10.04853937007874
 10
-27.4699094488189
 20
10.03895275590551
 10
-27.46338976377953
 20
10.0286062992126
 10
-27.45805511811024
 20
10.01749606299213
 10
-27.45390157480315
 20
10.00562204724409
 10
-27.45093307086614
 20
9.992988188976378
 10
-27.44915354330709
 20
9.979590551181102
 10
-27.44855905511811
 20
9.965429133858267
 10
-27.44890157480315
 20
9.955074803149607
 10
-27.44992519685039
 20
9.944688976377952
 10
-27.45162992125984
 20
9.934271653543307
 10
-27.45401574803149
 20
9.923826771653543
 10
-27.45707480314961
 20
9.913350393700787
 10
-27.46081496062992
 20
9.902846456692913
 10
-27.46523228346457
 20
9.892311023622048
 10
-27.47032283464567
 20
9.881748031496063
 10
-27.47655118110236
 20
9.870606299212598
 10
-27.48429527559055
 20
9.858267716535433
 10
-27.49355511811024
 20
9.844732283464566
 10
-27.50433464566929
 20
9.829996062992127
 10
-27.51663385826772
 20
9.814062992125985
 10
-27.53045669291339
 20
9.796933070866142
 10
-27.54579921259842
 20
9.778602362204724
 10
-27.56266929133858
 20
9.759070866141732
 10
-27.62025984251969
 20
9.692291338582677
 10
-27.44792125984252
 20
9.692291338582677
  0
LWPOLYLINE
  5
7B
330
1F
100
AcDbEntity
  8
Layer 1
 62
     7
100
AcDbPolyline
 90
      128
 70
     1
 43
0.0
 10
-27.30897637795276
 20
9.741633858267717
 10
-27.30487401574803
 20
9.73455905511811
 10
-27.30049606299212
 20
9.727909448818897
 10
-27.29583858267717
 20
9.72168503937008
 10
-27.29090551181102
 20
9.715893700787401
 10
-27.2856968503937
 20
9.710531496062993
 10
-27.28020866141732
 20
9.705602362204724
 10
-27.27444488188976
 20
9.701106299212599
 10
-27.26840157480315
 20
9.697043307086615
 10
-27.26209448818897
 20
9.693405511811024
 10
-27.2556220472441
 20
9.690248031496063
 10
-27.24898031496063
 20
9.68757874015748
 10
-27.24216929133858
 20
9.685397637795276
 10
-27.23518897637795
 20
9.683696850393702
 10
-27.22804330708662
 20
9.682484251968503
 10
-27.22072834645669
 20
9.68175590551181
 10
-27.21324409448819
 20
9.681511811023622
 10
-27.20226377952756
 20
9.681956692913387
 10
-27.19182283464567
 20
9.68329527559055
 10
-27.18192519685039
 20
9.685527559055117
 10
-27.17256299212599
 20
9.68865748031496
 10
-27.16373622047244
 20
9.692681102362204
 10
-27.15544094488189
 20
9.697602362204725
 10
-27.14767716535433
 20
9.703425196850393
 10
-27.14044094488189
 20
9.710145669291338
 10
-27.13390157480315
 20
9.717602362204724
 10
-27.12823622047244
 20
9.725622047244094
 10
-27.12344094488189
 20
9.734204724409448
 10
-27.11951968503937
 20
9.743354330708662
 10
-27.11646456692914
 20
9.753062992125985
 10
-27.1142874015748
 20
9.76334251968504
 10
-27.11298031496063
 20
9.774181102362204
 10
-27.11254330708661
 20
9.785586614173228
 10
-27.113
 20
9.796574803149607
 10
-27.11437007874016
 20
9.807031496062992
 10
-27.11664960629921
 20
9.816952755905511
 10
-27.11985039370079
 20
9.826350393700787
 10
-27.12396456692914
 20
9.835220472440945
 10
-27.12899606299213
 20
9.843570866141732
 10
-27.13494488188976
 20
9.851397637795275
 10
-27.14181496062992
 20
9.858708661417323
 10
-27.14942913385827
 20
9.865322834645669
 10
-27.1576062992126
 20
9.871051181102363
 10
-27.16634645669291
 20
9.87590157480315
 10
-27.17565354330709
 20
9.879870078740158
 10
-27.18552755905512
 20
9.882952755905512
 10
-27.19596456692913
 20
9.88515748031496
 10
-27.20696456692913
 20
9.88648031496063
 10
-27.21852755905512
 20
9.88692125984252
 10
-27.2255905511811
 20
9.886767716535433
 10
-27.23251968503937
 20
9.886307086614174
 10
-27.23931102362205
 20
9.885543307086614
 10
-27.24597637795275
 20
9.884476377952756
 10
-27.25250787401575
 20
9.8831062992126
 10
-27.25891338582677
 20
9.881437007874016
 10
-27.2651968503937
 20
9.879464566929133
 10
-27.27135826771654
 20
9.8771968503937
 10
-27.27733070866142
 20
9.87459842519685
 10
-27.28312598425197
 20
9.871708661417323
 10
-27.28874803149606
 20
9.868527559055119
 10
-27.29419291338583
 20
9.865051181102363
 10
-27.29946850393701
 20
9.86127559055118
 10
-27.30457086614173
 20
9.857200787401576
 10
-27.3095
 20
9.85282283464567
 10
-27.31426377952756
 20
9.848141732283464
 10
-27.33253937007874
 20
9.85226377952756
 10
-27.27611811023622
 20
10.08218503937008
 10
-27.06193307086614
 20
10.08218503937008
 10
-27.06193307086614
 20
10.02259842519685
 10
-27.23184251968504
 20
10.02259842519685
 10
-27.25846850393701
 20
9.922535433070866
 10
-27.24925590551181
 20
9.926102362204725
 10
-27.24018897637795
 20
9.929188976377953
 10
-27.23127559055118
 20
9.9318031496063
 10
-27.22254330708661
 20
9.93394094488189
 10
-27.21390157480315
 20
9.935547244094488
 10
-27.20525196850394
 20
9.936704724409449
 10
-27.19658267716536
 20
9.937405511811024
 10
-27.18788582677166
 20
9.937641732283465
 10
-27.17209842519685
 20
9.936992125984252
 10
-27.15706299212598
 20
9.935047244094488
 10
-27.14277952755906
 20
9.931799212598426
 10
-27.12925590551181
 20
9.927259842519685
 10
-27.11648818897638
 20
9.921417322834646
 10
-27.10448031496063
 20
9.91428346456693
 10
-27.09323228346457
 20
9.905850393700787
 10
-27.08274803149606
 20
9.89611811023622
 10
-27.07324015748031
 20
9.885377952755906
 10
-27.06499606299213
 20
9.873850393700787
 10
-27.05802362204724
 20
9.861531496062993
 10
-27.0523188976378
 20
9.84842125984252
 10
-27.0478779527559
 20
9.834527559055118
 10
-27.04470866141732
 20
9.819846456692913
 10
-27.04280708661417
 20
9.80438188976378
 10
-27.04217322834646
 20
9.788129921259843
 10
-27.04291338582677
 20
9.769582677165355
 10
-27.04512598425197
 20
9.751992125984252
 10
-27.04882283464567
 20
9.735358267716535
 10
-27.05399606299213
 20
9.719681102362205
 10
-27.06064960629921
 20
9.704968503937009
 10
-27.0687874015748
 20
9.691216535433071
 10
-27.0784094488189
 20
9.678429133858268
 10
-27.08951574803149
 20
9.666614173228346
 10
-27.10186220472441
 20
9.655988188976378
 10
-27.1152125984252
 20
9.64678346456693
 10
-27.12956299212598
 20
9.638992125984252
 10
-27.14491732283465
 20
9.632618110236221
 10
-27.16127952755906
 20
9.627661417322834
 10
-27.17864960629921
 20
9.624118110236221
 10
-27.19702755905512
 20
9.621996062992126
 10
-27.21641732283464
 20
9.621287401574802
 10
-27.22799212598425
 20
9.62153937007874
 10
-27.23918110236221
 20
9.622299212598426
 10
-27.24998031496063
 20
9.623566929133858
 10
-27.26039763779528
 20
9.62534251968504
 10
-27.27042519685039
 20
9.627625984251969
 10
-27.28007086614173
 20
9.63042125984252
 10
-27.28932677165354
 20
9.633732283464568
 10
-27.2981968503937
 20
9.637555118110237
 10
-27.30669291338583
 20
9.641874015748032
 10
-27.31489763779528
 20
9.646751968503937
 10
-27.32280708661417
 20
9.652185039370078
 10
-27.33042519685039
 20
9.658173228346456
 10
-27.33774409448819
 20
9.66472440944882
 10
-27.34476377952756
 20
9.671834645669291
 10
-27.35148031496063
 20
9.679507874015748
 10
-27.3578937007874
 20
9.687744094488188
 10
-27.30897637795276
 20
9.741633858267717
  0
LWPOLYLINE
  5
7C
330
1F
100
AcDbEntity
  8
Layer 1
 62
     7
100
AcDbPolyline
 90
       65
 70
     1
 43
0.0
 10
-26.64466535433071
 20
9.851527559055118
 10
-26.64534251968504
 20
9.825271653543307
 10
-26.64738188976378
 20
9.800472440944882
 10
-26.65077952755906
 20
9.777133858267717
 10
-26.65553937007874
 20
9.755251968503938
 10
-26.66166141732284
 20
9.734834645669292
 10
-26.66914566929134
 20
9.715877952755905
 10
-26.67799212598425
 20
9.698385826771654
 10
-26.68820472440945
 20
9.682358267716536
 10
-26.69957086614173
 20
9.668055118110237
 10
-26.71195669291339
 20
9.655653543307087
 10
-26.72536614173228
 20
9.64515748031496
 10
-26.73979527559055
 20
9.636570866141732
 10
-26.75524015748032
 20
9.629885826771654
 10
-26.77170866141732
 20
9.625110236220472
 10
-26.7891968503937
 20
9.622244094488188
 10
-26.80770472440945
 20
9.621287401574802
 10
-26.82646456692913
 20
9.622251968503937
 10
-26.84414173228346
 20
9.625149606299212
 10
-26.86074409448819
 20
9.629976377952756
 10
-26.87627165354331
 20
9.636728346456692
 10
-26.89072047244094
 20
9.645409448818898
 10
-26.90409842519685
 20
9.656011811023623
 10
-26.91640157480315
 20
9.66853937007874
 10
-26.92763779527559
 20
9.682992125984253
 10
-26.93770078740157
 20
9.699224409448819
 10
-26.94642125984252
 20
9.717011811023623
 10
-26.95379527559055
 20
9.736358267716536
 10
-26.95982283464567
 20
9.757259842519685
 10
-26.96451181102362
 20
9.77972440944882
 10
-26.96785826771654
 20
9.803751968503937
 10
-26.96986614173228
 20
9.829338582677165
 10
-26.97053543307086
 20
9.856492125984252
 10
-26.96985826771654
 20
9.883425196850395
 10
-26.96782283464567
 20
9.908834645669291
 10
-26.96443307086614
 20
9.932712598425196
 10
-26.95969291338583
 20
9.955062992125985
 10
-26.95359842519685
 20
9.97588188976378
 10
-26.94614960629921
 20
9.995169291338582
 10
-26.93735433070866
 20
10.01292519685039
 10
-26.9272125984252
 20
10.02914173228347
 10
-26.91586614173228
 20
10.04366535433071
 10
-26.90346062992126
 20
10.05624803149606
 10
-26.88999606299213
 20
10.0668937007874
 10
-26.87548031496063
 20
10.07559842519685
 10
-26.85990551181103
 20
10.08236220472441
 10
-26.84327559055118
 20
10.0871968503937
 10
-26.82559842519685
 20
10.09009448818898
 10
-26.80686614173228
 20
10.09105905511811
 10
-26.78792913385827
 20
10.0900905511811
 10
-26.77011417322835
 20
10.08717716535433
 10
-26.75341732283465
 20
10.08233070866142
 10
-26.73783858267717
 20
10.07554330708661
 10
-26.72338188976378
 20
10.06681889763779
 10
-26.71004330708661
 20
10.05616141732284
 10
-26.69782677165354
 20
10.04356692913386
 10
-26.68672440944882
 20
10.02904330708661
 10
-26.67687795275591
 20
10.01267716535433
 10
-26.66833858267717
 20
9.994645669291339
 10
-26.66111023622047
 20
9.974952755905512
 10
-26.6551968503937
 20
9.953594488188976
 10
-26.6505905511811
 20
9.930574803149606
 10
-26.64729921259843
 20
9.905889763779527
 10
-26.64532283464567
 20
9.87953937007874
 10
-26.64466535433071
 20
9.851527559055118
  0
LWPOLYLINE
  5
7D
330
1F
100
AcDbEntity
  8
Layer 1
 62
     7
100
AcDbPolyline
 90
       65
 70
     1
 43
0.0
 10
-26.80897637795276
 20
9.68467716535433
 10
-26.79803149606299
 20
9.685350393700787
 10
-26.78777952755906
 20
9.687374015748032
 10
-26.77822834645669
 20
9.690748031496064
 10
-26.76937795275591
 20
9.695468503937008
 10
-26.76123228346457
 20
9.701543307086615
 10
-26.75379133858268
 20
9.708972440944882
 10
-26.74705905511811
 20
9.717755905511812
 10
-26.74103543307087
 20
9.727893700787401
 10
-26.73568503937008
 20
9.739346456692914
 10
-26.73105118110236
 20
9.75214566929134
 10
-26.72712598425197
 20
9.766287401574804
 10
-26.72391732283464
 20
9.781775590551181
 10
-26.72142125984252
 20
9.798602362204724
 10
-26.71963779527559
 20
9.816771653543308
 10
-26.71857086614173
 20
9.836279527559055
 10
-26.7182125984252
 20
9.857125984251969
 10
-26.71856299212599
 20
9.877389763779528
 10
-26.71961811023622
 20
9.896409448818897
 10
-26.7213779527559
 20
9.914192913385827
 10
-26.72383858267716
 20
9.930732283464566
 10
-26.72700393700788
 20
9.946031496062993
 10
-26.73087007874016
 20
9.960082677165355
 10
-26.73544094488189
 20
9.972889763779527
 10
-26.7407125984252
 20
9.984452755905512
 10
-26.74662992125984
 20
9.994740157480315
 10
-26.7531968503937
 20
10.00365354330709
 10
-26.76041732283464
 20
10.01118897637795
 10
-26.76828346456693
 20
10.01735433070866
 10
-26.77679921259843
 20
10.02214960629921
 10
-26.78596456692913
 20
10.02557086614173
 10
-26.79577559055118
 20
10.02762204724409
 10
-26.80623228346457
 20
10.02830708661417
 10
-26.81710236220473
 20
10.02762204724409
 10
-26.8272874015748
 20
10.02557480314961
 10
-26.83679133858268
 20
10.02216141732283
 10
-26.84561023622047
 20
10.01738188976378
 10
-26.85374803149606
 20
10.01124409448819
 10
-26.86120472440945
 20
10.00374015748032
 10
-26.86797637795276
 20
9.99488188976378
 10
-26.87406299212599
 20
9.984665354330708
 10
-26.87944881889764
 20
9.973082677165355
 10
-26.88411417322835
 20
9.960212598425198
 10
-26.88805511811024
 20
9.946051181102362
 10
-26.89127559055118
 20
9.930602362204725
 10
-26.89377952755905
 20
9.913854330708661
 10
-26.89556692913386
 20
9.895818897637795
 10
-26.89663779527559
 20
9.876484251968504
 10
-26.89699606299213
 20
9.855854330708661
 10
-26.89663779527559
 20
9.835807086614173
 10
-26.89557086614173
 20
9.816948818897638
 10
-26.8937874015748
 20
9.79928346456693
 10
-26.89129133858268
 20
9.782818897637796
 10
-26.88808267716535
 20
9.767547244094489
 10
-26.88415748031496
 20
9.75348031496063
 10
-26.87952362204724
 20
9.740614173228346
 10
-26.87417322834646
 20
9.728952755905512
 10
-26.8681968503937
 20
9.718586614173228
 10
-26.86159448818898
 20
9.70959842519685
 10
-26.85437007874016
 20
9.701988188976378
 10
-26.84652755905512
 20
9.695759842519685
 10
-26.83806692913386
 20
9.690913385826772
 10
-26.8289842519685
 20
9.687448818897638
 10
-26.8192874015748
 20
9.685370078740158
 10
-26.80897637795276
 20
9.68467716535433
  0
LWPOLYLINE
  5
7E
330
1F
100
AcDbEntity
  8
Layer 1
 62
     7
100
AcDbPolyline
 90
      157
 70
     1
 43
0.0
 10
-26.50265354330709
 20
9.633330708661417
 10
-26.56985826771654
 20
9.633330708661417
 10
-26.56985826771654
 20
9.92686220472441
 10
-26.50667716535433
 20
9.92686220472441
 10
-26.50667716535433
 20
9.878681102362204
 10
-26.50155905511811
 20
9.886110236220473
 10
-26.49627559055118
 20
9.893023622047243
 10
-26.49081889763779
 20
9.899417322834646
 10
-26.4851968503937
 20
9.905295275590552
 10
-26.4794094488189
 20
9.910649606299213
 10
-26.47344881889764
 20
9.915484251968504
 10
-26.46732283464567
 20
9.919795275590552
 10
-26.46103149606299
 20
9.923582677165355
 10
-26.45450787401575
 20
9.926889763779528
 10
-26.4476968503937
 20
9.929748031496063
 10
-26.44059842519685
 20
9.932165354330708
 10
-26.4332125984252
 20
9.934141732283464
 10
-26.42553937007874
 20
9.935673228346456
 10
-26.41757874015748
 20
9.936767716535433
 10
-26.40933070866142
 20
9.937425196850393
 10
-26.40079527559055
 20
9.937641732283465
 10
-26.39238188976378
 20
9.937417322834646
 10
-26.38433464566929
 20
9.936748031496062
 10
-26.37665748031496
 20
9.935629921259842
 10
-26.36935039370079
 20
9.93405905511811
 10
-26.36241338582677
 20
9.932043307086614
 10
-26.35585039370079
 20
9.929570866141733
 10
-26.34965748031496
 20
9.926649606299213
 10
-26.34384251968504
 20
9.923271653543306
 10
-26.33835039370079
 20
9.919429133858268
 10
-26.33320078740158
 20
9.915110236220473
 10
-26.32840157480315
 20
9.910322834645669
 10
-26.32394094488189
 20
9.90505905511811
 10
-26.31982283464567
 20
9.899326771653543
 10
-26.31604724409449
 20
9.893125984251968
 10
-26.31261023622047
 20
9.886452755905513
 10
-26.30950787401575
 20
9.879314960629921
 10
-26.30363779527559
 20
9.88666535433071
 10
-26.2976811023622
 20
9.8935
 10
-26.29162992125984
 20
9.899818897637795
 10
-26.28549212598425
 20
9.905622047244094
 10
-26.27926771653543
 20
9.910913385826772
 10
-26.27295275590551
 20
9.915688976377952
 10
-26.26654724409449
 20
9.919948818897637
 10
-26.26005511811024
 20
9.923692913385826
 10
-26.25340157480315
 20
9.92696062992126
 10
-26.24652362204725
 20
9.929795275590552
 10
-26.23941732283464
 20
9.932192913385826
 10
-26.23208267716536
 20
9.934153543307087
 10
-26.22451968503937
 20
9.935681102362205
 10
-26.21672834645669
 20
9.936771653543307
 10
-26.20870866141732
 20
9.937425196850393
 10
-26.20046062992126
 20
9.937641732283465
 10
-26.19332283464567
 20
9.937472440944882
 10
-26.18641338582677
 20
9.936968503937008
 10
-26.17973228346457
 20
9.936133858267716
 10
-26.17327952755906
 20
9.93496062992126
 10
-26.16705118110236
 20
9.93346062992126
 10
-26.16105511811024
 20
9.93162598425197
 10
-26.15527952755906
 20
9.929464566929134
 10
-26.14973622047244
 20
9.926972440944882
 10
-26.14446062992126
 20
9.924125984251969
 10
-26.13949606299213
 20
9.920984251968504
 10
-26.13483070866142
 20
9.917543307086614
 10
-26.13047244094488
 20
9.913799212598425
 10
-26.12641338582677
 20
9.909755905511812
 10
-26.12265748031496
 20
9.905409448818897
 10
-26.1191968503937
 20
9.900755905511812
 10
-26.11603937007874
 20
9.895795275590551
 10
-26.11338188976378
 20
9.890787401574803
 10
-26.11112204724409
 20
9.885287401574804
 10
-26.10925984251968
 20
9.879307086614173
 10
-26.10779133858268
 20
9.872870078740158
 10
-26.10661811023622
 20
9.8655
 10
-26.10579527559055
 20
9.856704724409449
 10
-26.10530708661417
 20
9.84648031496063
 10
-26.10514566929134
 20
9.834826771653542
 10
-26.10514566929134
 20
9.811267716535433
 10
-26.10514566929134
 20
9.633330708661417
 10
-26.17235039370079
 20
9.633330708661417
 10
-26.17235039370079
 20
9.784003937007874
 10
-26.17254724409449
 20
9.798157480314961
 10
-26.17314173228347
 20
9.811047244094489
 10
-26.17412598425197
 20
9.82267716535433
 10
-26.17550787401575
 20
9.833047244094487
 10
-26.17727559055118
 20
9.842153543307086
 10
-26.17943700787401
 20
9.849992125984253
 10
-26.18198818897638
 20
9.856566929133859
 10
-26.18492519685039
 20
9.861877952755906
 10
-26.18836220472441
 20
9.866263779527559
 10
-26.19241732283465
 20
9.870062992125984
 10
-26.19708267716535
 20
9.873279527559054
 10
-26.20236220472441
 20
9.875909448818897
 10
-26.20825590551181
 20
9.877956692913386
 10
-26.21476377952756
 20
9.879417322834646
 10
-26.22188976377953
 20
9.880295275590552
 10
-26.22962598425197
 20
9.880586614173229
 10
-26.23917716535433
 20
9.880188976377953
 10
-26.24801181102362
 20
9.879003937007875
 10
-26.25613385826772
 20
9.877027559055119
 10
-26.26354330708661
 20
9.874259842519685
 10
-26.27023622047244
 20
9.87070472440945
 10
-26.27622047244094
 20
9.866366141732284
 10
-26.28148818897638
 20
9.861240157480315
 10
-26.28604724409449
 20
9.855330708661418
 10
-26.29001968503937
 20
9.848437007874015
 10
-26.29346062992126
 20
9.840354330708662
 10
-26.29636614173228
 20
9.831086614173229
 10
-26.29874015748031
 20
9.820633858267717
 10
-26.30058661417323
 20
9.808996062992126
 10
-26.30190157480315
 20
9.796177165354331
 10
-26.30268897637795
 20
9.78217716535433
 10
-26.30295275590551
 20
9.767
 10
-26.30295275590551
 20
9.633330708661417
 10
-26.37079133858268
 20
9.633330708661417
 10
-26.37079133858268
 20
9.784003937007874
 10
-26.37099606299213
 20
9.797110236220473
 10
-26.3716062992126
 20
9.809169291338582
 10
-26.37262204724409
 20
9.82017716535433
 10
-26.37405118110236
 20
9.830141732283465
 10
-26.37588976377953
 20
9.83905905511811
 10
-26.37814566929134
 20
9.846933070866141
 10
-26.38081102362205
 20
9.853767716535433
 10
-26.3838937007874
 20
9.85955905511811
 10
-26.38748425196851
 20
9.864496062992126
 10
-26.39167716535433
 20
9.868771653543307
 10
-26.39646850393701
 20
9.872385826771653
 10
-26.40185826771653
 20
9.87534251968504
 10
-26.40783858267717
 20
9.877637795275591
 10
-26.41441338582677
 20
9.879275590551181
 10
-26.42157874015748
 20
9.880259842519685
 10
-26.42933070866142
 20
9.880586614173229
 10
-26.43422834645669
 20
9.880448818897637
 10
-26.4390157480315
 20
9.880027559055119
 10
-26.4436968503937
 20
9.879330708661417
 10
-26.44826771653543
 20
9.878350393700787
 10
-26.45273228346457
 20
9.877090551181102
 10
-26.45708661417323
 20
9.875543307086614
 10
-26.46133464566929
 20
9.873712598425197
 10
-26.46546850393701
 20
9.87159842519685
 10
-26.46948031496063
 20
9.869236220472441
 10
-26.47327165354331
 20
9.866669291338583
 10
-26.47685039370079
 20
9.863889763779527
 10
-26.48021653543307
 20
9.860905511811024
 10
-26.48336614173228
 20
9.857708661417323
 10
-26.48630708661417
 20
9.854307086614174
 10
-26.48903937007874
 20
9.850696850393701
 10
-26.49155905511811
 20
9.846877952755905
 10
-26.49441732283465
 20
9.841448818897637
 10
-26.49680708661417
 20
9.835468503937008
 10
-26.49874015748032
 20
9.828929133858267
 10
-26.50022440944882
 20
9.821834645669291
 10
-26.50127559055118
 20
9.812818897637795
 10
-26.50203543307087
 20
9.800677165354331
 10
-26.5025
 20
9.785405511811023
 10
-26.50265354330709
 20
9.767
 10
-26.50265354330709
 20
9.633330708661417
  0
LWPOLYLINE
  5
7F
330
1F
100
AcDbEntity
  8
Layer 1
 62
     7
100
AcDbPolyline
 90
      157
 70
     1
 43
0.0
 10
-25.94791732283464
 20
9.633330708661417
 10
-26.01511811023622
 20
9.633330708661417
 10
-26.01511811023622
 20
9.92686220472441
 10
-25.95194094488189
 20
9.92686220472441
 10
-25.95194094488189
 20
9.878681102362204
 10
-25.94682283464567
 20
9.886110236220473
 10
-25.94153543307086
 20
9.893023622047243
 10
-25.93608267716536
 20
9.899417322834646
 10
-25.93045669291338
 20
9.905295275590552
 10
-25.92466929133858
 20
9.910649606299213
 10
-25.91870866141732
 20
9.915484251968504
 10
-25.91258267716535
 20
9.919795275590552
 10
-25.90629133858268
 20
9.923582677165355
 10
-25.89976771653543
 20
9.926889763779528
 10
-25.89295669291339
 20
9.929748031496063
 10
-25.88585826771654
 20
9.932165354330708
 10
-25.87847244094488
 20
9.934141732283464
 10
-25.8708031496063
 20
9.935673228346456
 10
-25.86284251968504
 20
9.936767716535433
 10
-25.85459448818898
 20
9.937425196850393
 10
-25.84605905511811
 20
9.937641732283465
 10
-25.83764566929134
 20
9.937417322834646
 10
-25.82959842519685
 20
9.936748031496062
 10
-25.82192125984252
 20
9.935629921259842
 10
-25.81461023622047
 20
9.93405905511811
 10
-25.80767322834646
 20
9.932043307086614
 10
-25.80111023622047
 20
9.929570866141733
 10
-25.79491732283465
 20
9.926649606299213
 10
-25.78910236220472
 20
9.923271653543306
 10
-25.78361023622047
 20
9.919429133858268
 10
-25.77846456692913
 20
9.915110236220473
 10
-25.77366141732283
 20
9.910322834645669
 10
-25.76920472440945
 20
9.90505905511811
 10
-25.76508661417323
 20
9.899326771653543
 10
-25.76130708661417
 20
9.893125984251968
 10
-25.75787007874016
 20
9.886452755905513
 10
-25.75477165354331
 20
9.879314960629921
 10
-25.74890157480315
 20
9.88666535433071
 10
-25.74294094488189
 20
9.8935
 10
-25.7368937007874
 20
9.899818897637795
 10
-25.73075590551181
 20
9.905622047244094
 10
-25.72452755905512
 20
9.910913385826772
 10
-25.7182125984252
 20
9.915688976377952
 10
-25.71181102362205
 20
9.919948818897637
 10
-25.7053188976378
 20
9.923692913385826
 10
-25.69866535433071
 20
9.92696062992126
 10
-25.6917874015748
 20
9.929795275590552
 10
-25.68467716535433
 20
9.932192913385826
 10
-25.67734251968504
 20
9.934153543307087
 10
-25.66977952755905
 20
9.935681102362205
 10
-25.66198818897638
 20
9.936771653543307
 10
-25.65396850393701
 20
9.937425196850393
 10
-25.64572047244095
 20
9.937641732283465
 10
-25.63858267716535
 20
9.937472440944882
 10
-25.63167322834646
 20
9.936968503937008
 10
-25.62499212598425
 20
9.936133858267716
 10
-25.61853937007874
 20
9.93496062992126
 10
-25.61231496062992
 20
9.93346062992126
 10
-25.60631496062992
 20
9.93162598425197
 10
-25.60054330708661
 20
9.929464566929134
 10
-25.595
 20
9.926972440944882
 10
-25.58972440944882
 20
9.924125984251969
 10
-25.58475590551181
 20
9.920984251968504
 10
-25.58009448818898
 20
9.917543307086614
 10
-25.57573228346457
 20
9.913799212598425
 10
-25.57167322834646
 20
9.909755905511812
 10
-25.56791732283465
 20
9.905409448818897
 10
-25.56446062992126
 20
9.900755905511812
 10
-25.56129921259842
 20
9.895795275590551
 10
-25.55864173228347
 20
9.890787401574803
 10
-25.55638188976378
 20
9.885287401574804
 10
-25.55451968503937
 20
9.879307086614173
 10
-25.55305118110236
 20
9.872870078740158
 10
-25.55188188976378
 20
9.8655
 10
-25.55105905511811
 20
9.856704724409449
 10
-25.55057086614173
 20
9.84648031496063
 10
-25.5504094488189
 20
9.834826771653542
 10
-25.5504094488189
 20
9.811267716535433
 10
-25.5504094488189
 20
9.633330708661417
 10
-25.61761023622047
 20
9.633330708661417
 10
-25.61761023622047
 20
9.784003937007874
 10
-25.61780708661417
 20
9.798157480314961
 10
-25.61840157480315
 20
9.811047244094489
 10
-25.61938976377953
 20
9.82267716535433
 10
-25.62076771653543
 20
9.833047244094487
 10
-25.62253937007874
 20
9.842153543307086
 10
-25.62470078740158
 20
9.849992125984253
 10
-25.62725196850394
 20
9.856566929133859
 10
-25.63018897637795
 20
9.861877952755906
 10
-25.63362598425197
 20
9.866263779527559
 10
-25.6376811023622
 20
9.870062992125984
 10
-25.64234645669291
 20
9.873279527559054
 10
-25.64762598425197
 20
9.875909448818897
 10
-25.65351968503937
 20
9.877956692913386
 10
-25.66002755905512
 20
9.879417322834646
 10
-25.66715354330709
 20
9.880295275590552
 10
-25.67488976377953
 20
9.880586614173229
 10
-25.68443700787402
 20
9.880188976377953
 10
-25.69327165354331
 20
9.879003937007875
 10
-25.7013937007874
 20
9.877027559055119
 10
-25.7088031496063
 20
9.874259842519685
 10
-25.7155
 20
9.87070472440945
 10
-25.7214842519685
 20
9.866366141732284
 10
-25.72675196850394
 20
9.861240157480315
 10
-25.73131102362205
 20
9.855330708661418
 10
-25.73528346456693
 20
9.848437007874015
 10
-25.73872047244095
 20
9.840354330708662
 10
-25.74162598425197
 20
9.831086614173229
 10
-25.74400393700788
 20
9.820633858267717
 10
-25.74584645669291
 20
9.808996062992126
 10
-25.74716141732284
 20
9.796177165354331
 10
-25.74794881889764
 20
9.78217716535433
 10
-25.7482125984252
 20
9.767
 10
-25.7482125984252
 20
9.633330708661417
 10
-25.81605118110236
 20
9.633330708661417
 10
-25.81605118110236
 20
9.784003937007874
 10
-25.81625590551181
 20
9.797110236220473
 10
-25.81686614173228
 20
9.809169291338582
 10
-25.81788582677165
 20
9.82017716535433
 10
-25.81931496062992
 20
9.830141732283465
 10
-25.82115354330709
 20
9.83905905511811
 10
-25.82340551181102
 20
9.846933070866141
 10
-25.82607086614173
 20
9.853767716535433
 10
-25.82915354330709
 20
9.85955905511811
 10
-25.83274409448819
 20
9.864496062992126
 10
-25.83693700787402
 20
9.868771653543307
 10
-25.84172834645669
 20
9.872385826771653
 10
-25.84711811023622
 20
9.87534251968504
 10
-25.85310236220472
 20
9.877637795275591
 10
-25.85967322834646
 20
9.879275590551181
 10
-25.86683858267716
 20
9.880259842519685
 10
-25.8745905511811
 20
9.880586614173229
 10
-25.87948818897638
 20
9.880448818897637
 10
-25.88427952755906
 20
9.880027559055119
 10
-25.88895669291339
 20
9.879330708661417
 10
-25.89353149606299
 20
9.878350393700787
 10
-25.89799212598425
 20
9.877090551181102
 10
-25.90234645669291
 20
9.875543307086614
 10
-25.90659448818898
 20
9.873712598425197
 10
-25.91072834645669
 20
9.87159842519685
 10
-25.91474015748031
 20
9.869236220472441
 10
-25.91853149606299
 20
9.866669291338583
 10
-25.92211417322835
 20
9.863889763779527
 10
-25.92547637795276
 20
9.860905511811024
 10
-25.92862992125984
 20
9.857708661417323
 10
-25.93157086614173
 20
9.854307086614174
 10
-25.9343031496063
 20
9.850696850393701
 10
-25.93682283464567
 20
9.846877952755905
 10
-25.9396811023622
 20
9.841448818897637
 10
-25.94207086614173
 20
9.835468503937008
 10
-25.94400393700787
 20
9.828929133858267
 10
-25.94548818897638
 20
9.821834645669291
 10
-25.94653937007874
 20
9.812818897637795
 10
-25.94729921259842
 20
9.800677165354331
 10
-25.94775984251968
 20
9.785405511811023
 10
-25.94791732283464
 20
9.767
 10
-25.94791732283464
 20
9.633330708661417
  0
LWPOLYLINE
  5
80
330
1F
100
AcDbEntity
  8
Layer 1
 62
     7
100
AcDbPolyline
 90
       67
 70
     1
 43
0.0
 10
-25.44262992125984
 20
9.495122047244095
 10
-25.49271653543307
 20
9.5115
 10
-25.48462992125984
 20
9.526826771653543
 10
-25.47708661417323
 20
9.542464566929134
 10
-25.47009448818898
 20
9.558413385826771
 10
-25.46364566929134
 20
9.574669291338582
 10
-25.45775196850394
 20
9.591240157480314
 10
-25.45240551181102
 20
9.608125984251968
 10
-25.44761417322835
 20
9.625322834645669
 10
-25.44337401574803
 20
9.642838582677165
 10
-25.43962598425197
 20
9.66073622047244
 10
-25.43638188976378
 20
9.679153543307086
 10
-25.43363779527559
 20
9.698102362204724
 10
-25.43139763779527
 20
9.717570866141733
 10
-25.42965748031496
 20
9.737566929133859
 10
-25.42841338582677
 20
9.758086614173228
 10
-25.42766929133858
 20
9.779133858267716
 10
-25.42742125984252
 20
9.80070472440945
 10
-25.42766929133858
 20
9.821354330708662
 10
-25.42841338582677
 20
9.84161811023622
 10
-25.42965748031496
 20
9.861503937007875
 10
-25.43139763779527
 20
9.88101968503937
 10
-25.43363779527559
 20
9.900157480314961
 10
-25.43638188976378
 20
9.918933070866142
 10
-25.43962598425197
 20
9.93734251968504
 10
-25.44337401574803
 20
9.955393700787402
 10
-25.44761417322835
 20
9.973133858267717
 10
-25.45240551181102
 20
9.9906968503937
 10
-25.45775196850394
 20
10.00808267716535
 10
-25.46364566929134
 20
10.0252874015748
 10
-25.47009448818898
 20
10.04231496062992
 10
-25.47708661417323
 20
10.05916535433071
 10
-25.48462992125984
 20
10.07583858267717
 10
-25.49271653543307
 20
10.09233070866142
 10
-25.44262992125984
 20
10.10755118110236
 10
-25.43353937007874
 20
10.09083464566929
 10
-25.42505511811024
 20
10.07381102362205
 10
-25.41717322834646
 20
10.05647637795276
 10
-25.40988976377953
 20
10.03883070866142
 10
-25.40320472440945
 20
10.02087401574803
 10
-25.39711811023622
 20
10.00260236220472
 10
-25.39162992125984
 20
9.98401968503937
 10
-25.38673228346457
 20
9.96511811023622
 10
-25.38246062992126
 20
9.945893700787401
 10
-25.37875590551181
 20
9.926267716535433
 10
-25.37561417322835
 20
9.90623622047244
 10
-25.37304330708661
 20
9.8858031496063
 10
-25.37103937007874
 20
9.864968503937009
 10
-25.3696062992126
 20
9.843732283464567
 10
-25.36874409448819
 20
9.822102362204724
 10
-25.36845669291339
 20
9.800070866141732
 10
-25.36874409448819
 20
9.77907874015748
 10
-25.3696062992126
 20
9.758346456692914
 10
-25.37104724409449
 20
9.737870078740157
 10
-25.37306692913386
 20
9.717649606299213
 10
-25.37566535433071
 20
9.697688976377952
 10
-25.37884251968504
 20
9.677984251968503
 10
-25.38260236220473
 20
9.65853937007874
 10
-25.38694488188976
 20
9.639350393700788
 10
-25.39183858267717
 20
9.620456692913386
 10
-25.39732677165354
 20
9.601811023622048
 10
-25.40340551181102
 20
9.583409448818898
 10
-25.41007480314961
 20
9.565259842519685
 10
-25.41733070866142
 20
9.54735433070866
 10
-25.42517716535433
 20
9.529696850393702
 10
-25.43361023622047
 20
9.512283464566929
 10
-25.44262992125984
 20
9.495122047244095
  0
LWPOLYLINE
  5
81
330
1F
100
AcDbEntity
  8
Layer 1
 62
     7
100
AcDbPolyline
 90
      147
 70
     1
 43
0.0
 10
-30.17053937007874
 20
9.68559842519685
 10
-30.24129921259842
 20
9.68559842519685
 10
-30.24974803149606
 20
9.670807086614174
 10
-30.25901574803149
 20
9.656763779527559
 10
-30.26910236220472
 20
9.643468503937008
 10
-30.28000787401575
 20
9.630917322834646
 10
-30.29172834645669
 20
9.619114173228347
 10
-30.30427165354331
 20
9.60805905511811
 10
-30.31763385826772
 20
9.597748031496064
 10
-30.33181102362205
 20
9.588185039370078
 10
-30.34657874015748
 20
9.579570866141733
 10
-30.36170472440945
 20
9.572106299212598
 10
-30.37718897637795
 20
9.565787401574804
 10
-30.39303543307087
 20
9.56061811023622
 10
-30.40923622047244
 20
9.556598425196851
 10
-30.42579921259842
 20
9.553728346456692
 10
-30.44272047244095
 20
9.552003937007875
 10
-30.46
 20
9.551429133858267
 10
-30.4852125984252
 20
9.552622047244094
 10
-30.50950787401575
 20
9.5561968503937
 10
-30.53288188976378
 20
9.562153543307087
 10
-30.55533858267717
 20
9.570496062992126
 10
-30.5768779527559
 20
9.581220472440945
 10
-30.59749606299212
 20
9.594330708661417
 10
-30.6171968503937
 20
9.60982283464567
 10
-30.63597637795275
 20
9.6276968503937
 10
-30.65266929133858
 20
9.646716535433072
 10
-30.66713385826772
 20
9.666669291338582
 10
-30.67937795275591
 20
9.687551181102362
 10
-30.6893937007874
 20
9.709370078740157
 10
-30.6971811023622
 20
9.732122047244095
 10
-30.70274409448819
 20
9.755807086614173
 10
-30.70608267716536
 20
9.78042125984252
 10
-30.7071968503937
 20
9.805972440944881
 10
-30.70608267716536
 20
9.831740157480315
 10
-30.70274409448819
 20
9.856543307086614
 10
-30.6971811023622
 20
9.880385826771654
 10
-30.6893937007874
 20
9.903267716535433
 10
-30.67937795275591
 20
9.92518503937008
 10
-30.66713385826772
 20
9.946141732283465
 10
-30.65266929133858
 20
9.966137795275591
 10
-30.63597637795275
 20
9.985169291338583
 10
-30.6274094488189
 20
9.993677165354331
 10
-30.61848818897638
 20
10.00173622047244
 10
-30.60920472440945
 20
10.00935433070866
 10
-30.59956299212599
 20
10.01652755905512
 10
-30.58956299212598
 20
10.02325196850394
 10
-30.57920078740158
 20
10.02953543307087
 10
-30.5684842519685
 20
10.03537007874016
 10
-30.55740551181102
 20
10.04076377952756
 10
-30.54617716535433
 20
10.04561023622047
 10
-30.53500787401575
 20
10.04980708661417
 10
-30.5238937007874
 20
10.05336220472441
 10
-30.51283858267717
 20
10.05626771653543
 10
-30.50183858267717
 20
10.05852755905512
 10
-30.49089763779527
 20
10.06014566929134
 10
-30.48001574803149
 20
10.06111417322835
 10
-30.46918897637795
 20
10.06143700787402
 10
-30.45855905511811
 20
10.0612874015748
 10
-30.44825590551181
 20
10.06083464566929
 10
-30.43828346456693
 20
10.06007874015748
 10
-30.42864173228346
 20
10.05902362204724
 10
-30.41933070866142
 20
10.05766929133858
 10
-30.41035039370079
 20
10.05600787401575
 10
-30.4016968503937
 20
10.05404724409449
 10
-30.39337795275591
 20
10.0517874015748
 10
-30.36905511811024
 20
10.04338582677165
 10
-30.34628346456693
 20
10.03300787401575
 10
-30.32506299212599
 20
10.02064566929134
 10
-30.30538976377953
 20
10.00629921259842
 10
-30.28727165354331
 20
9.989976377952756
 10
-30.27070078740158
 20
9.971669291338582
 10
-30.2556811023622
 20
9.951381889763779
 10
-30.2422125984252
 20
9.929110236220472
 10
-30.17145275590551
 20
9.929110236220472
 10
-30.18097244094488
 20
9.950858267716535
 10
-30.19184251968504
 20
9.971527559055119
 10
-30.20406299212598
 20
9.99111811023622
 10
-30.21763385826772
 20
10.00963385826772
 10
-30.23255118110236
 20
10.02707086614173
 10
-30.2488188976378
 20
10.04343307086614
 10
-30.26643307086614
 20
10.05871653543307
 10
-30.28540157480315
 20
10.07292519685039
 10
-30.3053188976378
 20
10.08574015748031
 10
-30.32577952755906
 20
10.09684645669291
 10
-30.3467874015748
 20
10.10624409448819
 10
-30.36833858267716
 20
10.11393307086614
 10
-30.39043700787402
 20
10.1199094488189
 10
-30.41307874015748
 20
10.1241811023622
 10
-30.43626771653543
 20
10.12674409448819
 10
-30.46
 20
10.12759842519685
 10
-30.49185433070866
 20
10.1261062992126
 10
-30.52251574803149
 20
10.12162598425197
 10
-30.55198818897638
 20
10.11416141732284
 10
-30.58026377952756
 20
10.10370866141732
 10
-30.60735433070866
 20
10.09026771653543
 10
-30.63324803149606
 20
10.07384251968504
 10
-30.65795275590551
 20
10.05442913385827
 10
-30.68146456692913
 20
10.03202755905512
 10
-30.69174409448819
 20
10.02077952755906
 10
-30.70145275590551
 20
10.00908661417323
 10
-30.71058267716536
 20
9.996944881889764
 10
-30.71914173228346
 20
9.984362204724409
 10
-30.72712598425197
 20
9.971330708661418
 10
-30.73453149606299
 20
9.957858267716535
 10
-30.74136614173228
 20
9.943937007874016
 10
-30.74762598425197
 20
9.929570866141733
 10
-30.75322440944882
 20
9.914874015748032
 10
-30.75807874015748
 20
9.899964566929134
 10
-30.76218897637795
 20
9.884838582677165
 10
-30.76554724409449
 20
9.869496062992125
 10
-30.76816141732283
 20
9.853937007874016
 10
-30.77003149606299
 20
9.838165354330709
 10
-30.77114960629921
 20
9.822177165354331
 10
-30.77152362204724
 20
9.805972440944881
 10
-30.77011811023622
 20
9.773759842519684
 10
-30.7658937007874
 20
9.742712598425197
 10
-30.75885826771654
 20
9.712826771653543
 10
-30.74900787401575
 20
9.684106299212598
 10
-30.73634251968504
 20
9.656543307086615
 10
-30.72086220472441
 20
9.63014566929134
 10
-30.70257086614173
 20
9.604909448818898
 10
-30.68146456692913
 20
9.580838582677165
 10
-30.65795275590551
 20
9.55844094488189
 10
-30.63324803149606
 20
9.539027559055118
 10
-30.60735433070866
 20
9.522602362204724
 10
-30.58026377952756
 20
9.509161417322835
 10
-30.55198818897638
 20
9.498708661417323
 10
-30.52251574803149
 20
9.491240157480314
 10
-30.49185433070866
 20
9.486759842519685
 10
-30.46
 20
9.485267716535432
 10
-30.43635039370079
 20
9.48613779527559
 10
-30.41319291338583
 20
9.488740157480315
 10
-30.39051968503937
 20
9.493086614173228
 10
-30.36833858267716
 20
9.499165354330708
 10
-30.34664173228347
 20
9.506984251968504
 10
-30.32543700787402
 20
9.51653937007874
 10
-30.30471653543307
 20
9.527830708661417
 10
-30.28448818897638
 20
9.540862204724409
 10
-30.26537007874016
 20
9.555185039370079
 10
-30.24764566929134
 20
9.570586614173228
 10
-30.23131102362205
 20
9.587062992125984
 10
-30.21637007874016
 20
9.604614173228347
 10
-30.20282283464567
 20
9.62324409448819
 10
-30.19066929133858
 20
9.642952755905512
 10
-30.17990551181103
 20
9.66373622047244
 10
-30.17053937007874
 20
9.68559842519685
  0
LWPOLYLINE
  5
82
330
1F
100
AcDbEntity
  8
Layer 1
 62
     7
100
AcDbPolyline
 90
       68
 70
     1
 43
0.0
 10
-29.58885826771654
 20
9.806893700787402
 10
-29.58925196850394
 20
9.823728346456694
 10
-29.59043700787402
 20
9.840232283464568
 10
-29.5924094488189
 20
9.856409448818898
 10
-29.59517322834646
 20
9.872251968503937
 10
-29.59872834645669
 20
9.887767716535434
 10
-29.60307086614173
 20
9.902948818897638
 10
-29.60820472440945
 20
9.9178031496063
 10
-29.61412992125984
 20
9.932326771653543
 10
-29.62072834645669
 20
9.946433070866142
 10
-29.62788582677165
 20
9.96003937007874
 10
-29.63560236220473
 20
9.973141732283464
 10
-29.6438779527559
 20
9.985744094488188
 10
-29.65271653543307
 20
9.997838582677165
 10
-29.66211417322835
 20
10.00943307086614
 10
-29.67207086614173
 20
10.02052362204724
 10
-29.68258661417323
 20
10.03111417322835
 10
-29.69362992125984
 20
10.04117322834646
 10
-29.70515748031496
 20
10.05066929133858
 10
-29.71717716535433
 20
10.05961023622047
 10
-29.7296811023622
 20
10.06798818897638
 10
-29.74267716535433
 20
10.07580708661417
 10
-29.75615748031496
 20
10.08306299212598
 10
-29.77012598425197
 20
10.08976377952756
 10
-29.78458661417323
 20
10.09590157480315
 10
-29.79942125984252
 20
10.1013937007874
 10
-29.81451181102362
 20
10.10615354330709
 10
-29.82986220472441
 20
10.1101811023622
 10
-29.84546850393701
 20
10.11347637795276
 10
-29.86133464566929
 20
10.11603543307087
 10
-29.87746062992126
 20
10.11786614173228
 10
-29.89384251968504
 20
10.11896456692913
 10
-29.91048425196851
 20
10.11933070866142
 10
-30.07405511811024
 20
10.11933070866142
 10
-30.07405511811024
 20
9.494456692913387
 10
-29.91048425196851
 20
9.494456692913387
 10
-29.89384251968504
 20
9.49482283464567
 10
-29.87746062992126
 20
9.49592125984252
 10
-29.86133464566929
 20
9.497751968503938
 10
-29.84546850393701
 20
9.500314960629922
 10
-29.82986220472441
 20
9.5036062992126
 10
-29.81451181102362
 20
9.507633858267717
 10
-29.79942125984252
 20
9.5123937007874
 10
-29.78458661417323
 20
9.517885826771654
 10
-29.77012598425197
 20
9.524023622047244
 10
-29.75615748031496
 20
9.530724409448819
 10
-29.74267716535433
 20
9.53798031496063
 10
-29.7296811023622
 20
9.545799212598425
 10
-29.71717716535433
 20
9.55417716535433
 10
-29.70515748031496
 20
9.563118110236221
 10
-29.69362992125984
 20
9.572614173228347
 10
-29.68258661417323
 20
9.582673228346456
 10
-29.67207086614173
 20
9.59326377952756
 10
-29.66211417322835
 20
9.604354330708661
 10
-29.65271653543307
 20
9.615948818897637
 10
-29.6438779527559
 20
9.628047244094487
 10
-29.63560236220473
 20
9.640645669291338
 10
-29.62788582677165
 20
9.653748031496063
 10
-29.62072834645669
 20
9.667354330708662
 10
-29.61412992125984
 20
9.68146062992126
 10
-29.60820472440945
 20
9.695984251968504
 10
-29.60307086614173
 20
9.710838582677166
 10
-29.59872834645669
 20
9.72601968503937
 10
-29.59517322834646
 20
9.741535433070867
 10
-29.5924094488189
 20
9.757377952755906
 10
-29.59043700787402
 20
9.773555118110236
 10
-29.58925196850394
 20
9.79005905511811
 10
-29.58885826771654
 20
9.806893700787402
  0
LWPOLYLINE
  5
83
330
1F
100
AcDbEntity
  8
Layer 1
 62
     7
100
AcDbPolyline
 90
       36
 70
     1
 43
0.0
 10
-29.65134645669291
 20
9.806893700787402
 10
-29.65252362204724
 20
9.780740157480315
 10
-29.65605511811023
 20
9.755688976377952
 10
-29.66194094488189
 20
9.731748031496062
 10
-29.67018503937008
 20
9.708909448818897
 10
-29.68077952755905
 20
9.687177165354331
 10
-29.69372834645669
 20
9.666551181102362
 10
-29.70903543307087
 20
9.647031496062992
 10
-29.7266968503937
 20
9.62861811023622
 10
-29.74566929133858
 20
9.612251968503937
 10
-29.76572047244094
 20
9.598066929133859
 10
-29.78685039370079
 20
9.586062992125985
 10
-29.80905511811024
 20
9.576244094488189
 10
-29.83233858267717
 20
9.568602362204725
 10
-29.8566968503937
 20
9.563149606299213
 10
-29.88213385826772
 20
9.559874015748031
 10
-29.90864566929134
 20
9.558783464566929
 10
-30.00972834645669
 20
9.558783464566929
 10
-30.00972834645669
 20
10.05500393700787
 10
-29.90864566929134
 20
10.05500393700787
 10
-29.88213385826772
 20
10.05391338582677
 10
-29.8566968503937
 20
10.05063779527559
 10
-29.83233858267717
 20
10.04518503937008
 10
-29.80905511811024
 20
10.03754330708661
 10
-29.78685039370079
 20
10.02772440944882
 10
-29.76572047244094
 20
10.01572047244094
 10
-29.74566929133858
 20
10.00153543307087
 10
-29.7266968503937
 20
9.985169291338583
 10
-29.70903543307087
 20
9.96675590551181
 10
-29.69372834645669
 20
9.947232283464567
 10
-29.68077952755905
 20
9.9266062992126
 10
-29.67018503937008
 20
9.904877952755905
 10
-29.66194094488189
 20
9.88203937007874
 10
-29.65605511811023
 20
9.85809842519685
 10
-29.65252362204724
 20
9.833047244094487
 10
-29.65134645669291
 20
9.806893700787402
  0
LWPOLYLINE
  5
84
330
1F
100
AcDbEntity
  8
Layer 1
 62
     7
100
AcDbPolyline
 90
      113
 70
     1
 43
0.0
 10
-29.24011811023622
 20
10.04673622047244
 10
-29.22950787401575
 20
10.03952755905512
 10
-29.21961417322835
 20
10.03134251968504
 10
-29.21044094488189
 20
10.02218503937008
 10
-29.2019842519685
 20
10.01204724409449
 10
-29.19424409448819
 20
10.00093307086614
 10
-29.18722440944882
 20
9.98884251968504
 10
-29.18092125984252
 20
9.975775590551182
 10
-29.17533858267717
 20
9.961732283464567
 10
-29.1690905511811
 20
9.943102362204725
 10
-29.16367716535433
 20
9.924200787401574
 10
-29.15909842519685
 20
9.905023622047244
 10
-29.15535039370079
 20
9.88557874015748
 10
-29.15243307086614
 20
9.865858267716536
 10
-29.15035039370079
 20
9.84586220472441
 10
-29.14910236220473
 20
9.82559842519685
 10
-29.14868503937008
 20
9.805059055118111
 10
-29.14885826771653
 20
9.79498031496063
 10
-29.14937401574803
 20
9.784039370078741
 10
-29.15023622047244
 20
9.772232283464566
 10
-29.15144094488189
 20
9.75956692913386
 10
-29.15462992125984
 20
9.73486220472441
 10
-29.15879527559055
 20
9.711523622047244
 10
-29.16393307086614
 20
9.689551181102361
 10
-29.17005118110236
 20
9.668937007874016
 10
-29.17714173228346
 20
9.649688976377952
 10
-29.1852125984252
 20
9.631807086614174
 10
-29.19425590551181
 20
9.615287401574804
 10
-29.20427952755906
 20
9.600129921259843
 10
-29.21342519685039
 20
9.58871653543307
 10
-29.22306299212599
 20
9.578822834645669
 10
-29.23318503937008
 20
9.570452755905512
 10
-29.24379527559055
 20
9.563602362204724
 10
-29.2548937007874
 20
9.558275590551181
 10
-29.2664842519685
 20
9.554472440944881
 10
-29.27855905511811
 20
9.552188976377952
 10
-29.29112204724409
 20
9.551429133858267
 10
-29.30514173228346
 20
9.552181102362205
 10
-29.31848818897638
 20
9.554444881889763
 10
-29.33115748031496
 20
9.558212598425197
 10
-29.34315354330709
 20
9.563492125984252
 10
-29.35447637795276
 20
9.570275590551182
 10
-29.3651220472441
 20
9.578566929133858
 10
-29.37509448818898
 20
9.588370078740157
 10
-29.38438976377953
 20
9.599677165354331
 10
-29.38832283464567
 20
9.605161417322835
 10
-29.39208661417323
 20
9.610818897637795
 10
-29.39567716535433
 20
9.616645669291339
 10
-29.39909448818898
 20
9.62264566929134
 10
-29.40233858267716
 20
9.62882283464567
 10
-29.40541338582677
 20
9.63516535433071
 10
-29.40831496062992
 20
9.64168503937008
 10
-29.41104330708662
 20
9.648377952755906
 10
-29.41601181102362
 20
9.662015748031497
 10
-29.42034645669291
 20
9.675830708661417
 10
-29.42404724409449
 20
9.68981496062992
 10
-29.42711811023622
 20
9.703976377952756
 10
-29.42967322834646
 20
9.718102362204725
 10
-29.43183070866142
 20
9.732003937007875
 10
-29.43358267716535
 20
9.745673228346456
 10
-29.43493307086614
 20
9.759110236220472
 10
-29.43547244094488
 20
9.76590157480315
 10
-29.43593700787402
 20
9.772948818897637
 10
-29.43633070866142
 20
9.780248031496063
 10
-29.43665354330709
 20
9.7878031496063
 10
-29.43690551181102
 20
9.795610236220472
 10
-29.43708661417323
 20
9.803669291338583
 10
-29.43719291338583
 20
9.811972440944881
 10
-29.43722834645669
 20
9.820523622047244
 10
-29.43707086614173
 20
9.829452755905512
 10
-29.43659842519685
 20
9.838905511811024
 10
-29.43580708661417
 20
9.84887401574803
 10
-29.43470078740157
 20
9.859366141732284
 10
-29.43327952755905
 20
9.870385826771653
 10
-29.43154330708661
 20
9.881925196850394
 10
-29.42948818897638
 20
9.893996062992127
 10
-29.42711811023622
 20
9.906594488188976
 10
-29.42407874015748
 20
9.920582677165354
 10
-29.42046062992126
 20
9.934507874015749
 10
-29.41626771653543
 20
9.948377952755905
 10
-29.41149606299212
 20
9.962192913385827
 10
-29.4088779527559
 20
9.969
 10
-29.40607086614173
 20
9.975633858267717
 10
-29.40307874015748
 20
9.982094488188977
 10
-29.39989763779528
 20
9.98838188976378
 10
-29.39653149606299
 20
9.9945
 10
-29.39297637795276
 20
10.00044488188976
 10
-29.38923622047244
 20
10.00621653543307
 10
-29.38531102362205
 20
10.01181496062992
 10
-29.38118897637795
 20
10.01719291338583
 10
-29.37686614173228
 20
10.02229527559055
 10
-29.37234251968504
 20
10.02712598425197
 10
-29.36761811023622
 20
10.03168503937008
 10
-29.36269291338583
 20
10.03597244094488
 10
-29.35756692913386
 20
10.03998818897638
 10
-29.35224409448819
 20
10.04372834645669
 10
-29.34671653543307
 20
10.0471968503937
 10
-29.34096062992126
 20
10.0503188976378
 10
-29.33494488188976
 20
10.05302362204724
 10
-29.32866929133858
 20
10.05531496062992
 10
-29.32213385826772
 20
10.05718897637795
 10
-29.31534251968504
 20
10.05864173228346
 10
-29.30829133858268
 20
10.05968503937008
 10
-29.3009842519685
 20
10.06030708661417
 10
-29.29341732283465
 20
10.0605157480315
 10
-29.28585039370079
 20
10.06029921259842
 10
-29.27854330708661
 20
10.05965354330709
 10
-29.27149212598425
 20
10.05857874015748
 10
-29.26470078740158
 20
10.05707086614173
 10
-29.25816535433071
 20
10.05513385826772
 10
-29.25188976377953
 20
10.05276771653543
 10
-29.24587401574803
 20
10.04996850393701
 10
-29.24011811023622
 20
10.04673622047244
  0
LWPOLYLINE
  5
85
330
1F
100
AcDbEntity
  8
Layer 1
 62
     7
100
AcDbPolyline
 90
       65
 70
     1
 43
0.0
 10
-29.29020078740157
 20
9.486188976377953
 10
-29.26337007874016
 20
9.487889763779528
 10
-29.23825196850394
 20
9.492996062992127
 10
-29.21484251968504
 20
9.5015
 10
-29.19313779527559
 20
9.513409448818898
 10
-29.17314566929134
 20
9.528724409448818
 10
-29.15485826771653
 20
9.547437007874017
 10
-29.13827952755906
 20
9.569559055118111
 10
-29.1234094488189
 20
9.595078740157481
 10
-29.11296456692913
 20
9.617350393700788
 10
-29.10391338582677
 20
9.640854330708661
 10
-29.09625196850394
 20
9.665594488188976
 10
-29.08998818897638
 20
9.691566929133858
 10
-29.08511417322835
 20
9.71877559055118
 10
-29.08162992125984
 20
9.747220472440945
 10
-29.07954330708661
 20
9.77690157480315
 10
-29.07884645669292
 20
9.807814960629921
 10
-29.07954330708661
 20
9.838728346456692
 10
-29.08162992125984
 20
9.868405511811023
 10
-29.08511417322835
 20
9.896846456692913
 10
-29.08998818897638
 20
9.924055118110235
 10
-29.09625196850394
 20
9.950031496062993
 10
-29.10391338582677
 20
9.974767716535434
 10
-29.11296456692913
 20
9.998271653543307
 10
-29.1234094488189
 20
10.02054330708661
 10
-29.13827952755906
 20
10.04606692913386
 10
-29.15485826771653
 20
10.06818897637795
 10
-29.17314566929134
 20
10.08690551181102
 10
-29.19313779527559
 20
10.10221653543307
 10
-29.21484251968504
 20
10.11412992125984
 10
-29.23825196850394
 20
10.12263385826772
 10
-29.26337007874016
 20
10.12774015748031
 10
-29.29020078740157
 20
10.12944094488189
 10
-29.31703149606299
 20
10.12774015748031
 10
-29.34214960629921
 20
10.12263385826772
 10
-29.36555905511811
 20
10.11412992125984
 10
-29.38726377952756
 20
10.10221653543307
 10
-29.40725590551181
 20
10.08690551181102
 10
-29.42554330708661
 20
10.06818897637795
 10
-29.44211811023622
 20
10.04606692913386
 10
-29.45698818897638
 20
10.02054330708661
 10
-29.46743307086614
 20
9.998271653543307
 10
-29.47648818897638
 20
9.974767716535434
 10
-29.48414566929134
 20
9.950031496062993
 10
-29.49041338582677
 20
9.924055118110235
 10
-29.4952874015748
 20
9.896846456692913
 10
-29.49877165354331
 20
9.868405511811023
 10
-29.50085826771653
 20
9.838728346456692
 10
-29.50155511811024
 20
9.807814960629921
 10
-29.50085826771653
 20
9.77690157480315
 10
-29.49877165354331
 20
9.747220472440945
 10
-29.4952874015748
 20
9.71877559055118
 10
-29.49041338582677
 20
9.691566929133858
 10
-29.48414566929134
 20
9.665594488188976
 10
-29.47648818897638
 20
9.640854330708661
 10
-29.46743307086614
 20
9.617350393700788
 10
-29.45698818897638
 20
9.595078740157481
 10
-29.44211811023622
 20
9.569559055118111
 10
-29.42554330708661
 20
9.547437007874017
 10
-29.40725590551181
 20
9.528724409448818
 10
-29.38726377952756
 20
9.513409448818898
 10
-29.36555905511811
 20
9.5015
 10
-29.34214960629921
 20
9.492996062992127
 10
-29.31703149606299
 20
9.487889763779528
 10
-29.29020078740157
 20
9.486188976377953
  0
LWPOLYLINE
  5
86
330
1F
100
AcDbEntity
  8
Layer 1
 62
     7
100
AcDbPolyline
 90
      113
 70
     1
 43
0.0
 10
-28.7255157480315
 20
10.04673622047244
 10
-28.71490551181102
 20
10.03952755905512
 10
-28.70501181102362
 20
10.03134251968504
 10
-28.69583858267717
 20
10.02218503937008
 10
-28.68738188976378
 20
10.01204724409449
 10
-28.67964173228346
 20
10.00093307086614
 10
-28.67262204724409
 20
9.98884251968504
 10
-28.66631889763779
 20
9.975775590551182
 10
-28.66073622047244
 20
9.961732283464567
 10
-28.65448818897638
 20
9.943102362204725
 10
-28.64907480314961
 20
9.924200787401574
 10
-28.64449606299213
 20
9.905023622047244
 10
-28.64074803149606
 20
9.88557874015748
 10
-28.63783070866142
 20
9.865858267716536
 10
-28.63574803149606
 20
9.84586220472441
 10
-28.6345
 20
9.82559842519685
 10
-28.63408267716536
 20
9.805059055118111
 10
-28.63425590551181
 20
9.79498031496063
 10
-28.63477165354331
 20
9.784039370078741
 10
-28.63563385826772
 20
9.772232283464566
 10
-28.63683858267716
 20
9.75956692913386
 10
-28.64002755905512
 20
9.73486220472441
 10
-28.64419291338583
 20
9.711523622047244
 10
-28.64933070866142
 20
9.689551181102361
 10
-28.65544881889764
 20
9.668937007874016
 10
-28.66253937007874
 20
9.649688976377952
 10
-28.67061023622047
 20
9.631807086614174
 10
-28.67965354330709
 20
9.615287401574804
 10
-28.68967716535433
 20
9.600129921259843
 10
-28.69882283464567
 20
9.58871653543307
 10
-28.70846062992126
 20
9.578822834645669
 10
-28.71858267716535
 20
9.570452755905512
 10
-28.72919291338583
 20
9.563602362204724
 10
-28.74029133858268
 20
9.558275590551181
 10
-28.75188188976378
 20
9.554472440944881
 10
-28.76395669291339
 20
9.552188976377952
 10
-28.77651968503937
 20
9.551429133858267
 10
-28.79053937007874
 20
9.552181102362205
 10
-28.80388582677165
 20
9.554444881889763
 10
-28.81655905511811
 20
9.558212598425197
 10
-28.82855511811024
 20
9.563492125984252
 10
-28.83987401574803
 20
9.570275590551182
 10
-28.85051968503937
 20
9.578566929133858
 10
-28.86049212598425
 20
9.588370078740157
 10
-28.8697874015748
 20
9.599677165354331
 10
-28.87372047244094
 20
9.605161417322835
 10
-28.8774842519685
 20
9.610818897637795
 10
-28.88107480314961
 20
9.616645669291339
 10
-28.88449212598425
 20
9.62264566929134
 10
-28.88774015748032
 20
9.62882283464567
 10
-28.89081102362205
 20
9.63516535433071
 10
-28.8937125984252
 20
9.64168503937008
 10
-28.89644094488189
 20
9.648377952755906
 10
-28.9014094488189
 20
9.662015748031497
 10
-28.90574409448819
 20
9.675830708661417
 10
-28.90944488188977
 20
9.68981496062992
 10
-28.9125157480315
 20
9.703976377952756
 10
-28.91507086614173
 20
9.718102362204725
 10
-28.91722834645669
 20
9.732003937007875
 10
-28.91898031496063
 20
9.745673228346456
 10
-28.92033070866142
 20
9.759110236220472
 10
-28.92087007874016
 20
9.76590157480315
 10
-28.92133858267717
 20
9.772948818897637
 10
-28.92173228346457
 20
9.780248031496063
 10
-28.92205511811024
 20
9.7878031496063
 10
-28.9223031496063
 20
9.795610236220472
 10
-28.92248425196851
 20
9.803669291338583
 10
-28.9225905511811
 20
9.811972440944881
 10
-28.92262598425197
 20
9.820523622047244
 10
-28.92246850393701
 20
9.829452755905512
 10
-28.92199606299213
 20
9.838905511811024
 10
-28.92120472440945
 20
9.84887401574803
 10
-28.92009842519685
 20
9.859366141732284
 10
-28.91867716535433
 20
9.870385826771653
 10
-28.91694094488189
 20
9.881925196850394
 10
-28.91488582677165
 20
9.893996062992127
 10
-28.9125157480315
 20
9.906594488188976
 10
-28.90947637795276
 20
9.920582677165354
 10
-28.90585826771654
 20
9.934507874015749
 10
-28.90166535433071
 20
9.948377952755905
 10
-28.8968937007874
 20
9.962192913385827
 10
-28.89427559055118
 20
9.969
 10
-28.89146850393701
 20
9.975633858267717
 10
-28.88847637795276
 20
9.982094488188977
 10
-28.88529527559055
 20
9.98838188976378
 10
-28.88192913385827
 20
9.9945
 10
-28.87837401574803
 20
10.00044488188976
 10
-28.87463385826772
 20
10.00621653543307
 10
-28.87070866141732
 20
10.01181496062992
 10
-28.86658661417323
 20
10.01719291338583
 10
-28.86226771653543
 20
10.02229527559055
 10
-28.85774409448819
 20
10.02712598425197
 10
-28.85301968503937
 20
10.03168503937008
 10
-28.84809448818898
 20
10.03597244094488
 10
-28.84296850393701
 20
10.03998818897638
 10
-28.83764173228347
 20
10.04372834645669
 10
-28.83211417322835
 20
10.0471968503937
 10
-28.82635826771654
 20
10.0503188976378
 10
-28.82034251968504
 20
10.05302362204724
 10
-28.81406692913386
 20
10.05531496062992
 10
-28.80753149606299
 20
10.05718897637795
 10
-28.80074015748032
 20
10.05864173228346
 10
-28.79368897637795
 20
10.05968503937008
 10
-28.78638188976378
 20
10.06030708661417
 10
-28.77881496062992
 20
10.0605157480315
 10
-28.77124803149606
 20
10.06029921259842
 10
-28.76394094488189
 20
10.05965354330709
 10
-28.75688976377953
 20
10.05857874015748
 10
-28.75009842519685
 20
10.05707086614173
 10
-28.74356299212598
 20
10.05513385826772
 10
-28.7372874015748
 20
10.05276771653543
 10
-28.73127165354331
 20
10.04996850393701
 10
-28.7255157480315
 20
10.04673622047244
  0
LWPOLYLINE
  5
87
330
1F
100
AcDbEntity
  8
Layer 1
 62
     7
100
AcDbPolyline
 90
       65
 70
     1
 43
0.0
 10
-28.77559842519685
 20
9.486188976377953
 10
-28.74876771653543
 20
9.487889763779528
 10
-28.72364960629921
 20
9.492996062992127
 10
-28.70024015748032
 20
9.5015
 10
-28.67853543307087
 20
9.513409448818898
 10
-28.65854330708661
 20
9.528724409448818
 10
-28.64025590551181
 20
9.547437007874017
 10
-28.62368110236221
 20
9.569559055118111
 10
-28.60881102362205
 20
9.595078740157481
 10
-28.59836614173228
 20
9.617350393700788
 10
-28.58931102362205
 20
9.640854330708661
 10
-28.58165354330709
 20
9.665594488188976
 10
-28.57538582677165
 20
9.691566929133858
 10
-28.57051181102362
 20
9.71877559055118
 10
-28.56702755905512
 20
9.747220472440945
 10
-28.56494094488189
 20
9.77690157480315
 10
-28.56424409448819
 20
9.807814960629921
 10
-28.56494094488189
 20
9.838728346456692
 10
-28.56702755905512
 20
9.868405511811023
 10
-28.57051181102362
 20
9.896846456692913
 10
-28.57538582677165
 20
9.924055118110235
 10
-28.58165354330709
 20
9.950031496062993
 10
-28.58931102362205
 20
9.974767716535434
 10
-28.59836614173228
 20
9.998271653543307
 10
-28.60881102362205
 20
10.02054330708661
 10
-28.62368110236221
 20
10.04606692913386
 10
-28.64025590551181
 20
10.06818897637795
 10
-28.65854330708661
 20
10.08690551181102
 10
-28.67853543307087
 20
10.10221653543307
 10
-28.70024015748032
 20
10.11412992125984
 10
-28.72364960629921
 20
10.12263385826772
 10
-28.74876771653543
 20
10.12774015748031
 10
-28.77559842519685
 20
10.12944094488189
 10
-28.80242913385827
 20
10.12774015748031
 10
-28.82754724409449
 20
10.12263385826772
 10
-28.85095669291339
 20
10.11412992125984
 10
-28.87266141732283
 20
10.10221653543307
 10
-28.89265354330709
 20
10.08690551181102
 10
-28.91094094488189
 20
10.06818897637795
 10
-28.9275157480315
 20
10.04606692913386
 10
-28.94238582677165
 20
10.02054330708661
 10
-28.95283070866142
 20
9.998271653543307
 10
-28.96188582677165
 20
9.974767716535434
 10
-28.96954330708661
 20
9.950031496062993
 10
-28.97581102362205
 20
9.924055118110235
 10
-28.98068503937008
 20
9.896846456692913
 10
-28.98416929133858
 20
9.868405511811023
 10
-28.98625590551181
 20
9.838728346456692
 10
-28.98695275590551
 20
9.807814960629921
 10
-28.98625590551181
 20
9.77690157480315
 10
-28.98416929133858
 20
9.747220472440945
 10
-28.98068503937008
 20
9.71877559055118
 10
-28.97581102362205
 20
9.691566929133858
 10
-28.96954330708661
 20
9.665594488188976
 10
-28.96188582677165
 20
9.640854330708661
 10
-28.95283070866142
 20
9.617350393700788
 10
-28.94238582677165
 20
9.595078740157481
 10
-28.9275157480315
 20
9.569559055118111
 10
-28.91094094488189
 20
9.547437007874017
 10
-28.89265354330709
 20
9.528724409448818
 10
-28.87266141732283
 20
9.513409448818898
 10
-28.85095669291339
 20
9.5015
 10
-28.82754724409449
 20
9.492996062992127
 10
-28.80242913385827
 20
9.487889763779528
 10
-28.77559842519685
 20
9.486188976377953
  0
LWPOLYLINE
  5
88
330
1F
100
AcDbEntity
  8
Layer 1
 62
     7
100
AcDbPolyline
 90
       73
 70
     1
 43
0.0
 10
-28.28167322834646
 20
9.835381889763779
 10
-28.2670157480315
 20
9.834708661417324
 10
-28.25290157480315
 20
9.832681102362205
 10
-28.23933070866142
 20
9.829307086614174
 10
-28.22631102362205
 20
9.824582677165354
 10
-28.21383070866142
 20
9.818511811023622
 10
-28.20190157480315
 20
9.81108661417323
 10
-28.1905157480315
 20
9.802314960629921
 10
-28.17967322834646
 20
9.792192913385827
 10
-28.16987401574803
 20
9.781251968503938
 10
-28.16138188976378
 20
9.769791338582678
 10
-28.15419291338583
 20
9.757818897637796
 10
-28.14831496062992
 20
9.745326771653543
 10
-28.14374015748032
 20
9.732314960629921
 10
-28.14047244094488
 20
9.718791338582678
 10
-28.13851181102362
 20
9.704748031496063
 10
-28.13785826771653
 20
9.690188976377954
 10
-28.13851968503937
 20
9.67596062992126
 10
-28.1405
 20
9.662220472440945
 10
-28.1438031496063
 20
9.648964566929134
 10
-28.14842519685039
 20
9.636200787401576
 10
-28.15437007874016
 20
9.623925196850394
 10
-28.16163779527559
 20
9.61213779527559
 10
-28.17022440944882
 20
9.600838582677165
 10
-28.18012992125984
 20
9.590027559055118
 10
-28.19076771653543
 20
9.580334645669291
 10
-28.20201181102362
 20
9.571937007874016
 10
-28.21385826771654
 20
9.564826771653543
 10
-28.22630708661417
 20
9.559011811023622
 10
-28.23935826771654
 20
9.554488188976379
 10
-28.25301181102362
 20
9.551259842519684
 10
-28.26726771653543
 20
9.549318897637795
 10
-28.28212992125984
 20
9.548673228346457
 10
-28.29670472440945
 20
9.54934251968504
 10
-28.31079133858268
 20
9.551346456692913
 10
-28.32438976377953
 20
9.554685039370078
 10
-28.3375
 20
9.559358267716535
 10
-28.3501220472441
 20
9.565366141732284
 10
-28.36225590551181
 20
9.572708661417323
 10
-28.37389763779527
 20
9.581389763779528
 10
-28.38505511811024
 20
9.59140157480315
 10
-28.39517716535433
 20
9.602236220472442
 10
-28.40394881889764
 20
9.61359842519685
 10
-28.41137007874016
 20
9.625496062992125
 10
-28.41744488188976
 20
9.637925196850393
 10
-28.42216929133858
 20
9.65088188976378
 10
-28.42553937007874
 20
9.664374015748031
 10
-28.42756692913386
 20
9.678393700787401
 10
-28.42824015748031
 20
9.692944881889764
 10
-28.42756692913386
 20
9.707425196850394
 10
-28.42553937007874
 20
9.721346456692913
 10
-28.42216929133858
 20
9.734708661417322
 10
-28.41744488188976
 20
9.747507874015747
 10
-28.41137007874016
 20
9.759748031496063
 10
-28.40394881889764
 20
9.771429133858268
 10
-28.39517716535433
 20
9.782547244094488
 10
-28.38505511811024
 20
9.793106299212598
 10
-28.37990157480315
 20
9.797807086614172
 10
-28.37454724409449
 20
9.802267716535432
 10
-28.36898818897638
 20
9.80648031496063
 10
-28.36323228346457
 20
9.810452755905512
 10
-28.35727165354331
 20
9.81417716535433
 10
-28.35111417322835
 20
9.81765748031496
 10
-28.34475196850394
 20
9.820897637795275
 10
-28.33818897637795
 20
9.823889763779528
 10
-28.33147637795276
 20
9.826582677165355
 10
-28.32466141732283
 20
9.828917322834645
 10
-28.31774803149606
 20
9.830893700787401
 10
-28.31073622047244
 20
9.832511811023622
 10
-28.30361811023622
 20
9.833767716535434
 10
-28.29640551181102
 20
9.834665354330708
 10
-28.2890905511811
 20
9.835200787401575
 10
-28.28167322834646
 20
9.835381889763779
  0
LWPOLYLINE
  5
89
330
1F
100
AcDbEntity
  8
Layer 1
 62
     7
100
AcDbPolyline
 90
       69
 70
     1
 43
0.0
 10
-28.07261811023622
 20
9.694787401574803
 10
-28.07362204724409
 20
9.716913385826771
 10
-28.07663779527559
 20
9.738031496062993
 10
-28.08166141732283
 20
9.758145669291338
 10
-28.0886968503937
 20
9.777255905511812
 10
-28.09774409448819
 20
9.795362204724409
 10
-28.10879921259842
 20
9.812464566929133
 10
-28.12186614173228
 20
9.82855905511811
 10
-28.13694488188976
 20
9.843649606299213
 10
-28.15235826771654
 20
9.856366141732284
 10
-28.16884645669291
 20
9.867515748031495
 10
-28.18641338582677
 20
9.87709842519685
 10
-28.20505905511811
 20
9.88511811023622
 10
-28.22477952755905
 20
9.891570866141732
 10
-28.24557480314961
 20
9.89646062992126
 10
-28.26744881889764
 20
9.899783464566928
 10
-28.29040157480315
 20
9.901543307086614
 10
-28.30877952755905
 20
9.88959842519685
 10
-28.11764566929134
 20
10.11933070866142
 10
-28.20218503937008
 20
10.11933070866142
 10
-28.44661811023622
 20
9.824350393700787
 10
-28.45760236220472
 20
9.809984251968505
 10
-28.46712204724409
 20
9.795031496062991
 10
-28.47517716535433
 20
9.779488188976378
 10
-28.48176771653543
 20
9.763358267716535
 10
-28.4868937007874
 20
9.746637795275591
 10
-28.49055511811024
 20
9.729330708661417
 10
-28.49275196850394
 20
9.711433070866141
 10
-28.4934842519685
 20
9.692944881889764
 10
-28.49252362204724
 20
9.671645669291339
 10
-28.48963779527559
 20
9.651161417322834
 10
-28.48482677165354
 20
9.6315
 10
-28.47809448818898
 20
9.612653543307086
 10
-28.46943700787402
 20
9.594625984251968
 10
-28.45885433070866
 20
9.577417322834645
 10
-28.44634645669291
 20
9.561027559055118
 10
-28.43191732283465
 20
9.545456692913385
 10
-28.41602362204724
 20
9.531133858267717
 10
-28.39935433070866
 20
9.518720472440945
 10
-28.3819094488189
 20
9.508216535433071
 10
-28.36368897637795
 20
9.499625984251969
 10
-28.34469291338583
 20
9.492940944881889
 10
-28.32492125984252
 20
9.48816535433071
 10
-28.30437401574803
 20
9.485303149606299
 10
-28.28305118110236
 20
9.484346456692913
 10
-28.26142913385827
 20
9.485295275590552
 10
-28.24066535433071
 20
9.488137795275591
 10
-28.22076377952756
 20
9.492877952755906
 10
-28.20172440944882
 20
9.499511811023622
 10
-28.18354724409449
 20
9.50803937007874
 10
-28.16622834645669
 20
9.518464566929135
 10
-28.14977559055118
 20
9.530783464566928
 10
-28.13418110236221
 20
9.544996062992126
 10
-28.12724803149606
 20
9.552263779527559
 10
-28.12068503937008
 20
9.559814960629922
 10
-28.1145
 20
9.567653543307086
 10
-28.10868503937008
 20
9.575783464566928
 10
-28.10324409448819
 20
9.5841968503937
 10
-28.09817716535433
 20
9.592897637795275
 10
-28.09348031496063
 20
9.601885826771653
 10
-28.08915748031496
 20
9.611161417322835
 10
-28.08527952755906
 20
9.620708661417323
 10
-28.08192125984252
 20
9.630515748031495
 10
-28.07907874015748
 20
9.64057874015748
 10
-28.07675196850394
 20
9.650905511811024
 10
-28.07494488188976
 20
9.661488188976378
 10
-28.07365354330708
 20
9.672330708661418
 10
-28.07287795275591
 20
9.683429133858267
 10
-28.07261811023622
 20
9.694787401574803
  0
ENDSEC
  0
SECTION
  2
OBJECTS
  0
DICTIONARY
  5
C
330
0
100
AcDbDictionary
281
     1
  3
ACAD_DETAILVIEWSTYLE
350
91
  3
ACAD_GROUP
350
D
  3
ACAD_LAYOUT
350
1A
  3
ACAD_MATERIAL
350
43
  3
ACAD_MLEADERSTYLE
350
5B
  3
ACAD_MLINESTYLE
350
17
  3
ACAD_PLOTSETTINGS
350
19
  3
ACAD_PLOTSTYLENAME
350
E
  3
ACAD_SCALELIST
350
47
  3
ACAD_SECTIONVIEWSTYLE
350
92
  3
ACAD_TABLESTYLE
350
59
  3
ACAD_VISUALSTYLE
350
2A
  3
ACDB_RECOMPOSE_DATA
350
8E
  3
AcDbVariableDictionary
350
8A
  0
SUN
  5
5D
330
29
100
AcDbSun
 90
        1
290
     0
 63
     7
421
 16777215
 40
1.0
291
     1
 91
  2455826
 92
 54000000
292
     0
 70
     2
 71
   256
280
     1
  0
DICTIONARY
  5
91
102
{ACAD_REACTORS
330
C
102
}
330
C
100
AcDbDictionary
281
     1
  0
DICTIONARY
  5
D
102
{ACAD_REACTORS
330
C
102
}
330
C
100
AcDbDictionary
281
     1
  0
DICTIONARY
  5
1A
102
{ACAD_REACTORS
330
C
102
}
330
C
100
AcDbDictionary
281
     1
  3
Layout1
350
1E
  3
Layout2
350
26
  3
Model
350
22
  0
DICTIONARY
  5
43
102
{ACAD_REACTORS
330
C
102
}
330
C
100
AcDbDictionary
281
     1
  3
ByBlock
350
45
  3
ByLayer
350
44
  3
Global
350
46
  0
DICTIONARY
  5
5B
102
{ACAD_REACTORS
330
C
102
}
330
C
100
AcDbDictionary
281
     1
  3
Standard
350
5C
  0
DICTIONARY
  5
17
102
{ACAD_REACTORS
330
C
102
}
330
C
100
AcDbDictionary
281
     1
  3
Standard
350
18
  0
DICTIONARY
  5
19
102
{ACAD_REACTORS
330
C
102
}
330
C
100
AcDbDictionary
281
     1
  0
ACDBDICTIONARYWDFLT
  5
E
102
{ACAD_REACTORS
330
C
102
}
330
C
100
AcDbDictionary
281
     1
  3
Normal
350
F
100
AcDbDictionaryWithDefault
340
F
  0
DICTIONARY
  5
47
102
{ACAD_REACTORS
330
C
102
}
330
C
100
AcDbDictionary
281
     1
  3
A0
350
48
  3
A1
350
49
  3
A2
350
4A
  3
A3
350
4B
  3
A4
350
4C
  3
A5
350
4D
  3
A6
350
4E
  3
A7
350
4F
  3
A8
350
50
  3
A9
350
51
  3
B1
350
52
  3
B2
350
53
  3
B3
350
54
  3
B4
350
55
  3
B5
350
56
  3
B6
350
57
  3
B7
350
58
  0
DICTIONARY
  5
92
102
{ACAD_REACTORS
330
C
102
}
330
C
100
AcDbDictionary
281
     1
  0
DICTIONARY
  5
59
102
{ACAD_REACTORS
330
C
102
}
330
C
100
AcDbDictionary
281
     1
  3
Standard
350
5A
  0
DICTIONARY
  5
2A
102
{ACAD_REACTORS
330
C
102
}
330
C
100
AcDbDictionary
281
     1
  3
2dWireframe
350
2F
  3
Basic
350
32
  3
Brighten
350
36
  3
ColorChange
350
3A
  3
Conceptual
350
34
  3
Dim
350
35
  3
EdgeColorOff
350
3D
  3
Facepattern
350
39
  3
Flat
350
2B
  3
FlatWithEdges
350
2C
  3
Gouraud
350
2D
  3
GouraudWithEdges
350
2E
  3
Hidden
350
31
  3
JitterOff
350
3B
  3
Linepattern
350
38
  3
OverhangOff
350
3C
  3
Realistic
350
33
  3
Shaded
350
42
  3
Shaded with edges
350
41
  3
Shades of Gray
350
3E
  3
Sketchy
350
3F
  3
Thicken
350
37
  3
Wireframe
350
30
  3
X-Ray
350
40
  0
XRECORD
  5
8E
102
{ACAD_REACTORS
330
C
102
}
330
C
100
AcDbXrecord
280
     1
 90
        1
330
5A
  0
DICTIONARY
  5
8A
102
{ACAD_REACTORS
330
C
102
}
330
C
100
AcDbDictionary
281
     1
  3
CANNOSCALE
350
8B
  3
CMLEADERSTYLE
350
90
  3
CTABLESTYLE
350
8F
  0
LAYOUT
  5
1E
102
{ACAD_REACTORS
330
1A
102
}
330
1A
100
AcDbPlotSettings
  1

  2
none_device
  4

  6

 40
0.0
 41
0.0
 42
0.0
 43
0.0
 44
0.0
 45
0.0
 46
0.0
 47
0.0
 48
0.0
 49
0.0
140
0.0
141
0.0
142
1.0
143
1.0
 70
   688
 72
     0
 73
     0
 74
     5
  7

 75
    16
 76
     0
 77
     2
 78
   300
147
1.0
148
0.0
149
0.0
100
AcDbLayout
  1
Layout1
 70
     1
 71
     1
 10
0.0
 20
0.0
 11
12.0
 21
9.0
 12
0.0
 22
0.0
 32
0.0
 14
1.000000000000000E+20
 24
1.000000000000000E+20
 34
1.000000000000000E+20
 15
-1.000000000000000E+20
 25
-1.000000000000000E+20
 35
-1.000000000000000E+20
146
0.0
 13
0.0
 23
0.0
 33
0.0
 16
1.0
 26
0.0
 36
0.0
 17
0.0
 27
1.0
 37
0.0
 76
     0
330
1B
  0
LAYOUT
  5
26
102
{ACAD_REACTORS
330
1A
102
}
330
1A
100
AcDbPlotSettings
  1

  2
none_device
  4

  6

 40
0.0
 41
0.0
 42
0.0
 43
0.0
 44
0.0
 45
0.0
 46
0.0
 47
0.0
 48
0.0
 49
0.0
140
0.0
141
0.0
142
1.0
143
1.0
 70
   688
 72
     0
 73
     0
 74
     5
  7

 75
    16
 76
     0
 77
     2
 78
   300
147
1.0
148
0.0
149
0.0
100
AcDbLayout
  1
Layout2
 70
     1
 71
     2
 10
0.0
 20
0.0
 11
0.0
 21
0.0
 12
0.0
 22
0.0
 32
0.0
 14
0.0
 24
0.0
 34
0.0
 15
0.0
 25
0.0
 35
0.0
146
0.0
 13
0.0
 23
0.0
 33
0.0
 16
1.0
 26
0.0
 36
0.0
 17
0.0
 27
1.0
 37
0.0
 76
     0
330
23
  0
LAYOUT
  5
22
102
{ACAD_REACTORS
330
1A
102
}
330
1A
100
AcDbPlotSettings
  1

  2
none_device
  4
Letter_(8.50_x_11.00_Inches)
  6

 40
6.35
 41
6.35
 42
6.35000508
 43
6.35000508
 44
215.9
 45
279.4
 46
0.0
 47
0.0
 48
0.0
 49
0.0
140
0.0
141
0.0
142
1.0
143
1.0
 70
  1712
 72
     0
 73
     0
 74
     0
  7

 75
     0
 76
     0
 77
     2
 78
   300
147
1.0
148
0.0
149
0.0
100
AcDbLayout
  1
Model
 70
     1
 71
     0
 10
0.0
 20
0.0
 11
12.0
 21
9.0
 12
0.0
 22
0.0
 32
0.0
 14
-32.89047244094488
 24
-4.547669291338583
 34
0.0
 15
-23.5840748031496
 25
10.59623228346457
 35
0.0
146
0.0
 13
0.0
 23
0.0
 33
0.0
 16
1.0
 26
0.0
 36
0.0
 17
0.0
 27
1.0
 37
0.0
 76
     0
330
1F
331
29
  0
MATERIAL
  5
45
102
{ACAD_REACTORS
330
43
102
}
330
43
100
AcDbMaterial
  1
ByBlock
 72
     1
 94
      127
  0
MATERIAL
  5
44
102
{ACAD_REACTORS
330
43
102
}
330
43
100
AcDbMaterial
  1
ByLayer
 72
     1
 94
      127
  0
MATERIAL
  5
46
102
{ACAD_REACTORS
330
43
102
}
330
43
100
AcDbMaterial
  1
Global
 72
     1
 94
      127
  0
MLEADERSTYLE
  5
5C
102
{ACAD_REACTORS
330
5B
102
}
330
5B
100
AcDbMLeaderStyle
179
     2
170
     2
171
     1
172
     0
 90
        2
 40
0.0
 41
0.0
173
     1
 91
-1056964608
340
14
 92
       -2
290
     1
 42
0.09
291
     1
 43
0.36
  3
Standard
341
0
 44
0.18
300

342
11
174
     1
178
     6
175
     1
176
     0
 93
-1056964608
 45
0.18
292
     0
297
     0
 46
0.18
343
0
 94
-1056964608
 47
1.0
 49
1.0
140
1.0
293
     1
141
0.0
294
     1
177
     0
142
1.0
295
     0
296
     0
143
0.125
271
     0
272
     9
273
     9
298
     0
  0
MLINESTYLE
  5
18
102
{ACAD_REACTORS
330
17
102
}
330
17
100
AcDbMlineStyle
  2
Standard
 70
     0
  3

 62
   256
 51
90.0
 52
90.0
 71
     2
 49
0.5
 62
   256
  6
BYLAYER
 49
-0.5
 62
   256
  6
BYLAYER
  0
ACDBPLACEHOLDER
  5
F
102
{ACAD_REACTORS
330
E
102
}
330
E
  0
SCALE
  5
48
102
{ACAD_REACTORS
330
47
102
}
330
47
100
AcDbScale
 70
     0
300
1:1
140
1.0
141
1.0
290
     1
  0
SCALE
  5
49
102
{ACAD_REACTORS
330
47
102
}
330
47
100
AcDbScale
 70
     0
300
1/128" = 1'-0"
140
0.0078125
141
12.0
290
     0
  0
SCALE
  5
4A
102
{ACAD_REACTORS
330
47
102
}
330
47
100
AcDbScale
 70
     0
300
1/64" = 1'-0"
140
0.015625
141
12.0
290
     0
  0
SCALE
  5
4B
102
{ACAD_REACTORS
330
47
102
}
330
47
100
AcDbScale
 70
     0
300
1/32" = 1'-0"
140
0.03125
141
12.0
290
     0
  0
SCALE
  5
4C
102
{ACAD_REACTORS
330
47
102
}
330
47
100
AcDbScale
 70
     0
300
1/16" = 1'-0"
140
0.0625
141
12.0
290
     0
  0
SCALE
  5
4D
102
{ACAD_REACTORS
330
47
102
}
330
47
100
AcDbScale
 70
     0
300
3/32" = 1'-0"
140
0.09375
141
12.0
290
     0
  0
SCALE
  5
4E
102
{ACAD_REACTORS
330
47
102
}
330
47
100
AcDbScale
 70
     0
300
1/8" = 1'-0"
140
0.125
141
12.0
290
     0
  0
SCALE
  5
4F
102
{ACAD_REACTORS
330
47
102
}
330
47
100
AcDbScale
 70
     0
300
3/16" = 1'-0"
140
0.1875
141
12.0
290
     0
  0
SCALE
  5
50
102
{ACAD_REACTORS
330
47
102
}
330
47
100
AcDbScale
 70
     0
300
1/4" = 1'-0"
140
0.25
141
12.0
290
     0
  0
SCALE
  5
51
102
{ACAD_REACTORS
330
47
102
}
330
47
100
AcDbScale
 70
     0
300
3/8" = 1'-0"
140
0.375
141
12.0
290
     0
  0
SCALE
  5
52
102
{ACAD_REACTORS
330
47
102
}
330
47
100
AcDbScale
 70
     0
300
1/2" = 1'-0"
140
0.5
141
12.0
290
     0
  0
SCALE
  5
53
102
{ACAD_REACTORS
330
47
102
}
330
47
100
AcDbScale
 70
     0
300
3/4" = 1'-0"
140
0.75
141
12.0
290
     0
  0
SCALE
  5
54
102
{ACAD_REACTORS
330
47
102
}
330
47
100
AcDbScale
 70
     0
300
1" = 1'-0"
140
1.0
141
12.0
290
     0
  0
SCALE
  5
55
102
{ACAD_REACTORS
330
47
102
}
330
47
100
AcDbScale
 70
     0
300
1-1/2" = 1'-0"
140
1.5
141
12.0
290
     0
  0
SCALE
  5
56
102
{ACAD_REACTORS
330
47
102
}
330
47
100
AcDbScale
 70
     0
300
3" = 1'-0"
140
3.0
141
12.0
290
     0
  0
SCALE
  5
57
102
{ACAD_REACTORS
330
47
102
}
330
47
100
AcDbScale
 70
     0
300
6" = 1'-0"
140
6.0
141
12.0
290
     0
  0
SCALE
  5
58
102
{ACAD_REACTORS
330
47
102
}
330
47
100
AcDbScale
 70
     0
300
1'-0" = 1'-0"
140
12.0
141
12.0
290
     0
  0
TABLESTYLE
  5
5A
102
{ACAD_REACTORS
330
59
102
}
102
{ACAD_XDICTIONARY
360
8C
102
}
330
59
100
AcDbTableStyle
  3
Standard
 70
     0
 71
     0
 40
0.06
 41
0.06
280
     0
281
     0
  7
Standard
140
0.18
170
     2
 62
     0
 63
   257
283
     0
 90
        4
 91
        0
  1

274
    -2
284
     1
 64
     0
275
    -2
285
     1
 65
     0
276
    -2
286
     1
 66
     0
277
    -2
287
     1
 67
     0
278
    -2
288
     1
 68
     0
279
    -2
289
     1
 69
     0
  7
Standard
140
0.25
170
     5
 62
     0
 63
   257
283
     0
 90
        4
 91
        0
  1

274
    -2
284
     1
 64
     0
275
    -2
285
     1
 65
     0
276
    -2
286
     1
 66
     0
277
    -2
287
     1
 67
     0
278
    -2
288
     1
 68
     0
279
    -2
289
     1
 69
     0
  7
Standard
140
0.18
170
     5
 62
     0
 63
   257
283
     0
 90
        4
 91
        0
  1

274
    -2
284
     1
 64
     0
275
    -2
285
     1
 65
     0
276
    -2
286
     1
 66
     0
277
    -2
287
     1
 67
     0
278
    -2
288
     1
 68
     0
279
    -2
289
     1
 69
     0
  0
VISUALSTYLE
  5
2F
102
{ACAD_REACTORS
330
2A
102
}
330
2A
100
AcDbVisualStyle
  2
2dWireframe
 70
     4
177
     3
291
     0
 70
    58
 90
        0
176
     1
 90
        2
176
     1
 90
        0
176
     1
 90
        0
176
     1
 40
0.6
176
     1
 40
30.0
176
     1
 62
     7
420
 16777215
176
     1
 90
        1
176
     1
 90
        4
176
     1
 62
     7
176
     1
 62
   257
176
     1
 90
        1
176
     1
 90
        1
176
     1
 40
1.0
176
     1
 90
        0
176
     1
 62
   257
176
     1
 40
1.0
176
     1
 90
        1
176
     1
 90
        6
176
     1
 90
        2
176
     1
 62
     7
176
     1
 90
        5
176
     1
 90
        0
176
     1
 90
        0
176
     1
290
     0
176
     1
 90
        1
176
     1
 40
0.0
176
     1
 90
        0
176
     1
290
     1
176
     1
290
     1
176
     1
290
     0
176
     1
290
     0
176
     1
290
     0
176
     1
290
     0
176
     1
290
     0
176
     1
290
     0
176
     1
290
     0
176
     1
 90
       50
176
     1
 40
0.0
176
     1
 40
1.0
176
     1
 90
        0
176
     1
 62
    18
420
        0
176
     1
 90
       50
176
     1
 90
        3
176
     1
 62
     5
420
      255
176
     1
290
     0
176
     1
 90
       50
176
     1
 90
       50
176
     1
 90
       50
176
     1
290
     0
176
     1
 90
       50
176
     1
 62
   256
176
     0
 40
1.0
176
     0
 90
        2
176
     1
  1
strokes_ogs.tif
176
     1
290
     0
176
     1
 40
1.0
176
     1
 40
1.0
176
     1
  0
VISUALSTYLE
  5
32
102
{ACAD_REACTORS
330
2A
102
}
330
2A
100
AcDbVisualStyle
  2
Basic
 70
     7
177
     3
291
     1
 70
    58
 90
        1
176
     1
 90
        0
176
     1
 90
        1
176
     1
 90
        0
176
     1
 40
0.6
176
     1
 40
30.0
176
     1
 62
     7
420
 16777215
176
     1
 90
        0
176
     1
 90
        4
176
     1
 62
     7
176
     1
 62
   257
176
     1
 90
        1
176
     1
 90
        1
176
     1
 40
1.0
176
     1
 90
        8
176
     1
 62
     7
176
     1
 40
1.0
176
     1
 90
        1
176
     1
 90
        6
176
     1
 90
        2
176
     1
 62
     7
176
     1
 90
        5
176
     1
 90
        0
176
     1
 90
        0
176
     1
290
     0
176
     1
 90
        1
176
     1
 40
0.0
176
     1
 90
        0
176
     1
290
     0
176
     1
290
     1
176
     1
290
     1
176
     1
290
     0
176
     1
290
     0
176
     1
290
     0
176
     1
290
     0
176
     1
290
     0
176
     1
290
     0
176
     1
 90
       50
176
     1
 40
0.0
176
     1
 40
1.0
176
     1
 90
        0
176
     1
 62
    18
420
        0
176
     1
 90
       50
176
     1
 90
        3
176
     1
 62
     5
420
      255
176
     1
290
     0
176
     1
 90
       50
176
     1
 90
       50
176
     1
 90
       50
176
     1
290
     0
176
     1
 90
       50
176
     1
 62
   256
176
     0
 40
1.0
176
     0
 90
        2
176
     1
  1
strokes_ogs.tif
176
     1
290
     0
176
     1
 40
1.0
176
     1
 40
1.0
176
     1
  0
VISUALSTYLE
  5
36
102
{ACAD_REACTORS
330
2A
102
}
330
2A
100
AcDbVisualStyle
  2
Brighten
 70
    12
177
     3
291
     1
 70
    58
 90
        2
176
     1
 90
        2
176
     1
 90
        0
176
     1
 90
        0
176
     1
 40
0.6
176
     1
 40
30.0
176
     1
 62
     7
420
 16777215
176
     1
 90
        1
176
     1
 90
        4
176
     1
 62
     7
176
     1
 62
   257
176
     1
 90
        1
176
     1
 90
        1
176
     1
 40
1.0
176
     1
 90
        8
176
     1
 62
     7
176
     1
 40
1.0
176
     1
 90
        1
176
     1
 90
        6
176
     1
 90
        2
176
     1
 62
     7
176
     1
 90
        5
176
     1
 90
        0
176
     1
 90
        0
176
     1
290
     0
176
     1
 90
        1
176
     1
 40
50.0
176
     1
 90
        0
176
     1
290
     0
176
     1
290
     1
176
     1
290
     1
176
     1
290
     0
176
     1
290
     0
176
     1
290
     0
176
     1
290
     0
176
     1
290
     0
176
     1
290
     0
176
     1
 90
       50
176
     1
 40
0.0
176
     1
 40
1.0
176
     1
 90
        0
176
     1
 62
    18
420
        0
176
     1
 90
       50
176
     1
 90
        3
176
     1
 62
     5
420
      255
176
     1
290
     0
176
     1
 90
       50
176
     1
 90
       50
176
     1
 90
       50
176
     1
290
     0
176
     1
 90
       50
176
     1
 62
   256
176
     0
 40
1.0
176
     0
 90
        2
176
     1
  1
strokes_ogs.tif
176
     1
290
     0
176
     1
 40
1.0
176
     1
 40
1.0
176
     1
  0
VISUALSTYLE
  5
3A
102
{ACAD_REACTORS
330
2A
102
}
330
2A
100
AcDbVisualStyle
  2
ColorChange
 70
    16
177
     3
291
     1
 70
    58
 90
        2
176
     1
 90
        2
176
     1
 90
        3
176
     1
 90
        0
176
     1
 40
0.6
176
     1
 40
30.0
176
     1
 62
     8
420
  8421504
176
     1
 90
        1
176
     1
 90
        4
176
     1
 62
     7
176
     1
 62
   257
176
     1
 90
        1
176
     1
 90
        1
176
     1
 40
1.0
176
     1
 90
        8
176
     1
 62
     8
420
  8421504
176
     1
 40
1.0
176
     1
 90
        1
176
     1
 90
        6
176
     1
 90
        2
176
     1
 62
     7
176
     1
 90
        5
176
     1
 90
        0
176
     1
 90
        0
176
     1
290
     0
176
     1
 90
        1
176
     1
 40
0.0
176
     1
 90
        0
176
     1
290
     0
176
     1
290
     1
176
     1
290
     1
176
     1
290
     0
176
     1
290
     0
176
     1
290
     0
176
     1
290
     0
176
     1
290
     0
176
     1
290
     0
176
     1
 90
       50
176
     1
 40
0.0
176
     1
 40
1.0
176
     1
 90
        0
176
     1
 62
    18
420
        0
176
     1
 90
       50
176
     1
 90
        3
176
     1
 62
     5
420
      255
176
     1
290
     0
176
     1
 90
       50
176
     1
 90
       50
176
     1
 90
       50
176
     1
290
     0
176
     1
 90
       50
176
     1
 62
   256
176
     0
 40
1.0
176
     0
 90
        2
176
     1
  1
strokes_ogs.tif
176
     1
290
     0
176
     1
 40
1.0
176
     1
 40
1.0
176
     1
  0
VISUALSTYLE
  5
34
102
{ACAD_REACTORS
330
2A
102
}
330
2A
100
AcDbVisualStyle
  2
Conceptual
 70
     9
177
     3
291
     0
 70
    58
 90
        3
176
     1
 90
        2
176
     1
 90
        0
176
     1
 90
        0
176
     1
 40
0.6
176
     1
 40
30.0
176
     1
 62
     7
420
 16777215
176
     1
 90
        2
176
     1
 90
        2
176
     1
 62
     7
176
     1
 62
   257
176
     1
 90
        1
176
     1
 90
        1
176
     1
 40
179.0
176
     1
 90
        8
176
     1
 62
     7
176
     1
 40
1.0
176
     1
 90
        1
176
     1
 90
        6
176
     1
 90
        2
176
     1
 62
     7
176
     1
 90
        3
176
     1
 90
        0
176
     1
 90
        0
176
     1
290
     0
176
     1
 90
        1
176
     1
 40
0.0
176
     1
 90
        0
176
     1
290
     0
176
     1
290
     1
176
     1
290
     1
176
     1
290
     0
176
     1
290
     0
176
     1
290
     0
176
     1
290
     0
176
     1
290
     0
176
     1
290
     0
176
     1
 90
       50
176
     1
 40
0.0
176
     1
 40
1.0
176
     1
 90
        0
176
     1
 62
    18
420
        0
176
     1
 90
       50
176
     1
 90
        3
176
     1
 62
     5
420
      255
176
     1
290
     0
176
     1
 90
       50
176
     1
 90
       50
176
     1
 90
       50
176
     1
290
     0
176
     1
 90
       50
176
     1
 62
   256
176
     0
 40
1.0
176
     0
 90
        2
176
     1
  1
strokes_ogs.tif
176
     1
290
     0
176
     1
 40
1.0
176
     1
 40
1.0
176
     1
  0
VISUALSTYLE
  5
35
102
{ACAD_REACTORS
330
2A
102
}
330
2A
100
AcDbVisualStyle
  2
Dim
 70
    11
177
     3
291
     1
 70
    58
 90
        2
176
     1
 90
        2
176
     1
 90
        0
176
     1
 90
        0
176
     1
 40
0.6
176
     1
 40
30.0
176
     1
 62
     7
420
 16777215
176
     1
 90
        1
176
     1
 90
        4
176
     1
 62
     7
176
     1
 62
   257
176
     1
 90
        1
176
     1
 90
        1
176
     1
 40
1.0
176
     1
 90
        8
176
     1
 62
     7
176
     1
 40
1.0
176
     1
 90
        1
176
     1
 90
        6
176
     1
 90
        2
176
     1
 62
     7
176
     1
 90
        5
176
     1
 90
        0
176
     1
 90
        0
176
     1
290
     0
176
     1
 90
        1
176
     1
 40
-50.0
176
     1
 90
        0
176
     1
290
     0
176
     1
290
     1
176
     1
290
     1
176
     1
290
     0
176
     1
290
     0
176
     1
290
     0
176
     1
290
     0
176
     1
290
     0
176
     1
290
     0
176
     1
 90
       50
176
     1
 40
0.0
176
     1
 40
1.0
176
     1
 90
        0
176
     1
 62
    18
420
        0
176
     1
 90
       50
176
     1
 90
        3
176
     1
 62
     5
420
      255
176
     1
290
     0
176
     1
 90
       50
176
     1
 90
       50
176
     1
 90
       50
176
     1
290
     0
176
     1
 90
       50
176
     1
 62
   256
176
     0
 40
1.0
176
     0
 90
        2
176
     1
  1
strokes_ogs.tif
176
     1
290
     0
176
     1
 40
1.0
176
     1
 40
1.0
176
     1
  0
VISUALSTYLE
  5
3D
102
{ACAD_REACTORS
330
2A
102
}
330
2A
100
AcDbVisualStyle
  2
EdgeColorOff
 70
    22
177
     3
291
     1
 70
    58
 90
        2
176
     0
 90
        2
176
     0
 90
        0
176
     0
 90
        0
176
     0
 40
0.6
176
     0
 40
30.0
176
     0
 62
     7
420
 16777215
176
     0
 90
        1
176
     0
 90
        4
176
     0
 62
     7
176
     0
 62
   257
176
     0
 90
        1
176
     0
 90
        1
176
     0
 40
1.0
176
     0
 90
        8
176
     2
 62
     7
176
     0
 40
1.0
176
     0
 90
        1
176
     0
 90
        6
176
     0
 90
        2
176
     0
 62
     7
176
     0
 90
        5
176
     0
 90
        0
176
     0
 90
        0
176
     0
290
     0
176
     0
 90
        1
176
     0
 40
0.0
176
     0
 90
        0
176
     0
290
     0
176
     0
290
     1
176
     0
290
     1
176
     0
290
     0
176
     0
290
     0
176
     0
290
     0
176
     0
290
     0
176
     0
290
     0
176
     0
290
     0
176
     0
 90
       50
176
     0
 40
0.0
176
     0
 40
1.0
176
     0
 90
        0
176
     0
 62
    18
420
        0
176
     0
 90
       50
176
     0
 90
        3
176
     0
 62
     5
420
      255
176
     0
290
     0
176
     0
 90
       50
176
     0
 90
       50
176
     0
 90
       50
176
     0
290
     0
176
     0
 90
       50
176
     0
 62
   256
176
     0
 40
1.0
176
     0
 90
        2
176
     0
  1
strokes_ogs.tif
176
     0
290
     0
176
     0
 40
1.0
176
     0
 40
1.0
176
     0
  0
VISUALSTYLE
  5
39
102
{ACAD_REACTORS
330
2A
102
}
330
2A
100
AcDbVisualStyle
  2
Facepattern
 70
    15
177
     3
291
     1
 70
    58
 90
        2
176
     1
 90
        2
176
     1
 90
        0
176
     1
 90
        0
176
     1
 40
0.6
176
     1
 40
30.0
176
     1
 62
     7
420
 16777215
176
     1
 90
        1
176
     1
 90
        4
176
     1
 62
     7
176
     1
 62
   257
176
     1
 90
        1
176
     1
 90
        1
176
     1
 40
1.0
176
     1
 90
        8
176
     1
 62
     7
176
     1
 40
1.0
176
     1
 90
        1
176
     1
 90
        6
176
     1
 90
        2
176
     1
 62
     7
176
     1
 90
        5
176
     1
 90
        0
176
     1
 90
        0
176
     1
290
     0
176
     1
 90
        1
176
     1
 40
0.0
176
     1
 90
        0
176
     1
290
     0
176
     1
290
     1
176
     1
290
     1
176
     1
290
     0
176
     1
290
     0
176
     1
290
     0
176
     1
290
     0
176
     1
290
     0
176
     1
290
     0
176
     1
 90
       50
176
     1
 40
0.0
176
     1
 40
1.0
176
     1
 90
        0
176
     1
 62
    18
420
        0
176
     1
 90
       50
176
     1
 90
        3
176
     1
 62
     5
420
      255
176
     1
290
     0
176
     1
 90
       50
176
     1
 90
       50
176
     1
 90
       50
176
     1
290
     0
176
     1
 90
       50
176
     1
 62
   256
176
     0
 40
1.0
176
     0
 90
        2
176
     1
  1
strokes_ogs.tif
176
     1
290
     0
176
     1
 40
1.0
176
     1
 40
1.0
176
     1
  0
VISUALSTYLE
  5
2B
102
{ACAD_REACTORS
330
2A
102
}
330
2A
100
AcDbVisualStyle
  2
Flat
 70
     0
177
     3
291
     1
 70
    58
 90
        2
176
     1
 90
        1
176
     1
 90
        1
176
     1
 90
        2
176
     1
 40
0.6
176
     1
 40
30.0
176
     1
 62
     7
420
 16777215
176
     1
 90
        0
176
     1
 90
        0
176
     1
 62
     7
176
     1
 62
   257
176
     1
 90
        1
176
     1
 90
        1
176
     1
 40
1.0
176
     1
 90
        8
176
     1
 62
     7
176
     1
 40
1.0
176
     1
 90
        1
176
     1
 90
        6
176
     1
 90
        2
176
     1
 62
     7
176
     1
 90
        5
176
     1
 90
        0
176
     1
 90
        0
176
     1
290
     0
176
     1
 90
       13
176
     1
 40
0.0
176
     1
 90
        0
176
     1
290
     0
176
     1
290
     1
176
     1
290
     1
176
     1
290
     0
176
     1
290
     0
176
     1
290
     0
176
     1
290
     0
176
     1
290
     0
176
     1
290
     0
176
     1
 90
       50
176
     1
 40
0.0
176
     1
 40
1.0
176
     1
 90
        0
176
     1
 62
    18
420
        0
176
     1
 90
       50
176
     1
 90
        3
176
     1
 62
     5
420
      255
176
     1
290
     0
176
     1
 90
       50
176
     1
 90
       50
176
     1
 90
       50
176
     1
290
     0
176
     1
 90
       50
176
     1
 62
   256
176
     0
 40
1.0
176
     0
 90
        2
176
     1
  1
strokes_ogs.tif
176
     1
290
     0
176
     1
 40
1.0
176
     1
 40
1.0
176
     1
  0
VISUALSTYLE
  5
2C
102
{ACAD_REACTORS
330
2A
102
}
330
2A
100
AcDbVisualStyle
  2
FlatWithEdges
 70
     1
177
     3
291
     1
 70
    58
 90
        2
176
     1
 90
        1
176
     1
 90
        1
176
     1
 90
        2
176
     1
 40
0.6
176
     1
 40
30.0
176
     1
 62
     7
420
 16777215
176
     1
 90
        1
176
     1
 90
        0
176
     1
 62
     7
176
     1
 62
   257
176
     1
 90
        1
176
     1
 90
        1
176
     1
 40
1.0
176
     1
 90
        0
176
     1
 62
   257
176
     1
 40
1.0
176
     1
 90
        1
176
     1
 90
        6
176
     1
 90
        2
176
     1
 62
     7
176
     1
 90
        5
176
     1
 90
        0
176
     1
 90
        0
176
     1
290
     0
176
     1
 90
       13
176
     1
 40
0.0
176
     1
 90
        0
176
     1
290
     0
176
     1
290
     1
176
     1
290
     1
176
     1
290
     0
176
     1
290
     0
176
     1
290
     0
176
     1
290
     0
176
     1
290
     0
176
     1
290
     0
176
     1
 90
       50
176
     1
 40
0.0
176
     1
 40
1.0
176
     1
 90
        0
176
     1
 62
    18
420
        0
176
     1
 90
       50
176
     1
 90
        3
176
     1
 62
     5
420
      255
176
     1
290
     0
176
     1
 90
       50
176
     1
 90
       50
176
     1
 90
       50
176
     1
290
     0
176
     1
 90
       50
176
     1
 62
   256
176
     0
 40
1.0
176
     0
 90
        2
176
     1
  1
strokes_ogs.tif
176
     1
290
     0
176
     1
 40
1.0
176
     1
 40
1.0
176
     1
  0
VISUALSTYLE
  5
2D
102
{ACAD_REACTORS
330
2A
102
}
330
2A
100
AcDbVisualStyle
  2
Gouraud
 70
     2
177
     3
291
     1
 70
    58
 90
        2
176
     1
 90
        2
176
     1
 90
        1
176
     1
 90
        2
176
     1
 40
0.6
176
     1
 40
30.0
176
     1
 62
     7
420
 16777215
176
     1
 90
        0
176
     1
 90
        0
176
     1
 62
     7
176
     1
 62
   257
176
     1
 90
        1
176
     1
 90
        1
176
     1
 40
1.0
176
     1
 90
        0
176
     1
 62
     7
176
     1
 40
1.0
176
     1
 90
        1
176
     1
 90
        6
176
     1
 90
        2
176
     1
 62
     7
176
     1
 90
        5
176
     1
 90
        0
176
     1
 90
        0
176
     1
290
     0
176
     1
 90
       13
176
     1
 40
0.0
176
     1
 90
        0
176
     1
290
     0
176
     1
290
     1
176
     1
290
     1
176
     1
290
     0
176
     1
290
     0
176
     1
290
     0
176
     1
290
     0
176
     1
290
     0
176
     1
290
     0
176
     1
 90
       50
176
     1
 40
0.0
176
     1
 40
1.0
176
     1
 90
        0
176
     1
 62
    18
420
        0
176
     1
 90
       50
176
     1
 90
        3
176
     1
 62
     5
420
      255
176
     1
290
     0
176
     1
 90
       50
176
     1
 90
       50
176
     1
 90
       50
176
     1
290
     0
176
     1
 90
       50
176
     1
 62
   256
176
     0
 40
1.0
176
     0
 90
        2
176
     1
  1
strokes_ogs.tif
176
     1
290
     0
176
     1
 40
1.0
176
     1
 40
1.0
176
     1
  0
VISUALSTYLE
  5
2E
102
{ACAD_REACTORS
330
2A
102
}
330
2A
100
AcDbVisualStyle
  2
GouraudWithEdges
 70
     3
177
     3
291
     1
 70
    58
 90
        2
176
     1
 90
        2
176
     1
 90
        1
176
     1
 90
        2
176
     1
 40
0.6
176
     1
 40
30.0
176
     1
 62
     7
420
 16777215
176
     1
 90
        1
176
     1
 90
        0
176
     1
 62
     7
176
     1
 62
   257
176
     1
 90
        1
176
     1
 90
        1
176
     1
 40
1.0
176
     1
 90
        0
176
     1
 62
   257
176
     1
 40
1.0
176
     1
 90
        1
176
     1
 90
        6
176
     1
 90
        2
176
     1
 62
     7
176
     1
 90
        5
176
     1
 90
        0
176
     1
 90
        0
176
     1
290
     0
176
     1
 90
       13
176
     1
 40
0.0
176
     1
 90
        0
176
     1
290
     0
176
     1
290
     1
176
     1
290
     1
176
     1
290
     0
176
     1
290
     0
176
     1
290
     0
176
     1
290
     0
176
     1
290
     0
176
     1
290
     0
176
     1
 90
       50
176
     1
 40
0.0
176
     1
 40
1.0
176
     1
 90
        0
176
     1
 62
    18
420
        0
176
     1
 90
       50
176
     1
 90
        3
176
     1
 62
     5
420
      255
176
     1
290
     0
176
     1
 90
       50
176
     1
 90
       50
176
     1
 90
       50
176
     1
290
     0
176
     1
 90
       50
176
     1
 62
   256
176
     0
 40
1.0
176
     0
 90
        2
176
     1
  1
strokes_ogs.tif
176
     1
290
     0
176
     1
 40
1.0
176
     1
 40
1.0
176
     1
  0
VISUALSTYLE
  5
31
102
{ACAD_REACTORS
330
2A
102
}
330
2A
100
AcDbVisualStyle
  2
Hidden
 70
     6
177
     3
291
     0
 70
    58
 90
        1
176
     1
 90
        2
176
     1
 90
        2
176
     1
 90
        0
176
     1
 40
0.6
176
     1
 40
30.0
176
     1
 62
     7
420
 16777215
176
     1
 90
        2
176
     1
 90
        2
176
     1
 62
     7
176
     1
 62
   257
176
     1
 90
        2
176
     1
 90
        1
176
     1
 40
40.0
176
     1
 90
        0
176
     1
 62
   257
176
     1
 40
1.0
176
     1
 90
        1
176
     1
 90
        6
176
     1
 90
        2
176
     1
 62
     7
176
     1
 90
        3
176
     1
 90
        0
176
     1
 90
        0
176
     1
290
     0
176
     1
 90
        1
176
     1
 40
0.0
176
     1
 90
        0
176
     1
290
     0
176
     1
290
     1
176
     1
290
     1
176
     1
290
     0
176
     1
290
     0
176
     1
290
     0
176
     1
290
     0
176
     1
290
     0
176
     1
290
     0
176
     1
 90
       50
176
     1
 40
0.0
176
     1
 40
1.0
176
     1
 90
        0
176
     1
 62
    18
420
        0
176
     1
 90
       50
176
     1
 90
        3
176
     1
 62
     5
420
      255
176
     1
290
     0
176
     1
 90
       50
176
     1
 90
       50
176
     1
 90
       50
176
     1
290
     0
176
     1
 90
       50
176
     1
 62
   256
176
     0
 40
1.0
176
     0
 90
        2
176
     1
  1
strokes_ogs.tif
176
     1
290
     0
176
     1
 40
1.0
176
     1
 40
1.0
176
     1
  0
VISUALSTYLE
  5
3B
102
{ACAD_REACTORS
330
2A
102
}
330
2A
100
AcDbVisualStyle
  2
JitterOff
 70
    20
177
     3
291
     1
 70
    58
 90
        2
176
     0
 90
        2
176
     0
 90
        0
176
     0
 90
        0
176
     0
 40
0.6
176
     0
 40
30.0
176
     0
 62
     7
420
 16777215
176
     0
 90
        1
176
     0
 90
        4
176
     0
 62
     7
176
     0
 62
   257
176
     0
 90
        1
176
     0
 90
        1
176
     0
 40
1.0
176
     0
 90
       10
176
     2
 62
     7
176
     0
 40
1.0
176
     0
 90
        1
176
     0
 90
        6
176
     0
 90
        2
176
     0
 62
     7
176
     0
 90
        5
176
     0
 90
        0
176
     0
 90
        0
176
     0
290
     0
176
     0
 90
        1
176
     0
 40
0.0
176
     0
 90
        0
176
     0
290
     0
176
     0
290
     1
176
     0
290
     1
176
     0
290
     0
176
     0
290
     0
176
     0
290
     0
176
     0
290
     0
176
     0
290
     0
176
     0
290
     0
176
     0
 90
       50
176
     0
 40
0.0
176
     0
 40
1.0
176
     0
 90
        0
176
     0
 62
    18
420
        0
176
     0
 90
       50
176
     0
 90
        3
176
     0
 62
     5
420
      255
176
     0
290
     0
176
     0
 90
       50
176
     0
 90
       50
176
     0
 90
       50
176
     0
290
     0
176
     0
 90
       50
176
     0
 62
   256
176
     0
 40
1.0
176
     0
 90
        2
176
     0
  1
strokes_ogs.tif
176
     0
290
     0
176
     0
 40
1.0
176
     0
 40
1.0
176
     0
  0
VISUALSTYLE
  5
38
102
{ACAD_REACTORS
330
2A
102
}
330
2A
100
AcDbVisualStyle
  2
Linepattern
 70
    14
177
     3
291
     1
 70
    58
 90
        2
176
     1
 90
        2
176
     1
 90
        0
176
     1
 90
        0
176
     1
 40
0.6
176
     1
 40
30.0
176
     1
 62
     7
420
 16777215
176
     1
 90
        1
176
     1
 90
        4
176
     1
 62
     7
176
     1
 62
   257
176
     1
 90
        7
176
     1
 90
        7
176
     1
 40
1.0
176
     1
 90
        8
176
     1
 62
     7
176
     1
 40
1.0
176
     1
 90
        1
176
     1
 90
        6
176
     1
 90
        2
176
     1
 62
     7
176
     1
 90
        5
176
     1
 90
        0
176
     1
 90
        0
176
     1
290
     0
176
     1
 90
        1
176
     1
 40
0.0
176
     1
 90
        0
176
     1
290
     0
176
     1
290
     1
176
     1
290
     1
176
     1
290
     0
176
     1
290
     0
176
     1
290
     0
176
     1
290
     0
176
     1
290
     0
176
     1
290
     0
176
     1
 90
       50
176
     1
 40
0.0
176
     1
 40
1.0
176
     1
 90
        0
176
     1
 62
    18
420
        0
176
     1
 90
       50
176
     1
 90
        3
176
     1
 62
     5
420
      255
176
     1
290
     0
176
     1
 90
       50
176
     1
 90
       50
176
     1
 90
       50
176
     1
290
     0
176
     1
 90
       50
176
     1
 62
   256
176
     0
 40
1.0
176
     0
 90
        2
176
     1
  1
strokes_ogs.tif
176
     1
290
     0
176
     1
 40
1.0
176
     1
 40
1.0
176
     1
  0
VISUALSTYLE
  5
3C
102
{ACAD_REACTORS
330
2A
102
}
330
2A
100
AcDbVisualStyle
  2
OverhangOff
 70
    21
177
     3
291
     1
 70
    58
 90
        2
176
     0
 90
        2
176
     0
 90
        0
176
     0
 90
        0
176
     0
 40
0.6
176
     0
 40
30.0
176
     0
 62
     7
420
 16777215
176
     0
 90
        1
176
     0
 90
        4
176
     0
 62
     7
176
     0
 62
   257
176
     0
 90
        1
176
     0
 90
        1
176
     0
 40
1.0
176
     0
 90
        9
176
     2
 62
     7
176
     0
 40
1.0
176
     0
 90
        1
176
     0
 90
        6
176
     0
 90
        2
176
     0
 62
     7
176
     0
 90
        5
176
     0
 90
        0
176
     0
 90
        0
176
     0
290
     0
176
     0
 90
        1
176
     0
 40
0.0
176
     0
 90
        0
176
     0
290
     0
176
     0
290
     1
176
     0
290
     1
176
     0
290
     0
176
     0
290
     0
176
     0
290
     0
176
     0
290
     0
176
     0
290
     0
176
     0
290
     0
176
     0
 90
       50
176
     0
 40
0.0
176
     0
 40
1.0
176
     0
 90
        0
176
     0
 62
    18
420
        0
176
     0
 90
       50
176
     0
 90
        3
176
     0
 62
     5
420
      255
176
     0
290
     0
176
     0
 90
       50
176
     0
 90
       50
176
     0
 90
       50
176
     0
290
     0
176
     0
 90
       50
176
     0
 62
   256
176
     0
 40
1.0
176
     0
 90
        2
176
     0
  1
strokes_ogs.tif
176
     0
290
     0
176
     0
 40
1.0
176
     0
 40
1.0
176
     0
  0
VISUALSTYLE
  5
33
102
{ACAD_REACTORS
330
2A
102
}
330
2A
100
AcDbVisualStyle
  2
Realistic
 70
     8
177
     3
291
     0
 70
    58
 90
        2
176
     1
 90
        3
176
     1
 90
        0
176
     1
 90
        2
176
     1
 40
0.6
176
     1
 40
30.0
176
     1
 62
     7
420
 16777215
176
     1
 90
        0
176
     1
 90
        0
176
     1
 62
     7
176
     1
 62
   257
176
     1
 90
        1
176
     1
 90
        1
176
     1
 40
1.0
176
     1
 90
        8
176
     1
 62
   257
176
     1
 40
1.0
176
     1
 90
        1
176
     1
 90
        6
176
     1
 90
        2
176
     1
 62
     7
176
     1
 90
        3
176
     1
 90
        0
176
     1
 90
        0
176
     1
290
     0
176
     1
 90
       13
176
     1
 40
0.0
176
     1
 90
        0
176
     1
290
     0
176
     1
290
     1
176
     1
290
     1
176
     1
290
     0
176
     1
290
     0
176
     1
290
     0
176
     1
290
     0
176
     1
290
     0
176
     1
290
     0
176
     1
 90
       50
176
     1
 40
0.0
176
     1
 40
1.0
176
     1
 90
        0
176
     1
 62
    18
420
        0
176
     1
 90
       50
176
     1
 90
        3
176
     1
 62
     5
420
      255
176
     1
290
     0
176
     1
 90
       50
176
     1
 90
       50
176
     1
 90
       50
176
     1
290
     0
176
     1
 90
       50
176
     1
 62
   256
176
     0
 40
1.0
176
     0
 90
        2
176
     1
  1
strokes_ogs.tif
176
     1
290
     0
176
     1
 40
1.0
176
     1
 40
1.0
176
     1
  0
VISUALSTYLE
  5
42
102
{ACAD_REACTORS
330
2A
102
}
330
2A
100
AcDbVisualStyle
  2
Shaded
 70
    27
177
     3
291
     0
 70
    58
 90
        2
176
     1
 90
        2
176
     1
 90
        1
176
     1
 90
        2
176
     1
 40
0.6
176
     1
 40
30.0
176
     1
 62
     7
420
 16777215
176
     1
 90
        0
176
     1
 90
        4
176
     1
 62
     7
176
     1
 62
   257
176
     1
 90
        1
176
     1
 90
        1
176
     1
 40
1.0
176
     1
 90
        8
176
     1
 62
   257
176
     1
 40
1.0
176
     1
 90
        1
176
     1
 90
        6
176
     1
 90
        2
176
     1
 62
     8
420
  7895160
176
     1
 90
        3
176
     1
 90
        0
176
     1
 90
        0
176
     1
290
     0
176
     1
 90
        5
176
     1
 40
0.0
176
     1
 90
        0
176
     1
290
     0
176
     1
290
     1
176
     1
290
     1
176
     1
290
     0
176
     1
290
     0
176
     1
290
     0
176
     1
290
     0
176
     1
290
     0
176
     1
290
     0
176
     1
 90
       50
176
     1
 40
0.0
176
     1
 40
1.0
176
     1
 90
        0
176
     1
 62
    18
420
        0
176
     1
 90
       50
176
     1
 90
        3
176
     1
 62
     5
420
      255
176
     1
290
     0
176
     1
 90
       50
176
     1
 90
       50
176
     1
 90
       50
176
     1
290
     0
176
     1
 90
       50
176
     1
 62
   256
176
     0
 40
1.0
176
     0
 90
        2
176
     1
  1
strokes_ogs.tif
176
     1
290
     0
176
     1
 40
1.0
176
     1
 40
1.0
176
     1
  0
VISUALSTYLE
  5
41
102
{ACAD_REACTORS
330
2A
102
}
330
2A
100
AcDbVisualStyle
  2
Shaded with edges
 70
    26
177
     3
291
     0
 70
    58
 90
        2
176
     1
 90
        2
176
     1
 90
        1
176
     1
 90
        2
176
     1
 40
0.6
176
     1
 40
30.0
176
     1
 62
     7
420
 16777215
176
     1
 90
        1
176
     1
 90
       10
176
     1
 62
     7
176
     1
 62
   257
176
     1
 90
        2
176
     1
 90
        1
176
     1
 40
1.0
176
     1
 90
        8
176
     1
 62
   257
176
     1
 40
1.0
176
     1
 90
        1
176
     1
 90
        6
176
     1
 90
        2
176
     1
 62
     7
176
     1
 90
        3
176
     1
 90
        0
176
     1
 90
        0
176
     1
290
     0
176
     1
 90
        5
176
     1
 40
0.0
176
     1
 90
        0
176
     1
290
     0
176
     1
290
     1
176
     1
290
     1
176
     1
290
     0
176
     1
290
     0
176
     1
290
     0
176
     1
290
     0
176
     1
290
     0
176
     1
290
     0
176
     1
 90
       50
176
     1
 40
0.0
176
     1
 40
1.0
176
     1
 90
        0
176
     1
 62
    18
420
        0
176
     1
 90
       50
176
     1
 90
        3
176
     1
 62
     5
420
      255
176
     1
290
     0
176
     1
 90
       50
176
     1
 90
       50
176
     1
 90
       50
176
     1
290
     0
176
     1
 90
       50
176
     1
 62
   256
176
     0
 40
1.0
176
     0
 90
        2
176
     1
  1
strokes_ogs.tif
176
     1
290
     0
176
     1
 40
1.0
176
     1
 40
1.0
176
     1
  0
VISUALSTYLE
  5
3E
102
{ACAD_REACTORS
330
2A
102
}
330
2A
100
AcDbVisualStyle
  2
Shades of Gray
 70
    23
177
     3
291
     0
 70
    58
 90
        2
176
     1
 90
        2
176
     1
 90
        3
176
     1
 90
        0
176
     1
 40
0.6
176
     1
 40
30.0
176
     1
 62
     7
420
 16777215
176
     1
 90
        2
176
     1
 90
        2
176
     1
 62
     7
176
     1
 62
     7
176
     1
 90
        1
176
     1
 90
        1
176
     1
 40
40.0
176
     1
 90
        8
176
     1
 62
     7
176
     1
 40
1.0
176
     1
 90
        1
176
     1
 90
        6
176
     1
 90
        2
176
     1
 62
     7
176
     1
 90
        3
176
     1
 90
        0
176
     1
 90
        0
176
     1
290
     0
176
     1
 90
        1
176
     1
 40
0.0
176
     1
 90
        0
176
     1
290
     0
176
     1
290
     1
176
     1
290
     1
176
     1
290
     0
176
     1
290
     0
176
     1
290
     0
176
     1
290
     0
176
     1
290
     0
176
     1
290
     0
176
     1
 90
       50
176
     1
 40
0.0
176
     1
 40
1.0
176
     1
 90
        0
176
     1
 62
    18
420
        0
176
     1
 90
       50
176
     1
 90
        3
176
     1
 62
     5
420
      255
176
     1
290
     0
176
     1
 90
       50
176
     1
 90
       50
176
     1
 90
       50
176
     1
290
     0
176
     1
 90
       50
176
     1
 62
   256
176
     0
 40
1.0
176
     0
 90
        2
176
     1
  1
strokes_ogs.tif
176
     1
290
     0
176
     1
 40
1.0
176
     1
 40
1.0
176
     1
  0
VISUALSTYLE
  5
3F
102
{ACAD_REACTORS
330
2A
102
}
330
2A
100
AcDbVisualStyle
  2
Sketchy
 70
    24
177
     3
291
     0
 70
    58
 90
        1
176
     1
 90
        2
176
     1
 90
        2
176
     1
 90
        0
176
     1
 40
0.6
176
     1
 40
30.0
176
     1
 62
     7
420
 16777215
176
     1
 90
        2
176
     1
 90
        2
176
     1
 62
     7
176
     1
 62
     7
176
     1
 90
        1
176
     1
 90
        1
176
     1
 40
40.0
176
     1
 90
       11
176
     1
 62
     7
176
     1
 40
1.0
176
     1
 90
        1
176
     1
 90
        6
176
     1
 90
        2
176
     1
 62
     7
176
     1
 90
        6
176
     1
 90
        0
176
     1
 90
        0
176
     1
290
     0
176
     1
 90
        1
176
     1
 40
0.0
176
     1
 90
        0
176
     1
290
     0
176
     1
290
     1
176
     1
290
     1
176
     1
290
     0
176
     1
290
     0
176
     1
290
     0
176
     1
290
     0
176
     1
290
     0
176
     1
290
     0
176
     1
 90
       50
176
     1
 40
0.0
176
     1
 40
1.0
176
     1
 90
        0
176
     1
 62
    18
420
        0
176
     1
 90
       50
176
     1
 90
        3
176
     1
 62
     5
420
      255
176
     1
290
     0
176
     1
 90
       50
176
     1
 90
       50
176
     1
 90
       50
176
     1
290
     0
176
     1
 90
       50
176
     1
 62
   256
176
     0
 40
1.0
176
     0
 90
        2
176
     1
  1
strokes_ogs.tif
176
     1
290
     0
176
     1
 40
1.0
176
     1
 40
1.0
176
     1
  0
VISUALSTYLE
  5
37
102
{ACAD_REACTORS
330
2A
102
}
330
2A
100
AcDbVisualStyle
  2
Thicken
 70
    13
177
     3
291
     1
 70
    58
 90
        2
176
     1
 90
        2
176
     1
 90
        0
176
     1
 90
        0
176
     1
 40
0.6
176
     1
 40
30.0
176
     1
 62
     7
420
 16777215
176
     1
 90
        1
176
     1
 90
        4
176
     1
 62
     7
176
     1
 62
   257
176
     1
 90
        1
176
     1
 90
        1
176
     1
 40
1.0
176
     1
 90
       12
176
     1
 62
     7
176
     1
 40
1.0
176
     1
 90
        1
176
     1
 90
        6
176
     1
 90
        2
176
     1
 62
     7
176
     1
 90
        5
176
     1
 90
        0
176
     1
 90
        0
176
     1
290
     0
176
     1
 90
        1
176
     1
 40
0.0
176
     1
 90
        0
176
     1
290
     0
176
     1
290
     1
176
     1
290
     1
176
     1
290
     0
176
     1
290
     0
176
     1
290
     0
176
     1
290
     0
176
     1
290
     0
176
     1
290
     0
176
     1
 90
       50
176
     1
 40
0.0
176
     1
 40
1.0
176
     1
 90
        0
176
     1
 62
    18
420
        0
176
     1
 90
       50
176
     1
 90
        3
176
     1
 62
     5
420
      255
176
     1
290
     0
176
     1
 90
       50
176
     1
 90
       50
176
     1
 90
       50
176
     1
290
     0
176
     1
 90
       50
176
     1
 62
   256
176
     0
 40
1.0
176
     0
 90
        2
176
     1
  1
strokes_ogs.tif
176
     1
290
     0
176
     1
 40
1.0
176
     1
 40
1.0
176
     1
  0
VISUALSTYLE
  5
30
102
{ACAD_REACTORS
330
2A
102
}
330
2A
100
AcDbVisualStyle
  2
Wireframe
 70
     5
177
     3
291
     0
 70
    58
 90
        0
176
     1
 90
        2
176
     1
 90
        0
176
     1
 90
        0
176
     1
 40
0.6
176
     1
 40
30.0
176
     1
 62
     7
420
 16777215
176
     1
 90
        1
176
     1
 90
        4
176
     1
 62
     7
176
     1
 62
   257
176
     1
 90
        1
176
     1
 90
        1
176
     1
 40
1.0
176
     1
 90
        0
176
     1
 62
   257
176
     1
 40
1.0
176
     1
 90
        1
176
     1
 90
        6
176
     1
 90
        2
176
     1
 62
     7
176
     1
 90
        3
176
     1
 90
        0
176
     1
 90
        0
176
     1
290
     0
176
     1
 90
        1
176
     1
 40
0.0
176
     1
 90
        0
176
     1
290
     0
176
     1
290
     1
176
     1
290
     1
176
     1
290
     0
176
     1
290
     0
176
     1
290
     0
176
     1
290
     0
176
     1
290
     0
176
     1
290
     0
176
     1
 90
       50
176
     1
 40
0.0
176
     1
 40
1.0
176
     1
 90
        0
176
     1
 62
    18
420
        0
176
     1
 90
       50
176
     1
 90
        3
176
     1
 62
     5
420
      255
176
     1
290
     0
176
     1
 90
       50
176
     1
 90
       50
176
     1
 90
       50
176
     1
290
     0
176
     1
 90
       50
176
     1
 62
   256
176
     0
 40
1.0
176
     0
 90
        2
176
     1
  1
strokes_ogs.tif
176
     1
290
     0
176
     1
 40
1.0
176
     1
 40
1.0
176
     1
  0
VISUALSTYLE
  5
40
102
{ACAD_REACTORS
330
2A
102
}
330
2A
100
AcDbVisualStyle
  2
X-Ray
 70
    25
177
     3
291
     0
 70
    58
 90
        2
176
     1
 90
        2
176
     1
 90
        1
176
     1
 90
        1
176
     1
 40
0.5
176
     1
 40
30.0
176
     1
 62
     7
420
 16777215
176
     1
 90
        1
176
     1
 90
        0
176
     1
 62
     7
176
     1
 62
   257
176
     1
 90
        1
176
     1
 90
        1
176
     1
 40
1.0
176
     1
 90
        8
176
     1
 62
     7
176
     1
 40
1.0
176
     1
 90
        1
176
     1
 90
        6
176
     1
 90
        2
176
     1
 62
     7
176
     1
 90
        3
176
     1
 90
        0
176
     1
 90
        0
176
     1
290
     0
176
     1
 90
       13
176
     1
 40
0.0
176
     1
 90
        0
176
     1
290
     0
176
     1
290
     1
176
     1
290
     1
176
     1
290
     0
176
     1
290
     0
176
     1
290
     0
176
     1
290
     0
176
     1
290
     0
176
     1
290
     0
176
     1
 90
       50
176
     1
 40
0.0
176
     1
 40
1.0
176
     1
 90
        0
176
     1
 62
    18
420
        0
176
     1
 90
       50
176
     1
 90
        3
176
     1
 62
     5
420
      255
176
     1
290
     0
176
     1
 90
       50
176
     1
 90
       50
176
     1
 90
       50
176
     1
290
     0
176
     1
 90
       50
176
     1
 62
   256
176
     0
 40
1.0
176
     0
 90
        2
176
     1
  1
strokes_ogs.tif
176
     1
290
     0
176
     1
 40
1.0
176
     1
 40
1.0
176
     1
  0
DICTIONARYVAR
  5
8B
102
{ACAD_REACTORS
330
8A
102
}
330
8A
100
DictionaryVariables
280
     0
  1
1:1
  0
DICTIONARYVAR
  5
90
102
{ACAD_REACTORS
330
8A
102
}
330
8A
100
DictionaryVariables
280
     0
  1
Standard
  0
DICTIONARYVAR
  5
8F
102
{ACAD_REACTORS
330
8A
102
}
330
8A
100
DictionaryVariables
280
     0
  1
Standard
  0
DICTIONARY
  5
8C
330
5A
100
AcDbDictionary
280
     1
281
     1
  3
ACAD_ROUNDTRIP_2008_TABLESTYLE_CELLSTYLEMAP
360
8D
  0
CELLSTYLEMAP
  5
8D
102
{ACAD_REACTORS
330
8C
102
}
330
8C
100
AcDbCellStyleMap
 90
        3
300
CELLSTYLE
  1
TABLEFORMAT_BEGIN
 90
        5
170
     1
 91
        0
 92
    32768
 62
   257
 93
        1
300
CONTENTFORMAT
  1
CONTENTFORMAT_BEGIN
 90
        0
 91
        0
 92
        4
 93
        0
300

 40
0.0
140
1.0
 94
        5
 62
     0
340
11
144
0.25
309
CONTENTFORMAT_END
171
     1
301
MARGIN
  1
CELLMARGIN_BEGIN
 40
0.06
 40
0.06
 40
0.06
 40
0.06
 40
0.06
 40
0.06
309
CELLMARGIN_END
 94
        6
 95
        1
302
GRIDFORMAT
  1
GRIDFORMAT_BEGIN
 90
        0
 91
        1
 62
     0
 92
       -2
340
14
 93
        0
 40
0.045
309
GRIDFORMAT_END
 95
        2
302
GRIDFORMAT
  1
GRIDFORMAT_BEGIN
 90
        0
 91
        1
 62
     0
 92
       -2
340
14
 93
        0
 40
0.045
309
GRIDFORMAT_END
 95
        4
302
GRIDFORMAT
  1
GRIDFORMAT_BEGIN
 90
        0
 91
        1
 62
     0
 92
       -2
340
14
 93
        0
 40
0.045
309
GRIDFORMAT_END
 95
        8
302
GRIDFORMAT
  1
GRIDFORMAT_BEGIN
 90
        0
 91
        1
 62
     0
 92
       -2
340
14
 93
        0
 40
0.045
309
GRIDFORMAT_END
 95
       16
302
GRIDFORMAT
  1
GRIDFORMAT_BEGIN
 90
        0
 91
        1
 62
     0
 92
       -2
340
14
 93
        0
 40
0.045
309
GRIDFORMAT_END
 95
       32
302
GRIDFORMAT
  1
GRIDFORMAT_BEGIN
 90
        0
 91
        1
 62
     0
 92
       -2
340
14
 93
        0
 40
0.045
309
GRIDFORMAT_END
309
TABLEFORMAT_END
  1
CELLSTYLE_BEGIN
 90
        1
 91
        1
300
_TITLE
309
CELLSTYLE_END
300
CELLSTYLE
  1
TABLEFORMAT_BEGIN
 90
        5
170
     1
 91
        0
 92
        0
 62
   257
 93
        1
300
CONTENTFORMAT
  1
CONTENTFORMAT_BEGIN
 90
        0
 91
        0
 92
        4
 93
        0
300

 40
0.0
140
1.0
 94
        5
 62
     0
340
11
144
0.18
309
CONTENTFORMAT_END
171
     1
301
MARGIN
  1
CELLMARGIN_BEGIN
 40
0.06
 40
0.06
 40
0.06
 40
0.06
 40
0.06
 40
0.06
309
CELLMARGIN_END
 94
        6
 95
        1
302
GRIDFORMAT
  1
GRIDFORMAT_BEGIN
 90
        0
 91
        1
 62
     0
 92
       -2
340
14
 93
        0
 40
0.045
309
GRIDFORMAT_END
 95
        2
302
GRIDFORMAT
  1
GRIDFORMAT_BEGIN
 90
        0
 91
        1
 62
     0
 92
       -2
340
14
 93
        0
 40
0.045
309
GRIDFORMAT_END
 95
        4
302
GRIDFORMAT
  1
GRIDFORMAT_BEGIN
 90
        0
 91
        1
 62
     0
 92
       -2
340
14
 93
        0
 40
0.045
309
GRIDFORMAT_END
 95
        8
302
GRIDFORMAT
  1
GRIDFORMAT_BEGIN
 90
        0
 91
        1
 62
     0
 92
       -2
340
14
 93
        0
 40
0.045
309
GRIDFORMAT_END
 95
       16
302
GRIDFORMAT
  1
GRIDFORMAT_BEGIN
 90
        0
 91
        1
 62
     0
 92
       -2
340
14
 93
        0
 40
0.045
309
GRIDFORMAT_END
 95
       32
302
GRIDFORMAT
  1
GRIDFORMAT_BEGIN
 90
        0
 91
        1
 62
     0
 92
       -2
340
14
 93
        0
 40
0.045
309
GRIDFORMAT_END
309
TABLEFORMAT_END
  1
CELLSTYLE_BEGIN
 90
        2
 91
        1
300
_HEADER
309
CELLSTYLE_END
300
CELLSTYLE
  1
TABLEFORMAT_BEGIN
 90
        5
170
     1
 91
        0
 92
        0
 62
   257
 93
        1
300
CONTENTFORMAT
  1
CONTENTFORMAT_BEGIN
 90
        0
 91
        0
 92
        4
 93
        0
300

 40
0.0
140
1.0
 94
        2
 62
     0
340
11
144
0.18
309
CONTENTFORMAT_END
171
     1
301
MARGIN
  1
CELLMARGIN_BEGIN
 40
0.06
 40
0.06
 40
0.06
 40
0.06
 40
0.06
 40
0.06
309
CELLMARGIN_END
 94
        6
 95
        1
302
GRIDFORMAT
  1
GRIDFORMAT_BEGIN
 90
        0
 91
        1
 62
     0
 92
       -2
340
14
 93
        0
 40
0.045
309
GRIDFORMAT_END
 95
        2
302
GRIDFORMAT
  1
GRIDFORMAT_BEGIN
 90
        0
 91
        1
 62
     0
 92
       -2
340
14
 93
        0
 40
0.045
309
GRIDFORMAT_END
 95
        4
302
GRIDFORMAT
  1
GRIDFORMAT_BEGIN
 90
        0
 91
        1
 62
     0
 92
       -2
340
14
 93
        0
 40
0.045
309
GRIDFORMAT_END
 95
        8
302
GRIDFORMAT
  1
GRIDFORMAT_BEGIN
 90
        0
 91
        1
 62
     0
 92
       -2
340
14
 93
        0
 40
0.045
309
GRIDFORMAT_END
 95
       16
302
GRIDFORMAT
  1
GRIDFORMAT_BEGIN
 90
        0
 91
        1
 62
     0
 92
       -2
340
14
 93
        0
 40
0.045
309
GRIDFORMAT_END
 95
       32
302
GRIDFORMAT
  1
GRIDFORMAT_BEGIN
 90
        0
 91
        1
 62
     0
 92
       -2
340
14
 93
        0
 40
0.045
309
GRIDFORMAT_END
309
TABLEFORMAT_END
  1
CELLSTYLE_BEGIN
 90
        3
 91
        2
300
_DATA
309
CELLSTYLE_END
  0
ENDSEC
  0
EOF
