  0
SECTION
  2
HEADER
  9
$ACADVER
  1
AC1027
  9
$ACADMAINTVER
 70
   105
  9
$DWGCODEPAGE
  3
ANSI_1252
  9
$LASTSAVEDBY
  1
Office Desk
  9
$REQUIREDVERSIONS
160
                 0
  9
$INSBASE
 10
0.0
 20
0.0
 30
0.0
  9
$EXTMIN
 10
506.4447
 20
-470.9155
 30
0.0
  9
$EXTMAX
 10
787.3526
 20
-110.1486
 30
0.0
  9
$LIMMIN
 10
0.0
 20
0.0
  9
$LIMMAX
 10
12.0
 20
9.0
  9
$ORTHOMODE
 70
     0
  9
$REGENMODE
 70
     1
  9
$FILLMODE
 70
     1
  9
$QTEXTMODE
 70
     0
  9
$MIRRTEXT
 70
     1
  9
$LTSCALE
 40
1.0
  9
$ATTMODE
 70
     1
  9
$TEXTSIZE
 40
0.2
  9
$TRACEWID
 40
0.05
  9
$TEXTSTYLE
  7
Standard
  9
$CLAYER
  8
0
  9
$CELTYPE
  6
ByLayer
  9
$CECOLOR
 62
   256
  9
$CELTSCALE
 40
1.0
  9
$DISPSILH
 70
     0
  9
$DIMSCALE
 40
1.0
  9
$DIMASZ
 40
0.18
  9
$DIMEXO
 40
0.0625
  9
$DIMDLI
 40
0.38
  9
$DIMRND
 40
0.0
  9
$DIMDLE
 40
0.0
  9
$DIMEXE
 40
0.18
  9
$DIMTP
 40
0.0
  9
$DIMTM
 40
0.0
  9
$DIMTXT
 40
0.18
  9
$DIMCEN
 40
0.09
  9
$DIMTSZ
 40
0.0
  9
$DIMTOL
 70
     0
  9
$DIMLIM
 70
     0
  9
$DIMTIH
 70
     1
  9
$DIMTOH
 70
     1
  9
$DIMSE1
 70
     0
  9
$DIMSE2
 70
     0
  9
$DIMTAD
 70
     0
  9
$DIMZIN
 70
     0
  9
$DIMBLK
  1

  9
$DIMASO
 70
     1
  9
$DIMSHO
 70
     1
  9
$DIMPOST
  1

  9
$DIMAPOST
  1

  9
$DIMALT
 70
     0
  9
$DIMALTD
 70
     2
  9
$DIMALTF
 40
25.4
  9
$DIMLFAC
 40
1.0
  9
$DIMTOFL
 70
     0
  9
$DIMTVP
 40
0.0
  9
$DIMTIX
 70
     0
  9
$DIMSOXD
 70
     0
  9
$DIMSAH
 70
     0
  9
$DIMBLK1
  1

  9
$DIMBLK2
  1

  9
$DIMSTYLE
  2
Standard
  9
$DIMCLRD
 70
     0
  9
$DIMCLRE
 70
     0
  9
$DIMCLRT
 70
     0
  9
$DIMTFAC
 40
1.0
  9
$DIMGAP
 40
0.09
  9
$DIMJUST
 70
     0
  9
$DIMSD1
 70
     0
  9
$DIMSD2
 70
     0
  9
$DIMTOLJ
 70
     1
  9
$DIMTZIN
 70
     0
  9
$DIMALTZ
 70
     0
  9
$DIMALTTZ
 70
     0
  9
$DIMUPT
 70
     0
  9
$DIMDEC
 70
     4
  9
$DIMTDEC
 70
     4
  9
$DIMALTU
 70
     2
  9
$DIMALTTD
 70
     2
  9
$DIMTXSTY
  7
Standard
  9
$DIMAUNIT
 70
     0
  9
$DIMADEC
 70
     0
  9
$DIMALTRND
 40
0.0
  9
$DIMAZIN
 70
     0
  9
$DIMDSEP
 70
    46
  9
$DIMATFIT
 70
     3
  9
$DIMFRAC
 70
     0
  9
$DIMLDRBLK
  1

  9
$DIMLUNIT
 70
     2
  9
$DIMLWD
 70
    -2
  9
$DIMLWE
 70
    -2
  9
$DIMTMOVE
 70
     0
  9
$DIMFXL
 40
1.0
  9
$DIMFXLON
 70
     0
  9
$DIMJOGANG
 40
0.7853981633974483
  9
$DIMTFILL
 70
     0
  9
$DIMTFILLCLR
 70
     0
  9
$DIMARCSYM
 70
     0
  9
$DIMLTYPE
  6

  9
$DIMLTEX1
  6

  9
$DIMLTEX2
  6

  9
$DIMTXTDIRECTION
 70
     0
  9
$LUNITS
 70
     2
  9
$LUPREC
 70
     4
  9
$SKETCHINC
 40
0.1
  9
$FILLETRAD
 40
0.0
  9
$AUNITS
 70
     0
  9
$AUPREC
 70
     0
  9
$MENU
  1
.
  9
$ELEVATION
 40
0.0
  9
$PELEVATION
 40
0.0
  9
$THICKNESS
 40
0.0
  9
$LIMCHECK
 70
     0
  9
$CHAMFERA
 40
0.0
  9
$CHAMFERB
 40
0.0
  9
$CHAMFERC
 40
0.0
  9
$CHAMFERD
 40
0.0
  9
$SKPOLY
 70
     0
  9
$TDCREATE
 40
2461016.719847998
  9
$TDUCREATE
 40
2461016.490681331
  9
$TDUPDATE
 40
2461016.719848079
  9
$TDUUPDATE
 40
2461016.490681412
  9
$TDINDWG
 40
0.0000000116
  9
$TDUSRTIMER
 40
0.0000000116
  9
$USRTIMER
 70
     1
  9
$ANGBASE
 50
0.0
  9
$ANGDIR
 70
     0
  9
$PDMODE
 70
     0
  9
$PDSIZE
 40
0.0
  9
$PLINEWID
 40
0.0
  9
$SPLFRAME
 70
     0
  9
$SPLINETYPE
 70
     6
  9
$SPLINESEGS
 70
     8
  9
$HANDSEED
  5
126
  9
$SURFTAB1
 70
     6
  9
$SURFTAB2
 70
     6
  9
$SURFTYPE
 70
     6
  9
$SURFU
 70
     6
  9
$SURFV
 70
     6
  9
$UCSBASE
  2

  9
$UCSNAME
  2

  9
$UCSORG
 10
0.0
 20
0.0
 30
0.0
  9
$UCSXDIR
 10
1.0
 20
0.0
 30
0.0
  9
$UCSYDIR
 10
0.0
 20
1.0
 30
0.0
  9
$UCSORTHOREF
  2

  9
$UCSORTHOVIEW
 70
     0
  9
$UCSORGTOP
 10
0.0
 20
0.0
 30
0.0
  9
$UCSORGBOTTOM
 10
0.0
 20
0.0
 30
0.0
  9
$UCSORGLEFT
 10
0.0
 20
0.0
 30
0.0
  9
$UCSORGRIGHT
 10
0.0
 20
0.0
 30
0.0
  9
$UCSORGFRONT
 10
0.0
 20
0.0
 30
0.0
  9
$UCSORGBACK
 10
0.0
 20
0.0
 30
0.0
  9
$PUCSBASE
  2

  9
$PUCSNAME
  2

  9
$PUCSORG
 10
0.0
 20
0.0
 30
0.0
  9
$PUCSXDIR
 10
1.0
 20
0.0
 30
0.0
  9
$PUCSYDIR
 10
0.0
 20
1.0
 30
0.0
  9
$PUCSORTHOREF
  2

  9
$PUCSORTHOVIEW
 70
     0
  9
$PUCSORGTOP
 10
0.0
 20
0.0
 30
0.0
  9
$PUCSORGBOTTOM
 10
0.0
 20
0.0
 30
0.0
  9
$PUCSORGLEFT
 10
0.0
 20
0.0
 30
0.0
  9
$PUCSORGRIGHT
 10
0.0
 20
0.0
 30
0.0
  9
$PUCSORGFRONT
 10
0.0
 20
0.0
 30
0.0
  9
$PUCSORGBACK
 10
0.0
 20
0.0
 30
0.0
  9
$USERI1
 70
     0
  9
$USERI2
 70
     0
  9
$USERI3
 70
     0
  9
$USERI4
 70
     0
  9
$USERI5
 70
     0
  9
$USERR1
 40
0.0
  9
$USERR2
 40
0.0
  9
$USERR3
 40
0.0
  9
$USERR4
 40
0.0
  9
$USERR5
 40
0.0
  9
$WORLDVIEW
 70
     1
  9
$SHADEDGE
 70
     3
  9
$SHADEDIF
 70
    70
  9
$TILEMODE
 70
     1
  9
$MAXACTVP
 70
    64
  9
$PINSBASE
 10
0.0
 20
0.0
 30
0.0
  9
$PLIMCHECK
 70
     0
  9
$PEXTMIN
 10
1.000000000000000E+20
 20
1.000000000000000E+20
 30
1.000000000000000E+20
  9
$PEXTMAX
 10
-1.000000000000000E+20
 20
-1.000000000000000E+20
 30
-1.000000000000000E+20
  9
$PLIMMIN
 10
0.0
 20
0.0
  9
$PLIMMAX
 10
12.0
 20
9.0
  9
$UNITMODE
 70
     0
  9
$VISRETAIN
 70
     1
  9
$PLINEGEN
 70
     0
  9
$PSLTSCALE
 70
     1
  9
$TREEDEPTH
 70
  3020
  9
$CMLSTYLE
  2
Standard
  9
$CMLJUST
 70
     0
  9
$CMLSCALE
 40
1.0
  9
$PROXYGRAPHICS
 70
     1
  9
$MEASUREMENT
 70
     0
  9
$CELWEIGHT
370
    -1
  9
$ENDCAPS
280
     0
  9
$JOINSTYLE
280
     0
  9
$LWDISPLAY
290
     0
  9
$INSUNITS
 70
     4
  9
$HYPERLINKBASE
  1

  9
$STYLESHEET
  1

  9
$XEDIT
290
     1
  9
$CEPSNTYPE
380
     0
  9
$PSTYLEMODE
290
     1
  9
$FINGERPRINTGUID
  2
{cdce6b57-15fa-4c02-ae9a-2a30a0207f28}
  9
$VERSIONGUID
  2
{FAEB1C32-E019-11D5-929B-00C0DF256EC4}
  9
$EXTNAMES
290
     1
  9
$PSVPSCALE
 40
0.0
  9
$OLESTARTUP
290
     0
  9
$SORTENTS
280
   127
  9
$INDEXCTL
280
     0
  9
$HIDETEXT
280
     1
  9
$XCLIPFRAME
280
     2
  9
$HALOGAP
280
     0
  9
$OBSCOLOR
 70
   257
  9
$OBSLTYPE
280
     0
  9
$INTERSECTIONDISPLAY
280
     0
  9
$INTERSECTIONCOLOR
 70
   257
  9
$DIMASSOC
280
     2
  9
$PROJECTNAME
  1

  9
$CAMERADISPLAY
290
     0
  9
$LENSLENGTH
 40
50.0
  9
$CAMERAHEIGHT
 40
0.0
  9
$STEPSPERSEC
 40
2.0
  9
$STEPSIZE
 40
6.0
  9
$3DDWFPREC
 40
2.0
  9
$PSOLWIDTH
 40
0.25
  9
$PSOLHEIGHT
 40
4.0
  9
$LOFTANG1
 40
1.570796326794897
  9
$LOFTANG2
 40
1.570796326794897
  9
$LOFTMAG1
 40
0.0
  9
$LOFTMAG2
 40
0.0
  9
$LOFTPARAM
 70
     7
  9
$LOFTNORMALS
280
     1
  9
$LATITUDE
 40
37.795
  9
$LONGITUDE
 40
-122.394
  9
$NORTHDIRECTION
 40
0.0
  9
$TIMEZONE
 70
 -8000
  9
$LIGHTGLYPHDISPLAY
280
     1
  9
$TILEMODELIGHTSYNCH
280
     1
  9
$CMATERIAL
347
44
  9
$SOLIDHIST
280
     0
  9
$SHOWHIST
280
     1
  9
$DWFFRAME
280
     2
  9
$DGNFRAME
280
     2
  9
$REALWORLDSCALE
290
     1
  9
$INTERFERECOLOR
 62
   256
  9
$CSHADOW
280
     0
  9
$SHADOWPLANELOCATION
 40
0.0
  0
ENDSEC
  0
SECTION
  2
CLASSES
  0
CLASS
  1
ACDBDICTIONARYWDFLT
  2
AcDbDictionaryWithDefault
  3
ObjectDBX Classes
 90
        0
 91
        3
280
     0
281
     0
  0
CLASS
  1
VISUALSTYLE
  2
AcDbVisualStyle
  3
ObjectDBX Classes
 90
     4095
 91
        3
280
     0
281
     0
  0
CLASS
  1
MATERIAL
  2
AcDbMaterial
  3
ObjectDBX Classes
 90
     1153
 91
        3
280
     0
281
     0
  0
CLASS
  1
SCALE
  2
AcDbScale
  3
ObjectDBX Classes
 90
     1153
 91
        3
280
     0
281
     0
  0
CLASS
  1
TABLESTYLE
  2
AcDbTableStyle
  3
ObjectDBX Classes
 90
     4095
 91
        3
280
     0
281
     0
  0
CLASS
  1
MLEADERSTYLE
  2
AcDbMLeaderStyle
  3
ACDB_MLEADERSTYLE_CLASS
 90
     4095
 91
        3
280
     0
281
     0
  0
CLASS
  1
SUN
  2
AcDbSun
  3
SCENEOE
 90
     1153
 91
        3
280
     0
281
     0
  0
CLASS
  1
DICTIONARYVAR
  2
AcDbDictionaryVar
  3
ObjectDBX Classes
 90
        0
 91
        3
280
     0
281
     0
  0
CLASS
  1
CELLSTYLEMAP
  2
AcDbCellStyleMap
  3
ObjectDBX Classes
 90
     1152
 91
        3
280
     0
281
     0
  0
ENDSEC
  0
SECTION
  2
TABLES
  0
TABLE
  2
VPORT
  5
8
330
0
100
AcDbSymbolTable
 70
     1
  0
VPORT
  5
29
330
8
100
AcDbSymbolTableRecord
100
AcDbViewportTableRecord
  2
*Active
 70
     0
 10
0.0
 20
0.0
 11
1.0
 21
1.0
 12
10.42990654205607
 22
4.5
 13
0.0
 23
0.0
 14
0.5
 24
0.5
 15
0.5
 25
0.5
 16
0.0
 26
0.0
 36
1.0
 17
0.0
 27
0.0
 37
0.0
 40
9.0
 41
1.972972972850329
 42
50.0
 43
0.0
 44
0.0
 50
0.0
 51
0.0
 71
     0
 72
   100
 73
     1
 74
     3
 75
     0
 76
     0
 77
     0
 78
     0
281
     0
 65
     1
110
0.0
120
0.0
130
0.0
111
1.0
121
0.0
131
0.0
112
0.0
122
1.0
132
0.0
 79
     0
146
0.0
348
2F
 60
     3
 61
     5
292
     1
282
     1
141
0.0
142
0.0
 63
   250
361
5D
  0
ENDTAB
  0
TABLE
  2
LTYPE
  5
5
330
0
100
AcDbSymbolTable
 70
     3
  0
LTYPE
  5
14
330
5
100
AcDbSymbolTableRecord
100
AcDbLinetypeTableRecord
  2
ByBlock
 70
     0
  3

 72
    65
 73
     0
 40
0.0
  0
LTYPE
  5
15
330
5
100
AcDbSymbolTableRecord
100
AcDbLinetypeTableRecord
  2
ByLayer
 70
     0
  3

 72
    65
 73
     0
 40
0.0
  0
LTYPE
  5
16
330
5
100
AcDbSymbolTableRecord
100
AcDbLinetypeTableRecord
  2
Continuous
 70
     0
  3
Solid line
 72
    65
 73
     0
 40
0.0
  0
LTYPE
  5
69
330
5
100
AcDbSymbolTableRecord
100
AcDbLinetypeTableRecord
  2
New Line1
 70
     0
  3

 72
    65
 73
     2
 40
0.8
 49
0.5
 74
     4
 75
     0
340
0
 46
1.0
 50
0.0
 44
0.0
 45
0.0
 49
-0.3
 74
     4
 75
     0
340
0
 46
1.0
 50
0.0
 44
0.0
 45
0.0
  0
LTYPE
  5
6B
330
5
100
AcDbSymbolTableRecord
100
AcDbLinetypeTableRecord
  2
New Line2
 70
     0
  3

 72
    65
 73
     2
 40
0.8
 49
0.5
 74
     4
 75
     0
340
0
 46
1.0
 50
0.0
 44
0.0
 45
0.0
 49
-0.3
 74
     4
 75
     0
340
0
 46
1.0
 50
0.0
 44
0.0
 45
0.0
  0
ENDTAB
  0
TABLE
  2
LAYER
  5
2
330
0
100
AcDbSymbolTable
 70
     2
  0
LAYER
  5
10
330
2
100
AcDbSymbolTableRecord
100
AcDbLayerTableRecord
  2
0
 70
     0
 62
     7
  6
Continuous
370
    -3
390
F
347
46
348
0
  0
LAYER
  5
5F
330
2
100
AcDbSymbolTableRecord
100
AcDbLayerTableRecord
  2
Layer 1
 70
     0
 62
     7
  6
Continuous
370
    -3
390
F
347
46
348
0
  0
ENDTAB
  0
TABLE
  2
STYLE
  5
3
330
0
100
AcDbSymbolTable
 70
     1
  0
STYLE
  5
11
330
3
100
AcDbSymbolTableRecord
100
AcDbTextStyleTableRecord
  2
Standard
 70
     0
 40
0.0
 41
1.0
 50
0.0
 71
     0
 42
0.2
  3
txt
  4

  0
ENDTAB
  0
TABLE
  2
VIEW
  5
6
330
0
100
AcDbSymbolTable
 70
     0
  0
ENDTAB
  0
TABLE
  2
UCS
  5
7
330
0
100
AcDbSymbolTable
 70
     0
  0
ENDTAB
  0
TABLE
  2
APPID
  5
9
330
0
100
AcDbSymbolTable
 70
     2
  0
APPID
  5
12
330
9
100
AcDbSymbolTableRecord
100
AcDbRegAppTableRecord
  2
ACAD
 70
     0
  0
APPID
  5
5E
330
9
100
AcDbSymbolTableRecord
100
AcDbRegAppTableRecord
  2
ODA
 70
     0
  0
ENDTAB
  0
TABLE
  2
DIMSTYLE
  5
A
330
0
100
AcDbSymbolTable
 70
     1
100
AcDbDimStyleTable
  0
DIMSTYLE
105
27
330
A
100
AcDbSymbolTableRecord
100
AcDbDimStyleTableRecord
  2
Standard
 70
     0
178
     0
340
11
  0
ENDTAB
  0
TABLE
  2
BLOCK_RECORD
  5
1
330
0
100
AcDbSymbolTable
 70
     1
  0
BLOCK_RECORD
  5
1F
330
1
100
AcDbSymbolTableRecord
100
AcDbBlockTableRecord
  2
*Model_Space
340
22
 70
     0
280
     1
281
     0
  0
BLOCK_RECORD
  5
1B
330
1
100
AcDbSymbolTableRecord
100
AcDbBlockTableRecord
  2
*Paper_Space
340
1E
 70
     0
280
     1
281
     0
  0
BLOCK_RECORD
  5
23
330
1
100
AcDbSymbolTableRecord
100
AcDbBlockTableRecord
  2
*Paper_Space0
340
26
 70
     0
280
     1
281
     0
  0
ENDTAB
  0
ENDSEC
  0
SECTION
  2
BLOCKS
  0
BLOCK
  5
20
330
1F
100
AcDbEntity
  8
0
100
AcDbBlockBegin
  2
*Model_Space
 70
     0
 10
0.0
 20
0.0
 30
0.0
  3
*Model_Space
  1

  0
ENDBLK
  5
21
330
1F
100
AcDbEntity
  8
0
100
AcDbBlockEnd
  0
BLOCK
  5
1C
330
1B
100
AcDbEntity
 67
     1
  8
0
100
AcDbBlockBegin
  2
*Paper_Space
 70
     0
 10
0.0
 20
0.0
 30
0.0
  3
*Paper_Space
  1

  0
ENDBLK
  5
1D
330
1B
100
AcDbEntity
 67
     1
  8
0
100
AcDbBlockEnd
  0
BLOCK
  5
24
330
23
100
AcDbEntity
  8
0
100
AcDbBlockBegin
  2
*Paper_Space0
 70
     0
 10
0.0
 20
0.0
 30
0.0
  3
*Paper_Space0
  1

  0
ENDBLK
  5
25
330
23
100
AcDbEntity
  8
0
100
AcDbBlockEnd
  0
ENDSEC
  0
SECTION
  2
ENTITIES
  0
LWPOLYLINE
  5
60
330
1F
100
AcDbEntity
  8
Layer 1
 62
   250
370
     9
100
AcDbPolyline
 90
        5
 70
     1
 43
0.0
 10
506.4828
 20
-470.8773
 10
787.3144
 20
-470.8773
 10
787.3144
 20
-110.1867
 10
506.4828
 20
-110.1867
 10
506.4828
 20
-470.8773
  0
LWPOLYLINE
  5
61
330
1F
100
AcDbEntity
  8
Layer 1
 62
     7
370
    35
100
AcDbPolyline
 90
        2
 70
     0
 43
0.0
 10
634.641
 20
-174.6065
 10
725.8377
 20
-174.6065
  0
LWPOLYLINE
  5
62
330
1F
100
AcDbEntity
  8
Layer 1
 62
     7
370
    40
100
AcDbPolyline
 90
        2
 70
     0
 43
0.0
 10
679.966
 20
-237.2254
 10
680.0903
 20
-374.4229
  0
LWPOLYLINE
  5
63
330
1F
100
AcDbEntity
  8
Layer 1
 62
     7
370
    53
100
AcDbPolyline
 90
        3
 70
     0
 43
0.0
 10
687.0202
 20
-249.8929
 10
680.3492
 20
-235.6244
 10
673.2855
 20
-251.6243
  0
LWPOLYLINE
  5
64
330
1F
100
AcDbEntity
  8
Layer 1
 62
     7
370
    53
100
AcDbPolyline
 90
        3
 70
     0
 43
0.0
 10
673.459
 20
-361.8307
 10
680.1299
 20
-376.0991
 10
687.1937
 20
-360.0993
  0
LWPOLYLINE
  5
65
330
1F
100
AcDbEntity
  8
Layer 1
 62
     7
370
    40
100
AcDbPolyline
 90
        2
 70
     0
 43
0.0
 10
654.3674
 20
-187.9418
 10
706.0823
 20
-187.8413
  0
LWPOLYLINE
  5
66
330
1F
100
AcDbEntity
  8
Layer 1
 62
     7
370
    53
100
AcDbPolyline
 90
        3
 70
     0
 43
0.0
 10
659.1422
 20
-182.2352
 10
653.7639
 20
-187.6318
 10
659.7949
 20
-193.3462
  0
LWPOLYLINE
  5
67
330
1F
100
AcDbEntity
  8
Layer 1
 62
     7
370
    53
100
AcDbPolyline
 90
        3
 70
     0
 43
0.0
 10
701.3359
 20
-193.2059
 10
706.7142
 20
-187.8092
 10
700.6832
 20
-182.0948
  0
LWPOLYLINE
  5
68
330
1F
100
AcDbEntity
  8
Layer 1
  6
New Line1
 62
     7
370
    35
100
AcDbPolyline
 90
        2
 70
     0
 43
0.0
 10
711.2637
 20
-175.4715
 10
734.6228
 20
-409.0988
  0
LWPOLYLINE
  5
6A
330
1F
100
AcDbEntity
  8
Layer 1
  6
New Line2
 62
     7
370
    35
100
AcDbPolyline
 90
        2
 70
     0
 43
0.0
 10
649.4489
 20
-175.4715
 10
625.6233
 20
-409.0988
  0
LWPOLYLINE
  5
6C
330
1F
100
AcDbEntity
  8
Layer 1
 62
     7
370
    40
100
AcDbPolyline
 90
        2
 70
     0
 43
0.0
 10
635.629
 20
-401.8139
 10
724.7998
 20
-401.7133
  0
LWPOLYLINE
  5
6D
330
1F
100
AcDbEntity
  8
Layer 1
 62
     7
370
    53
100
AcDbPolyline
 90
        3
 70
     0
 43
0.0
 10
643.8621
 20
-396.1073
 10
634.5884
 20
-401.5039
 10
644.9874
 20
-407.2183
  0
LWPOLYLINE
  5
6E
330
1F
100
AcDbEntity
  8
Layer 1
 62
     7
370
    53
100
AcDbPolyline
 90
        3
 70
     0
 43
0.0
 10
716.6155
 20
-407.0779
 10
725.8892
 20
-401.6813
 10
715.4902
 20
-395.9669
  0
LWPOLYLINE
  5
6F
330
1F
100
AcDbEntity
  8
Layer 1
 62
     7
370
    40
100
AcDbPolyline
 90
        2
 70
     0
 43
0.0
 10
638.5406
 20
-160.9812
 10
721.8935
 20
-160.8461
  0
LWPOLYLINE
  5
70
330
1F
100
AcDbEntity
  8
Layer 1
 62
     7
370
    53
100
AcDbPolyline
 90
        3
 70
     0
 43
0.0
 10
646.2366
 20
-153.3195
 10
637.568
 20
-160.565
 10
647.2885
 20
-168.237
  0
LWPOLYLINE
  5
71
330
1F
100
AcDbEntity
  8
Layer 1
 62
     7
370
    53
100
AcDbPolyline
 90
        3
 70
     0
 43
0.0
 10
714.2432
 20
-168.0486
 10
722.9118
 20
-160.8031
 10
713.1913
 20
-153.1311
  0
LWPOLYLINE
  5
72
330
1F
100
AcDbEntity
  8
Layer 1
 62
     7
370
     9
100
AcDbPolyline
 90
       73
 70
     1
 43
0.0
 10
659.127
 20
-144.5537
 10
658.7531
 20
-144.5386
 10
658.3929
 20
-144.4883
 10
658.0463
 20
-144.4029
 10
657.7133
 20
-144.2823
 10
657.3941
 20
-144.1266
 10
657.0885
 20
-143.9358
 10
656.7965
 20
-143.7099
 10
656.5183
 20
-143.449
 10
656.2665
 20
-143.1666
 10
656.048
 20
-142.8706
 10
655.8629
 20
-142.5609
 10
655.711
 20
-142.2375
 10
655.5924
 20
-141.9005
 10
655.507
 20
-141.55
 10
655.4548
 20
-141.1858
 10
655.4357
 20
-140.808
 10
655.4505
 20
-140.4388
 10
655.4991
 20
-140.082
 10
655.5815
 20
-139.7377
 10
655.6976
 20
-139.406
 10
655.8475
 20
-139.0867
 10
656.0311
 20
-138.7799
 10
656.2483
 20
-138.4855
 10
656.4993
 20
-138.2037
 10
656.7695
 20
-137.9504
 10
657.0551
 20
-137.7306
 10
657.3562
 20
-137.5443
 10
657.6729
 20
-137.3915
 10
658.0051
 20
-137.2722
 10
658.3529
 20
-137.1863
 10
658.7165
 20
-137.1337
 10
659.0957
 20
-137.1145
 10
659.4677
 20
-137.1296
 10
659.8275
 20
-137.1794
 10
660.175
 20
-137.2638
 10
660.5102
 20
-137.383
 10
660.8331
 20
-137.5369
 10
661.1437
 20
-137.7256
 10
661.4421
 20
-137.9491
 10
661.7281
 20
-138.2076
 10
661.9883
 20
-138.487
 10
662.214
 20
-138.7804
 10
662.4053
 20
-139.0879
 10
662.5622
 20
-139.4095
 10
662.6847
 20
-139.745
 10
662.7728
 20
-140.0944
 10
662.8265
 20
-140.4578
 10
662.8458
 20
-140.8351
 10
662.8308
 20
-141.2019
 10
662.7809
 20
-141.5569
 10
662.696
 20
-141.9003
 10
662.5761
 20
-142.232
 10
662.4214
 20
-142.5519
 10
662.2318
 20
-142.8601
 10
662.0073
 20
-143.1566
 10
661.748
 20
-143.4413
 10
661.6198
 20
-143.5641
 10
661.4861
 20
-143.6805
 10
661.3468
 20
-143.7905
 10
661.2021
 20
-143.8943
 10
661.0518
 20
-143.9917
 10
660.8961
 20
-144.0829
 10
660.7351
 20
-144.1678
 10
660.5686
 20
-144.2466
 10
660.3977
 20
-144.3176
 10
660.2241
 20
-144.3793
 10
660.0478
 20
-144.4317
 10
659.8688
 20
-144.4747
 10
659.6872
 20
-144.5085
 10
659.503
 20
-144.5329
 10
659.3163
 20
-144.5479
 10
659.127
 20
-144.5537
  0
LWPOLYLINE
  5
73
330
1F
100
AcDbEntity
  8
Layer 1
 62
     7
370
     9
100
AcDbPolyline
 90
       69
 70
     1
 43
0.0
 10
653.772
 20
-140.9384
 10
653.8011
 20
-141.5122
 10
653.8813
 20
-142.0597
 10
654.0126
 20
-142.5808
 10
654.1951
 20
-143.0756
 10
654.4286
 20
-143.544
 10
654.7132
 20
-143.9861
 10
655.0489
 20
-144.4018
 10
655.4357
 20
-144.7912
 10
655.8311
 20
-145.1185
 10
656.2537
 20
-145.4051
 10
656.7036
 20
-145.6511
 10
657.1806
 20
-145.8563
 10
657.6848
 20
-146.0208
 10
658.2163
 20
-146.1445
 10
658.7749
 20
-146.2274
 10
659.3606
 20
-146.2696
 10
659.8278
 20
-145.9567
 10
654.9856
 20
-151.9474
 10
657.1423
 20
-151.9339
 10
663.3358
 20
-144.2427
 10
663.6138
 20
-143.868
 10
663.8543
 20
-143.4783
 10
664.0574
 20
-143.0736
 10
664.223
 20
-142.6538
 10
664.3512
 20
-142.219
 10
664.4418
 20
-141.7692
 10
664.4949
 20
-141.3043
 10
664.5105
 20
-140.8244
 10
664.4828
 20
-140.2721
 10
664.4062
 20
-139.7413
 10
664.2806
 20
-139.2321
 10
664.106
 20
-138.7443
 10
663.8824
 20
-138.2779
 10
663.6099
 20
-137.833
 10
663.2884
 20
-137.4094
 10
662.918
 20
-137.0073
 10
662.5098
 20
-136.6382
 10
662.0823
 20
-136.3187
 10
661.6354
 20
-136.049
 10
661.1691
 20
-135.8289
 10
660.6833
 20
-135.6585
 10
660.1781
 20
-135.5377
 10
659.6533
 20
-135.4665
 10
659.109
 20
-135.445
 10
658.5574
 20
-135.4731
 10
658.0282
 20
-135.5502
 10
657.5211
 20
-135.6763
 10
657.0364
 20
-135.8514
 10
656.5739
 20
-136.0755
 10
656.1336
 20
-136.3487
 10
655.7156
 20
-136.6709
 10
655.3199
 20
-137.0421
 10
655.1441
 20
-137.2316
 10
654.9778
 20
-137.4286
 10
654.8211
 20
-137.6331
 10
654.6739
 20
-137.8449
 10
654.5362
 20
-138.0641
 10
654.4081
 20
-138.2907
 10
654.2894
 20
-138.5246
 10
654.1803
 20
-138.7657
 10
654.0832
 20
-139.0142
 10
653.9993
 20
-139.2693
 10
653.9284
 20
-139.5309
 10
653.8707
 20
-139.7992
 10
653.8262
 20
-140.0741
 10
653.7949
 20
-140.3556
 10
653.7768
 20
-140.6437
 10
653.772
 20
-140.9384
  0
LWPOLYLINE
  5
74
330
1F
100
AcDbEntity
  8
Layer 1
 62
     7
370
     9
100
AcDbPolyline
 90
       73
 70
     1
 43
0.0
 10
670.0223
 20
-143.0087
 10
670.3965
 20
-143.0241
 10
670.7569
 20
-143.0746
 10
671.1037
 20
-143.1601
 10
671.4368
 20
-143.2807
 10
671.7561
 20
-143.4364
 10
672.0617
 20
-143.627
 10
672.3537
 20
-143.8527
 10
672.6319
 20
-144.1133
 10
672.8838
 20
-144.3957
 10
673.1023
 20
-144.6918
 10
673.2876
 20
-145.0014
 10
673.4396
 20
-145.3247
 10
673.5582
 20
-145.6615
 10
673.6436
 20
-146.0119
 10
673.6957
 20
-146.3759
 10
673.7145
 20
-146.7533
 10
673.7
 20
-147.1226
 10
673.6517
 20
-147.4795
 10
673.5694
 20
-147.824
 10
673.4534
 20
-148.1561
 10
673.3036
 20
-148.4756
 10
673.12
 20
-148.7828
 10
672.9028
 20
-149.0774
 10
672.6518
 20
-149.3596
 10
672.3816
 20
-149.6126
 10
672.0959
 20
-149.8323
 10
671.7946
 20
-150.0185
 10
671.4778
 20
-150.1713
 10
671.1454
 20
-150.2906
 10
670.7974
 20
-150.3765
 10
670.4338
 20
-150.4289
 10
670.0545
 20
-150.4478
 10
669.6825
 20
-150.4329
 10
669.3227
 20
-150.3832
 10
668.9752
 20
-150.2987
 10
668.6399
 20
-150.1795
 10
668.3169
 20
-150.0256
 10
668.0061
 20
-149.8369
 10
667.7076
 20
-149.6136
 10
667.4212
 20
-149.3557
 10
667.1616
 20
-149.0763
 10
666.9362
 20
-148.7829
 10
666.7451
 20
-148.4753
 10
666.5882
 20
-148.1537
 10
666.4657
 20
-147.8181
 10
666.3775
 20
-147.4685
 10
666.3238
 20
-147.1049
 10
666.3044
 20
-146.7273
 10
666.3195
 20
-146.3517
 10
666.369
 20
-145.9902
 10
666.4531
 20
-145.6431
 10
666.5716
 20
-145.3102
 10
666.7246
 20
-144.9917
 10
666.9122
 20
-144.6874
 10
667.1342
 20
-144.3975
 10
667.3908
 20
-144.122
 10
667.5219
 20
-143.9991
 10
667.6579
 20
-143.8825
 10
667.7991
 20
-143.7722
 10
667.9454
 20
-143.6683
 10
668.0968
 20
-143.5708
 10
668.2535
 20
-143.4796
 10
668.4154
 20
-143.3949
 10
668.5826
 20
-143.3167
 10
668.7534
 20
-143.2457
 10
668.9268
 20
-143.184
 10
669.1028
 20
-143.1316
 10
669.2814
 20
-143.0885
 10
669.4627
 20
-143.0546
 10
669.6466
 20
-143.0301
 10
669.8331
 20
-143.0147
 10
670.0223
 20
-143.0087
  0
LWPOLYLINE
  5
75
330
1F
100
AcDbEntity
  8
Layer 1
 62
     7
370
     9
100
AcDbPolyline
 90
       69
 70
     1
 43
0.0
 10
675.3792
 20
-146.6249
 10
675.3501
 20
-146.0508
 10
675.2699
 20
-145.5031
 10
675.1385
 20
-144.9819
 10
674.9561
 20
-144.487
 10
674.7226
 20
-144.0187
 10
674.438
 20
-143.5767
 10
674.1022
 20
-143.1612
 10
673.7154
 20
-142.7721
 10
673.32
 20
-142.4448
 10
672.8974
 20
-142.1582
 10
672.4476
 20
-141.9122
 10
671.9705
 20
-141.707
 10
671.4661
 20
-141.5425
 10
670.9345
 20
-141.4188
 10
670.3757
 20
-141.3359
 10
669.7896
 20
-141.2937
 10
669.3224
 20
-141.6066
 10
674.1646
 20
-135.6159
 10
672.007
 20
-135.6294
 10
665.8153
 20
-143.3206
 10
665.5371
 20
-143.6953
 10
665.2964
 20
-144.085
 10
665.0933
 20
-144.4896
 10
664.9277
 20
-144.9092
 10
664.7995
 20
-145.3438
 10
664.7088
 20
-145.7933
 10
664.6555
 20
-146.2577
 10
664.6397
 20
-146.7369
 10
664.6674
 20
-147.2896
 10
664.744
 20
-147.8207
 10
664.8697
 20
-148.3303
 10
665.0444
 20
-148.8183
 10
665.268
 20
-149.2848
 10
665.5407
 20
-149.7297
 10
665.8624
 20
-150.1531
 10
666.2332
 20
-150.555
 10
666.6408
 20
-150.9242
 10
667.068
 20
-151.2437
 10
667.5149
 20
-151.5136
 10
667.9812
 20
-151.7338
 10
668.4671
 20
-151.9043
 10
668.9724
 20
-152.0251
 10
669.4971
 20
-152.0961
 10
670.0412
 20
-152.1174
 10
670.593
 20
-152.0896
 10
671.1224
 20
-152.0126
 10
671.6295
 20
-151.8866
 10
672.1143
 20
-151.7115
 10
672.5768
 20
-151.4874
 10
673.0171
 20
-151.2143
 10
673.4353
 20
-150.8922
 10
673.8313
 20
-150.5212
 10
674.007
 20
-150.3314
 10
674.1732
 20
-150.1343
 10
674.3297
 20
-149.9298
 10
674.4768
 20
-149.7179
 10
674.6143
 20
-149.4987
 10
674.7423
 20
-149.2721
 10
674.8608
 20
-149.038
 10
674.9699
 20
-148.7966
 10
675.0673
 20
-148.5485
 10
675.1515
 20
-148.2936
 10
675.2225
 20
-148.0321
 10
675.2803
 20
-147.764
 10
675.3249
 20
-147.4891
 10
675.3562
 20
-147.2077
 10
675.3743
 20
-146.9196
 10
675.3792
 20
-146.6249
  0
LWPOLYLINE
  5
76
330
1F
100
AcDbEntity
  8
Layer 1
 62
     7
370
     9
100
AcDbPolyline
 90
      162
 70
     1
 43
0.0
 10
690.8859
 20
-151.6809
 10
692.5269
 20
-151.6713
 10
692.4889
 20
-145.1137
 10
692.4728
 20
-144.6785
 10
692.4301
 20
-144.2639
 10
692.3609
 20
-143.8698
 10
692.2651
 20
-143.4963
 10
692.1428
 20
-143.1434
 10
691.9939
 20
-142.8112
 10
691.8183
 20
-142.4998
 10
691.6162
 20
-142.2091
 10
691.5031
 20
-142.0704
 10
691.3833
 20
-141.9388
 10
691.2566
 20
-141.8143
 10
691.1231
 20
-141.697
 10
690.9827
 20
-141.5867
 10
690.8355
 20
-141.4836
 10
690.6813
 20
-141.3876
 10
690.5203
 20
-141.2986
 10
690.3489
 20
-141.2186
 10
690.1645
 20
-141.1494
 10
689.967
 20
-141.0912
 10
689.7564
 20
-141.0438
 10
689.5327
 20
-141.0073
 10
689.2958
 20
-140.9818
 10
689.0457
 20
-140.9672
 10
688.7824
 20
-140.9635
 10
688.5171
 20
-140.9743
 10
688.2604
 20
-141.0036
 10
688.0121
 20
-141.0517
 10
687.7724
 20
-141.1183
 10
687.5411
 20
-141.2036
 10
687.3184
 20
-141.3074
 10
687.1041
 20
-141.4299
 10
686.8983
 20
-141.5709
 10
686.72
 20
-141.7111
 10
686.5499
 20
-141.8617
 10
686.3878
 20
-142.0225
 10
686.2338
 20
-142.1935
 10
686.0879
 20
-142.3744
 10
685.9502
 20
-142.5654
 10
685.8205
 20
-142.7662
 10
685.6989
 20
-142.9768
 10
685.6026
 20
-142.7837
 10
685.4975
 20
-142.5975
 10
685.3837
 20
-142.4186
 10
685.2612
 20
-142.2478
 10
685.1484
 20
-142.1091
 10
685.0286
 20
-141.9775
 10
684.902
 20
-141.853
 10
684.7684
 20
-141.7357
 10
684.628
 20
-141.6254
 10
684.4806
 20
-141.5223
 10
684.3264
 20
-141.4262
 10
684.1653
 20
-141.3372
 10
683.9942
 20
-141.2572
 10
683.8099
 20
-141.1881
 10
683.6125
 20
-141.13
 10
683.4019
 20
-141.0827
 10
683.1782
 20
-141.0463
 10
682.9414
 20
-141.0208
 10
682.6914
 20
-141.006
 10
682.4284
 20
-141.0021
 10
682.1628
 20
-141.0132
 10
681.9057
 20
-141.0428
 10
681.6574
 20
-141.091
 10
681.4176
 20
-141.1577
 10
681.1864
 20
-141.2429
 10
680.9638
 20
-141.3466
 10
680.7498
 20
-141.4688
 10
680.5443
 20
-141.6095
 10
680.3742
 20
-141.7432
 10
680.2115
 20
-141.8858
 10
680.0562
 20
-142.0374
 10
679.9083
 20
-142.198
 10
679.7678
 20
-142.3677
 10
679.6346
 20
-142.5464
 10
679.5089
 20
-142.7343
 10
679.3905
 20
-142.9314
 10
679.38
 20
-141.259
 10
677.739
 20
-141.2696
 10
677.8017
 20
-151.7601
 10
679.4427
 20
-151.7504
 10
679.4104
 20
-146.3816
 10
679.4469
 20
-146.0686
 10
679.495
 20
-145.7677
 10
679.5549
 20
-145.4788
 10
679.6266
 20
-145.2019
 10
679.7101
 20
-144.9367
 10
679.8053
 20
-144.6834
 10
679.9125
 20
-144.4418
 10
680.0315
 20
-144.2118
 10
680.1285
 20
-144.0482
 10
680.2336
 20
-143.8919
 10
680.3467
 20
-143.743
 10
680.468
 20
-143.6014
 10
680.5972
 20
-143.4672
 10
680.7346
 20
-143.3405
 10
680.88
 20
-143.2211
 10
681.0334
 20
-143.1091
 10
681.1923
 20
-143.0072
 10
681.3544
 20
-142.9188
 10
681.5195
 20
-142.8438
 10
681.6877
 20
-142.7824
 10
681.8589
 20
-142.7343
 10
682.0331
 20
-142.6997
 10
682.2103
 20
-142.6785
 10
682.3904
 20
-142.6707
 10
682.5665
 20
-142.6732
 10
682.7309
 20
-142.6828
 10
682.8835
 20
-142.6997
 10
683.0244
 20
-142.7237
 10
683.1536
 20
-142.7549
 10
683.2711
 20
-142.7933
 10
683.377
 20
-142.8389
 10
683.4711
 20
-142.8918
 10
683.7083
 20
-143.0677
 10
683.9143
 20
-143.2745
 10
684.0889
 20
-143.5122
 10
684.2324
 20
-143.7807
 10
684.3445
 20
-144.08
 10
684.4253
 20
-144.41
 10
684.4748
 20
-144.7707
 10
684.4929
 20
-145.162
 10
684.5309
 20
-151.7195
 10
686.1719
 20
-151.7099
 10
686.1339
 20
-145.1523
 10
686.1196
 20
-144.7507
 10
686.3865
 20
-144.1732
 10
686.4832
 20
-144.0095
 10
686.588
 20
-143.8532
 10
686.7011
 20
-143.7041
 10
686.8223
 20
-143.5625
 10
686.9516
 20
-143.4282
 10
687.0891
 20
-143.3014
 10
687.2347
 20
-143.1822
 10
687.3884
 20
-143.0705
 10
687.5473
 20
-142.9686
 10
687.7094
 20
-142.8802
 10
687.8745
 20
-142.8052
 10
688.0427
 20
-142.7438
 10
688.2139
 20
-142.6957
 10
688.3881
 20
-142.6611
 10
688.5653
 20
-142.6399
 10
688.7454
 20
-142.6321
 10
688.9212
 20
-142.6346
 10
689.0855
 20
-142.6442
 10
689.2381
 20
-142.661
 10
689.3791
 20
-142.685
 10
689.5084
 20
-142.7161
 10
689.626
 20
-142.7543
 10
689.7319
 20
-142.7997
 10
689.8261
 20
-142.8522
 10
690.0633
 20
-143.0284
 10
690.2693
 20
-143.2355
 10
690.4439
 20
-143.4733
 10
690.5874
 20
-143.742
 10
690.6995
 20
-144.0413
 10
690.7803
 20
-144.3713
 10
690.8298
 20
-144.7321
 10
690.8479
 20
-145.1234
 10
690.8859
 20
-151.6809
  0
LWPOLYLINE
  5
77
330
1F
100
AcDbEntity
  8
Layer 1
 62
     7
370
     9
100
AcDbPolyline
 90
      162
 70
     1
 43
0.0
 10
708.7781
 20
-151.5718
 10
710.4191
 20
-151.5621
 10
710.3801
 20
-145.0046
 10
710.3643
 20
-144.5695
 10
710.3219
 20
-144.1549
 10
710.2528
 20
-143.761
 10
710.1571
 20
-143.3876
 10
710.0347
 20
-143.0348
 10
709.8856
 20
-142.7026
 10
709.7099
 20
-142.391
 10
709.5074
 20
-142.1
 10
709.3947
 20
-141.9613
 10
709.275
 20
-141.8297
 10
709.1485
 20
-141.7052
 10
709.0152
 20
-141.5879
 10
708.8749
 20
-141.4776
 10
708.7277
 20
-141.3745
 10
708.5735
 20
-141.2784
 10
708.4125
 20
-141.1894
 10
708.2411
 20
-141.1094
 10
708.0565
 20
-141.0403
 10
707.8589
 20
-140.982
 10
707.6481
 20
-140.9346
 10
707.4242
 20
-140.8982
 10
707.1872
 20
-140.8726
 10
706.937
 20
-140.858
 10
706.6737
 20
-140.8544
 10
706.4084
 20
-140.8655
 10
706.1518
 20
-140.8951
 10
705.9036
 20
-140.9433
 10
705.6641
 20
-141.01
 10
705.433
 20
-141.0952
 10
705.2104
 20
-141.1989
 10
704.9963
 20
-141.321
 10
704.7905
 20
-141.4617
 10
704.6119
 20
-141.602
 10
704.4415
 20
-141.7527
 10
704.2793
 20
-141.9137
 10
704.1253
 20
-142.0848
 10
703.9795
 20
-142.266
 10
703.8419
 20
-142.4571
 10
703.7124
 20
-142.658
 10
703.5912
 20
-142.8687
 10
703.4944
 20
-142.675
 10
703.3892
 20
-142.4884
 10
703.2753
 20
-142.3094
 10
703.1524
 20
-142.1386
 10
703.0399
 20
-141.9999
 10
702.9204
 20
-141.8683
 10
702.7939
 20
-141.7439
 10
702.6605
 20
-141.6265
 10
702.5201
 20
-141.5163
 10
702.3728
 20
-141.4132
 10
702.2186
 20
-141.3171
 10
702.0575
 20
-141.2281
 10
701.8861
 20
-141.1481
 10
701.7017
 20
-141.079
 10
701.5043
 20
-141.0209
 10
701.2938
 20
-140.9736
 10
701.0702
 20
-140.9372
 10
700.8334
 20
-140.9117
 10
700.5836
 20
-140.8969
 10
700.3206
 20
-140.893
 10
700.055
 20
-140.9041
 10
699.798
 20
-140.9337
 10
699.5495
 20
-140.9819
 10
699.3097
 20
-141.0486
 10
699.0784
 20
-141.1338
 10
698.8556
 20
-141.2375
 10
698.6413
 20
-141.3597
 10
698.4355
 20
-141.5004
 10
698.2655
 20
-141.6341
 10
698.1029
 20
-141.7767
 10
697.9477
 20
-141.9283
 10
697.7999
 20
-142.0889
 10
697.6594
 20
-142.2586
 10
697.5262
 20
-142.4373
 10
697.4004
 20
-142.6252
 10
697.2817
 20
-142.8223
 10
697.2722
 20
-141.1499
 10
695.6313
 20
-141.1605
 10
695.693
 20
-151.6519
 10
697.334
 20
-151.6413
 10
697.3026
 20
-146.2725
 10
697.3391
 20
-145.9595
 10
697.3872
 20
-145.6586
 10
697.4471
 20
-145.3697
 10
697.5187
 20
-145.0927
 10
697.602
 20
-144.8276
 10
697.6971
 20
-144.5743
 10
697.804
 20
-144.3326
 10
697.9227
 20
-144.1027
 10
698.02
 20
-143.9391
 10
698.1252
 20
-143.7828
 10
698.2384
 20
-143.6339
 10
698.3597
 20
-143.4923
 10
698.489
 20
-143.3581
 10
698.6264
 20
-143.2314
 10
698.7719
 20
-143.112
 10
698.9256
 20
-143.0
 10
699.0845
 20
-142.8981
 10
699.2466
 20
-142.8097
 10
699.4117
 20
-142.7347
 10
699.5799
 20
-142.6733
 10
699.7511
 20
-142.6252
 10
699.9253
 20
-142.5906
 10
700.1025
 20
-142.5694
 10
700.2826
 20
-142.5616
 10
700.4587
 20
-142.5641
 10
700.6229
 20
-142.5737
 10
700.7754
 20
-142.5906
 10
700.9161
 20
-142.6146
 10
701.0451
 20
-142.6458
 10
701.1625
 20
-142.6842
 10
701.2682
 20
-142.7298
 10
701.3623
 20
-142.7827
 10
701.5998
 20
-142.9586
 10
701.806
 20
-143.1654
 10
701.9809
 20
-143.4031
 10
702.1243
 20
-143.6716
 10
702.2364
 20
-143.9709
 10
702.3171
 20
-144.3009
 10
702.3663
 20
-144.6616
 10
702.3842
 20
-145.0529
 10
702.4231
 20
-151.6104
 10
704.0641
 20
-151.6008
 10
704.0251
 20
-145.0432
 10
704.0118
 20
-144.6415
 10
704.2777
 20
-144.0641
 10
704.3747
 20
-143.9005
 10
704.4797
 20
-143.7442
 10
704.5927
 20
-143.5953
 10
704.7139
 20
-143.4537
 10
704.8431
 20
-143.3195
 10
704.9804
 20
-143.1928
 10
705.1259
 20
-143.0734
 10
705.2796
 20
-142.9614
 10
705.4389
 20
-142.8595
 10
705.6012
 20
-142.7711
 10
705.7665
 20
-142.6961
 10
705.9348
 20
-142.6347
 10
706.106
 20
-142.5866
 10
706.2803
 20
-142.552
 10
706.4575
 20
-142.5308
 10
706.6376
 20
-142.523
 10
706.8134
 20
-142.5255
 10
706.9775
 20
-142.5351
 10
707.13
 20
-142.5519
 10
707.2708
 20
-142.5759
 10
707.3999
 20
-142.607
 10
707.5174
 20
-142.6452
 10
707.6232
 20
-142.6906
 10
707.7173
 20
-142.7431
 10
707.9548
 20
-142.9193
 10
708.161
 20
-143.1264
 10
708.3359
 20
-143.3642
 10
708.4793
 20
-143.6329
 10
708.5914
 20
-143.9322
 10
708.6721
 20
-144.2622
 10
708.7213
 20
-144.623
 10
708.7392
 20
-145.0143
 10
708.7781
 20
-151.5718
  0
LWPOLYLINE
  5
78
330
1F
100
AcDbEntity
  8
Layer 1
 62
     7
370
     9
100
AcDbPolyline
 90
        7
 70
     1
 43
0.0
 10
656.7558
 20
-214.6915
 10
663.6729
 20
-198.5067
 10
653.6599
 20
-198.5676
 10
653.6694
 20
-200.2362
 10
661.126
 20
-200.1908
 10
654.9267
 20
-214.7021
 10
656.7558
 20
-214.6915
  0
LWPOLYLINE
  5
79
330
1F
100
AcDbEntity
  8
Layer 1
 62
     7
370
     9
100
AcDbPolyline
 90
        7
 70
     1
 43
0.0
 10
668.3167
 20
-214.621
 10
675.2339
 20
-198.4363
 10
665.2209
 20
-198.4971
 10
665.2304
 20
-200.1657
 10
672.6869
 20
-200.1203
 10
666.4877
 20
-214.6316
 10
668.3167
 20
-214.621
  0
LWPOLYLINE
  5
7A
330
1F
100
AcDbEntity
  8
Layer 1
 62
     7
370
     9
100
AcDbPolyline
 90
      162
 70
     1
 43
0.0
 10
691.016
 20
-214.4347
 10
692.657
 20
-214.425
 10
692.619
 20
-207.8675
 10
692.6029
 20
-207.4324
 10
692.5602
 20
-207.0178
 10
692.491
 20
-206.6239
 10
692.3952
 20
-206.2506
 10
692.2729
 20
-205.8979
 10
692.124
 20
-205.5658
 10
691.9484
 20
-205.2545
 10
691.7463
 20
-204.9639
 10
691.6332
 20
-204.8249
 10
691.5134
 20
-204.6931
 10
691.3867
 20
-204.5687
 10
691.2532
 20
-204.4514
 10
691.1128
 20
-204.3412
 10
690.9656
 20
-204.2382
 10
690.8114
 20
-204.1423
 10
690.6504
 20
-204.0533
 10
690.479
 20
-203.973
 10
690.2946
 20
-203.9037
 10
690.0971
 20
-203.8454
 10
689.8865
 20
-203.798
 10
689.6628
 20
-203.7615
 10
689.4259
 20
-203.7359
 10
689.1758
 20
-203.7212
 10
688.9125
 20
-203.7172
 10
688.6472
 20
-203.7283
 10
688.3905
 20
-203.758
 10
688.1423
 20
-203.8061
 10
687.9026
 20
-203.8728
 10
687.6715
 20
-203.958
 10
687.4489
 20
-204.0617
 10
687.2349
 20
-204.1839
 10
687.0294
 20
-204.3246
 10
686.8508
 20
-204.4649
 10
686.6804
 20
-204.6156
 10
686.5181
 20
-204.7766
 10
686.364
 20
-204.9477
 10
686.2181
 20
-205.1289
 10
686.0803
 20
-205.32
 10
685.9506
 20
-205.5209
 10
685.829
 20
-205.7315
 10
685.7327
 20
-205.5384
 10
685.6276
 20
-205.3522
 10
685.5138
 20
-205.1733
 10
685.3913
 20
-205.0025
 10
685.2785
 20
-204.8638
 10
685.1587
 20
-204.7322
 10
685.0321
 20
-204.6077
 10
684.8985
 20
-204.4904
 10
684.7581
 20
-204.3801
 10
684.6107
 20
-204.277
 10
684.4565
 20
-204.1809
 10
684.2954
 20
-204.0919
 10
684.1243
 20
-204.0116
 10
683.94
 20
-203.9423
 10
683.7426
 20
-203.884
 10
683.532
 20
-203.8367
 10
683.3083
 20
-203.8004
 10
683.0715
 20
-203.7749
 10
682.8215
 20
-203.7604
 10
682.5585
 20
-203.7568
 10
682.2929
 20
-203.7676
 10
682.0358
 20
-203.797
 10
681.7875
 20
-203.845
 10
681.5477
 20
-203.9117
 10
681.3165
 20
-203.997
 10
681.0939
 20
-204.1008
 10
680.8799
 20
-204.2232
 10
680.6744
 20
-204.3642
 10
680.5043
 20
-204.4977
 10
680.3416
 20
-204.6402
 10
680.1863
 20
-204.7917
 10
680.0384
 20
-204.9524
 10
679.8979
 20
-205.1222
 10
679.7647
 20
-205.301
 10
679.639
 20
-205.489
 10
679.5206
 20
-205.6861
 10
679.5101
 20
-204.0137
 10
677.8691
 20
-204.0233
 10
677.9318
 20
-214.5148
 10
679.5728
 20
-214.5052
 10
679.5405
 20
-209.1363
 10
679.577
 20
-208.8231
 10
679.6251
 20
-208.522
 10
679.685
 20
-208.2331
 10
679.7567
 20
-207.9562
 10
679.8402
 20
-207.6912
 10
679.9354
 20
-207.438
 10
680.0426
 20
-207.1965
 10
680.1616
 20
-206.9666
 10
680.2586
 20
-206.8026
 10
680.3637
 20
-206.6461
 10
680.4768
 20
-206.497
 10
680.5981
 20
-206.3553
 10
680.7273
 20
-206.2211
 10
680.8647
 20
-206.0942
 10
681.0101
 20
-205.9748
 10
681.1635
 20
-205.8628
 10
681.3224
 20
-205.7612
 10
681.4845
 20
-205.6731
 10
681.6496
 20
-205.5983
 10
681.8178
 20
-205.5369
 10
681.989
 20
-205.4889
 10
682.1632
 20
-205.4544
 10
682.3404
 20
-205.4332
 10
682.5205
 20
-205.4254
 10
682.6966
 20
-205.4279
 10
682.861
 20
-205.4375
 10
683.0136
 20
-205.4543
 10
683.1545
 20
-205.4783
 10
683.2837
 20
-205.5094
 10
683.4012
 20
-205.5476
 10
683.5071
 20
-205.593
 10
683.6012
 20
-205.6456
 10
683.8384
 20
-205.8218
 10
684.0444
 20
-206.0288
 10
684.219
 20
-206.2667
 10
684.3625
 20
-206.5353
 10
684.4746
 20
-206.8346
 10
684.5554
 20
-207.1646
 10
684.6049
 20
-207.5254
 10
684.623
 20
-207.9167
 10
684.661
 20
-214.4743
 10
686.302
 20
-214.4636
 10
686.264
 20
-207.9061
 10
686.2497
 20
-207.5044
 10
686.5166
 20
-206.9279
 10
686.6133
 20
-206.764
 10
686.7181
 20
-206.6074
 10
686.8312
 20
-206.4583
 10
686.9524
 20
-206.3167
 10
687.0817
 20
-206.1824
 10
687.2192
 20
-206.0556
 10
687.3648
 20
-205.9362
 10
687.5185
 20
-205.8242
 10
687.6774
 20
-205.7226
 10
687.8395
 20
-205.6345
 10
688.0046
 20
-205.5597
 10
688.1728
 20
-205.4983
 10
688.344
 20
-205.4503
 10
688.5182
 20
-205.4158
 10
688.6954
 20
-205.3946
 10
688.8755
 20
-205.3868
 10
689.0513
 20
-205.3892
 10
689.2156
 20
-205.3988
 10
689.3682
 20
-205.4155
 10
689.5092
 20
-205.4393
 10
689.6385
 20
-205.4703
 10
689.7561
 20
-205.5086
 10
689.862
 20
-205.5542
 10
689.9562
 20
-205.607
 10
690.1934
 20
-205.7832
 10
690.3994
 20
-205.9902
 10
690.574
 20
-206.2281
 10
690.7175
 20
-206.4967
 10
690.8296
 20
-206.796
 10
690.9104
 20
-207.126
 10
690.9599
 20
-207.4868
 10
690.978
 20
-207.8781
 10
691.016
 20
-214.4347
  0
LWPOLYLINE
  5
7B
330
1F
100
AcDbEntity
  8
Layer 1
 62
     7
370
     9
100
AcDbPolyline
 90
      162
 70
     1
 43
0.0
 10
708.9082
 20
-214.3255
 10
710.5492
 20
-214.3159
 10
710.5102
 20
-207.7584
 10
710.4944
 20
-207.3233
 10
710.452
 20
-206.9087
 10
710.3829
 20
-206.5147
 10
710.2872
 20
-206.1414
 10
710.1648
 20
-205.7887
 10
710.0157
 20
-205.4567
 10
709.84
 20
-205.1453
 10
709.6375
 20
-204.8547
 10
709.5248
 20
-204.7157
 10
709.4051
 20
-204.584
 10
709.2786
 20
-204.4595
 10
709.1453
 20
-204.3422
 10
709.005
 20
-204.2321
 10
708.8578
 20
-204.1291
 10
708.7036
 20
-204.0331
 10
708.5426
 20
-203.9442
 10
708.3712
 20
-203.8639
 10
708.1866
 20
-203.7946
 10
707.989
 20
-203.7363
 10
707.7782
 20
-203.689
 10
707.5543
 20
-203.6527
 10
707.3173
 20
-203.6272
 10
707.0671
 20
-203.6127
 10
706.8038
 20
-203.6091
 10
706.5385
 20
-203.6199
 10
706.2819
 20
-203.6493
 10
706.0337
 20
-203.6973
 10
705.7942
 20
-203.7638
 10
705.5631
 20
-203.849
 10
705.3405
 20
-203.9526
 10
705.1264
 20
-204.0748
 10
704.9206
 20
-204.2155
 10
704.742
 20
-204.3561
 10
704.5716
 20
-204.5069
 10
704.4094
 20
-204.6679
 10
704.2554
 20
-204.8389
 10
704.1096
 20
-205.02
 10
703.972
 20
-205.211
 10
703.8425
 20
-205.4118
 10
703.7213
 20
-205.6224
 10
703.6245
 20
-205.4293
 10
703.5193
 20
-205.2431
 10
703.4054
 20
-205.0642
 10
703.2825
 20
-204.8934
 10
703.17
 20
-204.7547
 10
703.0505
 20
-204.6231
 10
702.924
 20
-204.4986
 10
702.7906
 20
-204.3813
 10
702.6502
 20
-204.271
 10
702.5029
 20
-204.1679
 10
702.3487
 20
-204.0718
 10
702.1876
 20
-203.9828
 10
702.0162
 20
-203.9025
 10
701.8318
 20
-203.8332
 10
701.6344
 20
-203.7749
 10
701.4239
 20
-203.7276
 10
701.2003
 20
-203.6913
 10
700.9635
 20
-203.6658
 10
700.7137
 20
-203.6513
 10
700.4507
 20
-203.6477
 10
700.1851
 20
-203.6585
 10
699.9281
 20
-203.6879
 10
699.6796
 20
-203.7359
 10
699.4398
 20
-203.8026
 10
699.2085
 20
-203.8879
 10
698.9857
 20
-203.9917
 10
698.7714
 20
-204.1141
 10
698.5656
 20
-204.2551
 10
698.3956
 20
-204.3885
 10
698.233
 20
-204.531
 10
698.0778
 20
-204.6826
 10
697.93
 20
-204.8433
 10
697.7895
 20
-205.013
 10
697.6563
 20
-205.1919
 10
697.5305
 20
-205.3799
 10
697.4118
 20
-205.577
 10
697.4023
 20
-203.9046
 10
695.7614
 20
-203.9142
 10
695.8231
 20
-214.4057
 10
697.4641
 20
-214.396
 10
697.4327
 20
-209.0272
 10
697.4692
 20
-208.714
 10
697.5173
 20
-208.4129
 10
697.5772
 20
-208.124
 10
697.6488
 20
-207.8471
 10
697.7321
 20
-207.5821
 10
697.8272
 20
-207.3289
 10
697.9341
 20
-207.0873
 10
698.0528
 20
-206.8574
 10
698.1501
 20
-206.6935
 10
698.2553
 20
-206.537
 10
698.3685
 20
-206.3879
 10
698.4898
 20
-206.2462
 10
698.6191
 20
-206.112
 10
698.7565
 20
-205.9851
 10
698.902
 20
-205.8657
 10
699.0557
 20
-205.7537
 10
699.2146
 20
-205.6521
 10
699.3767
 20
-205.564
 10
699.5418
 20
-205.4892
 10
699.71
 20
-205.4278
 10
699.8812
 20
-205.3798
 10
700.0554
 20
-205.3453
 10
700.2326
 20
-205.3241
 10
700.4127
 20
-205.3163
 10
700.5888
 20
-205.3188
 10
700.753
 20
-205.3284
 10
700.9055
 20
-205.3452
 10
701.0462
 20
-205.3692
 10
701.1752
 20
-205.4003
 10
701.2926
 20
-205.4385
 10
701.3983
 20
-205.4839
 10
701.4924
 20
-205.5365
 10
701.7299
 20
-205.7127
 10
701.9361
 20
-205.9197
 10
702.111
 20
-206.1576
 10
702.2544
 20
-206.4262
 10
702.3665
 20
-206.7255
 10
702.4472
 20
-207.0555
 10
702.4964
 20
-207.4163
 10
702.5143
 20
-207.8076
 10
702.5532
 20
-214.3651
 10
704.1942
 20
-214.3545
 10
704.1552
 20
-207.797
 10
704.1419
 20
-207.3953
 10
704.4078
 20
-206.8188
 10
704.5048
 20
-206.6549
 10
704.6098
 20
-206.4983
 10
704.7228
 20
-206.3492
 10
704.844
 20
-206.2076
 10
704.9732
 20
-206.0733
 10
705.1105
 20
-205.9465
 10
705.256
 20
-205.8271
 10
705.4097
 20
-205.7151
 10
705.569
 20
-205.6135
 10
705.7313
 20
-205.5254
 10
705.8966
 20
-205.4506
 10
706.0649
 20
-205.3892
 10
706.2361
 20
-205.3412
 10
706.4104
 20
-205.3067
 10
706.5876
 20
-205.2855
 10
706.7677
 20
-205.2777
 10
706.9435
 20
-205.2801
 10
707.1076
 20
-205.2897
 10
707.2601
 20
-205.3064
 10
707.4009
 20
-205.3302
 10
707.53
 20
-205.3612
 10
707.6475
 20
-205.3995
 10
707.7533
 20
-205.445
 10
707.8474
 20
-205.4978
 10
708.0849
 20
-205.674
 10
708.2911
 20
-205.8811
 10
708.466
 20
-206.1189
 10
708.6094
 20
-206.3876
 10
708.7215
 20
-206.6869
 10
708.8022
 20
-207.0169
 10
708.8514
 20
-207.3777
 10
708.8693
 20
-207.769
 10
708.9082
 20
-214.3255
  0
LWPOLYLINE
  5
7C
330
1F
100
AcDbEntity
  8
Layer 1
 62
     7
370
     9
100
AcDbPolyline
 90
      137
 70
     1
 43
0.0
 10
673.1029
 20
-329.3532
 10
672.9956
 20
-329.1096
 10
672.8787
 20
-328.8734
 10
672.7524
 20
-328.6446
 10
672.6165
 20
-328.4233
 10
672.471
 20
-328.2094
 10
672.3161
 20
-328.0029
 10
672.1516
 20
-327.8038
 10
671.9776
 20
-327.6122
 10
671.5838
 20
-327.235
 10
671.1681
 20
-326.9082
 10
670.7305
 20
-326.6317
 10
670.2709
 20
-326.4055
 10
669.7894
 20
-326.2295
 10
669.286
 20
-326.1039
 10
668.7606
 20
-326.0285
 10
668.2132
 20
-326.0034
 10
667.6654
 20
-326.0289
 10
667.1389
 20
-326.1054
 10
666.6337
 20
-326.2329
 10
666.1497
 20
-326.4114
 10
665.687
 20
-326.641
 10
665.2455
 20
-326.9217
 10
664.8251
 20
-327.2534
 10
664.426
 20
-327.6363
 10
664.0818
 20
-328.032
 10
663.7786
 20
-328.4531
 10
663.5164
 20
-328.8994
 10
663.2951
 20
-329.371
 10
663.1149
 20
-329.868
 10
662.9756
 20
-330.3904
 10
662.8774
 20
-330.9381
 10
662.8202
 20
-331.5113
 10
663.2418
 20
-332.2259
 10
657.3331
 20
-327.1477
 10
657.3331
 20
-335.874
 10
658.9741
 20
-335.874
 10
658.9741
 20
-330.5332
 10
664.6026
 20
-335.4453
 10
665.6102
 20
-334.1813
 10
665.3465
 20
-333.8885
 10
665.1179
 20
-333.5823
 10
664.9245
 20
-333.2627
 10
664.7662
 20
-332.9297
 10
664.6431
 20
-332.5832
 10
664.5552
 20
-332.2233
 10
664.5025
 20
-331.8499
 10
664.4849
 20
-331.463
 10
664.5019
 20
-331.077
 10
664.5531
 20
-330.7055
 10
664.6383
 20
-330.3485
 10
664.7576
 20
-330.0059
 10
664.9109
 20
-329.6779
 10
665.0983
 20
-329.3643
 10
665.3197
 20
-329.0652
 10
665.5751
 20
-328.7806
 10
665.8546
 20
-328.5209
 10
666.1477
 20
-328.2957
 10
666.4543
 20
-328.1052
 10
666.7745
 20
-327.9493
 10
667.1082
 20
-327.828
 10
667.4554
 20
-327.7413
 10
667.8161
 20
-327.6893
 10
668.1904
 20
-327.672
 10
668.5563
 20
-327.6897
 10
668.9098
 20
-327.7428
 10
669.2508
 20
-327.8313
 10
669.5794
 20
-327.9552
 10
669.8955
 20
-328.1145
 10
670.1993
 20
-328.3092
 10
670.4906
 20
-328.5392
 10
670.7696
 20
-328.8047
 10
670.8897
 20
-328.9357
 10
671.0034
 20
-329.0723
 10
671.1109
 20
-329.2144
 10
671.2121
 20
-329.3622
 10
671.3071
 20
-329.5155
 10
671.3959
 20
-329.6744
 10
671.4785
 20
-329.8388
 10
671.555
 20
-330.0088
 10
671.6238
 20
-330.186
 10
671.6834
 20
-330.3723
 10
671.7338
 20
-330.5676
 10
671.7751
 20
-330.7719
 10
671.8071
 20
-330.9851
 10
671.8301
 20
-331.2073
 10
671.8438
 20
-331.4384
 10
671.8484
 20
-331.6784
 10
671.8383
 20
-331.9225
 10
671.808
 20
-332.1667
 10
671.7575
 20
-332.4109
 10
671.687
 20
-332.6552
 10
671.5962
 20
-332.8996
 10
671.4854
 20
-333.144
 10
671.3545
 20
-333.3884
 10
671.2036
 20
-333.6328
 10
671.0352
 20
-333.8683
 10
670.8525
 20
-334.086
 10
670.6555
 20
-334.2858
 10
670.4443
 20
-334.4677
 10
670.2187
 20
-334.6318
 10
669.9789
 20
-334.7779
 10
669.7248
 20
-334.9062
 10
669.4563
 20
-335.0165
 10
669.9957
 20
-336.6378
 10
670.3779
 20
-336.4837
 10
670.7417
 20
-336.3016
 10
671.0872
 20
-336.0916
 10
671.4144
 20
-335.8536
 10
671.7233
 20
-335.5877
 10
672.0138
 20
-335.2939
 10
672.2859
 20
-334.9722
 10
672.5398
 20
-334.6226
 10
672.651
 20
-334.4507
 10
672.7559
 20
-334.2746
 10
672.8547
 20
-334.0945
 10
672.9471
 20
-333.9102
 10
673.0334
 20
-333.7218
 10
673.1134
 20
-333.5295
 10
673.1872
 20
-333.333
 10
673.2548
 20
-333.1326
 10
673.3153
 20
-332.9271
 10
673.3677
 20
-332.716
 10
673.4121
 20
-332.4993
 10
673.4484
 20
-332.2771
 10
673.4767
 20
-332.0492
 10
673.4969
 20
-331.8157
 10
673.5091
 20
-331.5765
 10
673.5131
 20
-331.3317
 10
673.5067
 20
-331.0844
 10
673.4875
 20
-330.8371
 10
673.4554
 20
-330.5898
 10
673.4106
 20
-330.3425
 10
673.3529
 20
-330.0951
 10
673.2824
 20
-329.8478
 10
673.1991
 20
-329.6005
 10
673.1029
 20
-329.3532
  0
LWPOLYLINE
  5
7D
330
1F
100
AcDbEntity
  8
Layer 1
 62
     7
370
     9
100
AcDbPolyline
 90
      113
 70
     1
 43
0.0
 10
659.1859
 20
-317.4789
 10
659.3697
 20
-317.2036
 10
659.5784
 20
-316.947
 10
659.812
 20
-316.709
 10
660.0706
 20
-316.4896
 10
660.3542
 20
-316.2887
 10
660.6627
 20
-316.1065
 10
660.9963
 20
-315.9429
 10
661.3549
 20
-315.7978
 10
661.8302
 20
-315.6358
 10
662.3125
 20
-315.4955
 10
662.8017
 20
-315.3766
 10
663.298
 20
-315.2794
 10
663.8012
 20
-315.2037
 10
664.3114
 20
-315.1497
 10
664.8286
 20
-315.1172
 10
665.3529
 20
-315.1064
 10
665.6098
 20
-315.1109
 10
665.8889
 20
-315.1244
 10
666.1902
 20
-315.1467
 10
666.5133
 20
-315.1779
 10
667.1437
 20
-315.2608
 10
667.7392
 20
-315.3689
 10
668.3
 20
-315.5023
 10
668.8259
 20
-315.661
 10
669.3171
 20
-315.845
 10
669.7734
 20
-316.0544
 10
670.1949
 20
-316.289
 10
670.5816
 20
-316.549
 10
670.873
 20
-316.7864
 10
671.1256
 20
-317.0364
 10
671.3392
 20
-317.2991
 10
671.514
 20
-317.5745
 10
671.65
 20
-317.8626
 10
671.747
 20
-318.1633
 10
671.8053
 20
-318.4767
 10
671.8247
 20
-318.8028
 10
671.8055
 20
-319.1666
 10
671.7478
 20
-319.5129
 10
671.6516
 20
-319.8416
 10
671.517
 20
-320.1528
 10
671.3439
 20
-320.4465
 10
671.1324
 20
-320.7227
 10
670.8824
 20
-320.9814
 10
670.5939
 20
-321.2226
 10
670.4539
 20
-321.3247
 10
670.3095
 20
-321.4223
 10
670.1608
 20
-321.5155
 10
670.0077
 20
-321.6042
 10
669.8501
 20
-321.6884
 10
669.6881
 20
-321.7681
 10
669.5217
 20
-321.8433
 10
669.3509
 20
-321.914
 10
669.0026
 20
-322.0427
 10
668.65
 20
-322.1552
 10
668.2932
 20
-322.2513
 10
667.9321
 20
-322.3312
 10
667.5717
 20
-322.3977
 10
667.217
 20
-322.4536
 10
666.868
 20
-322.4991
 10
666.5247
 20
-322.534
 10
666.3515
 20
-322.5479
 10
666.1718
 20
-322.56
 10
665.9856
 20
-322.5703
 10
665.7929
 20
-322.5787
 10
665.5937
 20
-322.5853
 10
665.3881
 20
-322.59
 10
665.1761
 20
-322.5929
 10
664.9578
 20
-322.5938
 10
664.73
 20
-322.5897
 10
664.4889
 20
-322.5774
 10
664.2345
 20
-322.5568
 10
663.9668
 20
-322.5281
 10
663.6856
 20
-322.4911
 10
663.391
 20
-322.446
 10
663.0829
 20
-322.3927
 10
662.7613
 20
-322.3312
 10
662.4045
 20
-322.2522
 10
662.0491
 20
-322.1585
 10
661.6951
 20
-322.0497
 10
661.3425
 20
-321.9256
 10
661.1688
 20
-321.8577
 10
660.9996
 20
-321.7849
 10
660.8347
 20
-321.7073
 10
660.6744
 20
-321.6249
 10
660.5184
 20
-321.5377
 10
660.3668
 20
-321.4456
 10
660.2195
 20
-321.3486
 10
660.0767
 20
-321.2468
 10
659.9395
 20
-321.1399
 10
659.8092
 20
-321.0277
 10
659.6859
 20
-320.9104
 10
659.5695
 20
-320.7878
 10
659.4601
 20
-320.66
 10
659.3576
 20
-320.527
 10
659.2621
 20
-320.3888
 10
659.1735
 20
-320.2454
 10
659.0937
 20
-320.0958
 10
659.0247
 20
-319.9396
 10
658.9662
 20
-319.7767
 10
658.9185
 20
-319.6071
 10
658.8813
 20
-319.4309
 10
658.8548
 20
-319.2479
 10
658.8389
 20
-319.0582
 10
658.8336
 20
-318.8617
 10
658.8391
 20
-318.6655
 10
658.8557
 20
-318.476
 10
658.8832
 20
-318.2932
 10
658.9218
 20
-318.1171
 10
658.9713
 20
-317.9476
 10
659.0319
 20
-317.7847
 10
659.1034
 20
-317.6285
 10
659.1859
 20
-317.4789
  0
LWPOLYLINE
  5
7E
330
1F
100
AcDbEntity
  8
Layer 1
 62
     7
370
     9
100
AcDbPolyline
 90
       65
 70
     1
 43
0.0
 10
673.4894
 20
-318.7787
 10
673.446
 20
-318.0825
 10
673.3158
 20
-317.4306
 10
673.0987
 20
-316.823
 10
672.7949
 20
-316.2598
 10
672.4041
 20
-315.741
 10
671.9265
 20
-315.2665
 10
671.3621
 20
-314.8364
 10
670.7107
 20
-314.4507
 10
670.1426
 20
-314.1798
 10
669.5428
 20
-313.9451
 10
668.9116
 20
-313.7464
 10
668.2488
 20
-313.5839
 10
667.5544
 20
-313.4574
 10
666.8286
 20
-313.3671
 10
666.0713
 20
-313.313
 10
665.2826
 20
-313.2949
 10
664.4936
 20
-313.313
 10
663.7361
 20
-313.3671
 10
663.0102
 20
-313.4574
 10
662.3159
 20
-313.5839
 10
661.6531
 20
-313.7464
 10
661.0217
 20
-313.9451
 10
660.4219
 20
-314.1798
 10
659.8535
 20
-314.4507
 10
659.2024
 20
-314.8364
 10
658.6381
 20
-315.2665
 10
658.1605
 20
-315.741
 10
657.7697
 20
-316.2598
 10
657.4657
 20
-316.823
 10
657.2486
 20
-317.4306
 10
657.1182
 20
-318.0825
 10
657.0748
 20
-318.7787
 10
657.1182
 20
-319.4749
 10
657.2486
 20
-320.1268
 10
657.4657
 20
-320.7343
 10
657.7697
 20
-321.2975
 10
658.1605
 20
-321.8163
 10
658.6381
 20
-322.2908
 10
659.2024
 20
-322.7209
 10
659.8535
 20
-323.1066
 10
660.4219
 20
-323.3775
 10
661.0217
 20
-323.6122
 10
661.6531
 20
-323.8109
 10
662.3159
 20
-323.9734
 10
663.0102
 20
-324.0999
 10
663.7361
 20
-324.1902
 10
664.4936
 20
-324.2443
 10
665.2826
 20
-324.2624
 10
666.0713
 20
-324.2443
 10
666.8286
 20
-324.1902
 10
667.5544
 20
-324.0999
 10
668.2488
 20
-323.9734
 10
668.9116
 20
-323.8109
 10
669.5428
 20
-323.6122
 10
670.1426
 20
-323.3775
 10
670.7107
 20
-323.1066
 10
671.3621
 20
-322.7209
 10
671.9265
 20
-322.2908
 10
672.4041
 20
-321.8163
 10
672.7949
 20
-321.2975
 10
673.0987
 20
-320.7343
 10
673.3158
 20
-320.1268
 10
673.446
 20
-319.4749
 10
673.4894
 20
-318.7787
  0
LWPOLYLINE
  5
7F
330
1F
100
AcDbEntity
  8
Layer 1
 62
     7
370
     9
100
AcDbPolyline
 90
      113
 70
     1
 43
0.0
 10
659.1859
 20
-304.1263
 10
659.3697
 20
-303.851
 10
659.5784
 20
-303.5944
 10
659.812
 20
-303.3564
 10
660.0706
 20
-303.137
 10
660.3542
 20
-302.9361
 10
660.6627
 20
-302.7539
 10
660.9963
 20
-302.5903
 10
661.3549
 20
-302.4452
 10
661.8302
 20
-302.2832
 10
662.3125
 20
-302.1429
 10
662.8017
 20
-302.024
 10
663.298
 20
-301.9268
 10
663.8012
 20
-301.8511
 10
664.3114
 20
-301.7971
 10
664.8286
 20
-301.7646
 10
665.3529
 20
-301.7538
 10
665.6098
 20
-301.7583
 10
665.8889
 20
-301.7718
 10
666.1902
 20
-301.7941
 10
666.5133
 20
-301.8253
 10
667.1437
 20
-301.9082
 10
667.7392
 20
-302.0163
 10
668.3
 20
-302.1497
 10
668.8259
 20
-302.3084
 10
669.3171
 20
-302.4924
 10
669.7734
 20
-302.7018
 10
670.1949
 20
-302.9364
 10
670.5816
 20
-303.1964
 10
670.873
 20
-303.4338
 10
671.1256
 20
-303.6838
 10
671.3392
 20
-303.9465
 10
671.514
 20
-304.2219
 10
671.65
 20
-304.51
 10
671.747
 20
-304.8107
 10
671.8053
 20
-305.1241
 10
671.8247
 20
-305.4502
 10
671.8055
 20
-305.814
 10
671.7478
 20
-306.1603
 10
671.6516
 20
-306.489
 10
671.517
 20
-306.8002
 10
671.3439
 20
-307.0939
 10
671.1324
 20
-307.3701
 10
670.8824
 20
-307.6288
 10
670.5939
 20
-307.87
 10
670.4539
 20
-307.9721
 10
670.3095
 20
-308.0697
 10
670.1608
 20
-308.1629
 10
670.0077
 20
-308.2516
 10
669.8501
 20
-308.3358
 10
669.6881
 20
-308.4155
 10
669.5217
 20
-308.4907
 10
669.3509
 20
-308.5614
 10
669.0026
 20
-308.6901
 10
668.65
 20
-308.8026
 10
668.2932
 20
-308.8987
 10
667.9321
 20
-308.9786
 10
667.5717
 20
-309.0451
 10
667.217
 20
-309.101
 10
666.868
 20
-309.1465
 10
666.5247
 20
-309.1814
 10
666.3515
 20
-309.1953
 10
666.1718
 20
-309.2074
 10
665.9856
 20
-309.2177
 10
665.7929
 20
-309.2261
 10
665.5937
 20
-309.2327
 10
665.3881
 20
-309.2374
 10
665.1761
 20
-309.2403
 10
664.9578
 20
-309.2412
 10
664.73
 20
-309.2371
 10
664.4889
 20
-309.2248
 10
664.2345
 20
-309.2042
 10
663.9668
 20
-309.1755
 10
663.6856
 20
-309.1385
 10
663.391
 20
-309.0934
 10
663.0829
 20
-309.0401
 10
662.7613
 20
-308.9786
 10
662.4045
 20
-308.8996
 10
662.0491
 20
-308.8059
 10
661.6951
 20
-308.6971
 10
661.3425
 20
-308.573
 10
661.1688
 20
-308.5051
 10
660.9996
 20
-308.4323
 10
660.8347
 20
-308.3547
 10
660.6744
 20
-308.2723
 10
660.5184
 20
-308.1851
 10
660.3668
 20
-308.093
 10
660.2195
 20
-307.996
 10
660.0767
 20
-307.8942
 10
659.9395
 20
-307.7873
 10
659.8092
 20
-307.6751
 10
659.6859
 20
-307.5578
 10
659.5695
 20
-307.4352
 10
659.4601
 20
-307.3074
 10
659.3576
 20
-307.1744
 10
659.2621
 20
-307.0362
 10
659.1735
 20
-306.8928
 10
659.0937
 20
-306.7432
 10
659.0247
 20
-306.587
 10
658.9662
 20
-306.4241
 10
658.9185
 20
-306.2545
 10
658.8813
 20
-306.0783
 10
658.8548
 20
-305.8953
 10
658.8389
 20
-305.7056
 10
658.8336
 20
-305.5091
 10
658.8391
 20
-305.3129
 10
658.8557
 20
-305.1234
 10
658.8832
 20
-304.9406
 10
658.9218
 20
-304.7645
 10
658.9713
 20
-304.595
 10
659.0319
 20
-304.4321
 10
659.1034
 20
-304.2759
 10
659.1859
 20
-304.1263
  0
LWPOLYLINE
  5
80
330
1F
100
AcDbEntity
  8
Layer 1
 62
     7
370
     9
100
AcDbPolyline
 90
       65
 70
     1
 43
0.0
 10
673.4894
 20
-305.4261
 10
673.446
 20
-304.7299
 10
673.3158
 20
-304.078
 10
673.0987
 20
-303.4704
 10
672.7949
 20
-302.9072
 10
672.4041
 20
-302.3884
 10
671.9265
 20
-301.9139
 10
671.3621
 20
-301.4838
 10
670.7107
 20
-301.0981
 10
670.1426
 20
-300.8272
 10
669.5428
 20
-300.5925
 10
668.9116
 20
-300.3938
 10
668.2488
 20
-300.2313
 10
667.5544
 20
-300.1048
 10
666.8286
 20
-300.0145
 10
666.0713
 20
-299.9604
 10
665.2826
 20
-299.9423
 10
664.4936
 20
-299.9604
 10
663.7361
 20
-300.0145
 10
663.0102
 20
-300.1048
 10
662.3159
 20
-300.2313
 10
661.6531
 20
-300.3938
 10
661.0217
 20
-300.5925
 10
660.4219
 20
-300.8272
 10
659.8535
 20
-301.0981
 10
659.2024
 20
-301.4838
 10
658.6381
 20
-301.9139
 10
658.1605
 20
-302.3884
 10
657.7697
 20
-302.9072
 10
657.4657
 20
-303.4704
 10
657.2486
 20
-304.078
 10
657.1182
 20
-304.7299
 10
657.0748
 20
-305.4261
 10
657.1182
 20
-306.1223
 10
657.2486
 20
-306.7742
 10
657.4657
 20
-307.3817
 10
657.7697
 20
-307.9449
 10
658.1605
 20
-308.4637
 10
658.6381
 20
-308.9382
 10
659.2024
 20
-309.3683
 10
659.8535
 20
-309.754
 10
660.4219
 20
-310.0249
 10
661.0217
 20
-310.2596
 10
661.6531
 20
-310.4583
 10
662.3159
 20
-310.6208
 10
663.0102
 20
-310.7473
 10
663.7361
 20
-310.8376
 10
664.4936
 20
-310.8917
 10
665.2826
 20
-310.9098
 10
666.0713
 20
-310.8917
 10
666.8286
 20
-310.8376
 10
667.5544
 20
-310.7473
 10
668.2488
 20
-310.6208
 10
668.9116
 20
-310.4583
 10
669.5428
 20
-310.2596
 10
670.1426
 20
-310.0249
 10
670.7107
 20
-309.754
 10
671.3621
 20
-309.3683
 10
671.9265
 20
-308.9382
 10
672.4041
 20
-308.4637
 10
672.7949
 20
-307.9449
 10
673.0987
 20
-307.3817
 10
673.3158
 20
-306.7742
 10
673.446
 20
-306.1223
 10
673.4894
 20
-305.4261
  0
LWPOLYLINE
  5
81
330
1F
100
AcDbEntity
  8
Layer 1
 62
     7
370
     9
100
AcDbPolyline
 90
      162
 70
     1
 43
0.0
 10
673.232
 20
-283.6561
 10
673.232
 20
-281.9875
 10
666.783
 20
-281.9875
 10
666.355
 20
-282.0011
 10
665.9471
 20
-282.0418
 10
665.5592
 20
-282.1098
 10
665.1915
 20
-282.2049
 10
664.8438
 20
-282.3272
 10
664.5163
 20
-282.4768
 10
664.209
 20
-282.6536
 10
663.9218
 20
-282.8576
 10
663.7846
 20
-282.9715
 10
663.6545
 20
-283.0925
 10
663.5313
 20
-283.2204
 10
663.4151
 20
-283.3554
 10
663.3059
 20
-283.4974
 10
663.2036
 20
-283.6465
 10
663.1082
 20
-283.8028
 10
663.0196
 20
-283.9661
 10
662.9398
 20
-284.1397
 10
662.8707
 20
-284.3268
 10
662.8123
 20
-284.5273
 10
662.7645
 20
-284.7412
 10
662.7273
 20
-284.9685
 10
662.7008
 20
-285.2093
 10
662.6849
 20
-285.4635
 10
662.6796
 20
-285.7313
 10
662.6888
 20
-286.0011
 10
662.7163
 20
-286.2623
 10
662.7621
 20
-286.515
 10
662.8262
 20
-286.759
 10
662.9086
 20
-286.9946
 10
663.0093
 20
-287.2215
 10
663.1283
 20
-287.44
 10
663.2655
 20
-287.6499
 10
663.4024
 20
-287.8323
 10
663.5496
 20
-288.0064
 10
663.7068
 20
-288.1723
 10
663.8741
 20
-288.33
 10
664.0513
 20
-288.4794
 10
664.2384
 20
-288.6206
 10
664.4352
 20
-288.7535
 10
664.6416
 20
-288.8782
 10
664.451
 20
-288.9753
 10
664.2671
 20
-289.0811
 10
664.0905
 20
-289.1958
 10
663.9218
 20
-289.3195
 10
663.7846
 20
-289.4332
 10
663.6545
 20
-289.554
 10
663.5313
 20
-289.6819
 10
663.4151
 20
-289.8169
 10
663.3059
 20
-289.9591
 10
663.2036
 20
-290.1083
 10
663.1082
 20
-290.2646
 10
663.0196
 20
-290.428
 10
662.9398
 20
-290.6016
 10
662.8707
 20
-290.7887
 10
662.8123
 20
-290.9891
 10
662.7645
 20
-291.2029
 10
662.7273
 20
-291.4301
 10
662.7008
 20
-291.6708
 10
662.6849
 20
-291.9248
 10
662.6796
 20
-292.1922
 10
662.6888
 20
-292.4624
 10
662.7163
 20
-292.7238
 10
662.7621
 20
-292.9767
 10
662.8262
 20
-293.2209
 10
662.9086
 20
-293.4565
 10
663.0093
 20
-293.6835
 10
663.1283
 20
-293.902
 10
663.2655
 20
-294.1119
 10
663.396
 20
-294.2856
 10
663.5353
 20
-294.4517
 10
663.6835
 20
-294.6104
 10
663.8407
 20
-294.7617
 10
664.0067
 20
-294.9056
 10
664.1818
 20
-295.042
 10
664.3659
 20
-295.1711
 10
664.559
 20
-295.2928
 10
662.9142
 20
-295.2928
 10
662.9142
 20
-296.9614
 10
673.232
 20
-296.9614
 10
673.232
 20
-295.2928
 10
667.952
 20
-295.2928
 10
667.6443
 20
-295.2539
 10
667.3486
 20
-295.2032
 10
667.0649
 20
-295.1406
 10
666.793
 20
-295.0661
 10
666.5328
 20
-294.9796
 10
666.2843
 20
-294.8813
 10
666.0474
 20
-294.771
 10
665.822
 20
-294.6488
 10
665.6615
 20
-294.5491
 10
665.5083
 20
-294.4413
 10
665.3624
 20
-294.3253
 10
665.2238
 20
-294.2012
 10
665.0926
 20
-294.0689
 10
664.9688
 20
-293.9285
 10
664.8523
 20
-293.78
 10
664.7432
 20
-293.6233
 10
664.644
 20
-293.461
 10
664.5582
 20
-293.2956
 10
664.4855
 20
-293.1272
 10
664.4261
 20
-292.9558
 10
664.3799
 20
-292.7814
 10
664.347
 20
-292.604
 10
664.3272
 20
-292.4237
 10
664.3206
 20
-292.2405
 10
664.3241
 20
-292.0615
 10
664.3345
 20
-291.8945
 10
664.3519
 20
-291.7395
 10
664.3763
 20
-291.5965
 10
664.4077
 20
-291.4654
 10
664.446
 20
-291.3462
 10
664.4914
 20
-291.239
 10
664.5438
 20
-291.1436
 10
664.7184
 20
-290.9032
 10
664.9232
 20
-290.6949
 10
665.1581
 20
-290.5187
 10
665.423
 20
-290.3745
 10
665.718
 20
-290.2623
 10
666.0431
 20
-290.1822
 10
666.3981
 20
-290.1341
 10
666.783
 20
-290.1181
 10
673.232
 20
-290.1181
 10
673.232
 20
-288.4495
 10
666.783
 20
-288.4495
 10
666.388
 20
-288.4611
 10
665.822
 20
-288.1868
 10
665.6615
 20
-288.0875
 10
665.5083
 20
-287.9799
 10
665.3624
 20
-287.864
 10
665.2238
 20
-287.74
 10
665.0926
 20
-287.6077
 10
664.9688
 20
-287.4671
 10
664.8523
 20
-287.3183
 10
664.7432
 20
-287.1613
 10
664.644
 20
-286.999
 10
664.5582
 20
-286.8336
 10
664.4855
 20
-286.6652
 10
664.4261
 20
-286.4938
 10
664.3799
 20
-286.3194
 10
664.347
 20
-286.1421
 10
664.3272
 20
-285.9618
 10
664.3206
 20
-285.7786
 10
664.3241
 20
-285.5998
 10
664.3345
 20
-285.433
 10
664.3519
 20
-285.278
 10
664.3763
 20
-285.1349
 10
664.4077
 20
-285.0036
 10
664.446
 20
-284.8844
 10
664.4914
 20
-284.777
 10
664.5438
 20
-284.6816
 10
664.7184
 20
-284.4413
 10
664.9232
 20
-284.233
 10
665.1581
 20
-284.0567
 10
665.423
 20
-283.9125
 10
665.718
 20
-283.8003
 10
666.0431
 20
-283.7202
 10
666.3981
 20
-283.6721
 10
666.783
 20
-283.6561
 10
673.232
 20
-283.6561
  0
LWPOLYLINE
  5
82
330
1F
100
AcDbEntity
  8
Layer 1
 62
     7
370
     9
100
AcDbPolyline
 90
      162
 70
     1
 43
0.0
 10
673.232
 20
-265.4629
 10
673.232
 20
-263.7943
 10
666.783
 20
-263.7943
 10
666.355
 20
-263.8079
 10
665.9471
 20
-263.8486
 10
665.5592
 20
-263.9166
 10
665.1915
 20
-264.0117
 10
664.8438
 20
-264.134
 10
664.5163
 20
-264.2835
 10
664.209
 20
-264.4603
 10
663.9218
 20
-264.6643
 10
663.7846
 20
-264.7782
 10
663.6545
 20
-264.8992
 10
663.5313
 20
-265.0271
 10
663.4151
 20
-265.1621
 10
663.3059
 20
-265.3041
 10
663.2036
 20
-265.4532
 10
663.1082
 20
-265.6095
 10
663.0196
 20
-265.7728
 10
662.9398
 20
-265.9465
 10
662.8707
 20
-266.1335
 10
662.8123
 20
-266.334
 10
662.7645
 20
-266.5479
 10
662.7273
 20
-266.7752
 10
662.7008
 20
-267.016
 10
662.6849
 20
-267.2703
 10
662.6796
 20
-267.538
 10
662.6888
 20
-267.8078
 10
662.7163
 20
-268.0691
 10
662.7621
 20
-268.3217
 10
662.8262
 20
-268.5658
 10
662.9086
 20
-268.8013
 10
663.0093
 20
-269.0283
 10
663.1283
 20
-269.2468
 10
663.2655
 20
-269.4567
 10
663.4024
 20
-269.6391
 10
663.5496
 20
-269.8132
 10
663.7068
 20
-269.9791
 10
663.8741
 20
-270.1367
 10
664.0513
 20
-270.2862
 10
664.2384
 20
-270.4273
 10
664.4352
 20
-270.5603
 10
664.6416
 20
-270.685
 10
664.451
 20
-270.782
 10
664.2671
 20
-270.8879
 10
664.0905
 20
-271.0025
 10
663.9218
 20
-271.1262
 10
663.7846
 20
-271.2399
 10
663.6545
 20
-271.3607
 10
663.5313
 20
-271.4886
 10
663.4151
 20
-271.6237
 10
663.3059
 20
-271.7658
 10
663.2036
 20
-271.9151
 10
663.1082
 20
-272.0714
 10
663.0196
 20
-272.2348
 10
662.9398
 20
-272.4084
 10
662.8707
 20
-272.5954
 10
662.8123
 20
-272.7959
 10
662.7645
 20
-273.0097
 10
662.7273
 20
-273.2369
 10
662.7008
 20
-273.4775
 10
662.6849
 20
-273.7316
 10
662.6796
 20
-273.999
 10
662.6888
 20
-274.2691
 10
662.7163
 20
-274.5306
 10
662.7621
 20
-274.7834
 10
662.8262
 20
-275.0276
 10
662.9086
 20
-275.2632
 10
663.0093
 20
-275.4902
 10
663.1283
 20
-275.7087
 10
663.2655
 20
-275.9186
 10
663.396
 20
-276.0923
 10
663.5353
 20
-276.2585
 10
663.6835
 20
-276.4172
 10
663.8407
 20
-276.5685
 10
664.0067
 20
-276.7124
 10
664.1818
 20
-276.8488
 10
664.3659
 20
-276.9779
 10
664.559
 20
-277.0996
 10
662.9142
 20
-277.0996
 10
662.9142
 20
-278.7682
 10
673.232
 20
-278.7682
 10
673.232
 20
-277.0996
 10
667.952
 20
-277.0996
 10
667.6443
 20
-277.0607
 10
667.3486
 20
-277.0099
 10
667.0649
 20
-276.9473
 10
666.793
 20
-276.8728
 10
666.5328
 20
-276.7863
 10
666.2843
 20
-276.688
 10
666.0474
 20
-276.5777
 10
665.822
 20
-276.4555
 10
665.6615
 20
-276.3558
 10
665.5083
 20
-276.248
 10
665.3624
 20
-276.1321
 10
665.2238
 20
-276.008
 10
665.0926
 20
-275.8757
 10
664.9688
 20
-275.7353
 10
664.8523
 20
-275.5867
 10
664.7432
 20
-275.43
 10
664.644
 20
-275.2677
 10
664.5582
 20
-275.1023
 10
664.4855
 20
-274.9339
 10
664.4261
 20
-274.7625
 10
664.3799
 20
-274.5881
 10
664.347
 20
-274.4108
 10
664.3272
 20
-274.2304
 10
664.3206
 20
-274.0472
 10
664.3241
 20
-273.8682
 10
664.3345
 20
-273.7012
 10
664.3519
 20
-273.5462
 10
664.3763
 20
-273.4032
 10
664.4077
 20
-273.2721
 10
664.446
 20
-273.1529
 10
664.4914
 20
-273.0457
 10
664.5438
 20
-272.9503
 10
664.7184
 20
-272.7099
 10
664.9232
 20
-272.5016
 10
665.1581
 20
-272.3254
 10
665.423
 20
-272.1812
 10
665.718
 20
-272.069
 10
666.0431
 20
-271.9889
 10
666.3981
 20
-271.9408
 10
666.783
 20
-271.9248
 10
673.232
 20
-271.9248
 10
673.232
 20
-270.2562
 10
666.783
 20
-270.2562
 10
666.388
 20
-270.2678
 10
665.822
 20
-269.9936
 10
665.6615
 20
-269.8942
 10
665.5083
 20
-269.7866
 10
665.3624
 20
-269.6708
 10
665.2238
 20
-269.5467
 10
665.0926
 20
-269.4144
 10
664.9688
 20
-269.2739
 10
664.8523
 20
-269.1251
 10
664.7432
 20
-268.9681
 10
664.644
 20
-268.8058
 10
664.5582
 20
-268.6404
 10
664.4855
 20
-268.472
 10
664.4261
 20
-268.3006
 10
664.3799
 20
-268.1262
 10
664.347
 20
-267.9488
 10
664.3272
 20
-267.7685
 10
664.3206
 20
-267.5853
 10
664.3241
 20
-267.4065
 10
664.3345
 20
-267.2397
 10
664.3519
 20
-267.0847
 10
664.3763
 20
-266.9416
 10
664.4077
 20
-266.8104
 10
664.446
 20
-266.6912
 10
664.4914
 20
-266.5838
 10
664.5438
 20
-266.4884
 10
664.7184
 20
-266.248
 10
664.9232
 20
-266.0397
 10
665.1581
 20
-265.8635
 10
665.423
 20
-265.7193
 10
665.718
 20
-265.6071
 10
666.0431
 20
-265.527
 10
666.3981
 20
-265.4789
 10
666.783
 20
-265.4629
 10
673.232
 20
-265.4629
  0
LWPOLYLINE
  5
83
330
1F
100
AcDbEntity
  8
Layer 1
 62
     7
370
     9
100
AcDbPolyline
 90
        7
 70
     1
 43
0.0
 10
646.4484
 20
-435.2855
 10
648.1217
 20
-435.2757
 10
648.0229
 20
-418.5476
 10
644.0091
 20
-419.0104
 10
644.0178
 20
-420.4933
 10
646.3612
 20
-420.4795
 10
646.4484
 20
-435.2855
  0
LWPOLYLINE
  5
84
330
1F
100
AcDbEntity
  8
Layer 1
 62
     7
370
     9
100
AcDbPolyline
 90
      113
 70
     1
 43
0.0
 10
657.6841
 20
-420.6055
 10
657.9613
 20
-420.7942
 10
658.2199
 20
-421.0089
 10
658.46
 20
-421.2496
 10
658.6815
 20
-421.5163
 10
658.8845
 20
-421.809
 10
659.069
 20
-422.1278
 10
659.235
 20
-422.4727
 10
659.3826
 20
-422.8436
 10
659.5479
 20
-423.3354
 10
659.6918
 20
-423.8346
 10
659.814
 20
-424.3413
 10
659.9147
 20
-424.8552
 10
659.9938
 20
-425.3766
 10
660.0512
 20
-425.9054
 10
660.087
 20
-426.4415
 10
660.1011
 20
-426.985
 10
660.098
 20
-427.2514
 10
660.0861
 20
-427.5408
 10
660.0654
 20
-427.8531
 10
660.0362
 20
-428.1882
 10
659.957
 20
-428.8423
 10
659.8521
 20
-429.4604
 10
659.7217
 20
-430.0427
 10
659.5657
 20
-430.589
 10
659.3842
 20
-431.0995
 10
659.1771
 20
-431.574
 10
658.9445
 20
-432.0126
 10
658.6864
 20
-432.4153
 10
658.4501
 20
-432.7187
 10
658.2009
 20
-432.9819
 10
657.9387
 20
-433.2049
 10
657.6637
 20
-433.3878
 10
657.3757
 20
-433.5306
 10
657.0747
 20
-433.6332
 10
656.7609
 20
-433.6957
 10
656.434
 20
-433.718
 10
656.069
 20
-433.7002
 10
655.7213
 20
-433.6425
 10
655.391
 20
-433.5448
 10
655.0781
 20
-433.4071
 10
654.7824
 20
-433.2294
 10
654.5041
 20
-433.0118
 10
654.2432
 20
-432.7542
 10
653.9996
 20
-432.4566
 10
653.8962
 20
-432.3119
 10
653.7973
 20
-432.1627
 10
653.7029
 20
-432.009
 10
653.6131
 20
-431.8507
 10
653.5277
 20
-431.6879
 10
653.4468
 20
-431.5205
 10
653.3704
 20
-431.3484
 10
653.2985
 20
-431.1717
 10
653.1672
 20
-430.8113
 10
653.0523
 20
-430.4465
 10
652.9537
 20
-430.0773
 10
652.8714
 20
-429.7036
 10
652.8026
 20
-429.3301
 10
652.7444
 20
-428.9626
 10
652.6966
 20
-428.6011
 10
652.6594
 20
-428.2453
 10
652.6443
 20
-428.0658
 10
652.6311
 20
-427.8795
 10
652.6196
 20
-427.6864
 10
652.61
 20
-427.4866
 10
652.6022
 20
-427.28
 10
652.5962
 20
-427.0669
 10
652.592
 20
-426.8471
 10
652.5896
 20
-426.6207
 10
652.5926
 20
-426.3845
 10
652.6036
 20
-426.1345
 10
652.6227
 20
-425.8707
 10
652.6499
 20
-425.5929
 10
652.6852
 20
-425.3013
 10
652.7285
 20
-424.9956
 10
652.78
 20
-424.6759
 10
652.8395
 20
-424.3422
 10
652.9165
 20
-423.9715
 10
653.0083
 20
-423.6022
 10
653.1152
 20
-423.2345
 10
653.2375
 20
-422.8682
 10
653.3046
 20
-422.6877
 10
653.3765
 20
-422.5119
 10
653.4534
 20
-422.3406
 10
653.5351
 20
-422.1738
 10
653.6217
 20
-422.0116
 10
653.7131
 20
-421.8538
 10
653.8094
 20
-421.7005
 10
653.9105
 20
-421.5517
 10
654.017
 20
-421.4087
 10
654.1287
 20
-421.2729
 10
654.2457
 20
-421.1443
 10
654.368
 20
-421.023
 10
654.4955
 20
-420.9088
 10
654.6284
 20
-420.8018
 10
654.7664
 20
-420.702
 10
654.9098
 20
-420.6094
 10
655.0592
 20
-420.5256
 10
655.2154
 20
-420.453
 10
655.3784
 20
-420.3914
 10
655.5482
 20
-420.3409
 10
655.7248
 20
-420.3013
 10
655.9082
 20
-420.2727
 10
656.0985
 20
-420.255
 10
656.2955
 20
-420.2481
 10
656.492
 20
-420.2527
 10
656.6819
 20
-420.2688
 10
656.8653
 20
-420.2963
 10
657.0421
 20
-420.3352
 10
657.2124
 20
-420.3856
 10
657.3762
 20
-420.4475
 10
657.5334
 20
-420.5208
 10
657.6841
 20
-420.6055
  0
LWPOLYLINE
  5
85
330
1F
100
AcDbEntity
  8
Layer 1
 62
     7
370
     9
100
AcDbPolyline
 90
       65
 70
     1
 43
0.0
 10
656.4679
 20
-435.443
 10
657.1658
 20
-435.394
 10
657.8187
 20
-435.2553
 10
658.4266
 20
-435.0267
 10
658.9895
 20
-434.7082
 10
659.5073
 20
-434.3
 10
659.9801
 20
-433.8019
 10
660.4079
 20
-433.2141
 10
660.7906
 20
-432.5364
 10
661.0589
 20
-431.9456
 10
661.2908
 20
-431.3222
 10
661.4862
 20
-430.6664
 10
661.6453
 20
-429.9781
 10
661.7678
 20
-429.2573
 10
661.854
 20
-428.5043
 10
661.9036
 20
-427.7189
 10
661.9168
 20
-426.9013
 10
661.894
 20
-426.0833
 10
661.8351
 20
-425.2982
 10
661.7401
 20
-424.5461
 10
661.6091
 20
-423.8269
 10
661.442
 20
-423.1406
 10
661.2389
 20
-422.4872
 10
660.9998
 20
-421.8666
 10
660.7247
 20
-421.279
 10
660.3338
 20
-420.6063
 10
659.899
 20
-420.0238
 10
659.4202
 20
-419.5315
 10
658.8975
 20
-419.1295
 10
658.3308
 20
-418.8178
 10
657.7202
 20
-418.5964
 10
657.0657
 20
-418.4653
 10
656.3672
 20
-418.4245
 10
655.6693
 20
-418.4738
 10
655.0164
 20
-418.613
 10
654.4085
 20
-418.8419
 10
653.8456
 20
-419.1605
 10
653.3278
 20
-419.5689
 10
652.855
 20
-420.067
 10
652.4272
 20
-420.6548
 10
652.0445
 20
-421.3322
 10
651.7762
 20
-421.923
 10
651.5444
 20
-422.5463
 10
651.3491
 20
-423.202
 10
651.1901
 20
-423.8903
 10
651.0676
 20
-424.6111
 10
650.9815
 20
-425.3643
 10
650.9317
 20
-426.1501
 10
650.9183
 20
-426.9683
 10
650.9413
 20
-427.786
 10
651.0004
 20
-428.5708
 10
651.0954
 20
-429.3227
 10
651.2265
 20
-430.0417
 10
651.3936
 20
-430.7278
 10
651.5967
 20
-431.381
 10
651.836
 20
-432.0013
 10
652.1113
 20
-432.5886
 10
652.5019
 20
-433.2616
 10
652.9365
 20
-433.8442
 10
653.4151
 20
-434.3365
 10
653.9377
 20
-434.7384
 10
654.5043
 20
-435.05
 10
655.1149
 20
-435.2713
 10
655.7694
 20
-435.4023
 10
656.4679
 20
-435.443
  0
LWPOLYLINE
  5
86
330
1F
100
AcDbEntity
  8
Layer 1
 62
     7
370
     9
100
AcDbPolyline
 90
       73
 70
     1
 43
0.0
 10
669.2026
 20
-427.6339
 10
668.8211
 20
-427.6185
 10
668.4535
 20
-427.5673
 10
668.0999
 20
-427.4802
 10
667.7603
 20
-427.3572
 10
667.4346
 20
-427.1984
 10
667.123
 20
-427.0038
 10
666.8253
 20
-426.7735
 10
666.5416
 20
-426.5074
 10
666.2848
 20
-426.2195
 10
666.062
 20
-425.9177
 10
665.8732
 20
-425.6021
 10
665.7183
 20
-425.2726
 10
665.5974
 20
-424.9291
 10
665.5103
 20
-424.5718
 10
665.4571
 20
-424.2006
 10
665.4377
 20
-423.8154
 10
665.4528
 20
-423.4388
 10
665.5023
 20
-423.075
 10
665.5863
 20
-422.7238
 10
665.7047
 20
-422.3853
 10
665.8575
 20
-422.0595
 10
666.0447
 20
-421.7465
 10
666.2663
 20
-421.4463
 10
666.5222
 20
-421.1589
 10
666.7977
 20
-420.9005
 10
667.0891
 20
-420.6764
 10
667.3963
 20
-420.4865
 10
667.7193
 20
-420.3307
 10
668.0582
 20
-420.209
 10
668.4131
 20
-420.1214
 10
668.7839
 20
-420.0678
 10
669.1706
 20
-420.0482
 10
669.5499
 20
-420.0637
 10
669.9167
 20
-420.1145
 10
670.2709
 20
-420.2007
 10
670.6125
 20
-420.3223
 10
670.9416
 20
-420.4793
 10
671.2582
 20
-420.6717
 10
671.5623
 20
-420.8995
 10
671.8539
 20
-421.1628
 10
672.1192
 20
-421.4477
 10
672.3495
 20
-421.7469
 10
672.5446
 20
-422.0605
 10
672.7046
 20
-422.3883
 10
672.8296
 20
-422.7304
 10
672.9196
 20
-423.0868
 10
672.9746
 20
-423.4573
 10
672.9946
 20
-423.842
 10
672.979
 20
-424.216
 10
672.9278
 20
-424.5781
 10
672.8411
 20
-424.9282
 10
672.7188
 20
-425.2664
 10
672.5609
 20
-425.5927
 10
672.3676
 20
-425.907
 10
672.1387
 20
-426.2093
 10
671.8743
 20
-426.4996
 10
671.7437
 20
-426.6248
 10
671.6074
 20
-426.7435
 10
671.4655
 20
-426.8557
 10
671.318
 20
-426.9615
 10
671.1648
 20
-427.0609
 10
671.006
 20
-427.1538
 10
670.8416
 20
-427.2405
 10
670.6716
 20
-427.3208
 10
670.4974
 20
-427.3932
 10
670.3204
 20
-427.4561
 10
670.1408
 20
-427.5095
 10
669.9585
 20
-427.5534
 10
669.7735
 20
-427.5878
 10
669.5859
 20
-427.6126
 10
669.3956
 20
-427.628
 10
669.2026
 20
-427.6339
  0
LWPOLYLINE
  5
87
330
1F
100
AcDbEntity
  8
Layer 1
 62
     7
370
     9
100
AcDbPolyline
 90
       69
 70
     1
 43
0.0
 10
663.7411
 20
-423.9474
 10
663.7708
 20
-424.5325
 10
663.8526
 20
-425.0909
 10
663.9865
 20
-425.6224
 10
664.1725
 20
-426.127
 10
664.4106
 20
-426.6047
 10
664.7009
 20
-427.0555
 10
665.0432
 20
-427.4793
 10
665.4377
 20
-427.8761
 10
665.8408
 20
-428.2098
 10
666.2718
 20
-428.5021
 10
666.7304
 20
-428.7529
 10
667.2169
 20
-428.9621
 10
667.731
 20
-429.1299
 10
668.2729
 20
-429.256
 10
668.8425
 20
-429.3406
 10
669.4398
 20
-429.3836
 10
669.9163
 20
-429.0645
 10
664.9796
 20
-435.1733
 10
667.1788
 20
-435.1595
 10
673.4933
 20
-427.3168
 10
673.7767
 20
-426.9347
 10
674.022
 20
-426.5373
 10
674.2292
 20
-426.1246
 10
674.3982
 20
-425.6966
 10
674.5289
 20
-425.2532
 10
674.6216
 20
-424.7945
 10
674.676
 20
-424.3205
 10
674.6922
 20
-423.8312
 10
674.6636
 20
-423.268
 10
674.5852
 20
-422.7268
 10
674.457
 20
-422.2075
 10
674.2788
 20
-421.71
 10
674.0508
 20
-421.2345
 10
673.7729
 20
-420.7808
 10
673.445
 20
-420.3489
 10
673.0673
 20
-419.9389
 10
672.6511
 20
-419.5625
 10
672.2152
 20
-419.2368
 10
671.7595
 20
-418.9617
 10
671.284
 20
-418.7373
 10
670.7886
 20
-418.5635
 10
670.2734
 20
-418.4403
 10
669.7383
 20
-418.3678
 10
669.1832
 20
-418.3458
 10
668.6208
 20
-418.3744
 10
668.0811
 20
-418.453
 10
667.5641
 20
-418.5816
 10
667.0698
 20
-418.7602
 10
666.5982
 20
-418.9887
 10
666.1492
 20
-419.2672
 10
665.723
 20
-419.5958
 10
665.3195
 20
-419.9744
 10
665.1403
 20
-420.1676
 10
664.9709
 20
-420.3685
 10
664.8112
 20
-420.577
 10
664.6613
 20
-420.7931
 10
664.5211
 20
-421.0167
 10
664.3906
 20
-421.2479
 10
664.2697
 20
-421.4867
 10
664.1585
 20
-421.7329
 10
664.0592
 20
-421.9859
 10
663.9733
 20
-422.2458
 10
663.9009
 20
-422.5124
 10
663.842
 20
-422.7859
 10
663.7965
 20
-423.0661
 10
663.7645
 20
-423.3531
 10
663.7461
 20
-423.6469
 10
663.7411
 20
-423.9474
  0
LWPOLYLINE
  5
88
330
1F
100
AcDbEntity
  8
Layer 1
 62
     7
370
     9
100
AcDbPolyline
 90
      162
 70
     1
 43
0.0
 10
690.5401
 20
-434.9684
 10
692.2134
 20
-434.9586
 10
692.1737
 20
-428.2719
 10
692.1576
 20
-427.8282
 10
692.1143
 20
-427.4055
 10
692.0439
 20
-427.0038
 10
691.9463
 20
-426.6231
 10
691.8214
 20
-426.2635
 10
691.6694
 20
-425.9249
 10
691.4902
 20
-425.6075
 10
691.2838
 20
-425.3111
 10
691.1688
 20
-425.1696
 10
691.0468
 20
-425.0354
 10
690.9178
 20
-424.9085
 10
690.7817
 20
-424.7889
 10
690.6385
 20
-424.6765
 10
690.4883
 20
-424.5713
 10
690.3309
 20
-424.4733
 10
690.1663
 20
-424.3826
 10
689.9918
 20
-424.3007
 10
689.8039
 20
-424.2301
 10
689.6026
 20
-424.1706
 10
689.3878
 20
-424.1224
 10
689.1596
 20
-424.0853
 10
688.9179
 20
-424.0594
 10
688.6628
 20
-424.0446
 10
688.3943
 20
-424.0409
 10
688.1237
 20
-424.0519
 10
687.8619
 20
-424.0819
 10
687.6088
 20
-424.1308
 10
687.3644
 20
-424.1987
 10
687.1287
 20
-424.2855
 10
686.9018
 20
-424.3912
 10
686.6835
 20
-424.5158
 10
686.474
 20
-424.6593
 10
686.2919
 20
-424.8026
 10
686.1182
 20
-424.9564
 10
685.9528
 20
-425.1205
 10
685.7957
 20
-425.295
 10
685.647
 20
-425.4796
 10
685.5067
 20
-425.6743
 10
685.3747
 20
-425.8791
 10
685.251
 20
-426.0939
 10
685.1522
 20
-425.897
 10
685.0447
 20
-425.7071
 10
684.9285
 20
-425.5247
 10
684.8036
 20
-425.3505
 10
684.6889
 20
-425.209
 10
684.567
 20
-425.0748
 10
684.438
 20
-424.9479
 10
684.3019
 20
-424.8282
 10
684.1586
 20
-424.7158
 10
684.0083
 20
-424.6107
 10
683.8508
 20
-424.5127
 10
683.6862
 20
-424.422
 10
683.5117
 20
-424.3401
 10
683.3238
 20
-424.2695
 10
683.1225
 20
-424.21
 10
682.9077
 20
-424.1618
 10
682.6796
 20
-424.1247
 10
682.4381
 20
-424.0988
 10
682.1832
 20
-424.084
 10
681.915
 20
-424.0803
 10
681.6442
 20
-424.0913
 10
681.3822
 20
-424.1213
 10
681.1291
 20
-424.1702
 10
680.8847
 20
-424.2382
 10
680.649
 20
-424.3251
 10
680.422
 20
-424.431
 10
680.2036
 20
-424.5558
 10
679.9938
 20
-424.6996
 10
679.8204
 20
-424.836
 10
679.6546
 20
-424.9814
 10
679.4964
 20
-425.136
 10
679.3457
 20
-425.2998
 10
679.2024
 20
-425.4728
 10
679.0666
 20
-425.6551
 10
678.9383
 20
-425.8466
 10
678.8173
 20
-426.0476
 10
678.8076
 20
-424.3422
 10
677.1343
 20
-424.3521
 10
677.1973
 20
-435.0502
 10
678.8706
 20
-435.0403
 10
678.8386
 20
-429.5657
 10
678.8755
 20
-429.2463
 10
678.9245
 20
-428.9394
 10
678.9855
 20
-428.6447
 10
679.0585
 20
-428.3624
 10
679.1436
 20
-428.0921
 10
679.2407
 20
-427.8339
 10
679.3498
 20
-427.5876
 10
679.4709
 20
-427.3532
 10
679.5698
 20
-427.1861
 10
679.677
 20
-427.0265
 10
679.7924
 20
-426.8745
 10
679.916
 20
-426.7301
 10
680.0478
 20
-426.5933
 10
680.1879
 20
-426.4642
 10
680.3361
 20
-426.3427
 10
680.4925
 20
-426.2288
 10
680.6549
 20
-426.1249
 10
680.8204
 20
-426.0347
 10
680.989
 20
-425.9583
 10
681.1606
 20
-425.8956
 10
681.3352
 20
-425.8466
 10
681.5129
 20
-425.8113
 10
681.6936
 20
-425.7897
 10
681.8773
 20
-425.7818
 10
682.0568
 20
-425.7843
 10
682.2243
 20
-425.7941
 10
682.3798
 20
-425.8113
 10
682.5233
 20
-425.8357
 10
682.6548
 20
-425.8674
 10
682.7745
 20
-425.9064
 10
682.8823
 20
-425.9527
 10
682.9783
 20
-426.0063
 10
683.2205
 20
-426.186
 10
683.4306
 20
-426.3971
 10
683.6088
 20
-426.6396
 10
683.7549
 20
-426.9135
 10
683.8691
 20
-427.2187
 10
683.9514
 20
-427.5553
 10
684.0017
 20
-427.9231
 10
684.0202
 20
-428.3221
 10
684.0599
 20
-435.0088
 10
685.7332
 20
-434.998
 10
685.6935
 20
-428.3113
 10
685.68
 20
-427.9017
 10
685.9511
 20
-427.3139
 10
686.0497
 20
-427.1467
 10
686.1566
 20
-426.9871
 10
686.2719
 20
-426.8351
 10
686.3955
 20
-426.6906
 10
686.5273
 20
-426.5537
 10
686.6675
 20
-426.4243
 10
686.816
 20
-426.3026
 10
686.9727
 20
-426.1884
 10
687.1348
 20
-426.0848
 10
687.3002
 20
-425.9949
 10
687.4687
 20
-425.9187
 10
687.6404
 20
-425.8561
 10
687.8151
 20
-425.8072
 10
687.9929
 20
-425.7719
 10
688.1737
 20
-425.7503
 10
688.3575
 20
-425.7424
 10
688.5367
 20
-425.7449
 10
688.7041
 20
-425.7546
 10
688.8595
 20
-425.7716
 10
689.0031
 20
-425.7959
 10
689.1348
 20
-425.8276
 10
689.2546
 20
-425.8666
 10
689.3625
 20
-425.913
 10
689.4585
 20
-425.9669
 10
689.7007
 20
-426.1466
 10
689.9108
 20
-426.3577
 10
690.0889
 20
-426.6002
 10
690.2351
 20
-426.8741
 10
690.3493
 20
-427.1793
 10
690.4316
 20
-427.5159
 10
690.4819
 20
-427.8837
 10
690.5004
 20
-428.2827
 10
690.5401
 20
-434.9684
  0
LWPOLYLINE
  5
89
330
1F
100
AcDbEntity
  8
Layer 1
 62
     7
370
     9
100
AcDbPolyline
 90
      162
 70
     1
 43
0.0
 10
708.7838
 20
-434.8582
 10
710.4571
 20
-434.8473
 10
710.4183
 20
-428.1607
 10
710.4019
 20
-427.717
 10
710.3584
 20
-427.2943
 10
710.2878
 20
-426.8925
 10
710.1902
 20
-426.5118
 10
710.0654
 20
-426.1522
 10
709.9135
 20
-425.8136
 10
709.7345
 20
-425.4962
 10
709.5284
 20
-425.1998
 10
709.4131
 20
-425.0584
 10
709.2909
 20
-424.9242
 10
709.1617
 20
-424.7973
 10
709.0256
 20
-424.6776
 10
708.8825
 20
-424.5652
 10
708.7323
 20
-424.46
 10
708.5751
 20
-424.3621
 10
708.4109
 20
-424.2713
 10
708.2364
 20
-424.1894
 10
708.0485
 20
-424.1188
 10
707.8472
 20
-424.0594
 10
707.6324
 20
-424.0111
 10
707.4042
 20
-423.9741
 10
707.1625
 20
-423.9482
 10
706.9074
 20
-423.9334
 10
706.6389
 20
-423.9297
 10
706.3684
 20
-423.9407
 10
706.1065
 20
-423.9706
 10
705.8534
 20
-424.0196
 10
705.609
 20
-424.0875
 10
705.3734
 20
-424.1743
 10
705.1464
 20
-424.28
 10
704.9282
 20
-424.4046
 10
704.7186
 20
-424.548
 10
704.5365
 20
-424.6914
 10
704.3628
 20
-424.8452
 10
704.1973
 20
-425.0093
 10
704.0402
 20
-425.1837
 10
703.8914
 20
-425.3684
 10
703.7509
 20
-425.5631
 10
703.6186
 20
-425.7679
 10
703.4947
 20
-425.9826
 10
703.3964
 20
-425.7857
 10
703.2892
 20
-425.5958
 10
703.1731
 20
-425.4134
 10
703.0482
 20
-425.2392
 10
702.9332
 20
-425.0978
 10
702.8113
 20
-424.9636
 10
702.6822
 20
-424.8367
 10
702.5462
 20
-424.717
 10
702.403
 20
-424.6046
 10
702.2527
 20
-424.4994
 10
702.0953
 20
-424.4015
 10
701.9308
 20
-424.3107
 10
701.7563
 20
-424.2291
 10
701.5684
 20
-424.1586
 10
701.3671
 20
-424.0992
 10
701.1524
 20
-424.0509
 10
700.9242
 20
-424.0137
 10
700.6828
 20
-423.9876
 10
700.4279
 20
-423.9727
 10
700.1597
 20
-423.969
 10
699.8888
 20
-423.98
 10
699.6268
 20
-424.01
 10
699.3735
 20
-424.059
 10
699.129
 20
-424.127
 10
698.8933
 20
-424.2139
 10
698.6663
 20
-424.3198
 10
698.448
 20
-424.4446
 10
698.2385
 20
-424.5884
 10
698.0651
 20
-424.7247
 10
697.8993
 20
-424.8702
 10
697.741
 20
-425.0248
 10
697.5903
 20
-425.1885
 10
697.447
 20
-425.3615
 10
697.3112
 20
-425.5438
 10
697.1829
 20
-425.7353
 10
697.0619
 20
-425.9363
 10
697.0522
 20
-424.231
 10
695.3789
 20
-424.2408
 10
695.4419
 20
-434.9389
 10
697.1152
 20
-434.9291
 10
697.0823
 20
-429.4545
 10
697.1195
 20
-429.1351
 10
697.1687
 20
-428.8281
 10
697.2299
 20
-428.5335
 10
697.303
 20
-428.2511
 10
697.3882
 20
-427.9809
 10
697.4853
 20
-427.7227
 10
697.5945
 20
-427.4764
 10
697.7156
 20
-427.242
 10
697.8145
 20
-427.0748
 10
697.9216
 20
-426.9152
 10
698.037
 20
-426.7632
 10
698.1607
 20
-426.6188
 10
698.2925
 20
-426.482
 10
698.4325
 20
-426.3529
 10
698.5808
 20
-426.2314
 10
698.7372
 20
-426.1175
 10
698.8993
 20
-426.0136
 10
699.0645
 20
-425.9235
 10
699.2329
 20
-425.847
 10
699.4044
 20
-425.7844
 10
699.5789
 20
-425.7354
 10
699.7566
 20
-425.7001
 10
699.9372
 20
-425.6785
 10
700.1209
 20
-425.6705
 10
700.3005
 20
-425.673
 10
700.4681
 20
-425.6829
 10
700.6238
 20
-425.7
 10
700.7675
 20
-425.7244
 10
700.8992
 20
-425.7561
 10
701.019
 20
-425.7951
 10
701.1269
 20
-425.8414
 10
701.2229
 20
-425.895
 10
701.4648
 20
-426.0747
 10
701.6748
 20
-426.2858
 10
701.8529
 20
-426.5283
 10
701.9992
 20
-426.8022
 10
702.1135
 20
-427.1075
 10
702.1959
 20
-427.444
 10
702.2464
 20
-427.8118
 10
702.2649
 20
-428.2109
 10
702.3046
 20
-434.8976
 10
703.9779
 20
-434.8867
 10
703.9382
 20
-428.2
 10
703.9236
 20
-427.7904
 10
704.1957
 20
-427.2026
 10
704.2943
 20
-427.0354
 10
704.4012
 20
-426.8758
 10
704.5165
 20
-426.7238
 10
704.6401
 20
-426.5793
 10
704.772
 20
-426.4425
 10
704.9121
 20
-426.3131
 10
705.0606
 20
-426.1914
 10
705.2173
 20
-426.0772
 10
705.3794
 20
-425.9736
 10
705.5446
 20
-425.8837
 10
705.713
 20
-425.8074
 10
705.8845
 20
-425.7448
 10
706.0591
 20
-425.6959
 10
706.2367
 20
-425.6607
 10
706.4174
 20
-425.6391
 10
706.6011
 20
-425.6311
 10
706.7804
 20
-425.6337
 10
706.9479
 20
-425.6435
 10
707.1035
 20
-425.6606
 10
707.2472
 20
-425.685
 10
707.3791
 20
-425.7167
 10
707.499
 20
-425.7557
 10
707.607
 20
-425.802
 10
707.7031
 20
-425.8556
 10
707.945
 20
-426.0353
 10
708.155
 20
-426.2464
 10
708.3331
 20
-426.4889
 10
708.4793
 20
-426.7628
 10
708.5936
 20
-427.0681
 10
708.676
 20
-427.4046
 10
708.7265
 20
-427.7724
 10
708.745
 20
-428.1715
 10
708.7838
 20
-434.8582
  0
LWPOLYLINE
  5
8A
330
1F
100
AcDbEntity
  8
Layer 1
 62
     7
370
    20
100
AcDbPolyline
 90
      291
 70
     1
 43
0.0
 10
562.5013
 20
-264.1244
 10
563.9958
 20
-263.9496
 10
565.5171
 20
-263.7992
 10
565.9132
 20
-263.7711
 10
566.2355
 20
-263.7343
 10
566.5115
 20
-263.7043
 10
566.7686
 20
-263.6968
 10
567.0341
 20
-263.7276
 10
567.3356
 20
-263.8123
 10
567.7004
 20
-263.9667
 10
568.1559
 20
-264.2064
 10
568.3523
 20
-264.3206
 10
568.5898
 20
-264.4647
 10
568.8545
 20
-264.6301
 10
569.1319
 20
-264.8082
 10
569.408
 20
-264.9905
 10
569.6687
 20
-265.1683
 10
569.8996
 20
-265.3331
 10
570.0867
 20
-265.4764
 10
570.2756
 20
-265.6187
 10
570.5709
 20
-265.8375
 10
570.7199
 20
-265.9499
 10
570.8493
 20
-266.0508
 10
570.9437
 20
-266.1297
 10
570.9878
 20
-266.1765
 10
571.1762
 20
-266.5987
 10
571.2384
 20
-266.7264
 10
571.3232
 20
-266.6613
 10
571.5794
 20
-266.5049
 10
571.8062
 20
-266.4291
 10
571.974
 20
-266.4161
 10
572.0946
 20
-266.4523
 10
572.18
 20
-266.5243
 10
572.293
 20
-266.7213
 10
572.4085
 20
-266.8991
 10
575.2943
 20
-269.6798
 10
575.5582
 20
-269.9611
 10
575.7381
 20
-270.2158
 10
575.8343
 20
-270.4521
 10
575.8472
 20
-270.6781
 10
575.777
 20
-270.9022
 10
575.6242
 20
-271.1325
 10
575.3892
 20
-271.3772
 10
575.0722
 20
-271.6445
 10
574.0933
 20
-272.5094
 10
573.1078
 20
-273.5623
 10
572.1564
 20
-274.7604
 10
571.2798
 20
-276.061
 10
570.5184
 20
-277.4212
 10
569.913
 20
-278.7984
 10
569.5043
 20
-280.1498
 10
569.3327
 20
-281.4326
 10
569.3346
 20
-281.5322
 10
569.3449
 20
-281.6454
 10
569.362
 20
-281.7669
 10
569.3843
 20
-281.8914
 10
569.4374
 20
-282.1282
 10
569.491
 20
-282.3136
 10
569.8018
 20
-283.0356
 10
570.2564
 20
-283.8622
 10
570.7997
 20
-284.7348
 10
571.3767
 20
-285.5947
 10
571.9324
 20
-286.3834
 10
572.4116
 20
-287.0422
 10
572.7595
 20
-287.5124
 10
572.9209
 20
-287.7356
 10
572.9302
 20
-287.8306
 10
572.9259
 20
-287.9961
 10
572.9195
 20
-288.2233
 10
572.9224
 20
-288.5037
 10
572.9458
 20
-288.8284
 10
573.0012
 20
-289.1888
 10
573.0999
 20
-289.5762
 10
573.2532
 20
-289.9819
 10
573.3739
 20
-290.2281
 10
573.5129
 20
-290.4693
 10
573.6689
 20
-290.703
 10
573.8405
 20
-290.9269
 10
574.0266
 20
-291.1387
 10
574.2258
 20
-291.336
 10
574.4368
 20
-291.5166
 10
574.6584
 20
-291.678
 10
575.9053
 20
-292.3462
 10
577.2274
 20
-292.768
 10
578.6039
 20
-292.9763
 10
580.0135
 20
-293.0038
 10
581.4355
 20
-292.8834
 10
582.8486
 20
-292.6481
 10
584.232
 20
-292.3305
 10
585.5647
 20
-291.9637
 10
585.6635
 20
-291.9319
 10
585.7689
 20
-291.8977
 10
585.8824
 20
-291.869
 10
586.0057
 20
-291.8535
 10
586.5563
 20
-292.8023
 10
586.6084
 20
-292.8708
 10
586.6565
 20
-292.9283
 10
586.7034
 20
-292.9768
 10
586.7518
 20
-293.0186
 10
586.8644
 20
-293.0904
 10
587.0164
 20
-293.1609
 10
587.0927
 20
-293.1931
 10
587.1902
 20
-293.2167
 10
587.295
 20
-293.2138
 10
587.4112
 20
-293.162
 10
587.5803
 20
-293.1143
 10
587.7695
 20
-293.07
 10
587.8661
 20
-293.0421
 10
587.961
 20
-293.0066
 10
588.0521
 20
-292.9607
 10
588.137
 20
-292.9015
 10
588.2025
 20
-292.8436
 10
588.2517
 20
-292.7894
 10
588.2862
 20
-292.7351
 10
588.3077
 20
-292.6768
 10
588.3177
 20
-292.6107
 10
588.3181
 20
-292.5329
 10
588.3103
 20
-292.4395
 10
588.2961
 20
-292.3269
 10
588.287
 20
-292.1856
 10
588.287
 20
-292.0266
 10
588.2832
 20
-291.8556
 10
588.2631
 20
-291.6781
 10
588.2267
 20
-291.5019
 10
588.1866
 20
-291.3256
 10
588.1509
 20
-291.1535
 10
588.1277
 20
-290.99
 10
589.6673
 20
-290.4416
 10
591.6004
 20
-289.4055
 10
593.7687
 20
-288.0194
 10
596.0142
 20
-286.4211
 10
598.1786
 20
-284.7482
 10
600.1039
 20
-283.1386
 10
601.6318
 20
-281.7299
 10
602.6043
 20
-280.6599
 10
603.0207
 20
-280.0829
 10
603.4372
 20
-279.4549
 10
603.84
 20
-278.7863
 10
604.2153
 20
-278.0876
 10
604.5494
 20
-277.3691
 10
604.8285
 20
-276.6412
 10
605.0388
 20
-275.9143
 10
605.1665
 20
-275.1988
 10
605.2349
 20
-274.2906
 10
605.2078
 20
-273.6179
 10
605.0999
 20
-273.1186
 10
604.9258
 20
-272.7307
 10
604.7003
 20
-272.3919
 10
604.438
 20
-272.0403
 10
604.1535
 20
-271.6138
 10
603.8616
 20
-271.0501
 10
603.5395
 20
-270.4146
 10
603.1198
 20
-269.714
 10
602.6279
 20
-268.9735
 10
602.0891
 20
-268.2184
 10
601.5289
 20
-267.474
 10
600.9725
 20
-266.7655
 10
600.4453
 20
-266.1182
 10
599.9727
 20
-265.5574
 10
599.4742
 20
-265.0696
 10
598.8886
 20
-264.6506
 10
598.2349
 20
-264.2983
 10
597.5324
 20
-264.0106
 10
596.8
 20
-263.7851
 10
596.0568
 20
-263.6199
 10
595.322
 20
-263.5127
 10
594.6146
 20
-263.4613
 10
593.4869
 20
-263.4528
 10
592.3899
 20
-263.5065
 10
591.3155
 20
-263.6208
 10
590.2559
 20
-263.7938
 10
589.2031
 20
-264.0236
 10
588.149
 20
-264.3086
 10
587.0858
 20
-264.6468
 10
586.0055
 20
-265.0364
 10
585.8437
 20
-265.0986
 10
585.7162
 20
-265.1468
 10
585.6103
 20
-265.1817
 10
585.5136
 20
-265.2042
 10
585.4133
 20
-265.2151
 10
585.297
 20
-265.2153
 10
585.1521
 20
-265.2056
 10
584.966
 20
-265.1867
 10
584.6537
 20
-265.1719
 10
584.3183
 20
-265.1896
 10
583.9683
 20
-265.2343
 10
583.6118
 20
-265.3006
 10
583.2569
 20
-265.3832
 10
582.9121
 20
-265.4767
 10
582.5854
 20
-265.5756
 10
582.2851
 20
-265.6747
 10
582.1578
 20
-265.7221
 10
582.041
 20
-265.7695
 10
581.9259
 20
-265.8133
 10
581.8039
 20
-265.8504
 10
581.5875
 20
-265.675
 10
581.6534
 20
-265.5362
 10
581.7151
 20
-265.3877
 10
581.766
 20
-265.233
 10
581.7995
 20
-265.0754
 10
581.809
 20
-264.9185
 10
581.788
 20
-264.7655
 10
581.7298
 20
-264.62
 10
581.6279
 20
-264.4853
 10
581.3521
 20
-264.2102
 10
581.0716
 20
-263.9387
 10
580.7876
 20
-263.67
 10
580.5017
 20
-263.403
 10
580.2151
 20
-263.1366
 10
579.9293
 20
-262.8698
 10
579.6458
 20
-262.6015
 10
579.3658
 20
-262.3309
 10
579.162
 20
-262.1289
 10
578.9118
 20
-261.9047
 10
578.7773
 20
-261.8049
 10
578.6406
 20
-261.7244
 10
578.505
 20
-261.6714
 10
578.3737
 20
-261.6541
 10
578.2681
 20
-261.6681
 10
578.1423
 20
-261.6983
 10
578.0224
 20
-261.7342
 10
577.9346
 20
-261.7654
 10
577.8364
 20
-261.8041
 10
577.7721
 20
-261.827
 10
577.7304
 20
-261.8374
 10
577.7001
 20
-261.8386
 10
577.6287
 20
-261.8267
 10
577.4678
 20
-261.8179
 10
577.4539
 20
-261.7394
 10
577.4304
 20
-261.6551
 10
577.3986
 20
-261.5691
 10
577.3598
 20
-261.4852
 10
577.3153
 20
-261.4074
 10
577.2666
 20
-261.3397
 10
577.2148
 20
-261.286
 10
577.1613
 20
-261.2502
 10
577.2622
 20
-260.9655
 10
577.3428
 20
-260.7601
 10
577.3419
 20
-260.6595
 10
577.2956
 20
-260.5455
 10
577.1904
 20
-260.407
 10
577.013
 20
-260.233
 10
576.6887
 20
-259.9384
 10
576.3675
 20
-259.6407
 10
576.0482
 20
-259.341
 10
575.7298
 20
-259.0403
 10
575.4111
 20
-258.7399
 10
575.091
 20
-258.4409
 10
574.7683
 20
-258.1444
 10
574.442
 20
-257.8515
 10
574.2531
 20
-257.6817
 10
574.0813
 20
-257.5287
 10
573.9174
 20
-257.3941
 10
573.7521
 20
-257.2797
 10
573.576
 20
-257.1872
 10
573.3799
 20
-257.1185
 10
573.1544
 20
-257.0752
 10
572.8903
 20
-257.059
 10
572.6769
 20
-257.0664
 10
572.4553
 20
-257.0764
 10
572.2284
 20
-257.089
 10
571.999
 20
-257.1038
 10
571.7701
 20
-257.1207
 10
571.5445
 20
-257.1394
 10
571.3252
 20
-257.1596
 10
571.1149
 20
-257.1812
 10
532.7523
 20
-260.2951
 10
532.1072
 20
-260.34
 10
531.2621
 20
-260.3924
 10
530.2918
 20
-260.4556
 10
529.2709
 20
-260.533
 10
528.2741
 20
-260.628
 10
527.376
 20
-260.7438
 10
526.6514
 20
-260.8838
 10
526.1748
 20
-261.0513
 10
526.0385
 20
-261.1524
 10
525.9538
 20
-261.2707
 10
525.9102
 20
-261.4049
 10
525.8975
 20
-261.5539
 10
525.924
 20
-261.8911
 10
525.9511
 20
-262.2723
 10
526.399
 20
-266.9452
 10
526.5301
 20
-267.5779
 10
526.8238
 20
-268.0343
 10
527.2544
 20
-268.3395
 10
527.7963
 20
-268.5188
 10
528.4237
 20
-268.5973
 10
529.111
 20
-268.6001
 10
529.8324
 20
-268.5524
 10
530.5624
 20
-268.4794
 10
562.5013
 20
-264.1244
  0
LWPOLYLINE
  5
8B
330
1F
100
AcDbEntity
  8
Layer 1
 62
     7
370
    20
100
AcDbPolyline
 90
        9
 70
     0
 43
0.0
 10
572.4085
 20
-266.8991
 10
572.969
 20
-266.0335
 10
573.5477
 20
-265.2261
 10
574.1457
 20
-264.4806
 10
574.7642
 20
-263.8009
 10
575.4045
 20
-263.1909
 10
576.0678
 20
-262.6545
 10
576.7551
 20
-262.1955
 10
577.4678
 20
-261.8179
  0
LWPOLYLINE
  5
8C
330
1F
100
AcDbEntity
  8
Layer 1
 62
     7
370
    20
100
AcDbPolyline
 90
        9
 70
     0
 43
0.0
 10
570.9878
 20
-266.1765
 10
571.6119
 20
-265.0162
 10
572.3806
 20
-263.9024
 10
573.246
 20
-262.88
 10
574.1607
 20
-261.994
 10
575.0767
 20
-261.2892
 10
575.9465
 20
-260.8106
 10
576.7224
 20
-260.6032
 10
577.3566
 20
-260.7118
  0
LWPOLYLINE
  5
8D
330
1F
100
AcDbEntity
  8
Layer 1
 62
     7
370
    20
100
AcDbPolyline
 90
        9
 70
     0
 43
0.0
 10
571.5794
 20
-266.5049
 10
572.1324
 20
-265.684
 10
572.7244
 20
-264.9073
 10
573.3565
 20
-264.1761
 10
574.03
 20
-263.4918
 10
574.746
 20
-262.8557
 10
575.5058
 20
-262.2692
 10
576.3105
 20
-261.7336
 10
577.1613
 20
-261.2502
  0
LWPOLYLINE
  5
8E
330
1F
100
AcDbEntity
  8
Layer 1
 62
     7
370
    20
100
AcDbPolyline
 90
        9
 70
     0
 43
0.0
 10
575.4488
 20
-269.8372
 10
575.58
 20
-269.6349
 10
575.9524
 20
-269.0945
 10
576.5341
 20
-268.3154
 10
577.2932
 20
-267.3972
 10
578.1978
 20
-266.4393
 10
579.2161
 20
-265.5413
 10
580.3163
 20
-264.8027
 10
581.4664
 20
-264.3229
  0
LWPOLYLINE
  5
8F
330
1F
100
AcDbEntity
  8
Layer 1
 62
     7
370
    20
100
AcDbPolyline
 90
        9
 70
     0
 43
0.0
 10
575.4115
 20
-271.3564
 10
575.6267
 20
-271.1577
 10
576.2439
 20
-270.6188
 10
577.2206
 20
-269.8254
 10
578.5141
 20
-268.8629
 10
580.0819
 20
-267.8172
 10
581.8815
 20
-266.7737
 10
583.8702
 20
-265.8183
 10
586.0055
 20
-265.0364
  0
LWPOLYLINE
  5
90
330
1F
100
AcDbEntity
  8
Layer 1
 62
     7
370
    20
100
AcDbPolyline
 90
        9
 70
     0
 43
0.0
 10
575.7525
 20
-270.2418
 10
575.8724
 20
-270.086
 10
576.2185
 20
-269.668
 10
576.7706
 20
-269.0623
 10
577.5085
 20
-268.3431
 10
578.4119
 20
-267.5847
 10
579.4607
 20
-266.8614
 10
580.6346
 20
-266.2477
 10
581.9134
 20
-265.8177
  0
LWPOLYLINE
  5
91
330
1F
100
AcDbEntity
  8
Layer 1
 62
     7
370
    20
100
AcDbPolyline
 90
       37
 70
     1
 43
0.0
 10
571.3116
 20
-265.4939
 10
571.2906
 20
-265.4783
 10
571.195
 20
-265.4045
 10
571.0192
 20
-265.2642
 10
570.7575
 20
-265.0493
 10
570.4044
 20
-264.7515
 10
569.9542
 20
-264.3628
 10
569.4013
 20
-263.8747
 10
568.74
 20
-263.2792
 10
568.0346
 20
-262.7365
 10
567.3164
 20
-262.362
 10
566.5856
 20
-262.1308
 10
565.8424
 20
-262.0175
 10
565.0869
 20
-261.9972
 10
564.3195
 20
-262.0446
 10
563.5402
 20
-262.1346
 10
562.7494
 20
-262.242
 10
526.4953
 20
-266.9595
 10
526.3653
 20
-266.5648
 10
562.6133
 20
-261.8745
 10
563.3335
 20
-261.777
 10
564.0936
 20
-261.6804
 10
564.8763
 20
-261.609
 10
565.6643
 20
-261.5868
 10
566.4401
 20
-261.6381
 10
567.1864
 20
-261.787
 10
567.8859
 20
-262.0578
 10
568.5213
 20
-262.4745
 10
569.127
 20
-262.9912
 10
569.6874
 20
-263.4898
 10
570.1916
 20
-263.9548
 10
570.6286
 20
-264.3703
 10
570.9874
 20
-264.7208
 10
571.2573
 20
-264.9905
 10
571.4272
 20
-265.1638
 10
571.4863
 20
-265.2251
 10
571.3116
 20
-265.4939
  0
LWPOLYLINE
  5
92
330
1F
100
AcDbEntity
  8
Layer 1
 62
     7
370
    20
100
AcDbPolyline
 90
       13
 70
     1
 43
0.0
 10
573.5463
 20
-262.5689
 10
573.6323
 20
-262.4024
 10
573.6144
 20
-262.2194
 10
573.5213
 20
-262.0317
 10
573.3812
 20
-261.8514
 10
573.2228
 20
-261.6903
 10
573.0744
 20
-261.5604
 10
572.9645
 20
-261.4737
 10
572.9215
 20
-261.4422
 10
568.518
 20
-257.3922
 10
569.5806
 20
-257.3058
 10
574.2166
 20
-261.9457
 10
573.5463
 20
-262.5689
  0
LWPOLYLINE
  5
93
330
1F
100
AcDbEntity
  8
Layer 1
 62
     7
370
    20
100
AcDbPolyline
 90
       17
 70
     0
 43
0.0
 10
572.9209
 20
-287.7356
 10
574.4351
 20
-284.5995
 10
576.6382
 20
-281.6521
 10
579.3879
 20
-278.9405
 10
582.542
 20
-276.5117
 10
585.9583
 20
-274.4126
 10
589.4945
 20
-272.6902
 10
593.0084
 20
-271.3917
 10
596.3578
 20
-270.5639
 10
597.7093
 20
-270.3721
 10
599.0116
 20
-270.2962
 10
600.2514
 20
-270.3487
 10
601.4153
 20
-270.5419
 10
602.4899
 20
-270.8881
 10
603.4617
 20
-271.3996
 10
604.3174
 20
-272.0889
 10
605.0435
 20
-272.9682
  0
LWPOLYLINE
  5
94
330
1F
100
AcDbEntity
  8
Layer 1
 62
     7
370
    20
100
AcDbPolyline
 90
        4
 70
     0
 43
0.0
 10
586.0057
 20
-291.8535
 10
586.8156
 20
-290.3603
 10
587.8047
 20
-290.2753
 10
588.1277
 20
-290.99
  0
LWPOLYLINE
  5
95
330
1F
100
AcDbEntity
  8
Layer 1
 62
     7
370
    20
100
AcDbPolyline
 90
       41
 70
     0
 43
0.0
 10
583.9725
 20
-292.3957
 10
583.5522
 20
-292.4526
 10
582.4515
 20
-292.5492
 10
580.9109
 20
-292.5744
 10
579.1706
 20
-292.4172
 10
577.4711
 20
-291.9665
 10
576.0526
 20
-291.1113
 10
575.1556
 20
-289.7404
 10
575.0204
 20
-287.7428
 10
575.158
 20
-287.0203
 10
575.3655
 20
-286.3049
 10
575.6366
 20
-285.5984
 10
575.9651
 20
-284.9026
 10
576.3449
 20
-284.2192
 10
576.7699
 20
-283.5499
 10
577.2338
 20
-282.8966
 10
577.7304
 20
-282.2609
 10
579.4588
 20
-280.3545
 10
581.3937
 20
-278.5991
 10
583.5027
 20
-277.0057
 10
585.7533
 20
-275.5848
 10
588.1128
 20
-274.3472
 10
590.5489
 20
-273.3037
 10
593.029
 20
-272.4651
 10
595.5206
 20
-271.8421
 10
596.8008
 20
-271.6227
 10
598.0463
 20
-271.5083
 10
599.2354
 20
-271.5175
 10
600.3468
 20
-271.6693
 10
601.359
 20
-271.9823
 10
602.2504
 20
-272.4755
 10
602.9996
 20
-273.1675
 10
603.5851
 20
-274.0772
 10
603.8639
 20
-275.5384
 10
603.8732
 20
-276.8738
 10
603.6845
 20
-278.0621
 10
603.3697
 20
-279.082
 10
603.0001
 20
-279.9124
 10
602.6474
 20
-280.5318
 10
602.3833
 20
-280.9191
 10
602.2794
 20
-281.0529
  0
LWPOLYLINE
  5
96
330
1F
100
AcDbEntity
  8
Layer 1
 62
     7
370
    20
100
AcDbPolyline
 90
      100
 70
     1
 43
0.0
 10
526.4226
 20
-267.1747
 10
526.4786
 20
-267.4519
 10
526.5556
 20
-267.6819
 10
526.645
 20
-267.8679
 10
526.7379
 20
-268.0129
 10
526.8254
 20
-268.1202
 10
526.8989
 20
-268.193
 10
526.9494
 20
-268.2343
 10
526.9682
 20
-268.2474
 10
526.9431
 20
-268.2331
 10
526.8753
 20
-268.1989
 10
526.7761
 20
-268.1576
 10
526.6566
 20
-268.1222
 10
526.5281
 20
-268.1053
 10
526.4017
 20
-268.12
 10
526.2888
 20
-268.1791
 10
526.2005
 20
-268.2954
 10
526.1185
 20
-268.4142
 10
526.0224
 20
-268.4799
 10
525.9198
 20
-268.5039
 10
525.8185
 20
-268.4977
 10
525.7262
 20
-268.4729
 10
525.6507
 20
-268.4409
 10
525.5997
 20
-268.4133
 10
525.581
 20
-268.4015
 10
525.5721
 20
-268.4165
 10
525.5448
 20
-268.4536
 10
525.4984
 20
-268.5007
 10
525.4321
 20
-268.5458
 10
525.3449
 20
-268.5769
 10
525.2362
 20
-268.5819
 10
525.1052
 20
-268.549
 10
524.951
 20
-268.466
 10
524.9018
 20
-268.5614
 10
524.8325
 20
-268.6096
 10
524.7513
 20
-268.6213
 10
524.6663
 20
-268.607
 10
524.5183
 20
-268.543
 10
524.4543
 20
-268.5028
 10
524.4576
 20
-268.5203
 10
524.4626
 20
-268.5646
 10
524.4617
 20
-268.6232
 10
524.4474
 20
-268.6837
 10
524.4122
 20
-268.7336
 10
524.3486
 20
-268.7606
 10
524.2491
 20
-268.752
 10
524.1061
 20
-268.6956
 10
523.3425
 20
-267.8626
 10
522.8209
 20
-266.8211
 10
522.5007
 20
-265.6669
 10
522.3415
 20
-264.4954
 10
522.3026
 20
-263.4022
 10
522.3435
 20
-262.4829
 10
522.4238
 20
-261.8331
 10
522.5029
 20
-261.5484
 10
522.5785
 20
-261.4903
 10
522.7585
 20
-261.3865
 10
522.8657
 20
-261.3504
 10
522.9727
 20
-261.3425
 10
523.0705
 20
-261.3759
 10
523.1506
 20
-261.4638
 10
523.2372
 20
-261.365
 10
523.3356
 20
-261.3076
 10
523.4386
 20
-261.2827
 10
523.5391
 20
-261.2818
 10
523.7036
 20
-261.3171
 10
523.7712
 20
-261.3443
 10
523.8255
 20
-261.3042
 10
523.9673
 20
-261.2374
 10
524.0612
 20
-261.2191
 10
524.1652
 20
-261.224
 10
524.2754
 20
-261.2624
 10
524.3878
 20
-261.3441
 10
524.5189
 20
-261.2546
 10
524.6424
 20
-261.2059
 10
524.7553
 20
-261.189
 10
524.8546
 20
-261.1951
 10
524.9999
 20
-261.2406
 10
525.0538
 20
-261.2716
 10
525.11
 20
-261.2365
 10
525.2532
 20
-261.1734
 10
525.3454
 20
-261.151
 10
525.4451
 20
-261.1452
 10
525.5474
 20
-261.164
 10
525.6475
 20
-261.2152
 10
525.6779
 20
-261.148
 10
525.7412
 20
-261.1012
 10
525.8261
 20
-261.0712
 10
525.9212
 20
-261.0547
 10
526.0962
 20
-261.0474
 10
526.1748
 20
-261.0513
 10
526.1657
 20
-261.0472
 10
526.1411
 20
-261.0424
 10
526.1052
 20
-261.0477
 10
526.062
 20
-261.0741
 10
526.0156
 20
-261.1326
 10
525.9701
 20
-261.2342
 10
525.9298
 20
-261.3899
 10
525.8985
 20
-261.6106
 10
526.4226
 20
-267.1747
  0
LWPOLYLINE
  5
97
330
1F
100
AcDbEntity
  8
Layer 1
 62
     7
370
    20
100
AcDbPolyline
 90
        9
 70
     0
 43
0.0
 10
525.0538
 20
-261.2716
 10
525.0365
 20
-261.4664
 10
525.0047
 20
-262.0023
 10
524.9887
 20
-262.8063
 10
525.0185
 20
-263.8055
 10
525.1244
 20
-264.927
 10
525.3366
 20
-266.0977
 10
525.6852
 20
-267.2448
 10
526.2005
 20
-268.2954
  0
LWPOLYLINE
  5
98
330
1F
100
AcDbEntity
  8
Layer 1
 62
     7
370
    20
100
AcDbPolyline
 90
        9
 70
     0
 43
0.0
 10
525.6475
 20
-261.2152
 10
525.6244
 20
-261.4071
 10
525.5768
 20
-261.9315
 10
525.5371
 20
-262.7118
 10
525.5378
 20
-263.6713
 10
525.6112
 20
-264.7331
 10
525.7898
 20
-265.8206
 10
526.1061
 20
-266.8569
 10
526.5924
 20
-267.7655
  0
LWPOLYLINE
  5
99
330
1F
100
AcDbEntity
  8
Layer 1
 62
     7
370
    20
100
AcDbPolyline
 90
        9
 70
     0
 43
0.0
 10
524.3878
 20
-261.3441
 10
524.3001
 20
-262.2272
 10
524.2844
 20
-263.11
 10
524.3386
 20
-263.9926
 10
524.4605
 20
-264.8749
 10
524.6479
 20
-265.7569
 10
524.8986
 20
-266.6387
 10
525.2103
 20
-267.5202
 10
525.581
 20
-268.4015
  0
LWPOLYLINE
  5
9A
330
1F
100
AcDbEntity
  8
Layer 1
 62
     7
370
    20
100
AcDbPolyline
 90
        9
 70
     0
 43
0.0
 10
523.7712
 20
-261.3443
 10
523.6747
 20
-262.2355
 10
523.6564
 20
-263.1263
 10
523.712
 20
-264.0169
 10
523.8372
 20
-264.9072
 10
524.028
 20
-265.7973
 10
524.28
 20
-266.6871
 10
524.5891
 20
-267.5766
 10
524.951
 20
-268.466
  0
LWPOLYLINE
  5
9B
330
1F
100
AcDbEntity
  8
Layer 1
 62
     7
370
    20
100
AcDbPolyline
 90
        9
 70
     0
 43
0.0
 10
523.1506
 20
-261.4638
 10
523.0554
 20
-262.3048
 10
523.0436
 20
-263.1594
 10
523.1115
 20
-264.0272
 10
523.2553
 20
-264.9073
 10
523.4711
 20
-265.7993
 10
523.7551
 20
-266.7025
 10
524.1036
 20
-267.6162
 10
524.5127
 20
-268.5398
  0
LWPOLYLINE
  5
9C
330
1F
100
AcDbEntity
  8
Layer 1
 62
     7
370
    20
100
AcDbPolyline
 90
        9
 70
     0
 43
0.0
 10
522.5534
 20
-261.6391
 10
522.5961
 20
-262.9486
 10
522.6913
 20
-264.1284
 10
522.8371
 20
-265.1835
 10
523.0316
 20
-266.1185
 10
523.2727
 20
-266.9383
 10
523.5586
 20
-267.6475
 10
523.8872
 20
-268.2511
 10
524.2567
 20
-268.7538
  0
LWPOLYLINE
  5
9D
330
1F
100
AcDbEntity
  8
Layer 1
 62
     7
370
    20
100
AcDbPolyline
 90
       33
 70
     1
 43
0.0
 10
587.6375
 20
-279.3169
 10
589.5157
 20
-278.2609
 10
591.3399
 20
-277.3995
 10
593.0657
 20
-276.7425
 10
594.6488
 20
-276.2998
 10
596.0448
 20
-276.0812
 10
597.2093
 20
-276.0966
 10
598.0981
 20
-276.3558
 10
598.6668
 20
-276.8687
 10
598.8645
 20
-277.6073
 10
598.6896
 20
-278.5136
 10
598.171
 20
-279.553
 10
597.3378
 20
-280.6906
 10
596.2191
 20
-281.8915
 10
594.844
 20
-283.121
 10
593.2415
 20
-284.3442
 10
591.4406
 20
-285.5264
 10
589.5624
 20
-286.5824
 10
587.7383
 20
-287.4438
 10
586.0125
 20
-288.1008
 10
584.4295
 20
-288.5435
 10
583.0335
 20
-288.7621
 10
581.8689
 20
-288.7467
 10
580.98
 20
-288.4874
 10
580.4113
 20
-287.9745
 10
580.2135
 20
-287.236
 10
580.3885
 20
-286.3296
 10
580.9071
 20
-285.2902
 10
581.7402
 20
-284.1527
 10
582.8589
 20
-282.9517
 10
584.2341
 20
-281.7222
 10
585.8366
 20
-280.499
 10
587.6375
 20
-279.3169
  0
LWPOLYLINE
  5
9E
330
1F
100
AcDbEntity
  8
Layer 1
 62
     7
370
    18
100
AcDbPolyline
 90
       33
 70
     1
 43
0.0
 10
596.2993
 20
-275.2332
 10
596.3315
 20
-275.1671
 10
596.3709
 20
-275.1092
 10
596.4159
 20
-275.0606
 10
596.4649
 20
-275.0222
 10
596.5166
 20
-274.995
 10
596.5694
 20
-274.9799
 10
596.6218
 20
-274.978
 10
596.6723
 20
-274.9903
 10
596.7173
 20
-275.0163
 10
596.7538
 20
-275.0537
 10
596.7815
 20
-275.101
 10
596.8
 20
-275.1562
 10
596.8088
 20
-275.2177
 10
596.8076
 20
-275.2838
 10
596.7958
 20
-275.3527
 10
596.7732
 20
-275.4227
 10
596.741
 20
-275.4888
 10
596.7017
 20
-275.5467
 10
596.6568
 20
-275.5953
 10
596.6077
 20
-275.6337
 10
596.556
 20
-275.6609
 10
596.5031
 20
-275.6759
 10
596.4507
 20
-275.6778
 10
596.4002
 20
-275.6655
 10
596.3552
 20
-275.6395
 10
596.3186
 20
-275.602
 10
596.2909
 20
-275.5548
 10
596.2725
 20
-275.4995
 10
596.2637
 20
-275.4379
 10
596.2649
 20
-275.3719
 10
596.2767
 20
-275.3031
 10
596.2993
 20
-275.2332
  0
LWPOLYLINE
  5
9F
330
1F
100
AcDbEntity
  8
Layer 1
 62
     7
370
    18
100
AcDbPolyline
 90
       33
 70
     1
 43
0.0
 10
597.1376
 20
-275.3218
 10
597.1698
 20
-275.2557
 10
597.2092
 20
-275.1979
 10
597.2541
 20
-275.1492
 10
597.3032
 20
-275.1109
 10
597.3549
 20
-275.0836
 10
597.4076
 20
-275.0686
 10
597.46
 20
-275.0667
 10
597.5105
 20
-275.079
 10
597.5555
 20
-275.105
 10
597.5921
 20
-275.1425
 10
597.6198
 20
-275.1898
 10
597.6382
 20
-275.2451
 10
597.647
 20
-275.3066
 10
597.6458
 20
-275.3728
 10
597.634
 20
-275.4417
 10
597.6114
 20
-275.5117
 10
597.5792
 20
-275.5777
 10
597.5398
 20
-275.6355
 10
597.4949
 20
-275.684
 10
597.4458
 20
-275.7224
 10
597.3941
 20
-275.7496
 10
597.3414
 20
-275.7646
 10
597.289
 20
-275.7665
 10
597.2385
 20
-275.7542
 10
597.1935
 20
-275.7282
 10
597.1569
 20
-275.6908
 10
597.1292
 20
-275.6435
 10
597.1108
 20
-275.5883
 10
597.102
 20
-275.5268
 10
597.1032
 20
-275.4607
 10
597.115
 20
-275.3918
 10
597.1376
 20
-275.3218
  0
LWPOLYLINE
  5
A0
330
1F
100
AcDbEntity
  8
Layer 1
 62
     7
370
    18
100
AcDbPolyline
 90
       33
 70
     1
 43
0.0
 10
597.945
 20
-275.5162
 10
597.9772
 20
-275.4501
 10
598.0166
 20
-275.3923
 10
598.0615
 20
-275.3436
 10
598.1106
 20
-275.3053
 10
598.1623
 20
-275.278
 10
598.215
 20
-275.263
 10
598.2674
 20
-275.2611
 10
598.3179
 20
-275.2734
 10
598.3629
 20
-275.2994
 10
598.3995
 20
-275.3368
 10
598.4272
 20
-275.3841
 10
598.4456
 20
-275.4393
 10
598.4544
 20
-275.5008
 10
598.4532
 20
-275.5669
 10
598.4414
 20
-275.6358
 10
598.4188
 20
-275.7057
 10
598.3866
 20
-275.7718
 10
598.3473
 20
-275.8297
 10
598.3024
 20
-275.8783
 10
598.2533
 20
-275.9167
 10
598.2016
 20
-275.9439
 10
598.1488
 20
-275.959
 10
598.0964
 20
-275.9609
 10
598.0459
 20
-275.9486
 10
598.0009
 20
-275.9226
 10
597.9643
 20
-275.8851
 10
597.9366
 20
-275.8379
 10
597.9182
 20
-275.7826
 10
597.9094
 20
-275.721
 10
597.9106
 20
-275.6549
 10
597.9224
 20
-275.5861
 10
597.945
 20
-275.5162
  0
LWPOLYLINE
  5
A1
330
1F
100
AcDbEntity
  8
Layer 1
 62
     7
370
    18
100
AcDbPolyline
 90
       33
 70
     1
 43
0.0
 10
598.6738
 20
-275.8173
 10
598.7252
 20
-275.7647
 10
598.7807
 20
-275.7221
 10
598.8386
 20
-275.69
 10
598.8973
 20
-275.6689
 10
598.9549
 20
-275.6592
 10
599.0097
 20
-275.6614
 10
599.0601
 20
-275.6759
 10
599.1042
 20
-275.7033
 10
599.1388
 20
-275.7421
 10
599.1618
 20
-275.7891
 10
599.1733
 20
-275.8427
 10
599.1734
 20
-275.9009
 10
599.1624
 20
-275.9621
 10
599.1404
 20
-276.0244
 10
599.1076
 20
-276.0861
 10
599.0642
 20
-276.1454
 10
599.0128
 20
-276.1981
 10
598.9573
 20
-276.2408
 10
598.8993
 20
-276.2729
 10
598.8406
 20
-276.2941
 10
598.7829
 20
-276.3038
 10
598.728
 20
-276.3016
 10
598.6776
 20
-276.2871
 10
598.6334
 20
-276.2597
 10
598.5989
 20
-276.2209
 10
598.5761
 20
-276.1739
 10
598.5646
 20
-276.1203
 10
598.5645
 20
-276.062
 10
598.5756
 20
-276.0008
 10
598.5976
 20
-275.9384
 10
598.6304
 20
-275.8767
 10
598.6738
 20
-275.8173
  0
LWPOLYLINE
  5
A2
330
1F
100
AcDbEntity
  8
Layer 1
 62
     7
370
    18
100
AcDbPolyline
 90
       33
 70
     1
 43
0.0
 10
595.4574
 20
-275.2685
 10
595.4896
 20
-275.2024
 10
595.5289
 20
-275.1445
 10
595.5738
 20
-275.0959
 10
595.6229
 20
-275.0575
 10
595.6746
 20
-275.0303
 10
595.7274
 20
-275.0153
 10
595.7798
 20
-275.0134
 10
595.8303
 20
-275.0257
 10
595.8753
 20
-275.0517
 10
595.9119
 20
-275.0892
 10
595.9396
 20
-275.1364
 10
595.958
 20
-275.1917
 10
595.9668
 20
-275.2533
 10
595.9656
 20
-275.3193
 10
595.9538
 20
-275.3881
 10
595.9312
 20
-275.458
 10
595.899
 20
-275.5241
 10
595.8596
 20
-275.582
 10
595.8146
 20
-275.6306
 10
595.7656
 20
-275.669
 10
595.7139
 20
-275.6962
 10
595.6611
 20
-275.7113
 10
595.6087
 20
-275.7132
 10
595.5582
 20
-275.7009
 10
595.5132
 20
-275.6749
 10
595.4767
 20
-275.6374
 10
595.449
 20
-275.5902
 10
595.4306
 20
-275.5349
 10
595.4218
 20
-275.4733
 10
595.423
 20
-275.4072
 10
595.4348
 20
-275.3384
 10
595.4574
 20
-275.2685
  0
LWPOLYLINE
  5
A3
330
1F
100
AcDbEntity
  8
Layer 1
 62
     7
370
    18
100
AcDbPolyline
 90
       33
 70
     1
 43
0.0
 10
594.6276
 20
-275.4068
 10
594.6599
 20
-275.3407
 10
594.6993
 20
-275.2829
 10
594.7442
 20
-275.2342
 10
594.7933
 20
-275.1959
 10
594.845
 20
-275.1686
 10
594.8977
 20
-275.1536
 10
594.9501
 20
-275.1517
 10
595.0006
 20
-275.164
 10
595.0456
 20
-275.19
 10
595.0822
 20
-275.2275
 10
595.1099
 20
-275.2747
 10
595.1283
 20
-275.33
 10
595.1371
 20
-275.3916
 10
595.1359
 20
-275.4577
 10
595.1241
 20
-275.5265
 10
595.1015
 20
-275.5964
 10
595.0693
 20
-275.6625
 10
595.03
 20
-275.7203
 10
594.9851
 20
-275.769
 10
594.936
 20
-275.8074
 10
594.8843
 20
-275.8346
 10
594.8315
 20
-275.8496
 10
594.779
 20
-275.8515
 10
594.7285
 20
-275.8392
 10
594.6835
 20
-275.8132
 10
594.647
 20
-275.7757
 10
594.6193
 20
-275.7285
 10
594.6009
 20
-275.6732
 10
594.5921
 20
-275.6116
 10
594.5934
 20
-275.5455
 10
594.6051
 20
-275.4767
 10
594.6276
 20
-275.4068
  0
LWPOLYLINE
  5
A4
330
1F
100
AcDbEntity
  8
Layer 1
 62
     7
370
    18
100
AcDbPolyline
 90
       33
 70
     1
 43
0.0
 10
599.2219
 20
-276.4315
 10
599.2872
 20
-276.3975
 10
599.3534
 20
-276.3744
 10
599.4185
 20
-276.362
 10
599.4809
 20
-276.3603
 10
599.5386
 20
-276.3691
 10
599.59
 20
-276.3883
 10
599.6332
 20
-276.4179
 10
599.6664
 20
-276.4577
 10
599.6871
 20
-276.5053
 10
599.6941
 20
-276.5571
 10
599.6881
 20
-276.6115
 10
599.6699
 20
-276.6669
 10
599.6402
 20
-276.7216
 10
599.5997
 20
-276.7739
 10
599.5491
 20
-276.8223
 10
599.4891
 20
-276.8651
 10
599.4238
 20
-276.899
 10
599.3577
 20
-276.9221
 10
599.2925
 20
-276.9345
 10
599.2302
 20
-276.9362
 10
599.1724
 20
-276.9273
 10
599.121
 20
-276.908
 10
599.0778
 20
-276.8784
 10
599.0446
 20
-276.8386
 10
599.0239
 20
-276.791
 10
599.0169
 20
-276.7392
 10
599.0229
 20
-276.6849
 10
599.0411
 20
-276.6295
 10
599.0708
 20
-276.5749
 10
599.1113
 20
-276.5226
 10
599.1619
 20
-276.4743
 10
599.2219
 20
-276.4315
  0
LWPOLYLINE
  5
A5
330
1F
100
AcDbEntity
  8
Layer 1
 62
     7
370
    18
100
AcDbPolyline
 90
       33
 70
     1
 43
0.0
 10
599.5246
 20
-277.167
 10
599.5982
 20
-277.1618
 10
599.6681
 20
-277.1669
 10
599.7328
 20
-277.1815
 10
599.7907
 20
-277.2047
 10
599.8401
 20
-277.2358
 10
599.8795
 20
-277.274
 10
599.9072
 20
-277.3183
 10
599.9217
 20
-277.3681
 10
599.9216
 20
-277.4198
 10
599.9073
 20
-277.4701
 10
599.8801
 20
-277.5176
 10
599.8413
 20
-277.5611
 10
599.7921
 20
-277.5994
 10
599.734
 20
-277.6314
 10
599.6682
 20
-277.6556
 10
599.5961
 20
-277.671
 10
599.5225
 20
-277.6761
 10
599.4526
 20
-277.671
 10
599.3879
 20
-277.6564
 10
599.3301
 20
-277.6332
 10
599.2806
 20
-277.6021
 10
599.2412
 20
-277.564
 10
599.2135
 20
-277.5197
 10
599.199
 20
-277.4699
 10
599.1991
 20
-277.418
 10
599.2135
 20
-277.3677
 10
599.2407
 20
-277.3202
 10
599.2796
 20
-277.2767
 10
599.3287
 20
-277.2384
 10
599.3868
 20
-277.2066
 10
599.4526
 20
-277.1823
 10
599.5246
 20
-277.167
  0
LWPOLYLINE
  5
A6
330
1F
100
AcDbEntity
  8
Layer 1
 62
     7
370
    18
100
AcDbPolyline
 90
       33
 70
     1
 43
0.0
 10
599.4705
 20
-278.0031
 10
599.544
 20
-277.9979
 10
599.6138
 20
-278.003
 10
599.6785
 20
-278.0175
 10
599.7363
 20
-278.0408
 10
599.7858
 20
-278.0719
 10
599.8252
 20
-278.11
 10
599.853
 20
-278.1544
 10
599.8676
 20
-278.2042
 10
599.8674
 20
-278.2559
 10
599.853
 20
-278.3062
 10
599.8257
 20
-278.3537
 10
599.7869
 20
-278.3972
 10
599.7377
 20
-278.4355
 10
599.6796
 20
-278.4674
 10
599.6138
 20
-278.4916
 10
599.5417
 20
-278.507
 10
599.4682
 20
-278.5121
 10
599.3984
 20
-278.507
 10
599.3337
 20
-278.4924
 10
599.2759
 20
-278.4692
 10
599.2264
 20
-278.4382
 10
599.187
 20
-278.4
 10
599.1592
 20
-278.3557
 10
599.1446
 20
-278.3059
 10
599.1448
 20
-278.2541
 10
599.1592
 20
-278.2038
 10
599.1865
 20
-278.1563
 10
599.2254
 20
-278.1128
 10
599.2745
 20
-278.0745
 10
599.3326
 20
-278.0427
 10
599.3984
 20
-278.0184
 10
599.4705
 20
-278.0031
  0
LWPOLYLINE
  5
A7
330
1F
100
AcDbEntity
  8
Layer 1
 62
     7
370
    18
100
AcDbPolyline
 90
       33
 70
     1
 43
0.0
 10
599.3387
 20
-278.7876
 10
599.4101
 20
-278.8059
 10
599.4747
 20
-278.8329
 10
599.5315
 20
-278.8671
 10
599.579
 20
-278.9075
 10
599.616
 20
-278.9525
 10
599.6413
 20
-279.0011
 10
599.6535
 20
-279.0519
 10
599.6515
 20
-279.1036
 10
599.6349
 20
-279.1527
 10
599.6053
 20
-279.1959
 10
599.5644
 20
-279.2324
 10
599.5137
 20
-279.2614
 10
599.4549
 20
-279.2822
 10
599.3897
 20
-279.2941
 10
599.3196
 20
-279.2964
 10
599.2464
 20
-279.2882
 10
599.1749
 20
-279.2698
 10
599.1102
 20
-279.2428
 10
599.0535
 20
-279.2086
 10
599.006
 20
-279.1683
 10
598.969
 20
-279.1232
 10
598.9438
 20
-279.0746
 10
598.9316
 20
-279.0238
 10
598.9336
 20
-278.972
 10
598.9502
 20
-278.9228
 10
598.9798
 20
-278.8797
 10
599.0207
 20
-278.8432
 10
599.0714
 20
-278.8142
 10
599.1302
 20
-278.7934
 10
599.1954
 20
-278.7816
 10
599.2655
 20
-278.7794
 10
599.3387
 20
-278.7876
  0
LWPOLYLINE
  5
A8
330
1F
100
AcDbEntity
  8
Layer 1
 62
     7
370
    18
100
AcDbPolyline
 90
       33
 70
     1
 43
0.0
 10
599.018
 20
-279.574
 10
599.0895
 20
-279.5924
 10
599.1542
 20
-279.6194
 10
599.211
 20
-279.6537
 10
599.2585
 20
-279.694
 10
599.2955
 20
-279.7391
 10
599.3208
 20
-279.7877
 10
599.3331
 20
-279.8385
 10
599.3311
 20
-279.8903
 10
599.3144
 20
-279.9394
 10
599.2848
 20
-279.9826
 10
599.2438
 20
-280.019
 10
599.1931
 20
-280.048
 10
599.1343
 20
-280.0688
 10
599.069
 20
-280.0807
 10
598.9989
 20
-280.0829
 10
598.9257
 20
-280.0746
 10
598.8543
 20
-280.0563
 10
598.7897
 20
-280.0294
 10
598.7329
 20
-279.9951
 10
598.6854
 20
-279.9548
 10
598.6484
 20
-279.9098
 10
598.6232
 20
-279.8612
 10
598.6109
 20
-279.8104
 10
598.613
 20
-279.7587
 10
598.6295
 20
-279.7095
 10
598.6591
 20
-279.6664
 10
598.7
 20
-279.6299
 10
598.7507
 20
-279.6009
 10
598.8095
 20
-279.58
 10
598.8747
 20
-279.5681
 10
598.9448
 20
-279.5659
 10
599.018
 20
-279.574
  0
LWPOLYLINE
  5
A9
330
1F
100
AcDbEntity
  8
Layer 1
 62
     7
370
    18
100
AcDbPolyline
 90
       33
 70
     1
 43
0.0
 10
598.5368
 20
-280.3153
 10
598.6082
 20
-280.3336
 10
598.6728
 20
-280.3606
 10
598.7295
 20
-280.3948
 10
598.777
 20
-280.4352
 10
598.814
 20
-280.4802
 10
598.8393
 20
-280.5288
 10
598.8516
 20
-280.5796
 10
598.8496
 20
-280.6313
 10
598.8329
 20
-280.6804
 10
598.8033
 20
-280.7236
 10
598.7623
 20
-280.7601
 10
598.7116
 20
-280.7891
 10
598.6528
 20
-280.8099
 10
598.5875
 20
-280.8218
 10
598.5174
 20
-280.8241
 10
598.4442
 20
-280.8159
 10
598.3728
 20
-280.7975
 10
598.3082
 20
-280.7705
 10
598.2515
 20
-280.7363
 10
598.204
 20
-280.696
 10
598.167
 20
-280.6509
 10
598.1418
 20
-280.6023
 10
598.1295
 20
-280.5515
 10
598.1315
 20
-280.4997
 10
598.1481
 20
-280.4505
 10
598.1777
 20
-280.4074
 10
598.2187
 20
-280.3709
 10
598.2694
 20
-280.3419
 10
598.3281
 20
-280.3211
 10
598.3934
 20
-280.3093
 10
598.4635
 20
-280.3071
 10
598.5368
 20
-280.3153
  0
LWPOLYLINE
  5
AA
330
1F
100
AcDbEntity
  8
Layer 1
 62
     7
370
    18
100
AcDbPolyline
 90
       33
 70
     1
 43
0.0
 10
597.9599
 20
-281.0408
 10
598.0314
 20
-281.0591
 10
598.0961
 20
-281.086
 10
598.1529
 20
-281.1203
 10
598.2004
 20
-281.1606
 10
598.2374
 20
-281.2057
 10
598.2627
 20
-281.2543
 10
598.275
 20
-281.3051
 10
598.273
 20
-281.3568
 10
598.2563
 20
-281.4059
 10
598.2267
 20
-281.4491
 10
598.1857
 20
-281.4855
 10
598.135
 20
-281.5145
 10
598.0762
 20
-281.5354
 10
598.0109
 20
-281.5473
 10
597.9408
 20
-281.5495
 10
597.8676
 20
-281.5414
 10
597.7962
 20
-281.523
 10
597.7316
 20
-281.496
 10
597.6748
 20
-281.4617
 10
597.6273
 20
-281.4214
 10
597.5903
 20
-281.3763
 10
597.5651
 20
-281.3278
 10
597.5528
 20
-281.2769
 10
597.5549
 20
-281.2251
 10
597.5714
 20
-281.176
 10
597.601
 20
-281.1328
 10
597.6419
 20
-281.0964
 10
597.6926
 20
-281.0674
 10
597.7514
 20
-281.0466
 10
597.8166
 20
-281.0347
 10
597.8867
 20
-281.0325
 10
597.9599
 20
-281.0408
  0
LWPOLYLINE
  5
AB
330
1F
100
AcDbEntity
  8
Layer 1
 62
     7
370
    18
100
AcDbPolyline
 90
       33
 70
     1
 43
0.0
 10
597.3464
 20
-281.7592
 10
597.4178
 20
-281.7775
 10
597.4824
 20
-281.8045
 10
597.5392
 20
-281.8388
 10
597.5867
 20
-281.8791
 10
597.6237
 20
-281.9242
 10
597.6489
 20
-281.9728
 10
597.6612
 20
-282.0237
 10
597.6591
 20
-282.0755
 10
597.6425
 20
-282.1245
 10
597.613
 20
-282.1676
 10
597.572
 20
-282.204
 10
597.5214
 20
-282.233
 10
597.4626
 20
-282.2538
 10
597.3973
 20
-282.2657
 10
597.3273
 20
-282.268
 10
597.254
 20
-282.2598
 10
597.1825
 20
-282.2415
 10
597.1178
 20
-282.2146
 10
597.0611
 20
-282.1803
 10
597.0136
 20
-282.14
 10
596.9766
 20
-282.0949
 10
596.9513
 20
-282.0463
 10
596.939
 20
-281.9954
 10
596.941
 20
-281.9436
 10
596.9577
 20
-281.8946
 10
596.9873
 20
-281.8515
 10
597.0283
 20
-281.8151
 10
597.0791
 20
-281.7861
 10
597.1378
 20
-281.7653
 10
597.2031
 20
-281.7533
 10
597.2732
 20
-281.7511
 10
597.3464
 20
-281.7592
  0
LWPOLYLINE
  5
AC
330
1F
100
AcDbEntity
  8
Layer 1
 62
     7
370
    18
100
AcDbPolyline
 90
       33
 70
     1
 43
0.0
 10
593.7778
 20
-275.5924
 10
593.81
 20
-275.5264
 10
593.8493
 20
-275.4686
 10
593.8942
 20
-275.42
 10
593.9433
 20
-275.3817
 10
593.995
 20
-275.3545
 10
594.0478
 20
-275.3395
 10
594.1002
 20
-275.3376
 10
594.1507
 20
-275.3499
 10
594.1957
 20
-275.3759
 10
594.2323
 20
-275.4133
 10
594.26
 20
-275.4606
 10
594.2784
 20
-275.5158
 10
594.2872
 20
-275.5773
 10
594.286
 20
-275.6434
 10
594.2742
 20
-275.7123
 10
594.2516
 20
-275.7822
 10
594.2194
 20
-275.8483
 10
594.18
 20
-275.9062
 10
594.135
 20
-275.9548
 10
594.086
 20
-275.9932
 10
594.0343
 20
-276.0204
 10
593.9815
 20
-276.0355
 10
593.9291
 20
-276.0374
 10
593.8786
 20
-276.0251
 10
593.8336
 20
-275.9991
 10
593.7971
 20
-275.9616
 10
593.7694
 20
-275.9143
 10
593.751
 20
-275.859
 10
593.7422
 20
-275.7974
 10
593.7434
 20
-275.7313
 10
593.7552
 20
-275.6624
 10
593.7778
 20
-275.5924
  0
LWPOLYLINE
  5
AD
330
1F
100
AcDbEntity
  8
Layer 1
 62
     7
370
    18
100
AcDbPolyline
 90
       33
 70
     1
 43
0.0
 10
592.9899
 20
-275.8221
 10
593.0221
 20
-275.756
 10
593.0614
 20
-275.6982
 10
593.1063
 20
-275.6495
 10
593.1554
 20
-275.6112
 10
593.2071
 20
-275.5839
 10
593.26
 20
-275.5689
 10
593.3124
 20
-275.567
 10
593.3629
 20
-275.5793
 10
593.4079
 20
-275.6053
 10
593.4445
 20
-275.6427
 10
593.4722
 20
-275.69
 10
593.4906
 20
-275.7452
 10
593.4994
 20
-275.8067
 10
593.4982
 20
-275.8728
 10
593.4864
 20
-275.9417
 10
593.4638
 20
-276.0116
 10
593.4316
 20
-276.0777
 10
593.3922
 20
-276.1356
 10
593.3472
 20
-276.1842
 10
593.2982
 20
-276.2226
 10
593.2465
 20
-276.2498
 10
593.1937
 20
-276.2649
 10
593.1413
 20
-276.2668
 10
593.0908
 20
-276.2545
 10
593.0458
 20
-276.2285
 10
593.0093
 20
-276.191
 10
592.9816
 20
-276.1438
 10
592.9631
 20
-276.0885
 10
592.9543
 20
-276.0269
 10
592.9555
 20
-275.9608
 10
592.9673
 20
-275.892
 10
592.9899
 20
-275.8221
  0
LWPOLYLINE
  5
AE
330
1F
100
AcDbEntity
  8
Layer 1
 62
     7
370
    18
100
AcDbPolyline
 90
       33
 70
     1
 43
0.0
 10
592.1501
 20
-276.1198
 10
592.1823
 20
-276.0537
 10
592.2216
 20
-275.9958
 10
592.2665
 20
-275.9472
 10
592.3156
 20
-275.9088
 10
592.3673
 20
-275.8816
 10
592.4202
 20
-275.8666
 10
592.4726
 20
-275.8647
 10
592.5231
 20
-275.877
 10
592.5681
 20
-275.903
 10
592.6046
 20
-275.9405
 10
592.6323
 20
-275.9877
 10
592.6507
 20
-276.043
 10
592.6595
 20
-276.1046
 10
592.6582
 20
-276.1706
 10
592.6465
 20
-276.2394
 10
592.624
 20
-276.3093
 10
592.5918
 20
-276.3754
 10
592.5524
 20
-276.4333
 10
592.5074
 20
-276.4819
 10
592.4584
 20
-276.5203
 10
592.4067
 20
-276.5475
 10
592.3539
 20
-276.5626
 10
592.3015
 20
-276.5645
 10
592.251
 20
-276.5522
 10
592.206
 20
-276.5262
 10
592.1695
 20
-276.4887
 10
592.1418
 20
-276.4415
 10
592.1233
 20
-276.3862
 10
592.1145
 20
-276.3246
 10
592.1157
 20
-276.2585
 10
592.1275
 20
-276.1897
 10
592.1501
 20
-276.1198
  0
LWPOLYLINE
  5
AF
330
1F
100
AcDbEntity
  8
Layer 1
 62
     7
370
    18
100
AcDbPolyline
 90
       33
 70
     1
 43
0.0
 10
596.7261
 20
-282.2821
 10
596.7975
 20
-282.3004
 10
596.8621
 20
-282.3273
 10
596.9189
 20
-282.3616
 10
596.9664
 20
-282.4019
 10
597.0034
 20
-282.447
 10
597.0286
 20
-282.4956
 10
597.0409
 20
-282.5465
 10
597.0388
 20
-282.5983
 10
597.0223
 20
-282.6474
 10
596.9927
 20
-282.6906
 10
596.9518
 20
-282.727
 10
596.9011
 20
-282.756
 10
596.8423
 20
-282.7768
 10
596.7771
 20
-282.7886
 10
596.707
 20
-282.7908
 10
596.6338
 20
-282.7827
 10
596.5623
 20
-282.7644
 10
596.4976
 20
-282.7374
 10
596.4408
 20
-282.7031
 10
596.3933
 20
-282.6628
 10
596.3563
 20
-282.6177
 10
596.331
 20
-282.5691
 10
596.3187
 20
-282.5182
 10
596.3207
 20
-282.4664
 10
596.3374
 20
-282.4174
 10
596.367
 20
-282.3743
 10
596.408
 20
-282.3379
 10
596.4588
 20
-282.3089
 10
596.5175
 20
-282.2881
 10
596.5828
 20
-282.2762
 10
596.6529
 20
-282.2739
 10
596.7261
 20
-282.2821
  0
LWPOLYLINE
  5
B0
330
1F
100
AcDbEntity
  8
Layer 1
 62
     7
370
    18
100
AcDbPolyline
 90
       33
 70
     1
 43
0.0
 10
596.0474
 20
-282.8896
 10
596.1188
 20
-282.9079
 10
596.1834
 20
-282.9348
 10
596.2402
 20
-282.9691
 10
596.2877
 20
-283.0094
 10
596.3247
 20
-283.0544
 10
596.3499
 20
-283.103
 10
596.3622
 20
-283.1538
 10
596.3601
 20
-283.2056
 10
596.3436
 20
-283.2547
 10
596.314
 20
-283.2979
 10
596.2731
 20
-283.3343
 10
596.2224
 20
-283.3633
 10
596.1636
 20
-283.3841
 10
596.0984
 20
-283.396
 10
596.0283
 20
-283.3982
 10
595.9551
 20
-283.3899
 10
595.8836
 20
-283.3716
 10
595.8189
 20
-283.3447
 10
595.7622
 20
-283.3105
 10
595.7147
 20
-283.2702
 10
595.6777
 20
-283.2252
 10
595.6524
 20
-283.1766
 10
595.6402
 20
-283.1258
 10
595.6423
 20
-283.074
 10
595.6589
 20
-283.0248
 10
595.6885
 20
-282.9817
 10
595.7294
 20
-282.9452
 10
595.7801
 20
-282.9162
 10
595.8389
 20
-282.8954
 10
595.9041
 20
-282.8836
 10
595.9742
 20
-282.8814
 10
596.0474
 20
-282.8896
  0
LWPOLYLINE
  5
B1
330
1F
100
AcDbEntity
  8
Layer 1
 62
     7
370
    18
100
AcDbPolyline
 90
       33
 70
     1
 43
0.0
 10
579.7977
 20
-288.3886
 10
579.8604
 20
-288.3499
 10
579.9247
 20
-288.322
 10
579.9888
 20
-288.3048
 10
580.0508
 20
-288.2986
 10
580.1091
 20
-288.3031
 10
580.1617
 20
-288.3186
 10
580.207
 20
-288.3449
 10
580.2431
 20
-288.3822
 10
580.2672
 20
-288.4281
 10
580.278
 20
-288.4792
 10
580.2761
 20
-288.5339
 10
580.2621
 20
-288.5904
 10
580.2365
 20
-288.6471
 10
580.2
 20
-288.7023
 10
580.1531
 20
-288.7543
 10
580.0964
 20
-288.8014
 10
580.0338
 20
-288.84
 10
579.9695
 20
-288.8679
 10
579.9055
 20
-288.885
 10
579.8434
 20
-288.8913
 10
579.7851
 20
-288.8868
 10
579.7324
 20
-288.8714
 10
579.6871
 20
-288.8451
 10
579.651
 20
-288.8078
 10
579.6269
 20
-288.7619
 10
579.6161
 20
-288.7108
 10
579.618
 20
-288.6561
 10
579.6321
 20
-288.5996
 10
579.6577
 20
-288.5429
 10
579.6942
 20
-288.4877
 10
579.7411
 20
-288.4357
 10
579.7977
 20
-288.3886
  0
LWPOLYLINE
  5
B2
330
1F
100
AcDbEntity
  8
Layer 1
 62
     7
370
    18
100
AcDbPolyline
 90
       33
 70
     1
 43
0.0
 10
580.3003
 20
-288.8639
 10
580.3573
 20
-288.8173
 10
580.4173
 20
-288.7811
 10
580.4786
 20
-288.7557
 10
580.5393
 20
-288.7413
 10
580.5977
 20
-288.7381
 10
580.652
 20
-288.7464
 10
580.7004
 20
-288.7665
 10
580.7412
 20
-288.7987
 10
580.7712
 20
-288.841
 10
580.7886
 20
-288.8904
 10
580.7939
 20
-288.9448
 10
580.7875
 20
-289.0028
 10
580.7696
 20
-289.0624
 10
580.7407
 20
-289.122
 10
580.7012
 20
-289.1797
 10
580.6513
 20
-289.2338
 10
580.5943
 20
-289.2803
 10
580.5343
 20
-289.3164
 10
580.4731
 20
-289.3418
 10
580.4124
 20
-289.3562
 10
580.3541
 20
-289.3593
 10
580.2998
 20
-289.351
 10
580.2514
 20
-289.3309
 10
580.2107
 20
-289.2987
 10
580.1807
 20
-289.2564
 10
580.1632
 20
-289.2071
 10
580.1579
 20
-289.1526
 10
580.1643
 20
-289.0948
 10
580.1821
 20
-289.0352
 10
580.2109
 20
-288.9757
 10
580.2504
 20
-288.918
 10
580.3003
 20
-288.8639
  0
LWPOLYLINE
  5
B3
330
1F
100
AcDbEntity
  8
Layer 1
 62
     7
370
    18
100
AcDbPolyline
 90
       33
 70
     1
 43
0.0
 10
580.9573
 20
-289.1482
 10
581.0143
 20
-289.1016
 10
581.0743
 20
-289.0654
 10
581.1356
 20
-289.04
 10
581.1963
 20
-289.0256
 10
581.2546
 20
-289.0224
 10
581.3089
 20
-289.0308
 10
581.3573
 20
-289.051
 10
581.3981
 20
-289.0833
 10
581.4281
 20
-289.1256
 10
581.4455
 20
-289.1748
 10
581.4509
 20
-289.2293
 10
581.4444
 20
-289.2872
 10
581.4266
 20
-289.3467
 10
581.3977
 20
-289.4062
 10
581.3582
 20
-289.464
 10
581.3083
 20
-289.5181
 10
581.2513
 20
-289.5647
 10
581.1913
 20
-289.6009
 10
581.1301
 20
-289.6263
 10
581.0694
 20
-289.6407
 10
581.0111
 20
-289.6439
 10
580.9568
 20
-289.6356
 10
580.9084
 20
-289.6154
 10
580.8677
 20
-289.5833
 10
580.8377
 20
-289.541
 10
580.8202
 20
-289.4916
 10
580.8149
 20
-289.4372
 10
580.8213
 20
-289.3792
 10
580.8391
 20
-289.3196
 10
580.8679
 20
-289.26
 10
580.9074
 20
-289.2023
 10
580.9573
 20
-289.1482
  0
LWPOLYLINE
  5
B4
330
1F
100
AcDbEntity
  8
Layer 1
 62
     7
370
    18
100
AcDbPolyline
 90
       33
 70
     1
 43
0.0
 10
581.7677
 20
-289.302
 10
581.8247
 20
-289.2554
 10
581.8848
 20
-289.2193
 10
581.946
 20
-289.1938
 10
582.0068
 20
-289.1794
 10
582.0651
 20
-289.1762
 10
582.1194
 20
-289.1846
 10
582.1678
 20
-289.2047
 10
582.2086
 20
-289.2368
 10
582.2386
 20
-289.2792
 10
582.256
 20
-289.3286
 10
582.2613
 20
-289.3831
 10
582.2549
 20
-289.441
 10
582.237
 20
-289.5006
 10
582.2081
 20
-289.5601
 10
582.1686
 20
-289.6178
 10
582.1187
 20
-289.6719
 10
582.0618
 20
-289.7185
 10
582.0019
 20
-289.7547
 10
581.9407
 20
-289.7801
 10
581.88
 20
-289.7946
 10
581.8216
 20
-289.7978
 10
581.7674
 20
-289.7894
 10
581.719
 20
-289.7693
 10
581.6782
 20
-289.7371
 10
581.6482
 20
-289.6947
 10
581.6308
 20
-289.6454
 10
581.6254
 20
-289.5909
 10
581.6318
 20
-289.533
 10
581.6496
 20
-289.4734
 10
581.6785
 20
-289.4139
 10
581.7179
 20
-289.3561
 10
581.7677
 20
-289.302
  0
LWPOLYLINE
  5
B5
330
1F
100
AcDbEntity
  8
Layer 1
 62
     7
370
    18
100
AcDbPolyline
 90
       33
 70
     1
 43
0.0
 10
582.5855
 20
-289.4264
 10
582.619
 20
-289.3609
 10
582.6594
 20
-289.3038
 10
582.7053
 20
-289.2561
 10
582.7551
 20
-289.2187
 10
582.8073
 20
-289.1925
 10
582.8604
 20
-289.1785
 10
582.9128
 20
-289.1776
 10
582.9631
 20
-289.1908
 10
583.0075
 20
-289.2176
 10
583.0433
 20
-289.2558
 10
583.0701
 20
-289.3036
 10
583.0875
 20
-289.3592
 10
583.0951
 20
-289.4208
 10
583.0926
 20
-289.4869
 10
583.0796
 20
-289.5555
 10
583.0557
 20
-289.625
 10
583.0221
 20
-289.6905
 10
582.9817
 20
-289.7476
 10
582.9358
 20
-289.7953
 10
582.886
 20
-289.8327
 10
582.8338
 20
-289.8589
 10
582.7808
 20
-289.8729
 10
582.7284
 20
-289.8737
 10
582.6782
 20
-289.8605
 10
582.6337
 20
-289.8337
 10
582.5978
 20
-289.7956
 10
582.571
 20
-289.7478
 10
582.5536
 20
-289.6922
 10
582.5459
 20
-289.6306
 10
582.5485
 20
-289.5645
 10
582.5615
 20
-289.4959
 10
582.5855
 20
-289.4264
  0
LWPOLYLINE
  5
B6
330
1F
100
AcDbEntity
  8
Layer 1
 62
     7
370
    18
100
AcDbPolyline
 90
       33
 70
     1
 43
0.0
 10
583.4259
 20
-289.4498
 10
583.438
 20
-289.3772
 10
583.4592
 20
-289.3106
 10
583.4885
 20
-289.2513
 10
583.5246
 20
-289.2006
 10
583.5663
 20
-289.1599
 10
583.6126
 20
-289.1305
 10
583.6623
 20
-289.1139
 10
583.7142
 20
-289.1113
 10
583.7648
 20
-289.1234
 10
583.8106
 20
-289.149
 10
583.8507
 20
-289.1864
 10
583.8842
 20
-289.2341
 10
583.9102
 20
-289.2906
 10
583.9279
 20
-289.3543
 10
583.9363
 20
-289.4236
 10
583.9347
 20
-289.497
 10
583.9226
 20
-289.5696
 10
583.9014
 20
-289.6362
 10
583.8721
 20
-289.6955
 10
583.836
 20
-289.7462
 10
583.7943
 20
-289.7869
 10
583.748
 20
-289.8163
 10
583.6983
 20
-289.8329
 10
583.6464
 20
-289.8355
 10
583.5958
 20
-289.8234
 10
583.55
 20
-289.7978
 10
583.5099
 20
-289.7604
 10
583.4764
 20
-289.7127
 10
583.4504
 20
-289.6562
 10
583.4327
 20
-289.5926
 10
583.4243
 20
-289.5232
 10
583.4259
 20
-289.4498
  0
LWPOLYLINE
  5
B7
330
1F
100
AcDbEntity
  8
Layer 1
 62
     7
370
    18
100
AcDbPolyline
 90
       33
 70
     1
 43
0.0
 10
584.2829
 20
-289.3054
 10
584.2949
 20
-289.2328
 10
584.316
 20
-289.1662
 10
584.3453
 20
-289.1069
 10
584.3814
 20
-289.0562
 10
584.4232
 20
-289.0155
 10
584.4695
 20
-288.9861
 10
584.5192
 20
-288.9695
 10
584.5711
 20
-288.9669
 10
584.6216
 20
-288.979
 10
584.6674
 20
-289.0046
 10
584.7075
 20
-289.042
 10
584.7409
 20
-289.0897
 10
584.767
 20
-289.1462
 10
584.7846
 20
-289.2098
 10
584.793
 20
-289.2792
 10
584.7913
 20
-289.3526
 10
584.7793
 20
-289.4252
 10
584.7581
 20
-289.4918
 10
584.7289
 20
-289.5512
 10
584.6929
 20
-289.602
 10
584.6511
 20
-289.6427
 10
584.6047
 20
-289.6721
 10
584.555
 20
-289.6888
 10
584.503
 20
-289.6914
 10
584.4525
 20
-289.6793
 10
584.4068
 20
-289.6537
 10
584.3668
 20
-289.6162
 10
584.3333
 20
-289.5685
 10
584.3073
 20
-289.5119
 10
584.2897
 20
-289.4482
 10
584.2812
 20
-289.3788
 10
584.2829
 20
-289.3054
  0
LWPOLYLINE
  5
B8
330
1F
100
AcDbEntity
  8
Layer 1
 62
     7
370
    18
100
AcDbPolyline
 90
       33
 70
     1
 43
0.0
 10
585.1719
 20
-289.1183
 10
585.1839
 20
-289.0458
 10
585.205
 20
-288.9792
 10
585.2342
 20
-288.9199
 10
585.2702
 20
-288.8692
 10
585.312
 20
-288.8284
 10
585.3583
 20
-288.7991
 10
585.408
 20
-288.7824
 10
585.4599
 20
-288.7798
 10
585.5105
 20
-288.792
 10
585.5563
 20
-288.8175
 10
585.5963
 20
-288.855
 10
585.6298
 20
-288.9028
 10
585.6558
 20
-288.9593
 10
585.6735
 20
-289.023
 10
585.6819
 20
-289.0924
 10
585.6803
 20
-289.1658
 10
585.6682
 20
-289.2383
 10
585.647
 20
-289.3049
 10
585.6177
 20
-289.3642
 10
585.5816
 20
-289.415
 10
585.5399
 20
-289.4557
 10
585.4936
 20
-289.4851
 10
585.4439
 20
-289.5018
 10
585.392
 20
-289.5044
 10
585.3415
 20
-289.4922
 10
585.2957
 20
-289.4667
 10
585.2557
 20
-289.4292
 10
585.2222
 20
-289.3814
 10
585.1962
 20
-289.3249
 10
585.1785
 20
-289.2611
 10
585.1701
 20
-289.1917
 10
585.1719
 20
-289.1183
  0
LWPOLYLINE
  5
B9
330
1F
100
AcDbEntity
  8
Layer 1
 62
     7
370
    18
100
AcDbPolyline
 90
       33
 70
     1
 43
0.0
 10
586.0205
 20
-288.8694
 10
586.0326
 20
-288.7968
 10
586.0538
 20
-288.7302
 10
586.0831
 20
-288.6709
 10
586.1192
 20
-288.6202
 10
586.1609
 20
-288.5795
 10
586.2072
 20
-288.5501
 10
586.2569
 20
-288.5335
 10
586.3088
 20
-288.5309
 10
586.3593
 20
-288.543
 10
586.4051
 20
-288.5686
 10
586.4452
 20
-288.606
 10
586.4786
 20
-288.6537
 10
586.5046
 20
-288.7102
 10
586.5223
 20
-288.7738
 10
586.5307
 20
-288.8432
 10
586.5289
 20
-288.9166
 10
586.5169
 20
-288.9892
 10
586.4958
 20
-289.0558
 10
586.4666
 20
-289.1151
 10
586.4306
 20
-289.1658
 10
586.3888
 20
-289.2065
 10
586.3426
 20
-289.2359
 10
586.2929
 20
-289.2525
 10
586.241
 20
-289.2551
 10
586.1904
 20
-289.243
 10
586.1446
 20
-289.2174
 10
586.1045
 20
-289.18
 10
586.071
 20
-289.1323
 10
586.045
 20
-289.0758
 10
586.0273
 20
-289.0122
 10
586.0189
 20
-288.9428
 10
586.0205
 20
-288.8694
  0
LWPOLYLINE
  5
BA
330
1F
100
AcDbEntity
  8
Layer 1
 62
     7
370
    18
100
AcDbPolyline
 90
       33
 70
     1
 43
0.0
 10
586.827
 20
-288.5882
 10
586.839
 20
-288.5157
 10
586.8602
 20
-288.4491
 10
586.8894
 20
-288.3898
 10
586.9254
 20
-288.3391
 10
586.9672
 20
-288.2983
 10
587.0136
 20
-288.269
 10
587.0633
 20
-288.2523
 10
587.1153
 20
-288.2497
 10
587.1658
 20
-288.2618
 10
587.2115
 20
-288.2874
 10
587.2515
 20
-288.3248
 10
587.285
 20
-288.3725
 10
587.311
 20
-288.429
 10
587.3286
 20
-288.4928
 10
587.3371
 20
-288.5622
 10
587.3354
 20
-288.6357
 10
587.3234
 20
-288.7082
 10
587.3023
 20
-288.7748
 10
587.273
 20
-288.8341
 10
587.2369
 20
-288.8848
 10
587.1951
 20
-288.9256
 10
587.1488
 20
-288.9549
 10
587.099
 20
-288.9716
 10
587.0471
 20
-288.9742
 10
586.9966
 20
-288.962
 10
586.9509
 20
-288.9365
 10
586.9108
 20
-288.899
 10
586.8774
 20
-288.8512
 10
586.8513
 20
-288.7947
 10
586.8337
 20
-288.731
 10
586.8253
 20
-288.6616
 10
586.827
 20
-288.5882
  0
LWPOLYLINE
  5
BB
330
1F
100
AcDbEntity
  8
Layer 1
 62
     7
370
    18
100
AcDbPolyline
 90
       33
 70
     1
 43
0.0
 10
579.4452
 20
-287.7862
 10
579.5079
 20
-287.7475
 10
579.5722
 20
-287.7195
 10
579.6363
 20
-287.7024
 10
579.6983
 20
-287.6961
 10
579.7566
 20
-287.7006
 10
579.8093
 20
-287.7161
 10
579.8546
 20
-287.7425
 10
579.8907
 20
-287.7798
 10
579.9148
 20
-287.8257
 10
579.9256
 20
-287.8769
 10
579.9236
 20
-287.9316
 10
579.9096
 20
-287.9881
 10
579.884
 20
-288.0448
 10
579.8475
 20
-288.1
 10
579.8006
 20
-288.152
 10
579.7439
 20
-288.1991
 10
579.6813
 20
-288.2377
 10
579.6171
 20
-288.2656
 10
579.553
 20
-288.2827
 10
579.4909
 20
-288.289
 10
579.4327
 20
-288.2845
 10
579.3799
 20
-288.269
 10
579.3346
 20
-288.2427
 10
579.2985
 20
-288.2055
 10
579.2744
 20
-288.1595
 10
579.2636
 20
-288.1083
 10
579.2655
 20
-288.0535
 10
579.2796
 20
-287.997
 10
579.3052
 20
-287.9403
 10
579.3417
 20
-287.8851
 10
579.3886
 20
-287.8332
 10
579.4452
 20
-287.7862
  0
LWPOLYLINE
  5
BC
330
1F
100
AcDbEntity
  8
Layer 1
 62
     7
370
    18
100
AcDbPolyline
 90
       33
 70
     1
 43
0.0
 10
579.356
 20
-287.0251
 10
579.4292
 20
-287.017
 10
579.4993
 20
-287.0192
 10
579.5645
 20
-287.0311
 10
579.6233
 20
-287.052
 10
579.674
 20
-287.081
 10
579.7149
 20
-287.1175
 10
579.7445
 20
-287.1606
 10
579.761
 20
-287.2098
 10
579.763
 20
-287.2616
 10
579.7507
 20
-287.3124
 10
579.7255
 20
-287.361
 10
579.6885
 20
-287.406
 10
579.641
 20
-287.4463
 10
579.5843
 20
-287.4805
 10
579.5197
 20
-287.5074
 10
579.4483
 20
-287.5257
 10
579.375
 20
-287.5339
 10
579.3049
 20
-287.5316
 10
579.2396
 20
-287.5197
 10
579.1808
 20
-287.4989
 10
579.1302
 20
-287.4699
 10
579.0892
 20
-287.4334
 10
579.0596
 20
-287.3902
 10
579.0429
 20
-287.3411
 10
579.0409
 20
-287.2894
 10
579.0532
 20
-287.2386
 10
579.0786
 20
-287.19
 10
579.1156
 20
-287.145
 10
579.1632
 20
-287.1046
 10
579.2199
 20
-287.0704
 10
579.2846
 20
-287.0434
 10
579.356
 20
-287.0251
  0
LWPOLYLINE
  5
BD
330
1F
100
AcDbEntity
  8
Layer 1
 62
     7
370
    18
100
AcDbPolyline
 90
       33
 70
     1
 43
0.0
 10
579.3997
 20
-286.2128
 10
579.473
 20
-286.2047
 10
579.5431
 20
-286.2069
 10
579.6084
 20
-286.2188
 10
579.6672
 20
-286.2397
 10
579.7178
 20
-286.2687
 10
579.7588
 20
-286.3052
 10
579.7884
 20
-286.3483
 10
579.8051
 20
-286.3975
 10
579.807
 20
-286.4492
 10
579.7948
 20
-286.5
 10
579.7695
 20
-286.5486
 10
579.7324
 20
-286.5936
 10
579.6849
 20
-286.6339
 10
579.6282
 20
-286.6682
 10
579.5635
 20
-286.6951
 10
579.492
 20
-286.7134
 10
579.4188
 20
-286.7216
 10
579.3487
 20
-286.7193
 10
579.2835
 20
-286.7074
 10
579.2247
 20
-286.6866
 10
579.174
 20
-286.6576
 10
579.1331
 20
-286.6211
 10
579.1035
 20
-286.5779
 10
579.0869
 20
-286.5288
 10
579.085
 20
-286.477
 10
579.0972
 20
-286.4262
 10
579.1225
 20
-286.3776
 10
579.1595
 20
-286.3326
 10
579.207
 20
-286.2923
 10
579.2637
 20
-286.258
 10
579.3283
 20
-286.2311
 10
579.3997
 20
-286.2128
  0
LWPOLYLINE
  5
BE
330
1F
100
AcDbEntity
  8
Layer 1
 62
     7
370
    18
100
AcDbPolyline
 90
       33
 70
     1
 43
0.0
 10
579.7118
 20
-285.4295
 10
579.785
 20
-285.4213
 10
579.8551
 20
-285.4236
 10
579.9203
 20
-285.4356
 10
579.9791
 20
-285.4564
 10
580.0298
 20
-285.4855
 10
580.0707
 20
-285.5219
 10
580.1003
 20
-285.5651
 10
580.1169
 20
-285.6141
 10
580.119
 20
-285.6659
 10
580.1067
 20
-285.7168
 10
580.0815
 20
-285.7653
 10
580.0444
 20
-285.8104
 10
579.9969
 20
-285.8507
 10
579.9402
 20
-285.885
 10
579.8755
 20
-285.912
 10
579.8041
 20
-285.9304
 10
579.7309
 20
-285.9385
 10
579.6608
 20
-285.9362
 10
579.5956
 20
-285.9243
 10
579.5368
 20
-285.9034
 10
579.4861
 20
-285.8744
 10
579.4451
 20
-285.8379
 10
579.4154
 20
-285.7948
 10
579.3988
 20
-285.7457
 10
579.3968
 20
-285.6939
 10
579.4091
 20
-285.6431
 10
579.4344
 20
-285.5945
 10
579.4715
 20
-285.5494
 10
579.519
 20
-285.5091
 10
579.5757
 20
-285.4749
 10
579.6404
 20
-285.4479
 10
579.7118
 20
-285.4295
  0
LWPOLYLINE
  5
BF
330
1F
100
AcDbEntity
  8
Layer 1
 62
     7
370
    18
100
AcDbPolyline
 90
       33
 70
     1
 43
0.0
 10
580.1056
 20
-284.751
 10
580.1788
 20
-284.7428
 10
580.2489
 20
-284.7451
 10
580.3141
 20
-284.757
 10
580.3729
 20
-284.7778
 10
580.4236
 20
-284.8068
 10
580.4645
 20
-284.8433
 10
580.4941
 20
-284.8865
 10
580.5106
 20
-284.9356
 10
580.5126
 20
-284.9873
 10
580.5003
 20
-285.0381
 10
580.4751
 20
-285.0867
 10
580.4381
 20
-285.1317
 10
580.3906
 20
-285.172
 10
580.3339
 20
-285.2063
 10
580.2693
 20
-285.2332
 10
580.1979
 20
-285.2515
 10
580.1246
 20
-285.2597
 10
580.0545
 20
-285.2574
 10
579.9892
 20
-285.2455
 10
579.9304
 20
-285.2247
 10
579.8798
 20
-285.1957
 10
579.8388
 20
-285.1592
 10
579.8092
 20
-285.116
 10
579.7925
 20
-285.0669
 10
579.7905
 20
-285.0151
 10
579.8028
 20
-284.9643
 10
579.8282
 20
-284.9157
 10
579.8652
 20
-284.8707
 10
579.9128
 20
-284.8304
 10
579.9695
 20
-284.7962
 10
580.0342
 20
-284.7693
 10
580.1056
 20
-284.751
  0
LWPOLYLINE
  5
C0
330
1F
100
AcDbEntity
  8
Layer 1
 62
     7
370
    18
100
AcDbPolyline
 90
       33
 70
     1
 43
0.0
 10
580.7262
 20
-284.0279
 10
580.7962
 20
-284.0508
 10
580.859
 20
-284.0819
 10
580.9134
 20
-284.1198
 10
580.9582
 20
-284.1631
 10
580.9922
 20
-284.2105
 10
581.0143
 20
-284.2607
 10
581.0232
 20
-284.3122
 10
581.0178
 20
-284.3637
 10
580.998
 20
-284.4116
 10
580.9657
 20
-284.4527
 10
580.9224
 20
-284.4864
 10
580.8699
 20
-284.5121
 10
580.8099
 20
-284.5291
 10
580.744
 20
-284.5367
 10
580.674
 20
-284.5344
 10
580.6014
 20
-284.5215
 10
580.5314
 20
-284.4986
 10
580.4686
 20
-284.4675
 10
580.4142
 20
-284.4297
 10
580.3694
 20
-284.3864
 10
580.3354
 20
-284.339
 10
580.3133
 20
-284.2888
 10
580.3044
 20
-284.2373
 10
580.3098
 20
-284.1858
 10
580.3296
 20
-284.1379
 10
580.3619
 20
-284.0968
 10
580.4052
 20
-284.0631
 10
580.4577
 20
-284.0374
 10
580.5177
 20
-284.0204
 10
580.5836
 20
-284.0127
 10
580.6536
 20
-284.015
 10
580.7262
 20
-284.0279
  0
LWPOLYLINE
  5
C1
330
1F
100
AcDbEntity
  8
Layer 1
 62
     7
370
    18
100
AcDbPolyline
 90
       33
 70
     1
 43
0.0
 10
581.3486
 20
-283.3549
 10
581.4187
 20
-283.3779
 10
581.4815
 20
-283.409
 10
581.5359
 20
-283.4469
 10
581.5807
 20
-283.4902
 10
581.6147
 20
-283.5375
 10
581.6368
 20
-283.5876
 10
581.6457
 20
-283.6391
 10
581.6403
 20
-283.6906
 10
581.6205
 20
-283.7386
 10
581.5881
 20
-283.7797
 10
581.5448
 20
-283.8135
 10
581.4924
 20
-283.8391
 10
581.4324
 20
-283.8561
 10
581.3665
 20
-283.8637
 10
581.2964
 20
-283.8614
 10
581.2239
 20
-283.8485
 10
581.1538
 20
-283.8256
 10
581.091
 20
-283.7945
 10
581.0366
 20
-283.7567
 10
580.9918
 20
-283.7134
 10
580.9578
 20
-283.666
 10
580.9357
 20
-283.6159
 10
580.9268
 20
-283.5643
 10
580.9322
 20
-283.5127
 10
580.952
 20
-283.4648
 10
580.9844
 20
-283.4237
 10
581.0277
 20
-283.39
 10
581.0801
 20
-283.3643
 10
581.1401
 20
-283.3473
 10
581.206
 20
-283.3397
 10
581.2761
 20
-283.342
 10
581.3486
 20
-283.3549
  0
LWPOLYLINE
  5
C2
330
1F
100
AcDbEntity
  8
Layer 1
 62
     7
370
    18
100
AcDbPolyline
 90
       33
 70
     1
 43
0.0
 10
581.9579
 20
-282.6974
 10
582.0279
 20
-282.7203
 10
582.0907
 20
-282.7514
 10
582.145
 20
-282.7892
 10
582.1898
 20
-282.8326
 10
582.2237
 20
-282.8799
 10
582.2457
 20
-282.9301
 10
582.2546
 20
-282.9816
 10
582.2492
 20
-283.0331
 10
582.2295
 20
-283.081
 10
582.1972
 20
-283.1221
 10
582.1539
 20
-283.1558
 10
582.1015
 20
-283.1815
 10
582.0414
 20
-283.1985
 10
581.9755
 20
-283.2062
 10
581.9055
 20
-283.2039
 10
581.8329
 20
-283.191
 10
581.7629
 20
-283.1681
 10
581.7001
 20
-283.137
 10
581.6457
 20
-283.0991
 10
581.601
 20
-283.0558
 10
581.567
 20
-283.0084
 10
581.545
 20
-282.9582
 10
581.5361
 20
-282.9067
 10
581.5415
 20
-282.8552
 10
581.5613
 20
-282.8073
 10
581.5937
 20
-282.7662
 10
581.6369
 20
-282.7325
 10
581.6894
 20
-282.7068
 10
581.7494
 20
-282.6898
 10
581.8153
 20
-282.6822
 10
581.8853
 20
-282.6845
 10
581.9579
 20
-282.6974
  0
LWPOLYLINE
  5
C3
330
1F
100
AcDbEntity
  8
Layer 1
 62
     7
370
    18
100
AcDbPolyline
 90
       33
 70
     1
 43
0.0
 10
582.5333
 20
-282.053
 10
582.6034
 20
-282.076
 10
582.6662
 20
-282.1071
 10
582.7206
 20
-282.145
 10
582.7654
 20
-282.1883
 10
582.7994
 20
-282.2356
 10
582.8214
 20
-282.2857
 10
582.8303
 20
-282.3372
 10
582.8249
 20
-282.3887
 10
582.8051
 20
-282.4367
 10
582.7728
 20
-282.4778
 10
582.7295
 20
-282.5116
 10
582.677
 20
-282.5372
 10
582.617
 20
-282.5541
 10
582.5511
 20
-282.5618
 10
582.4811
 20
-282.5594
 10
582.4085
 20
-282.5465
 10
582.3385
 20
-282.5236
 10
582.2757
 20
-282.4925
 10
582.2214
 20
-282.4547
 10
582.1766
 20
-282.4114
 10
582.1426
 20
-282.364
 10
582.1205
 20
-282.3138
 10
582.1116
 20
-282.2623
 10
582.1169
 20
-282.2108
 10
582.1367
 20
-282.1629
 10
582.169
 20
-282.1218
 10
582.2123
 20
-282.0881
 10
582.2648
 20
-282.0624
 10
582.3248
 20
-282.0454
 10
582.3907
 20
-282.0378
 10
582.4607
 20
-282.0401
 10
582.5333
 20
-282.053
  0
LWPOLYLINE
  5
C4
330
1F
100
AcDbEntity
  8
Layer 1
 62
     7
370
    18
100
AcDbPolyline
 90
       33
 70
     1
 43
0.0
 10
583.1954
 20
-281.4527
 10
583.2654
 20
-281.4756
 10
583.3282
 20
-281.5067
 10
583.3826
 20
-281.5446
 10
583.4273
 20
-281.5879
 10
583.4613
 20
-281.6353
 10
583.4833
 20
-281.6855
 10
583.4922
 20
-281.737
 10
583.4868
 20
-281.7885
 10
583.467
 20
-281.8364
 10
583.4346
 20
-281.8775
 10
583.3913
 20
-281.9112
 10
583.3389
 20
-281.9369
 10
583.2789
 20
-281.9539
 10
583.213
 20
-281.9615
 10
583.1429
 20
-281.9592
 10
583.0704
 20
-281.9463
 10
583.0004
 20
-281.9233
 10
582.9376
 20
-281.8922
 10
582.8832
 20
-281.8543
 10
582.8385
 20
-281.811
 10
582.8045
 20
-281.7636
 10
582.7825
 20
-281.7135
 10
582.7736
 20
-281.6621
 10
582.779
 20
-281.6106
 10
582.7987
 20
-281.5626
 10
582.8311
 20
-281.5215
 10
582.8743
 20
-281.4877
 10
582.9268
 20
-281.4621
 10
582.9869
 20
-281.4451
 10
583.0528
 20
-281.4375
 10
583.1228
 20
-281.4398
 10
583.1954
 20
-281.4527
  0
LWPOLYLINE
  5
C5
330
1F
100
AcDbEntity
  8
Layer 1
 62
     7
370
    18
100
AcDbPolyline
 90
       33
 70
     1
 43
0.0
 10
587.5681
 20
-288.2801
 10
587.5802
 20
-288.2077
 10
587.6014
 20
-288.1411
 10
587.6306
 20
-288.0817
 10
587.6667
 20
-288.031
 10
587.7085
 20
-287.9903
 10
587.7548
 20
-287.9609
 10
587.8045
 20
-287.9442
 10
587.8564
 20
-287.9416
 10
587.9069
 20
-287.9538
 10
587.9526
 20
-287.9793
 10
587.9927
 20
-288.0168
 10
588.0262
 20
-288.0646
 10
588.0522
 20
-288.1211
 10
588.0698
 20
-288.1849
 10
588.0782
 20
-288.2543
 10
588.0765
 20
-288.3277
 10
588.0645
 20
-288.4001
 10
588.0433
 20
-288.4667
 10
588.0141
 20
-288.5261
 10
587.9781
 20
-288.5768
 10
587.9363
 20
-288.6175
 10
587.8899
 20
-288.6469
 10
587.8402
 20
-288.6636
 10
587.7882
 20
-288.6662
 10
587.7377
 20
-288.6541
 10
587.692
 20
-288.6285
 10
587.652
 20
-288.5911
 10
587.6185
 20
-288.5433
 10
587.5925
 20
-288.4868
 10
587.5749
 20
-288.423
 10
587.5664
 20
-288.3536
 10
587.5681
 20
-288.2801
  0
LWPOLYLINE
  5
C6
330
1F
100
AcDbEntity
  8
Layer 1
 62
     7
370
    18
100
AcDbPolyline
 90
       33
 70
     1
 43
0.0
 10
582.2434
 20
-278.6978
 10
582.3135
 20
-278.7207
 10
582.3763
 20
-278.7517
 10
582.4307
 20
-278.7896
 10
582.4755
 20
-278.8328
 10
582.5095
 20
-278.8802
 10
582.5316
 20
-278.9304
 10
582.5405
 20
-278.9819
 10
582.5351
 20
-279.0335
 10
582.5153
 20
-279.0814
 10
582.4829
 20
-279.1225
 10
582.4397
 20
-279.1562
 10
582.3872
 20
-279.1819
 10
582.3272
 20
-279.1988
 10
582.2613
 20
-279.2064
 10
582.1913
 20
-279.204
 10
582.1187
 20
-279.191
 10
582.0487
 20
-279.1681
 10
581.9859
 20
-279.1371
 10
581.9315
 20
-279.0992
 10
581.8867
 20
-279.056
 10
581.8527
 20
-279.0086
 10
581.8306
 20
-278.9584
 10
581.8217
 20
-278.9069
 10
581.8271
 20
-278.8553
 10
581.8469
 20
-278.8074
 10
581.8792
 20
-278.7663
 10
581.9225
 20
-278.7326
 10
581.975
 20
-278.707
 10
582.035
 20
-278.69
 10
582.1008
 20
-278.6824
 10
582.1709
 20
-278.6848
 10
582.2434
 20
-278.6978
  0
LWPOLYLINE
  5
C7
330
1F
100
AcDbEntity
  8
Layer 1
 62
     7
370
    18
100
AcDbPolyline
 90
       33
 70
     1
 43
0.0
 10
580.8105
 20
-279.9561
 10
580.8806
 20
-279.979
 10
580.9435
 20
-280.0101
 10
580.9979
 20
-280.048
 10
581.0427
 20
-280.0913
 10
581.0767
 20
-280.1387
 10
581.0987
 20
-280.1889
 10
581.1076
 20
-280.2404
 10
581.1022
 20
-280.2919
 10
581.0824
 20
-280.3398
 10
581.0501
 20
-280.3809
 10
581.0068
 20
-280.4146
 10
580.9543
 20
-280.4403
 10
580.8943
 20
-280.4573
 10
580.8284
 20
-280.4649
 10
580.7584
 20
-280.4626
 10
580.6858
 20
-280.4497
 10
580.6158
 20
-280.4268
 10
580.553
 20
-280.3957
 10
580.4987
 20
-280.3578
 10
580.4539
 20
-280.3145
 10
580.4199
 20
-280.2671
 10
580.3978
 20
-280.2169
 10
580.3889
 20
-280.1654
 10
580.3942
 20
-280.1139
 10
580.414
 20
-280.0659
 10
580.4463
 20
-280.0248
 10
580.4896
 20
-279.9911
 10
580.5421
 20
-279.9654
 10
580.6021
 20
-279.9485
 10
580.6679
 20
-279.9409
 10
580.738
 20
-279.9432
 10
580.8105
 20
-279.9561
  0
LWPOLYLINE
  5
C8
330
1F
100
AcDbEntity
  8
Layer 1
 62
     7
370
    18
100
AcDbPolyline
 90
       33
 70
     1
 43
0.0
 10
579.7989
 20
-281.2175
 10
579.8689
 20
-281.2404
 10
579.9317
 20
-281.2715
 10
579.9861
 20
-281.3094
 10
580.0308
 20
-281.3527
 10
580.0648
 20
-281.4001
 10
580.0868
 20
-281.4503
 10
580.0957
 20
-281.5018
 10
580.0903
 20
-281.5533
 10
580.0705
 20
-281.6012
 10
580.0381
 20
-281.6423
 10
579.9949
 20
-281.676
 10
579.9424
 20
-281.7017
 10
579.8824
 20
-281.7187
 10
579.8165
 20
-281.7263
 10
579.7465
 20
-281.724
 10
579.6739
 20
-281.7111
 10
579.6039
 20
-281.6882
 10
579.5411
 20
-281.6571
 10
579.4867
 20
-281.6192
 10
579.442
 20
-281.5759
 10
579.408
 20
-281.5285
 10
579.386
 20
-281.4783
 10
579.3772
 20
-281.4268
 10
579.3826
 20
-281.3753
 10
579.4023
 20
-281.3274
 10
579.4346
 20
-281.2863
 10
579.4779
 20
-281.2526
 10
579.5303
 20
-281.227
 10
579.5904
 20
-281.21
 10
579.6563
 20
-281.2023
 10
579.7263
 20
-281.2046
 10
579.7989
 20
-281.2175
  0
LWPOLYLINE
  5
C9
330
1F
100
AcDbEntity
  8
Layer 1
 62
     7
370
    18
100
AcDbPolyline
 90
       33
 70
     1
 43
0.0
 10
582.1939
 20
-279.8361
 10
582.2639
 20
-279.859
 10
582.3267
 20
-279.8901
 10
582.3811
 20
-279.9279
 10
582.4258
 20
-279.9713
 10
582.4598
 20
-280.0186
 10
582.4818
 20
-280.0688
 10
582.4907
 20
-280.1203
 10
582.4853
 20
-280.1718
 10
582.4656
 20
-280.2197
 10
582.4332
 20
-280.2608
 10
582.39
 20
-280.2945
 10
582.3375
 20
-280.3202
 10
582.2774
 20
-280.3372
 10
582.2115
 20
-280.3449
 10
582.1415
 20
-280.3426
 10
582.0689
 20
-280.3297
 10
581.9989
 20
-280.3067
 10
581.9361
 20
-280.2755
 10
581.8817
 20
-280.2377
 10
581.837
 20
-280.1944
 10
581.803
 20
-280.147
 10
581.781
 20
-280.0969
 10
581.7721
 20
-280.0454
 10
581.7775
 20
-279.9939
 10
581.7973
 20
-279.9459
 10
581.8297
 20
-279.9048
 10
581.873
 20
-279.871
 10
581.9254
 20
-279.8454
 10
581.9854
 20
-279.8285
 10
582.0513
 20
-279.8208
 10
582.1214
 20
-279.8232
 10
582.1939
 20
-279.8361
  0
LWPOLYLINE
  5
CA
330
1F
100
AcDbEntity
  8
Layer 1
 62
     7
370
    18
100
AcDbPolyline
 90
       33
 70
     1
 43
0.0
 10
581.1245
 20
-281.0323
 10
581.1945
 20
-281.0553
 10
581.2573
 20
-281.0864
 10
581.3117
 20
-281.1243
 10
581.3564
 20
-281.1676
 10
581.3904
 20
-281.2149
 10
581.4124
 20
-281.265
 10
581.4213
 20
-281.3165
 10
581.4159
 20
-281.368
 10
581.3961
 20
-281.416
 10
581.3637
 20
-281.4572
 10
581.3204
 20
-281.4909
 10
581.268
 20
-281.5166
 10
581.208
 20
-281.5336
 10
581.1421
 20
-281.5412
 10
581.072
 20
-281.5389
 10
580.9995
 20
-281.5259
 10
580.9295
 20
-281.503
 10
580.8667
 20
-281.4719
 10
580.8123
 20
-281.4341
 10
580.7676
 20
-281.3908
 10
580.7336
 20
-281.3434
 10
580.7116
 20
-281.2933
 10
580.7027
 20
-281.2417
 10
580.7081
 20
-281.1901
 10
580.7278
 20
-281.1422
 10
580.7602
 20
-281.1011
 10
580.8034
 20
-281.0674
 10
580.8559
 20
-281.0417
 10
580.916
 20
-281.0247
 10
580.9819
 20
-281.0171
 10
581.0519
 20
-281.0194
 10
581.1245
 20
-281.0323
  0
LWPOLYLINE
  5
CB
330
1F
100
AcDbEntity
  8
Layer 1
 62
     7
370
    18
100
AcDbPolyline
 90
       33
 70
     1
 43
0.0
 10
578.7885
 20
-282.4061
 10
578.8585
 20
-282.4291
 10
578.9213
 20
-282.4602
 10
578.9757
 20
-282.4981
 10
579.0204
 20
-282.5414
 10
579.0544
 20
-282.5888
 10
579.0764
 20
-282.6389
 10
579.0853
 20
-282.6904
 10
579.0799
 20
-282.7419
 10
579.0601
 20
-282.7899
 10
579.0277
 20
-282.8311
 10
578.9845
 20
-282.8648
 10
578.932
 20
-282.8905
 10
578.872
 20
-282.9074
 10
578.8061
 20
-282.915
 10
578.7361
 20
-282.9127
 10
578.6635
 20
-282.8997
 10
578.5935
 20
-282.8768
 10
578.5307
 20
-282.8457
 10
578.4764
 20
-282.8079
 10
578.4316
 20
-282.7646
 10
578.3976
 20
-282.7172
 10
578.3755
 20
-282.6671
 10
578.3666
 20
-282.6155
 10
578.3719
 20
-282.5639
 10
578.3917
 20
-282.516
 10
578.424
 20
-282.4749
 10
578.4673
 20
-282.4412
 10
578.5198
 20
-282.4155
 10
578.5798
 20
-282.3985
 10
578.6457
 20
-282.3909
 10
578.7159
 20
-282.3932
 10
578.7885
 20
-282.4061
  0
LWPOLYLINE
  5
CC
330
1F
100
AcDbEntity
  8
Layer 1
 62
     7
370
    18
100
AcDbPolyline
 90
       33
 70
     1
 43
0.0
 10
577.8041
 20
-283.6666
 10
577.8741
 20
-283.6895
 10
577.9369
 20
-283.7206
 10
577.9913
 20
-283.7584
 10
578.036
 20
-283.8018
 10
578.07
 20
-283.8491
 10
578.092
 20
-283.8993
 10
578.1009
 20
-283.9508
 10
578.0955
 20
-284.0023
 10
578.0757
 20
-284.0502
 10
578.0433
 20
-284.0913
 10
578.0001
 20
-284.125
 10
577.9476
 20
-284.1507
 10
577.8876
 20
-284.1677
 10
577.8217
 20
-284.1754
 10
577.7517
 20
-284.1731
 10
577.6791
 20
-284.1602
 10
577.6091
 20
-284.1373
 10
577.5463
 20
-284.1062
 10
577.492
 20
-284.0683
 10
577.4472
 20
-284.025
 10
577.4132
 20
-283.9776
 10
577.3911
 20
-283.9274
 10
577.3822
 20
-283.8759
 10
577.3875
 20
-283.8244
 10
577.4073
 20
-283.7764
 10
577.4396
 20
-283.7353
 10
577.4829
 20
-283.7015
 10
577.5354
 20
-283.6759
 10
577.5954
 20
-283.659
 10
577.6613
 20
-283.6513
 10
577.7315
 20
-283.6537
 10
577.8041
 20
-283.6666
  0
LWPOLYLINE
  5
CD
330
1F
100
AcDbEntity
  8
Layer 1
 62
     7
370
    18
100
AcDbPolyline
 90
       33
 70
     1
 43
0.0
 10
576.7403
 20
-285.4103
 10
576.8103
 20
-285.4332
 10
576.8731
 20
-285.4643
 10
576.9274
 20
-285.5022
 10
576.9721
 20
-285.5455
 10
577.0061
 20
-285.5929
 10
577.0281
 20
-285.6431
 10
577.037
 20
-285.6946
 10
577.0316
 20
-285.7461
 10
577.0118
 20
-285.794
 10
576.9795
 20
-285.8351
 10
576.9362
 20
-285.8688
 10
576.8837
 20
-285.8944
 10
576.8237
 20
-285.9114
 10
576.7578
 20
-285.9191
 10
576.6878
 20
-285.9168
 10
576.6152
 20
-285.9039
 10
576.5452
 20
-285.881
 10
576.4824
 20
-285.8499
 10
576.4281
 20
-285.812
 10
576.3833
 20
-285.7687
 10
576.3493
 20
-285.7213
 10
576.3272
 20
-285.6711
 10
576.3183
 20
-285.6196
 10
576.3236
 20
-285.5681
 10
576.3434
 20
-285.5201
 10
576.3757
 20
-285.479
 10
576.419
 20
-285.4452
 10
576.4715
 20
-285.4196
 10
576.5315
 20
-285.4027
 10
576.5975
 20
-285.395
 10
576.6676
 20
-285.3974
 10
576.7403
 20
-285.4103
  0
LWPOLYLINE
  5
CE
330
1F
100
AcDbEntity
  8
Layer 1
 62
     7
370
    18
100
AcDbPolyline
 90
       33
 70
     1
 43
0.0
 10
576.333
 20
-286.9282
 10
576.403
 20
-286.9511
 10
576.4658
 20
-286.9822
 10
576.5202
 20
-287.0201
 10
576.5649
 20
-287.0634
 10
576.5989
 20
-287.1108
 10
576.6209
 20
-287.161
 10
576.6298
 20
-287.2125
 10
576.6244
 20
-287.264
 10
576.6046
 20
-287.3119
 10
576.5722
 20
-287.353
 10
576.529
 20
-287.3867
 10
576.4765
 20
-287.4124
 10
576.4165
 20
-287.4294
 10
576.3506
 20
-287.437
 10
576.2806
 20
-287.4347
 10
576.208
 20
-287.4218
 10
576.138
 20
-287.3989
 10
576.0752
 20
-287.3678
 10
576.0209
 20
-287.33
 10
575.9761
 20
-287.2867
 10
575.9422
 20
-287.2393
 10
575.9202
 20
-287.1891
 10
575.9113
 20
-287.1376
 10
575.9167
 20
-287.0861
 10
575.9364
 20
-287.0382
 10
575.9687
 20
-286.9971
 10
576.012
 20
-286.9634
 10
576.0644
 20
-286.9377
 10
576.1245
 20
-286.9207
 10
576.1904
 20
-286.913
 10
576.2604
 20
-286.9153
 10
576.333
 20
-286.9282
  0
LWPOLYLINE
  5
CF
330
1F
100
AcDbEntity
  8
Layer 1
 62
     7
370
    18
100
AcDbPolyline
 90
       33
 70
     1
 43
0.0
 10
576.2276
 20
-288.5601
 10
576.2977
 20
-288.583
 10
576.3605
 20
-288.6141
 10
576.4149
 20
-288.652
 10
576.4597
 20
-288.6953
 10
576.4937
 20
-288.7427
 10
576.5157
 20
-288.7929
 10
576.5246
 20
-288.8444
 10
576.5192
 20
-288.8959
 10
576.4994
 20
-288.9438
 10
576.4671
 20
-288.9849
 10
576.4238
 20
-289.0186
 10
576.3713
 20
-289.0443
 10
576.3113
 20
-289.0613
 10
576.2454
 20
-289.0689
 10
576.1754
 20
-289.0666
 10
576.1028
 20
-289.0537
 10
576.0328
 20
-289.0308
 10
575.97
 20
-288.9997
 10
575.9156
 20
-288.9619
 10
575.8708
 20
-288.9186
 10
575.8368
 20
-288.8712
 10
575.8147
 20
-288.821
 10
575.8058
 20
-288.7695
 10
575.8112
 20
-288.718
 10
575.831
 20
-288.6701
 10
575.8633
 20
-288.629
 10
575.9066
 20
-288.5953
 10
575.9591
 20
-288.5696
 10
576.0191
 20
-288.5526
 10
576.085
 20
-288.5449
 10
576.155
 20
-288.5472
 10
576.2276
 20
-288.5601
  0
LWPOLYLINE
  5
D0
330
1F
100
AcDbEntity
  8
Layer 1
 62
     7
370
    18
100
AcDbPolyline
 90
       33
 70
     1
 43
0.0
 10
576.7216
 20
-289.9699
 10
576.7916
 20
-289.9928
 10
576.8544
 20
-290.0239
 10
576.9088
 20
-290.0617
 10
576.9535
 20
-290.105
 10
576.9875
 20
-290.1524
 10
577.0095
 20
-290.2026
 10
577.0184
 20
-290.2541
 10
577.013
 20
-290.3057
 10
576.9933
 20
-290.3536
 10
576.9609
 20
-290.3947
 10
576.9177
 20
-290.4284
 10
576.8652
 20
-290.4541
 10
576.8051
 20
-290.4711
 10
576.7392
 20
-290.4787
 10
576.6692
 20
-290.4764
 10
576.5966
 20
-290.4635
 10
576.5266
 20
-290.4405
 10
576.4638
 20
-290.4093
 10
576.4094
 20
-290.3715
 10
576.3647
 20
-290.3282
 10
576.3307
 20
-290.2808
 10
576.3087
 20
-290.2307
 10
576.2998
 20
-290.1792
 10
576.3052
 20
-290.1277
 10
576.325
 20
-290.0797
 10
576.3574
 20
-290.0385
 10
576.4007
 20
-290.0048
 10
576.4531
 20
-289.9791
 10
576.5131
 20
-289.9622
 10
576.579
 20
-289.9546
 10
576.6491
 20
-289.9569
 10
576.7216
 20
-289.9699
  0
LWPOLYLINE
  5
D1
330
1F
100
AcDbEntity
  8
Layer 1
 62
     7
370
    18
100
AcDbPolyline
 90
       33
 70
     1
 43
0.0
 10
578.0643
 20
-290.9976
 10
578.1343
 20
-291.0206
 10
578.1971
 20
-291.0518
 10
578.2515
 20
-291.0896
 10
578.2962
 20
-291.133
 10
578.3302
 20
-291.1803
 10
578.3522
 20
-291.2304
 10
578.3611
 20
-291.2819
 10
578.3557
 20
-291.3334
 10
578.3359
 20
-291.3814
 10
578.3035
 20
-291.4226
 10
578.2602
 20
-291.4563
 10
578.2078
 20
-291.482
 10
578.1478
 20
-291.499
 10
578.0819
 20
-291.5066
 10
578.0118
 20
-291.5042
 10
577.9393
 20
-291.4912
 10
577.8693
 20
-291.4683
 10
577.8065
 20
-291.4373
 10
577.7521
 20
-291.3994
 10
577.7074
 20
-291.3561
 10
577.6734
 20
-291.3087
 10
577.6514
 20
-291.2586
 10
577.6425
 20
-291.207
 10
577.6479
 20
-291.1554
 10
577.6676
 20
-291.1075
 10
577.7
 20
-291.0664
 10
577.7432
 20
-291.0327
 10
577.7957
 20
-291.0071
 10
577.8558
 20
-290.9901
 10
577.9217
 20
-290.9824
 10
577.9917
 20
-290.9847
 10
578.0643
 20
-290.9976
  0
LWPOLYLINE
  5
D2
330
1F
100
AcDbEntity
  8
Layer 1
 62
     7
370
    18
100
AcDbPolyline
 90
       33
 70
     1
 43
0.0
 10
579.8047
 20
-291.5515
 10
579.8748
 20
-291.5744
 10
579.9376
 20
-291.6055
 10
579.992
 20
-291.6434
 10
580.0368
 20
-291.6867
 10
580.0708
 20
-291.7341
 10
580.0929
 20
-291.7843
 10
580.1018
 20
-291.8358
 10
580.0964
 20
-291.8873
 10
580.0766
 20
-291.9352
 10
580.0443
 20
-291.9763
 10
580.001
 20
-292.01
 10
579.9485
 20
-292.0357
 10
579.8885
 20
-292.0527
 10
579.8226
 20
-292.0603
 10
579.7526
 20
-292.058
 10
579.68
 20
-292.0451
 10
579.6099
 20
-292.0221
 10
579.5471
 20
-291.991
 10
579.4927
 20
-291.9531
 10
579.4479
 20
-291.9098
 10
579.4139
 20
-291.8625
 10
579.3919
 20
-291.8124
 10
579.383
 20
-291.7609
 10
579.3884
 20
-291.7094
 10
579.4082
 20
-291.6614
 10
579.4405
 20
-291.6203
 10
579.4838
 20
-291.5865
 10
579.5363
 20
-291.5609
 10
579.5963
 20
-291.5439
 10
579.6621
 20
-291.5363
 10
579.7322
 20
-291.5386
 10
579.8047
 20
-291.5515
  0
LWPOLYLINE
  5
D3
330
1F
100
AcDbEntity
  8
Layer 1
 62
     7
370
    18
100
AcDbPolyline
 90
       33
 70
     1
 43
0.0
 10
581.7638
 20
-291.6247
 10
581.8338
 20
-291.6476
 10
581.8966
 20
-291.6787
 10
581.9509
 20
-291.7165
 10
581.9957
 20
-291.7599
 10
582.0297
 20
-291.8072
 10
582.0518
 20
-291.8574
 10
582.0607
 20
-291.9089
 10
582.0554
 20
-291.9604
 10
582.0356
 20
-292.0083
 10
582.0033
 20
-292.0494
 10
581.96
 20
-292.0831
 10
581.9075
 20
-292.1088
 10
581.8475
 20
-292.1258
 10
581.7816
 20
-292.1335
 10
581.7116
 20
-292.1312
 10
581.639
 20
-292.1183
 10
581.5689
 20
-292.0954
 10
581.5061
 20
-292.0643
 10
581.4517
 20
-292.0264
 10
581.4069
 20
-291.9831
 10
581.3729
 20
-291.9357
 10
581.3509
 20
-291.8855
 10
581.342
 20
-291.834
 10
581.3474
 20
-291.7825
 10
581.3672
 20
-291.7346
 10
581.3995
 20
-291.6935
 10
581.4428
 20
-291.6598
 10
581.4953
 20
-291.6341
 10
581.5553
 20
-291.6171
 10
581.6212
 20
-291.6095
 10
581.6912
 20
-291.6118
 10
581.7638
 20
-291.6247
  0
LWPOLYLINE
  5
D4
330
1F
100
AcDbEntity
  8
Layer 1
 62
     7
370
    18
100
AcDbPolyline
 90
       33
 70
     1
 43
0.0
 10
583.7283
 20
-291.3227
 10
583.7983
 20
-291.3457
 10
583.8611
 20
-291.3769
 10
583.9154
 20
-291.4147
 10
583.9602
 20
-291.4581
 10
583.9941
 20
-291.5054
 10
584.0161
 20
-291.5555
 10
584.025
 20
-291.607
 10
584.0196
 20
-291.6585
 10
583.9998
 20
-291.7065
 10
583.9675
 20
-291.7476
 10
583.9242
 20
-291.7814
 10
583.8718
 20
-291.807
 10
583.8117
 20
-291.8239
 10
583.7459
 20
-291.8316
 10
583.6758
 20
-291.8292
 10
583.6033
 20
-291.8163
 10
583.5333
 20
-291.7934
 10
583.4705
 20
-291.7624
 10
583.4161
 20
-291.7245
 10
583.3714
 20
-291.6812
 10
583.3374
 20
-291.6338
 10
583.3154
 20
-291.5837
 10
583.3065
 20
-291.5321
 10
583.3119
 20
-291.4805
 10
583.3316
 20
-291.4326
 10
583.3639
 20
-291.3915
 10
583.4072
 20
-291.3578
 10
583.4597
 20
-291.3322
 10
583.5197
 20
-291.3152
 10
583.5856
 20
-291.3075
 10
583.6557
 20
-291.3098
 10
583.7283
 20
-291.3227
  0
LWPOLYLINE
  5
D5
330
1F
100
AcDbEntity
  8
Layer 1
 62
     7
370
    18
100
AcDbPolyline
 90
       33
 70
     1
 43
0.0
 10
585.0994
 20
-291.064
 10
585.1695
 20
-291.0869
 10
585.2323
 20
-291.118
 10
585.2867
 20
-291.1559
 10
585.3315
 20
-291.1992
 10
585.3655
 20
-291.2466
 10
585.3876
 20
-291.2968
 10
585.3965
 20
-291.3483
 10
585.3911
 20
-291.3998
 10
585.3713
 20
-291.4477
 10
585.3389
 20
-291.4888
 10
585.2956
 20
-291.5225
 10
585.2432
 20
-291.5482
 10
585.1832
 20
-291.5652
 10
585.1173
 20
-291.5728
 10
585.0472
 20
-291.5705
 10
584.9747
 20
-291.5576
 10
584.9046
 20
-291.5346
 10
584.8418
 20
-291.5035
 10
584.7874
 20
-291.4656
 10
584.7426
 20
-291.4223
 10
584.7086
 20
-291.375
 10
584.6865
 20
-291.3249
 10
584.6776
 20
-291.2734
 10
584.683
 20
-291.2219
 10
584.7028
 20
-291.1739
 10
584.7352
 20
-291.1328
 10
584.7785
 20
-291.099
 10
584.8309
 20
-291.0734
 10
584.8909
 20
-291.0564
 10
584.9568
 20
-291.0488
 10
585.0269
 20
-291.0511
 10
585.0994
 20
-291.064
  0
LWPOLYLINE
  5
D6
330
1F
100
AcDbEntity
  8
Layer 1
 62
     7
370
    18
100
AcDbPolyline
 90
       33
 70
     1
 43
0.0
 10
586.2572
 20
-290.7149
 10
586.3272
 20
-290.7378
 10
586.39
 20
-290.7689
 10
586.4443
 20
-290.8067
 10
586.4891
 20
-290.8501
 10
586.523
 20
-290.8974
 10
586.545
 20
-290.9476
 10
586.5539
 20
-290.9991
 10
586.5485
 20
-291.0506
 10
586.5287
 20
-291.0985
 10
586.4964
 20
-291.1396
 10
586.4531
 20
-291.1733
 10
586.4006
 20
-291.199
 10
586.3406
 20
-291.216
 10
586.2747
 20
-291.2237
 10
586.2047
 20
-291.2214
 10
586.1321
 20
-291.2085
 10
586.0621
 20
-291.1855
 10
585.9993
 20
-291.1543
 10
585.945
 20
-291.1165
 10
585.9002
 20
-291.0732
 10
585.8662
 20
-291.0258
 10
585.8441
 20
-290.9757
 10
585.8352
 20
-290.9242
 10
585.8405
 20
-290.8727
 10
585.8603
 20
-290.8247
 10
585.8926
 20
-290.7836
 10
585.9359
 20
-290.7498
 10
585.9884
 20
-290.7242
 10
586.0484
 20
-290.7073
 10
586.1144
 20
-290.6996
 10
586.1845
 20
-290.702
 10
586.2572
 20
-290.7149
  0
LWPOLYLINE
  5
D7
330
1F
100
AcDbEntity
  8
Layer 1
 62
     7
370
    18
100
AcDbPolyline
 90
       33
 70
     1
 43
0.0
 10
588.938
 20
-289.7182
 10
589.008
 20
-289.7411
 10
589.0708
 20
-289.7722
 10
589.1252
 20
-289.8101
 10
589.17
 20
-289.8534
 10
589.204
 20
-289.9008
 10
589.2261
 20
-289.951
 10
589.235
 20
-290.0025
 10
589.2296
 20
-290.054
 10
589.2098
 20
-290.1019
 10
589.1775
 20
-290.143
 10
589.1342
 20
-290.1767
 10
589.0818
 20
-290.2024
 10
589.0217
 20
-290.2194
 10
588.9559
 20
-290.227
 10
588.8858
 20
-290.2247
 10
588.8133
 20
-290.2118
 10
588.7432
 20
-290.1888
 10
588.6804
 20
-290.1577
 10
588.626
 20
-290.1198
 10
588.5812
 20
-290.0765
 10
588.5472
 20
-290.0292
 10
588.5251
 20
-289.9791
 10
588.5162
 20
-289.9276
 10
588.5216
 20
-289.8761
 10
588.5414
 20
-289.8281
 10
588.5737
 20
-289.787
 10
588.617
 20
-289.7532
 10
588.6695
 20
-289.7276
 10
588.7295
 20
-289.7106
 10
588.7954
 20
-289.703
 10
588.8654
 20
-289.7053
 10
588.938
 20
-289.7182
  0
LWPOLYLINE
  5
D8
330
1F
100
AcDbEntity
  8
Layer 1
 62
     7
370
    18
100
AcDbPolyline
 90
       33
 70
     1
 43
0.0
 10
590.5412
 20
-288.9145
 10
590.6112
 20
-288.9374
 10
590.674
 20
-288.9685
 10
590.7283
 20
-289.0064
 10
590.773
 20
-289.0497
 10
590.807
 20
-289.0971
 10
590.829
 20
-289.1472
 10
590.8379
 20
-289.1987
 10
590.8325
 20
-289.2502
 10
590.8127
 20
-289.2982
 10
590.7804
 20
-289.3393
 10
590.7371
 20
-289.3731
 10
590.6846
 20
-289.3987
 10
590.6246
 20
-289.4157
 10
590.5587
 20
-289.4233
 10
590.4887
 20
-289.421
 10
590.4161
 20
-289.4081
 10
590.3461
 20
-289.3852
 10
590.2833
 20
-289.3541
 10
590.229
 20
-289.3162
 10
590.1842
 20
-289.2729
 10
590.1503
 20
-289.2255
 10
590.1283
 20
-289.1753
 10
590.1194
 20
-289.1238
 10
590.1248
 20
-289.0723
 10
590.1445
 20
-289.0244
 10
590.1768
 20
-288.9833
 10
590.2201
 20
-288.9496
 10
590.2726
 20
-288.9239
 10
590.3326
 20
-288.9069
 10
590.3985
 20
-288.8993
 10
590.4686
 20
-288.9016
 10
590.5412
 20
-288.9145
  0
LWPOLYLINE
  5
D9
330
1F
100
AcDbEntity
  8
Layer 1
 62
     7
370
    18
100
AcDbPolyline
 90
       33
 70
     1
 43
0.0
 10
591.9847
 20
-288.0577
 10
592.0547
 20
-288.0806
 10
592.1175
 20
-288.1117
 10
592.1719
 20
-288.1496
 10
592.2166
 20
-288.1929
 10
592.2506
 20
-288.2403
 10
592.2726
 20
-288.2905
 10
592.2815
 20
-288.342
 10
592.2761
 20
-288.3935
 10
592.2563
 20
-288.4415
 10
592.2239
 20
-288.4826
 10
592.1807
 20
-288.5164
 10
592.1282
 20
-288.542
 10
592.0682
 20
-288.5589
 10
592.0023
 20
-288.5666
 10
591.9323
 20
-288.5642
 10
591.8597
 20
-288.5513
 10
591.7897
 20
-288.5284
 10
591.7269
 20
-288.4973
 10
591.6726
 20
-288.4594
 10
591.6278
 20
-288.4161
 10
591.5938
 20
-288.3687
 10
591.5717
 20
-288.3185
 10
591.5628
 20
-288.267
 10
591.5681
 20
-288.2155
 10
591.5879
 20
-288.1676
 10
591.6203
 20
-288.1265
 10
591.6636
 20
-288.0928
 10
591.7161
 20
-288.0672
 10
591.7762
 20
-288.0502
 10
591.8421
 20
-288.0425
 10
591.9121
 20
-288.0448
 10
591.9847
 20
-288.0577
  0
LWPOLYLINE
  5
DA
330
1F
100
AcDbEntity
  8
Layer 1
 62
     7
370
    18
100
AcDbPolyline
 90
       33
 70
     1
 43
0.0
 10
593.5396
 20
-287.136
 10
593.6097
 20
-287.1589
 10
593.6725
 20
-287.19
 10
593.7269
 20
-287.2279
 10
593.7717
 20
-287.2712
 10
593.8057
 20
-287.3186
 10
593.8278
 20
-287.3688
 10
593.8367
 20
-287.4203
 10
593.8313
 20
-287.4718
 10
593.8115
 20
-287.5198
 10
593.7791
 20
-287.5609
 10
593.7358
 20
-287.5947
 10
593.6834
 20
-287.6203
 10
593.6234
 20
-287.6372
 10
593.5575
 20
-287.6449
 10
593.4874
 20
-287.6425
 10
593.4149
 20
-287.6296
 10
593.3448
 20
-287.6067
 10
593.2819
 20
-287.5756
 10
593.2275
 20
-287.5378
 10
593.1827
 20
-287.4945
 10
593.1487
 20
-287.4471
 10
593.1267
 20
-287.3969
 10
593.1178
 20
-287.3454
 10
593.1232
 20
-287.2939
 10
593.143
 20
-287.246
 10
593.1754
 20
-287.2049
 10
593.2187
 20
-287.1712
 10
593.2711
 20
-287.1455
 10
593.3311
 20
-287.1285
 10
593.397
 20
-287.1208
 10
593.4671
 20
-287.1231
 10
593.5396
 20
-287.136
  0
LWPOLYLINE
  5
DB
330
1F
100
AcDbEntity
  8
Layer 1
 62
     7
370
    18
100
AcDbPolyline
 90
       33
 70
     1
 43
0.0
 10
595.0939
 20
-286.0187
 10
595.1639
 20
-286.0416
 10
595.2267
 20
-286.0727
 10
595.281
 20
-286.1106
 10
595.3258
 20
-286.1539
 10
595.3597
 20
-286.2013
 10
595.3817
 20
-286.2515
 10
595.3906
 20
-286.303
 10
595.3852
 20
-286.3545
 10
595.3655
 20
-286.4024
 10
595.3332
 20
-286.4435
 10
595.2899
 20
-286.4772
 10
595.2375
 20
-286.5029
 10
595.1774
 20
-286.5199
 10
595.1115
 20
-286.5275
 10
595.0414
 20
-286.5252
 10
594.9688
 20
-286.5123
 10
594.8988
 20
-286.4894
 10
594.836
 20
-286.4583
 10
594.7817
 20
-286.4205
 10
594.7369
 20
-286.3772
 10
594.703
 20
-286.3298
 10
594.681
 20
-286.2796
 10
594.6721
 20
-286.2281
 10
594.6775
 20
-286.1766
 10
594.6973
 20
-286.1287
 10
594.7296
 20
-286.0876
 10
594.7729
 20
-286.0539
 10
594.8254
 20
-286.0282
 10
594.8854
 20
-286.0112
 10
594.9513
 20
-286.0035
 10
595.0213
 20
-286.0058
 10
595.0939
 20
-286.0187
  0
LWPOLYLINE
  5
DC
330
1F
100
AcDbEntity
  8
Layer 1
 62
     7
370
    18
100
AcDbPolyline
 90
       33
 70
     1
 43
0.0
 10
596.5806
 20
-284.9286
 10
596.6506
 20
-284.9515
 10
596.7134
 20
-284.9826
 10
596.7677
 20
-285.0205
 10
596.8125
 20
-285.0638
 10
596.8464
 20
-285.1112
 10
596.8684
 20
-285.1613
 10
596.8773
 20
-285.2128
 10
596.8719
 20
-285.2643
 10
596.8521
 20
-285.3123
 10
596.8198
 20
-285.3534
 10
596.7765
 20
-285.3872
 10
596.724
 20
-285.4128
 10
596.664
 20
-285.4298
 10
596.5981
 20
-285.4374
 10
596.5281
 20
-285.4351
 10
596.4555
 20
-285.4222
 10
596.3855
 20
-285.3993
 10
596.3227
 20
-285.3682
 10
596.2684
 20
-285.3303
 10
596.2236
 20
-285.287
 10
596.1897
 20
-285.2396
 10
596.1677
 20
-285.1894
 10
596.1588
 20
-285.1379
 10
596.1642
 20
-285.0864
 10
596.184
 20
-285.0385
 10
596.2163
 20
-284.9974
 10
596.2596
 20
-284.9637
 10
596.3121
 20
-284.938
 10
596.3721
 20
-284.921
 10
596.438
 20
-284.9134
 10
596.508
 20
-284.9157
 10
596.5806
 20
-284.9286
  0
LWPOLYLINE
  5
DD
330
1F
100
AcDbEntity
  8
Layer 1
 62
     7
370
    18
100
AcDbPolyline
 90
       33
 70
     1
 43
0.0
 10
598.2816
 20
-283.5301
 10
598.3517
 20
-283.553
 10
598.4145
 20
-283.5841
 10
598.4689
 20
-283.6219
 10
598.5137
 20
-283.6653
 10
598.5477
 20
-283.7126
 10
598.5697
 20
-283.7628
 10
598.5786
 20
-283.8143
 10
598.5732
 20
-283.8658
 10
598.5534
 20
-283.9138
 10
598.5211
 20
-283.9549
 10
598.4778
 20
-283.9887
 10
598.4253
 20
-284.0143
 10
598.3653
 20
-284.0313
 10
598.2994
 20
-284.0389
 10
598.2294
 20
-284.0366
 10
598.1568
 20
-284.0237
 10
598.0868
 20
-284.0008
 10
598.024
 20
-283.9697
 10
597.9696
 20
-283.9318
 10
597.9248
 20
-283.8885
 10
597.8908
 20
-283.8411
 10
597.8687
 20
-283.7909
 10
597.8598
 20
-283.7394
 10
597.8652
 20
-283.6879
 10
597.885
 20
-283.64
 10
597.9173
 20
-283.5989
 10
597.9606
 20
-283.5652
 10
598.0131
 20
-283.5395
 10
598.0731
 20
-283.5225
 10
598.139
 20
-283.5149
 10
598.209
 20
-283.5172
 10
598.2816
 20
-283.5301
  0
LWPOLYLINE
  5
DE
330
1F
100
AcDbEntity
  8
Layer 1
 62
     7
370
    18
100
AcDbPolyline
 90
       33
 70
     1
 43
0.0
 10
599.8957
 20
-282.0746
 10
599.9657
 20
-282.0976
 10
600.0285
 20
-282.1287
 10
600.0829
 20
-282.1666
 10
600.1277
 20
-282.2099
 10
600.1617
 20
-282.2573
 10
600.1837
 20
-282.3074
 10
600.1927
 20
-282.3589
 10
600.1874
 20
-282.4104
 10
600.1676
 20
-282.4584
 10
600.1352
 20
-282.4995
 10
600.0918
 20
-282.5332
 10
600.0393
 20
-282.5589
 10
599.9792
 20
-282.5758
 10
599.9133
 20
-282.5834
 10
599.8433
 20
-282.5811
 10
599.7707
 20
-282.5682
 10
599.7007
 20
-282.5453
 10
599.6379
 20
-282.5142
 10
599.5835
 20
-282.4764
 10
599.5388
 20
-282.4331
 10
599.5048
 20
-282.3857
 10
599.4828
 20
-282.3356
 10
599.4739
 20
-282.284
 10
599.4793
 20
-282.2324
 10
599.4991
 20
-282.1845
 10
599.5315
 20
-282.1434
 10
599.5748
 20
-282.1097
 10
599.6272
 20
-282.084
 10
599.6872
 20
-282.067
 10
599.7531
 20
-282.0594
 10
599.8232
 20
-282.0617
 10
599.8957
 20
-282.0746
  0
LWPOLYLINE
  5
DF
330
1F
100
AcDbEntity
  8
Layer 1
 62
     7
370
    18
100
AcDbPolyline
 90
       33
 70
     1
 43
0.0
 10
602.3133
 20
-279.0591
 10
602.3833
 20
-279.082
 10
602.4461
 20
-279.1131
 10
602.5005
 20
-279.151
 10
602.5452
 20
-279.1943
 10
602.5792
 20
-279.2417
 10
602.6012
 20
-279.2919
 10
602.6101
 20
-279.3434
 10
602.6047
 20
-279.3949
 10
602.5849
 20
-279.4429
 10
602.5525
 20
-279.484
 10
602.5092
 20
-279.5178
 10
602.4568
 20
-279.5434
 10
602.3968
 20
-279.5603
 10
602.3309
 20
-279.568
 10
602.2608
 20
-279.5656
 10
602.1883
 20
-279.5527
 10
602.1183
 20
-279.5298
 10
602.0555
 20
-279.4987
 10
602.0011
 20
-279.4608
 10
601.9564
 20
-279.4175
 10
601.9223
 20
-279.3701
 10
601.9003
 20
-279.3199
 10
601.8913
 20
-279.2684
 10
601.8966
 20
-279.2169
 10
601.9164
 20
-279.169
 10
601.9488
 20
-279.1279
 10
601.9921
 20
-279.0942
 10
602.0446
 20
-279.0686
 10
602.1046
 20
-279.0516
 10
602.1705
 20
-279.0439
 10
602.2407
 20
-279.0462
 10
602.3133
 20
-279.0591
  0
LWPOLYLINE
  5
E0
330
1F
100
AcDbEntity
  8
Layer 1
 62
     7
370
    18
100
AcDbPolyline
 90
       33
 70
     1
 43
0.0
 10
601.4133
 20
-280.5835
 10
601.4833
 20
-280.6064
 10
601.5461
 20
-280.6375
 10
601.6005
 20
-280.6753
 10
601.6453
 20
-280.7187
 10
601.6793
 20
-280.766
 10
601.7013
 20
-280.8162
 10
601.7103
 20
-280.8677
 10
601.705
 20
-280.9192
 10
601.6852
 20
-280.9671
 10
601.6528
 20
-281.0082
 10
601.6094
 20
-281.0419
 10
601.5569
 20
-281.0676
 10
601.4968
 20
-281.0846
 10
601.4309
 20
-281.0922
 10
601.3609
 20
-281.0899
 10
601.2883
 20
-281.077
 10
601.2183
 20
-281.0541
 10
601.1555
 20
-281.023
 10
601.1011
 20
-280.9852
 10
601.0564
 20
-280.9419
 10
601.0224
 20
-280.8945
 10
601.0004
 20
-280.8443
 10
600.9915
 20
-280.7928
 10
600.9969
 20
-280.7413
 10
601.0167
 20
-280.6934
 10
601.0491
 20
-280.6523
 10
601.0924
 20
-280.6186
 10
601.1448
 20
-280.5929
 10
601.2048
 20
-280.5759
 10
601.2707
 20
-280.5683
 10
601.3408
 20
-280.5706
 10
601.4133
 20
-280.5835
  0
LWPOLYLINE
  5
E1
330
1F
100
AcDbEntity
  8
Layer 1
 62
     7
370
    18
100
AcDbPolyline
 90
       33
 70
     1
 43
0.0
 10
602.8422
 20
-277.4528
 10
602.9122
 20
-277.4758
 10
602.975
 20
-277.507
 10
603.0294
 20
-277.5448
 10
603.0741
 20
-277.5882
 10
603.1081
 20
-277.6355
 10
603.1301
 20
-277.6856
 10
603.139
 20
-277.7371
 10
603.1336
 20
-277.7886
 10
603.1138
 20
-277.8366
 10
603.0814
 20
-277.8777
 10
603.0381
 20
-277.9115
 10
602.9857
 20
-277.9371
 10
602.9257
 20
-277.954
 10
602.8598
 20
-277.9617
 10
602.7897
 20
-277.9593
 10
602.7172
 20
-277.9464
 10
602.6472
 20
-277.9235
 10
602.5844
 20
-277.8924
 10
602.53
 20
-277.8545
 10
602.4853
 20
-277.8112
 10
602.4513
 20
-277.7638
 10
602.4293
 20
-277.7136
 10
602.4204
 20
-277.6621
 10
602.4258
 20
-277.6106
 10
602.4455
 20
-277.5627
 10
602.4779
 20
-277.5216
 10
602.5211
 20
-277.4879
 10
602.5736
 20
-277.4623
 10
602.6337
 20
-277.4453
 10
602.6996
 20
-277.4376
 10
602.7696
 20
-277.4399
 10
602.8422
 20
-277.4528
  0
LWPOLYLINE
  5
E2
330
1F
100
AcDbEntity
  8
Layer 1
 62
     7
370
    18
100
AcDbPolyline
 90
       33
 70
     1
 43
0.0
 10
603.0085
 20
-275.8748
 10
603.0785
 20
-275.8977
 10
603.1413
 20
-275.9288
 10
603.1957
 20
-275.9667
 10
603.2405
 20
-276.01
 10
603.2745
 20
-276.0574
 10
603.2965
 20
-276.1076
 10
603.3055
 20
-276.1591
 10
603.3002
 20
-276.2106
 10
603.2804
 20
-276.2586
 10
603.248
 20
-276.2997
 10
603.2047
 20
-276.3335
 10
603.1522
 20
-276.3591
 10
603.0922
 20
-276.376
 10
603.0263
 20
-276.3837
 10
602.9561
 20
-276.3813
 10
602.8835
 20
-276.3684
 10
602.8135
 20
-276.3455
 10
602.7507
 20
-276.3144
 10
602.6963
 20
-276.2766
 10
602.6516
 20
-276.2333
 10
602.6176
 20
-276.1859
 10
602.5956
 20
-276.1357
 10
602.5867
 20
-276.0842
 10
602.5921
 20
-276.0327
 10
602.6119
 20
-275.9848
 10
602.6443
 20
-275.9437
 10
602.6876
 20
-275.91
 10
602.74
 20
-275.8843
 10
602.8
 20
-275.8673
 10
602.8659
 20
-275.8596
 10
602.936
 20
-275.8619
 10
603.0085
 20
-275.8748
  0
LWPOLYLINE
  5
E3
330
1F
100
AcDbEntity
  8
Layer 1
 62
     7
370
    18
100
AcDbPolyline
 90
       33
 70
     1
 43
0.0
 10
602.62
 20
-274.2378
 10
602.69
 20
-274.2608
 10
602.7528
 20
-274.2919
 10
602.8071
 20
-274.3298
 10
602.8519
 20
-274.3731
 10
602.8859
 20
-274.4204
 10
602.908
 20
-274.4705
 10
602.9169
 20
-274.522
 10
602.9116
 20
-274.5735
 10
602.8918
 20
-274.6215
 10
602.8595
 20
-274.6627
 10
602.8162
 20
-274.6964
 10
602.7637
 20
-274.7221
 10
602.7037
 20
-274.7391
 10
602.6378
 20
-274.7467
 10
602.5678
 20
-274.7444
 10
602.4952
 20
-274.7314
 10
602.4251
 20
-274.7085
 10
602.3623
 20
-274.6774
 10
602.3079
 20
-274.6396
 10
602.2631
 20
-274.5963
 10
602.2291
 20
-274.5489
 10
602.2071
 20
-274.4988
 10
602.1982
 20
-274.4472
 10
602.2036
 20
-274.3956
 10
602.2234
 20
-274.3477
 10
602.2557
 20
-274.3066
 10
602.299
 20
-274.2729
 10
602.3515
 20
-274.2472
 10
602.4115
 20
-274.2302
 10
602.4774
 20
-274.2226
 10
602.5474
 20
-274.2249
 10
602.62
 20
-274.2378
  0
LWPOLYLINE
  5
E4
330
1F
100
AcDbEntity
  8
Layer 1
 62
     7
370
    18
100
AcDbPolyline
 90
       33
 70
     1
 43
0.0
 10
601.7108
 20
-273.0477
 10
601.7808
 20
-273.0706
 10
601.8436
 20
-273.1017
 10
601.8979
 20
-273.1395
 10
601.9427
 20
-273.1829
 10
601.9767
 20
-273.2302
 10
601.9988
 20
-273.2804
 10
602.0077
 20
-273.3319
 10
602.0024
 20
-273.3834
 10
601.9826
 20
-273.4314
 10
601.9502
 20
-273.4725
 10
601.9069
 20
-273.5063
 10
601.8544
 20
-273.5319
 10
601.7943
 20
-273.5489
 10
601.7284
 20
-273.5565
 10
601.6583
 20
-273.5542
 10
601.5857
 20
-273.5413
 10
601.5157
 20
-273.5184
 10
601.4529
 20
-273.4873
 10
601.3986
 20
-273.4494
 10
601.3538
 20
-273.4061
 10
601.3199
 20
-273.3587
 10
601.2979
 20
-273.3085
 10
601.289
 20
-273.257
 10
601.2944
 20
-273.2055
 10
601.3142
 20
-273.1576
 10
601.3465
 20
-273.1165
 10
601.3898
 20
-273.0828
 10
601.4423
 20
-273.0571
 10
601.5023
 20
-273.0401
 10
601.5682
 20
-273.0325
 10
601.6382
 20
-273.0348
 10
601.7108
 20
-273.0477
  0
LWPOLYLINE
  5
E5
330
1F
100
AcDbEntity
  8
Layer 1
 62
     7
370
    18
100
AcDbPolyline
 90
       33
 70
     1
 43
0.0
 10
600.1531
 20
-272.2006
 10
600.2232
 20
-272.2235
 10
600.286
 20
-272.2546
 10
600.3404
 20
-272.2925
 10
600.3852
 20
-272.3358
 10
600.4192
 20
-272.3832
 10
600.4413
 20
-272.4334
 10
600.4502
 20
-272.4849
 10
600.4448
 20
-272.5364
 10
600.425
 20
-272.5843
 10
600.3927
 20
-272.6254
 10
600.3494
 20
-272.6591
 10
600.2969
 20
-272.6848
 10
600.2369
 20
-272.7018
 10
600.171
 20
-272.7094
 10
600.101
 20
-272.7071
 10
600.0284
 20
-272.6942
 10
599.9583
 20
-272.6713
 10
599.8955
 20
-272.6402
 10
599.8411
 20
-272.6024
 10
599.7963
 20
-272.5591
 10
599.7623
 20
-272.5117
 10
599.7403
 20
-272.4615
 10
599.7314
 20
-272.41
 10
599.7368
 20
-272.3585
 10
599.7566
 20
-272.3106
 10
599.7889
 20
-272.2695
 10
599.8322
 20
-272.2358
 10
599.8847
 20
-272.2101
 10
599.9447
 20
-272.1931
 10
600.0105
 20
-272.1854
 10
600.0806
 20
-272.1877
 10
600.1531
 20
-272.2006
  0
LWPOLYLINE
  5
E6
330
1F
100
AcDbEntity
  8
Layer 1
 62
     7
370
    18
100
AcDbPolyline
 90
       33
 70
     1
 43
0.0
 10
598.2467
 20
-272.1117
 10
598.3168
 20
-272.1346
 10
598.3796
 20
-272.1656
 10
598.434
 20
-272.2035
 10
598.4788
 20
-272.2467
 10
598.5128
 20
-272.2941
 10
598.5349
 20
-272.3443
 10
598.5438
 20
-272.3958
 10
598.5384
 20
-272.4474
 10
598.5186
 20
-272.4953
 10
598.4862
 20
-272.5364
 10
598.4429
 20
-272.5701
 10
598.3905
 20
-272.5958
 10
598.3305
 20
-272.6127
 10
598.2646
 20
-272.6203
 10
598.1945
 20
-272.618
 10
598.122
 20
-272.605
 10
598.0519
 20
-272.5821
 10
597.989
 20
-272.551
 10
597.9346
 20
-272.5132
 10
597.8898
 20
-272.4699
 10
597.8558
 20
-272.4225
 10
597.8338
 20
-272.3724
 10
597.8249
 20
-272.3208
 10
597.8303
 20
-272.2692
 10
597.8501
 20
-272.2213
 10
597.8825
 20
-272.1802
 10
597.9258
 20
-272.1465
 10
597.9782
 20
-272.1209
 10
598.0382
 20
-272.1039
 10
598.1041
 20
-272.0963
 10
598.1742
 20
-272.0987
 10
598.2467
 20
-272.1117
  0
LWPOLYLINE
  5
E7
330
1F
100
AcDbEntity
  8
Layer 1
 62
     7
370
    18
100
AcDbPolyline
 90
       33
 70
     1
 43
0.0
 10
596.1501
 20
-272.3295
 10
596.2201
 20
-272.3524
 10
596.2829
 20
-272.3835
 10
596.3373
 20
-272.4214
 10
596.382
 20
-272.4647
 10
596.416
 20
-272.5121
 10
596.438
 20
-272.5623
 10
596.4469
 20
-272.6138
 10
596.4415
 20
-272.6653
 10
596.4217
 20
-272.7132
 10
596.3893
 20
-272.7543
 10
596.346
 20
-272.788
 10
596.2936
 20
-272.8137
 10
596.2336
 20
-272.8307
 10
596.1677
 20
-272.8383
 10
596.0976
 20
-272.836
 10
596.0251
 20
-272.8231
 10
595.9551
 20
-272.8002
 10
595.8923
 20
-272.7691
 10
595.8379
 20
-272.7312
 10
595.7932
 20
-272.6879
 10
595.7592
 20
-272.6405
 10
595.7372
 20
-272.5903
 10
595.7283
 20
-272.5388
 10
595.7337
 20
-272.4873
 10
595.7534
 20
-272.4394
 10
595.7858
 20
-272.3983
 10
595.829
 20
-272.3646
 10
595.8815
 20
-272.339
 10
595.9416
 20
-272.322
 10
596.0075
 20
-272.3143
 10
596.0775
 20
-272.3166
 10
596.1501
 20
-272.3295
  0
LWPOLYLINE
  5
E8
330
1F
100
AcDbEntity
  8
Layer 1
 62
     7
370
    18
100
AcDbPolyline
 90
       33
 70
     1
 43
0.0
 10
593.7582
 20
-272.778
 10
593.8282
 20
-272.8009
 10
593.891
 20
-272.832
 10
593.9454
 20
-272.8698
 10
593.9902
 20
-272.9131
 10
594.0242
 20
-272.9605
 10
594.0463
 20
-273.0107
 10
594.0552
 20
-273.0622
 10
594.0498
 20
-273.1138
 10
594.03
 20
-273.1617
 10
593.9977
 20
-273.2028
 10
593.9544
 20
-273.2365
 10
593.902
 20
-273.2622
 10
593.8419
 20
-273.2791
 10
593.7761
 20
-273.2867
 10
593.706
 20
-273.2843
 10
593.6335
 20
-273.2713
 10
593.5634
 20
-273.2484
 10
593.5005
 20
-273.2173
 10
593.4461
 20
-273.1795
 10
593.4013
 20
-273.1362
 10
593.3673
 20
-273.0888
 10
593.3453
 20
-273.0387
 10
593.3364
 20
-272.9871
 10
593.3418
 20
-272.9355
 10
593.3616
 20
-272.8876
 10
593.394
 20
-272.8465
 10
593.4372
 20
-272.8128
 10
593.4897
 20
-272.7872
 10
593.5497
 20
-272.7703
 10
593.6156
 20
-272.7627
 10
593.6856
 20
-272.765
 10
593.7582
 20
-272.778
  0
LWPOLYLINE
  5
E9
330
1F
100
AcDbEntity
  8
Layer 1
 62
     7
370
    18
100
AcDbPolyline
 90
       33
 70
     1
 43
0.0
 10
591.6827
 20
-273.4718
 10
591.7527
 20
-273.4947
 10
591.8155
 20
-273.5257
 10
591.8699
 20
-273.5636
 10
591.9147
 20
-273.6068
 10
591.9487
 20
-273.6542
 10
591.9708
 20
-273.7044
 10
591.9797
 20
-273.7559
 10
591.9743
 20
-273.8075
 10
591.9545
 20
-273.8554
 10
591.9222
 20
-273.8965
 10
591.8789
 20
-273.9302
 10
591.8265
 20
-273.9559
 10
591.7664
 20
-273.9728
 10
591.7006
 20
-273.9804
 10
591.6305
 20
-273.9781
 10
591.558
 20
-273.9651
 10
591.4879
 20
-273.9422
 10
591.4251
 20
-273.9111
 10
591.3707
 20
-273.8733
 10
591.3259
 20
-273.83
 10
591.2919
 20
-273.7826
 10
591.2698
 20
-273.7325
 10
591.2609
 20
-273.6809
 10
591.2663
 20
-273.6293
 10
591.2861
 20
-273.5814
 10
591.3185
 20
-273.5403
 10
591.3617
 20
-273.5066
 10
591.4142
 20
-273.481
 10
591.4742
 20
-273.464
 10
591.5401
 20
-273.4564
 10
591.6101
 20
-273.4588
 10
591.6827
 20
-273.4718
  0
LWPOLYLINE
  5
EA
330
1F
100
AcDbEntity
  8
Layer 1
 62
     7
370
    18
100
AcDbPolyline
 90
       33
 70
     1
 43
0.0
 10
589.7992
 20
-274.1787
 10
589.8692
 20
-274.2016
 10
589.932
 20
-274.2326
 10
589.9863
 20
-274.2705
 10
590.0311
 20
-274.3137
 10
590.065
 20
-274.3611
 10
590.087
 20
-274.4113
 10
590.0959
 20
-274.4628
 10
590.0905
 20
-274.5144
 10
590.0707
 20
-274.5623
 10
590.0384
 20
-274.6034
 10
589.9951
 20
-274.6371
 10
589.9426
 20
-274.6628
 10
589.8826
 20
-274.6797
 10
589.8167
 20
-274.6873
 10
589.7467
 20
-274.6849
 10
589.6741
 20
-274.6719
 10
589.6041
 20
-274.649
 10
589.5413
 20
-274.618
 10
589.487
 20
-274.5801
 10
589.4422
 20
-274.5369
 10
589.4082
 20
-274.4895
 10
589.3862
 20
-274.4393
 10
589.3772
 20
-274.3878
 10
589.3825
 20
-274.3362
 10
589.4023
 20
-274.2883
 10
589.4346
 20
-274.2472
 10
589.4779
 20
-274.2135
 10
589.5304
 20
-274.1879
 10
589.5904
 20
-274.1709
 10
589.6564
 20
-274.1633
 10
589.7265
 20
-274.1657
 10
589.7992
 20
-274.1787
  0
LWPOLYLINE
  5
EB
330
1F
100
AcDbEntity
  8
Layer 1
 62
     7
370
    18
100
AcDbPolyline
 90
       33
 70
     1
 43
0.0
 10
587.7595
 20
-275.1189
 10
587.8295
 20
-275.1419
 10
587.8923
 20
-275.1731
 10
587.9467
 20
-275.2109
 10
587.9915
 20
-275.2543
 10
588.0255
 20
-275.3016
 10
588.0476
 20
-275.3517
 10
588.0565
 20
-275.4032
 10
588.0511
 20
-275.4547
 10
588.0313
 20
-275.5027
 10
587.999
 20
-275.5439
 10
587.9557
 20
-275.5776
 10
587.9032
 20
-275.6033
 10
587.8432
 20
-275.6203
 10
587.7773
 20
-275.6279
 10
587.7073
 20
-275.6255
 10
587.6347
 20
-275.6125
 10
587.5647
 20
-275.5896
 10
587.5019
 20
-275.5586
 10
587.4475
 20
-275.5207
 10
587.4027
 20
-275.4774
 10
587.3687
 20
-275.43
 10
587.3466
 20
-275.3799
 10
587.3377
 20
-275.3283
 10
587.3431
 20
-275.2767
 10
587.3629
 20
-275.2288
 10
587.3952
 20
-275.1877
 10
587.4385
 20
-275.154
 10
587.491
 20
-275.1284
 10
587.551
 20
-275.1114
 10
587.6169
 20
-275.1037
 10
587.6869
 20
-275.106
 10
587.7595
 20
-275.1189
  0
LWPOLYLINE
  5
EC
330
1F
100
AcDbEntity
  8
Layer 1
 62
     7
370
    18
100
AcDbPolyline
 90
       33
 70
     1
 43
0.0
 10
585.9404
 20
-276.1664
 10
586.0105
 20
-276.1893
 10
586.0733
 20
-276.2204
 10
586.1277
 20
-276.2583
 10
586.1725
 20
-276.3016
 10
586.2065
 20
-276.349
 10
586.2286
 20
-276.3992
 10
586.2375
 20
-276.4507
 10
586.2321
 20
-276.5022
 10
586.2123
 20
-276.5501
 10
586.18
 20
-276.5912
 10
586.1367
 20
-276.6249
 10
586.0842
 20
-276.6506
 10
586.0242
 20
-276.6676
 10
585.9583
 20
-276.6752
 10
585.8883
 20
-276.6729
 10
585.8157
 20
-276.66
 10
585.7456
 20
-276.6371
 10
585.6828
 20
-276.606
 10
585.6284
 20
-276.5681
 10
585.5836
 20
-276.5248
 10
585.5496
 20
-276.4774
 10
585.5276
 20
-276.4273
 10
585.5187
 20
-276.3758
 10
585.5241
 20
-276.3243
 10
585.5439
 20
-276.2764
 10
585.5762
 20
-276.2353
 10
585.6195
 20
-276.2016
 10
585.672
 20
-276.1759
 10
585.732
 20
-276.1589
 10
585.7978
 20
-276.1512
 10
585.8679
 20
-276.1535
 10
585.9404
 20
-276.1664
  0
LWPOLYLINE
  5
ED
330
1F
100
AcDbEntity
  8
Layer 1
 62
     7
370
    18
100
AcDbPolyline
 90
       33
 70
     1
 43
0.0
 10
583.9157
 20
-277.4345
 10
583.9858
 20
-277.4574
 10
584.0487
 20
-277.4885
 10
584.1031
 20
-277.5263
 10
584.1479
 20
-277.5696
 10
584.1818
 20
-277.617
 10
584.2039
 20
-277.6672
 10
584.2127
 20
-277.7187
 10
584.2073
 20
-277.7703
 10
584.1875
 20
-277.8182
 10
584.1552
 20
-277.8593
 10
584.1119
 20
-277.893
 10
584.0595
 20
-277.9187
 10
583.9994
 20
-277.9356
 10
583.9336
 20
-277.9432
 10
583.8635
 20
-277.9408
 10
583.791
 20
-277.9278
 10
583.7209
 20
-277.9049
 10
583.6581
 20
-277.8739
 10
583.6037
 20
-277.836
 10
583.5589
 20
-277.7928
 10
583.5249
 20
-277.7454
 10
583.5028
 20
-277.6952
 10
583.4939
 20
-277.6437
 10
583.4993
 20
-277.5921
 10
583.5191
 20
-277.5442
 10
583.5515
 20
-277.5031
 10
583.5947
 20
-277.4694
 10
583.6472
 20
-277.4437
 10
583.7072
 20
-277.4268
 10
583.7731
 20
-277.4192
 10
583.8431
 20
-277.4215
 10
583.9157
 20
-277.4345
  0
LWPOLYLINE
  5
EE
330
1F
100
AcDbEntity
  8
Layer 1
 62
     7
370
    18
100
AcDbPolyline
 90
       33
 70
     1
 43
0.0
 10
583.7176
 20
-278.6917
 10
583.7876
 20
-278.7146
 10
583.8504
 20
-278.7456
 10
583.9047
 20
-278.7835
 10
583.9495
 20
-278.8267
 10
583.9834
 20
-278.8741
 10
584.0054
 20
-278.9243
 10
584.0143
 20
-278.9758
 10
584.0089
 20
-279.0274
 10
583.9891
 20
-279.0753
 10
583.9568
 20
-279.1164
 10
583.9135
 20
-279.1501
 10
583.8611
 20
-279.1758
 10
583.801
 20
-279.1928
 10
583.7352
 20
-279.2005
 10
583.6651
 20
-279.1982
 10
583.5926
 20
-279.1853
 10
583.5226
 20
-279.1623
 10
583.4598
 20
-279.1311
 10
583.4054
 20
-279.0933
 10
583.3607
 20
-279.05
 10
583.3267
 20
-279.0026
 10
583.3047
 20
-278.9525
 10
583.2958
 20
-278.901
 10
583.3012
 20
-278.8495
 10
583.3209
 20
-278.8015
 10
583.3532
 20
-278.7604
 10
583.3965
 20
-278.7266
 10
583.449
 20
-278.701
 10
583.509
 20
-278.6841
 10
583.5749
 20
-278.6764
 10
583.645
 20
-278.6788
 10
583.7176
 20
-278.6917
  0
LWPOLYLINE
  5
EF
330
1F
100
AcDbEntity
  8
Layer 1
 62
     7
370
    18
100
AcDbPolyline
 90
       33
 70
     1
 43
0.0
 10
585.6298
 20
-277.2925
 10
585.6998
 20
-277.3154
 10
585.7626
 20
-277.3465
 10
585.817
 20
-277.3843
 10
585.8618
 20
-277.4276
 10
585.8958
 20
-277.475
 10
585.9178
 20
-277.5252
 10
585.9268
 20
-277.5767
 10
585.9215
 20
-277.6283
 10
585.9017
 20
-277.6762
 10
585.8693
 20
-277.7173
 10
585.826
 20
-277.751
 10
585.7736
 20
-277.7767
 10
585.7135
 20
-277.7936
 10
585.6476
 20
-277.8012
 10
585.5775
 20
-277.7988
 10
585.5048
 20
-277.7858
 10
585.4348
 20
-277.7629
 10
585.372
 20
-277.7319
 10
585.3177
 20
-277.694
 10
585.2729
 20
-277.6508
 10
585.239
 20
-277.6034
 10
585.217
 20
-277.5532
 10
585.2081
 20
-277.5017
 10
585.2135
 20
-277.4501
 10
585.2333
 20
-277.4022
 10
585.2656
 20
-277.3611
 10
585.3089
 20
-277.3274
 10
585.3614
 20
-277.3017
 10
585.4214
 20
-277.2848
 10
585.4872
 20
-277.2772
 10
585.5573
 20
-277.2795
 10
585.6298
 20
-277.2925
  0
LWPOLYLINE
  5
F0
330
1F
100
AcDbEntity
  8
Layer 1
 62
     7
370
    18
100
AcDbPolyline
 90
       33
 70
     1
 43
0.0
 10
587.639
 20
-276.3252
 10
587.709
 20
-276.3481
 10
587.7718
 20
-276.3792
 10
587.8262
 20
-276.417
 10
587.871
 20
-276.4604
 10
587.905
 20
-276.5077
 10
587.927
 20
-276.5579
 10
587.936
 20
-276.6094
 10
587.9307
 20
-276.6609
 10
587.9109
 20
-276.7088
 10
587.8785
 20
-276.7499
 10
587.8352
 20
-276.7836
 10
587.7828
 20
-276.8093
 10
587.7228
 20
-276.8263
 10
587.6569
 20
-276.834
 10
587.5868
 20
-276.8317
 10
587.5143
 20
-276.8188
 10
587.4442
 20
-276.7959
 10
587.3813
 20
-276.7648
 10
587.3269
 20
-276.7269
 10
587.2821
 20
-276.6836
 10
587.2481
 20
-276.6362
 10
587.2261
 20
-276.586
 10
587.2172
 20
-276.5345
 10
587.2226
 20
-276.483
 10
587.2424
 20
-276.4351
 10
587.2748
 20
-276.394
 10
587.318
 20
-276.3603
 10
587.3705
 20
-276.3346
 10
587.4305
 20
-276.3176
 10
587.4964
 20
-276.31
 10
587.5664
 20
-276.3123
 10
587.639
 20
-276.3252
  0
LWPOLYLINE
  5
F1
330
1F
100
AcDbEntity
  8
Layer 1
 62
     7
370
    18
100
AcDbPolyline
 90
       33
 70
     1
 43
0.0
 10
589.4546
 20
-275.3182
 10
589.5246
 20
-275.3411
 10
589.5874
 20
-275.3721
 10
589.6418
 20
-275.41
 10
589.6866
 20
-275.4532
 10
589.7206
 20
-275.5006
 10
589.7426
 20
-275.5508
 10
589.7516
 20
-275.6023
 10
589.7463
 20
-275.6539
 10
589.7265
 20
-275.7018
 10
589.6942
 20
-275.7429
 10
589.6509
 20
-275.7766
 10
589.5984
 20
-275.8023
 10
589.5384
 20
-275.8193
 10
589.4724
 20
-275.827
 10
589.4023
 20
-275.8247
 10
589.3296
 20
-275.8118
 10
589.2596
 20
-275.7888
 10
589.1968
 20
-275.7576
 10
589.1425
 20
-275.7198
 10
589.0977
 20
-275.6765
 10
589.0638
 20
-275.6291
 10
589.0418
 20
-275.579
 10
589.0329
 20
-275.5275
 10
589.0383
 20
-275.476
 10
589.0581
 20
-275.428
 10
589.0904
 20
-275.3869
 10
589.1337
 20
-275.3531
 10
589.1862
 20
-275.3275
 10
589.2462
 20
-275.3106
 10
589.312
 20
-275.3029
 10
589.3821
 20
-275.3053
 10
589.4546
 20
-275.3182
  0
LWPOLYLINE
  5
F2
330
1F
100
AcDbEntity
  8
Layer 1
 62
     7
370
    18
100
AcDbPolyline
 90
       33
 70
     1
 43
0.0
 10
591.2712
 20
-274.5071
 10
591.3412
 20
-274.53
 10
591.404
 20
-274.5611
 10
591.4584
 20
-274.599
 10
591.5031
 20
-274.6423
 10
591.5371
 20
-274.6897
 10
591.5591
 20
-274.7399
 10
591.5679
 20
-274.7914
 10
591.5625
 20
-274.8429
 10
591.5427
 20
-274.8908
 10
591.5104
 20
-274.9319
 10
591.4671
 20
-274.9656
 10
591.4147
 20
-274.9913
 10
591.3546
 20
-275.0083
 10
591.2888
 20
-275.0159
 10
591.2187
 20
-275.0136
 10
591.1462
 20
-275.0007
 10
591.0762
 20
-274.9778
 10
591.0134
 20
-274.9467
 10
590.959
 20
-274.9088
 10
590.9143
 20
-274.8655
 10
590.8803
 20
-274.8181
 10
590.8583
 20
-274.7679
 10
590.8494
 20
-274.7164
 10
590.8548
 20
-274.6649
 10
590.8745
 20
-274.617
 10
590.9069
 20
-274.5759
 10
590.9501
 20
-274.5422
 10
591.0026
 20
-274.5166
 10
591.0627
 20
-274.4996
 10
591.1286
 20
-274.4919
 10
591.1986
 20
-274.4942
 10
591.2712
 20
-274.5071
  0
LWPOLYLINE
  5
F3
330
1F
100
AcDbEntity
  8
Layer 1
 62
     7
370
    18
100
AcDbPolyline
 90
       33
 70
     1
 43
0.0
 10
593.203
 20
-273.7868
 10
593.2731
 20
-273.8097
 10
593.3359
 20
-273.8408
 10
593.3903
 20
-273.8786
 10
593.4351
 20
-273.9219
 10
593.4691
 20
-273.9693
 10
593.4912
 20
-274.0195
 10
593.5001
 20
-274.071
 10
593.4947
 20
-274.1226
 10
593.4749
 20
-274.1705
 10
593.4425
 20
-274.2116
 10
593.3992
 20
-274.2453
 10
593.3468
 20
-274.271
 10
593.2868
 20
-274.288
 10
593.2209
 20
-274.2956
 10
593.1508
 20
-274.2933
 10
593.0783
 20
-274.2804
 10
593.0082
 20
-274.2574
 10
592.9454
 20
-274.2263
 10
592.891
 20
-274.1884
 10
592.8462
 20
-274.1451
 10
592.8122
 20
-274.0978
 10
592.7901
 20
-274.0477
 10
592.7812
 20
-273.9962
 10
592.7866
 20
-273.9447
 10
592.8064
 20
-273.8967
 10
592.8388
 20
-273.8556
 10
592.8821
 20
-273.8218
 10
592.9345
 20
-273.7962
 10
592.9945
 20
-273.7792
 10
593.0604
 20
-273.7716
 10
593.1305
 20
-273.7739
 10
593.203
 20
-273.7868
  0
LWPOLYLINE
  5
F4
330
1F
100
AcDbEntity
  8
Layer 1
 62
     7
370
    18
100
AcDbPolyline
 90
       33
 70
     1
 43
0.0
 10
595.4176
 20
-273.3252
 10
595.4876
 20
-273.3481
 10
595.5504
 20
-273.3792
 10
595.6048
 20
-273.4171
 10
595.6496
 20
-273.4604
 10
595.6836
 20
-273.5078
 10
595.7056
 20
-273.558
 10
595.7146
 20
-273.6095
 10
595.7093
 20
-273.661
 10
595.6895
 20
-273.7089
 10
595.6571
 20
-273.75
 10
595.6138
 20
-273.7837
 10
595.5613
 20
-273.8094
 10
595.5013
 20
-273.8264
 10
595.4354
 20
-273.834
 10
595.3652
 20
-273.8317
 10
595.2926
 20
-273.8188
 10
595.2226
 20
-273.7959
 10
595.1598
 20
-273.7648
 10
595.1054
 20
-273.727
 10
595.0607
 20
-273.6837
 10
595.0267
 20
-273.6363
 10
595.0047
 20
-273.5861
 10
594.9958
 20
-273.5346
 10
595.0012
 20
-273.4831
 10
595.021
 20
-273.4352
 10
595.0534
 20
-273.3941
 10
595.0967
 20
-273.3604
 10
595.1491
 20
-273.3347
 10
595.2091
 20
-273.3177
 10
595.275
 20
-273.31
 10
595.3451
 20
-273.3123
 10
595.4176
 20
-273.3252
  0
LWPOLYLINE
  5
F5
330
1F
100
AcDbEntity
  8
Layer 1
 62
     7
370
    18
100
AcDbPolyline
 90
       33
 70
     1
 43
0.0
 10
597.4228
 20
-273.1247
 10
597.4929
 20
-273.1476
 10
597.5557
 20
-273.1787
 10
597.6101
 20
-273.2165
 10
597.6549
 20
-273.2598
 10
597.6889
 20
-273.3072
 10
597.711
 20
-273.3574
 10
597.7199
 20
-273.4089
 10
597.7145
 20
-273.4605
 10
597.6947
 20
-273.5084
 10
597.6623
 20
-273.5495
 10
597.619
 20
-273.5832
 10
597.5666
 20
-273.6089
 10
597.5066
 20
-273.6258
 10
597.4407
 20
-273.6334
 10
597.3706
 20
-273.631
 10
597.2981
 20
-273.618
 10
597.228
 20
-273.5951
 10
597.1652
 20
-273.5641
 10
597.1108
 20
-273.5262
 10
597.066
 20
-273.483
 10
597.032
 20
-273.4356
 10
597.0099
 20
-273.3854
 10
597.001
 20
-273.3339
 10
597.0064
 20
-273.2823
 10
597.0262
 20
-273.2344
 10
597.0586
 20
-273.1933
 10
597.1019
 20
-273.1596
 10
597.1543
 20
-273.1339
 10
597.2143
 20
-273.117
 10
597.2802
 20
-273.1094
 10
597.3503
 20
-273.1117
 10
597.4228
 20
-273.1247
  0
LWPOLYLINE
  5
F6
330
1F
100
AcDbEntity
  8
Layer 1
 62
     7
370
    18
100
AcDbPolyline
 90
       33
 70
     1
 43
0.0
 10
599.2874
 20
-273.2558
 10
599.3574
 20
-273.2787
 10
599.4202
 20
-273.3097
 10
599.4745
 20
-273.3476
 10
599.5193
 20
-273.3908
 10
599.5532
 20
-273.4382
 10
599.5752
 20
-273.4884
 10
599.5841
 20
-273.5399
 10
599.5787
 20
-273.5915
 10
599.5589
 20
-273.6394
 10
599.5266
 20
-273.6805
 10
599.4833
 20
-273.7142
 10
599.4308
 20
-273.7399
 10
599.3708
 20
-273.7568
 10
599.3049
 20
-273.7644
 10
599.2349
 20
-273.762
 10
599.1623
 20
-273.749
 10
599.0923
 20
-273.7261
 10
599.0295
 20
-273.6951
 10
598.9752
 20
-273.6572
 10
598.9304
 20
-273.614
 10
598.8965
 20
-273.5666
 10
598.8745
 20
-273.5164
 10
598.8656
 20
-273.4649
 10
598.871
 20
-273.4133
 10
598.8907
 20
-273.3654
 10
598.923
 20
-273.3243
 10
598.9663
 20
-273.2906
 10
599.0188
 20
-273.265
 10
599.0788
 20
-273.248
 10
599.1447
 20
-273.2404
 10
599.2148
 20
-273.2428
 10
599.2874
 20
-273.2558
  0
LWPOLYLINE
  5
F7
330
1F
100
AcDbEntity
  8
Layer 1
 62
     7
370
    18
100
AcDbPolyline
 90
       33
 70
     1
 43
0.0
 10
601.0241
 20
-274.0498
 10
601.0941
 20
-274.0728
 10
601.1569
 20
-274.1039
 10
601.2113
 20
-274.1418
 10
601.256
 20
-274.1851
 10
601.29
 20
-274.2324
 10
601.312
 20
-274.2825
 10
601.3209
 20
-274.334
 10
601.3155
 20
-274.3855
 10
601.2958
 20
-274.4335
 10
601.2634
 20
-274.4746
 10
601.2202
 20
-274.5084
 10
601.1677
 20
-274.534
 10
601.1076
 20
-274.551
 10
601.0417
 20
-274.5586
 10
600.9717
 20
-274.5563
 10
600.8991
 20
-274.5434
 10
600.8291
 20
-274.5205
 10
600.7663
 20
-274.4894
 10
600.7119
 20
-274.4515
 10
600.6672
 20
-274.4082
 10
600.6332
 20
-274.3608
 10
600.6112
 20
-274.3106
 10
600.6023
 20
-274.2591
 10
600.6077
 20
-274.2076
 10
600.6275
 20
-274.1597
 10
600.6599
 20
-274.1186
 10
600.7032
 20
-274.0849
 10
600.7556
 20
-274.0592
 10
600.8156
 20
-274.0422
 10
600.8815
 20
-274.0346
 10
600.9516
 20
-274.0369
 10
601.0241
 20
-274.0498
  0
LWPOLYLINE
  5
F8
330
1F
100
AcDbEntity
  8
Layer 1
 62
     7
370
    18
100
AcDbPolyline
 90
       33
 70
     1
 43
0.0
 10
601.7866
 20
-275.3867
 10
601.8567
 20
-275.4096
 10
601.9195
 20
-275.4407
 10
601.9739
 20
-275.4786
 10
602.0187
 20
-275.5219
 10
602.0527
 20
-275.5693
 10
602.0747
 20
-275.6195
 10
602.0836
 20
-275.671
 10
602.0782
 20
-275.7225
 10
602.0584
 20
-275.7704
 10
602.0261
 20
-275.8115
 10
601.9828
 20
-275.8452
 10
601.9303
 20
-275.8709
 10
601.8703
 20
-275.8879
 10
601.8044
 20
-275.8955
 10
601.7344
 20
-275.8932
 10
601.6618
 20
-275.8803
 10
601.5918
 20
-275.8574
 10
601.529
 20
-275.8263
 10
601.4746
 20
-275.7885
 10
601.4298
 20
-275.7452
 10
601.3958
 20
-275.6978
 10
601.3737
 20
-275.6476
 10
601.3648
 20
-275.5961
 10
601.3702
 20
-275.5446
 10
601.39
 20
-275.4967
 10
601.4223
 20
-275.4556
 10
601.4656
 20
-275.4219
 10
601.5181
 20
-275.3962
 10
601.5781
 20
-275.3792
 10
601.644
 20
-275.3715
 10
601.714
 20
-275.3738
 10
601.7866
 20
-275.3867
  0
LWPOLYLINE
  5
F9
330
1F
100
AcDbEntity
  8
Layer 1
 62
     7
370
    18
100
AcDbPolyline
 90
       33
 70
     1
 43
0.0
 10
601.9835
 20
-276.8386
 10
602.0535
 20
-276.8615
 10
602.1163
 20
-276.8925
 10
602.1706
 20
-276.9304
 10
602.2154
 20
-276.9736
 10
602.2493
 20
-277.021
 10
602.2713
 20
-277.0712
 10
602.2802
 20
-277.1227
 10
602.2748
 20
-277.1743
 10
602.255
 20
-277.2222
 10
602.2227
 20
-277.2633
 10
602.1794
 20
-277.297
 10
602.1269
 20
-277.3227
 10
602.0669
 20
-277.3397
 10
602.001
 20
-277.3474
 10
601.931
 20
-277.3451
 10
601.8584
 20
-277.3322
 10
601.7884
 20
-277.3092
 10
601.7256
 20
-277.278
 10
601.6713
 20
-277.2402
 10
601.6265
 20
-277.1969
 10
601.5925
 20
-277.1495
 10
601.5704
 20
-277.0994
 10
601.5615
 20
-277.0479
 10
601.5668
 20
-276.9964
 10
601.5866
 20
-276.9484
 10
601.619
 20
-276.9072
 10
601.6623
 20
-276.8735
 10
601.7148
 20
-276.8478
 10
601.7749
 20
-276.8308
 10
601.8408
 20
-276.8232
 10
601.9109
 20
-276.8256
 10
601.9835
 20
-276.8386
  0
LWPOLYLINE
  5
FA
330
1F
100
AcDbEntity
  8
Layer 1
 62
     7
370
    18
100
AcDbPolyline
 90
       33
 70
     1
 43
0.0
 10
601.7649
 20
-278.1429
 10
601.8349
 20
-278.1658
 10
601.8977
 20
-278.1969
 10
601.9521
 20
-278.2348
 10
601.9969
 20
-278.2781
 10
602.0309
 20
-278.3255
 10
602.053
 20
-278.3757
 10
602.0619
 20
-278.4272
 10
602.0565
 20
-278.4787
 10
602.0367
 20
-278.5266
 10
602.0044
 20
-278.5677
 10
601.9611
 20
-278.6014
 10
601.9086
 20
-278.6271
 10
601.8486
 20
-278.6441
 10
601.7827
 20
-278.6517
 10
601.7127
 20
-278.6494
 10
601.6401
 20
-278.6365
 10
601.57
 20
-278.6136
 10
601.5072
 20
-278.5825
 10
601.4528
 20
-278.5446
 10
601.408
 20
-278.5013
 10
601.374
 20
-278.4539
 10
601.352
 20
-278.4038
 10
601.3431
 20
-278.3523
 10
601.3485
 20
-278.3008
 10
601.3683
 20
-278.2529
 10
601.4006
 20
-278.2118
 10
601.4439
 20
-278.1781
 10
601.4964
 20
-278.1524
 10
601.5564
 20
-278.1354
 10
601.6223
 20
-278.1277
 10
601.6923
 20
-278.13
 10
601.7649
 20
-278.1429
  0
LWPOLYLINE
  5
FB
330
1F
100
AcDbEntity
  8
Layer 1
 62
     7
370
    18
100
AcDbPolyline
 90
       33
 70
     1
 43
0.0
 10
601.2183
 20
-279.5603
 10
601.2883
 20
-279.5832
 10
601.3511
 20
-279.6143
 10
601.4055
 20
-279.6522
 10
601.4503
 20
-279.6955
 10
601.4843
 20
-279.7429
 10
601.5064
 20
-279.7931
 10
601.5153
 20
-279.8446
 10
601.5099
 20
-279.8961
 10
601.4901
 20
-279.944
 10
601.4578
 20
-279.9851
 10
601.4145
 20
-280.0188
 10
601.362
 20
-280.0445
 10
601.302
 20
-280.0615
 10
601.2361
 20
-280.0691
 10
601.1661
 20
-280.0668
 10
601.0935
 20
-280.0539
 10
601.0235
 20
-280.031
 10
600.9607
 20
-279.9999
 10
600.9063
 20
-279.962
 10
600.8615
 20
-279.9187
 10
600.8275
 20
-279.8713
 10
600.8054
 20
-279.8211
 10
600.7965
 20
-279.7696
 10
600.8019
 20
-279.7181
 10
600.8217
 20
-279.6702
 10
600.854
 20
-279.6291
 10
600.8973
 20
-279.5954
 10
600.9498
 20
-279.5698
 10
601.0098
 20
-279.5528
 10
601.0757
 20
-279.5451
 10
601.1457
 20
-279.5474
 10
601.2183
 20
-279.5603
  0
LWPOLYLINE
  5
FC
330
1F
100
AcDbEntity
  8
Layer 1
 62
     7
370
    18
100
AcDbPolyline
 90
       33
 70
     1
 43
0.0
 10
600.0513
 20
-280.953
 10
600.1214
 20
-280.9759
 10
600.1843
 20
-281.007
 10
600.2387
 20
-281.0449
 10
600.2835
 20
-281.0882
 10
600.3175
 20
-281.1356
 10
600.3395
 20
-281.1858
 10
600.3484
 20
-281.2373
 10
600.343
 20
-281.2888
 10
600.3232
 20
-281.3367
 10
600.2908
 20
-281.3778
 10
600.2476
 20
-281.4115
 10
600.1951
 20
-281.4372
 10
600.1351
 20
-281.4542
 10
600.0692
 20
-281.4618
 10
599.9992
 20
-281.4595
 10
599.9266
 20
-281.4466
 10
599.8566
 20
-281.4237
 10
599.7938
 20
-281.3926
 10
599.7394
 20
-281.3548
 10
599.6946
 20
-281.3115
 10
599.6606
 20
-281.2641
 10
599.6385
 20
-281.2139
 10
599.6296
 20
-281.1624
 10
599.635
 20
-281.1109
 10
599.6548
 20
-281.063
 10
599.6871
 20
-281.0219
 10
599.7304
 20
-280.9882
 10
599.7829
 20
-280.9625
 10
599.8429
 20
-280.9455
 10
599.9087
 20
-280.9378
 10
599.9788
 20
-280.9401
 10
600.0513
 20
-280.953
  0
LWPOLYLINE
  5
FD
330
1F
100
AcDbEntity
  8
Layer 1
 62
     7
370
    18
100
AcDbPolyline
 90
       33
 70
     1
 43
0.0
 10
598.5934
 20
-282.4046
 10
598.6634
 20
-282.4275
 10
598.7262
 20
-282.4585
 10
598.7805
 20
-282.4964
 10
598.8253
 20
-282.5396
 10
598.8593
 20
-282.587
 10
598.8814
 20
-282.6372
 10
598.8903
 20
-282.6887
 10
598.885
 20
-282.7403
 10
598.8652
 20
-282.7882
 10
598.8329
 20
-282.8293
 10
598.7896
 20
-282.863
 10
598.7371
 20
-282.8887
 10
598.6771
 20
-282.9056
 10
598.6111
 20
-282.9132
 10
598.541
 20
-282.9109
 10
598.4683
 20
-282.8979
 10
598.3983
 20
-282.875
 10
598.3355
 20
-282.8439
 10
598.2812
 20
-282.8061
 10
598.2365
 20
-282.7628
 10
598.2025
 20
-282.7154
 10
598.1805
 20
-282.6653
 10
598.1716
 20
-282.6137
 10
598.177
 20
-282.5621
 10
598.1968
 20
-282.5142
 10
598.2291
 20
-282.4731
 10
598.2724
 20
-282.4394
 10
598.3249
 20
-282.4138
 10
598.3849
 20
-282.3968
 10
598.4508
 20
-282.3892
 10
598.5208
 20
-282.3916
 10
598.5934
 20
-282.4046
  0
LWPOLYLINE
  5
FE
330
1F
100
AcDbEntity
  8
Layer 1
 62
     7
370
    18
100
AcDbPolyline
 90
       33
 70
     1
 43
0.0
 10
596.9245
 20
-283.7248
 10
596.9945
 20
-283.7478
 10
597.0573
 20
-283.7789
 10
597.1117
 20
-283.8168
 10
597.1565
 20
-283.8601
 10
597.1905
 20
-283.9074
 10
597.2126
 20
-283.9575
 10
597.2215
 20
-284.009
 10
597.2161
 20
-284.0605
 10
597.1963
 20
-284.1085
 10
597.164
 20
-284.1496
 10
597.1207
 20
-284.1834
 10
597.0683
 20
-284.209
 10
597.0082
 20
-284.226
 10
596.9424
 20
-284.2336
 10
596.8723
 20
-284.2313
 10
596.7998
 20
-284.2184
 10
596.7297
 20
-284.1955
 10
596.6669
 20
-284.1644
 10
596.6125
 20
-284.1266
 10
596.5677
 20
-284.0833
 10
596.5337
 20
-284.0359
 10
596.5116
 20
-283.9858
 10
596.5027
 20
-283.9342
 10
596.5081
 20
-283.8826
 10
596.5279
 20
-283.8347
 10
596.5602
 20
-283.7936
 10
596.6035
 20
-283.7599
 10
596.656
 20
-283.7342
 10
596.716
 20
-283.7172
 10
596.7819
 20
-283.7096
 10
596.8519
 20
-283.7119
 10
596.9245
 20
-283.7248
  0
LWPOLYLINE
  5
FF
330
1F
100
AcDbEntity
  8
Layer 1
 62
     7
370
    18
100
AcDbPolyline
 90
       33
 70
     1
 43
0.0
 10
595.3711
 20
-285.0383
 10
595.4411
 20
-285.0612
 10
595.5039
 20
-285.0922
 10
595.5583
 20
-285.1301
 10
595.6031
 20
-285.1733
 10
595.6371
 20
-285.2207
 10
595.6591
 20
-285.2709
 10
595.6681
 20
-285.3224
 10
595.6628
 20
-285.374
 10
595.643
 20
-285.4219
 10
595.6107
 20
-285.463
 10
595.5674
 20
-285.4967
 10
595.5149
 20
-285.5224
 10
595.4549
 20
-285.5394
 10
595.3889
 20
-285.5471
 10
595.3188
 20
-285.5448
 10
595.2461
 20
-285.5319
 10
595.1761
 20
-285.5089
 10
595.1133
 20
-285.4777
 10
595.059
 20
-285.4399
 10
595.0142
 20
-285.3966
 10
594.9803
 20
-285.3492
 10
594.9583
 20
-285.2991
 10
594.9494
 20
-285.2476
 10
594.9548
 20
-285.1961
 10
594.9746
 20
-285.1481
 10
595.0069
 20
-285.1069
 10
595.0502
 20
-285.0732
 10
595.1027
 20
-285.0475
 10
595.1627
 20
-285.0305
 10
595.2285
 20
-285.0229
 10
595.2986
 20
-285.0253
 10
595.3711
 20
-285.0383
  0
LWPOLYLINE
  5
100
330
1F
100
AcDbEntity
  8
Layer 1
 62
     7
370
    18
100
AcDbPolyline
 90
       33
 70
     1
 43
0.0
 10
593.8099
 20
-286.1388
 10
593.88
 20
-286.1617
 10
593.9428
 20
-286.1928
 10
593.9972
 20
-286.2307
 10
594.042
 20
-286.274
 10
594.076
 20
-286.3214
 10
594.098
 20
-286.3716
 10
594.1069
 20
-286.4231
 10
594.1015
 20
-286.4746
 10
594.0817
 20
-286.5226
 10
594.0494
 20
-286.5637
 10
594.0061
 20
-286.5974
 10
593.9536
 20
-286.6231
 10
593.8936
 20
-286.64
 10
593.8277
 20
-286.6476
 10
593.7577
 20
-286.6453
 10
593.6851
 20
-286.6324
 10
593.6151
 20
-286.6095
 10
593.5523
 20
-286.5784
 10
593.4979
 20
-286.5405
 10
593.4531
 20
-286.4972
 10
593.4191
 20
-286.4498
 10
593.397
 20
-286.3996
 10
593.3881
 20
-286.3481
 10
593.3935
 20
-286.2966
 10
593.4133
 20
-286.2487
 10
593.4456
 20
-286.2076
 10
593.4889
 20
-286.1739
 10
593.5414
 20
-286.1482
 10
593.6014
 20
-286.1312
 10
593.6673
 20
-286.1236
 10
593.7373
 20
-286.1259
 10
593.8099
 20
-286.1388
  0
LWPOLYLINE
  5
101
330
1F
100
AcDbEntity
  8
Layer 1
 62
     7
370
    18
100
AcDbPolyline
 90
       33
 70
     1
 43
0.0
 10
592.3534
 20
-287.158
 10
592.4235
 20
-287.1809
 10
592.4863
 20
-287.212
 10
592.5407
 20
-287.2498
 10
592.5855
 20
-287.2932
 10
592.6195
 20
-287.3405
 10
592.6416
 20
-287.3907
 10
592.6505
 20
-287.4422
 10
592.6451
 20
-287.4937
 10
592.6253
 20
-287.5416
 10
592.5929
 20
-287.5827
 10
592.5497
 20
-287.6164
 10
592.4972
 20
-287.6421
 10
592.4372
 20
-287.6591
 10
592.3713
 20
-287.6668
 10
592.3013
 20
-287.6645
 10
592.2287
 20
-287.6516
 10
592.1587
 20
-287.6287
 10
592.0959
 20
-287.5976
 10
592.0415
 20
-287.5597
 10
591.9967
 20
-287.5164
 10
591.9627
 20
-287.469
 10
591.9406
 20
-287.4188
 10
591.9317
 20
-287.3673
 10
591.9371
 20
-287.3158
 10
591.9569
 20
-287.2678
 10
591.9892
 20
-287.2267
 10
592.0325
 20
-287.1929
 10
592.085
 20
-287.1673
 10
592.145
 20
-287.1504
 10
592.2108
 20
-287.1427
 10
592.2809
 20
-287.1451
 10
592.3534
 20
-287.158
  0
LWPOLYLINE
  5
102
330
1F
100
AcDbEntity
  8
Layer 1
 62
     7
370
    18
100
AcDbPolyline
 90
       33
 70
     1
 43
0.0
 10
590.8154
 20
-288.0726
 10
590.8854
 20
-288.0955
 10
590.9482
 20
-288.1266
 10
591.0025
 20
-288.1645
 10
591.0473
 20
-288.2078
 10
591.0813
 20
-288.2552
 10
591.1034
 20
-288.3054
 10
591.1123
 20
-288.3569
 10
591.107
 20
-288.4084
 10
591.0872
 20
-288.4563
 10
591.0548
 20
-288.4974
 10
591.0115
 20
-288.5311
 10
590.959
 20
-288.5568
 10
590.8989
 20
-288.5738
 10
590.833
 20
-288.5814
 10
590.7629
 20
-288.5791
 10
590.6903
 20
-288.5662
 10
590.6203
 20
-288.5432
 10
590.5575
 20
-288.5121
 10
590.5032
 20
-288.4742
 10
590.4585
 20
-288.4309
 10
590.4245
 20
-288.3836
 10
590.4025
 20
-288.3335
 10
590.3936
 20
-288.282
 10
590.399
 20
-288.2305
 10
590.4188
 20
-288.1825
 10
590.4511
 20
-288.1414
 10
590.4944
 20
-288.1076
 10
590.5469
 20
-288.082
 10
590.6069
 20
-288.065
 10
590.6728
 20
-288.0574
 10
590.7428
 20
-288.0597
 10
590.8154
 20
-288.0726
  0
LWPOLYLINE
  5
103
330
1F
100
AcDbEntity
  8
Layer 1
 62
     7
370
    18
100
AcDbPolyline
 90
       33
 70
     1
 43
0.0
 10
589.2966
 20
-288.7442
 10
589.3666
 20
-288.7671
 10
589.4294
 20
-288.7981
 10
589.4837
 20
-288.836
 10
589.5285
 20
-288.8792
 10
589.5624
 20
-288.9266
 10
589.5844
 20
-288.9768
 10
589.5933
 20
-289.0283
 10
589.5879
 20
-289.0799
 10
589.5682
 20
-289.1278
 10
589.5359
 20
-289.1689
 10
589.4926
 20
-289.2026
 10
589.4402
 20
-289.2283
 10
589.3801
 20
-289.2452
 10
589.3142
 20
-289.2528
 10
589.2442
 20
-289.2504
 10
589.1716
 20
-289.2374
 10
589.1016
 20
-289.2145
 10
589.0388
 20
-289.1835
 10
588.9844
 20
-289.1456
 10
588.9397
 20
-289.1024
 10
588.9057
 20
-289.055
 10
588.8837
 20
-289.0048
 10
588.8748
 20
-288.9533
 10
588.8802
 20
-288.9017
 10
588.9
 20
-288.8538
 10
588.9324
 20
-288.8127
 10
588.9756
 20
-288.779
 10
589.0281
 20
-288.7534
 10
589.0881
 20
-288.7364
 10
589.154
 20
-288.7288
 10
589.224
 20
-288.7312
 10
589.2966
 20
-288.7442
  0
LWPOLYLINE
  5
104
330
1F
100
AcDbEntity
  8
Layer 1
 62
     7
370
    18
100
AcDbPolyline
 90
       33
 70
     1
 43
0.0
 10
587.1648
 20
-289.5059
 10
587.2348
 20
-289.5288
 10
587.2976
 20
-289.5599
 10
587.352
 20
-289.5977
 10
587.3967
 20
-289.6411
 10
587.4307
 20
-289.6884
 10
587.4527
 20
-289.7386
 10
587.4616
 20
-289.7901
 10
587.4562
 20
-289.8416
 10
587.4364
 20
-289.8895
 10
587.404
 20
-289.9306
 10
587.3608
 20
-289.9643
 10
587.3083
 20
-289.99
 10
587.2483
 20
-290.007
 10
587.1824
 20
-290.0147
 10
587.1124
 20
-290.0124
 10
587.0398
 20
-289.9995
 10
586.9698
 20
-289.9766
 10
586.907
 20
-289.9455
 10
586.8526
 20
-289.9076
 10
586.8079
 20
-289.8643
 10
586.7738
 20
-289.8169
 10
586.7518
 20
-289.7667
 10
586.7428
 20
-289.7152
 10
586.7481
 20
-289.6637
 10
586.7679
 20
-289.6157
 10
586.8003
 20
-289.5746
 10
586.8436
 20
-289.5408
 10
586.8961
 20
-289.5152
 10
586.9561
 20
-289.4983
 10
587.022
 20
-289.4906
 10
587.0922
 20
-289.493
 10
587.1648
 20
-289.5059
  0
LWPOLYLINE
  5
105
330
1F
100
AcDbEntity
  8
Layer 1
 62
     7
370
    18
100
AcDbPolyline
 90
       33
 70
     1
 43
0.0
 10
585.4183
 20
-290.0531
 10
585.4883
 20
-290.076
 10
585.5511
 20
-290.1071
 10
585.6055
 20
-290.145
 10
585.6503
 20
-290.1883
 10
585.6843
 20
-290.2357
 10
585.7064
 20
-290.2859
 10
585.7153
 20
-290.3374
 10
585.7099
 20
-290.3889
 10
585.6901
 20
-290.4368
 10
585.6578
 20
-290.4779
 10
585.6145
 20
-290.5116
 10
585.5621
 20
-290.5373
 10
585.502
 20
-290.5542
 10
585.4362
 20
-290.5619
 10
585.3661
 20
-290.5596
 10
585.2936
 20
-290.5467
 10
585.2235
 20
-290.5238
 10
585.1606
 20
-290.4927
 10
585.1062
 20
-290.4548
 10
585.0614
 20
-290.4115
 10
585.0274
 20
-290.3641
 10
585.0054
 20
-290.3139
 10
584.9965
 20
-290.2624
 10
585.0019
 20
-290.2109
 10
585.0217
 20
-290.163
 10
585.054
 20
-290.1219
 10
585.0973
 20
-290.0882
 10
585.1498
 20
-290.0625
 10
585.2098
 20
-290.0455
 10
585.2757
 20
-290.0379
 10
585.3457
 20
-290.0402
 10
585.4183
 20
-290.0531
  0
LWPOLYLINE
  5
106
330
1F
100
AcDbEntity
  8
Layer 1
 62
     7
370
    18
100
AcDbPolyline
 90
       33
 70
     1
 43
0.0
 10
584.2138
 20
-290.4803
 10
584.2838
 20
-290.5032
 10
584.3466
 20
-290.5342
 10
584.4009
 20
-290.5721
 10
584.4457
 20
-290.6153
 10
584.4796
 20
-290.6627
 10
584.5016
 20
-290.7129
 10
584.5105
 20
-290.7644
 10
584.5051
 20
-290.816
 10
584.4853
 20
-290.8639
 10
584.453
 20
-290.905
 10
584.4097
 20
-290.9387
 10
584.3572
 20
-290.9644
 10
584.2972
 20
-290.9814
 10
584.2313
 20
-290.9891
 10
584.1613
 20
-290.9868
 10
584.0887
 20
-290.9739
 10
584.0187
 20
-290.9509
 10
583.9559
 20
-290.9197
 10
583.9016
 20
-290.8819
 10
583.8568
 20
-290.8386
 10
583.8228
 20
-290.7912
 10
583.8007
 20
-290.7411
 10
583.7918
 20
-290.6896
 10
583.7971
 20
-290.6381
 10
583.8169
 20
-290.5901
 10
583.8492
 20
-290.549
 10
583.8925
 20
-290.5152
 10
583.945
 20
-290.4896
 10
584.005
 20
-290.4727
 10
584.071
 20
-290.465
 10
584.1411
 20
-290.4674
 10
584.2138
 20
-290.4803
  0
LWPOLYLINE
  5
107
330
1F
100
AcDbEntity
  8
Layer 1
 62
     7
370
    18
100
AcDbPolyline
 90
       33
 70
     1
 43
0.0
 10
582.4969
 20
-290.7606
 10
582.5669
 20
-290.7836
 10
582.6297
 20
-290.8147
 10
582.684
 20
-290.8526
 10
582.7288
 20
-290.8959
 10
582.7627
 20
-290.9432
 10
582.7847
 20
-290.9933
 10
582.7936
 20
-291.0448
 10
582.7882
 20
-291.0963
 10
582.7684
 20
-291.1443
 10
582.7361
 20
-291.1854
 10
582.6928
 20
-291.2192
 10
582.6403
 20
-291.2448
 10
582.5803
 20
-291.2618
 10
582.5144
 20
-291.2694
 10
582.4444
 20
-291.2671
 10
582.3718
 20
-291.2542
 10
582.3018
 20
-291.2313
 10
582.239
 20
-291.2002
 10
582.1847
 20
-291.1624
 10
582.1399
 20
-291.1191
 10
582.106
 20
-291.0717
 10
582.084
 20
-291.0216
 10
582.0751
 20
-290.97
 10
582.0805
 20
-290.9184
 10
582.1002
 20
-290.8705
 10
582.1325
 20
-290.8294
 10
582.1758
 20
-290.7957
 10
582.2283
 20
-290.77
 10
582.2883
 20
-290.753
 10
582.3542
 20
-290.7454
 10
582.4243
 20
-290.7477
 10
582.4969
 20
-290.7606
  0
LWPOLYLINE
  5
108
330
1F
100
AcDbEntity
  8
Layer 1
 62
     7
370
    18
100
AcDbPolyline
 90
       33
 70
     1
 43
0.0
 10
580.5724
 20
-290.87
 10
580.6424
 20
-290.8929
 10
580.7052
 20
-290.9239
 10
580.7595
 20
-290.9618
 10
580.8043
 20
-291.005
 10
580.8382
 20
-291.0524
 10
580.8602
 20
-291.1026
 10
580.8691
 20
-291.1541
 10
580.8637
 20
-291.2057
 10
580.8439
 20
-291.2536
 10
580.8116
 20
-291.2947
 10
580.7683
 20
-291.3284
 10
580.7159
 20
-291.3541
 10
580.6558
 20
-291.3711
 10
580.59
 20
-291.3787
 10
580.5199
 20
-291.3764
 10
580.4474
 20
-291.3635
 10
580.3774
 20
-291.3405
 10
580.3146
 20
-291.3094
 10
580.2602
 20
-291.2715
 10
580.2155
 20
-291.2282
 10
580.1815
 20
-291.1809
 10
580.1595
 20
-291.1308
 10
580.1506
 20
-291.0793
 10
580.156
 20
-291.0278
 10
580.1757
 20
-290.9798
 10
580.2081
 20
-290.9386
 10
580.2513
 20
-290.9049
 10
580.3038
 20
-290.8792
 10
580.3638
 20
-290.8622
 10
580.4297
 20
-290.8546
 10
580.4998
 20
-290.857
 10
580.5724
 20
-290.87
  0
LWPOLYLINE
  5
109
330
1F
100
AcDbEntity
  8
Layer 1
 62
     7
370
    18
100
AcDbPolyline
 90
       33
 70
     1
 43
0.0
 10
579.1209
 20
-290.5921
 10
579.1909
 20
-290.615
 10
579.2537
 20
-290.646
 10
579.308
 20
-290.6839
 10
579.3528
 20
-290.7271
 10
579.3868
 20
-290.7745
 10
579.4089
 20
-290.8247
 10
579.4178
 20
-290.8762
 10
579.4125
 20
-290.9278
 10
579.3927
 20
-290.9757
 10
579.3604
 20
-291.0168
 10
579.3171
 20
-291.0505
 10
579.2646
 20
-291.0762
 10
579.2046
 20
-291.0932
 10
579.1386
 20
-291.1009
 10
579.0685
 20
-291.0986
 10
578.9958
 20
-291.0857
 10
578.9258
 20
-291.0627
 10
578.863
 20
-291.0315
 10
578.8087
 20
-290.9937
 10
578.7639
 20
-290.9504
 10
578.73
 20
-290.903
 10
578.708
 20
-290.8529
 10
578.6991
 20
-290.8014
 10
578.7045
 20
-290.7499
 10
578.7243
 20
-290.7019
 10
578.7566
 20
-290.6607
 10
578.7999
 20
-290.627
 10
578.8524
 20
-290.6013
 10
578.9124
 20
-290.5843
 10
578.9783
 20
-290.5767
 10
579.0483
 20
-290.5791
 10
579.1209
 20
-290.5921
  0
LWPOLYLINE
  5
10A
330
1F
100
AcDbEntity
  8
Layer 1
 62
     7
370
    18
100
AcDbPolyline
 90
       33
 70
     1
 43
0.0
 10
577.898
 20
-289.9081
 10
577.9681
 20
-289.931
 10
578.0309
 20
-289.962
 10
578.0853
 20
-289.9999
 10
578.1301
 20
-290.0431
 10
578.1641
 20
-290.0905
 10
578.1862
 20
-290.1407
 10
578.1951
 20
-290.1922
 10
578.1897
 20
-290.2438
 10
578.1699
 20
-290.2917
 10
578.1375
 20
-290.3328
 10
578.0942
 20
-290.3665
 10
578.0418
 20
-290.3922
 10
577.9818
 20
-290.4091
 10
577.9159
 20
-290.4167
 10
577.8458
 20
-290.4143
 10
577.7733
 20
-290.4013
 10
577.7032
 20
-290.3784
 10
577.6404
 20
-290.3474
 10
577.586
 20
-290.3095
 10
577.5412
 20
-290.2663
 10
577.5072
 20
-290.2189
 10
577.4851
 20
-290.1687
 10
577.4762
 20
-290.1172
 10
577.4816
 20
-290.0656
 10
577.5014
 20
-290.0177
 10
577.5338
 20
-289.9766
 10
577.577
 20
-289.9429
 10
577.6295
 20
-289.9173
 10
577.6895
 20
-289.9003
 10
577.7554
 20
-289.8927
 10
577.8254
 20
-289.8951
 10
577.898
 20
-289.9081
  0
LWPOLYLINE
  5
10B
330
1F
100
AcDbEntity
  8
Layer 1
 62
     7
370
    18
100
AcDbPolyline
 90
       33
 70
     1
 43
0.0
 10
577.2707
 20
-288.9443
 10
577.3407
 20
-288.9672
 10
577.4035
 20
-288.9983
 10
577.4578
 20
-289.0362
 10
577.5026
 20
-289.0795
 10
577.5365
 20
-289.1269
 10
577.5585
 20
-289.1771
 10
577.5674
 20
-289.2286
 10
577.562
 20
-289.2801
 10
577.5423
 20
-289.328
 10
577.51
 20
-289.3691
 10
577.4667
 20
-289.4028
 10
577.4143
 20
-289.4285
 10
577.3542
 20
-289.4455
 10
577.2883
 20
-289.4531
 10
577.2182
 20
-289.4508
 10
577.1456
 20
-289.4379
 10
577.0756
 20
-289.415
 10
577.0128
 20
-289.3839
 10
576.9585
 20
-289.3461
 10
576.9137
 20
-289.3028
 10
576.8798
 20
-289.2554
 10
576.8578
 20
-289.2052
 10
576.8489
 20
-289.1537
 10
576.8543
 20
-289.1022
 10
576.8741
 20
-289.0543
 10
576.9064
 20
-289.0132
 10
576.9497
 20
-288.9795
 10
577.0022
 20
-288.9538
 10
577.0622
 20
-288.9368
 10
577.1281
 20
-288.9291
 10
577.1981
 20
-288.9314
 10
577.2707
 20
-288.9443
  0
LWPOLYLINE
  5
10C
330
1F
100
AcDbEntity
  8
Layer 1
 62
     7
370
    18
100
AcDbPolyline
 90
       33
 70
     1
 43
0.0
 10
577.134
 20
-287.7832
 10
577.204
 20
-287.8061
 10
577.2668
 20
-287.8372
 10
577.3212
 20
-287.8751
 10
577.3659
 20
-287.9184
 10
577.3999
 20
-287.9658
 10
577.4219
 20
-288.0159
 10
577.4308
 20
-288.0674
 10
577.4254
 20
-288.1189
 10
577.4056
 20
-288.1668
 10
577.3732
 20
-288.2079
 10
577.3299
 20
-288.2416
 10
577.2775
 20
-288.2673
 10
577.2175
 20
-288.2843
 10
577.1516
 20
-288.292
 10
577.0815
 20
-288.2897
 10
577.009
 20
-288.2768
 10
576.939
 20
-288.2539
 10
576.8762
 20
-288.2228
 10
576.8218
 20
-288.1849
 10
576.7771
 20
-288.1416
 10
576.743
 20
-288.0942
 10
576.721
 20
-288.044
 10
576.712
 20
-287.9925
 10
576.7173
 20
-287.941
 10
576.7371
 20
-287.893
 10
576.7695
 20
-287.8519
 10
576.8128
 20
-287.8181
 10
576.8653
 20
-287.7925
 10
576.9253
 20
-287.7756
 10
576.9912
 20
-287.7679
 10
577.0614
 20
-287.7703
 10
577.134
 20
-287.7832
  0
LWPOLYLINE
  5
10D
330
1F
100
AcDbEntity
  8
Layer 1
 62
     7
370
    18
100
AcDbPolyline
 90
       33
 70
     1
 43
0.0
 10
577.3006
 20
-286.3033
 10
577.3706
 20
-286.3262
 10
577.4334
 20
-286.3573
 10
577.4878
 20
-286.3952
 10
577.5325
 20
-286.4385
 10
577.5665
 20
-286.4859
 10
577.5885
 20
-286.5361
 10
577.5974
 20
-286.5876
 10
577.592
 20
-286.6391
 10
577.5723
 20
-286.687
 10
577.5399
 20
-286.7281
 10
577.4967
 20
-286.7618
 10
577.4442
 20
-286.7875
 10
577.3841
 20
-286.8045
 10
577.3182
 20
-286.8121
 10
577.2482
 20
-286.8098
 10
577.1756
 20
-286.7969
 10
577.1056
 20
-286.774
 10
577.0428
 20
-286.7429
 10
576.9884
 20
-286.705
 10
576.9437
 20
-286.6617
 10
576.9097
 20
-286.6143
 10
576.8877
 20
-286.5642
 10
576.8788
 20
-286.5127
 10
576.8842
 20
-286.4612
 10
576.904
 20
-286.4132
 10
576.9364
 20
-286.3721
 10
576.9797
 20
-286.3383
 10
577.0321
 20
-286.3127
 10
577.0921
 20
-286.2957
 10
577.158
 20
-286.2881
 10
577.2281
 20
-286.2904
 10
577.3006
 20
-286.3033
  0
LWPOLYLINE
  5
10E
330
1F
100
AcDbEntity
  8
Layer 1
 62
     7
370
    18
100
AcDbPolyline
 90
       33
 70
     1
 43
0.0
 10
577.9555
 20
-285.0404
 10
578.0255
 20
-285.0633
 10
578.0883
 20
-285.0944
 10
578.1426
 20
-285.1323
 10
578.1874
 20
-285.1756
 10
578.2213
 20
-285.223
 10
578.2433
 20
-285.2732
 10
578.2522
 20
-285.3247
 10
578.2468
 20
-285.3762
 10
578.2271
 20
-285.4241
 10
578.1948
 20
-285.4652
 10
578.1515
 20
-285.4989
 10
578.0991
 20
-285.5246
 10
578.039
 20
-285.5415
 10
577.9731
 20
-285.5492
 10
577.903
 20
-285.5469
 10
577.8304
 20
-285.534
 10
577.7604
 20
-285.5111
 10
577.6976
 20
-285.48
 10
577.6433
 20
-285.4421
 10
577.5985
 20
-285.3988
 10
577.5646
 20
-285.3514
 10
577.5426
 20
-285.3012
 10
577.5337
 20
-285.2497
 10
577.5391
 20
-285.1982
 10
577.5589
 20
-285.1503
 10
577.5912
 20
-285.1092
 10
577.6345
 20
-285.0755
 10
577.687
 20
-285.0498
 10
577.747
 20
-285.0328
 10
577.8129
 20
-285.0252
 10
577.8829
 20
-285.0275
 10
577.9555
 20
-285.0404
  0
LWPOLYLINE
  5
10F
330
1F
100
AcDbEntity
  8
Layer 1
 62
     7
370
    18
100
AcDbPolyline
 90
       33
 70
     1
 43
0.0
 10
579.016
 20
-283.6069
 10
579.086
 20
-283.6298
 10
579.1488
 20
-283.6608
 10
579.2032
 20
-283.6987
 10
579.2479
 20
-283.7419
 10
579.2819
 20
-283.7893
 10
579.3039
 20
-283.8395
 10
579.3127
 20
-283.891
 10
579.3073
 20
-283.9426
 10
579.2875
 20
-283.9905
 10
579.2552
 20
-284.0316
 10
579.2119
 20
-284.0653
 10
579.1595
 20
-284.091
 10
579.0994
 20
-284.108
 10
579.0336
 20
-284.1156
 10
578.9635
 20
-284.1133
 10
578.891
 20
-284.1004
 10
578.821
 20
-284.0774
 10
578.7582
 20
-284.0463
 10
578.7038
 20
-284.0084
 10
578.6591
 20
-283.9651
 10
578.6251
 20
-283.9178
 10
578.6031
 20
-283.8677
 10
578.5942
 20
-283.8162
 10
578.5996
 20
-283.7647
 10
578.6193
 20
-283.7167
 10
578.6517
 20
-283.6756
 10
578.6949
 20
-283.6418
 10
578.7474
 20
-283.6162
 10
578.8074
 20
-283.5993
 10
578.8733
 20
-283.5916
 10
578.9434
 20
-283.594
 10
579.016
 20
-283.6069
  0
LWPOLYLINE
  5
110
330
1F
100
AcDbEntity
  8
Layer 1
 62
     7
370
    18
100
AcDbPolyline
 90
       33
 70
     1
 43
0.0
 10
579.975
 20
-282.3208
 10
580.0451
 20
-282.3437
 10
580.108
 20
-282.3748
 10
580.1624
 20
-282.4126
 10
580.2072
 20
-282.456
 10
580.2412
 20
-282.5033
 10
580.2632
 20
-282.5535
 10
580.2721
 20
-282.605
 10
580.2667
 20
-282.6565
 10
580.2469
 20
-282.7044
 10
580.2145
 20
-282.7455
 10
580.1712
 20
-282.7792
 10
580.1188
 20
-282.8049
 10
580.0588
 20
-282.8219
 10
579.9929
 20
-282.8296
 10
579.9228
 20
-282.8273
 10
579.8503
 20
-282.8144
 10
579.7802
 20
-282.7915
 10
579.7174
 20
-282.7604
 10
579.663
 20
-282.7225
 10
579.6182
 20
-282.6792
 10
579.5842
 20
-282.6318
 10
579.5621
 20
-282.5816
 10
579.5532
 20
-282.5301
 10
579.5586
 20
-282.4786
 10
579.5784
 20
-282.4307
 10
579.6108
 20
-282.3896
 10
579.6541
 20
-282.3559
 10
579.7065
 20
-282.3302
 10
579.7665
 20
-282.3132
 10
579.8324
 20
-282.3056
 10
579.9025
 20
-282.3079
 10
579.975
 20
-282.3208
  0
LWPOLYLINE
  5
111
330
1F
100
AcDbEntity
  8
Layer 1
 62
     7
370
    20
100
AcDbPolyline
 90
       33
 70
     1
 43
0.0
 10
593.4598
 20
-280.3577
 10
593.7398
 20
-280.5536
 10
593.9907
 20
-280.751
 10
594.2078
 20
-280.9446
 10
594.3865
 20
-281.1291
 10
594.522
 20
-281.2992
 10
594.6096
 20
-281.4497
 10
594.6448
 20
-281.5753
 10
594.6228
 20
-281.6706
 10
594.5433
 20
-281.7281
 10
594.4136
 20
-281.7449
 10
594.2403
 20
-281.7233
 10
594.0303
 20
-281.6654
 10
593.7901
 20
-281.5735
 10
593.5265
 20
-281.4498
 10
593.2463
 20
-281.2965
 10
592.956
 20
-281.116
 10
592.6759
 20
-280.9201
 10
592.425
 20
-280.7227
 10
592.2079
 20
-280.5291
 10
592.0293
 20
-280.3447
 10
591.8938
 20
-280.1746
 10
591.8062
 20
-280.0241
 10
591.7711
 20
-279.8985
 10
591.7931
 20
-279.8032
 10
591.8726
 20
-279.7457
 10
592.0023
 20
-279.729
 10
592.1755
 20
-279.7506
 10
592.3855
 20
-279.8085
 10
592.6256
 20
-279.9004
 10
592.8892
 20
-280.024
 10
593.1695
 20
-280.1772
 10
593.4598
 20
-280.3577
  0
LWPOLYLINE
  5
112
330
1F
100
AcDbEntity
  8
Layer 1
 62
     7
370
    20
100
AcDbPolyline
 90
       33
 70
     1
 43
0.0
 10
587.6295
 20
-280.705
 10
587.9143
 20
-280.516
 10
588.1899
 20
-280.3546
 10
588.4497
 20
-280.2232
 10
588.687
 20
-280.1243
 10
588.8953
 20
-280.0603
 10
589.0678
 20
-280.0335
 10
589.198
 20
-280.0464
 10
589.2792
 20
-280.1014
 10
589.304
 20
-280.1961
 10
589.2726
 20
-280.3226
 10
589.1894
 20
-280.4756
 10
589.0591
 20
-280.6497
 10
588.886
 20
-280.8394
 10
588.6747
 20
-281.0393
 10
588.4298
 20
-281.2441
 10
588.1557
 20
-281.4482
 10
587.8709
 20
-281.6371
 10
587.5952
 20
-281.7984
 10
587.3354
 20
-281.9298
 10
587.0981
 20
-282.0287
 10
586.8898
 20
-282.0927
 10
586.7173
 20
-282.1195
 10
586.5872
 20
-282.1065
 10
586.506
 20
-282.0514
 10
586.4812
 20
-281.9568
 10
586.5126
 20
-281.8303
 10
586.5958
 20
-281.6773
 10
586.7261
 20
-281.5033
 10
586.8992
 20
-281.3137
 10
587.1105
 20
-281.1138
 10
587.3554
 20
-280.9091
 10
587.6295
 20
-280.705
  0
LWPOLYLINE
  5
113
330
1F
100
AcDbEntity
  8
Layer 1
 62
     7
370
    20
100
AcDbPolyline
 90
       33
 70
     1
 43
0.0
 10
588.1141
 20
-284.5867
 10
588.4559
 20
-284.5711
 10
588.7755
 20
-284.5745
 10
589.066
 20
-284.5954
 10
589.3205
 20
-284.6326
 10
589.532
 20
-284.6848
 10
589.6937
 20
-284.7505
 10
589.7985
 20
-284.8284
 10
589.8395
 20
-284.9173
 10
589.8118
 20
-285.0112
 10
589.7195
 20
-285.1035
 10
589.569
 20
-285.1919
 10
589.3673
 20
-285.274
 10
589.1208
 20
-285.3476
 10
588.8364
 20
-285.4103
 10
588.5206
 20
-285.4598
 10
588.1801
 20
-285.4938
 10
587.8383
 20
-285.5093
 10
587.5186
 20
-285.5059
 10
587.2281
 20
-285.4849
 10
586.9736
 20
-285.4478
 10
586.762
 20
-285.3957
 10
586.6004
 20
-285.33
 10
586.4957
 20
-285.2521
 10
586.4547
 20
-285.1632
 10
586.4824
 20
-285.0693
 10
586.5747
 20
-284.977
 10
586.7252
 20
-284.8886
 10
586.9269
 20
-284.8065
 10
587.1734
 20
-284.7329
 10
587.4578
 20
-284.6702
 10
587.7736
 20
-284.6207
 10
588.1141
 20
-284.5867
  0
LWPOLYLINE
  5
114
330
1F
100
AcDbEntity
  8
Layer 1
 62
     7
370
    20
100
AcDbPolyline
 90
       14
 70
     1
 43
0.0
 10
575.5867
 20
-263.7412
 10
575.2259
 20
-263.3518
 10
575.5947
 20
-263.0274
 10
578.8439
 20
-265.773
 10
578.2291
 20
-266.4239
 10
578.3411
 20
-266.3332
 10
578.3594
 20
-266.2136
 10
578.3084
 20
-266.0775
 10
578.2123
 20
-265.9378
 10
578.0954
 20
-265.8071
 10
577.9818
 20
-265.6981
 10
577.8958
 20
-265.6233
 10
577.8618
 20
-265.5956
 10
575.5867
 20
-263.7412
  0
LWPOLYLINE
  5
115
330
1F
100
AcDbEntity
  8
Layer 1
 62
     7
370
     9
100
AcDbPolyline
 90
        2
 70
     0
 43
0.0
 10
606.4406
 20
-275.9925
 10
614.3023
 20
-295.5833
  0
LWPOLYLINE
  5
116
330
1F
100
AcDbEntity
  8
Layer 1
 62
     7
370
     9
100
AcDbPolyline
 90
        2
 70
     0
 43
0.0
 10
574.1254
 20
-292.1372
 10
580.8596
 20
-308.9515
  0
LWPOLYLINE
  5
117
330
1F
100
AcDbEntity
  8
Layer 1
 62
     7
370
     9
100
AcDbPolyline
 90
        2
 70
     0
 43
0.0
 10
579.0055
 20
-304.3287
 10
612.4582
 20
-290.9852
  0
LWPOLYLINE
  5
118
330
1F
100
AcDbEntity
  8
Layer 1
 62
     7
370
     9
100
AcDbPolyline
 90
       65
 70
     1
 43
0.0
 10
589.2987
 20
-305.6643
 10
589.1849
 20
-305.7037
 10
589.0711
 20
-305.7312
 10
588.9574
 20
-305.7467
 10
588.8436
 20
-305.7504
 10
588.7299
 20
-305.7422
 10
588.6162
 20
-305.722
 10
588.5025
 20
-305.69
 10
588.3889
 20
-305.646
 10
588.2808
 20
-305.5927
 10
588.181
 20
-305.5315
 10
588.0897
 20
-305.4623
 10
588.0068
 20
-305.3853
 10
587.9323
 20
-305.3003
 10
587.8661
 20
-305.2074
 10
587.8083
 20
-305.1066
 10
587.7588
 20
-304.9979
 10
587.7204
 20
-304.8877
 10
587.6936
 20
-304.7772
 10
587.6784
 20
-304.6664
 10
587.6747
 20
-304.5553
 10
587.6826
 20
-304.4439
 10
587.702
 20
-304.3322
 10
587.7331
 20
-304.2202
 10
587.7757
 20
-304.1079
 10
587.8272
 20
-304.0019
 10
587.8873
 20
-303.9038
 10
587.9559
 20
-303.8138
 10
588.0331
 20
-303.7317
 10
588.1189
 20
-303.6577
 10
588.2132
 20
-303.5916
 10
588.316
 20
-303.5334
 10
588.4274
 20
-303.4833
 10
588.5406
 20
-303.4441
 10
588.6542
 20
-303.4165
 10
588.768
 20
-303.4005
 10
588.8822
 20
-303.3962
 10
588.9967
 20
-303.4035
 10
589.1116
 20
-303.4224
 10
589.2268
 20
-303.453
 10
589.3424
 20
-303.4952
 10
589.4527
 20
-303.5467
 10
589.5544
 20
-303.6064
 10
589.6474
 20
-303.6742
 10
589.7317
 20
-303.7502
 10
589.8073
 20
-303.8343
 10
589.8743
 20
-303.9266
 10
589.9325
 20
-304.0269
 10
589.982
 20
-304.1354
 10
590.0199
 20
-304.2448
 10
590.046
 20
-304.355
 10
590.0603
 20
-304.4657
 10
590.0629
 20
-304.5772
 10
590.0536
 20
-304.6893
 10
590.0325
 20
-304.8021
 10
589.9995
 20
-304.9155
 10
589.9548
 20
-305.0296
 10
589.9042
 20
-305.1307
 10
589.8439
 20
-305.2269
 10
589.7741
 20
-305.3182
 10
589.6949
 20
-305.4047
 10
589.607
 20
-305.4841
 10
589.5117
 20
-305.5539
 10
589.409
 20
-305.6139
 10
589.2987
 20
-305.6643
  0
LWPOLYLINE
  5
119
330
1F
100
AcDbEntity
  8
Layer 1
 62
     7
370
     9
100
AcDbPolyline
 90
       61
 70
     1
 43
0.0
 10
587.2755
 20
-305.2313
 10
587.3506
 20
-305.3964
 10
587.438
 20
-305.5478
 10
587.5377
 20
-305.6855
 10
587.6497
 20
-305.8094
 10
587.7739
 20
-305.9195
 10
587.9104
 20
-306.0159
 10
588.0592
 20
-306.0985
 10
588.2202
 20
-306.1673
 10
588.3766
 20
-306.217
 10
588.5364
 20
-306.2515
 10
588.6997
 20
-306.2709
 10
588.8664
 20
-306.2751
 10
589.0366
 20
-306.2642
 10
589.2102
 20
-306.2381
 10
589.3871
 20
-306.1969
 10
589.5675
 20
-306.1405
 10
589.6711
 20
-305.9936
 10
588.9148
 20
-308.3214
 10
589.5592
 20
-308.0643
 10
590.5234
 20
-305.0787
 10
590.5632
 20
-304.936
 10
590.5901
 20
-304.7933
 10
590.6041
 20
-304.6506
 10
590.6051
 20
-304.5079
 10
590.5931
 20
-304.3651
 10
590.5681
 20
-304.2224
 10
590.5303
 20
-304.0797
 10
590.4794
 20
-303.937
 10
590.4071
 20
-303.7781
 10
590.3227
 20
-303.6312
 10
590.226
 20
-303.4963
 10
590.1172
 20
-303.3736
 10
589.9961
 20
-303.2629
 10
589.8629
 20
-303.1642
 10
589.7174
 20
-303.0777
 10
589.5598
 20
-303.0032
 10
589.3948
 20
-302.9427
 10
589.2298
 20
-302.8991
 10
589.0646
 20
-302.8723
 10
588.8995
 20
-302.8624
 10
588.7342
 20
-302.8694
 10
588.5688
 20
-302.8933
 10
588.4034
 20
-302.934
 10
588.2379
 20
-302.9916
 10
588.0759
 20
-303.0646
 10
587.9262
 20
-303.1493
 10
587.7889
 20
-303.2459
 10
587.664
 20
-303.3542
 10
587.5514
 20
-303.4744
 10
587.4511
 20
-303.6063
 10
587.3632
 20
-303.7501
 10
587.2877
 20
-303.9056
 10
587.23
 20
-304.0592
 10
587.1873
 20
-304.2171
 10
587.1593
 20
-304.3792
 10
587.1462
 20
-304.5455
 10
587.1502
 20
-304.7146
 10
587.1731
 20
-304.8853
 10
587.2148
 20
-305.0575
 10
587.2755
 20
-305.2313
  0
LWPOLYLINE
  5
11A
330
1F
100
AcDbEntity
  8
Layer 1
 62
     7
370
     9
100
AcDbPolyline
 90
      107
 70
     1
 43
0.0
 10
602.6038
 20
-302.845
 10
603.0941
 20
-302.6494
 10
602.3228
 20
-300.7284
 10
602.2676
 20
-300.6025
 10
602.2068
 20
-300.4858
 10
602.1405
 20
-300.3782
 10
602.0685
 20
-300.2798
 10
601.991
 20
-300.1907
 10
601.9079
 20
-300.1106
 10
601.8191
 20
-300.0398
 10
601.7248
 20
-299.9782
 10
601.6238
 20
-299.926
 10
601.5179
 20
-299.8855
 10
601.407
 20
-299.8567
 10
601.291
 20
-299.8393
 10
601.1672
 20
-299.8374
 10
601.0328
 20
-299.8544
 10
600.8876
 20
-299.8902
 10
600.7316
 20
-299.945
 10
600.6533
 20
-299.9794
 10
600.5798
 20
-300.0183
 10
600.511
 20
-300.0616
 10
600.447
 20
-300.1093
 10
600.3876
 20
-300.1615
 10
600.333
 20
-300.2181
 10
600.283
 20
-300.2791
 10
600.2378
 20
-300.3445
 10
600.167
 20
-300.4709
 10
600.1107
 20
-300.6056
 10
600.0688
 20
-300.7481
 10
600.0413
 20
-300.8984
 10
599.8254
 20
-300.7357
 10
599.7245
 20
-300.6837
 10
599.6186
 20
-300.6433
 10
599.5076
 20
-300.6145
 10
599.3916
 20
-300.5971
 10
599.2679
 20
-300.595
 10
599.1335
 20
-300.6119
 10
598.9883
 20
-300.6477
 10
598.8325
 20
-300.7025
 10
598.7541
 20
-300.7369
 10
598.6806
 20
-300.7758
 10
598.6117
 20
-300.8191
 10
598.5476
 20
-300.8668
 10
598.4882
 20
-300.919
 10
598.4336
 20
-300.9756
 10
598.3836
 20
-301.0367
 10
598.3384
 20
-301.1022
 10
598.2707
 20
-301.2224
 10
598.2161
 20
-301.3497
 10
598.1745
 20
-301.4842
 10
598.1458
 20
-301.626
 10
597.9492
 20
-301.136
 10
597.4589
 20
-301.3316
 10
598.693
 20
-304.405
 10
599.1834
 20
-304.2094
 10
598.5518
 20
-302.6366
 10
598.5059
 20
-302.4463
 10
598.4798
 20
-302.2647
 10
598.4733
 20
-302.0916
 10
598.4864
 20
-301.9267
 10
598.5099
 20
-301.8089
 10
598.5464
 20
-301.696
 10
598.596
 20
-301.588
 10
598.6588
 20
-301.4849
 10
598.733
 20
-301.3915
 10
598.817
 20
-301.3124
 10
598.9109
 20
-301.2476
 10
599.0147
 20
-301.197
 10
599.118
 20
-301.1605
 10
599.2106
 20
-301.138
 10
599.2925
 20
-301.1295
 10
599.3638
 20
-301.1348
 10
599.4554
 20
-301.1586
 10
599.5411
 20
-301.1952
 10
599.621
 20
-301.2445
 10
599.6951
 20
-301.3066
 10
599.7633
 20
-301.3813
 10
599.8257
 20
-301.4687
 10
599.8823
 20
-301.5689
 10
599.933
 20
-301.6817
 10
600.7043
 20
-303.6028
 10
601.195
 20
-303.4072
 10
600.4234
 20
-301.4861
 10
600.373
 20
-301.3697
 10
600.3858
 20
-301.1689
 10
600.4091
 20
-301.0513
 10
600.4455
 20
-300.9385
 10
600.4952
 20
-300.8305
 10
600.5582
 20
-300.7275
 10
600.6322
 20
-300.6339
 10
600.7163
 20
-300.5547
 10
600.8103
 20
-300.4899
 10
600.9141
 20
-300.4395
 10
601.0173
 20
-300.4031
 10
601.1099
 20
-300.3806
 10
601.1919
 20
-300.372
 10
601.2632
 20
-300.3774
 10
601.3547
 20
-300.4012
 10
601.4404
 20
-300.4378
 10
601.5203
 20
-300.4871
 10
601.5944
 20
-300.5491
 10
601.6627
 20
-300.6238
 10
601.7251
 20
-300.7112
 10
601.7817
 20
-300.8113
 10
601.8324
 20
-300.924
 10
602.6038
 20
-302.845
  0
LWPOLYLINE
  5
11B
330
1F
100
AcDbEntity
  8
Layer 1
 62
     7
370
     9
100
AcDbPolyline
 90
      107
 70
     1
 43
0.0
 10
607.9513
 20
-300.7119
 10
608.442
 20
-300.5163
 10
607.6704
 20
-298.5956
 10
607.6152
 20
-298.4697
 10
607.5544
 20
-298.3529
 10
607.4881
 20
-298.2453
 10
607.4161
 20
-298.1469
 10
607.3386
 20
-298.0576
 10
607.2554
 20
-297.9776
 10
607.1667
 20
-297.9067
 10
607.0724
 20
-297.8451
 10
606.9714
 20
-297.7931
 10
606.8654
 20
-297.7526
 10
606.7545
 20
-297.7237
 10
606.6386
 20
-297.7065
 10
606.5149
 20
-297.7044
 10
606.3804
 20
-297.7213
 10
606.2352
 20
-297.7571
 10
606.0791
 20
-297.8119
 10
606.0009
 20
-297.8463
 10
605.9274
 20
-297.8852
 10
605.8586
 20
-297.9285
 10
605.7945
 20
-297.9763
 10
605.7352
 20
-298.0284
 10
605.6805
 20
-298.0851
 10
605.6306
 20
-298.1462
 10
605.5854
 20
-298.2117
 10
605.5145
 20
-298.338
 10
605.4582
 20
-298.4725
 10
605.4163
 20
-298.6152
 10
605.3888
 20
-298.7656
 10
605.173
 20
-298.6029
 10
605.0721
 20
-298.5507
 10
604.9662
 20
-298.5102
 10
604.8552
 20
-298.4813
 10
604.7392
 20
-298.4639
 10
604.6155
 20
-298.4619
 10
604.481
 20
-298.4789
 10
604.3358
 20
-298.5148
 10
604.18
 20
-298.5697
 10
604.1018
 20
-298.604
 10
604.0282
 20
-298.6429
 10
603.9594
 20
-298.6861
 10
603.8953
 20
-298.7339
 10
603.8359
 20
-298.786
 10
603.7812
 20
-298.8426
 10
603.7312
 20
-298.9037
 10
603.686
 20
-298.9691
 10
603.6183
 20
-299.0894
 10
603.5636
 20
-299.2167
 10
603.522
 20
-299.3512
 10
603.4934
 20
-299.4929
 10
603.2968
 20
-299.0029
 10
602.8064
 20
-299.1985
 10
604.0406
 20
-302.2719
 10
604.531
 20
-302.0763
 10
603.8994
 20
-300.5035
 10
603.8536
 20
-300.3134
 10
603.8275
 20
-300.1318
 10
603.821
 20
-299.9586
 10
603.834
 20
-299.7936
 10
603.8575
 20
-299.6758
 10
603.8941
 20
-299.563
 10
603.9437
 20
-299.4551
 10
604.0064
 20
-299.3521
 10
604.0806
 20
-299.2585
 10
604.1646
 20
-299.1794
 10
604.2585
 20
-299.1146
 10
604.3622
 20
-299.0642
 10
604.4655
 20
-299.0277
 10
604.5581
 20
-299.0052
 10
604.64
 20
-298.9967
 10
604.7114
 20
-299.002
 10
604.803
 20
-299.0258
 10
604.8887
 20
-299.0623
 10
604.9686
 20
-299.1116
 10
605.0427
 20
-299.1736
 10
605.1109
 20
-299.2483
 10
605.1733
 20
-299.3358
 10
605.2299
 20
-299.4359
 10
605.2806
 20
-299.5486
 10
606.0519
 20
-301.4697
 10
606.5426
 20
-301.2741
 10
605.771
 20
-299.353
 10
605.7205
 20
-299.2366
 10
605.7334
 20
-299.0358
 10
605.7567
 20
-298.9182
 10
605.7932
 20
-298.8054
 10
605.8429
 20
-298.6974
 10
605.9058
 20
-298.5944
 10
605.98
 20
-298.5008
 10
606.064
 20
-298.4216
 10
606.1579
 20
-298.3568
 10
606.2616
 20
-298.3064
 10
606.3648
 20
-298.27
 10
606.4574
 20
-298.2475
 10
606.5394
 20
-298.2389
 10
606.6108
 20
-298.2443
 10
606.7024
 20
-298.2681
 10
606.7881
 20
-298.3047
 10
606.868
 20
-298.354
 10
606.9421
 20
-298.4161
 10
607.0103
 20
-298.4908
 10
607.0727
 20
-298.5782
 10
607.1293
 20
-298.6784
 10
607.18
 20
-298.7912
 10
607.9513
 20
-300.7119
  0
LWPOLYLINE
  5
11C
330
1F
100
AcDbEntity
  8
Layer 1
 62
     7
370
     9
100
AcDbPolyline
 90
       87
 70
     1
 43
0.0
 10
592.4121
 20
-306.9263
 10
595.7692
 20
-305.5872
 10
595.5726
 20
-305.0982
 10
593.3999
 20
-305.965
 10
594.402
 20
-303.6613
 10
594.463
 20
-303.4998
 10
594.5071
 20
-303.3381
 10
594.5344
 20
-303.1764
 10
594.5449
 20
-303.0145
 10
594.5385
 20
-302.8524
 10
594.5153
 20
-302.6903
 10
594.4753
 20
-302.5281
 10
594.4185
 20
-302.3658
 10
594.3456
 20
-302.2057
 10
594.2606
 20
-302.058
 10
594.1634
 20
-301.9228
 10
594.054
 20
-301.8001
 10
593.9325
 20
-301.6898
 10
593.7989
 20
-301.5919
 10
593.6532
 20
-301.5065
 10
593.4953
 20
-301.4334
 10
593.3283
 20
-301.3737
 10
593.1617
 20
-301.3306
 10
592.9955
 20
-301.3043
 10
592.8296
 20
-301.2947
 10
592.6641
 20
-301.3018
 10
592.499
 20
-301.3256
 10
592.3342
 20
-301.3662
 10
592.1697
 20
-301.4234
 10
592.0051
 20
-301.4979
 10
591.8528
 20
-301.5852
 10
591.713
 20
-301.6853
 10
591.5855
 20
-301.7982
 10
591.4704
 20
-301.9239
 10
591.3677
 20
-302.0624
 10
591.2773
 20
-302.2137
 10
591.1994
 20
-302.3779
 10
591.1384
 20
-302.5451
 10
591.0956
 20
-302.7125
 10
591.0712
 20
-302.8802
 10
591.0649
 20
-303.0481
 10
591.077
 20
-303.2162
 10
591.1073
 20
-303.3845
 10
591.1558
 20
-303.5529
 10
591.2226
 20
-303.7216
 10
591.72
 20
-303.5233
 10
591.6721
 20
-303.4157
 10
591.6369
 20
-303.306
 10
591.6146
 20
-303.194
 10
591.6052
 20
-303.0799
 10
591.6085
 20
-302.9636
 10
591.6247
 20
-302.845
 10
591.6537
 20
-302.7243
 10
591.6955
 20
-302.6013
 10
591.7467
 20
-302.4859
 10
591.8066
 20
-302.3797
 10
591.8753
 20
-302.2825
 10
591.9528
 20
-302.1946
 10
592.0391
 20
-302.1158
 10
592.1342
 20
-302.0462
 10
592.238
 20
-301.9858
 10
592.3507
 20
-301.9346
 10
592.4653
 20
-301.8945
 10
592.5795
 20
-301.866
 10
592.6935
 20
-301.8491
 10
592.8071
 20
-301.8436
 10
592.9204
 20
-301.8497
 10
593.0333
 20
-301.8673
 10
593.146
 20
-301.8965
 10
593.2584
 20
-301.9371
 10
593.3675
 20
-301.988
 10
593.4679
 20
-302.047
 10
593.5598
 20
-302.1139
 10
593.6431
 20
-302.1889
 10
593.7177
 20
-302.2718
 10
593.7837
 20
-302.3628
 10
593.8412
 20
-302.4617
 10
593.89
 20
-302.5687
 10
593.9298
 20
-302.6819
 10
593.958
 20
-302.7947
 10
593.9745
 20
-302.9071
 10
593.9795
 20
-303.0191
 10
593.9728
 20
-303.1306
 10
593.9545
 20
-303.2417
 10
593.9247
 20
-303.3524
 10
593.8832
 20
-303.4626
 10
592.4121
 20
-306.9263
  0
ENDSEC
  0
SECTION
  2
OBJECTS
  0
DICTIONARY
  5
C
330
0
100
AcDbDictionary
281
     1
  3
ACAD_DETAILVIEWSTYLE
350
124
  3
ACAD_GROUP
350
D
  3
ACAD_LAYOUT
350
1A
  3
ACAD_MATERIAL
350
43
  3
ACAD_MLEADERSTYLE
350
5B
  3
ACAD_MLINESTYLE
350
17
  3
ACAD_PLOTSETTINGS
350
19
  3
ACAD_PLOTSTYLENAME
350
E
  3
ACAD_SCALELIST
350
47
  3
ACAD_SECTIONVIEWSTYLE
350
125
  3
ACAD_TABLESTYLE
350
59
  3
ACAD_VISUALSTYLE
350
2A
  3
ACDB_RECOMPOSE_DATA
350
121
  3
AcDbVariableDictionary
350
11D
  0
SUN
  5
5D
330
29
100
AcDbSun
 90
        1
290
     0
 63
     7
421
 16777215
 40
1.0
291
     1
 91
  2455826
 92
 54000000
292
     0
 70
     2
 71
   256
280
     1
  0
DICTIONARY
  5
124
102
{ACAD_REACTORS
330
C
102
}
330
C
100
AcDbDictionary
281
     1
  0
DICTIONARY
  5
D
102
{ACAD_REACTORS
330
C
102
}
330
C
100
AcDbDictionary
281
     1
  0
DICTIONARY
  5
1A
102
{ACAD_REACTORS
330
C
102
}
330
C
100
AcDbDictionary
281
     1
  3
Layout1
350
1E
  3
Layout2
350
26
  3
Model
350
22
  0
DICTIONARY
  5
43
102
{ACAD_REACTORS
330
C
102
}
330
C
100
AcDbDictionary
281
     1
  3
ByBlock
350
45
  3
ByLayer
350
44
  3
Global
350
46
  0
DICTIONARY
  5
5B
102
{ACAD_REACTORS
330
C
102
}
330
C
100
AcDbDictionary
281
     1
  3
Standard
350
5C
  0
DICTIONARY
  5
17
102
{ACAD_REACTORS
330
C
102
}
330
C
100
AcDbDictionary
281
     1
  3
Standard
350
18
  0
DICTIONARY
  5
19
102
{ACAD_REACTORS
330
C
102
}
330
C
100
AcDbDictionary
281
     1
  0
ACDBDICTIONARYWDFLT
  5
E
102
{ACAD_REACTORS
330
C
102
}
330
C
100
AcDbDictionary
281
     1
  3
Normal
350
F
100
AcDbDictionaryWithDefault
340
F
  0
DICTIONARY
  5
47
102
{ACAD_REACTORS
330
C
102
}
330
C
100
AcDbDictionary
281
     1
  3
A0
350
48
  3
A1
350
49
  3
A2
350
4A
  3
A3
350
4B
  3
A4
350
4C
  3
A5
350
4D
  3
A6
350
4E
  3
A7
350
4F
  3
A8
350
50
  3
A9
350
51
  3
B1
350
52
  3
B2
350
53
  3
B3
350
54
  3
B4
350
55
  3
B5
350
56
  3
B6
350
57
  3
B7
350
58
  0
DICTIONARY
  5
125
102
{ACAD_REACTORS
330
C
102
}
330
C
100
AcDbDictionary
281
     1
  0
DICTIONARY
  5
59
102
{ACAD_REACTORS
330
C
102
}
330
C
100
AcDbDictionary
281
     1
  3
Standard
350
5A
  0
DICTIONARY
  5
2A
102
{ACAD_REACTORS
330
C
102
}
330
C
100
AcDbDictionary
281
     1
  3
2dWireframe
350
2F
  3
Basic
350
32
  3
Brighten
350
36
  3
ColorChange
350
3A
  3
Conceptual
350
34
  3
Dim
350
35
  3
EdgeColorOff
350
3D
  3
Facepattern
350
39
  3
Flat
350
2B
  3
FlatWithEdges
350
2C
  3
Gouraud
350
2D
  3
GouraudWithEdges
350
2E
  3
Hidden
350
31
  3
JitterOff
350
3B
  3
Linepattern
350
38
  3
OverhangOff
350
3C
  3
Realistic
350
33
  3
Shaded
350
42
  3
Shaded with edges
350
41
  3
Shades of Gray
350
3E
  3
Sketchy
350
3F
  3
Thicken
350
37
  3
Wireframe
350
30
  3
X-Ray
350
40
  0
XRECORD
  5
121
102
{ACAD_REACTORS
330
C
102
}
330
C
100
AcDbXrecord
280
     1
 90
        1
330
5A
  0
DICTIONARY
  5
11D
102
{ACAD_REACTORS
330
C
102
}
330
C
100
AcDbDictionary
281
     1
  3
CANNOSCALE
350
11E
  3
CMLEADERSTYLE
350
123
  3
CTABLESTYLE
350
122
  0
LAYOUT
  5
1E
102
{ACAD_REACTORS
330
1A
102
}
330
1A
100
AcDbPlotSettings
  1

  2
none_device
  4

  6

 40
0.0
 41
0.0
 42
0.0
 43
0.0
 44
0.0
 45
0.0
 46
0.0
 47
0.0
 48
0.0
 49
0.0
140
0.0
141
0.0
142
1.0
143
1.0
 70
   688
 72
     0
 73
     0
 74
     5
  7

 75
    16
 76
     0
 77
     2
 78
   300
147
1.0
148
0.0
149
0.0
100
AcDbLayout
  1
Layout1
 70
     1
 71
     1
 10
0.0
 20
0.0
 11
12.0
 21
9.0
 12
0.0
 22
0.0
 32
0.0
 14
1.000000000000000E+20
 24
1.000000000000000E+20
 34
1.000000000000000E+20
 15
-1.000000000000000E+20
 25
-1.000000000000000E+20
 35
-1.000000000000000E+20
146
0.0
 13
0.0
 23
0.0
 33
0.0
 16
1.0
 26
0.0
 36
0.0
 17
0.0
 27
1.0
 37
0.0
 76
     0
330
1B
  0
LAYOUT
  5
26
102
{ACAD_REACTORS
330
1A
102
}
330
1A
100
AcDbPlotSettings
  1

  2
none_device
  4

  6

 40
0.0
 41
0.0
 42
0.0
 43
0.0
 44
0.0
 45
0.0
 46
0.0
 47
0.0
 48
0.0
 49
0.0
140
0.0
141
0.0
142
1.0
143
1.0
 70
   688
 72
     0
 73
     0
 74
     5
  7

 75
    16
 76
     0
 77
     2
 78
   300
147
1.0
148
0.0
149
0.0
100
AcDbLayout
  1
Layout2
 70
     1
 71
     2
 10
0.0
 20
0.0
 11
0.0
 21
0.0
 12
0.0
 22
0.0
 32
0.0
 14
0.0
 24
0.0
 34
0.0
 15
0.0
 25
0.0
 35
0.0
146
0.0
 13
0.0
 23
0.0
 33
0.0
 16
1.0
 26
0.0
 36
0.0
 17
0.0
 27
1.0
 37
0.0
 76
     0
330
23
  0
LAYOUT
  5
22
102
{ACAD_REACTORS
330
1A
102
}
330
1A
100
AcDbPlotSettings
  1

  2
none_device
  4
Letter_(8.50_x_11.00_Inches)
  6

 40
6.35
 41
6.35
 42
6.35000508
 43
6.35000508
 44
215.9
 45
279.4
 46
0.0
 47
0.0
 48
0.0
 49
0.0
140
0.0
141
0.0
142
1.0
143
1.0
 70
  1712
 72
     0
 73
     0
 74
     0
  7

 75
     0
 76
     0
 77
     2
 78
   300
147
1.0
148
0.0
149
0.0
100
AcDbLayout
  1
Model
 70
     1
 71
     0
 10
0.0
 20
0.0
 11
12.0
 21
9.0
 12
0.0
 22
0.0
 32
0.0
 14
506.4447
 24
-470.9155
 34
0.0
 15
787.3526
 25
-110.1486
 35
0.0
146
0.0
 13
0.0
 23
0.0
 33
0.0
 16
1.0
 26
0.0
 36
0.0
 17
0.0
 27
1.0
 37
0.0
 76
     0
330
1F
331
29
  0
MATERIAL
  5
45
102
{ACAD_REACTORS
330
43
102
}
330
43
100
AcDbMaterial
  1
ByBlock
 72
     1
 94
      127
  0
MATERIAL
  5
44
102
{ACAD_REACTORS
330
43
102
}
330
43
100
AcDbMaterial
  1
ByLayer
 72
     1
 94
      127
  0
MATERIAL
  5
46
102
{ACAD_REACTORS
330
43
102
}
330
43
100
AcDbMaterial
  1
Global
 72
     1
 94
      127
  0
MLEADERSTYLE
  5
5C
102
{ACAD_REACTORS
330
5B
102
}
330
5B
100
AcDbMLeaderStyle
179
     2
170
     2
171
     1
172
     0
 90
        2
 40
0.0
 41
0.0
173
     1
 91
-1056964608
340
14
 92
       -2
290
     1
 42
0.09
291
     1
 43
0.36
  3
Standard
341
0
 44
0.18
300

342
11
174
     1
178
     6
175
     1
176
     0
 93
-1056964608
 45
0.18
292
     0
297
     0
 46
0.18
343
0
 94
-1056964608
 47
1.0
 49
1.0
140
1.0
293
     1
141
0.0
294
     1
177
     0
142
1.0
295
     0
296
     0
143
0.125
271
     0
272
     9
273
     9
298
     0
  0
MLINESTYLE
  5
18
102
{ACAD_REACTORS
330
17
102
}
330
17
100
AcDbMlineStyle
  2
Standard
 70
     0
  3

 62
   256
 51
90.0
 52
90.0
 71
     2
 49
0.5
 62
   256
  6
BYLAYER
 49
-0.5
 62
   256
  6
BYLAYER
  0
ACDBPLACEHOLDER
  5
F
102
{ACAD_REACTORS
330
E
102
}
330
E
  0
SCALE
  5
48
102
{ACAD_REACTORS
330
47
102
}
330
47
100
AcDbScale
 70
     0
300
1:1
140
1.0
141
1.0
290
     1
  0
SCALE
  5
49
102
{ACAD_REACTORS
330
47
102
}
330
47
100
AcDbScale
 70
     0
300
1/128" = 1'-0"
140
0.0078125
141
12.0
290
     0
  0
SCALE
  5
4A
102
{ACAD_REACTORS
330
47
102
}
330
47
100
AcDbScale
 70
     0
300
1/64" = 1'-0"
140
0.015625
141
12.0
290
     0
  0
SCALE
  5
4B
102
{ACAD_REACTORS
330
47
102
}
330
47
100
AcDbScale
 70
     0
300
1/32" = 1'-0"
140
0.03125
141
12.0
290
     0
  0
SCALE
  5
4C
102
{ACAD_REACTORS
330
47
102
}
330
47
100
AcDbScale
 70
     0
300
1/16" = 1'-0"
140
0.0625
141
12.0
290
     0
  0
SCALE
  5
4D
102
{ACAD_REACTORS
330
47
102
}
330
47
100
AcDbScale
 70
     0
300
3/32" = 1'-0"
140
0.09375
141
12.0
290
     0
  0
SCALE
  5
4E
102
{ACAD_REACTORS
330
47
102
}
330
47
100
AcDbScale
 70
     0
300
1/8" = 1'-0"
140
0.125
141
12.0
290
     0
  0
SCALE
  5
4F
102
{ACAD_REACTORS
330
47
102
}
330
47
100
AcDbScale
 70
     0
300
3/16" = 1'-0"
140
0.1875
141
12.0
290
     0
  0
SCALE
  5
50
102
{ACAD_REACTORS
330
47
102
}
330
47
100
AcDbScale
 70
     0
300
1/4" = 1'-0"
140
0.25
141
12.0
290
     0
  0
SCALE
  5
51
102
{ACAD_REACTORS
330
47
102
}
330
47
100
AcDbScale
 70
     0
300
3/8" = 1'-0"
140
0.375
141
12.0
290
     0
  0
SCALE
  5
52
102
{ACAD_REACTORS
330
47
102
}
330
47
100
AcDbScale
 70
     0
300
1/2" = 1'-0"
140
0.5
141
12.0
290
     0
  0
SCALE
  5
53
102
{ACAD_REACTORS
330
47
102
}
330
47
100
AcDbScale
 70
     0
300
3/4" = 1'-0"
140
0.75
141
12.0
290
     0
  0
SCALE
  5
54
102
{ACAD_REACTORS
330
47
102
}
330
47
100
AcDbScale
 70
     0
300
1" = 1'-0"
140
1.0
141
12.0
290
     0
  0
SCALE
  5
55
102
{ACAD_REACTORS
330
47
102
}
330
47
100
AcDbScale
 70
     0
300
1-1/2" = 1'-0"
140
1.5
141
12.0
290
     0
  0
SCALE
  5
56
102
{ACAD_REACTORS
330
47
102
}
330
47
100
AcDbScale
 70
     0
300
3" = 1'-0"
140
3.0
141
12.0
290
     0
  0
SCALE
  5
57
102
{ACAD_REACTORS
330
47
102
}
330
47
100
AcDbScale
 70
     0
300
6" = 1'-0"
140
6.0
141
12.0
290
     0
  0
SCALE
  5
58
102
{ACAD_REACTORS
330
47
102
}
330
47
100
AcDbScale
 70
     0
300
1'-0" = 1'-0"
140
12.0
141
12.0
290
     0
  0
TABLESTYLE
  5
5A
102
{ACAD_REACTORS
330
59
102
}
102
{ACAD_XDICTIONARY
360
11F
102
}
330
59
100
AcDbTableStyle
  3
Standard
 70
     0
 71
     0
 40
0.06
 41
0.06
280
     0
281
     0
  7
Standard
140
0.18
170
     2
 62
     0
 63
   257
283
     0
 90
        4
 91
        0
  1

274
    -2
284
     1
 64
     0
275
    -2
285
     1
 65
     0
276
    -2
286
     1
 66
     0
277
    -2
287
     1
 67
     0
278
    -2
288
     1
 68
     0
279
    -2
289
     1
 69
     0
  7
Standard
140
0.25
170
     5
 62
     0
 63
   257
283
     0
 90
        4
 91
        0
  1

274
    -2
284
     1
 64
     0
275
    -2
285
     1
 65
     0
276
    -2
286
     1
 66
     0
277
    -2
287
     1
 67
     0
278
    -2
288
     1
 68
     0
279
    -2
289
     1
 69
     0
  7
Standard
140
0.18
170
     5
 62
     0
 63
   257
283
     0
 90
        4
 91
        0
  1

274
    -2
284
     1
 64
     0
275
    -2
285
     1
 65
     0
276
    -2
286
     1
 66
     0
277
    -2
287
     1
 67
     0
278
    -2
288
     1
 68
     0
279
    -2
289
     1
 69
     0
  0
VISUALSTYLE
  5
2F
102
{ACAD_REACTORS
330
2A
102
}
330
2A
100
AcDbVisualStyle
  2
2dWireframe
 70
     4
177
     3
291
     0
 70
    58
 90
        0
176
     1
 90
        2
176
     1
 90
        0
176
     1
 90
        0
176
     1
 40
0.6
176
     1
 40
30.0
176
     1
 62
     7
420
 16777215
176
     1
 90
        1
176
     1
 90
        4
176
     1
 62
     7
176
     1
 62
   257
176
     1
 90
        1
176
     1
 90
        1
176
     1
 40
1.0
176
     1
 90
        0
176
     1
 62
   257
176
     1
 40
1.0
176
     1
 90
        1
176
     1
 90
        6
176
     1
 90
        2
176
     1
 62
     7
176
     1
 90
        5
176
     1
 90
        0
176
     1
 90
        0
176
     1
290
     0
176
     1
 90
        1
176
     1
 40
0.0
176
     1
 90
        0
176
     1
290
     1
176
     1
290
     1
176
     1
290
     0
176
     1
290
     0
176
     1
290
     0
176
     1
290
     0
176
     1
290
     0
176
     1
290
     0
176
     1
290
     0
176
     1
 90
       50
176
     1
 40
0.0
176
     1
 40
1.0
176
     1
 90
        0
176
     1
 62
    18
420
        0
176
     1
 90
       50
176
     1
 90
        3
176
     1
 62
     5
420
      255
176
     1
290
     0
176
     1
 90
       50
176
     1
 90
       50
176
     1
 90
       50
176
     1
290
     0
176
     1
 90
       50
176
     1
 62
   256
176
     0
 40
1.0
176
     0
 90
        2
176
     1
  1
strokes_ogs.tif
176
     1
290
     0
176
     1
 40
1.0
176
     1
 40
1.0
176
     1
  0
VISUALSTYLE
  5
32
102
{ACAD_REACTORS
330
2A
102
}
330
2A
100
AcDbVisualStyle
  2
Basic
 70
     7
177
     3
291
     1
 70
    58
 90
        1
176
     1
 90
        0
176
     1
 90
        1
176
     1
 90
        0
176
     1
 40
0.6
176
     1
 40
30.0
176
     1
 62
     7
420
 16777215
176
     1
 90
        0
176
     1
 90
        4
176
     1
 62
     7
176
     1
 62
   257
176
     1
 90
        1
176
     1
 90
        1
176
     1
 40
1.0
176
     1
 90
        8
176
     1
 62
     7
176
     1
 40
1.0
176
     1
 90
        1
176
     1
 90
        6
176
     1
 90
        2
176
     1
 62
     7
176
     1
 90
        5
176
     1
 90
        0
176
     1
 90
        0
176
     1
290
     0
176
     1
 90
        1
176
     1
 40
0.0
176
     1
 90
        0
176
     1
290
     0
176
     1
290
     1
176
     1
290
     1
176
     1
290
     0
176
     1
290
     0
176
     1
290
     0
176
     1
290
     0
176
     1
290
     0
176
     1
290
     0
176
     1
 90
       50
176
     1
 40
0.0
176
     1
 40
1.0
176
     1
 90
        0
176
     1
 62
    18
420
        0
176
     1
 90
       50
176
     1
 90
        3
176
     1
 62
     5
420
      255
176
     1
290
     0
176
     1
 90
       50
176
     1
 90
       50
176
     1
 90
       50
176
     1
290
     0
176
     1
 90
       50
176
     1
 62
   256
176
     0
 40
1.0
176
     0
 90
        2
176
     1
  1
strokes_ogs.tif
176
     1
290
     0
176
     1
 40
1.0
176
     1
 40
1.0
176
     1
  0
VISUALSTYLE
  5
36
102
{ACAD_REACTORS
330
2A
102
}
330
2A
100
AcDbVisualStyle
  2
Brighten
 70
    12
177
     3
291
     1
 70
    58
 90
        2
176
     1
 90
        2
176
     1
 90
        0
176
     1
 90
        0
176
     1
 40
0.6
176
     1
 40
30.0
176
     1
 62
     7
420
 16777215
176
     1
 90
        1
176
     1
 90
        4
176
     1
 62
     7
176
     1
 62
   257
176
     1
 90
        1
176
     1
 90
        1
176
     1
 40
1.0
176
     1
 90
        8
176
     1
 62
     7
176
     1
 40
1.0
176
     1
 90
        1
176
     1
 90
        6
176
     1
 90
        2
176
     1
 62
     7
176
     1
 90
        5
176
     1
 90
        0
176
     1
 90
        0
176
     1
290
     0
176
     1
 90
        1
176
     1
 40
50.0
176
     1
 90
        0
176
     1
290
     0
176
     1
290
     1
176
     1
290
     1
176
     1
290
     0
176
     1
290
     0
176
     1
290
     0
176
     1
290
     0
176
     1
290
     0
176
     1
290
     0
176
     1
 90
       50
176
     1
 40
0.0
176
     1
 40
1.0
176
     1
 90
        0
176
     1
 62
    18
420
        0
176
     1
 90
       50
176
     1
 90
        3
176
     1
 62
     5
420
      255
176
     1
290
     0
176
     1
 90
       50
176
     1
 90
       50
176
     1
 90
       50
176
     1
290
     0
176
     1
 90
       50
176
     1
 62
   256
176
     0
 40
1.0
176
     0
 90
        2
176
     1
  1
strokes_ogs.tif
176
     1
290
     0
176
     1
 40
1.0
176
     1
 40
1.0
176
     1
  0
VISUALSTYLE
  5
3A
102
{ACAD_REACTORS
330
2A
102
}
330
2A
100
AcDbVisualStyle
  2
ColorChange
 70
    16
177
     3
291
     1
 70
    58
 90
        2
176
     1
 90
        2
176
     1
 90
        3
176
     1
 90
        0
176
     1
 40
0.6
176
     1
 40
30.0
176
     1
 62
     8
420
  8421504
176
     1
 90
        1
176
     1
 90
        4
176
     1
 62
     7
176
     1
 62
   257
176
     1
 90
        1
176
     1
 90
        1
176
     1
 40
1.0
176
     1
 90
        8
176
     1
 62
     8
420
  8421504
176
     1
 40
1.0
176
     1
 90
        1
176
     1
 90
        6
176
     1
 90
        2
176
     1
 62
     7
176
     1
 90
        5
176
     1
 90
        0
176
     1
 90
        0
176
     1
290
     0
176
     1
 90
        1
176
     1
 40
0.0
176
     1
 90
        0
176
     1
290
     0
176
     1
290
     1
176
     1
290
     1
176
     1
290
     0
176
     1
290
     0
176
     1
290
     0
176
     1
290
     0
176
     1
290
     0
176
     1
290
     0
176
     1
 90
       50
176
     1
 40
0.0
176
     1
 40
1.0
176
     1
 90
        0
176
     1
 62
    18
420
        0
176
     1
 90
       50
176
     1
 90
        3
176
     1
 62
     5
420
      255
176
     1
290
     0
176
     1
 90
       50
176
     1
 90
       50
176
     1
 90
       50
176
     1
290
     0
176
     1
 90
       50
176
     1
 62
   256
176
     0
 40
1.0
176
     0
 90
        2
176
     1
  1
strokes_ogs.tif
176
     1
290
     0
176
     1
 40
1.0
176
     1
 40
1.0
176
     1
  0
VISUALSTYLE
  5
34
102
{ACAD_REACTORS
330
2A
102
}
330
2A
100
AcDbVisualStyle
  2
Conceptual
 70
     9
177
     3
291
     0
 70
    58
 90
        3
176
     1
 90
        2
176
     1
 90
        0
176
     1
 90
        0
176
     1
 40
0.6
176
     1
 40
30.0
176
     1
 62
     7
420
 16777215
176
     1
 90
        2
176
     1
 90
        2
176
     1
 62
     7
176
     1
 62
   257
176
     1
 90
        1
176
     1
 90
        1
176
     1
 40
179.0
176
     1
 90
        8
176
     1
 62
     7
176
     1
 40
1.0
176
     1
 90
        1
176
     1
 90
        6
176
     1
 90
        2
176
     1
 62
     7
176
     1
 90
        3
176
     1
 90
        0
176
     1
 90
        0
176
     1
290
     0
176
     1
 90
        1
176
     1
 40
0.0
176
     1
 90
        0
176
     1
290
     0
176
     1
290
     1
176
     1
290
     1
176
     1
290
     0
176
     1
290
     0
176
     1
290
     0
176
     1
290
     0
176
     1
290
     0
176
     1
290
     0
176
     1
 90
       50
176
     1
 40
0.0
176
     1
 40
1.0
176
     1
 90
        0
176
     1
 62
    18
420
        0
176
     1
 90
       50
176
     1
 90
        3
176
     1
 62
     5
420
      255
176
     1
290
     0
176
     1
 90
       50
176
     1
 90
       50
176
     1
 90
       50
176
     1
290
     0
176
     1
 90
       50
176
     1
 62
   256
176
     0
 40
1.0
176
     0
 90
        2
176
     1
  1
strokes_ogs.tif
176
     1
290
     0
176
     1
 40
1.0
176
     1
 40
1.0
176
     1
  0
VISUALSTYLE
  5
35
102
{ACAD_REACTORS
330
2A
102
}
330
2A
100
AcDbVisualStyle
  2
Dim
 70
    11
177
     3
291
     1
 70
    58
 90
        2
176
     1
 90
        2
176
     1
 90
        0
176
     1
 90
        0
176
     1
 40
0.6
176
     1
 40
30.0
176
     1
 62
     7
420
 16777215
176
     1
 90
        1
176
     1
 90
        4
176
     1
 62
     7
176
     1
 62
   257
176
     1
 90
        1
176
     1
 90
        1
176
     1
 40
1.0
176
     1
 90
        8
176
     1
 62
     7
176
     1
 40
1.0
176
     1
 90
        1
176
     1
 90
        6
176
     1
 90
        2
176
     1
 62
     7
176
     1
 90
        5
176
     1
 90
        0
176
     1
 90
        0
176
     1
290
     0
176
     1
 90
        1
176
     1
 40
-50.0
176
     1
 90
        0
176
     1
290
     0
176
     1
290
     1
176
     1
290
     1
176
     1
290
     0
176
     1
290
     0
176
     1
290
     0
176
     1
290
     0
176
     1
290
     0
176
     1
290
     0
176
     1
 90
       50
176
     1
 40
0.0
176
     1
 40
1.0
176
     1
 90
        0
176
     1
 62
    18
420
        0
176
     1
 90
       50
176
     1
 90
        3
176
     1
 62
     5
420
      255
176
     1
290
     0
176
     1
 90
       50
176
     1
 90
       50
176
     1
 90
       50
176
     1
290
     0
176
     1
 90
       50
176
     1
 62
   256
176
     0
 40
1.0
176
     0
 90
        2
176
     1
  1
strokes_ogs.tif
176
     1
290
     0
176
     1
 40
1.0
176
     1
 40
1.0
176
     1
  0
VISUALSTYLE
  5
3D
102
{ACAD_REACTORS
330
2A
102
}
330
2A
100
AcDbVisualStyle
  2
EdgeColorOff
 70
    22
177
     3
291
     1
 70
    58
 90
        2
176
     0
 90
        2
176
     0
 90
        0
176
     0
 90
        0
176
     0
 40
0.6
176
     0
 40
30.0
176
     0
 62
     7
420
 16777215
176
     0
 90
        1
176
     0
 90
        4
176
     0
 62
     7
176
     0
 62
   257
176
     0
 90
        1
176
     0
 90
        1
176
     0
 40
1.0
176
     0
 90
        8
176
     2
 62
     7
176
     0
 40
1.0
176
     0
 90
        1
176
     0
 90
        6
176
     0
 90
        2
176
     0
 62
     7
176
     0
 90
        5
176
     0
 90
        0
176
     0
 90
        0
176
     0
290
     0
176
     0
 90
        1
176
     0
 40
0.0
176
     0
 90
        0
176
     0
290
     0
176
     0
290
     1
176
     0
290
     1
176
     0
290
     0
176
     0
290
     0
176
     0
290
     0
176
     0
290
     0
176
     0
290
     0
176
     0
290
     0
176
     0
 90
       50
176
     0
 40
0.0
176
     0
 40
1.0
176
     0
 90
        0
176
     0
 62
    18
420
        0
176
     0
 90
       50
176
     0
 90
        3
176
     0
 62
     5
420
      255
176
     0
290
     0
176
     0
 90
       50
176
     0
 90
       50
176
     0
 90
       50
176
     0
290
     0
176
     0
 90
       50
176
     0
 62
   256
176
     0
 40
1.0
176
     0
 90
        2
176
     0
  1
strokes_ogs.tif
176
     0
290
     0
176
     0
 40
1.0
176
     0
 40
1.0
176
     0
  0
VISUALSTYLE
  5
39
102
{ACAD_REACTORS
330
2A
102
}
330
2A
100
AcDbVisualStyle
  2
Facepattern
 70
    15
177
     3
291
     1
 70
    58
 90
        2
176
     1
 90
        2
176
     1
 90
        0
176
     1
 90
        0
176
     1
 40
0.6
176
     1
 40
30.0
176
     1
 62
     7
420
 16777215
176
     1
 90
        1
176
     1
 90
        4
176
     1
 62
     7
176
     1
 62
   257
176
     1
 90
        1
176
     1
 90
        1
176
     1
 40
1.0
176
     1
 90
        8
176
     1
 62
     7
176
     1
 40
1.0
176
     1
 90
        1
176
     1
 90
        6
176
     1
 90
        2
176
     1
 62
     7
176
     1
 90
        5
176
     1
 90
        0
176
     1
 90
        0
176
     1
290
     0
176
     1
 90
        1
176
     1
 40
0.0
176
     1
 90
        0
176
     1
290
     0
176
     1
290
     1
176
     1
290
     1
176
     1
290
     0
176
     1
290
     0
176
     1
290
     0
176
     1
290
     0
176
     1
290
     0
176
     1
290
     0
176
     1
 90
       50
176
     1
 40
0.0
176
     1
 40
1.0
176
     1
 90
        0
176
     1
 62
    18
420
        0
176
     1
 90
       50
176
     1
 90
        3
176
     1
 62
     5
420
      255
176
     1
290
     0
176
     1
 90
       50
176
     1
 90
       50
176
     1
 90
       50
176
     1
290
     0
176
     1
 90
       50
176
     1
 62
   256
176
     0
 40
1.0
176
     0
 90
        2
176
     1
  1
strokes_ogs.tif
176
     1
290
     0
176
     1
 40
1.0
176
     1
 40
1.0
176
     1
  0
VISUALSTYLE
  5
2B
102
{ACAD_REACTORS
330
2A
102
}
330
2A
100
AcDbVisualStyle
  2
Flat
 70
     0
177
     3
291
     1
 70
    58
 90
        2
176
     1
 90
        1
176
     1
 90
        1
176
     1
 90
        2
176
     1
 40
0.6
176
     1
 40
30.0
176
     1
 62
     7
420
 16777215
176
     1
 90
        0
176
     1
 90
        0
176
     1
 62
     7
176
     1
 62
   257
176
     1
 90
        1
176
     1
 90
        1
176
     1
 40
1.0
176
     1
 90
        8
176
     1
 62
     7
176
     1
 40
1.0
176
     1
 90
        1
176
     1
 90
        6
176
     1
 90
        2
176
     1
 62
     7
176
     1
 90
        5
176
     1
 90
        0
176
     1
 90
        0
176
     1
290
     0
176
     1
 90
       13
176
     1
 40
0.0
176
     1
 90
        0
176
     1
290
     0
176
     1
290
     1
176
     1
290
     1
176
     1
290
     0
176
     1
290
     0
176
     1
290
     0
176
     1
290
     0
176
     1
290
     0
176
     1
290
     0
176
     1
 90
       50
176
     1
 40
0.0
176
     1
 40
1.0
176
     1
 90
        0
176
     1
 62
    18
420
        0
176
     1
 90
       50
176
     1
 90
        3
176
     1
 62
     5
420
      255
176
     1
290
     0
176
     1
 90
       50
176
     1
 90
       50
176
     1
 90
       50
176
     1
290
     0
176
     1
 90
       50
176
     1
 62
   256
176
     0
 40
1.0
176
     0
 90
        2
176
     1
  1
strokes_ogs.tif
176
     1
290
     0
176
     1
 40
1.0
176
     1
 40
1.0
176
     1
  0
VISUALSTYLE
  5
2C
102
{ACAD_REACTORS
330
2A
102
}
330
2A
100
AcDbVisualStyle
  2
FlatWithEdges
 70
     1
177
     3
291
     1
 70
    58
 90
        2
176
     1
 90
        1
176
     1
 90
        1
176
     1
 90
        2
176
     1
 40
0.6
176
     1
 40
30.0
176
     1
 62
     7
420
 16777215
176
     1
 90
        1
176
     1
 90
        0
176
     1
 62
     7
176
     1
 62
   257
176
     1
 90
        1
176
     1
 90
        1
176
     1
 40
1.0
176
     1
 90
        0
176
     1
 62
   257
176
     1
 40
1.0
176
     1
 90
        1
176
     1
 90
        6
176
     1
 90
        2
176
     1
 62
     7
176
     1
 90
        5
176
     1
 90
        0
176
     1
 90
        0
176
     1
290
     0
176
     1
 90
       13
176
     1
 40
0.0
176
     1
 90
        0
176
     1
290
     0
176
     1
290
     1
176
     1
290
     1
176
     1
290
     0
176
     1
290
     0
176
     1
290
     0
176
     1
290
     0
176
     1
290
     0
176
     1
290
     0
176
     1
 90
       50
176
     1
 40
0.0
176
     1
 40
1.0
176
     1
 90
        0
176
     1
 62
    18
420
        0
176
     1
 90
       50
176
     1
 90
        3
176
     1
 62
     5
420
      255
176
     1
290
     0
176
     1
 90
       50
176
     1
 90
       50
176
     1
 90
       50
176
     1
290
     0
176
     1
 90
       50
176
     1
 62
   256
176
     0
 40
1.0
176
     0
 90
        2
176
     1
  1
strokes_ogs.tif
176
     1
290
     0
176
     1
 40
1.0
176
     1
 40
1.0
176
     1
  0
VISUALSTYLE
  5
2D
102
{ACAD_REACTORS
330
2A
102
}
330
2A
100
AcDbVisualStyle
  2
Gouraud
 70
     2
177
     3
291
     1
 70
    58
 90
        2
176
     1
 90
        2
176
     1
 90
        1
176
     1
 90
        2
176
     1
 40
0.6
176
     1
 40
30.0
176
     1
 62
     7
420
 16777215
176
     1
 90
        0
176
     1
 90
        0
176
     1
 62
     7
176
     1
 62
   257
176
     1
 90
        1
176
     1
 90
        1
176
     1
 40
1.0
176
     1
 90
        0
176
     1
 62
     7
176
     1
 40
1.0
176
     1
 90
        1
176
     1
 90
        6
176
     1
 90
        2
176
     1
 62
     7
176
     1
 90
        5
176
     1
 90
        0
176
     1
 90
        0
176
     1
290
     0
176
     1
 90
       13
176
     1
 40
0.0
176
     1
 90
        0
176
     1
290
     0
176
     1
290
     1
176
     1
290
     1
176
     1
290
     0
176
     1
290
     0
176
     1
290
     0
176
     1
290
     0
176
     1
290
     0
176
     1
290
     0
176
     1
 90
       50
176
     1
 40
0.0
176
     1
 40
1.0
176
     1
 90
        0
176
     1
 62
    18
420
        0
176
     1
 90
       50
176
     1
 90
        3
176
     1
 62
     5
420
      255
176
     1
290
     0
176
     1
 90
       50
176
     1
 90
       50
176
     1
 90
       50
176
     1
290
     0
176
     1
 90
       50
176
     1
 62
   256
176
     0
 40
1.0
176
     0
 90
        2
176
     1
  1
strokes_ogs.tif
176
     1
290
     0
176
     1
 40
1.0
176
     1
 40
1.0
176
     1
  0
VISUALSTYLE
  5
2E
102
{ACAD_REACTORS
330
2A
102
}
330
2A
100
AcDbVisualStyle
  2
GouraudWithEdges
 70
     3
177
     3
291
     1
 70
    58
 90
        2
176
     1
 90
        2
176
     1
 90
        1
176
     1
 90
        2
176
     1
 40
0.6
176
     1
 40
30.0
176
     1
 62
     7
420
 16777215
176
     1
 90
        1
176
     1
 90
        0
176
     1
 62
     7
176
     1
 62
   257
176
     1
 90
        1
176
     1
 90
        1
176
     1
 40
1.0
176
     1
 90
        0
176
     1
 62
   257
176
     1
 40
1.0
176
     1
 90
        1
176
     1
 90
        6
176
     1
 90
        2
176
     1
 62
     7
176
     1
 90
        5
176
     1
 90
        0
176
     1
 90
        0
176
     1
290
     0
176
     1
 90
       13
176
     1
 40
0.0
176
     1
 90
        0
176
     1
290
     0
176
     1
290
     1
176
     1
290
     1
176
     1
290
     0
176
     1
290
     0
176
     1
290
     0
176
     1
290
     0
176
     1
290
     0
176
     1
290
     0
176
     1
 90
       50
176
     1
 40
0.0
176
     1
 40
1.0
176
     1
 90
        0
176
     1
 62
    18
420
        0
176
     1
 90
       50
176
     1
 90
        3
176
     1
 62
     5
420
      255
176
     1
290
     0
176
     1
 90
       50
176
     1
 90
       50
176
     1
 90
       50
176
     1
290
     0
176
     1
 90
       50
176
     1
 62
   256
176
     0
 40
1.0
176
     0
 90
        2
176
     1
  1
strokes_ogs.tif
176
     1
290
     0
176
     1
 40
1.0
176
     1
 40
1.0
176
     1
  0
VISUALSTYLE
  5
31
102
{ACAD_REACTORS
330
2A
102
}
330
2A
100
AcDbVisualStyle
  2
Hidden
 70
     6
177
     3
291
     0
 70
    58
 90
        1
176
     1
 90
        2
176
     1
 90
        2
176
     1
 90
        0
176
     1
 40
0.6
176
     1
 40
30.0
176
     1
 62
     7
420
 16777215
176
     1
 90
        2
176
     1
 90
        2
176
     1
 62
     7
176
     1
 62
   257
176
     1
 90
        2
176
     1
 90
        1
176
     1
 40
40.0
176
     1
 90
        0
176
     1
 62
   257
176
     1
 40
1.0
176
     1
 90
        1
176
     1
 90
        6
176
     1
 90
        2
176
     1
 62
     7
176
     1
 90
        3
176
     1
 90
        0
176
     1
 90
        0
176
     1
290
     0
176
     1
 90
        1
176
     1
 40
0.0
176
     1
 90
        0
176
     1
290
     0
176
     1
290
     1
176
     1
290
     1
176
     1
290
     0
176
     1
290
     0
176
     1
290
     0
176
     1
290
     0
176
     1
290
     0
176
     1
290
     0
176
     1
 90
       50
176
     1
 40
0.0
176
     1
 40
1.0
176
     1
 90
        0
176
     1
 62
    18
420
        0
176
     1
 90
       50
176
     1
 90
        3
176
     1
 62
     5
420
      255
176
     1
290
     0
176
     1
 90
       50
176
     1
 90
       50
176
     1
 90
       50
176
     1
290
     0
176
     1
 90
       50
176
     1
 62
   256
176
     0
 40
1.0
176
     0
 90
        2
176
     1
  1
strokes_ogs.tif
176
     1
290
     0
176
     1
 40
1.0
176
     1
 40
1.0
176
     1
  0
VISUALSTYLE
  5
3B
102
{ACAD_REACTORS
330
2A
102
}
330
2A
100
AcDbVisualStyle
  2
JitterOff
 70
    20
177
     3
291
     1
 70
    58
 90
        2
176
     0
 90
        2
176
     0
 90
        0
176
     0
 90
        0
176
     0
 40
0.6
176
     0
 40
30.0
176
     0
 62
     7
420
 16777215
176
     0
 90
        1
176
     0
 90
        4
176
     0
 62
     7
176
     0
 62
   257
176
     0
 90
        1
176
     0
 90
        1
176
     0
 40
1.0
176
     0
 90
       10
176
     2
 62
     7
176
     0
 40
1.0
176
     0
 90
        1
176
     0
 90
        6
176
     0
 90
        2
176
     0
 62
     7
176
     0
 90
        5
176
     0
 90
        0
176
     0
 90
        0
176
     0
290
     0
176
     0
 90
        1
176
     0
 40
0.0
176
     0
 90
        0
176
     0
290
     0
176
     0
290
     1
176
     0
290
     1
176
     0
290
     0
176
     0
290
     0
176
     0
290
     0
176
     0
290
     0
176
     0
290
     0
176
     0
290
     0
176
     0
 90
       50
176
     0
 40
0.0
176
     0
 40
1.0
176
     0
 90
        0
176
     0
 62
    18
420
        0
176
     0
 90
       50
176
     0
 90
        3
176
     0
 62
     5
420
      255
176
     0
290
     0
176
     0
 90
       50
176
     0
 90
       50
176
     0
 90
       50
176
     0
290
     0
176
     0
 90
       50
176
     0
 62
   256
176
     0
 40
1.0
176
     0
 90
        2
176
     0
  1
strokes_ogs.tif
176
     0
290
     0
176
     0
 40
1.0
176
     0
 40
1.0
176
     0
  0
VISUALSTYLE
  5
38
102
{ACAD_REACTORS
330
2A
102
}
330
2A
100
AcDbVisualStyle
  2
Linepattern
 70
    14
177
     3
291
     1
 70
    58
 90
        2
176
     1
 90
        2
176
     1
 90
        0
176
     1
 90
        0
176
     1
 40
0.6
176
     1
 40
30.0
176
     1
 62
     7
420
 16777215
176
     1
 90
        1
176
     1
 90
        4
176
     1
 62
     7
176
     1
 62
   257
176
     1
 90
        7
176
     1
 90
        7
176
     1
 40
1.0
176
     1
 90
        8
176
     1
 62
     7
176
     1
 40
1.0
176
     1
 90
        1
176
     1
 90
        6
176
     1
 90
        2
176
     1
 62
     7
176
     1
 90
        5
176
     1
 90
        0
176
     1
 90
        0
176
     1
290
     0
176
     1
 90
        1
176
     1
 40
0.0
176
     1
 90
        0
176
     1
290
     0
176
     1
290
     1
176
     1
290
     1
176
     1
290
     0
176
     1
290
     0
176
     1
290
     0
176
     1
290
     0
176
     1
290
     0
176
     1
290
     0
176
     1
 90
       50
176
     1
 40
0.0
176
     1
 40
1.0
176
     1
 90
        0
176
     1
 62
    18
420
        0
176
     1
 90
       50
176
     1
 90
        3
176
     1
 62
     5
420
      255
176
     1
290
     0
176
     1
 90
       50
176
     1
 90
       50
176
     1
 90
       50
176
     1
290
     0
176
     1
 90
       50
176
     1
 62
   256
176
     0
 40
1.0
176
     0
 90
        2
176
     1
  1
strokes_ogs.tif
176
     1
290
     0
176
     1
 40
1.0
176
     1
 40
1.0
176
     1
  0
VISUALSTYLE
  5
3C
102
{ACAD_REACTORS
330
2A
102
}
330
2A
100
AcDbVisualStyle
  2
OverhangOff
 70
    21
177
     3
291
     1
 70
    58
 90
        2
176
     0
 90
        2
176
     0
 90
        0
176
     0
 90
        0
176
     0
 40
0.6
176
     0
 40
30.0
176
     0
 62
     7
420
 16777215
176
     0
 90
        1
176
     0
 90
        4
176
     0
 62
     7
176
     0
 62
   257
176
     0
 90
        1
176
     0
 90
        1
176
     0
 40
1.0
176
     0
 90
        9
176
     2
 62
     7
176
     0
 40
1.0
176
     0
 90
        1
176
     0
 90
        6
176
     0
 90
        2
176
     0
 62
     7
176
     0
 90
        5
176
     0
 90
        0
176
     0
 90
        0
176
     0
290
     0
176
     0
 90
        1
176
     0
 40
0.0
176
     0
 90
        0
176
     0
290
     0
176
     0
290
     1
176
     0
290
     1
176
     0
290
     0
176
     0
290
     0
176
     0
290
     0
176
     0
290
     0
176
     0
290
     0
176
     0
290
     0
176
     0
 90
       50
176
     0
 40
0.0
176
     0
 40
1.0
176
     0
 90
        0
176
     0
 62
    18
420
        0
176
     0
 90
       50
176
     0
 90
        3
176
     0
 62
     5
420
      255
176
     0
290
     0
176
     0
 90
       50
176
     0
 90
       50
176
     0
 90
       50
176
     0
290
     0
176
     0
 90
       50
176
     0
 62
   256
176
     0
 40
1.0
176
     0
 90
        2
176
     0
  1
strokes_ogs.tif
176
     0
290
     0
176
     0
 40
1.0
176
     0
 40
1.0
176
     0
  0
VISUALSTYLE
  5
33
102
{ACAD_REACTORS
330
2A
102
}
330
2A
100
AcDbVisualStyle
  2
Realistic
 70
     8
177
     3
291
     0
 70
    58
 90
        2
176
     1
 90
        3
176
     1
 90
        0
176
     1
 90
        2
176
     1
 40
0.6
176
     1
 40
30.0
176
     1
 62
     7
420
 16777215
176
     1
 90
        0
176
     1
 90
        0
176
     1
 62
     7
176
     1
 62
   257
176
     1
 90
        1
176
     1
 90
        1
176
     1
 40
1.0
176
     1
 90
        8
176
     1
 62
   257
176
     1
 40
1.0
176
     1
 90
        1
176
     1
 90
        6
176
     1
 90
        2
176
     1
 62
     7
176
     1
 90
        3
176
     1
 90
        0
176
     1
 90
        0
176
     1
290
     0
176
     1
 90
       13
176
     1
 40
0.0
176
     1
 90
        0
176
     1
290
     0
176
     1
290
     1
176
     1
290
     1
176
     1
290
     0
176
     1
290
     0
176
     1
290
     0
176
     1
290
     0
176
     1
290
     0
176
     1
290
     0
176
     1
 90
       50
176
     1
 40
0.0
176
     1
 40
1.0
176
     1
 90
        0
176
     1
 62
    18
420
        0
176
     1
 90
       50
176
     1
 90
        3
176
     1
 62
     5
420
      255
176
     1
290
     0
176
     1
 90
       50
176
     1
 90
       50
176
     1
 90
       50
176
     1
290
     0
176
     1
 90
       50
176
     1
 62
   256
176
     0
 40
1.0
176
     0
 90
        2
176
     1
  1
strokes_ogs.tif
176
     1
290
     0
176
     1
 40
1.0
176
     1
 40
1.0
176
     1
  0
VISUALSTYLE
  5
42
102
{ACAD_REACTORS
330
2A
102
}
330
2A
100
AcDbVisualStyle
  2
Shaded
 70
    27
177
     3
291
     0
 70
    58
 90
        2
176
     1
 90
        2
176
     1
 90
        1
176
     1
 90
        2
176
     1
 40
0.6
176
     1
 40
30.0
176
     1
 62
     7
420
 16777215
176
     1
 90
        0
176
     1
 90
        4
176
     1
 62
     7
176
     1
 62
   257
176
     1
 90
        1
176
     1
 90
        1
176
     1
 40
1.0
176
     1
 90
        8
176
     1
 62
   257
176
     1
 40
1.0
176
     1
 90
        1
176
     1
 90
        6
176
     1
 90
        2
176
     1
 62
     8
420
  7895160
176
     1
 90
        3
176
     1
 90
        0
176
     1
 90
        0
176
     1
290
     0
176
     1
 90
        5
176
     1
 40
0.0
176
     1
 90
        0
176
     1
290
     0
176
     1
290
     1
176
     1
290
     1
176
     1
290
     0
176
     1
290
     0
176
     1
290
     0
176
     1
290
     0
176
     1
290
     0
176
     1
290
     0
176
     1
 90
       50
176
     1
 40
0.0
176
     1
 40
1.0
176
     1
 90
        0
176
     1
 62
    18
420
        0
176
     1
 90
       50
176
     1
 90
        3
176
     1
 62
     5
420
      255
176
     1
290
     0
176
     1
 90
       50
176
     1
 90
       50
176
     1
 90
       50
176
     1
290
     0
176
     1
 90
       50
176
     1
 62
   256
176
     0
 40
1.0
176
     0
 90
        2
176
     1
  1
strokes_ogs.tif
176
     1
290
     0
176
     1
 40
1.0
176
     1
 40
1.0
176
     1
  0
VISUALSTYLE
  5
41
102
{ACAD_REACTORS
330
2A
102
}
330
2A
100
AcDbVisualStyle
  2
Shaded with edges
 70
    26
177
     3
291
     0
 70
    58
 90
        2
176
     1
 90
        2
176
     1
 90
        1
176
     1
 90
        2
176
     1
 40
0.6
176
     1
 40
30.0
176
     1
 62
     7
420
 16777215
176
     1
 90
        1
176
     1
 90
       10
176
     1
 62
     7
176
     1
 62
   257
176
     1
 90
        2
176
     1
 90
        1
176
     1
 40
1.0
176
     1
 90
        8
176
     1
 62
   257
176
     1
 40
1.0
176
     1
 90
        1
176
     1
 90
        6
176
     1
 90
        2
176
     1
 62
     7
176
     1
 90
        3
176
     1
 90
        0
176
     1
 90
        0
176
     1
290
     0
176
     1
 90
        5
176
     1
 40
0.0
176
     1
 90
        0
176
     1
290
     0
176
     1
290
     1
176
     1
290
     1
176
     1
290
     0
176
     1
290
     0
176
     1
290
     0
176
     1
290
     0
176
     1
290
     0
176
     1
290
     0
176
     1
 90
       50
176
     1
 40
0.0
176
     1
 40
1.0
176
     1
 90
        0
176
     1
 62
    18
420
        0
176
     1
 90
       50
176
     1
 90
        3
176
     1
 62
     5
420
      255
176
     1
290
     0
176
     1
 90
       50
176
     1
 90
       50
176
     1
 90
       50
176
     1
290
     0
176
     1
 90
       50
176
     1
 62
   256
176
     0
 40
1.0
176
     0
 90
        2
176
     1
  1
strokes_ogs.tif
176
     1
290
     0
176
     1
 40
1.0
176
     1
 40
1.0
176
     1
  0
VISUALSTYLE
  5
3E
102
{ACAD_REACTORS
330
2A
102
}
330
2A
100
AcDbVisualStyle
  2
Shades of Gray
 70
    23
177
     3
291
     0
 70
    58
 90
        2
176
     1
 90
        2
176
     1
 90
        3
176
     1
 90
        0
176
     1
 40
0.6
176
     1
 40
30.0
176
     1
 62
     7
420
 16777215
176
     1
 90
        2
176
     1
 90
        2
176
     1
 62
     7
176
     1
 62
     7
176
     1
 90
        1
176
     1
 90
        1
176
     1
 40
40.0
176
     1
 90
        8
176
     1
 62
     7
176
     1
 40
1.0
176
     1
 90
        1
176
     1
 90
        6
176
     1
 90
        2
176
     1
 62
     7
176
     1
 90
        3
176
     1
 90
        0
176
     1
 90
        0
176
     1
290
     0
176
     1
 90
        1
176
     1
 40
0.0
176
     1
 90
        0
176
     1
290
     0
176
     1
290
     1
176
     1
290
     1
176
     1
290
     0
176
     1
290
     0
176
     1
290
     0
176
     1
290
     0
176
     1
290
     0
176
     1
290
     0
176
     1
 90
       50
176
     1
 40
0.0
176
     1
 40
1.0
176
     1
 90
        0
176
     1
 62
    18
420
        0
176
     1
 90
       50
176
     1
 90
        3
176
     1
 62
     5
420
      255
176
     1
290
     0
176
     1
 90
       50
176
     1
 90
       50
176
     1
 90
       50
176
     1
290
     0
176
     1
 90
       50
176
     1
 62
   256
176
     0
 40
1.0
176
     0
 90
        2
176
     1
  1
strokes_ogs.tif
176
     1
290
     0
176
     1
 40
1.0
176
     1
 40
1.0
176
     1
  0
VISUALSTYLE
  5
3F
102
{ACAD_REACTORS
330
2A
102
}
330
2A
100
AcDbVisualStyle
  2
Sketchy
 70
    24
177
     3
291
     0
 70
    58
 90
        1
176
     1
 90
        2
176
     1
 90
        2
176
     1
 90
        0
176
     1
 40
0.6
176
     1
 40
30.0
176
     1
 62
     7
420
 16777215
176
     1
 90
        2
176
     1
 90
        2
176
     1
 62
     7
176
     1
 62
     7
176
     1
 90
        1
176
     1
 90
        1
176
     1
 40
40.0
176
     1
 90
       11
176
     1
 62
     7
176
     1
 40
1.0
176
     1
 90
        1
176
     1
 90
        6
176
     1
 90
        2
176
     1
 62
     7
176
     1
 90
        6
176
     1
 90
        0
176
     1
 90
        0
176
     1
290
     0
176
     1
 90
        1
176
     1
 40
0.0
176
     1
 90
        0
176
     1
290
     0
176
     1
290
     1
176
     1
290
     1
176
     1
290
     0
176
     1
290
     0
176
     1
290
     0
176
     1
290
     0
176
     1
290
     0
176
     1
290
     0
176
     1
 90
       50
176
     1
 40
0.0
176
     1
 40
1.0
176
     1
 90
        0
176
     1
 62
    18
420
        0
176
     1
 90
       50
176
     1
 90
        3
176
     1
 62
     5
420
      255
176
     1
290
     0
176
     1
 90
       50
176
     1
 90
       50
176
     1
 90
       50
176
     1
290
     0
176
     1
 90
       50
176
     1
 62
   256
176
     0
 40
1.0
176
     0
 90
        2
176
     1
  1
strokes_ogs.tif
176
     1
290
     0
176
     1
 40
1.0
176
     1
 40
1.0
176
     1
  0
VISUALSTYLE
  5
37
102
{ACAD_REACTORS
330
2A
102
}
330
2A
100
AcDbVisualStyle
  2
Thicken
 70
    13
177
     3
291
     1
 70
    58
 90
        2
176
     1
 90
        2
176
     1
 90
        0
176
     1
 90
        0
176
     1
 40
0.6
176
     1
 40
30.0
176
     1
 62
     7
420
 16777215
176
     1
 90
        1
176
     1
 90
        4
176
     1
 62
     7
176
     1
 62
   257
176
     1
 90
        1
176
     1
 90
        1
176
     1
 40
1.0
176
     1
 90
       12
176
     1
 62
     7
176
     1
 40
1.0
176
     1
 90
        1
176
     1
 90
        6
176
     1
 90
        2
176
     1
 62
     7
176
     1
 90
        5
176
     1
 90
        0
176
     1
 90
        0
176
     1
290
     0
176
     1
 90
        1
176
     1
 40
0.0
176
     1
 90
        0
176
     1
290
     0
176
     1
290
     1
176
     1
290
     1
176
     1
290
     0
176
     1
290
     0
176
     1
290
     0
176
     1
290
     0
176
     1
290
     0
176
     1
290
     0
176
     1
 90
       50
176
     1
 40
0.0
176
     1
 40
1.0
176
     1
 90
        0
176
     1
 62
    18
420
        0
176
     1
 90
       50
176
     1
 90
        3
176
     1
 62
     5
420
      255
176
     1
290
     0
176
     1
 90
       50
176
     1
 90
       50
176
     1
 90
       50
176
     1
290
     0
176
     1
 90
       50
176
     1
 62
   256
176
     0
 40
1.0
176
     0
 90
        2
176
     1
  1
strokes_ogs.tif
176
     1
290
     0
176
     1
 40
1.0
176
     1
 40
1.0
176
     1
  0
VISUALSTYLE
  5
30
102
{ACAD_REACTORS
330
2A
102
}
330
2A
100
AcDbVisualStyle
  2
Wireframe
 70
     5
177
     3
291
     0
 70
    58
 90
        0
176
     1
 90
        2
176
     1
 90
        0
176
     1
 90
        0
176
     1
 40
0.6
176
     1
 40
30.0
176
     1
 62
     7
420
 16777215
176
     1
 90
        1
176
     1
 90
        4
176
     1
 62
     7
176
     1
 62
   257
176
     1
 90
        1
176
     1
 90
        1
176
     1
 40
1.0
176
     1
 90
        0
176
     1
 62
   257
176
     1
 40
1.0
176
     1
 90
        1
176
     1
 90
        6
176
     1
 90
        2
176
     1
 62
     7
176
     1
 90
        3
176
     1
 90
        0
176
     1
 90
        0
176
     1
290
     0
176
     1
 90
        1
176
     1
 40
0.0
176
     1
 90
        0
176
     1
290
     0
176
     1
290
     1
176
     1
290
     1
176
     1
290
     0
176
     1
290
     0
176
     1
290
     0
176
     1
290
     0
176
     1
290
     0
176
     1
290
     0
176
     1
 90
       50
176
     1
 40
0.0
176
     1
 40
1.0
176
     1
 90
        0
176
     1
 62
    18
420
        0
176
     1
 90
       50
176
     1
 90
        3
176
     1
 62
     5
420
      255
176
     1
290
     0
176
     1
 90
       50
176
     1
 90
       50
176
     1
 90
       50
176
     1
290
     0
176
     1
 90
       50
176
     1
 62
   256
176
     0
 40
1.0
176
     0
 90
        2
176
     1
  1
strokes_ogs.tif
176
     1
290
     0
176
     1
 40
1.0
176
     1
 40
1.0
176
     1
  0
VISUALSTYLE
  5
40
102
{ACAD_REACTORS
330
2A
102
}
330
2A
100
AcDbVisualStyle
  2
X-Ray
 70
    25
177
     3
291
     0
 70
    58
 90
        2
176
     1
 90
        2
176
     1
 90
        1
176
     1
 90
        1
176
     1
 40
0.5
176
     1
 40
30.0
176
     1
 62
     7
420
 16777215
176
     1
 90
        1
176
     1
 90
        0
176
     1
 62
     7
176
     1
 62
   257
176
     1
 90
        1
176
     1
 90
        1
176
     1
 40
1.0
176
     1
 90
        8
176
     1
 62
     7
176
     1
 40
1.0
176
     1
 90
        1
176
     1
 90
        6
176
     1
 90
        2
176
     1
 62
     7
176
     1
 90
        3
176
     1
 90
        0
176
     1
 90
        0
176
     1
290
     0
176
     1
 90
       13
176
     1
 40
0.0
176
     1
 90
        0
176
     1
290
     0
176
     1
290
     1
176
     1
290
     1
176
     1
290
     0
176
     1
290
     0
176
     1
290
     0
176
     1
290
     0
176
     1
290
     0
176
     1
290
     0
176
     1
 90
       50
176
     1
 40
0.0
176
     1
 40
1.0
176
     1
 90
        0
176
     1
 62
    18
420
        0
176
     1
 90
       50
176
     1
 90
        3
176
     1
 62
     5
420
      255
176
     1
290
     0
176
     1
 90
       50
176
     1
 90
       50
176
     1
 90
       50
176
     1
290
     0
176
     1
 90
       50
176
     1
 62
   256
176
     0
 40
1.0
176
     0
 90
        2
176
     1
  1
strokes_ogs.tif
176
     1
290
     0
176
     1
 40
1.0
176
     1
 40
1.0
176
     1
  0
DICTIONARYVAR
  5
11E
102
{ACAD_REACTORS
330
11D
102
}
330
11D
100
DictionaryVariables
280
     0
  1
1:1
  0
DICTIONARYVAR
  5
123
102
{ACAD_REACTORS
330
11D
102
}
330
11D
100
DictionaryVariables
280
     0
  1
Standard
  0
DICTIONARYVAR
  5
122
102
{ACAD_REACTORS
330
11D
102
}
330
11D
100
DictionaryVariables
280
     0
  1
Standard
  0
DICTIONARY
  5
11F
330
5A
100
AcDbDictionary
280
     1
281
     1
  3
ACAD_ROUNDTRIP_2008_TABLESTYLE_CELLSTYLEMAP
360
120
  0
CELLSTYLEMAP
  5
120
102
{ACAD_REACTORS
330
11F
102
}
330
11F
100
AcDbCellStyleMap
 90
        3
300
CELLSTYLE
  1
TABLEFORMAT_BEGIN
 90
        5
170
     1
 91
        0
 92
    32768
 62
   257
 93
        1
300
CONTENTFORMAT
  1
CONTENTFORMAT_BEGIN
 90
        0
 91
        0
 92
        4
 93
        0
300

 40
0.0
140
1.0
 94
        5
 62
     0
340
11
144
0.25
309
CONTENTFORMAT_END
171
     1
301
MARGIN
  1
CELLMARGIN_BEGIN
 40
0.06
 40
0.06
 40
0.06
 40
0.06
 40
0.06
 40
0.06
309
CELLMARGIN_END
 94
        6
 95
        1
302
GRIDFORMAT
  1
GRIDFORMAT_BEGIN
 90
        0
 91
        1
 62
     0
 92
       -2
340
14
 93
        0
 40
0.045
309
GRIDFORMAT_END
 95
        2
302
GRIDFORMAT
  1
GRIDFORMAT_BEGIN
 90
        0
 91
        1
 62
     0
 92
       -2
340
14
 93
        0
 40
0.045
309
GRIDFORMAT_END
 95
        4
302
GRIDFORMAT
  1
GRIDFORMAT_BEGIN
 90
        0
 91
        1
 62
     0
 92
       -2
340
14
 93
        0
 40
0.045
309
GRIDFORMAT_END
 95
        8
302
GRIDFORMAT
  1
GRIDFORMAT_BEGIN
 90
        0
 91
        1
 62
     0
 92
       -2
340
14
 93
        0
 40
0.045
309
GRIDFORMAT_END
 95
       16
302
GRIDFORMAT
  1
GRIDFORMAT_BEGIN
 90
        0
 91
        1
 62
     0
 92
       -2
340
14
 93
        0
 40
0.045
309
GRIDFORMAT_END
 95
       32
302
GRIDFORMAT
  1
GRIDFORMAT_BEGIN
 90
        0
 91
        1
 62
     0
 92
       -2
340
14
 93
        0
 40
0.045
309
GRIDFORMAT_END
309
TABLEFORMAT_END
  1
CELLSTYLE_BEGIN
 90
        1
 91
        1
300
_TITLE
309
CELLSTYLE_END
300
CELLSTYLE
  1
TABLEFORMAT_BEGIN
 90
        5
170
     1
 91
        0
 92
        0
 62
   257
 93
        1
300
CONTENTFORMAT
  1
CONTENTFORMAT_BEGIN
 90
        0
 91
        0
 92
        4
 93
        0
300

 40
0.0
140
1.0
 94
        5
 62
     0
340
11
144
0.18
309
CONTENTFORMAT_END
171
     1
301
MARGIN
  1
CELLMARGIN_BEGIN
 40
0.06
 40
0.06
 40
0.06
 40
0.06
 40
0.06
 40
0.06
309
CELLMARGIN_END
 94
        6
 95
        1
302
GRIDFORMAT
  1
GRIDFORMAT_BEGIN
 90
        0
 91
        1
 62
     0
 92
       -2
340
14
 93
        0
 40
0.045
309
GRIDFORMAT_END
 95
        2
302
GRIDFORMAT
  1
GRIDFORMAT_BEGIN
 90
        0
 91
        1
 62
     0
 92
       -2
340
14
 93
        0
 40
0.045
309
GRIDFORMAT_END
 95
        4
302
GRIDFORMAT
  1
GRIDFORMAT_BEGIN
 90
        0
 91
        1
 62
     0
 92
       -2
340
14
 93
        0
 40
0.045
309
GRIDFORMAT_END
 95
        8
302
GRIDFORMAT
  1
GRIDFORMAT_BEGIN
 90
        0
 91
        1
 62
     0
 92
       -2
340
14
 93
        0
 40
0.045
309
GRIDFORMAT_END
 95
       16
302
GRIDFORMAT
  1
GRIDFORMAT_BEGIN
 90
        0
 91
        1
 62
     0
 92
       -2
340
14
 93
        0
 40
0.045
309
GRIDFORMAT_END
 95
       32
302
GRIDFORMAT
  1
GRIDFORMAT_BEGIN
 90
        0
 91
        1
 62
     0
 92
       -2
340
14
 93
        0
 40
0.045
309
GRIDFORMAT_END
309
TABLEFORMAT_END
  1
CELLSTYLE_BEGIN
 90
        2
 91
        1
300
_HEADER
309
CELLSTYLE_END
300
CELLSTYLE
  1
TABLEFORMAT_BEGIN
 90
        5
170
     1
 91
        0
 92
        0
 62
   257
 93
        1
300
CONTENTFORMAT
  1
CONTENTFORMAT_BEGIN
 90
        0
 91
        0
 92
        4
 93
        0
300

 40
0.0
140
1.0
 94
        2
 62
     0
340
11
144
0.18
309
CONTENTFORMAT_END
171
     1
301
MARGIN
  1
CELLMARGIN_BEGIN
 40
0.06
 40
0.06
 40
0.06
 40
0.06
 40
0.06
 40
0.06
309
CELLMARGIN_END
 94
        6
 95
        1
302
GRIDFORMAT
  1
GRIDFORMAT_BEGIN
 90
        0
 91
        1
 62
     0
 92
       -2
340
14
 93
        0
 40
0.045
309
GRIDFORMAT_END
 95
        2
302
GRIDFORMAT
  1
GRIDFORMAT_BEGIN
 90
        0
 91
        1
 62
     0
 92
       -2
340
14
 93
        0
 40
0.045
309
GRIDFORMAT_END
 95
        4
302
GRIDFORMAT
  1
GRIDFORMAT_BEGIN
 90
        0
 91
        1
 62
     0
 92
       -2
340
14
 93
        0
 40
0.045
309
GRIDFORMAT_END
 95
        8
302
GRIDFORMAT
  1
GRIDFORMAT_BEGIN
 90
        0
 91
        1
 62
     0
 92
       -2
340
14
 93
        0
 40
0.045
309
GRIDFORMAT_END
 95
       16
302
GRIDFORMAT
  1
GRIDFORMAT_BEGIN
 90
        0
 91
        1
 62
     0
 92
       -2
340
14
 93
        0
 40
0.045
309
GRIDFORMAT_END
 95
       32
302
GRIDFORMAT
  1
GRIDFORMAT_BEGIN
 90
        0
 91
        1
 62
     0
 92
       -2
340
14
 93
        0
 40
0.045
309
GRIDFORMAT_END
309
TABLEFORMAT_END
  1
CELLSTYLE_BEGIN
 90
        3
 91
        2
300
_DATA
309
CELLSTYLE_END
  0
ENDSEC
  0
EOF
