  0
SECTION
  2
HEADER
  9
$ACADVER
  1
AC1027
  9
$ACADMAINTVER
 70
   105
  9
$DWGCODEPAGE
  3
ANSI_1252
  9
$LASTSAVEDBY
  1
Office Desk
  9
$REQUIREDVERSIONS
160
                 0
  9
$INSBASE
 10
0.0
 20
0.0
 30
0.0
  9
$EXTMIN
 10
140.3242
 20
-472.6557
 30
0.0
  9
$EXTMAX
 10
423.607
 20
-123.7145
 30
0.0
  9
$LIMMIN
 10
0.0
 20
0.0
  9
$LIMMAX
 10
12.0
 20
9.0
  9
$ORTHOMODE
 70
     0
  9
$REGENMODE
 70
     1
  9
$FILLMODE
 70
     1
  9
$QTEXTMODE
 70
     0
  9
$MIRRTEXT
 70
     1
  9
$LTSCALE
 40
1.0
  9
$ATTMODE
 70
     1
  9
$TEXTSIZE
 40
0.2
  9
$TRACEWID
 40
0.05
  9
$TEXTSTYLE
  7
Standard
  9
$CLAYER
  8
0
  9
$CELTYPE
  6
ByLayer
  9
$CECOLOR
 62
   256
  9
$CELTSCALE
 40
1.0
  9
$DISPSILH
 70
     0
  9
$DIMSCALE
 40
1.0
  9
$DIMASZ
 40
0.18
  9
$DIMEXO
 40
0.0625
  9
$DIMDLI
 40
0.38
  9
$DIMRND
 40
0.0
  9
$DIMDLE
 40
0.0
  9
$DIMEXE
 40
0.18
  9
$DIMTP
 40
0.0
  9
$DIMTM
 40
0.0
  9
$DIMTXT
 40
0.18
  9
$DIMCEN
 40
0.09
  9
$DIMTSZ
 40
0.0
  9
$DIMTOL
 70
     0
  9
$DIMLIM
 70
     0
  9
$DIMTIH
 70
     1
  9
$DIMTOH
 70
     1
  9
$DIMSE1
 70
     0
  9
$DIMSE2
 70
     0
  9
$DIMTAD
 70
     0
  9
$DIMZIN
 70
     0
  9
$DIMBLK
  1

  9
$DIMASO
 70
     1
  9
$DIMSHO
 70
     1
  9
$DIMPOST
  1

  9
$DIMAPOST
  1

  9
$DIMALT
 70
     0
  9
$DIMALTD
 70
     2
  9
$DIMALTF
 40
25.4
  9
$DIMLFAC
 40
1.0
  9
$DIMTOFL
 70
     0
  9
$DIMTVP
 40
0.0
  9
$DIMTIX
 70
     0
  9
$DIMSOXD
 70
     0
  9
$DIMSAH
 70
     0
  9
$DIMBLK1
  1

  9
$DIMBLK2
  1

  9
$DIMSTYLE
  2
Standard
  9
$DIMCLRD
 70
     0
  9
$DIMCLRE
 70
     0
  9
$DIMCLRT
 70
     0
  9
$DIMTFAC
 40
1.0
  9
$DIMGAP
 40
0.09
  9
$DIMJUST
 70
     0
  9
$DIMSD1
 70
     0
  9
$DIMSD2
 70
     0
  9
$DIMTOLJ
 70
     1
  9
$DIMTZIN
 70
     0
  9
$DIMALTZ
 70
     0
  9
$DIMALTTZ
 70
     0
  9
$DIMUPT
 70
     0
  9
$DIMDEC
 70
     4
  9
$DIMTDEC
 70
     4
  9
$DIMALTU
 70
     2
  9
$DIMALTTD
 70
     2
  9
$DIMTXSTY
  7
Standard
  9
$DIMAUNIT
 70
     0
  9
$DIMADEC
 70
     0
  9
$DIMALTRND
 40
0.0
  9
$DIMAZIN
 70
     0
  9
$DIMDSEP
 70
    46
  9
$DIMATFIT
 70
     3
  9
$DIMFRAC
 70
     0
  9
$DIMLDRBLK
  1

  9
$DIMLUNIT
 70
     2
  9
$DIMLWD
 70
    -2
  9
$DIMLWE
 70
    -2
  9
$DIMTMOVE
 70
     0
  9
$DIMFXL
 40
1.0
  9
$DIMFXLON
 70
     0
  9
$DIMJOGANG
 40
0.7853981633974483
  9
$DIMTFILL
 70
     0
  9
$DIMTFILLCLR
 70
     0
  9
$DIMARCSYM
 70
     0
  9
$DIMLTYPE
  6

  9
$DIMLTEX1
  6

  9
$DIMLTEX2
  6

  9
$DIMTXTDIRECTION
 70
     0
  9
$LUNITS
 70
     2
  9
$LUPREC
 70
     4
  9
$SKETCHINC
 40
0.1
  9
$FILLETRAD
 40
0.0
  9
$AUNITS
 70
     0
  9
$AUPREC
 70
     0
  9
$MENU
  1
.
  9
$ELEVATION
 40
0.0
  9
$PELEVATION
 40
0.0
  9
$THICKNESS
 40
0.0
  9
$LIMCHECK
 70
     0
  9
$CHAMFERA
 40
0.0
  9
$CHAMFERB
 40
0.0
  9
$CHAMFERC
 40
0.0
  9
$CHAMFERD
 40
0.0
  9
$SKPOLY
 70
     0
  9
$TDCREATE
 40
2461016.719189225
  9
$TDUCREATE
 40
2461016.490022558
  9
$TDUPDATE
 40
2461016.719189294
  9
$TDUUPDATE
 40
2461016.490022627
  9
$TDINDWG
 40
0.0000000116
  9
$TDUSRTIMER
 40
0.0000000116
  9
$USRTIMER
 70
     1
  9
$ANGBASE
 50
0.0
  9
$ANGDIR
 70
     0
  9
$PDMODE
 70
     0
  9
$PDSIZE
 40
0.0
  9
$PLINEWID
 40
0.0
  9
$SPLFRAME
 70
     0
  9
$SPLINETYPE
 70
     6
  9
$SPLINESEGS
 70
     8
  9
$HANDSEED
  5
124
  9
$SURFTAB1
 70
     6
  9
$SURFTAB2
 70
     6
  9
$SURFTYPE
 70
     6
  9
$SURFU
 70
     6
  9
$SURFV
 70
     6
  9
$UCSBASE
  2

  9
$UCSNAME
  2

  9
$UCSORG
 10
0.0
 20
0.0
 30
0.0
  9
$UCSXDIR
 10
1.0
 20
0.0
 30
0.0
  9
$UCSYDIR
 10
0.0
 20
1.0
 30
0.0
  9
$UCSORTHOREF
  2

  9
$UCSORTHOVIEW
 70
     0
  9
$UCSORGTOP
 10
0.0
 20
0.0
 30
0.0
  9
$UCSORGBOTTOM
 10
0.0
 20
0.0
 30
0.0
  9
$UCSORGLEFT
 10
0.0
 20
0.0
 30
0.0
  9
$UCSORGRIGHT
 10
0.0
 20
0.0
 30
0.0
  9
$UCSORGFRONT
 10
0.0
 20
0.0
 30
0.0
  9
$UCSORGBACK
 10
0.0
 20
0.0
 30
0.0
  9
$PUCSBASE
  2

  9
$PUCSNAME
  2

  9
$PUCSORG
 10
0.0
 20
0.0
 30
0.0
  9
$PUCSXDIR
 10
1.0
 20
0.0
 30
0.0
  9
$PUCSYDIR
 10
0.0
 20
1.0
 30
0.0
  9
$PUCSORTHOREF
  2

  9
$PUCSORTHOVIEW
 70
     0
  9
$PUCSORGTOP
 10
0.0
 20
0.0
 30
0.0
  9
$PUCSORGBOTTOM
 10
0.0
 20
0.0
 30
0.0
  9
$PUCSORGLEFT
 10
0.0
 20
0.0
 30
0.0
  9
$PUCSORGRIGHT
 10
0.0
 20
0.0
 30
0.0
  9
$PUCSORGFRONT
 10
0.0
 20
0.0
 30
0.0
  9
$PUCSORGBACK
 10
0.0
 20
0.0
 30
0.0
  9
$USERI1
 70
     0
  9
$USERI2
 70
     0
  9
$USERI3
 70
     0
  9
$USERI4
 70
     0
  9
$USERI5
 70
     0
  9
$USERR1
 40
0.0
  9
$USERR2
 40
0.0
  9
$USERR3
 40
0.0
  9
$USERR4
 40
0.0
  9
$USERR5
 40
0.0
  9
$WORLDVIEW
 70
     1
  9
$SHADEDGE
 70
     3
  9
$SHADEDIF
 70
    70
  9
$TILEMODE
 70
     1
  9
$MAXACTVP
 70
    64
  9
$PINSBASE
 10
0.0
 20
0.0
 30
0.0
  9
$PLIMCHECK
 70
     0
  9
$PEXTMIN
 10
1.000000000000000E+20
 20
1.000000000000000E+20
 30
1.000000000000000E+20
  9
$PEXTMAX
 10
-1.000000000000000E+20
 20
-1.000000000000000E+20
 30
-1.000000000000000E+20
  9
$PLIMMIN
 10
0.0
 20
0.0
  9
$PLIMMAX
 10
12.0
 20
9.0
  9
$UNITMODE
 70
     0
  9
$VISRETAIN
 70
     1
  9
$PLINEGEN
 70
     0
  9
$PSLTSCALE
 70
     1
  9
$TREEDEPTH
 70
  3020
  9
$CMLSTYLE
  2
Standard
  9
$CMLJUST
 70
     0
  9
$CMLSCALE
 40
1.0
  9
$PROXYGRAPHICS
 70
     1
  9
$MEASUREMENT
 70
     0
  9
$CELWEIGHT
370
    -1
  9
$ENDCAPS
280
     0
  9
$JOINSTYLE
280
     0
  9
$LWDISPLAY
290
     0
  9
$INSUNITS
 70
     4
  9
$HYPERLINKBASE
  1

  9
$STYLESHEET
  1

  9
$XEDIT
290
     1
  9
$CEPSNTYPE
380
     0
  9
$PSTYLEMODE
290
     1
  9
$FINGERPRINTGUID
  2
{1cc51911-7d85-47a9-b566-4bf38fbc86d8}
  9
$VERSIONGUID
  2
{FAEB1C32-E019-11D5-929B-00C0DF256EC4}
  9
$EXTNAMES
290
     1
  9
$PSVPSCALE
 40
0.0
  9
$OLESTARTUP
290
     0
  9
$SORTENTS
280
   127
  9
$INDEXCTL
280
     0
  9
$HIDETEXT
280
     1
  9
$XCLIPFRAME
280
     2
  9
$HALOGAP
280
     0
  9
$OBSCOLOR
 70
   257
  9
$OBSLTYPE
280
     0
  9
$INTERSECTIONDISPLAY
280
     0
  9
$INTERSECTIONCOLOR
 70
   257
  9
$DIMASSOC
280
     2
  9
$PROJECTNAME
  1

  9
$CAMERADISPLAY
290
     0
  9
$LENSLENGTH
 40
50.0
  9
$CAMERAHEIGHT
 40
0.0
  9
$STEPSPERSEC
 40
2.0
  9
$STEPSIZE
 40
6.0
  9
$3DDWFPREC
 40
2.0
  9
$PSOLWIDTH
 40
0.25
  9
$PSOLHEIGHT
 40
4.0
  9
$LOFTANG1
 40
1.570796326794897
  9
$LOFTANG2
 40
1.570796326794897
  9
$LOFTMAG1
 40
0.0
  9
$LOFTMAG2
 40
0.0
  9
$LOFTPARAM
 70
     7
  9
$LOFTNORMALS
280
     1
  9
$LATITUDE
 40
37.795
  9
$LONGITUDE
 40
-122.394
  9
$NORTHDIRECTION
 40
0.0
  9
$TIMEZONE
 70
 -8000
  9
$LIGHTGLYPHDISPLAY
280
     1
  9
$TILEMODELIGHTSYNCH
280
     1
  9
$CMATERIAL
347
44
  9
$SOLIDHIST
280
     0
  9
$SHOWHIST
280
     1
  9
$DWFFRAME
280
     2
  9
$DGNFRAME
280
     2
  9
$REALWORLDSCALE
290
     1
  9
$INTERFERECOLOR
 62
   256
  9
$CSHADOW
280
     0
  9
$SHADOWPLANELOCATION
 40
0.0
  0
ENDSEC
  0
SECTION
  2
CLASSES
  0
CLASS
  1
ACDBDICTIONARYWDFLT
  2
AcDbDictionaryWithDefault
  3
ObjectDBX Classes
 90
        0
 91
        3
280
     0
281
     0
  0
CLASS
  1
VISUALSTYLE
  2
AcDbVisualStyle
  3
ObjectDBX Classes
 90
     4095
 91
        3
280
     0
281
     0
  0
CLASS
  1
MATERIAL
  2
AcDbMaterial
  3
ObjectDBX Classes
 90
     1153
 91
        3
280
     0
281
     0
  0
CLASS
  1
SCALE
  2
AcDbScale
  3
ObjectDBX Classes
 90
     1153
 91
        3
280
     0
281
     0
  0
CLASS
  1
TABLESTYLE
  2
AcDbTableStyle
  3
ObjectDBX Classes
 90
     4095
 91
        3
280
     0
281
     0
  0
CLASS
  1
MLEADERSTYLE
  2
AcDbMLeaderStyle
  3
ACDB_MLEADERSTYLE_CLASS
 90
     4095
 91
        3
280
     0
281
     0
  0
CLASS
  1
SUN
  2
AcDbSun
  3
SCENEOE
 90
     1153
 91
        3
280
     0
281
     0
  0
CLASS
  1
DICTIONARYVAR
  2
AcDbDictionaryVar
  3
ObjectDBX Classes
 90
        0
 91
        3
280
     0
281
     0
  0
CLASS
  1
CELLSTYLEMAP
  2
AcDbCellStyleMap
  3
ObjectDBX Classes
 90
     1152
 91
        3
280
     0
281
     0
  0
ENDSEC
  0
SECTION
  2
TABLES
  0
TABLE
  2
VPORT
  5
8
330
0
100
AcDbSymbolTable
 70
     1
  0
VPORT
  5
29
330
8
100
AcDbSymbolTableRecord
100
AcDbViewportTableRecord
  2
*Active
 70
     0
 10
0.0
 20
0.0
 11
1.0
 21
1.0
 12
10.42990654205607
 22
4.5
 13
0.0
 23
0.0
 14
0.5
 24
0.5
 15
0.5
 25
0.5
 16
0.0
 26
0.0
 36
1.0
 17
0.0
 27
0.0
 37
0.0
 40
9.0
 41
1.972972972850329
 42
50.0
 43
0.0
 44
0.0
 50
0.0
 51
0.0
 71
     0
 72
   100
 73
     1
 74
     3
 75
     0
 76
     0
 77
     0
 78
     0
281
     0
 65
     1
110
0.0
120
0.0
130
0.0
111
1.0
121
0.0
131
0.0
112
0.0
122
1.0
132
0.0
 79
     0
146
0.0
348
2F
 60
     3
 61
     5
292
     1
282
     1
141
0.0
142
0.0
 63
   250
361
5D
  0
ENDTAB
  0
TABLE
  2
LTYPE
  5
5
330
0
100
AcDbSymbolTable
 70
     3
  0
LTYPE
  5
14
330
5
100
AcDbSymbolTableRecord
100
AcDbLinetypeTableRecord
  2
ByBlock
 70
     0
  3

 72
    65
 73
     0
 40
0.0
  0
LTYPE
  5
15
330
5
100
AcDbSymbolTableRecord
100
AcDbLinetypeTableRecord
  2
ByLayer
 70
     0
  3

 72
    65
 73
     0
 40
0.0
  0
LTYPE
  5
16
330
5
100
AcDbSymbolTableRecord
100
AcDbLinetypeTableRecord
  2
Continuous
 70
     0
  3
Solid line
 72
    65
 73
     0
 40
0.0
  0
LTYPE
  5
66
330
5
100
AcDbSymbolTableRecord
100
AcDbLinetypeTableRecord
  2
New Line1
 70
     0
  3

 72
    65
 73
     2
 40
0.3
 49
0.2
 74
     4
 75
     0
340
0
 46
1.0
 50
0.0
 44
0.0
 45
0.0
 49
-0.1
 74
     4
 75
     0
340
0
 46
1.0
 50
0.0
 44
0.0
 45
0.0
  0
LTYPE
  5
68
330
5
100
AcDbSymbolTableRecord
100
AcDbLinetypeTableRecord
  2
New Line2
 70
     0
  3

 72
    65
 73
     2
 40
0.3
 49
0.2
 74
     4
 75
     0
340
0
 46
1.0
 50
0.0
 44
0.0
 45
0.0
 49
-0.1
 74
     4
 75
     0
340
0
 46
1.0
 50
0.0
 44
0.0
 45
0.0
  0
ENDTAB
  0
TABLE
  2
LAYER
  5
2
330
0
100
AcDbSymbolTable
 70
     2
  0
LAYER
  5
10
330
2
100
AcDbSymbolTableRecord
100
AcDbLayerTableRecord
  2
0
 70
     0
 62
     7
  6
Continuous
370
    -3
390
F
347
46
348
0
  0
LAYER
  5
5F
330
2
100
AcDbSymbolTableRecord
100
AcDbLayerTableRecord
  2
Layer 1
 70
     0
 62
     7
  6
Continuous
370
    -3
390
F
347
46
348
0
  0
ENDTAB
  0
TABLE
  2
STYLE
  5
3
330
0
100
AcDbSymbolTable
 70
     1
  0
STYLE
  5
11
330
3
100
AcDbSymbolTableRecord
100
AcDbTextStyleTableRecord
  2
Standard
 70
     0
 40
0.0
 41
1.0
 50
0.0
 71
     0
 42
0.2
  3
txt
  4

  0
ENDTAB
  0
TABLE
  2
VIEW
  5
6
330
0
100
AcDbSymbolTable
 70
     0
  0
ENDTAB
  0
TABLE
  2
UCS
  5
7
330
0
100
AcDbSymbolTable
 70
     0
  0
ENDTAB
  0
TABLE
  2
APPID
  5
9
330
0
100
AcDbSymbolTable
 70
     2
  0
APPID
  5
12
330
9
100
AcDbSymbolTableRecord
100
AcDbRegAppTableRecord
  2
ACAD
 70
     0
  0
APPID
  5
5E
330
9
100
AcDbSymbolTableRecord
100
AcDbRegAppTableRecord
  2
ODA
 70
     0
  0
ENDTAB
  0
TABLE
  2
DIMSTYLE
  5
A
330
0
100
AcDbSymbolTable
 70
     1
100
AcDbDimStyleTable
  0
DIMSTYLE
105
27
330
A
100
AcDbSymbolTableRecord
100
AcDbDimStyleTableRecord
  2
Standard
 70
     0
178
     0
340
11
  0
ENDTAB
  0
TABLE
  2
BLOCK_RECORD
  5
1
330
0
100
AcDbSymbolTable
 70
     1
  0
BLOCK_RECORD
  5
1F
330
1
100
AcDbSymbolTableRecord
100
AcDbBlockTableRecord
  2
*Model_Space
340
22
 70
     0
280
     1
281
     0
  0
BLOCK_RECORD
  5
1B
330
1
100
AcDbSymbolTableRecord
100
AcDbBlockTableRecord
  2
*Paper_Space
340
1E
 70
     0
280
     1
281
     0
  0
BLOCK_RECORD
  5
23
330
1
100
AcDbSymbolTableRecord
100
AcDbBlockTableRecord
  2
*Paper_Space0
340
26
 70
     0
280
     1
281
     0
  0
ENDTAB
  0
ENDSEC
  0
SECTION
  2
BLOCKS
  0
BLOCK
  5
20
330
1F
100
AcDbEntity
  8
0
100
AcDbBlockBegin
  2
*Model_Space
 70
     0
 10
0.0
 20
0.0
 30
0.0
  3
*Model_Space
  1

  0
ENDBLK
  5
21
330
1F
100
AcDbEntity
  8
0
100
AcDbBlockEnd
  0
BLOCK
  5
1C
330
1B
100
AcDbEntity
 67
     1
  8
0
100
AcDbBlockBegin
  2
*Paper_Space
 70
     0
 10
0.0
 20
0.0
 30
0.0
  3
*Paper_Space
  1

  0
ENDBLK
  5
1D
330
1B
100
AcDbEntity
 67
     1
  8
0
100
AcDbBlockEnd
  0
BLOCK
  5
24
330
23
100
AcDbEntity
  8
0
100
AcDbBlockBegin
  2
*Paper_Space0
 70
     0
 10
0.0
 20
0.0
 30
0.0
  3
*Paper_Space0
  1

  0
ENDBLK
  5
25
330
23
100
AcDbEntity
  8
0
100
AcDbBlockEnd
  0
ENDSEC
  0
SECTION
  2
ENTITIES
  0
LWPOLYLINE
  5
60
330
1F
100
AcDbEntity
  8
Layer 1
 62
   250
370
     9
100
AcDbPolyline
 90
        5
 70
     1
 43
0.0
 10
140.3623
 20
-472.6176
 10
423.5689
 20
-472.6176
 10
423.5689
 20
-123.7526
 10
140.3623
 20
-123.7526
 10
140.3623
 20
-472.6176
  0
LWPOLYLINE
  5
61
330
1F
100
AcDbEntity
  8
Layer 1
 62
     7
370
    25
100
AcDbPolyline
 90
        2
 70
     0
 43
0.0
 10
273.8827
 20
-190.7494
 10
374.1178
 20
-190.7494
  0
LWPOLYLINE
  5
62
330
1F
100
AcDbEntity
  8
Layer 1
 62
     7
370
    80
100
AcDbPolyline
 90
        2
 70
     0
 43
0.0
 10
291.097
 20
-204.5296
 10
356.8717
 20
-204.4256
  0
LWPOLYLINE
  5
63
330
1F
100
AcDbEntity
  8
Layer 1
 62
     7
370
   140
100
AcDbPolyline
 90
        3
 70
     0
 43
0.0
 10
296.0937
 20
-198.6325
 10
290.1824
 20
-204.2092
 10
296.8111
 20
-210.1142
  0
LWPOLYLINE
  5
64
330
1F
100
AcDbEntity
  8
Layer 1
 62
     7
370
   140
100
AcDbPolyline
 90
        3
 70
     0
 43
0.0
 10
351.9061
 20
-209.9692
 10
357.8174
 20
-204.3925
 10
351.1887
 20
-198.4875
  0
LWPOLYLINE
  5
65
330
1F
100
AcDbEntity
  8
Layer 1
  6
New Line1
 62
     7
370
    25
100
AcDbPolyline
 90
        2
 70
     0
 43
0.0
 10
362.9453
 20
-191.6432
 10
383.9998
 20
-433.0645
  0
LWPOLYLINE
  5
67
330
1F
100
AcDbEntity
  8
Layer 1
  6
New Line2
 62
     7
370
    25
100
AcDbPolyline
 90
        2
 70
     0
 43
0.0
 10
285.5678
 20
-191.6432
 10
264.0006
 20
-433.0645
  0
LWPOLYLINE
  5
69
330
1F
100
AcDbEntity
  8
Layer 1
 62
     7
370
    60
100
AcDbPolyline
 90
        2
 70
     0
 43
0.0
 10
274.6192
 20
-425.5366
 10
373.329
 20
-425.4327
  0
LWPOLYLINE
  5
6A
330
1F
100
AcDbEntity
  8
Layer 1
 62
     7
370
   100
100
AcDbPolyline
 90
        3
 70
     0
 43
0.0
 10
283.733
 20
-419.6396
 10
273.4673
 20
-425.2163
 10
284.9787
 20
-431.1213
  0
LWPOLYLINE
  5
6B
330
1F
100
AcDbEntity
  8
Layer 1
 62
     7
370
   100
100
AcDbPolyline
 90
        3
 70
     0
 43
0.0
 10
364.2692
 20
-430.9762
 10
374.5349
 20
-425.3996
 10
363.0235
 20
-419.4945
  0
LWPOLYLINE
  5
6C
330
1F
100
AcDbEntity
  8
Layer 1
 62
     7
370
    60
100
AcDbPolyline
 90
        2
 70
     0
 43
0.0
 10
278.1688
 20
-176.6695
 10
369.7827
 20
-176.5299
  0
LWPOLYLINE
  5
6D
330
1F
100
AcDbEntity
  8
Layer 1
 62
     7
370
   100
100
AcDbPolyline
 90
        3
 70
     0
 43
0.0
 10
286.6275
 20
-168.7522
 10
277.0997
 20
-176.2394
 10
287.7837
 20
-184.1674
  0
LWPOLYLINE
  5
6E
330
1F
100
AcDbEntity
  8
Layer 1
 62
     7
370
   100
100
AcDbPolyline
 90
        3
 70
     0
 43
0.0
 10
361.3742
 20
-183.9726
 10
370.9019
 20
-176.4855
 10
360.218
 20
-168.5575
  0
LWPOLYLINE
  5
6F
330
1F
100
AcDbEntity
  8
Layer 1
 62
     7
370
    60
100
AcDbPolyline
 90
        2
 70
     0
 43
0.0
 10
331.8566
 20
-255.4573
 10
331.9933
 20
-397.2318
  0
LWPOLYLINE
  5
70
330
1F
100
AcDbEntity
  8
Layer 1
 62
     7
370
    90
100
AcDbPolyline
 90
        3
 70
     0
 43
0.0
 10
339.6099
 20
-268.5473
 10
332.2778
 20
-253.8029
 10
324.514
 20
-270.3365
  0
LWPOLYLINE
  5
71
330
1F
100
AcDbEntity
  8
Layer 1
 62
     7
370
    90
100
AcDbPolyline
 90
        3
 70
     0
 43
0.0
 10
324.7047
 20
-384.2195
 10
332.0368
 20
-398.9639
 10
339.8007
 20
-382.4303
  0
LWPOLYLINE
  5
72
330
1F
100
AcDbEntity
  8
Layer 1
 62
     7
370
     9
100
AcDbPolyline
 90
        7
 70
     1
 43
0.0
 10
287.6793
 20
-166.1261
 10
289.3863
 20
-166.1153
 10
289.2865
 20
-149.432
 10
285.191
 20
-149.8925
 10
285.1999
 20
-151.3714
 10
287.5904
 20
-151.3577
 10
287.6793
 20
-166.1261
  0
LWPOLYLINE
  5
73
330
1F
100
AcDbEntity
  8
Layer 1
 62
     7
370
     9
100
AcDbPolyline
 90
      113
 70
     1
 43
0.0
 10
299.1409
 20
-151.4834
 10
299.4238
 20
-151.6717
 10
299.6878
 20
-151.8859
 10
299.933
 20
-152.126
 10
300.1592
 20
-152.3921
 10
300.3666
 20
-152.6841
 10
300.5549
 20
-153.002
 10
300.7242
 20
-153.3458
 10
300.8745
 20
-153.7155
 10
301.0431
 20
-154.206
 10
301.1897
 20
-154.704
 10
301.3143
 20
-155.2094
 10
301.4168
 20
-155.7221
 10
301.4973
 20
-156.2421
 10
301.5557
 20
-156.7694
 10
301.5921
 20
-157.304
 10
301.6065
 20
-157.8458
 10
301.6037
 20
-158.112
 10
301.5921
 20
-158.401
 10
301.5713
 20
-158.7126
 10
301.5413
 20
-159.0468
 10
301.4604
 20
-159.6991
 10
301.3535
 20
-160.3156
 10
301.2204
 20
-160.8963
 10
301.0612
 20
-161.4412
 10
300.8759
 20
-161.9502
 10
300.6645
 20
-162.4235
 10
300.427
 20
-162.8609
 10
300.1633
 20
-163.2625
 10
299.9222
 20
-163.5651
 10
299.668
 20
-163.8276
 10
299.4007
 20
-164.0501
 10
299.1202
 20
-164.2325
 10
298.8265
 20
-164.3749
 10
298.5197
 20
-164.4772
 10
298.1997
 20
-164.5395
 10
297.8666
 20
-164.5617
 10
297.4943
 20
-164.544
 10
297.1396
 20
-164.4864
 10
296.8027
 20
-164.389
 10
296.4833
 20
-164.2517
 10
296.1816
 20
-164.0745
 10
295.8976
 20
-163.8575
 10
295.6311
 20
-163.6006
 10
295.3823
 20
-163.3038
 10
295.2771
 20
-163.1594
 10
295.1764
 20
-163.0105
 10
295.0802
 20
-162.857
 10
294.9885
 20
-162.6991
 10
294.9015
 20
-162.5366
 10
294.819
 20
-162.3697
 10
294.7412
 20
-162.1982
 10
294.6681
 20
-162.0223
 10
294.5342
 20
-161.6629
 10
294.4169
 20
-161.299
 10
294.3164
 20
-160.9308
 10
294.2325
 20
-160.5581
 10
294.1623
 20
-160.1852
 10
294.1028
 20
-159.8188
 10
294.0541
 20
-159.4584
 10
294.0161
 20
-159.1037
 10
294.0007
 20
-158.9246
 10
293.9872
 20
-158.7387
 10
293.9756
 20
-158.546
 10
293.9658
 20
-158.3466
 10
293.9578
 20
-158.1405
 10
293.9517
 20
-157.928
 10
293.9474
 20
-157.7089
 10
293.945
 20
-157.4834
 10
293.9477
 20
-157.2476
 10
293.9587
 20
-156.9981
 10
293.9781
 20
-156.735
 10
294.0058
 20
-156.4581
 10
294.0418
 20
-156.1673
 10
294.0862
 20
-155.8626
 10
294.1389
 20
-155.5439
 10
294.1999
 20
-155.2111
 10
294.2786
 20
-154.8413
 10
294.3725
 20
-154.4731
 10
294.4816
 20
-154.1063
 10
294.6059
 20
-153.741
 10
294.6743
 20
-153.561
 10
294.7476
 20
-153.3854
 10
294.8259
 20
-153.2144
 10
294.9091
 20
-153.0479
 10
294.9974
 20
-152.886
 10
295.0907
 20
-152.7285
 10
295.189
 20
-152.5755
 10
295.2924
 20
-152.4271
 10
295.4013
 20
-152.2845
 10
295.5154
 20
-152.1491
 10
295.6348
 20
-152.0209
 10
295.7595
 20
-151.8999
 10
295.8895
 20
-151.7861
 10
296.0249
 20
-151.6796
 10
296.1656
 20
-151.5803
 10
296.3118
 20
-151.4883
 10
296.4641
 20
-151.4047
 10
296.6234
 20
-151.3321
 10
296.7895
 20
-151.2705
 10
296.9625
 20
-151.2199
 10
297.1425
 20
-151.1803
 10
297.3295
 20
-151.1516
 10
297.5234
 20
-151.1338
 10
297.7244
 20
-151.1269
 10
297.9252
 20
-151.1315
 10
298.1192
 20
-151.1475
 10
298.3066
 20
-151.175
 10
298.4871
 20
-151.2138
 10
298.6608
 20
-151.2641
 10
298.8277
 20
-151.3258
 10
298.9878
 20
-151.3989
 10
299.1409
 20
-151.4834
  0
LWPOLYLINE
  5
74
330
1F
100
AcDbEntity
  8
Layer 1
 62
     7
370
     9
100
AcDbPolyline
 90
       65
 70
     1
 43
0.0
 10
297.9012
 20
-166.2822
 10
298.6132
 20
-166.2334
 10
299.2792
 20
-166.0949
 10
299.8993
 20
-165.8669
 10
300.4735
 20
-165.5494
 10
301.0017
 20
-165.1422
 10
301.484
 20
-164.6455
 10
301.9204
 20
-164.0592
 10
302.3108
 20
-163.3833
 10
302.5848
 20
-162.7938
 10
302.8215
 20
-162.1721
 10
303.021
 20
-161.518
 10
303.1832
 20
-160.8317
 10
303.3082
 20
-160.1129
 10
303.3961
 20
-159.3618
 10
303.4469
 20
-158.5783
 10
303.4606
 20
-157.7623
 10
303.4371
 20
-156.9468
 10
303.3769
 20
-156.164
 10
303.2799
 20
-155.4139
 10
303.1461
 20
-154.6966
 10
302.9756
 20
-154.0121
 10
302.7681
 20
-153.3605
 10
302.5238
 20
-152.7418
 10
302.2426
 20
-152.156
 10
301.8442
 20
-151.4848
 10
301.4008
 20
-150.9036
 10
300.9126
 20
-150.4125
 10
300.3795
 20
-150.0114
 10
299.8015
 20
-149.7005
 10
299.1787
 20
-149.4796
 10
298.511
 20
-149.3488
 10
297.7985
 20
-149.3082
 10
297.0868
 20
-149.3574
 10
296.421
 20
-149.4962
 10
295.8011
 20
-149.7245
 10
295.227
 20
-150.0424
 10
294.6987
 20
-150.4498
 10
294.2162
 20
-150.9467
 10
293.7797
 20
-151.5332
 10
293.3889
 20
-152.2091
 10
293.1152
 20
-152.798
 10
292.8786
 20
-153.4195
 10
292.6792
 20
-154.0734
 10
292.517
 20
-154.7598
 10
292.392
 20
-155.4786
 10
292.3041
 20
-156.2298
 10
292.2535
 20
-157.0133
 10
292.2401
 20
-157.8291
 10
292.2633
 20
-158.6449
 10
292.3234
 20
-159.4277
 10
292.4203
 20
-160.1777
 10
292.554
 20
-160.8948
 10
292.7244
 20
-161.5791
 10
292.9316
 20
-162.2306
 10
293.1755
 20
-162.8494
 10
293.4561
 20
-163.4354
 10
293.8552
 20
-164.1066
 10
294.299
 20
-164.6877
 10
294.7876
 20
-165.1786
 10
295.3208
 20
-165.5795
 10
295.8988
 20
-165.8903
 10
296.5216
 20
-166.111
 10
297.189
 20
-166.2416
 10
297.9012
 20
-166.2822
  0
LWPOLYLINE
  5
75
330
1F
100
AcDbEntity
  8
Layer 1
 62
     7
370
     9
100
AcDbPolyline
 90
       87
 70
     1
 43
0.0
 10
306.267
 20
-166.0151
 10
317.9508
 20
-165.9454
 10
317.941
 20
-164.2475
 10
310.3793
 20
-164.2927
 10
316.1254
 20
-158.5597
 10
316.5002
 20
-158.1471
 10
316.8246
 20
-157.7144
 10
317.0985
 20
-157.2615
 10
317.322
 20
-156.7884
 10
317.495
 20
-156.2952
 10
317.6177
 20
-155.7818
 10
317.6899
 20
-155.2482
 10
317.7118
 20
-154.6945
 10
317.6828
 20
-154.1286
 10
317.6025
 20
-153.5857
 10
317.4708
 20
-153.0659
 10
317.2878
 20
-152.5691
 10
317.0533
 20
-152.0954
 10
316.7675
 20
-151.6447
 10
316.4302
 20
-151.2172
 10
316.0414
 20
-150.8127
 10
315.6108
 20
-150.4372
 10
315.1613
 20
-150.1123
 10
314.693
 20
-149.8378
 10
314.2058
 20
-149.6138
 10
313.6999
 20
-149.4403
 10
313.1751
 20
-149.3173
 10
312.6316
 20
-149.2448
 10
312.0694
 20
-149.2228
 10
311.4858
 20
-149.2529
 10
310.9243
 20
-149.336
 10
310.3847
 20
-149.472
 10
309.8671
 20
-149.6609
 10
309.3715
 20
-149.9027
 10
308.8981
 20
-150.1973
 10
308.4467
 20
-150.5448
 10
308.0174
 20
-150.9452
 10
307.6357
 20
-151.3753
 10
307.3086
 20
-151.8276
 10
307.0361
 20
-152.3018
 10
306.8182
 20
-152.7982
 10
306.6549
 20
-153.3166
 10
306.5463
 20
-153.857
 10
306.4924
 20
-154.4194
 10
306.4932
 20
-155.0039
 10
308.2248
 20
-154.994
 10
308.2083
 20
-154.6149
 10
308.2329
 20
-154.2443
 10
308.2985
 20
-153.8821
 10
308.4054
 20
-153.5284
 10
308.5534
 20
-153.1832
 10
308.7427
 20
-152.8464
 10
308.9733
 20
-152.5181
 10
309.2452
 20
-152.1983
 10
309.536
 20
-151.9126
 10
309.8423
 20
-151.6645
 10
310.1642
 20
-151.4542
 10
310.5016
 20
-151.2817
 10
310.8545
 20
-151.1469
 10
311.2229
 20
-151.05
 10
311.6068
 20
-150.991
 10
312.0062
 20
-150.9698
 10
312.3982
 20
-150.9844
 10
312.7757
 20
-151.0333
 10
313.1385
 20
-151.1164
 10
313.4868
 20
-151.2338
 10
313.8203
 20
-151.3854
 10
314.1391
 20
-151.5712
 10
314.4432
 20
-151.7911
 10
314.7325
 20
-152.0451
 10
314.9998
 20
-152.326
 10
315.2318
 20
-152.6208
 10
315.4286
 20
-152.9295
 10
315.5901
 20
-153.2521
 10
315.7162
 20
-153.5885
 10
315.807
 20
-153.9388
 10
315.8624
 20
-154.3029
 10
315.8824
 20
-154.6808
 10
315.8678
 20
-155.0674
 10
315.8187
 20
-155.439
 10
315.7351
 20
-155.7958
 10
315.6171
 20
-156.1376
 10
315.4647
 20
-156.4645
 10
315.2778
 20
-156.7765
 10
315.0565
 20
-157.0736
 10
314.8007
 20
-157.3558
 10
306.267
 20
-166.0151
  0
LWPOLYLINE
  5
76
330
1F
100
AcDbEntity
  8
Layer 1
 62
     7
370
     9
100
AcDbPolyline
 90
      162
 70
     1
 43
0.0
 10
341.7571
 20
-165.7549
 10
343.465
 20
-165.745
 10
343.4245
 20
-159.0762
 10
343.408
 20
-158.6334
 10
343.3638
 20
-158.2117
 10
343.2918
 20
-157.8111
 10
343.1922
 20
-157.4315
 10
343.0648
 20
-157.0729
 10
342.9097
 20
-156.7354
 10
342.727
 20
-156.4188
 10
342.5167
 20
-156.1233
 10
342.3994
 20
-155.9819
 10
342.2749
 20
-155.8478
 10
342.1431
 20
-155.721
 10
342.0042
 20
-155.6015
 10
341.8581
 20
-155.4892
 10
341.7048
 20
-155.3841
 10
341.5444
 20
-155.2861
 10
341.3768
 20
-155.1953
 10
341.1985
 20
-155.1143
 10
341.0067
 20
-155.0442
 10
340.8013
 20
-154.9851
 10
340.5824
 20
-154.937
 10
340.3498
 20
-154.8999
 10
340.1036
 20
-154.8737
 10
339.8437
 20
-154.8587
 10
339.5701
 20
-154.8546
 10
339.2941
 20
-154.8659
 10
339.0269
 20
-154.896
 10
338.7685
 20
-154.945
 10
338.5189
 20
-155.0129
 10
338.2782
 20
-155.0997
 10
338.0464
 20
-155.2054
 10
337.8234
 20
-155.3299
 10
337.6093
 20
-155.4733
 10
337.4241
 20
-155.6159
 10
337.2472
 20
-155.7692
 10
337.0787
 20
-155.9328
 10
336.9185
 20
-156.1068
 10
336.7666
 20
-156.2909
 10
336.6232
 20
-156.4851
 10
336.4882
 20
-156.6892
 10
336.3617
 20
-156.9031
 10
336.2615
 20
-156.7073
 10
336.1521
 20
-156.5181
 10
336.0337
 20
-156.3363
 10
335.9063
 20
-156.1626
 10
335.789
 20
-156.0212
 10
335.6644
 20
-155.8871
 10
335.5327
 20
-155.7604
 10
335.3937
 20
-155.6409
 10
335.2476
 20
-155.5288
 10
335.0944
 20
-155.4238
 10
334.9339
 20
-155.3261
 10
334.7664
 20
-155.2356
 10
334.5881
 20
-155.1542
 10
334.3963
 20
-155.0839
 10
334.1909
 20
-155.0246
 10
333.9719
 20
-154.9764
 10
333.7393
 20
-154.9392
 10
333.4931
 20
-154.913
 10
333.2332
 20
-154.8979
 10
332.9597
 20
-154.8939
 10
332.6837
 20
-154.9052
 10
332.4165
 20
-154.9353
 10
332.1581
 20
-154.9843
 10
331.9085
 20
-155.0522
 10
331.6678
 20
-155.139
 10
331.4359
 20
-155.2446
 10
331.2129
 20
-155.3691
 10
330.9988
 20
-155.5125
 10
330.8222
 20
-155.6485
 10
330.6533
 20
-155.7936
 10
330.4919
 20
-155.9478
 10
330.3382
 20
-156.1112
 10
330.1922
 20
-156.2838
 10
330.054
 20
-156.4658
 10
329.9234
 20
-156.6571
 10
329.8006
 20
-156.8579
 10
329.7898
 20
-155.1561
 10
328.0818
 20
-155.1659
 10
328.146
 20
-165.8364
 10
329.854
 20
-165.8265
 10
329.8214
 20
-160.3656
 10
329.859
 20
-160.0474
 10
329.9088
 20
-159.7415
 10
329.9709
 20
-159.4478
 10
330.0454
 20
-159.1662
 10
330.1321
 20
-158.8967
 10
330.2312
 20
-158.639
 10
330.3426
 20
-158.3932
 10
330.4664
 20
-158.159
 10
330.5673
 20
-157.9923
 10
330.6766
 20
-157.8333
 10
330.7943
 20
-157.6818
 10
330.9204
 20
-157.5378
 10
331.0549
 20
-157.4013
 10
331.1978
 20
-157.2723
 10
331.349
 20
-157.1508
 10
331.5086
 20
-157.0366
 10
331.6742
 20
-156.9336
 10
331.8429
 20
-156.8442
 10
332.0147
 20
-156.7684
 10
332.1896
 20
-156.7061
 10
332.3675
 20
-156.6573
 10
332.5486
 20
-156.6222
 10
332.7328
 20
-156.6006
 10
332.9201
 20
-156.5927
 10
333.1033
 20
-156.5952
 10
333.2743
 20
-156.6049
 10
333.433
 20
-156.6218
 10
333.5795
 20
-156.646
 10
333.7138
 20
-156.6774
 10
333.8359
 20
-156.7162
 10
333.9457
 20
-156.7623
 10
334.0433
 20
-156.8157
 10
334.2904
 20
-156.9952
 10
334.5048
 20
-157.2059
 10
334.6867
 20
-157.4478
 10
334.836
 20
-157.721
 10
334.9527
 20
-158.0254
 10
335.0368
 20
-158.3611
 10
335.0883
 20
-158.728
 10
335.1072
 20
-159.1263
 10
335.1467
 20
-165.7941
 10
336.8546
 20
-165.7843
 10
336.8151
 20
-159.1155
 10
336.7993
 20
-158.707
 10
337.0759
 20
-158.1198
 10
337.1771
 20
-157.9531
 10
337.2865
 20
-157.794
 10
337.4043
 20
-157.6425
 10
337.5304
 20
-157.4985
 10
337.6649
 20
-157.362
 10
337.8078
 20
-157.233
 10
337.9592
 20
-157.1115
 10
338.119
 20
-156.9973
 10
338.2846
 20
-156.8943
 10
338.4533
 20
-156.8049
 10
338.6252
 20
-156.7291
 10
338.8001
 20
-156.6668
 10
338.9782
 20
-156.618
 10
339.1595
 20
-156.5829
 10
339.3439
 20
-156.5614
 10
339.5316
 20
-156.5535
 10
339.7144
 20
-156.556
 10
339.8851
 20
-156.5657
 10
340.0437
 20
-156.5826
 10
340.19
 20
-156.6068
 10
340.3242
 20
-156.6382
 10
340.4463
 20
-156.6769
 10
340.5561
 20
-156.723
 10
340.6537
 20
-156.7764
 10
340.9008
 20
-156.9558
 10
341.1153
 20
-157.1664
 10
341.2971
 20
-157.4082
 10
341.4463
 20
-157.6812
 10
341.5629
 20
-157.9855
 10
341.6468
 20
-158.321
 10
341.698
 20
-158.6879
 10
341.7166
 20
-159.0861
 10
341.7571
 20
-165.7549
  0
LWPOLYLINE
  5
77
330
1F
100
AcDbEntity
  8
Layer 1
 62
     7
370
     9
100
AcDbPolyline
 90
      162
 70
     1
 43
0.0
 10
360.3695
 20
-165.6439
 10
362.0774
 20
-165.6341
 10
362.0369
 20
-158.9653
 10
362.0204
 20
-158.5225
 10
361.9762
 20
-158.1008
 10
361.9042
 20
-157.7001
 10
361.8045
 20
-157.3206
 10
361.6771
 20
-156.962
 10
361.5221
 20
-156.6245
 10
361.3394
 20
-156.3079
 10
361.1291
 20
-156.0124
 10
361.0118
 20
-155.871
 10
360.8872
 20
-155.7369
 10
360.7554
 20
-155.6101
 10
360.6164
 20
-155.4906
 10
360.4702
 20
-155.3783
 10
360.3167
 20
-155.2732
 10
360.1561
 20
-155.1752
 10
359.9882
 20
-155.0844
 10
359.8102
 20
-155.0033
 10
359.6185
 20
-154.9332
 10
359.4131
 20
-154.8741
 10
359.1941
 20
-154.826
 10
358.9614
 20
-154.7889
 10
358.7151
 20
-154.7627
 10
358.4551
 20
-154.7477
 10
358.1815
 20
-154.7436
 10
357.9055
 20
-154.7549
 10
357.6384
 20
-154.785
 10
357.3802
 20
-154.8341
 10
357.1308
 20
-154.902
 10
356.8902
 20
-154.9888
 10
356.6585
 20
-155.0944
 10
356.4357
 20
-155.2189
 10
356.2216
 20
-155.3623
 10
356.0362
 20
-155.505
 10
355.8592
 20
-155.6582
 10
355.6906
 20
-155.8219
 10
355.5304
 20
-155.9958
 10
355.3787
 20
-156.18
 10
355.2354
 20
-156.3741
 10
355.1005
 20
-156.5782
 10
354.974
 20
-156.7921
 10
354.8738
 20
-156.5963
 10
354.7644
 20
-156.4071
 10
354.6457
 20
-156.2254
 10
354.5177
 20
-156.0517
 10
354.4007
 20
-155.9105
 10
354.2764
 20
-155.7766
 10
354.1448
 20
-155.6499
 10
354.0059
 20
-155.5303
 10
353.8597
 20
-155.418
 10
353.7063
 20
-155.313
 10
353.5456
 20
-155.2152
 10
353.3777
 20
-155.1246
 10
353.1997
 20
-155.0432
 10
353.0081
 20
-154.9729
 10
352.8027
 20
-154.9137
 10
352.5837
 20
-154.8655
 10
352.351
 20
-154.8285
 10
352.1046
 20
-154.8025
 10
351.8446
 20
-154.7876
 10
351.571
 20
-154.7839
 10
351.295
 20
-154.7948
 10
351.0279
 20
-154.8247
 10
350.7697
 20
-154.8736
 10
350.5203
 20
-154.9414
 10
350.2798
 20
-155.0281
 10
350.0481
 20
-155.1337
 10
349.8253
 20
-155.2582
 10
349.6112
 20
-155.4016
 10
349.4343
 20
-155.5376
 10
349.2652
 20
-155.6826
 10
349.1038
 20
-155.8368
 10
348.9501
 20
-156.0002
 10
348.8041
 20
-156.1729
 10
348.6658
 20
-156.3548
 10
348.5351
 20
-156.5462
 10
348.412
 20
-156.7469
 10
348.4021
 20
-155.0451
 10
346.6942
 20
-155.0549
 10
346.7584
 20
-165.7254
 10
348.4663
 20
-165.7156
 10
348.4337
 20
-160.2546
 10
348.471
 20
-159.9364
 10
348.5207
 20
-159.6305
 10
348.5828
 20
-159.3368
 10
348.6572
 20
-159.0552
 10
348.7439
 20
-158.7857
 10
348.8429
 20
-158.528
 10
348.9542
 20
-158.2822
 10
349.0778
 20
-158.0481
 10
349.1787
 20
-157.8814
 10
349.288
 20
-157.7223
 10
349.4057
 20
-157.5708
 10
349.5318
 20
-157.4268
 10
349.6663
 20
-157.2903
 10
349.8091
 20
-157.1613
 10
349.9603
 20
-157.0398
 10
350.1199
 20
-156.9256
 10
350.2859
 20
-156.8226
 10
350.4548
 20
-156.7332
 10
350.6268
 20
-156.6574
 10
350.8018
 20
-156.5951
 10
350.9798
 20
-156.5463
 10
351.1609
 20
-156.5112
 10
351.3451
 20
-156.4897
 10
351.5325
 20
-156.4818
 10
351.7156
 20
-156.4843
 10
351.8865
 20
-156.494
 10
352.0451
 20
-156.5109
 10
352.1915
 20
-156.5351
 10
352.3257
 20
-156.5665
 10
352.4478
 20
-156.6052
 10
352.5577
 20
-156.6513
 10
352.6556
 20
-156.7047
 10
352.9027
 20
-156.8842
 10
353.1172
 20
-157.0949
 10
353.299
 20
-157.3368
 10
353.4482
 20
-157.61
 10
353.5648
 20
-157.9144
 10
353.6487
 20
-158.2501
 10
353.6999
 20
-158.6171
 10
353.7185
 20
-159.0154
 10
353.759
 20
-165.6832
 10
355.467
 20
-165.6734
 10
355.4264
 20
-159.0046
 10
355.4116
 20
-158.596
 10
355.6882
 20
-158.0088
 10
355.7891
 20
-157.8421
 10
355.8984
 20
-157.683
 10
356.0161
 20
-157.5315
 10
356.1422
 20
-157.3876
 10
356.2767
 20
-157.2511
 10
356.4196
 20
-157.1221
 10
356.5708
 20
-157.0006
 10
356.7304
 20
-156.8864
 10
356.8964
 20
-156.7834
 10
357.0653
 20
-156.694
 10
357.2373
 20
-156.6181
 10
357.4123
 20
-156.5558
 10
357.5905
 20
-156.5071
 10
357.7718
 20
-156.4719
 10
357.9562
 20
-156.4504
 10
358.1439
 20
-156.4425
 10
358.3268
 20
-156.445
 10
358.4975
 20
-156.4547
 10
358.656
 20
-156.4716
 10
358.8024
 20
-156.4958
 10
358.9366
 20
-156.5272
 10
359.0587
 20
-156.566
 10
359.1685
 20
-156.612
 10
359.2661
 20
-156.6654
 10
359.5131
 20
-156.8448
 10
359.7275
 20
-157.0554
 10
359.9092
 20
-157.2972
 10
360.0583
 20
-157.5702
 10
360.1748
 20
-157.8745
 10
360.2587
 20
-158.21
 10
360.3101
 20
-158.5769
 10
360.329
 20
-158.9751
 10
360.3695
 20
-165.6439
  0
LWPOLYLINE
  5
78
330
1F
100
AcDbEntity
  8
Layer 1
 62
     7
370
     9
100
AcDbPolyline
 90
        7
 70
     1
 43
0.0
 10
297.7955
 20
-232.3614
 10
304.9898
 20
-215.901
 10
294.5743
 20
-215.9629
 10
294.5841
 20
-217.6607
 10
302.3414
 20
-217.6146
 10
295.893
 20
-232.3722
 10
297.7955
 20
-232.3614
  0
LWPOLYLINE
  5
79
330
1F
100
AcDbEntity
  8
Layer 1
 62
     7
370
     9
100
AcDbPolyline
 90
      113
 70
     1
 43
0.0
 10
314.0381
 20
-217.6902
 10
314.3209
 20
-217.8785
 10
314.5849
 20
-218.0928
 10
314.8299
 20
-218.3331
 10
315.0561
 20
-218.5993
 10
315.2633
 20
-218.8914
 10
315.4517
 20
-219.2092
 10
315.6211
 20
-219.5529
 10
315.7717
 20
-219.9223
 10
315.9403
 20
-220.4131
 10
316.0869
 20
-220.9112
 10
316.2115
 20
-221.4166
 10
316.314
 20
-221.9293
 10
316.3945
 20
-222.4492
 10
316.4529
 20
-222.9764
 10
316.4893
 20
-223.5109
 10
316.5037
 20
-224.0526
 10
316.5007
 20
-224.3189
 10
316.4888
 20
-224.6078
 10
316.4677
 20
-224.9195
 10
316.4375
 20
-225.2536
 10
316.357
 20
-225.9062
 10
316.2503
 20
-226.5228
 10
316.1174
 20
-227.1035
 10
315.9583
 20
-227.6483
 10
315.7731
 20
-228.1573
 10
315.5617
 20
-228.6304
 10
315.3242
 20
-229.0678
 10
315.0605
 20
-229.4694
 10
314.8194
 20
-229.7722
 10
314.5652
 20
-230.0349
 10
314.2979
 20
-230.2574
 10
314.0174
 20
-230.4397
 10
313.7237
 20
-230.582
 10
313.4169
 20
-230.6842
 10
313.0969
 20
-230.7464
 10
312.7638
 20
-230.7686
 10
312.3914
 20
-230.7509
 10
312.0367
 20
-230.6933
 10
311.6996
 20
-230.5958
 10
311.3802
 20
-230.4585
 10
311.0784
 20
-230.2813
 10
310.7944
 20
-230.0643
 10
310.5281
 20
-229.8074
 10
310.2795
 20
-229.5106
 10
310.1743
 20
-229.3665
 10
310.0736
 20
-229.2177
 10
309.9773
 20
-229.0643
 10
309.8856
 20
-228.9063
 10
309.7984
 20
-228.7438
 10
309.7158
 20
-228.5767
 10
309.6377
 20
-228.4051
 10
309.5643
 20
-228.2291
 10
309.4304
 20
-227.8697
 10
309.3131
 20
-227.5059
 10
309.2126
 20
-227.1376
 10
309.1287
 20
-226.7649
 10
309.0585
 20
-226.392
 10
308.999
 20
-226.0256
 10
308.9503
 20
-225.6653
 10
308.9124
 20
-225.3106
 10
308.8973
 20
-225.1315
 10
308.8839
 20
-224.9457
 10
308.8723
 20
-224.7532
 10
308.8625
 20
-224.554
 10
308.8545
 20
-224.3481
 10
308.8485
 20
-224.1357
 10
308.8443
 20
-223.9167
 10
308.8422
 20
-223.6912
 10
308.8449
 20
-223.4553
 10
308.8559
 20
-223.2058
 10
308.8753
 20
-222.9425
 10
308.903
 20
-222.6654
 10
308.939
 20
-222.3745
 10
308.9834
 20
-222.0696
 10
309.0361
 20
-221.7508
 10
309.0971
 20
-221.4179
 10
309.1758
 20
-221.0483
 10
309.2697
 20
-220.6803
 10
309.3788
 20
-220.3135
 10
309.5031
 20
-219.9478
 10
309.5715
 20
-219.7678
 10
309.6448
 20
-219.5923
 10
309.7231
 20
-219.4213
 10
309.8063
 20
-219.2548
 10
309.8946
 20
-219.0928
 10
309.9879
 20
-218.9353
 10
310.0862
 20
-218.7824
 10
310.1896
 20
-218.6339
 10
310.2982
 20
-218.4916
 10
310.4121
 20
-218.3564
 10
310.5313
 20
-218.2284
 10
310.656
 20
-218.1074
 10
310.786
 20
-217.9936
 10
310.9215
 20
-217.887
 10
311.0625
 20
-217.7874
 10
311.209
 20
-217.6951
 10
311.3613
 20
-217.6118
 10
311.5206
 20
-217.5394
 10
311.6867
 20
-217.4779
 10
311.8597
 20
-217.4273
 10
312.0397
 20
-217.3877
 10
312.2267
 20
-217.359
 10
312.4206
 20
-217.3413
 10
312.6216
 20
-217.3347
 10
312.8224
 20
-217.339
 10
313.0164
 20
-217.3548
 10
313.2038
 20
-217.382
 10
313.3843
 20
-217.4208
 10
313.558
 20
-217.471
 10
313.7249
 20
-217.5326
 10
313.885
 20
-217.6057
 10
314.0381
 20
-217.6902
  0
LWPOLYLINE
  5
7A
330
1F
100
AcDbEntity
  8
Layer 1
 62
     7
370
     9
100
AcDbPolyline
 90
       65
 70
     1
 43
0.0
 10
312.7974
 20
-232.49
 10
313.5094
 20
-232.4408
 10
314.1754
 20
-232.3022
 10
314.7955
 20
-232.074
 10
315.3698
 20
-231.7563
 10
315.8981
 20
-231.3491
 10
316.3806
 20
-230.8524
 10
316.8172
 20
-230.2661
 10
317.208
 20
-229.5902
 10
317.4817
 20
-229.0007
 10
317.7183
 20
-228.379
 10
317.9177
 20
-227.7249
 10
318.0799
 20
-227.0386
 10
318.2049
 20
-226.3198
 10
318.2928
 20
-225.5687
 10
318.3434
 20
-224.7852
 10
318.3568
 20
-223.9692
 10
318.3336
 20
-223.1537
 10
318.2735
 20
-222.3708
 10
318.1766
 20
-221.6208
 10
318.0428
 20
-220.9035
 10
317.8723
 20
-220.219
 10
317.6649
 20
-219.5674
 10
317.4207
 20
-218.9487
 10
317.1398
 20
-218.3629
 10
316.7414
 20
-217.6917
 10
316.298
 20
-217.1105
 10
315.8098
 20
-216.6194
 10
315.2767
 20
-216.2183
 10
314.6987
 20
-215.9074
 10
314.0759
 20
-215.6865
 10
313.4082
 20
-215.5557
 10
312.6957
 20
-215.5151
 10
311.984
 20
-215.5643
 10
311.3182
 20
-215.703
 10
310.6982
 20
-215.9313
 10
310.124
 20
-216.2492
 10
309.5956
 20
-216.6566
 10
309.113
 20
-217.1535
 10
308.6762
 20
-217.74
 10
308.2851
 20
-218.4159
 10
308.0117
 20
-219.0051
 10
307.7754
 20
-219.6267
 10
307.5762
 20
-220.2807
 10
307.4141
 20
-220.967
 10
307.2891
 20
-221.6857
 10
307.2013
 20
-222.4368
 10
307.1507
 20
-223.2202
 10
307.1373
 20
-224.0359
 10
307.1605
 20
-224.8517
 10
307.2206
 20
-225.6346
 10
307.3175
 20
-226.3846
 10
307.4512
 20
-227.1018
 10
307.6216
 20
-227.7862
 10
307.8288
 20
-228.4378
 10
308.0727
 20
-229.0568
 10
308.3533
 20
-229.6432
 10
308.7523
 20
-230.3144
 10
309.1961
 20
-230.8955
 10
309.6844
 20
-231.3864
 10
310.2175
 20
-231.7873
 10
310.7953
 20
-232.0981
 10
311.4179
 20
-232.3188
 10
312.0853
 20
-232.4494
 10
312.7974
 20
-232.49
  0
LWPOLYLINE
  5
7B
330
1F
100
AcDbEntity
  8
Layer 1
 62
     7
370
     9
100
AcDbPolyline
 90
      162
 70
     1
 43
0.0
 10
335.0667
 20
-232.0913
 10
336.7746
 20
-232.0805
 10
336.7351
 20
-225.4117
 10
336.7183
 20
-224.9689
 10
336.6738
 20
-224.5472
 10
336.6017
 20
-224.1466
 10
336.502
 20
-223.767
 10
336.3746
 20
-223.4084
 10
336.2197
 20
-223.0709
 10
336.0373
 20
-222.7543
 10
335.8273
 20
-222.4588
 10
335.7096
 20
-222.3177
 10
335.5848
 20
-222.1838
 10
335.4529
 20
-222.057
 10
335.3138
 20
-221.9375
 10
335.1677
 20
-221.8252
 10
335.0143
 20
-221.7202
 10
334.8539
 20
-221.6224
 10
334.6863
 20
-221.5318
 10
334.508
 20
-221.4504
 10
334.3162
 20
-221.3801
 10
334.1109
 20
-221.3209
 10
333.8919
 20
-221.2727
 10
333.6593
 20
-221.2356
 10
333.4131
 20
-221.2096
 10
333.1532
 20
-221.1948
 10
332.8796
 20
-221.1911
 10
332.6036
 20
-221.202
 10
332.3364
 20
-221.232
 10
332.078
 20
-221.2808
 10
331.8285
 20
-221.3487
 10
331.5878
 20
-221.4355
 10
331.3559
 20
-221.5413
 10
331.1329
 20
-221.666
 10
330.9188
 20
-221.8097
 10
330.7337
 20
-221.9523
 10
330.5569
 20
-222.1055
 10
330.3885
 20
-222.269
 10
330.2284
 20
-222.4427
 10
330.0766
 20
-222.6267
 10
329.9331
 20
-222.8207
 10
329.798
 20
-223.0247
 10
329.6712
 20
-223.2385
 10
329.5715
 20
-223.0427
 10
329.4621
 20
-222.8536
 10
329.3434
 20
-222.6718
 10
329.2158
 20
-222.4981
 10
329.0985
 20
-222.357
 10
328.974
 20
-222.223
 10
328.8422
 20
-222.0963
 10
328.7033
 20
-221.9768
 10
328.5572
 20
-221.8645
 10
328.4039
 20
-221.7594
 10
328.2435
 20
-221.6616
 10
328.0759
 20
-221.5711
 10
327.8979
 20
-221.49
 10
327.7062
 20
-221.4198
 10
327.5009
 20
-221.3606
 10
327.2818
 20
-221.3123
 10
327.0491
 20
-221.2751
 10
326.8028
 20
-221.249
 10
326.5428
 20
-221.2341
 10
326.2692
 20
-221.2303
 10
325.9932
 20
-221.2413
 10
325.726
 20
-221.2712
 10
325.4676
 20
-221.3201
 10
325.2182
 20
-221.388
 10
324.9776
 20
-221.4748
 10
324.7459
 20
-221.5806
 10
324.5232
 20
-221.7053
 10
324.3094
 20
-221.849
 10
324.1325
 20
-221.985
 10
323.9632
 20
-222.1299
 10
323.8017
 20
-222.284
 10
323.6479
 20
-222.4472
 10
323.5019
 20
-222.6196
 10
323.3636
 20
-222.8015
 10
323.233
 20
-222.9927
 10
323.1102
 20
-223.1934
 10
323.0993
 20
-221.4916
 10
321.3914
 20
-221.5014
 10
321.4566
 20
-232.1718
 10
323.1645
 20
-232.162
 10
323.1309
 20
-226.7011
 10
323.1685
 20
-226.3829
 10
323.2184
 20
-226.0769
 10
323.2805
 20
-225.7833
 10
323.3549
 20
-225.5017
 10
323.4416
 20
-225.2321
 10
323.5407
 20
-224.9745
 10
323.6522
 20
-224.7286
 10
323.776
 20
-224.4945
 10
323.8769
 20
-224.3278
 10
323.9862
 20
-224.1688
 10
324.1039
 20
-224.0173
 10
324.23
 20
-223.8734
 10
324.3645
 20
-223.7371
 10
324.5073
 20
-223.6083
 10
324.6585
 20
-223.4869
 10
324.8181
 20
-223.3731
 10
324.9837
 20
-223.2698
 10
325.1524
 20
-223.1801
 10
325.3242
 20
-223.1041
 10
325.4991
 20
-223.0417
 10
325.677
 20
-222.9929
 10
325.8581
 20
-222.9577
 10
326.0423
 20
-222.9361
 10
326.2297
 20
-222.9282
 10
326.4129
 20
-222.9307
 10
326.5839
 20
-222.9405
 10
326.7426
 20
-222.9576
 10
326.8892
 20
-222.9819
 10
327.0236
 20
-223.0134
 10
327.1458
 20
-223.0521
 10
327.2559
 20
-223.098
 10
327.3538
 20
-223.1511
 10
327.6006
 20
-223.3306
 10
327.8148
 20
-223.5413
 10
327.9965
 20
-223.7832
 10
328.1457
 20
-224.0564
 10
328.2623
 20
-224.3608
 10
328.3463
 20
-224.6965
 10
328.3978
 20
-225.0635
 10
328.4167
 20
-225.4618
 10
328.4562
 20
-232.1306
 10
330.1641
 20
-232.1198
 10
330.1246
 20
-225.451
 10
330.1088
 20
-225.0435
 10
330.3864
 20
-224.4552
 10
330.4873
 20
-224.2885
 10
330.5966
 20
-224.1295
 10
330.7143
 20
-223.978
 10
330.8404
 20
-223.834
 10
330.9749
 20
-223.6975
 10
331.1177
 20
-223.5685
 10
331.2689
 20
-223.447
 10
331.4285
 20
-223.3328
 10
331.5941
 20
-223.2298
 10
331.7628
 20
-223.1404
 10
331.9347
 20
-223.0646
 10
332.1096
 20
-223.0023
 10
332.2877
 20
-222.9535
 10
332.469
 20
-222.9184
 10
332.6534
 20
-222.8968
 10
332.8411
 20
-222.8889
 10
333.024
 20
-222.8914
 10
333.1948
 20
-222.9012
 10
333.3535
 20
-222.9183
 10
333.5
 20
-222.9426
 10
333.6343
 20
-222.9741
 10
333.7563
 20
-223.0128
 10
333.866
 20
-223.0588
 10
333.9633
 20
-223.1119
 10
334.2104
 20
-223.2914
 10
334.4248
 20
-223.5021
 10
334.6067
 20
-223.744
 10
334.756
 20
-224.0172
 10
334.8727
 20
-224.3216
 10
334.9567
 20
-224.6573
 10
335.0082
 20
-225.0242
 10
335.0271
 20
-225.4225
 10
335.0667
 20
-232.0913
  0
LWPOLYLINE
  5
7C
330
1F
100
AcDbEntity
  8
Layer 1
 62
     7
370
     9
100
AcDbPolyline
 90
      162
 70
     1
 43
0.0
 10
353.679
 20
-231.9804
 10
355.3869
 20
-231.9696
 10
355.3464
 20
-225.3008
 10
355.3299
 20
-224.858
 10
355.2857
 20
-224.4363
 10
355.2137
 20
-224.0356
 10
355.1141
 20
-223.656
 10
354.9867
 20
-223.2974
 10
354.8316
 20
-222.9599
 10
354.6489
 20
-222.6434
 10
354.4386
 20
-222.3479
 10
354.3213
 20
-222.2067
 10
354.1968
 20
-222.0728
 10
354.065
 20
-221.9461
 10
353.9261
 20
-221.8265
 10
353.78
 20
-221.7142
 10
353.6267
 20
-221.6092
 10
353.4663
 20
-221.5114
 10
353.2987
 20
-221.4208
 10
353.1204
 20
-221.3394
 10
352.9284
 20
-221.2691
 10
352.7229
 20
-221.2099
 10
352.5038
 20
-221.1617
 10
352.271
 20
-221.1247
 10
352.0246
 20
-221.0987
 10
351.7646
 20
-221.0838
 10
351.491
 20
-221.0801
 10
351.215
 20
-221.091
 10
350.9479
 20
-221.121
 10
350.6897
 20
-221.1698
 10
350.4403
 20
-221.2377
 10
350.1998
 20
-221.3245
 10
349.9681
 20
-221.4303
 10
349.7453
 20
-221.5551
 10
349.5312
 20
-221.6988
 10
349.3457
 20
-221.8414
 10
349.1687
 20
-221.9945
 10
349.0001
 20
-222.158
 10
348.84
 20
-222.3318
 10
348.6882
 20
-222.5157
 10
348.5449
 20
-222.7098
 10
348.4101
 20
-222.9138
 10
348.2836
 20
-223.1276
 10
348.1834
 20
-222.9318
 10
348.0739
 20
-222.7426
 10
347.9552
 20
-222.5608
 10
347.8272
 20
-222.3871
 10
347.7102
 20
-222.246
 10
347.5859
 20
-222.1121
 10
347.4543
 20
-221.9853
 10
347.3155
 20
-221.8658
 10
347.1695
 20
-221.7535
 10
347.0162
 20
-221.6485
 10
346.8558
 20
-221.5507
 10
346.6883
 20
-221.4601
 10
346.51
 20
-221.379
 10
346.3182
 20
-221.3089
 10
346.1128
 20
-221.2496
 10
345.8938
 20
-221.2014
 10
345.6612
 20
-221.1642
 10
345.415
 20
-221.1381
 10
345.1551
 20
-221.1232
 10
344.8816
 20
-221.1194
 10
344.6056
 20
-221.1303
 10
344.3384
 20
-221.1603
 10
344.08
 20
-221.2091
 10
343.8304
 20
-221.277
 10
343.5897
 20
-221.3638
 10
343.3578
 20
-221.4696
 10
343.1348
 20
-221.5943
 10
342.9207
 20
-221.738
 10
342.7438
 20
-221.874
 10
342.5747
 20
-222.0189
 10
342.4133
 20
-222.173
 10
342.2596
 20
-222.3362
 10
342.1136
 20
-222.5086
 10
341.9753
 20
-222.6905
 10
341.8446
 20
-222.8817
 10
341.7215
 20
-223.0824
 10
341.7117
 20
-221.3806
 10
340.0037
 20
-221.3904
 10
340.0679
 20
-232.0609
 10
341.7759
 20
-232.0511
 10
341.7433
 20
-226.5901
 10
341.7809
 20
-226.2719
 10
341.8307
 20
-225.966
 10
341.8928
 20
-225.6723
 10
341.9671
 20
-225.3907
 10
342.0537
 20
-225.1212
 10
342.1526
 20
-224.8635
 10
342.2638
 20
-224.6177
 10
342.3873
 20
-224.3836
 10
342.4885
 20
-224.2169
 10
342.5979
 20
-224.0578
 10
342.7157
 20
-223.9063
 10
342.8419
 20
-223.7624
 10
342.9764
 20
-223.6261
 10
343.1193
 20
-223.4973
 10
343.2707
 20
-223.3759
 10
343.4305
 20
-223.2621
 10
343.5961
 20
-223.1588
 10
343.7648
 20
-223.0691
 10
343.9366
 20
-222.9931
 10
344.1115
 20
-222.9307
 10
344.2894
 20
-222.8819
 10
344.4705
 20
-222.8467
 10
344.6547
 20
-222.8252
 10
344.842
 20
-222.8173
 10
345.0251
 20
-222.8198
 10
345.196
 20
-222.8296
 10
345.3546
 20
-222.8466
 10
345.501
 20
-222.8709
 10
345.6352
 20
-222.9024
 10
345.7573
 20
-222.9411
 10
345.8673
 20
-222.9871
 10
345.9652
 20
-223.0402
 10
346.2123
 20
-223.2197
 10
346.4267
 20
-223.4304
 10
346.6086
 20
-223.6723
 10
346.7578
 20
-223.9455
 10
346.8743
 20
-224.2499
 10
346.9583
 20
-224.5856
 10
347.0095
 20
-224.9526
 10
347.0281
 20
-225.3508
 10
347.0686
 20
-232.0196
 10
348.7765
 20
-232.0088
 10
348.736
 20
-225.34
 10
348.7212
 20
-224.9325
 10
348.9978
 20
-224.3443
 10
349.099
 20
-224.1776
 10
349.2084
 20
-224.0185
 10
349.3261
 20
-223.867
 10
349.4522
 20
-223.7231
 10
349.5865
 20
-223.5868
 10
349.7293
 20
-223.458
 10
349.8804
 20
-223.3366
 10
350.0399
 20
-223.2228
 10
350.2059
 20
-223.1195
 10
350.3748
 20
-223.0298
 10
350.5468
 20
-222.9538
 10
350.7219
 20
-222.8914
 10
350.9
 20
-222.8426
 10
351.0813
 20
-222.8074
 10
351.2658
 20
-222.7859
 10
351.4535
 20
-222.778
 10
351.6364
 20
-222.7805
 10
351.8071
 20
-222.7903
 10
351.9656
 20
-222.8073
 10
352.112
 20
-222.8316
 10
352.2462
 20
-222.8631
 10
352.3682
 20
-222.9019
 10
352.478
 20
-222.9478
 10
352.5756
 20
-223.0009
 10
352.8227
 20
-223.1804
 10
353.0372
 20
-223.3911
 10
353.219
 20
-223.633
 10
353.3682
 20
-223.9062
 10
353.4848
 20
-224.2106
 10
353.5687
 20
-224.5463
 10
353.6199
 20
-224.9133
 10
353.6385
 20
-225.3116
 10
353.679
 20
-231.9804
  0
LWPOLYLINE
  5
7D
330
1F
100
AcDbEntity
  8
Layer 1
 62
     7
370
     9
100
AcDbPolyline
 90
        7
 70
     1
 43
0.0
 10
287.6774
 20
-449.1529
 10
289.2667
 20
-449.1431
 10
289.1739
 20
-432.4598
 10
285.359
 20
-432.9204
 10
285.3669
 20
-434.3993
 10
287.5944
 20
-434.3855
 10
287.6774
 20
-449.1529
  0
LWPOLYLINE
  5
7E
330
1F
100
AcDbEntity
  8
Layer 1
 62
     7
370
     9
100
AcDbPolyline
 90
       87
 70
     1
 43
0.0
 10
292.2667
 20
-449.1235
 10
303.1514
 20
-449.0547
 10
303.1416
 20
-447.3568
 10
296.0975
 20
-447.401
 10
301.4504
 20
-441.6681
 10
301.7996
 20
-441.2558
 10
302.1018
 20
-440.8233
 10
302.3571
 20
-440.3706
 10
302.5653
 20
-439.8976
 10
302.7266
 20
-439.4045
 10
302.8408
 20
-438.8911
 10
302.908
 20
-438.3576
 10
302.9282
 20
-437.8039
 10
302.9013
 20
-437.238
 10
302.8265
 20
-436.6951
 10
302.7039
 20
-436.1752
 10
302.5333
 20
-435.6785
 10
302.3149
 20
-435.2047
 10
302.0486
 20
-434.7541
 10
301.7344
 20
-434.3265
 10
301.3724
 20
-433.922
 10
300.9713
 20
-433.5466
 10
300.5525
 20
-433.2216
 10
300.1161
 20
-432.9471
 10
299.6622
 20
-432.7231
 10
299.1908
 20
-432.5496
 10
298.7019
 20
-432.4266
 10
298.1956
 20
-432.3541
 10
297.672
 20
-432.3321
 10
297.1285
 20
-432.3623
 10
296.6054
 20
-432.4454
 10
296.1028
 20
-432.5813
 10
295.6207
 20
-432.7702
 10
295.1592
 20
-433.012
 10
294.7181
 20
-433.3067
 10
294.2976
 20
-433.6542
 10
293.8976
 20
-434.0546
 10
293.5419
 20
-434.4847
 10
293.2371
 20
-434.9368
 10
292.9833
 20
-435.4109
 10
292.7803
 20
-435.9071
 10
292.6282
 20
-436.4254
 10
292.527
 20
-436.9659
 10
292.4766
 20
-437.5285
 10
292.4771
 20
-438.1132
 10
294.0902
 20
-438.1024
 10
294.0749
 20
-437.7236
 10
294.0979
 20
-437.3532
 10
294.1592
 20
-436.9912
 10
294.2588
 20
-436.6376
 10
294.3968
 20
-436.2924
 10
294.5732
 20
-435.9557
 10
294.7881
 20
-435.6274
 10
295.0415
 20
-435.3076
 10
295.3122
 20
-435.0219
 10
295.5974
 20
-434.7739
 10
295.8973
 20
-434.5635
 10
296.2117
 20
-434.3909
 10
296.5405
 20
-434.2561
 10
296.8839
 20
-434.159
 10
297.2416
 20
-434.0997
 10
297.6138
 20
-434.0782
 10
297.9789
 20
-434.0931
 10
298.3304
 20
-434.1421
 10
298.6682
 20
-434.2253
 10
298.9925
 20
-434.3427
 10
299.3031
 20
-434.4943
 10
299.6002
 20
-434.6801
 10
299.8836
 20
-434.9001
 10
300.1534
 20
-435.1544
 10
300.4022
 20
-435.4353
 10
300.6183
 20
-435.7301
 10
300.8015
 20
-436.0388
 10
300.9518
 20
-436.3614
 10
301.0693
 20
-436.6978
 10
301.1539
 20
-437.0481
 10
301.2055
 20
-437.4122
 10
301.2242
 20
-437.7901
 10
301.2104
 20
-438.1767
 10
301.1646
 20
-438.5484
 10
301.0867
 20
-438.9051
 10
300.9768
 20
-439.2469
 10
300.8348
 20
-439.5738
 10
300.6608
 20
-439.8858
 10
300.4547
 20
-440.1829
 10
300.2166
 20
-440.4651
 10
292.2667
 20
-449.1235
  0
LWPOLYLINE
  5
7F
330
1F
100
AcDbEntity
  8
Layer 1
 62
     7
370
     9
100
AcDbPolyline
 90
      113
 70
     1
 43
0.0
 10
312.3292
 20
-434.4209
 10
312.5927
 20
-434.6095
 10
312.8385
 20
-434.8239
 10
313.0667
 20
-435.0643
 10
313.2774
 20
-435.3305
 10
313.4703
 20
-435.6226
 10
313.6457
 20
-435.9405
 10
313.8033
 20
-436.2843
 10
313.9433
 20
-436.654
 10
314.1005
 20
-437.1445
 10
314.2372
 20
-437.6425
 10
314.3534
 20
-438.1479
 10
314.4491
 20
-438.6606
 10
314.5242
 20
-439.1806
 10
314.5787
 20
-439.7079
 10
314.6126
 20
-440.2425
 10
314.6259
 20
-440.7843
 10
314.6232
 20
-441.0505
 10
314.6123
 20
-441.3395
 10
314.5928
 20
-441.6511
 10
314.5646
 20
-441.9853
 10
314.4895
 20
-442.6376
 10
314.39
 20
-443.2541
 10
314.2661
 20
-443.8347
 10
314.1179
 20
-444.3795
 10
313.9453
 20
-444.8885
 10
313.7484
 20
-445.3615
 10
313.5271
 20
-445.7987
 10
313.2814
 20
-446.2
 10
313.0567
 20
-446.5029
 10
312.8199
 20
-446.7657
 10
312.5707
 20
-446.9883
 10
312.3094
 20
-447.1708
 10
312.0358
 20
-447.3131
 10
311.7501
 20
-447.4153
 10
311.452
 20
-447.4773
 10
311.1418
 20
-447.4992
 10
310.7948
 20
-447.4818
 10
310.4643
 20
-447.4245
 10
310.1503
 20
-447.3272
 10
309.8528
 20
-447.19
 10
309.5717
 20
-447.0129
 10
309.3071
 20
-446.7959
 10
309.059
 20
-446.5391
 10
308.8274
 20
-446.2423
 10
308.7295
 20
-446.0979
 10
308.6357
 20
-445.949
 10
308.5462
 20
-445.7955
 10
308.4608
 20
-445.6376
 10
308.3796
 20
-445.4751
 10
308.3027
 20
-445.3082
 10
308.23
 20
-445.1367
 10
308.1616
 20
-444.9607
 10
308.0368
 20
-444.6013
 10
307.9275
 20
-444.2374
 10
307.8338
 20
-443.8688
 10
307.7556
 20
-443.4956
 10
307.6902
 20
-443.1231
 10
307.6349
 20
-442.7568
 10
307.5895
 20
-442.3965
 10
307.5541
 20
-442.0422
 10
307.5398
 20
-441.8631
 10
307.5272
 20
-441.6772
 10
307.5164
 20
-441.4845
 10
307.5073
 20
-441.2851
 10
307.4999
 20
-441.079
 10
307.4942
 20
-440.8665
 10
307.4902
 20
-440.6474
 10
307.4879
 20
-440.4219
 10
307.4907
 20
-440.1861
 10
307.5011
 20
-439.9366
 10
307.5192
 20
-439.6735
 10
307.5451
 20
-439.3966
 10
307.5787
 20
-439.1058
 10
307.62
 20
-438.8011
 10
307.6691
 20
-438.4824
 10
307.726
 20
-438.1496
 10
307.7991
 20
-437.7798
 10
307.8866
 20
-437.4116
 10
307.9884
 20
-437.0448
 10
308.1043
 20
-436.6795
 10
308.1681
 20
-436.4995
 10
308.2364
 20
-436.3239
 10
308.3093
 20
-436.1529
 10
308.3868
 20
-435.9864
 10
308.469
 20
-435.8245
 10
308.5558
 20
-435.667
 10
308.6472
 20
-435.514
 10
308.7434
 20
-435.3656
 10
308.8448
 20
-435.223
 10
308.9511
 20
-435.0876
 10
309.0623
 20
-434.9593
 10
309.1786
 20
-434.8383
 10
309.2998
 20
-434.7246
 10
309.4261
 20
-434.6181
 10
309.5573
 20
-434.5188
 10
309.6937
 20
-434.4268
 10
309.8355
 20
-434.3431
 10
309.9838
 20
-434.2705
 10
310.1385
 20
-434.2088
 10
310.2997
 20
-434.1581
 10
310.4674
 20
-434.1183
 10
310.6416
 20
-434.0897
 10
310.8223
 20
-434.072
 10
311.0095
 20
-434.0654
 10
311.1964
 20
-434.07
 10
311.3771
 20
-434.086
 10
311.5515
 20
-434.1134
 10
311.7197
 20
-434.1522
 10
311.8816
 20
-434.2023
 10
312.0371
 20
-434.2639
 10
312.1864
 20
-434.3367
 10
312.3292
 20
-434.4209
  0
LWPOLYLINE
  5
80
330
1F
100
AcDbEntity
  8
Layer 1
 62
     7
370
     9
100
AcDbPolyline
 90
       65
 70
     1
 43
0.0
 10
311.1735
 20
-449.2207
 10
311.8366
 20
-449.1715
 10
312.457
 20
-449.0329
 10
313.0346
 20
-448.8047
 10
313.5695
 20
-448.487
 10
314.0616
 20
-448.0798
 10
314.5111
 20
-447.583
 10
314.9178
 20
-446.9967
 10
315.2818
 20
-446.3208
 10
315.5371
 20
-445.7316
 10
315.7576
 20
-445.11
 10
315.9435
 20
-444.456
 10
316.0946
 20
-443.7696
 10
316.2111
 20
-443.0508
 10
316.2929
 20
-442.2995
 10
316.3401
 20
-441.5159
 10
316.3526
 20
-440.6998
 10
316.3307
 20
-439.8843
 10
316.2746
 20
-439.1016
 10
316.1842
 20
-438.3517
 10
316.0597
 20
-437.6346
 10
315.9008
 20
-436.9503
 10
315.7077
 20
-436.2989
 10
315.4803
 20
-435.6803
 10
315.2185
 20
-435.0945
 10
314.8472
 20
-434.4233
 10
314.4342
 20
-433.8421
 10
313.9793
 20
-433.351
 10
313.4827
 20
-432.9499
 10
312.9443
 20
-432.639
 10
312.3642
 20
-432.4181
 10
311.7423
 20
-432.2873
 10
311.0786
 20
-432.2467
 10
310.4154
 20
-432.2956
 10
309.795
 20
-432.4341
 10
309.2174
 20
-432.6623
 10
308.6825
 20
-432.98
 10
308.1904
 20
-433.3874
 10
307.741
 20
-433.8843
 10
307.3343
 20
-434.4707
 10
306.9703
 20
-435.1466
 10
306.7154
 20
-435.7358
 10
306.4951
 20
-436.3575
 10
306.3094
 20
-437.0116
 10
306.1584
 20
-437.6981
 10
306.0419
 20
-438.4168
 10
305.9602
 20
-439.1679
 10
305.913
 20
-439.9512
 10
305.9005
 20
-440.7666
 10
305.9221
 20
-441.5824
 10
305.978
 20
-442.3654
 10
306.0681
 20
-443.1155
 10
306.1925
 20
-443.8328
 10
306.3513
 20
-444.5172
 10
306.5444
 20
-445.1689
 10
306.7718
 20
-445.7877
 10
307.0335
 20
-446.3738
 10
307.4051
 20
-447.045
 10
307.8185
 20
-447.6261
 10
308.2735
 20
-448.1171
 10
308.7701
 20
-448.518
 10
309.3085
 20
-448.8287
 10
309.8885
 20
-449.0495
 10
310.5101
 20
-449.1801
 10
311.1735
 20
-449.2207
  0
LWPOLYLINE
  5
81
330
1F
100
AcDbEntity
  8
Layer 1
 62
     7
370
     9
100
AcDbPolyline
 90
      162
 70
     1
 43
0.0
 10
331.9185
 20
-448.822
 10
333.5099
 20
-448.8122
 10
333.4723
 20
-442.1434
 10
333.4568
 20
-441.7006
 10
333.4155
 20
-441.2789
 10
333.3484
 20
-440.8782
 10
333.2555
 20
-440.4985
 10
333.1369
 20
-440.1398
 10
332.9925
 20
-439.8021
 10
332.8225
 20
-439.4853
 10
332.6268
 20
-439.1895
 10
332.5172
 20
-439.0484
 10
332.401
 20
-438.9144
 10
332.2782
 20
-438.7877
 10
332.1487
 20
-438.6682
 10
332.0125
 20
-438.5559
 10
331.8697
 20
-438.4508
 10
331.7202
 20
-438.353
 10
331.5639
 20
-438.2625
 10
331.3979
 20
-438.1814
 10
331.2192
 20
-438.1113
 10
331.0278
 20
-438.0522
 10
330.8237
 20
-438.0041
 10
330.607
 20
-437.967
 10
330.3775
 20
-437.9408
 10
330.1354
 20
-437.9258
 10
329.8806
 20
-437.9217
 10
329.6235
 20
-437.933
 10
329.3747
 20
-437.9631
 10
329.134
 20
-438.0122
 10
328.9016
 20
-438.0801
 10
328.6775
 20
-438.1669
 10
328.4617
 20
-438.2725
 10
328.2543
 20
-438.397
 10
328.0552
 20
-438.5404
 10
327.8824
 20
-438.6831
 10
327.7175
 20
-438.8363
 10
327.5605
 20
-439.0
 10
327.4113
 20
-439.1739
 10
327.2699
 20
-439.3581
 10
327.1363
 20
-439.5522
 10
327.0105
 20
-439.7563
 10
326.8925
 20
-439.9702
 10
326.7992
 20
-439.7738
 10
326.6972
 20
-439.5844
 10
326.5866
 20
-439.4025
 10
326.4678
 20
-439.2288
 10
326.3585
 20
-439.0877
 10
326.2425
 20
-438.9538
 10
326.1199
 20
-438.8272
 10
325.9905
 20
-438.7078
 10
325.8545
 20
-438.5956
 10
325.7117
 20
-438.4905
 10
325.5622
 20
-438.3926
 10
325.4059
 20
-438.3018
 10
325.2399
 20
-438.2207
 10
325.0612
 20
-438.1506
 10
324.8698
 20
-438.0915
 10
324.6657
 20
-438.0434
 10
324.449
 20
-438.0063
 10
324.2195
 20
-437.9801
 10
323.9774
 20
-437.9651
 10
323.7226
 20
-437.961
 10
323.4656
 20
-437.9723
 10
323.2168
 20
-438.0024
 10
322.9762
 20
-438.0514
 10
322.7439
 20
-438.1193
 10
322.5199
 20
-438.2061
 10
322.304
 20
-438.3118
 10
322.0964
 20
-438.4363
 10
321.8971
 20
-438.5797
 10
321.7322
 20
-438.7157
 10
321.5746
 20
-438.8607
 10
321.4243
 20
-439.0149
 10
321.2811
 20
-439.1783
 10
321.1451
 20
-439.351
 10
321.0163
 20
-439.5329
 10
320.8946
 20
-439.7243
 10
320.7799
 20
-439.925
 10
320.77
 20
-438.2232
 10
319.1797
 20
-438.233
 10
319.2389
 20
-448.9035
 10
320.8303
 20
-448.8927
 10
320.7997
 20
-443.4318
 10
320.8347
 20
-443.1139
 10
320.881
 20
-442.8082
 10
320.9388
 20
-442.5147
 10
321.0081
 20
-442.2332
 10
321.0889
 20
-441.9637
 10
321.1812
 20
-441.7061
 10
321.285
 20
-441.4603
 10
321.4003
 20
-441.2262
 10
321.4942
 20
-441.0595
 10
321.596
 20
-440.9004
 10
321.7057
 20
-440.7489
 10
321.8232
 20
-440.6049
 10
321.9485
 20
-440.4684
 10
322.0816
 20
-440.3394
 10
322.2226
 20
-440.2179
 10
322.3713
 20
-440.1037
 10
322.5257
 20
-440.0005
 10
322.6829
 20
-439.9109
 10
322.8429
 20
-439.835
 10
323.0058
 20
-439.7728
 10
323.1715
 20
-439.7242
 10
323.3401
 20
-439.6892
 10
323.5116
 20
-439.6678
 10
323.6861
 20
-439.6599
 10
323.8567
 20
-439.6624
 10
324.016
 20
-439.6721
 10
324.1639
 20
-439.689
 10
324.3004
 20
-439.7132
 10
324.4256
 20
-439.7446
 10
324.5394
 20
-439.7833
 10
324.642
 20
-439.8294
 10
324.7332
 20
-439.8828
 10
324.9632
 20
-440.0622
 10
325.1629
 20
-440.2728
 10
325.3322
 20
-440.5146
 10
325.4711
 20
-440.7876
 10
325.5796
 20
-441.0919
 10
325.6577
 20
-441.4274
 10
325.7055
 20
-441.7943
 10
325.7229
 20
-442.1925
 10
325.7605
 20
-448.8613
 10
327.3518
 20
-448.8515
 10
327.3143
 20
-442.1826
 10
327.2995
 20
-441.7741
 10
327.5583
 20
-441.1859
 10
327.6522
 20
-441.0195
 10
327.754
 20
-440.8607
 10
327.8637
 20
-440.7094
 10
327.9812
 20
-440.5655
 10
328.1065
 20
-440.4292
 10
328.2396
 20
-440.3002
 10
328.3806
 20
-440.1787
 10
328.5293
 20
-440.0645
 10
328.6837
 20
-439.9612
 10
328.8409
 20
-439.8716
 10
329.0009
 20
-439.7957
 10
329.1639
 20
-439.7334
 10
329.3297
 20
-439.6846
 10
329.4985
 20
-439.6495
 10
329.6703
 20
-439.6278
 10
329.8451
 20
-439.6196
 10
330.0154
 20
-439.6221
 10
330.1745
 20
-439.632
 10
330.3224
 20
-439.649
 10
330.4589
 20
-439.6734
 10
330.5841
 20
-439.705
 10
330.6979
 20
-439.7439
 10
330.8003
 20
-439.7901
 10
330.8912
 20
-439.8435
 10
331.1212
 20
-440.0227
 10
331.3209
 20
-440.2331
 10
331.4902
 20
-440.4749
 10
331.6291
 20
-440.7479
 10
331.7376
 20
-441.0523
 10
331.8158
 20
-441.388
 10
331.8636
 20
-441.7549
 10
331.881
 20
-442.1532
 10
331.9185
 20
-448.822
  0
LWPOLYLINE
  5
82
330
1F
100
AcDbEntity
  8
Layer 1
 62
     7
370
     9
100
AcDbPolyline
 90
      162
 70
     1
 43
0.0
 10
349.2566
 20
-448.711
 10
350.8479
 20
-448.7012
 10
350.8104
 20
-442.0324
 10
350.7949
 20
-441.5896
 10
350.7536
 20
-441.1679
 10
350.6865
 20
-440.7672
 10
350.5936
 20
-440.3876
 10
350.475
 20
-440.0289
 10
350.3306
 20
-439.6911
 10
350.1605
 20
-439.3744
 10
349.9648
 20
-439.0785
 10
349.8552
 20
-438.9374
 10
349.739
 20
-438.8036
 10
349.6162
 20
-438.677
 10
349.4867
 20
-438.5576
 10
349.3506
 20
-438.4453
 10
349.2078
 20
-438.3402
 10
349.0583
 20
-438.2423
 10
348.902
 20
-438.1515
 10
348.736
 20
-438.0704
 10
348.5573
 20
-438.0003
 10
348.3659
 20
-437.9412
 10
348.1618
 20
-437.8931
 10
347.9451
 20
-437.856
 10
347.7156
 20
-437.8299
 10
347.4735
 20
-437.8148
 10
347.2187
 20
-437.8108
 10
346.9616
 20
-437.8221
 10
346.7127
 20
-437.8522
 10
346.4721
 20
-437.9012
 10
346.2397
 20
-437.9691
 10
346.0155
 20
-438.0559
 10
345.7997
 20
-438.1615
 10
345.5923
 20
-438.286
 10
345.3932
 20
-438.4294
 10
345.2205
 20
-438.5721
 10
345.0556
 20
-438.7253
 10
344.8985
 20
-438.889
 10
344.7493
 20
-439.0629
 10
344.6079
 20
-439.2471
 10
344.4743
 20
-439.4412
 10
344.3486
 20
-439.6453
 10
344.2306
 20
-439.8592
 10
344.1373
 20
-439.6633
 10
344.0353
 20
-439.4738
 10
343.9247
 20
-439.2917
 10
343.8058
 20
-439.1178
 10
343.6968
 20
-438.9767
 10
343.581
 20
-438.8429
 10
343.4584
 20
-438.7163
 10
343.329
 20
-438.5969
 10
343.1928
 20
-438.4846
 10
343.0499
 20
-438.3795
 10
342.9002
 20
-438.2816
 10
342.7439
 20
-438.1908
 10
342.5779
 20
-438.1097
 10
342.3992
 20
-438.0396
 10
342.2079
 20
-437.9805
 10
342.0038
 20
-437.9324
 10
341.7871
 20
-437.8953
 10
341.5576
 20
-437.8691
 10
341.3155
 20
-437.8541
 10
341.0607
 20
-437.85
 10
340.8037
 20
-437.8613
 10
340.5549
 20
-437.8914
 10
340.3143
 20
-437.9405
 10
340.082
 20
-438.0084
 10
339.858
 20
-438.0952
 10
339.6421
 20
-438.2008
 10
339.4345
 20
-438.3253
 10
339.2352
 20
-438.4687
 10
339.0703
 20
-438.6047
 10
338.9127
 20
-438.7498
 10
338.7623
 20
-438.904
 10
338.6192
 20
-439.0674
 10
338.4832
 20
-439.24
 10
338.3544
 20
-439.422
 10
338.2326
 20
-439.6133
 10
338.118
 20
-439.8141
 10
338.1081
 20
-438.1122
 10
336.5178
 20
-438.1221
 10
336.577
 20
-448.7925
 10
338.1684
 20
-448.7817
 10
338.1378
 20
-443.3208
 10
338.1728
 20
-443.0029
 10
338.2193
 20
-442.6972
 10
338.2772
 20
-442.4037
 10
338.3466
 20
-442.1223
 10
338.4274
 20
-441.8528
 10
338.5196
 20
-441.5952
 10
338.6233
 20
-441.3493
 10
338.7384
 20
-441.1152
 10
338.8323
 20
-440.9485
 10
338.9341
 20
-440.7894
 10
339.0438
 20
-440.6379
 10
339.1613
 20
-440.494
 10
339.2866
 20
-440.3575
 10
339.4197
 20
-440.2285
 10
339.5607
 20
-440.107
 10
339.7094
 20
-439.9928
 10
339.8638
 20
-439.8898
 10
340.0209
 20
-439.8004
 10
340.1809
 20
-439.7245
 10
340.3438
 20
-439.6622
 10
340.5095
 20
-439.6135
 10
340.6781
 20
-439.5784
 10
340.8496
 20
-439.5568
 10
341.0241
 20
-439.5489
 10
341.1947
 20
-439.5514
 10
341.354
 20
-439.5611
 10
341.5019
 20
-439.578
 10
341.6384
 20
-439.6022
 10
341.7636
 20
-439.6336
 10
341.8774
 20
-439.6724
 10
341.98
 20
-439.7184
 10
342.0712
 20
-439.7718
 10
342.3013
 20
-439.9512
 10
342.5009
 20
-440.1618
 10
342.6702
 20
-440.4036
 10
342.8091
 20
-440.6766
 10
342.9177
 20
-440.9809
 10
342.9958
 20
-441.3164
 10
343.0436
 20
-441.6833
 10
343.061
 20
-442.0815
 10
343.0986
 20
-448.7503
 10
344.6899
 20
-448.7405
 10
344.6524
 20
-442.0717
 10
344.6386
 20
-441.6632
 10
344.8964
 20
-441.0749
 10
344.9903
 20
-440.9086
 10
345.0921
 20
-440.7497
 10
345.2018
 20
-440.5984
 10
345.3193
 20
-440.4546
 10
345.4446
 20
-440.3182
 10
345.5777
 20
-440.1892
 10
345.7187
 20
-440.0677
 10
345.8674
 20
-439.9535
 10
346.0218
 20
-439.8503
 10
346.179
 20
-439.7607
 10
346.339
 20
-439.6848
 10
346.502
 20
-439.6225
 10
346.6678
 20
-439.5737
 10
346.8366
 20
-439.5385
 10
347.0084
 20
-439.5168
 10
347.1832
 20
-439.5086
 10
347.3535
 20
-439.5111
 10
347.5126
 20
-439.521
 10
347.6605
 20
-439.538
 10
347.797
 20
-439.5624
 10
347.9222
 20
-439.594
 10
348.036
 20
-439.6329
 10
348.1384
 20
-439.6791
 10
348.2293
 20
-439.7325
 10
348.4593
 20
-439.9117
 10
348.659
 20
-440.1221
 10
348.8283
 20
-440.3639
 10
348.9672
 20
-440.637
 10
349.0757
 20
-440.9413
 10
349.1538
 20
-441.277
 10
349.2016
 20
-441.6439
 10
349.219
 20
-442.0422
 10
349.2566
 20
-448.711
  0
LWPOLYLINE
  5
83
330
1F
100
AcDbEntity
  8
Layer 1
 62
     7
370
     9
100
AcDbPolyline
 90
      137
 70
     1
 43
0.0
 10
322.884
 20
-359.4045
 10
322.7724
 20
-359.1565
 10
322.6508
 20
-358.9161
 10
322.5193
 20
-358.6835
 10
322.3779
 20
-358.4585
 10
322.2265
 20
-358.241
 10
322.0651
 20
-358.0311
 10
321.8937
 20
-357.8288
 10
321.7124
 20
-357.6339
 10
321.3031
 20
-357.2503
 10
320.871
 20
-356.9179
 10
320.416
 20
-356.6365
 10
319.9381
 20
-356.4063
 10
319.4373
 20
-356.2272
 10
318.9136
 20
-356.0993
 10
318.3671
 20
-356.0225
 10
317.7977
 20
-355.9969
 10
317.2279
 20
-356.0229
 10
316.6803
 20
-356.1008
 10
316.1547
 20
-356.2306
 10
315.6513
 20
-356.4123
 10
315.1699
 20
-356.646
 10
314.7107
 20
-356.9316
 10
314.2735
 20
-357.2691
 10
313.8583
 20
-357.6585
 10
313.5
 20
-358.0607
 10
313.1843
 20
-358.4887
 10
312.9114
 20
-358.9425
 10
312.6811
 20
-359.4222
 10
312.4935
 20
-359.9276
 10
312.3487
 20
-360.4588
 10
312.2465
 20
-361.0157
 10
312.187
 20
-361.5983
 10
312.6265
 20
-362.3259
 10
306.4794
 20
-357.1606
 10
306.4794
 20
-366.0359
 10
308.1873
 20
-366.0359
 10
308.1873
 20
-360.6045
 10
314.0411
 20
-365.5999
 10
315.0901
 20
-364.3145
 10
314.8158
 20
-364.0168
 10
314.578
 20
-363.7054
 10
314.3768
 20
-363.3804
 10
314.2122
 20
-363.0417
 10
314.0842
 20
-362.6893
 10
313.9928
 20
-362.3233
 10
313.9379
 20
-361.9436
 10
313.9196
 20
-361.5501
 10
313.9373
 20
-361.1572
 10
313.9905
 20
-360.7792
 10
314.0791
 20
-360.416
 10
314.2032
 20
-360.0676
 10
314.3627
 20
-359.734
 10
314.5576
 20
-359.4152
 10
314.7879
 20
-359.1112
 10
315.0536
 20
-358.8221
 10
315.3443
 20
-358.5577
 10
315.6491
 20
-358.3286
 10
315.9679
 20
-358.1349
 10
316.3007
 20
-357.9764
 10
316.6476
 20
-357.8532
 10
317.0086
 20
-357.7652
 10
317.3837
 20
-357.7124
 10
317.773
 20
-357.6948
 10
318.154
 20
-357.7128
 10
318.5219
 20
-357.7668
 10
318.8768
 20
-357.8568
 10
319.2187
 20
-357.9828
 10
319.5476
 20
-358.1448
 10
319.8636
 20
-358.3428
 10
320.1667
 20
-358.5767
 10
320.4569
 20
-358.8467
 10
320.5815
 20
-358.9799
 10
320.6997
 20
-359.1187
 10
320.8115
 20
-359.2631
 10
320.9168
 20
-359.4133
 10
321.0158
 20
-359.5691
 10
321.1082
 20
-359.7307
 10
321.1943
 20
-359.8981
 10
321.2738
 20
-360.0712
 10
321.3453
 20
-360.2514
 10
321.4074
 20
-360.4408
 10
321.4598
 20
-360.6392
 10
321.5028
 20
-360.8468
 10
321.5362
 20
-361.0635
 10
321.56
 20
-361.2892
 10
321.5743
 20
-361.5241
 10
321.5791
 20
-361.7681
 10
321.5686
 20
-362.0167
 10
321.5371
 20
-362.2653
 10
321.4846
 20
-362.5139
 10
321.4111
 20
-362.7624
 10
321.3168
 20
-363.011
 10
321.2015
 20
-363.2596
 10
321.0653
 20
-363.5081
 10
320.9083
 20
-363.7567
 10
320.7331
 20
-363.9962
 10
320.5431
 20
-364.2176
 10
320.3382
 20
-364.4207
 10
320.1185
 20
-364.6057
 10
319.8839
 20
-364.7724
 10
319.6344
 20
-364.9209
 10
319.37
 20
-365.051
 10
319.0908
 20
-365.1629
 10
319.6518
 20
-366.8127
 10
320.0494
 20
-366.656
 10
320.4279
 20
-366.4708
 10
320.7873
 20
-366.2572
 10
321.1277
 20
-366.0152
 10
321.4489
 20
-365.7448
 10
321.7511
 20
-365.446
 10
322.0342
 20
-365.1188
 10
322.2982
 20
-364.7633
 10
322.4139
 20
-364.5885
 10
322.5231
 20
-364.4094
 10
322.6257
 20
-364.2262
 10
322.722
 20
-364.0388
 10
322.8117
 20
-363.8473
 10
322.8949
 20
-363.6516
 10
322.9717
 20
-363.4518
 10
323.042
 20
-363.248
 10
323.1049
 20
-363.0389
 10
323.1594
 20
-362.8242
 10
323.2056
 20
-362.6037
 10
323.2434
 20
-362.3776
 10
323.2728
 20
-362.1458
 10
323.2939
 20
-361.9084
 10
323.3065
 20
-361.6653
 10
323.3107
 20
-361.4166
 10
323.304
 20
-361.1651
 10
323.284
 20
-360.9136
 10
323.2507
 20
-360.6621
 10
323.204
 20
-360.4106
 10
323.144
 20
-360.159
 10
323.0707
 20
-359.9075
 10
322.984
 20
-359.656
 10
322.884
 20
-359.4045
  0
LWPOLYLINE
  5
84
330
1F
100
AcDbEntity
  8
Layer 1
 62
     7
370
     9
100
AcDbPolyline
 90
      113
 70
     1
 43
0.0
 10
308.4066
 20
-347.3278
 10
308.5978
 20
-347.0478
 10
308.8149
 20
-346.7867
 10
309.0581
 20
-346.5444
 10
309.3272
 20
-346.3212
 10
309.6223
 20
-346.1169
 10
309.9432
 20
-345.9316
 10
310.2901
 20
-345.7653
 10
310.6628
 20
-345.6181
 10
311.1573
 20
-345.4534
 10
311.659
 20
-345.3106
 10
312.168
 20
-345.1898
 10
312.6843
 20
-345.0909
 10
313.2078
 20
-345.014
 10
313.7385
 20
-344.959
 10
314.2764
 20
-344.926
 10
314.8214
 20
-344.915
 10
315.0892
 20
-344.9194
 10
315.3799
 20
-344.9329
 10
315.6934
 20
-344.9555
 10
316.0295
 20
-344.9876
 10
316.6852
 20
-345.0716
 10
317.3047
 20
-345.1815
 10
317.888
 20
-345.3172
 10
318.4351
 20
-345.4786
 10
318.946
 20
-345.6659
 10
319.4206
 20
-345.8789
 10
319.8591
 20
-346.1176
 10
320.2613
 20
-346.3821
 10
320.5645
 20
-346.6235
 10
320.8272
 20
-346.8777
 10
321.0494
 20
-347.1449
 10
321.2313
 20
-347.4249
 10
321.3726
 20
-347.7177
 10
321.4736
 20
-348.0233
 10
321.5342
 20
-348.3418
 10
321.5544
 20
-348.6731
 10
321.5344
 20
-349.0431
 10
321.4744
 20
-349.3954
 10
321.3744
 20
-349.7299
 10
321.2343
 20
-350.0466
 10
321.0543
 20
-350.3454
 10
320.8343
 20
-350.6264
 10
320.5742
 20
-350.8896
 10
320.2742
 20
-351.135
 10
320.1285
 20
-351.2388
 10
319.9782
 20
-351.3381
 10
319.8234
 20
-351.4328
 10
319.664
 20
-351.523
 10
319.5
 20
-351.6086
 10
319.3315
 20
-351.6897
 10
319.1585
 20
-351.7662
 10
318.9811
 20
-351.8381
 10
318.6188
 20
-351.969
 10
318.2521
 20
-352.0834
 10
317.8809
 20
-352.1811
 10
317.5053
 20
-352.2623
 10
317.13
 20
-352.3299
 10
316.7612
 20
-352.3868
 10
316.3984
 20
-352.433
 10
316.0414
 20
-352.4686
 10
315.8612
 20
-352.4828
 10
315.6742
 20
-352.4951
 10
315.4804
 20
-352.5055
 10
315.2798
 20
-352.5141
 10
315.0725
 20
-352.5208
 10
314.8587
 20
-352.5256
 10
314.6383
 20
-352.5284
 10
314.4115
 20
-352.5294
 10
314.1743
 20
-352.5252
 10
313.9234
 20
-352.5127
 10
313.6587
 20
-352.4918
 10
313.3803
 20
-352.4625
 10
313.0879
 20
-352.4249
 10
312.7815
 20
-352.379
 10
312.4612
 20
-352.3248
 10
312.1267
 20
-352.2623
 10
311.7555
 20
-352.1818
 10
311.3858
 20
-352.0863
 10
311.0176
 20
-351.9756
 10
310.6509
 20
-351.8499
 10
310.4702
 20
-351.7808
 10
310.294
 20
-351.7068
 10
310.1224
 20
-351.6279
 10
309.9553
 20
-351.5441
 10
309.7929
 20
-351.4554
 10
309.635
 20
-351.3617
 10
309.4818
 20
-351.2631
 10
309.3332
 20
-351.1595
 10
309.1905
 20
-351.0505
 10
309.055
 20
-350.9363
 10
308.9268
 20
-350.8169
 10
308.8058
 20
-350.6922
 10
308.6921
 20
-350.5622
 10
308.5857
 20
-350.4269
 10
308.4865
 20
-350.2863
 10
308.3947
 20
-350.1402
 10
308.3117
 20
-349.9884
 10
308.2397
 20
-349.8298
 10
308.1788
 20
-349.6643
 10
308.1289
 20
-349.492
 10
308.0901
 20
-349.3128
 10
308.0623
 20
-349.1268
 10
308.0457
 20
-348.9338
 10
308.0401
 20
-348.734
 10
308.0458
 20
-348.5345
 10
308.0631
 20
-348.3417
 10
308.0917
 20
-348.1556
 10
308.1319
 20
-347.9764
 10
308.1834
 20
-347.8039
 10
308.2464
 20
-347.6384
 10
308.3208
 20
-347.4796
 10
308.4066
 20
-347.3278
  0
LWPOLYLINE
  5
85
330
1F
100
AcDbEntity
  8
Layer 1
 62
     7
370
     9
100
AcDbPolyline
 90
       65
 70
     1
 43
0.0
 10
323.286
 20
-348.6495
 10
323.2409
 20
-347.9414
 10
323.1054
 20
-347.2785
 10
322.8796
 20
-346.6607
 10
322.5636
 20
-346.088
 10
322.1571
 20
-345.5603
 10
321.6603
 20
-345.0779
 10
321.0732
 20
-344.6405
 10
320.3957
 20
-344.2482
 10
319.8044
 20
-343.9724
 10
319.1805
 20
-343.7334
 10
318.5237
 20
-343.5312
 10
317.8343
 20
-343.3657
 10
317.112
 20
-343.2371
 10
316.357
 20
-343.1452
 10
315.5691
 20
-343.0901
 10
314.7483
 20
-343.0717
 10
313.9279
 20
-343.0901
 10
313.1401
 20
-343.1452
 10
312.3852
 20
-343.2371
 10
311.6629
 20
-343.3657
 10
310.9735
 20
-343.5312
 10
310.3168
 20
-343.7334
 10
309.693
 20
-343.9724
 10
309.102
 20
-344.2482
 10
308.4244
 20
-344.6405
 10
307.8372
 20
-345.0779
 10
307.3403
 20
-345.5603
 10
306.9337
 20
-346.088
 10
306.6174
 20
-346.6607
 10
306.3915
 20
-347.2785
 10
306.2559
 20
-347.9414
 10
306.2107
 20
-348.6495
 10
306.2559
 20
-349.3572
 10
306.3915
 20
-350.02
 10
306.6174
 20
-350.6377
 10
306.9337
 20
-351.2104
 10
307.3403
 20
-351.738
 10
307.8372
 20
-352.2207
 10
308.4244
 20
-352.6583
 10
309.102
 20
-353.0509
 10
309.693
 20
-353.3264
 10
310.3168
 20
-353.5651
 10
310.9735
 20
-353.7672
 10
311.6629
 20
-353.9325
 10
312.3852
 20
-354.061
 10
313.1401
 20
-354.1528
 10
313.9279
 20
-354.2079
 10
314.7483
 20
-354.2263
 10
315.5691
 20
-354.2079
 10
316.357
 20
-354.1528
 10
317.112
 20
-354.061
 10
317.8343
 20
-353.9325
 10
318.5237
 20
-353.7672
 10
319.1805
 20
-353.5651
 10
319.8044
 20
-353.3264
 10
320.3957
 20
-353.0509
 10
321.0732
 20
-352.6583
 10
321.6603
 20
-352.2207
 10
322.1571
 20
-351.738
 10
322.5636
 20
-351.2104
 10
322.8796
 20
-350.6377
 10
323.1054
 20
-350.02
 10
323.2409
 20
-349.3572
 10
323.286
 20
-348.6495
  0
LWPOLYLINE
  5
86
330
1F
100
AcDbEntity
  8
Layer 1
 62
     7
370
     9
100
AcDbPolyline
 90
      113
 70
     1
 43
0.0
 10
308.4066
 20
-333.7476
 10
308.5978
 20
-333.4676
 10
308.8149
 20
-333.2065
 10
309.0581
 20
-332.9643
 10
309.3272
 20
-332.741
 10
309.6223
 20
-332.5367
 10
309.9432
 20
-332.3514
 10
310.2901
 20
-332.1852
 10
310.6628
 20
-332.0379
 10
311.1573
 20
-331.8732
 10
311.659
 20
-331.7304
 10
312.168
 20
-331.6096
 10
312.6843
 20
-331.5107
 10
313.2078
 20
-331.4338
 10
313.7385
 20
-331.3788
 10
314.2764
 20
-331.3458
 10
314.8214
 20
-331.3348
 10
315.0892
 20
-331.3393
 10
315.3799
 20
-331.3527
 10
315.6934
 20
-331.3754
 10
316.0295
 20
-331.4075
 10
316.6852
 20
-331.4915
 10
317.3047
 20
-331.6013
 10
317.888
 20
-331.737
 10
318.4351
 20
-331.8985
 10
318.946
 20
-332.0857
 10
319.4206
 20
-332.2987
 10
319.8591
 20
-332.5375
 10
320.2613
 20
-332.8019
 10
320.5645
 20
-333.0433
 10
320.8272
 20
-333.2975
 10
321.0494
 20
-333.5647
 10
321.2313
 20
-333.8447
 10
321.3726
 20
-334.1375
 10
321.4736
 20
-334.4431
 10
321.5342
 20
-334.7616
 10
321.5544
 20
-335.0929
 10
321.5344
 20
-335.463
 10
321.4744
 20
-335.8152
 10
321.3744
 20
-336.1497
 10
321.2343
 20
-336.4664
 10
321.0543
 20
-336.7652
 10
320.8343
 20
-337.0463
 10
320.5742
 20
-337.3095
 10
320.2742
 20
-337.5548
 10
320.1285
 20
-337.6586
 10
319.9782
 20
-337.7579
 10
319.8234
 20
-337.8526
 10
319.664
 20
-337.9428
 10
319.5
 20
-338.0284
 10
319.3315
 20
-338.1095
 10
319.1585
 20
-338.186
 10
318.9811
 20
-338.2579
 10
318.6188
 20
-338.3888
 10
318.2521
 20
-338.5032
 10
317.8809
 20
-338.601
 10
317.5053
 20
-338.6822
 10
317.13
 20
-338.7498
 10
316.7612
 20
-338.8066
 10
316.3984
 20
-338.8528
 10
316.0414
 20
-338.8884
 10
315.8612
 20
-338.9026
 10
315.6742
 20
-338.9149
 10
315.4804
 20
-338.9254
 10
315.2798
 20
-338.934
 10
315.0725
 20
-338.9407
 10
314.8587
 20
-338.9455
 10
314.6383
 20
-338.9483
 10
314.4115
 20
-338.9493
 10
314.1743
 20
-338.9451
 10
313.9234
 20
-338.9326
 10
313.6587
 20
-338.9116
 10
313.3803
 20
-338.8824
 10
313.0879
 20
-338.8448
 10
312.7815
 20
-338.7989
 10
312.4612
 20
-338.7447
 10
312.1267
 20
-338.6822
 10
311.7555
 20
-338.6017
 10
311.3858
 20
-338.5062
 10
311.0176
 20
-338.3955
 10
310.6509
 20
-338.2697
 10
310.4702
 20
-338.2006
 10
310.294
 20
-338.1266
 10
310.1224
 20
-338.0478
 10
309.9553
 20
-337.964
 10
309.7929
 20
-337.8752
 10
309.635
 20
-337.7816
 10
309.4818
 20
-337.683
 10
309.3332
 20
-337.5794
 10
309.1905
 20
-337.4704
 10
309.055
 20
-337.3562
 10
308.9268
 20
-337.2368
 10
308.8058
 20
-337.1121
 10
308.6921
 20
-336.9821
 10
308.5857
 20
-336.8468
 10
308.4865
 20
-336.7062
 10
308.3947
 20
-336.5601
 10
308.3117
 20
-336.4083
 10
308.2397
 20
-336.2496
 10
308.1788
 20
-336.0841
 10
308.1289
 20
-335.9118
 10
308.0901
 20
-335.7326
 10
308.0623
 20
-335.5466
 10
308.0457
 20
-335.3536
 10
308.0401
 20
-335.1538
 10
308.0458
 20
-334.9543
 10
308.0631
 20
-334.7615
 10
308.0917
 20
-334.5754
 10
308.1319
 20
-334.3962
 10
308.1834
 20
-334.2237
 10
308.2464
 20
-334.0582
 10
308.3208
 20
-333.8994
 10
308.4066
 20
-333.7476
  0
LWPOLYLINE
  5
87
330
1F
100
AcDbEntity
  8
Layer 1
 62
     7
370
     9
100
AcDbPolyline
 90
       65
 70
     1
 43
0.0
 10
323.286
 20
-335.0694
 10
323.2409
 20
-334.3613
 10
323.1054
 20
-333.6984
 10
322.8796
 20
-333.0806
 10
322.5636
 20
-332.5078
 10
322.1571
 20
-331.9802
 10
321.6603
 20
-331.4977
 10
321.0732
 20
-331.0603
 10
320.3957
 20
-330.668
 10
319.8044
 20
-330.3922
 10
319.1805
 20
-330.1532
 10
318.5237
 20
-329.951
 10
317.8343
 20
-329.7856
 10
317.112
 20
-329.6569
 10
316.357
 20
-329.5651
 10
315.5691
 20
-329.51
 10
314.7483
 20
-329.4916
 10
313.9279
 20
-329.51
 10
313.1401
 20
-329.5651
 10
312.3852
 20
-329.6569
 10
311.6629
 20
-329.7856
 10
310.9735
 20
-329.951
 10
310.3168
 20
-330.1532
 10
309.693
 20
-330.3922
 10
309.102
 20
-330.668
 10
308.4244
 20
-331.0603
 10
307.8372
 20
-331.4977
 10
307.3403
 20
-331.9802
 10
306.9337
 20
-332.5078
 10
306.6174
 20
-333.0806
 10
306.3915
 20
-333.6984
 10
306.2559
 20
-334.3613
 10
306.2107
 20
-335.0694
 10
306.2559
 20
-335.7771
 10
306.3915
 20
-336.4398
 10
306.6174
 20
-337.0575
 10
306.9337
 20
-337.6302
 10
307.3403
 20
-338.1579
 10
307.8372
 20
-338.6405
 10
308.4244
 20
-339.0781
 10
309.102
 20
-339.4707
 10
309.693
 20
-339.7462
 10
310.3168
 20
-339.985
 10
310.9735
 20
-340.187
 10
311.6629
 20
-340.3523
 10
312.3852
 20
-340.4809
 10
313.1401
 20
-340.5727
 10
313.9279
 20
-340.6278
 10
314.7483
 20
-340.6462
 10
315.5691
 20
-340.6278
 10
316.357
 20
-340.5727
 10
317.112
 20
-340.4809
 10
317.8343
 20
-340.3523
 10
318.5237
 20
-340.187
 10
319.1805
 20
-339.985
 10
319.8044
 20
-339.7462
 10
320.3957
 20
-339.4707
 10
321.0732
 20
-339.0781
 10
321.6603
 20
-338.6405
 10
322.1571
 20
-338.1579
 10
322.5636
 20
-337.6302
 10
322.8796
 20
-337.0575
 10
323.1054
 20
-336.4398
 10
323.2409
 20
-335.7771
 10
323.286
 20
-335.0694
  0
LWPOLYLINE
  5
88
330
1F
100
AcDbEntity
  8
Layer 1
 62
     7
370
     9
100
AcDbPolyline
 90
      162
 70
     1
 43
0.0
 10
323.0183
 20
-312.9291
 10
323.0183
 20
-311.2312
 10
316.3101
 20
-311.2312
 10
315.8646
 20
-311.2451
 10
315.4401
 20
-311.2866
 10
315.0366
 20
-311.3558
 10
314.6541
 20
-311.4527
 10
314.2926
 20
-311.5771
 10
313.9521
 20
-311.7292
 10
313.6325
 20
-311.9088
 10
313.3338
 20
-312.116
 10
313.1911
 20
-312.2319
 10
313.0556
 20
-312.355
 10
312.9273
 20
-312.4853
 10
312.8063
 20
-312.6227
 10
312.6925
 20
-312.7673
 10
312.5859
 20
-312.9191
 10
312.4865
 20
-313.0781
 10
312.3944
 20
-313.2443
 10
312.3117
 20
-313.4209
 10
312.24
 20
-313.6111
 10
312.1792
 20
-313.8149
 10
312.1294
 20
-314.0323
 10
312.0907
 20
-314.2634
 10
312.063
 20
-314.5081
 10
312.0464
 20
-314.7664
 10
312.0408
 20
-315.0384
 10
312.0503
 20
-315.3128
 10
312.0789
 20
-315.5786
 10
312.1266
 20
-315.8357
 10
312.1934
 20
-316.0841
 10
312.2792
 20
-316.3238
 10
312.3841
 20
-316.5548
 10
312.5081
 20
-316.7771
 10
312.6512
 20
-316.9906
 10
312.7936
 20
-317.1758
 10
312.9467
 20
-317.3526
 10
313.1102
 20
-317.5212
 10
313.2842
 20
-317.6815
 10
313.4684
 20
-317.8335
 10
313.6628
 20
-317.9772
 10
313.8672
 20
-318.1127
 10
314.0816
 20
-318.2398
 10
313.8839
 20
-318.3381
 10
313.6929
 20
-318.4457
 10
313.5093
 20
-318.5626
 10
313.3338
 20
-318.6885
 10
313.1911
 20
-318.8041
 10
313.0556
 20
-318.927
 10
312.9273
 20
-319.0571
 10
312.8063
 20
-319.1944
 10
312.6925
 20
-319.339
 10
312.5859
 20
-319.4908
 10
312.4865
 20
-319.6497
 10
312.3944
 20
-319.8159
 10
312.3117
 20
-319.9925
 10
312.24
 20
-320.1827
 10
312.1792
 20
-320.3865
 10
312.1294
 20
-320.6039
 10
312.0907
 20
-320.835
 10
312.063
 20
-321.0797
 10
312.0464
 20
-321.338
 10
312.0408
 20
-321.61
 10
312.0503
 20
-321.8844
 10
312.0789
 20
-322.1502
 10
312.1266
 20
-322.4073
 10
312.1934
 20
-322.6557
 10
312.2792
 20
-322.8954
 10
312.3841
 20
-323.1264
 10
312.5081
 20
-323.3487
 10
312.6512
 20
-323.5622
 10
312.7869
 20
-323.7388
 10
312.9317
 20
-323.9078
 10
313.0858
 20
-324.0692
 10
313.2491
 20
-324.223
 10
313.4218
 20
-324.3692
 10
313.6039
 20
-324.5077
 10
313.7955
 20
-324.6388
 10
313.9966
 20
-324.7622
 10
312.2847
 20
-324.7622
 10
312.2847
 20
-326.4601
 10
323.0183
 20
-326.4601
 10
323.0183
 20
-324.7622
 10
317.5251
 20
-324.7622
 10
317.2054
 20
-324.723
 10
316.898
 20
-324.6717
 10
316.603
 20
-324.6081
 10
316.3202
 20
-324.5325
 10
316.0495
 20
-324.4446
 10
315.7909
 20
-324.3447
 10
315.5442
 20
-324.2325
 10
315.3094
 20
-324.1082
 10
315.1425
 20
-324.0069
 10
314.9832
 20
-323.8972
 10
314.8316
 20
-323.7793
 10
314.6876
 20
-323.6531
 10
314.5512
 20
-323.5185
 10
314.4224
 20
-323.3757
 10
314.3011
 20
-323.2247
 10
314.1873
 20
-323.0653
 10
314.0845
 20
-322.9
 10
313.9954
 20
-322.7316
 10
313.92
 20
-322.5604
 10
313.8584
 20
-322.3861
 10
313.8104
 20
-322.2089
 10
313.7761
 20
-322.0286
 10
313.7556
 20
-321.8454
 10
313.7487
 20
-321.6591
 10
313.7523
 20
-321.477
 10
313.7631
 20
-321.3072
 10
313.7812
 20
-321.1496
 10
313.8065
 20
-321.0041
 10
313.839
 20
-320.8708
 10
313.8787
 20
-320.7496
 10
313.9256
 20
-320.6405
 10
313.9798
 20
-320.5435
 10
314.1618
 20
-320.2991
 10
314.3749
 20
-320.0873
 10
314.6193
 20
-319.908
 10
314.8949
 20
-319.7614
 10
315.2018
 20
-319.6473
 10
315.54
 20
-319.5659
 10
315.9094
 20
-319.517
 10
316.3101
 20
-319.5007
 10
323.0183
 20
-319.5007
 10
323.0183
 20
-317.8028
 10
316.3101
 20
-317.8028
 10
315.8991
 20
-317.8155
 10
315.3094
 20
-317.5366
 10
315.1425
 20
-317.4353
 10
314.9832
 20
-317.3256
 10
314.8316
 20
-317.2077
 10
314.6876
 20
-317.0815
 10
314.5512
 20
-316.947
 10
314.4224
 20
-316.8042
 10
314.3011
 20
-316.6531
 10
314.1873
 20
-316.4937
 10
314.0845
 20
-316.3284
 10
313.9954
 20
-316.1601
 10
313.92
 20
-315.9888
 10
313.8584
 20
-315.8144
 10
313.8104
 20
-315.6371
 10
313.7761
 20
-315.4566
 10
313.7556
 20
-315.2731
 10
313.7487
 20
-315.0865
 10
313.7523
 20
-314.9047
 10
313.7631
 20
-314.735
 10
313.7812
 20
-314.5775
 10
313.8065
 20
-314.432
 10
313.839
 20
-314.2987
 10
313.8787
 20
-314.1776
 10
313.9256
 20
-314.0687
 10
313.9798
 20
-313.972
 10
314.1618
 20
-313.7276
 10
314.3749
 20
-313.5157
 10
314.6193
 20
-313.3365
 10
314.8949
 20
-313.1898
 10
315.2018
 20
-313.0757
 10
315.54
 20
-312.9943
 10
315.9094
 20
-312.9454
 10
316.3101
 20
-312.9291
 10
323.0183
 20
-312.9291
  0
LWPOLYLINE
  5
89
330
1F
100
AcDbEntity
  8
Layer 1
 62
     7
370
     9
100
AcDbPolyline
 90
      162
 70
     1
 43
0.0
 10
323.0183
 20
-294.4261
 10
323.0183
 20
-292.7282
 10
316.3101
 20
-292.7282
 10
315.8646
 20
-292.7421
 10
315.4401
 20
-292.7836
 10
315.0366
 20
-292.8528
 10
314.6541
 20
-292.9497
 10
314.2926
 20
-293.0741
 10
313.9521
 20
-293.2262
 10
313.6325
 20
-293.4058
 10
313.3338
 20
-293.613
 10
313.1911
 20
-293.7289
 10
313.0556
 20
-293.852
 10
312.9273
 20
-293.9823
 10
312.8063
 20
-294.1197
 10
312.6925
 20
-294.2643
 10
312.5859
 20
-294.4161
 10
312.4865
 20
-294.5751
 10
312.3944
 20
-294.7413
 10
312.3117
 20
-294.9179
 10
312.24
 20
-295.1081
 10
312.1792
 20
-295.3119
 10
312.1294
 20
-295.5294
 10
312.0907
 20
-295.7605
 10
312.063
 20
-296.0052
 10
312.0464
 20
-296.2635
 10
312.0408
 20
-296.5355
 10
312.0503
 20
-296.8099
 10
312.0789
 20
-297.0757
 10
312.1266
 20
-297.3328
 10
312.1934
 20
-297.5812
 10
312.2792
 20
-297.8209
 10
312.3841
 20
-298.0519
 10
312.5081
 20
-298.2742
 10
312.6512
 20
-298.4877
 10
312.7936
 20
-298.6728
 10
312.9467
 20
-298.8497
 10
313.1102
 20
-299.0182
 10
313.2842
 20
-299.1785
 10
313.4684
 20
-299.3305
 10
313.6628
 20
-299.4742
 10
313.8672
 20
-299.6097
 10
314.0816
 20
-299.7368
 10
313.8839
 20
-299.8351
 10
313.6929
 20
-299.9428
 10
313.5093
 20
-300.0597
 10
313.3338
 20
-300.1856
 10
313.1911
 20
-300.3012
 10
313.0556
 20
-300.424
 10
312.9273
 20
-300.5541
 10
312.8063
 20
-300.6914
 10
312.6925
 20
-300.836
 10
312.5859
 20
-300.9878
 10
312.4865
 20
-301.1467
 10
312.3944
 20
-301.3129
 10
312.3117
 20
-301.4895
 10
312.24
 20
-301.6797
 10
312.1792
 20
-301.8835
 10
312.1294
 20
-302.101
 10
312.0907
 20
-302.3321
 10
312.063
 20
-302.5768
 10
312.0464
 20
-302.8351
 10
312.0408
 20
-303.107
 10
312.0503
 20
-303.3814
 10
312.0789
 20
-303.6472
 10
312.1266
 20
-303.9043
 10
312.1934
 20
-304.1528
 10
312.2792
 20
-304.3925
 10
312.3841
 20
-304.6235
 10
312.5081
 20
-304.8458
 10
312.6512
 20
-305.0593
 10
312.7869
 20
-305.2359
 10
312.9317
 20
-305.4049
 10
313.0858
 20
-305.5663
 10
313.2491
 20
-305.7201
 10
313.4218
 20
-305.8662
 10
313.6039
 20
-306.0048
 10
313.7955
 20
-306.1358
 10
313.9966
 20
-306.2593
 10
312.2847
 20
-306.2593
 10
312.2847
 20
-307.9572
 10
323.0183
 20
-307.9572
 10
323.0183
 20
-306.2593
 10
317.5251
 20
-306.2593
 10
317.2054
 20
-306.2201
 10
316.898
 20
-306.1687
 10
316.603
 20
-306.1052
 10
316.3202
 20
-306.0295
 10
316.0495
 20
-305.9417
 10
315.7909
 20
-305.8417
 10
315.5442
 20
-305.7296
 10
315.3094
 20
-305.6053
 10
315.1425
 20
-305.5039
 10
314.9832
 20
-305.3943
 10
314.8316
 20
-305.2763
 10
314.6876
 20
-305.1501
 10
314.5512
 20
-305.0156
 10
314.4224
 20
-304.8728
 10
314.3011
 20
-304.7218
 10
314.1873
 20
-304.5624
 10
314.0845
 20
-304.3971
 10
313.9954
 20
-304.2287
 10
313.92
 20
-304.0575
 10
313.8584
 20
-303.8832
 10
313.8104
 20
-303.706
 10
313.7761
 20
-303.5257
 10
313.7556
 20
-303.3424
 10
313.7487
 20
-303.1561
 10
313.7523
 20
-302.974
 10
313.7631
 20
-302.8042
 10
313.7812
 20
-302.6466
 10
313.8065
 20
-302.5011
 10
313.839
 20
-302.3678
 10
313.8787
 20
-302.2466
 10
313.9256
 20
-302.1376
 10
313.9798
 20
-302.0406
 10
314.1618
 20
-301.7962
 10
314.3749
 20
-301.5843
 10
314.6193
 20
-301.4051
 10
314.8949
 20
-301.2584
 10
315.2018
 20
-301.1443
 10
315.54
 20
-301.0629
 10
315.9094
 20
-301.014
 10
316.3101
 20
-300.9977
 10
323.0183
 20
-300.9977
 10
323.0183
 20
-299.2998
 10
316.3101
 20
-299.2998
 10
315.8991
 20
-299.3126
 10
315.3094
 20
-299.0337
 10
315.1425
 20
-298.9323
 10
314.9832
 20
-298.8227
 10
314.8316
 20
-298.7047
 10
314.6876
 20
-298.5785
 10
314.5512
 20
-298.444
 10
314.4224
 20
-298.3012
 10
314.3011
 20
-298.1502
 10
314.1873
 20
-297.9908
 10
314.0845
 20
-297.8254
 10
313.9954
 20
-297.6571
 10
313.92
 20
-297.4858
 10
313.8584
 20
-297.3115
 10
313.8104
 20
-297.1341
 10
313.7761
 20
-296.9537
 10
313.7556
 20
-296.7702
 10
313.7487
 20
-296.5836
 10
313.7523
 20
-296.4018
 10
313.7631
 20
-296.2321
 10
313.7812
 20
-296.0746
 10
313.8065
 20
-295.9291
 10
313.839
 20
-295.7958
 10
313.8787
 20
-295.6747
 10
313.9256
 20
-295.5657
 10
313.9798
 20
-295.469
 10
314.1618
 20
-295.2246
 10
314.3749
 20
-295.0127
 10
314.6193
 20
-294.8335
 10
314.8949
 20
-294.6868
 10
315.2018
 20
-294.5727
 10
315.54
 20
-294.4913
 10
315.9094
 20
-294.4424
 10
316.3101
 20
-294.4261
 10
323.0183
 20
-294.4261
  0
LWPOLYLINE
  5
8A
330
1F
100
AcDbEntity
  8
Layer 1
 62
     7
370
    18
100
AcDbPolyline
 90
      243
 70
     1
 43
0.0
 10
155.1159
 20
-263.2103
 10
154.9961
 20
-263.2567
 10
154.6912
 20
-263.4121
 10
154.2832
 20
-263.7008
 10
153.8541
 20
-264.1471
 10
153.4858
 20
-264.7754
 10
153.2602
 20
-265.61
 10
153.2594
 20
-266.6752
 10
153.5653
 20
-267.9954
 10
153.5966
 20
-268.1132
 10
153.6963
 20
-268.4259
 10
153.8729
 20
-268.8727
 10
154.1351
 20
-269.3925
 10
154.4914
 20
-269.9245
 10
154.9505
 20
-270.4077
 10
155.5209
 20
-270.7811
 10
156.2113
 20
-270.9839
 10
159.4069
 20
-270.3401
 10
174.7908
 20
-267.4482
 10
178.1122
 20
-266.9281
 10
178.214
 20
-266.9118
 10
178.4704
 20
-266.8629
 10
178.6337
 20
-266.8262
 10
178.8083
 20
-266.7814
 10
178.9848
 20
-266.7284
 10
179.1542
 20
-266.6674
 10
179.3704
 20
-266.6048
 10
179.6851
 20
-266.556
 10
180.086
 20
-266.5344
 10
180.5607
 20
-266.5532
 10
181.0969
 20
-266.6257
 10
181.6823
 20
-266.7653
 10
182.3045
 20
-266.9852
 10
182.9511
 20
-267.2988
 10
183.0249
 20
-267.3469
 10
183.2266
 20
-267.4825
 10
183.5267
 20
-267.6923
 10
183.8957
 20
-267.9633
 10
184.304
 20
-268.2822
 10
184.722
 20
-268.6359
 10
185.1204
 20
-269.0113
 10
185.4694
 20
-269.3952
 10
187.3204
 20
-270.9221
 10
194.1704
 20
-276.6802
 10
194.1688
 20
-276.7128
 10
194.1699
 20
-276.8069
 10
194.1829
 20
-276.9568
 10
194.217
 20
-277.1566
 10
194.2811
 20
-277.4008
 10
194.3845
 20
-277.6835
 10
194.5362
 20
-277.999
 10
194.7453
 20
-278.3417
 10
197.4065
 20
-280.4232
 10
198.6283
 20
-281.4667
 10
198.6173
 20
-281.5186
 10
198.5885
 20
-281.6645
 10
198.5483
 20
-281.8898
 10
198.5031
 20
-282.1801
 10
198.4592
 20
-282.5208
 10
198.4231
 20
-282.8973
 10
198.4012
 20
-283.295
 10
198.3997
 20
-283.6995
 10
198.4284
 20
-284.0733
 10
198.4859
 20
-284.3902
 10
198.5622
 20
-284.6524
 10
198.6472
 20
-284.8621
 10
198.7308
 20
-285.0213
 10
198.8031
 20
-285.1324
 10
198.8538
 20
-285.1974
 10
198.8729
 20
-285.2186
 10
198.9167
 20
-285.2664
 10
199.0368
 20
-285.3957
 10
199.2166
 20
-285.5851
 10
199.4395
 20
-285.8133
 10
199.6886
 20
-286.059
 10
199.9474
 20
-286.3008
 10
200.1992
 20
-286.5173
 10
200.4272
 20
-286.6873
 10
200.2894
 20
-286.8771
 10
199.9153
 20
-287.4209
 10
199.3636
 20
-288.28
 10
198.693
 20
-289.4157
 10
197.9623
 20
-290.7894
 10
197.2301
 20
-292.3625
 10
196.5553
 20
-294.0964
 10
195.9966
 20
-295.9524
 10
195.6402
 20
-297.751
 10
195.5034
 20
-299.3413
 10
195.5411
 20
-300.7281
 10
195.7081
 20
-301.9158
 10
195.9593
 20
-302.909
 10
196.2497
 20
-303.7124
 10
196.5341
 20
-304.3304
 10
196.7674
 20
-304.7676
 10
197.5835
 20
-305.7124
 10
201.939
 20
-310.4915
 10
201.962
 20
-310.5271
 10
202.0359
 20
-310.6277
 10
202.1677
 20
-310.7839
 10
202.3646
 20
-310.9863
 10
202.6338
 20
-311.2255
 10
202.9824
 20
-311.4921
 10
203.4176
 20
-311.7768
 10
203.9464
 20
-312.0702
 10
204.5181
 20
-312.3335
 10
205.0664
 20
-312.5391
 10
205.5749
 20
-312.6938
 10
206.0275
 20
-312.8048
 10
206.4077
 20
-312.8789
 10
206.6995
 20
-312.9232
 10
206.8865
 20
-312.9446
 10
206.9524
 20
-312.9502
 10
205.8612
 20
-314.6545
 10
205.7834
 20
-314.7646
 10
205.6519
 20
-314.9491
 10
205.4961
 20
-315.1936
 10
205.3457
 20
-315.4833
 10
205.23
 20
-315.8037
 10
205.1788
 20
-316.1402
 10
205.2216
 20
-316.4782
 10
205.3878
 20
-316.803
 10
205.6212
 20
-317.0951
 10
205.8505
 20
-317.3433
 10
206.0823
 20
-317.5457
 10
206.3237
 20
-317.7003
 10
206.5815
 20
-317.8053
 10
206.8624
 20
-317.8585
 10
207.1734
 20
-317.8582
 10
207.5214
 20
-317.8023
 10
207.5788
 20
-317.7769
 10
207.7363
 20
-317.695
 10
207.9721
 20
-317.5476
 10
208.2646
 20
-317.3261
 10
208.5917
 20
-317.0217
 10
208.9318
 20
-316.6256
 10
209.263
 20
-316.1289
 10
209.5636
 20
-315.523
 10
209.8034
 20
-314.948
 10
209.9775
 20
-314.5222
 10
210.1021
 20
-314.2041
 10
210.1932
 20
-313.9523
 10
210.2671
 20
-313.7252
 10
210.3397
 20
-313.4813
 10
210.4271
 20
-313.1792
 10
210.5456
 20
-312.7773
 10
210.7683
 20
-312.7263
 10
211.3784
 20
-312.5769
 10
212.2889
 20
-312.3343
 10
213.4127
 20
-312.0037
 10
214.6628
 20
-311.5903
 10
215.9522
 20
-311.0994
 10
217.1939
 20
-310.5362
 10
218.3008
 20
-309.9058
 10
219.4205
 20
-309.1929
 10
220.7561
 20
-308.3365
 10
222.3035
 20
-307.2735
 10
224.0591
 20
-305.9408
 10
226.0188
 20
-304.2753
 10
228.179
 20
-302.214
 10
230.5357
 20
-299.6935
 10
233.085
 20
-296.651
 10
233.3289
 20
-296.3049
 10
233.9752
 20
-295.3417
 10
234.896
 20
-293.8738
 10
235.9633
 20
-292.0137
 10
237.0491
 20
-289.874
 10
238.0255
 20
-287.5671
 10
238.7643
 20
-285.2054
 10
239.1378
 20
-282.9016
 10
239.1669
 20
-282.6997
 10
239.2071
 20
-282.1427
 10
239.1878
 20
-281.3034
 10
239.0383
 20
-280.2549
 10
238.688
 20
-279.0699
 10
238.0662
 20
-277.8215
 10
237.1023
 20
-276.5826
 10
235.7257
 20
-275.426
 10
230.3416
 20
-270.8875
 10
230.2267
 20
-270.8154
 10
229.8832
 20
-270.6317
 10
229.313
 20
-270.385
 10
228.5178
 20
-270.1239
 10
227.4996
 20
-269.8971
 10
226.2602
 20
-269.7533
 10
224.8013
 20
-269.7411
 10
223.1249
 20
-269.9092
 10
222.8622
 20
-269.9555
 10
222.1268
 20
-270.1118
 10
220.998
 20
-270.404
 10
219.5549
 20
-270.8583
 10
217.8767
 20
-271.5005
 10
216.0426
 20
-272.3568
 10
214.1319
 20
-273.453
 10
212.2237
 20
-274.8154
 10
210.4676
 20
-273.3109
 10
210.4238
 20
-273.274
 10
210.2855
 20
-273.1826
 10
210.0425
 20
-273.0655
 10
209.6846
 20
-272.9518
 10
209.2016
 20
-272.8702
 10
208.5832
 20
-272.8498
 10
207.8193
 20
-272.9194
 10
206.8997
 20
-273.108
 10
206.7807
 20
-273.1349
 10
206.4826
 20
-273.2106
 10
206.294
 20
-273.2645
 10
206.0938
 20
-273.3279
 10
205.8931
 20
-273.3998
 10
205.7028
 20
-273.4794
 10
201.3513
 20
-269.8908
 10
201.3027
 20
-269.8843
 10
201.1706
 20
-269.8685
 10
200.9753
 20
-269.8489
 10
200.7373
 20
-269.8312
 10
200.4769
 20
-269.8208
 10
200.2148
 20
-269.8234
 10
199.9711
 20
-269.8445
 10
199.7665
 20
-269.8897
 10
188.36
 20
-261.2316
 10
188.2143
 20
-261.1169
 10
187.7673
 20
-260.8149
 10
187.004
 20
-260.3885
 10
185.9094
 20
-259.901
 10
184.4686
 20
-259.4152
 10
182.6665
 20
-258.9944
 10
180.4883
 20
-258.7016
 10
177.9189
 20
-258.5998
 10
177.7829
 20
-258.6102
 10
177.4019
 20
-258.6437
 10
176.816
 20
-258.7042
 10
176.0654
 20
-258.7954
 10
175.1905
 20
-258.9208
 10
174.2315
 20
-259.0843
 10
173.2287
 20
-259.2895
 10
172.2222
 20
-259.5402
 10
170.7255
 20
-259.9082
 10
168.4301
 20
-260.4227
 10
165.6438
 20
-261.0233
 10
162.6742
 20
-261.6499
 10
159.8289
 20
-262.2422
 10
157.4157
 20
-262.7399
 10
155.7421
 20
-263.0826
 10
155.1159
 20
-263.2103
  0
LWPOLYLINE
  5
8B
330
1F
100
AcDbEntity
  8
Layer 1
 62
     7
370
    18
100
AcDbPolyline
 90
        9
 70
     0
 43
0.0
 10
194.1666
 20
-276.5111
 10
194.172
 20
-276.3121
 10
194.2344
 20
-275.7699
 10
194.4228
 20
-274.967
 10
194.8064
 20
-273.9855
 10
195.4544
 20
-272.9079
 10
196.4359
 20
-271.8165
 10
197.82
 20
-270.7936
 10
199.6759
 20
-269.9216
  0
LWPOLYLINE
  5
8C
330
1F
100
AcDbEntity
  8
Layer 1
 62
     7
370
    18
100
AcDbPolyline
 90
        9
 70
     0
 43
0.0
 10
198.704
 20
-281.3993
 10
198.788
 20
-281.161
 10
199.0542
 20
-280.5118
 10
199.5236
 20
-279.5505
 10
200.2172
 20
-278.3758
 10
201.1561
 20
-277.0863
 10
202.3614
 20
-275.7808
 10
203.854
 20
-274.558
 10
205.6551
 20
-273.5166
  0
LWPOLYLINE
  5
8D
330
1F
100
AcDbEntity
  8
Layer 1
 62
     7
370
    18
100
AcDbPolyline
 90
       33
 70
     1
 43
0.0
 10
207.8453
 20
-294.1524
 10
208.0685
 20
-294.152
 10
208.2736
 20
-294.1738
 10
208.4564
 20
-294.216
 10
208.6127
 20
-294.2763
 10
208.7384
 20
-294.3529
 10
208.8292
 20
-294.4436
 10
208.8809
 20
-294.5465
 10
208.8894
 20
-294.6594
 10
208.8526
 20
-294.7748
 10
208.7744
 20
-294.8846
 10
208.6597
 20
-294.9863
 10
208.5132
 20
-295.0773
 10
208.3396
 20
-295.1553
 10
208.1437
 20
-295.2175
 10
207.9304
 20
-295.2617
 10
207.7043
 20
-295.2851
 10
207.4811
 20
-295.2855
 10
207.276
 20
-295.2636
 10
207.0931
 20
-295.2214
 10
206.9367
 20
-295.161
 10
206.8111
 20
-295.0844
 10
206.7203
 20
-294.9936
 10
206.6686
 20
-294.8907
 10
206.6602
 20
-294.7777
 10
206.697
 20
-294.6623
 10
206.7752
 20
-294.5526
 10
206.8899
 20
-294.4509
 10
207.0365
 20
-294.3599
 10
207.21
 20
-294.282
 10
207.4059
 20
-294.2197
 10
207.6192
 20
-294.1757
 10
207.8453
 20
-294.1524
  0
LWPOLYLINE
  5
8E
330
1F
100
AcDbEntity
  8
Layer 1
 62
     7
370
    18
100
AcDbPolyline
 90
       33
 70
     1
 43
0.0
 10
207.8164
 20
-294.6646
 10
207.8545
 20
-294.6649
 10
207.8904
 20
-294.671
 10
207.9233
 20
-294.6824
 10
207.9524
 20
-294.6986
 10
207.9769
 20
-294.719
 10
207.9961
 20
-294.7431
 10
208.009
 20
-294.7704
 10
208.015
 20
-294.8003
 10
208.0135
 20
-294.8307
 10
208.0046
 20
-294.8595
 10
207.9892
 20
-294.8862
 10
207.968
 20
-294.91
 10
207.9415
 20
-294.9303
 10
207.9106
 20
-294.9464
 10
207.876
 20
-294.9578
 10
207.8384
 20
-294.9636
 10
207.8003
 20
-294.9633
 10
207.7644
 20
-294.9572
 10
207.7315
 20
-294.9457
 10
207.7024
 20
-294.9295
 10
207.6778
 20
-294.909
 10
207.6587
 20
-294.8849
 10
207.6457
 20
-294.8576
 10
207.6397
 20
-294.8278
 10
207.6412
 20
-294.7974
 10
207.6501
 20
-294.7686
 10
207.6655
 20
-294.7419
 10
207.6868
 20
-294.718
 10
207.7133
 20
-294.6977
 10
207.7442
 20
-294.6816
 10
207.7788
 20
-294.6703
 10
207.8164
 20
-294.6646
  0
LWPOLYLINE
  5
8F
330
1F
100
AcDbEntity
  8
Layer 1
 62
     7
370
    18
100
AcDbPolyline
 90
       33
 70
     1
 43
0.0
 10
205.7772
 20
-298.264
 10
206.0047
 20
-298.2286
 10
206.2138
 20
-298.218
 10
206.4003
 20
-298.2307
 10
206.5598
 20
-298.2654
 10
206.6881
 20
-298.3208
 10
206.7809
 20
-298.3955
 10
206.834
 20
-298.4883
 10
206.8429
 20
-298.5977
 10
206.8056
 20
-298.7166
 10
206.7261
 20
-298.8365
 10
206.6093
 20
-298.9542
 10
206.4602
 20
-299.0664
 10
206.2834
 20
-299.1701
 10
206.0839
 20
-299.2619
 10
205.8665
 20
-299.3386
 10
205.6361
 20
-299.3971
 10
205.4085
 20
-299.4326
 10
205.1994
 20
-299.4433
 10
205.0128
 20
-299.4306
 10
204.8533
 20
-299.396
 10
204.725
 20
-299.3406
 10
204.6322
 20
-299.2659
 10
204.5792
 20
-299.1731
 10
204.5704
 20
-299.0637
 10
204.6077
 20
-298.9448
 10
204.6871
 20
-298.8248
 10
204.8038
 20
-298.7071
 10
204.953
 20
-298.5948
 10
205.1298
 20
-298.4911
 10
205.3294
 20
-298.3992
 10
205.5468
 20
-298.3225
 10
205.7772
 20
-298.264
  0
LWPOLYLINE
  5
90
330
1F
100
AcDbEntity
  8
Layer 1
 62
     7
370
    18
100
AcDbPolyline
 90
       33
 70
     1
 43
0.0
 10
205.7489
 20
-298.771
 10
205.7876
 20
-298.7652
 10
205.8242
 20
-298.7655
 10
205.8578
 20
-298.7716
 10
205.8875
 20
-298.7829
 10
205.9126
 20
-298.7991
 10
205.9323
 20
-298.8197
 10
205.9456
 20
-298.8444
 10
205.9518
 20
-298.8726
 10
205.9503
 20
-298.9027
 10
205.9414
 20
-298.9324
 10
205.9257
 20
-298.961
 10
205.904
 20
-298.9877
 10
205.8771
 20
-299.0118
 10
205.8456
 20
-299.0324
 10
205.8103
 20
-299.0489
 10
205.7719
 20
-299.0605
 10
205.7332
 20
-299.0663
 10
205.6966
 20
-299.066
 10
205.6631
 20
-299.06
 10
205.6333
 20
-299.0486
 10
205.6082
 20
-299.0324
 10
205.5886
 20
-299.0118
 10
205.5753
 20
-298.9871
 10
205.5691
 20
-298.9589
 10
205.5706
 20
-298.9288
 10
205.5795
 20
-298.8991
 10
205.5951
 20
-298.8705
 10
205.6168
 20
-298.8438
 10
205.6437
 20
-298.8198
 10
205.6752
 20
-298.7991
 10
205.7105
 20
-298.7826
 10
205.7489
 20
-298.771
  0
LWPOLYLINE
  5
91
330
1F
100
AcDbEntity
  8
Layer 1
 62
     7
370
    18
100
AcDbPolyline
 90
       33
 70
     1
 43
0.0
 10
204.8435
 20
-302.0579
 10
205.0759
 20
-301.9833
 10
205.2896
 20
-301.9361
 10
205.4802
 20
-301.9157
 10
205.6433
 20
-301.9217
 10
205.7746
 20
-301.9533
 10
205.8696
 20
-302.0102
 10
205.924
 20
-302.0916
 10
205.9333
 20
-302.1971
 10
205.8956
 20
-302.3199
 10
205.8147
 20
-302.4512
 10
205.6957
 20
-302.5868
 10
205.5436
 20
-302.7228
 10
205.3632
 20
-302.8552
 10
205.1596
 20
-302.98
 10
204.9377
 20
-303.0931
 10
204.7024
 20
-303.1906
 10
204.47
 20
-303.2652
 10
204.2563
 20
-303.3124
 10
204.0657
 20
-303.3327
 10
203.9026
 20
-303.3268
 10
203.7713
 20
-303.2951
 10
203.6763
 20
-303.2383
 10
203.6219
 20
-303.1569
 10
203.6126
 20
-303.0514
 10
203.6504
 20
-302.9286
 10
203.7312
 20
-302.7974
 10
203.8502
 20
-302.6618
 10
204.0023
 20
-302.5258
 10
204.1827
 20
-302.3934
 10
204.3863
 20
-302.2687
 10
204.6083
 20
-302.1555
 10
204.8435
 20
-302.0579
  0
LWPOLYLINE
  5
92
330
1F
100
AcDbEntity
  8
Layer 1
 62
     7
370
    18
100
AcDbPolyline
 90
       33
 70
     1
 43
0.0
 10
204.8159
 20
-302.5586
 10
204.8555
 20
-302.5462
 10
204.8929
 20
-302.5402
 10
204.9273
 20
-302.5402
 10
204.9578
 20
-302.546
 10
204.9835
 20
-302.5575
 10
205.0036
 20
-302.5742
 10
205.0173
 20
-302.596
 10
205.0237
 20
-302.6227
 10
205.0221
 20
-302.6523
 10
205.013
 20
-302.6829
 10
204.997
 20
-302.7135
 10
204.9749
 20
-302.7434
 10
204.9475
 20
-302.7716
 10
204.9154
 20
-302.7973
 10
204.8794
 20
-302.8196
 10
204.8403
 20
-302.8377
 10
204.8007
 20
-302.8501
 10
204.7633
 20
-302.8562
 10
204.729
 20
-302.8562
 10
204.6986
 20
-302.8504
 10
204.6729
 20
-302.8389
 10
204.6528
 20
-302.8222
 10
204.6391
 20
-302.8004
 10
204.6326
 20
-302.7737
 10
204.6342
 20
-302.7441
 10
204.6433
 20
-302.7135
 10
204.6592
 20
-302.6829
 10
204.6813
 20
-302.653
 10
204.7087
 20
-302.6248
 10
204.7408
 20
-302.599
 10
204.7768
 20
-302.5767
 10
204.8159
 20
-302.5586
  0
LWPOLYLINE
  5
93
330
1F
100
AcDbEntity
  8
Layer 1
 62
     7
370
    18
100
AcDbPolyline
 90
       33
 70
     1
 43
0.0
 10
205.1881
 20
-305.1509
 10
205.4273
 20
-305.022
 10
205.6473
 20
-304.9241
 10
205.8436
 20
-304.858
 10
206.0117
 20
-304.824
 10
206.147
 20
-304.8227
 10
206.2451
 20
-304.8547
 10
206.3014
 20
-304.9204
 10
206.3114
 20
-305.0204
 10
206.273
 20
-305.1487
 10
206.1902
 20
-305.2957
 10
206.0682
 20
-305.4562
 10
205.9119
 20
-305.6252
 10
205.7266
 20
-305.7975
 10
205.5173
 20
-305.9682
 10
205.2891
 20
-306.132
 10
205.0471
 20
-306.284
 10
204.8079
 20
-306.4129
 10
204.5879
 20
-306.5108
 10
204.3916
 20
-306.5769
 10
204.2236
 20
-306.6109
 10
204.0882
 20
-306.6122
 10
203.9901
 20
-306.5802
 10
203.9338
 20
-306.5145
 10
203.9238
 20
-306.4145
 10
203.9622
 20
-306.2862
 10
204.0449
 20
-306.1392
 10
204.1669
 20
-305.9787
 10
204.3231
 20
-305.8097
 10
204.5084
 20
-305.6374
 10
204.7177
 20
-305.4667
 10
204.946
 20
-305.3029
 10
205.1881
 20
-305.1509
  0
LWPOLYLINE
  5
94
330
1F
100
AcDbEntity
  8
Layer 1
 62
     7
370
    18
100
AcDbPolyline
 90
       29
 70
     1
 43
0.0
 10
205.1616
 20
-305.6433
 10
205.2024
 20
-305.6216
 10
205.2409
 20
-305.6066
 10
205.2763
 20
-305.5982
 10
205.3077
 20
-305.5965
 10
205.3342
 20
-305.6013
 10
205.355
 20
-305.6126
 10
205.3692
 20
-305.6305
 10
205.376
 20
-305.6548
 10
205.3746
 20
-305.6839
 10
205.3653
 20
-305.7158
 10
205.3489
 20
-305.7495
 10
205.3263
 20
-305.7838
 10
205.2651
 20
-305.8506
 10
205.1878
 20
-305.9081
 10
205.147
 20
-305.9298
 10
205.1085
 20
-305.9448
 10
205.0732
 20
-305.9531
 10
205.0419
 20
-305.9548
 10
205.0154
 20
-305.95
 10
204.9947
 20
-305.9386
 10
204.9805
 20
-305.9208
 10
204.9737
 20
-305.8966
 10
204.9751
 20
-305.8675
 10
204.9844
 20
-305.8356
 10
205.0007
 20
-305.802
 10
205.0233
 20
-305.7676
 10
205.0843
 20
-305.7008
 10
205.1616
 20
-305.6433
  0
LWPOLYLINE
  5
95
330
1F
100
AcDbEntity
  8
Layer 1
 62
     7
370
    18
100
AcDbPolyline
 90
       33
 70
     1
 43
0.0
 10
206.2067
 20
-307.67
 10
206.4362
 20
-307.5201
 10
206.6474
 20
-307.4016
 10
206.8358
 20
-307.3154
 10
206.9972
 20
-307.2627
 10
207.1272
 20
-307.2445
 10
207.2215
 20
-307.2618
 10
207.2757
 20
-307.3157
 10
207.2856
 20
-307.4073
 10
207.249
 20
-307.5314
 10
207.1698
 20
-307.6784
 10
207.0529
 20
-307.8429
 10
206.9031
 20
-308.0196
 10
206.7255
 20
-308.203
 10
206.5247
 20
-308.3879
 10
206.3058
 20
-308.5688
 10
206.0736
 20
-308.7405
 10
205.8441
 20
-308.8904
 10
205.6329
 20
-309.0089
 10
205.4445
 20
-309.095
 10
205.2831
 20
-309.1477
 10
205.1531
 20
-309.1659
 10
205.0588
 20
-309.1485
 10
205.0046
 20
-309.0945
 10
204.9947
 20
-309.0029
 10
205.0315
 20
-308.8789
 10
205.1108
 20
-308.7319
 10
205.2277
 20
-308.5675
 10
205.3774
 20
-308.3909
 10
205.5551
 20
-308.2074
 10
205.7557
 20
-308.0226
 10
205.9746
 20
-307.8417
 10
206.2067
 20
-307.67
  0
LWPOLYLINE
  5
96
330
1F
100
AcDbEntity
  8
Layer 1
 62
     7
370
    18
100
AcDbPolyline
 90
       25
 70
     1
 43
0.0
 10
206.1822
 20
-308.1305
 10
206.2583
 20
-308.0865
 10
206.3224
 20
-308.0688
 10
206.3479
 20
-308.07
 10
206.3679
 20
-308.0779
 10
206.3816
 20
-308.0927
 10
206.3882
 20
-308.1144
 10
206.3868
 20
-308.1416
 10
206.378
 20
-308.1724
 10
206.3624
 20
-308.2057
 10
206.3407
 20
-308.2405
 10
206.2822
 20
-308.3103
 10
206.2081
 20
-308.3734
 10
206.132
 20
-308.4175
 10
206.0679
 20
-308.4353
 10
206.0425
 20
-308.4342
 10
206.0225
 20
-308.4262
 10
206.0089
 20
-308.4114
 10
206.0024
 20
-308.3897
 10
206.0037
 20
-308.3624
 10
206.0124
 20
-308.3316
 10
206.028
 20
-308.2982
 10
206.0496
 20
-308.2635
 10
206.1082
 20
-308.1937
 10
206.1822
 20
-308.1305
  0
LWPOLYLINE
  5
97
330
1F
100
AcDbEntity
  8
Layer 1
 62
     7
370
    18
100
AcDbPolyline
 90
       33
 70
     1
 43
0.0
 10
208.2445
 20
-309.0307
 10
208.4348
 20
-308.8338
 10
208.6142
 20
-308.6714
 10
208.7787
 20
-308.5457
 10
208.9244
 20
-308.4587
 10
209.0471
 20
-308.4122
 10
209.1429
 20
-308.4083
 10
209.2078
 20
-308.449
 10
209.2379
 20
-308.5362
 10
209.2298
 20
-308.6652
 10
209.1852
 20
-308.826
 10
209.1078
 20
-309.0122
 10
209.0011
 20
-309.2175
 10
208.8687
 20
-309.4356
 10
208.7141
 20
-309.6602
 10
208.5409
 20
-309.8849
 10
208.3527
 20
-310.1036
 10
208.1623
 20
-310.3006
 10
207.9827
 20
-310.4629
 10
207.8182
 20
-310.5886
 10
207.6725
 20
-310.6757
 10
207.5498
 20
-310.7221
 10
207.4539
 20
-310.726
 10
207.389
 20
-310.6853
 10
207.3589
 20
-310.5981
 10
207.3672
 20
-310.469
 10
207.4118
 20
-310.3082
 10
207.4893
 20
-310.122
 10
207.596
 20
-309.9167
 10
207.7285
 20
-309.6987
 10
207.8831
 20
-309.4741
 10
208.0563
 20
-309.2494
 10
208.2445
 20
-309.0307
  0
LWPOLYLINE
  5
98
330
1F
100
AcDbEntity
  8
Layer 1
 62
     7
370
    18
100
AcDbPolyline
 90
       25
 70
     1
 43
0.0
 10
208.323
 20
-309.4852
 10
208.3874
 20
-309.4254
 10
208.446
 20
-309.3939
 10
208.4711
 20
-309.3894
 10
208.4923
 20
-309.3928
 10
208.5089
 20
-309.4042
 10
208.52
 20
-309.424
 10
208.5248
 20
-309.4508
 10
208.5231
 20
-309.4828
 10
208.5153
 20
-309.5186
 10
208.502
 20
-309.5573
 10
208.4604
 20
-309.6383
 10
208.4023
 20
-309.7163
 10
208.3379
 20
-309.7761
 10
208.2793
 20
-309.8076
 10
208.2542
 20
-309.8121
 10
208.2329
 20
-309.8087
 10
208.2162
 20
-309.7973
 10
208.205
 20
-309.7775
 10
208.2003
 20
-309.7507
 10
208.2021
 20
-309.7187
 10
208.2099
 20
-309.6828
 10
208.2233
 20
-309.6441
 10
208.2649
 20
-309.5632
 10
208.323
 20
-309.4852
  0
LWPOLYLINE
  5
99
330
1F
100
AcDbEntity
  8
Layer 1
 62
     7
370
    18
100
AcDbPolyline
 90
       33
 70
     1
 43
0.0
 10
214.3543
 20
-308.6396
 10
214.461
 20
-308.4611
 10
214.5705
 20
-308.3143
 10
214.6797
 20
-308.2009
 10
214.7855
 20
-308.1226
 10
214.8848
 20
-308.0813
 10
214.9746
 20
-308.0788
 10
215.0518
 20
-308.1167
 10
215.1134
 20
-308.1969
 10
215.1546
 20
-308.3151
 10
215.1732
 20
-308.4619
 10
215.1701
 20
-308.6317
 10
215.1464
 20
-308.8187
 10
215.103
 20
-309.0171
 10
215.0409
 20
-309.2213
 10
214.9612
 20
-309.4254
 10
214.8648
 20
-309.6237
 10
214.758
 20
-309.802
 10
214.6484
 20
-309.9488
 10
214.5393
 20
-310.0622
 10
214.4335
 20
-310.1405
 10
214.3342
 20
-310.1819
 10
214.2444
 20
-310.1845
 10
214.1671
 20
-310.1466
 10
214.1054
 20
-310.0664
 10
214.0642
 20
-309.9482
 10
214.0456
 20
-309.8014
 10
214.0487
 20
-309.6316
 10
214.0725
 20
-309.4446
 10
214.1159
 20
-309.2462
 10
214.178
 20
-309.042
 10
214.2578
 20
-308.8379
 10
214.3543
 20
-308.6396
  0
LWPOLYLINE
  5
9A
330
1F
100
AcDbEntity
  8
Layer 1
 62
     7
370
    18
100
AcDbPolyline
 90
       29
 70
     1
 43
0.0
 10
214.6015
 20
-309.0568
 10
214.62
 20
-309.0266
 10
214.6404
 20
-309.0027
 10
214.662
 20
-308.9852
 10
214.6843
 20
-308.9745
 10
214.7065
 20
-308.9706
 10
214.728
 20
-308.9739
 10
214.7482
 20
-308.9844
 10
214.7663
 20
-309.0025
 10
214.7811
 20
-309.0272
 10
214.7915
 20
-309.0565
 10
214.7978
 20
-309.0894
 10
214.7997
 20
-309.1247
 10
214.7908
 20
-309.1984
 10
214.7649
 20
-309.2691
 10
214.7466
 20
-309.2993
 10
214.7263
 20
-309.3233
 10
214.7047
 20
-309.3408
 10
214.6824
 20
-309.3516
 10
214.6602
 20
-309.3554
 10
214.6387
 20
-309.3522
 10
214.6186
 20
-309.3416
 10
214.6005
 20
-309.3234
 10
214.5856
 20
-309.2988
 10
214.5751
 20
-309.2695
 10
214.5688
 20
-309.2366
 10
214.5668
 20
-309.2013
 10
214.5757
 20
-309.1275
 10
214.6015
 20
-309.0568
  0
LWPOLYLINE
  5
9B
330
1F
100
AcDbEntity
  8
Layer 1
 62
     7
370
    18
100
AcDbPolyline
 90
       33
 70
     1
 43
0.0
 10
217.992
 20
-307.1146
 10
218.0752
 20
-306.9511
 10
218.1649
 20
-306.8167
 10
218.2585
 20
-306.7132
 10
218.353
 20
-306.6421
 10
218.4458
 20
-306.605
 10
218.534
 20
-306.6035
 10
218.6148
 20
-306.6392
 10
218.6855
 20
-306.7137
 10
218.7405
 20
-306.8231
 10
218.7768
 20
-306.9586
 10
218.7945
 20
-307.1151
 10
218.7941
 20
-307.2873
 10
218.7756
 20
-307.4699
 10
218.7396
 20
-307.6575
 10
218.6861
 20
-307.845
 10
218.6156
 20
-308.0271
 10
218.5324
 20
-308.1905
 10
218.4427
 20
-308.3248
 10
218.3491
 20
-308.4283
 10
218.2545
 20
-308.4993
 10
218.1617
 20
-308.5364
 10
218.0735
 20
-308.5379
 10
217.9928
 20
-308.5022
 10
217.9222
 20
-308.4276
 10
217.8671
 20
-308.3183
 10
217.8308
 20
-308.1827
 10
217.813
 20
-308.0263
 10
217.8134
 20
-307.8541
 10
217.8318
 20
-307.6716
 10
217.8679
 20
-307.484
 10
217.9214
 20
-307.2966
 10
217.992
 20
-307.1146
  0
LWPOLYLINE
  5
9C
330
1F
100
AcDbEntity
  8
Layer 1
 62
     7
370
    18
100
AcDbPolyline
 90
       25
 70
     1
 43
0.0
 10
218.2871
 20
-307.5016
 10
218.3015
 20
-307.474
 10
218.3185
 20
-307.4521
 10
218.3377
 20
-307.4362
 10
218.3582
 20
-307.4265
 10
218.3796
 20
-307.4231
 10
218.4012
 20
-307.4263
 10
218.4224
 20
-307.4363
 10
218.4425
 20
-307.4532
 10
218.4739
 20
-307.5033
 10
218.4903
 20
-307.5662
 10
218.4906
 20
-307.6342
 10
218.4739
 20
-307.6993
 10
218.4595
 20
-307.7269
 10
218.4424
 20
-307.7487
 10
218.4232
 20
-307.7645
 10
218.4026
 20
-307.7742
 10
218.3812
 20
-307.7776
 10
218.3596
 20
-307.7744
 10
218.3385
 20
-307.7645
 10
218.3185
 20
-307.7477
 10
218.287
 20
-307.6976
 10
218.2706
 20
-307.6346
 10
218.2703
 20
-307.5666
 10
218.2871
 20
-307.5016
  0
LWPOLYLINE
  5
9D
330
1F
100
AcDbEntity
  8
Layer 1
 62
     7
370
    18
100
AcDbPolyline
 90
       33
 70
     1
 43
0.0
 10
221.7701
 20
-304.9163
 10
221.7782
 20
-304.7753
 10
221.8047
 20
-304.6537
 10
221.8477
 20
-304.5534
 10
221.9052
 20
-304.4764
 10
221.9754
 20
-304.4245
 10
222.0563
 20
-304.3997
 10
222.1461
 20
-304.4038
 10
222.2429
 20
-304.4389
 10
222.3399
 20
-304.5034
 10
222.4307
 20
-304.592
 10
222.5131
 20
-304.7007
 10
222.5853
 20
-304.8257
 10
222.6452
 20
-304.9631
 10
222.6909
 20
-305.1089
 10
222.7204
 20
-305.2592
 10
222.7317
 20
-305.4101
 10
222.7236
 20
-305.5511
 10
222.6971
 20
-305.6727
 10
222.6542
 20
-305.773
 10
222.5967
 20
-305.8501
 10
222.5265
 20
-305.9021
 10
222.4456
 20
-305.9269
 10
222.3557
 20
-305.9229
 10
222.2589
 20
-305.8879
 10
222.1619
 20
-305.8234
 10
222.0712
 20
-305.7348
 10
221.9888
 20
-305.6261
 10
221.9167
 20
-305.501
 10
221.8568
 20
-305.3636
 10
221.8111
 20
-305.2178
 10
221.7815
 20
-305.0674
 10
221.7701
 20
-304.9163
  0
LWPOLYLINE
  5
9E
330
1F
100
AcDbEntity
  8
Layer 1
 62
     7
370
    18
100
AcDbPolyline
 90
       21
 70
     1
 43
0.0
 10
222.2436
 20
-305.1004
 10
222.2504
 20
-305.0779
 10
222.26
 20
-305.061
 10
222.272
 20
-305.0497
 10
222.2859
 20
-305.0442
 10
222.3179
 20
-305.0507
 10
222.3522
 20
-305.0809
 10
222.3827
 20
-305.1305
 10
222.4039
 20
-305.1893
 10
222.4137
 20
-305.25
 10
222.4105
 20
-305.3054
 10
222.4037
 20
-305.3279
 10
222.3941
 20
-305.3449
 10
222.382
 20
-305.3562
 10
222.3681
 20
-305.3617
 10
222.3362
 20
-305.3553
 10
222.3019
 20
-305.3249
 10
222.2714
 20
-305.2754
 10
222.2502
 20
-305.2166
 10
222.2403
 20
-305.1559
 10
222.2436
 20
-305.1004
  0
LWPOLYLINE
  5
9F
330
1F
100
AcDbEntity
  8
Layer 1
 62
     7
370
    18
100
AcDbPolyline
 90
       33
 70
     1
 43
0.0
 10
225.4968
 20
-302.244
 10
225.4051
 20
-302.1276
 10
225.3371
 20
-302.0164
 10
225.293
 20
-301.913
 10
225.273
 20
-301.8198
 10
225.2773
 20
-301.7395
 10
225.3062
 20
-301.6748
 10
225.3598
 20
-301.6281
 10
225.4385
 20
-301.602
 10
225.5376
 20
-301.5991
 10
225.6495
 20
-301.6188
 10
225.7704
 20
-301.659
 10
225.8967
 20
-301.7179
 10
226.0244
 20
-301.7934
 10
226.1499
 20
-301.8835
 10
226.2693
 20
-301.9863
 10
226.3789
 20
-302.0996
 10
226.4705
 20
-302.216
 10
226.5384
 20
-302.3272
 10
226.5825
 20
-302.4307
 10
226.6026
 20
-302.5239
 10
226.5982
 20
-302.6041
 10
226.5693
 20
-302.6689
 10
226.5156
 20
-302.7156
 10
226.4368
 20
-302.7417
 10
226.3378
 20
-302.7446
 10
226.226
 20
-302.7249
 10
226.1051
 20
-302.6846
 10
225.9788
 20
-302.6257
 10
225.8511
 20
-302.5502
 10
225.7257
 20
-302.4601
 10
225.6063
 20
-302.3573
 10
225.4968
 20
-302.244
  0
LWPOLYLINE
  5
A0
330
1F
100
AcDbEntity
  8
Layer 1
 62
     7
370
    18
100
AcDbPolyline
 90
       21
 70
     1
 43
0.0
 10
225.8813
 20
-302.1605
 10
225.8557
 20
-302.1208
 10
225.8504
 20
-302.0831
 10
225.8553
 20
-302.0664
 10
225.8649
 20
-302.0517
 10
225.8795
 20
-302.0396
 10
225.8987
 20
-302.0307
 10
225.9462
 20
-302.0249
 10
225.9979
 20
-302.0344
 10
226.0478
 20
-302.0573
 10
226.0897
 20
-302.0916
 10
226.1154
 20
-302.1314
 10
226.1207
 20
-302.1691
 10
226.1159
 20
-302.1858
 10
226.1062
 20
-302.2005
 10
226.0918
 20
-302.2125
 10
226.0726
 20
-302.2214
 10
226.0252
 20
-302.2274
 10
225.9734
 20
-302.2179
 10
225.9234
 20
-302.1949
 10
225.8813
 20
-302.1605
  0
LWPOLYLINE
  5
A1
330
1F
100
AcDbEntity
  8
Layer 1
 62
     7
370
    18
100
AcDbPolyline
 90
       33
 70
     1
 43
0.0
 10
229.607
 20
-298.4112
 10
229.7426
 20
-298.4946
 10
229.8588
 20
-298.5848
 10
229.9538
 20
-298.679
 10
230.0259
 20
-298.7743
 10
230.0732
 20
-298.8679
 10
230.094
 20
-298.9571
 10
230.0865
 20
-299.0389
 10
230.049
 20
-299.1107
 10
229.9831
 20
-299.1668
 10
229.8942
 20
-299.2041
 10
229.7862
 20
-299.2227
 10
229.6629
 20
-299.223
 10
229.5281
 20
-299.2052
 10
229.3858
 20
-299.1695
 10
229.2397
 20
-299.1162
 10
229.0937
 20
-299.0456
 10
228.9581
 20
-298.9622
 10
228.8419
 20
-298.872
 10
228.7469
 20
-298.7778
 10
228.6748
 20
-298.6825
 10
228.6275
 20
-298.5889
 10
228.6066
 20
-298.4997
 10
228.6141
 20
-298.4179
 10
228.6516
 20
-298.3461
 10
228.7175
 20
-298.2899
 10
228.8064
 20
-298.2526
 10
228.9145
 20
-298.2339
 10
229.0378
 20
-298.2336
 10
229.1725
 20
-298.2515
 10
229.3149
 20
-298.2872
 10
229.461
 20
-298.3405
 10
229.607
 20
-298.4112
  0
LWPOLYLINE
  5
A2
330
1F
100
AcDbEntity
  8
Layer 1
 62
     7
370
    18
100
AcDbPolyline
 90
       17
 70
     1
 43
0.0
 10
229.3961
 20
-298.7112
 10
229.4385
 20
-298.7427
 10
229.4656
 20
-298.7828
 10
229.4753
 20
-298.8262
 10
229.4652
 20
-298.8681
 10
229.4366
 20
-298.9
 10
229.3953
 20
-298.9168
 10
229.3468
 20
-298.9174
 10
229.2966
 20
-298.9008
 10
229.254
 20
-298.8691
 10
229.2268
 20
-298.829
 10
229.217
 20
-298.7856
 10
229.2271
 20
-298.7439
 10
229.2559
 20
-298.7117
 10
229.2972
 20
-298.6949
 10
229.3457
 20
-298.6944
 10
229.3961
 20
-298.7112
  0
LWPOLYLINE
  5
A3
330
1F
100
AcDbEntity
  8
Layer 1
 62
     7
370
    18
100
AcDbPolyline
 90
       33
 70
     1
 43
0.0
 10
232.3026
 20
-294.4583
 10
232.4587
 20
-294.49
 10
232.599
 20
-294.5348
 10
232.7207
 20
-294.5905
 10
232.8213
 20
-294.6553
 10
232.8981
 20
-294.7269
 10
232.9485
 20
-294.8034
 10
232.9698
 20
-294.8827
 10
232.9594
 20
-294.9629
 10
232.9169
 20
-295.0383
 10
232.8463
 20
-295.1039
 10
232.7513
 20
-295.1585
 10
232.6356
 20
-295.2012
 10
232.503
 20
-295.2307
 10
232.357
 20
-295.2461
 10
232.2014
 20
-295.2463
 10
232.04
 20
-295.2301
 10
231.8838
 20
-295.1984
 10
231.7435
 20
-295.1536
 10
231.6217
 20
-295.0979
 10
231.5211
 20
-295.0332
 10
231.4443
 20
-294.9615
 10
231.394
 20
-294.885
 10
231.3727
 20
-294.8057
 10
231.3832
 20
-294.7255
 10
231.4256
 20
-294.6501
 10
231.4961
 20
-294.5845
 10
231.5911
 20
-294.5299
 10
231.7067
 20
-294.4872
 10
231.8394
 20
-294.4577
 10
231.9854
 20
-294.4423
 10
232.1411
 20
-294.4421
 10
232.3026
 20
-294.4583
  0
LWPOLYLINE
  5
A4
330
1F
100
AcDbEntity
  8
Layer 1
 62
     7
370
    18
100
AcDbPolyline
 90
       17
 70
     1
 43
0.0
 10
232.208
 20
-294.8122
 10
232.2588
 20
-294.8274
 10
232.2982
 20
-294.8557
 10
232.3224
 20
-294.8931
 10
232.3274
 20
-294.9357
 10
232.3115
 20
-294.9756
 10
232.2787
 20
-295.0057
 10
232.2334
 20
-295.0229
 10
232.1804
 20
-295.0245
 10
232.1296
 20
-295.0095
 10
232.0902
 20
-294.9812
 10
232.066
 20
-294.9437
 10
232.061
 20
-294.9009
 10
232.0769
 20
-294.8611
 10
232.1099
 20
-294.8311
 10
232.1552
 20
-294.8139
 10
232.208
 20
-294.8122
  0
LWPOLYLINE
  5
A5
330
1F
100
AcDbEntity
  8
Layer 1
 62
     7
370
    18
100
AcDbPolyline
 90
       33
 70
     1
 43
0.0
 10
234.1323
 20
-290.5474
 10
234.2892
 20
-290.5195
 10
234.4362
 20
-290.5095
 10
234.57
 20
-290.5165
 10
234.6875
 20
-290.5396
 10
234.7855
 20
-290.5779
 10
234.8606
 20
-290.6304
 10
234.9098
 20
-290.6963
 10
234.9298
 20
-290.7747
 10
234.9184
 20
-290.8604
 10
234.8772
 20
-290.9473
 10
234.8092
 20
-291.033
 10
234.7176
 20
-291.1152
 10
234.6053
 20
-291.1915
 10
234.4754
 20
-291.2597
 10
234.3309
 20
-291.3172
 10
234.1749
 20
-291.3618
 10
234.018
 20
-291.3897
 10
233.871
 20
-291.3997
 10
233.7372
 20
-291.3927
 10
233.6197
 20
-291.3696
 10
233.5217
 20
-291.3313
 10
233.4466
 20
-291.2788
 10
233.3974
 20
-291.2129
 10
233.3774
 20
-291.1345
 10
233.3888
 20
-291.0488
 10
233.43
 20
-290.9619
 10
233.498
 20
-290.8762
 10
233.5896
 20
-290.794
 10
233.7019
 20
-290.7177
 10
233.8318
 20
-290.6495
 10
233.9763
 20
-290.592
 10
234.1323
 20
-290.5474
  0
LWPOLYLINE
  5
A6
330
1F
100
AcDbEntity
  8
Layer 1
 62
     7
370
    18
100
AcDbPolyline
 90
       17
 70
     1
 43
0.0
 10
234.1759
 20
-290.9115
 10
234.2287
 20
-290.9067
 10
234.2758
 20
-290.9183
 10
234.3121
 20
-290.9443
 10
234.3327
 20
-290.9821
 10
234.3328
 20
-291.0251
 10
234.3133
 20
-291.0652
 10
234.2776
 20
-291.098
 10
234.229
 20
-291.1189
 10
234.1762
 20
-291.1235
 10
234.1292
 20
-291.1118
 10
234.0928
 20
-291.0859
 10
234.0722
 20
-291.0482
 10
234.0721
 20
-291.0052
 10
234.0916
 20
-290.9651
 10
234.1273
 20
-290.9324
 10
234.1759
 20
-290.9115
  0
LWPOLYLINE
  5
A7
330
1F
100
AcDbEntity
  8
Layer 1
 62
     7
370
    18
100
AcDbPolyline
 90
       33
 70
     1
 43
0.0
 10
235.2664
 20
-286.7779
 10
235.4652
 20
-286.6982
 10
235.6559
 20
-286.6449
 10
235.834
 20
-286.6175
 10
235.9951
 20
-286.6158
 10
236.1346
 20
-286.6394
 10
236.248
 20
-286.688
 10
236.331
 20
-286.7613
 10
236.3789
 20
-286.859
 10
236.3873
 20
-286.9749
 10
236.3568
 20
-287.1006
 10
236.2909
 20
-287.232
 10
236.1928
 20
-287.3653
 10
236.0659
 20
-287.4965
 10
235.9136
 20
-287.6216
 10
235.7392
 20
-287.7367
 10
235.5461
 20
-287.8379
 10
235.3473
 20
-287.9176
 10
235.1566
 20
-287.9709
 10
234.9786
 20
-287.9983
 10
234.8176
 20
-288.0
 10
234.6782
 20
-287.9764
 10
234.5648
 20
-287.9278
 10
234.4819
 20
-287.8545
 10
234.434
 20
-287.7568
 10
234.4255
 20
-287.6409
 10
234.4559
 20
-287.5153
 10
234.5217
 20
-287.3838
 10
234.6198
 20
-287.2506
 10
234.7466
 20
-287.1194
 10
234.8989
 20
-286.9942
 10
235.0733
 20
-286.8791
 10
235.2664
 20
-286.7779
  0
LWPOLYLINE
  5
A8
330
1F
100
AcDbEntity
  8
Layer 1
 62
     7
370
    18
100
AcDbPolyline
 90
       33
 70
     1
 43
0.0
 10
235.4239
 20
-287.2449
 10
235.4579
 20
-287.2316
 10
235.4921
 20
-287.2242
 10
235.5256
 20
-287.2227
 10
235.5574
 20
-287.2268
 10
235.5866
 20
-287.2363
 10
235.6124
 20
-287.2509
 10
235.6338
 20
-287.2706
 10
235.6498
 20
-287.295
 10
235.6592
 20
-287.3228
 10
235.6617
 20
-287.3517
 10
235.6574
 20
-287.381
 10
235.647
 20
-287.4098
 10
235.6307
 20
-287.4373
 10
235.6089
 20
-287.4627
 10
235.5821
 20
-287.485
 10
235.5506
 20
-287.5035
 10
235.5166
 20
-287.5168
 10
235.4824
 20
-287.5242
 10
235.449
 20
-287.5257
 10
235.4173
 20
-287.5216
 10
235.388
 20
-287.5121
 10
235.3623
 20
-287.4975
 10
235.3409
 20
-287.4778
 10
235.3247
 20
-287.4534
 10
235.3153
 20
-287.4256
 10
235.3128
 20
-287.3967
 10
235.3171
 20
-287.3674
 10
235.3275
 20
-287.3386
 10
235.3438
 20
-287.3111
 10
235.3656
 20
-287.2857
 10
235.3924
 20
-287.2634
 10
235.4239
 20
-287.2449
  0
LWPOLYLINE
  5
A9
330
1F
100
AcDbEntity
  8
Layer 1
 62
     7
370
    18
100
AcDbPolyline
 90
       33
 70
     1
 43
0.0
 10
235.5045
 20
-283.4932
 10
235.6847
 20
-283.3775
 10
235.8618
 20
-283.2892
 10
236.0315
 20
-283.2289
 10
236.1893
 20
-283.1969
 10
236.3306
 20
-283.1939
 10
236.4512
 20
-283.2204
 10
236.5465
 20
-283.2768
 10
236.6121
 20
-283.3637
 10
236.6423
 20
-283.4761
 10
236.6363
 20
-283.6052
 10
236.5964
 20
-283.7467
 10
236.5253
 20
-283.896
 10
236.4256
 20
-284.0486
 10
236.2997
 20
-284.2001
 10
236.1503
 20
-284.3459
 10
235.9798
 20
-284.4815
 10
235.7996
 20
-284.5972
 10
235.6224
 20
-284.6854
 10
235.4527
 20
-284.7458
 10
235.2949
 20
-284.7777
 10
235.1534
 20
-284.7807
 10
235.0327
 20
-284.7543
 10
234.9374
 20
-284.6978
 10
234.8718
 20
-284.6109
 10
234.8416
 20
-284.4985
 10
234.8478
 20
-284.3694
 10
234.8877
 20
-284.2279
 10
234.9588
 20
-284.0786
 10
235.0586
 20
-283.926
 10
235.1845
 20
-283.7746
 10
235.334
 20
-283.6288
 10
235.5045
 20
-283.4932
  0
LWPOLYLINE
  5
AA
330
1F
100
AcDbEntity
  8
Layer 1
 62
     7
370
    18
100
AcDbPolyline
 90
       33
 70
     1
 43
0.0
 10
235.7476
 20
-283.9222
 10
235.7784
 20
-283.9027
 10
235.8106
 20
-283.8891
 10
235.8431
 20
-283.8813
 10
235.8751
 20
-283.8794
 10
235.9056
 20
-283.8832
 10
235.9336
 20
-283.8928
 10
235.9583
 20
-283.9082
 10
235.9787
 20
-283.9292
 10
235.9932
 20
-283.9545
 10
236.0011
 20
-283.9824
 10
236.0025
 20
-284.0119
 10
235.9977
 20
-284.0422
 10
235.9869
 20
-284.0723
 10
235.9703
 20
-284.1012
 10
235.9482
 20
-284.1282
 10
235.9208
 20
-284.1523
 10
235.89
 20
-284.1718
 10
235.8578
 20
-284.1854
 10
235.8253
 20
-284.1932
 10
235.7933
 20
-284.1951
 10
235.7628
 20
-284.1913
 10
235.7347
 20
-284.1817
 10
235.71
 20
-284.1663
 10
235.6896
 20
-284.1453
 10
235.6751
 20
-284.12
 10
235.6672
 20
-284.0921
 10
235.6659
 20
-284.0626
 10
235.6707
 20
-284.0323
 10
235.6815
 20
-284.0022
 10
235.6981
 20
-283.9733
 10
235.7202
 20
-283.9463
 10
235.7476
 20
-283.9222
  0
LWPOLYLINE
  5
AB
330
1F
100
AcDbEntity
  8
Layer 1
 62
     7
370
    18
100
AcDbPolyline
 90
       33
 70
     1
 43
0.0
 10
234.7716
 20
-280.7095
 10
234.9782
 20
-280.5665
 10
235.179
 20
-280.4541
 10
235.3691
 20
-280.3732
 10
235.5436
 20
-280.3249
 10
235.6977
 20
-280.31
 10
235.8265
 20
-280.3294
 10
235.9251
 20
-280.3842
 10
235.9885
 20
-280.4753
 10
236.0112
 20
-280.5974
 10
235.9928
 20
-280.7411
 10
235.9366
 20
-280.9012
 10
235.8456
 20
-281.0726
 10
235.7232
 20
-281.2501
 10
235.5725
 20
-281.4284
 10
235.3966
 20
-281.6023
 10
235.1987
 20
-281.7667
 10
234.9921
 20
-281.9098
 10
234.7913
 20
-282.0222
 10
234.6011
 20
-282.103
 10
234.4265
 20
-282.1514
 10
234.2723
 20
-282.1663
 10
234.1435
 20
-282.1468
 10
234.0449
 20
-282.092
 10
233.9814
 20
-282.0009
 10
233.9587
 20
-281.8789
 10
233.9771
 20
-281.7352
 10
234.0334
 20
-281.575
 10
234.1243
 20
-281.4037
 10
234.2468
 20
-281.2262
 10
234.3976
 20
-281.0479
 10
234.5736
 20
-280.8739
 10
234.7716
 20
-280.7095
  0
LWPOLYLINE
  5
AC
330
1F
100
AcDbEntity
  8
Layer 1
 62
     7
370
    18
100
AcDbPolyline
 90
       33
 70
     1
 43
0.0
 10
234.9968
 20
-281.1654
 10
235.0322
 20
-281.1412
 10
235.0684
 20
-281.1234
 10
235.1045
 20
-281.1121
 10
235.1395
 20
-281.1073
 10
235.1724
 20
-281.109
 10
235.2021
 20
-281.1174
 10
235.2276
 20
-281.1323
 10
235.2479
 20
-281.1539
 10
235.2613
 20
-281.181
 10
235.2673
 20
-281.2113
 10
235.2662
 20
-281.244
 10
235.2582
 20
-281.278
 10
235.2437
 20
-281.3123
 10
235.223
 20
-281.3458
 10
235.1965
 20
-281.3776
 10
235.1644
 20
-281.4066
 10
235.1291
 20
-281.4307
 10
235.0929
 20
-281.4484
 10
235.0567
 20
-281.4596
 10
235.0218
 20
-281.4644
 10
234.9889
 20
-281.4626
 10
234.9592
 20
-281.4542
 10
234.9337
 20
-281.4393
 10
234.9134
 20
-281.4177
 10
234.9
 20
-281.3907
 10
234.894
 20
-281.3604
 10
234.8952
 20
-281.3278
 10
234.9033
 20
-281.2939
 10
234.9178
 20
-281.2596
 10
234.9384
 20
-281.2261
 10
234.9649
 20
-281.1944
 10
234.9968
 20
-281.1654
  0
LWPOLYLINE
  5
AD
330
1F
100
AcDbEntity
  8
Layer 1
 62
     7
370
    18
100
AcDbPolyline
 90
       33
 70
     1
 43
0.0
 10
232.9032
 20
-278.9323
 10
233.1042
 20
-278.7633
 10
233.3023
 20
-278.6299
 10
233.4925
 20
-278.5334
 10
233.6699
 20
-278.4749
 10
233.8293
 20
-278.4555
 10
233.9659
 20
-278.4765
 10
234.0745
 20
-278.539
 10
234.1501
 20
-278.6441
 10
234.1863
 20
-278.7857
 10
234.182
 20
-278.953
 10
234.1398
 20
-279.14
 10
234.0625
 20
-279.3405
 10
233.9529
 20
-279.5485
 10
233.8139
 20
-279.7579
 10
233.6481
 20
-279.9626
 10
233.4584
 20
-280.1565
 10
233.2574
 20
-280.3255
 10
233.0593
 20
-280.4589
 10
232.8691
 20
-280.5554
 10
232.6917
 20
-280.6139
 10
232.5323
 20
-280.6333
 10
232.3957
 20
-280.6123
 10
232.2871
 20
-280.5498
 10
232.2115
 20
-280.4447
 10
232.1753
 20
-280.3031
 10
232.1796
 20
-280.1358
 10
232.2218
 20
-279.9488
 10
232.2991
 20
-279.7483
 10
232.4087
 20
-279.5403
 10
232.5477
 20
-279.3309
 10
232.7135
 20
-279.1262
 10
232.9032
 20
-278.9323
  0
LWPOLYLINE
  5
AE
330
1F
100
AcDbEntity
  8
Layer 1
 62
     7
370
    18
100
AcDbPolyline
 90
       33
 70
     1
 43
0.0
 10
233.1857
 20
-279.4595
 10
233.2201
 20
-279.4311
 10
233.2561
 20
-279.4101
 10
233.2926
 20
-279.3965
 10
233.3287
 20
-279.3905
 10
233.3631
 20
-279.3921
 10
233.3949
 20
-279.4014
 10
233.4231
 20
-279.4183
 10
233.4465
 20
-279.4431
 10
233.4635
 20
-279.4743
 10
233.4729
 20
-279.5095
 10
233.475
 20
-279.5475
 10
233.4702
 20
-279.5871
 10
233.4586
 20
-279.6271
 10
233.4405
 20
-279.6664
 10
233.4161
 20
-279.7037
 10
233.3858
 20
-279.7379
 10
233.3513
 20
-279.7665
 10
233.3151
 20
-279.7876
 10
233.2785
 20
-279.8012
 10
233.2425
 20
-279.8072
 10
233.208
 20
-279.8056
 10
233.1761
 20
-279.7963
 10
233.148
 20
-279.7792
 10
233.1246
 20
-279.7543
 10
233.1077
 20
-279.7231
 10
233.0983
 20
-279.6878
 10
233.0962
 20
-279.6499
 10
233.101
 20
-279.6103
 10
233.1127
 20
-279.5703
 10
233.1308
 20
-279.531
 10
233.1552
 20
-279.4937
 10
233.1857
 20
-279.4595
  0
LWPOLYLINE
  5
AF
330
1F
100
AcDbEntity
  8
Layer 1
 62
     7
370
    18
100
AcDbPolyline
 90
       33
 70
     1
 43
0.0
 10
231.2443
 20
-277.7024
 10
231.3008
 20
-277.7621
 10
231.321
 20
-277.8628
 10
231.3068
 20
-277.9992
 10
231.26
 20
-278.166
 10
231.1824
 20
-278.3578
 10
231.076
 20
-278.5693
 10
230.9424
 20
-278.7952
 10
230.7837
 20
-279.0301
 10
230.6102
 20
-279.2577
 10
230.4342
 20
-279.4625
 10
230.2607
 20
-279.6408
 10
230.0943
 20
-279.7886
 10
229.9398
 20
-279.902
 10
229.802
 20
-279.9772
 10
229.6856
 20
-280.0102
 10
229.5955
 20
-279.9972
 10
229.5388
 20
-279.9376
 10
229.5185
 20
-279.8369
 10
229.5327
 20
-279.7006
 10
229.5795
 20
-279.5338
 10
229.6571
 20
-279.3421
 10
229.7635
 20
-279.1306
 10
229.897
 20
-278.9048
 10
230.0557
 20
-278.6699
 10
230.2292
 20
-278.4423
 10
230.4052
 20
-278.2375
 10
230.5788
 20
-278.0592
 10
230.7453
 20
-277.9114
 10
230.8999
 20
-277.7979
 10
231.0377
 20
-277.7227
 10
231.1541
 20
-277.6895
 10
231.2443
 20
-277.7024
  0
LWPOLYLINE
  5
B0
330
1F
100
AcDbEntity
  8
Layer 1
 62
     7
370
    18
100
AcDbPolyline
 90
       33
 70
     1
 43
0.0
 10
230.3877
 20
-278.7687
 10
230.4188
 20
-278.7393
 10
230.4518
 20
-278.7161
 10
230.4858
 20
-278.6993
 10
230.5196
 20
-278.689
 10
230.5523
 20
-278.6855
 10
230.5829
 20
-278.689
 10
230.6105
 20
-278.6997
 10
230.6339
 20
-278.7179
 10
230.6515
 20
-278.7424
 10
230.6622
 20
-278.7714
 10
230.6662
 20
-278.8039
 10
230.6638
 20
-278.8387
 10
230.6549
 20
-278.8748
 10
230.6399
 20
-278.9111
 10
230.6189
 20
-278.9466
 10
230.592
 20
-278.9803
 10
230.5609
 20
-279.0098
 10
230.5279
 20
-279.033
 10
230.494
 20
-279.0499
 10
230.4602
 20
-279.0602
 10
230.4275
 20
-279.0636
 10
230.3968
 20
-279.06
 10
230.3693
 20
-279.0493
 10
230.3458
 20
-279.0311
 10
230.3282
 20
-279.0066
 10
230.3175
 20
-278.9776
 10
230.3135
 20
-278.9452
 10
230.316
 20
-278.9105
 10
230.3248
 20
-278.8744
 10
230.3398
 20
-278.8381
 10
230.3609
 20
-278.8025
 10
230.3877
 20
-278.7687
  0
LWPOLYLINE
  5
B1
330
1F
100
AcDbEntity
  8
Layer 1
 62
     7
370
    18
100
AcDbPolyline
 90
       33
 70
     1
 43
0.0
 10
227.5116
 20
-277.9154
 10
227.5865
 20
-277.9594
 10
227.6337
 20
-278.0474
 10
227.6536
 20
-278.1741
 10
227.647
 20
-278.3345
 10
227.6143
 20
-278.5232
 10
227.5562
 20
-278.7352
 10
227.4732
 20
-278.9651
 10
227.366
 20
-279.2079
 10
227.2412
 20
-279.4467
 10
227.1081
 20
-279.6653
 10
226.9706
 20
-279.8593
 10
226.8329
 20
-280.0242
 10
226.6989
 20
-280.1556
 10
226.5728
 20
-280.2492
 10
226.4585
 20
-280.3005
 10
226.36
 20
-280.3051
 10
226.2851
 20
-280.2612
 10
226.2379
 20
-280.1732
 10
226.218
 20
-280.0465
 10
226.2246
 20
-279.8861
 10
226.2573
 20
-279.6974
 10
226.3154
 20
-279.4854
 10
226.3984
 20
-279.2555
 10
226.5056
 20
-279.0127
 10
226.6304
 20
-278.7738
 10
226.7635
 20
-278.5551
 10
226.901
 20
-278.3612
 10
227.0387
 20
-278.1963
 10
227.1727
 20
-278.0648
 10
227.2988
 20
-277.9713
 10
227.4131
 20
-277.92
 10
227.5116
 20
-277.9154
  0
LWPOLYLINE
  5
B2
330
1F
100
AcDbEntity
  8
Layer 1
 62
     7
370
    18
100
AcDbPolyline
 90
       33
 70
     1
 43
0.0
 10
226.8813
 20
-279.0422
 10
226.9066
 20
-279.0098
 10
226.9354
 20
-278.9826
 10
226.9669
 20
-278.9611
 10
226.9999
 20
-278.9457
 10
227.0334
 20
-278.9365
 10
227.0666
 20
-278.9342
 10
227.0984
 20
-278.9389
 10
227.1278
 20
-278.9511
 10
227.1527
 20
-278.9702
 10
227.1715
 20
-278.9946
 10
227.1841
 20
-279.0234
 10
227.1904
 20
-279.0555
 10
227.1904
 20
-279.09
 10
227.1838
 20
-279.1259
 10
227.1707
 20
-279.1622
 10
227.1509
 20
-279.1978
 10
227.1256
 20
-279.2303
 10
227.0968
 20
-279.2574
 10
227.0653
 20
-279.2789
 10
227.0323
 20
-279.2944
 10
226.9988
 20
-279.3035
 10
226.9656
 20
-279.3058
 10
226.9338
 20
-279.3009
 10
226.9044
 20
-279.2886
 10
226.8795
 20
-279.2696
 10
226.8607
 20
-279.2452
 10
226.8481
 20
-279.2164
 10
226.8418
 20
-279.1843
 10
226.8418
 20
-279.1499
 10
226.8484
 20
-279.114
 10
226.8615
 20
-279.0778
 10
226.8813
 20
-279.0422
  0
LWPOLYLINE
  5
B3
330
1F
100
AcDbEntity
  8
Layer 1
 62
     7
370
    18
100
AcDbPolyline
 90
       33
 70
     1
 43
0.0
 10
223.1682
 20
-279.4929
 10
223.2558
 20
-279.5348
 10
223.3262
 20
-279.6172
 10
223.3786
 20
-279.7352
 10
223.4124
 20
-279.8839
 10
223.4268
 20
-280.0587
 10
223.4212
 20
-280.2546
 10
223.3947
 20
-280.4669
 10
223.3466
 20
-280.6907
 10
223.2797
 20
-280.9105
 10
223.1992
 20
-281.1113
 10
223.108
 20
-281.2893
 10
223.0092
 20
-281.4403
 10
222.9058
 20
-281.5603
 10
222.8008
 20
-281.6453
 10
222.6972
 20
-281.6912
 10
222.598
 20
-281.694
 10
222.5104
 20
-281.6521
 10
222.44
 20
-281.5697
 10
222.3875
 20
-281.4517
 10
222.3537
 20
-281.303
 10
222.3393
 20
-281.1282
 10
222.345
 20
-280.9323
 10
222.3715
 20
-280.72
 10
222.4196
 20
-280.4962
 10
222.4865
 20
-280.2763
 10
222.567
 20
-280.0754
 10
222.6581
 20
-279.8974
 10
222.7569
 20
-279.7463
 10
222.8603
 20
-279.6264
 10
222.9654
 20
-279.5414
 10
223.069
 20
-279.4956
 10
223.1682
 20
-279.4929
  0
LWPOLYLINE
  5
B4
330
1F
100
AcDbEntity
  8
Layer 1
 62
     7
370
    18
100
AcDbPolyline
 90
       33
 70
     1
 43
0.0
 10
222.8103
 20
-280.5296
 10
222.8279
 20
-280.4999
 10
222.8504
 20
-280.4751
 10
222.8771
 20
-280.4556
 10
222.9068
 20
-280.4417
 10
222.9388
 20
-280.4337
 10
222.9721
 20
-280.432
 10
223.0058
 20
-280.4368
 10
223.039
 20
-280.4485
 10
223.0692
 20
-280.4666
 10
223.0944
 20
-280.4896
 10
223.1145
 20
-280.5165
 10
223.129
 20
-280.5465
 10
223.1376
 20
-280.5785
 10
223.14
 20
-280.6116
 10
223.1357
 20
-280.6451
 10
223.1245
 20
-280.6778
 10
223.1069
 20
-280.7075
 10
223.0844
 20
-280.7323
 10
223.0578
 20
-280.7518
 10
223.0281
 20
-280.7657
 10
222.9961
 20
-280.7736
 10
222.9629
 20
-280.7753
 10
222.9293
 20
-280.7704
 10
222.8962
 20
-280.7586
 10
222.8659
 20
-280.7406
 10
222.8405
 20
-280.7177
 10
222.8204
 20
-280.6908
 10
222.8058
 20
-280.6609
 10
222.7972
 20
-280.6289
 10
222.7948
 20
-280.5958
 10
222.7991
 20
-280.5623
 10
222.8103
 20
-280.5296
  0
LWPOLYLINE
  5
B5
330
1F
100
AcDbEntity
  8
Layer 1
 62
     7
370
    18
100
AcDbPolyline
 90
       33
 70
     1
 43
0.0
 10
218.3855
 20
-282.041
 10
218.492
 20
-282.0484
 10
218.5991
 20
-282.0955
 10
218.7039
 20
-282.1784
 10
218.8035
 20
-282.2933
 10
218.8951
 20
-282.4364
 10
218.976
 20
-282.6038
 10
219.0431
 20
-282.7917
 10
219.0937
 20
-282.9962
 10
219.1235
 20
-283.2034
 10
219.1313
 20
-283.399
 10
219.1183
 20
-283.5787
 10
219.0857
 20
-283.738
 10
219.0347
 20
-283.8726
 10
218.9667
 20
-283.9781
 10
218.8828
 20
-284.0502
 10
218.7843
 20
-284.0844
 10
218.6778
 20
-284.077
 10
218.5708
 20
-284.0299
 10
218.466
 20
-283.947
 10
218.3664
 20
-283.8321
 10
218.2747
 20
-283.6891
 10
218.1939
 20
-283.5216
 10
218.1268
 20
-283.3337
 10
218.0762
 20
-283.1291
 10
218.0463
 20
-282.9219
 10
218.0384
 20
-282.7263
 10
218.0515
 20
-282.5466
 10
218.0841
 20
-282.3873
 10
218.135
 20
-282.2527
 10
218.2031
 20
-282.1472
 10
218.287
 20
-282.0752
 10
218.3855
 20
-282.041
  0
LWPOLYLINE
  5
B6
330
1F
100
AcDbEntity
  8
Layer 1
 62
     7
370
    18
100
AcDbPolyline
 90
       33
 70
     1
 43
0.0
 10
218.5629
 20
-282.9837
 10
218.5919
 20
-282.9735
 10
218.6212
 20
-282.971
 10
218.6501
 20
-282.9757
 10
218.6778
 20
-282.9873
 10
218.7035
 20
-283.0053
 10
218.7264
 20
-283.0292
 10
218.7457
 20
-283.0586
 10
218.7606
 20
-283.093
 10
218.7699
 20
-283.1301
 10
218.7732
 20
-283.1673
 10
218.7707
 20
-283.2038
 10
218.7628
 20
-283.2384
 10
218.7499
 20
-283.2702
 10
218.7321
 20
-283.2981
 10
218.7098
 20
-283.3213
 10
218.6834
 20
-283.3386
 10
218.6544
 20
-283.3487
 10
218.6251
 20
-283.3512
 10
218.5962
 20
-283.3464
 10
218.5685
 20
-283.3349
 10
218.5428
 20
-283.317
 10
218.5199
 20
-283.2931
 10
218.5007
 20
-283.2638
 10
218.4858
 20
-283.2294
 10
218.4764
 20
-283.1922
 10
218.473
 20
-283.1549
 10
218.4755
 20
-283.1184
 10
218.4834
 20
-283.0838
 10
218.4964
 20
-283.0521
 10
218.5142
 20
-283.0241
 10
218.5365
 20
-283.001
 10
218.5629
 20
-282.9837
  0
LWPOLYLINE
  5
B7
330
1F
100
AcDbEntity
  8
Layer 1
 62
     7
370
    18
100
AcDbPolyline
 90
       33
 70
     1
 43
0.0
 10
213.788
 20
-285.6814
 10
213.8865
 20
-285.6401
 10
214.0034
 20
-285.6339
 10
214.1344
 20
-285.6609
 10
214.2753
 20
-285.7187
 10
214.4218
 20
-285.8053
 10
214.5697
 20
-285.9186
 10
214.7145
 20
-286.0562
 10
214.8522
 20
-286.2162
 10
214.9725
 20
-286.3878
 10
215.0679
 20
-286.559
 10
215.1375
 20
-286.7252
 10
215.1804
 20
-286.8821
 10
215.1957
 20
-287.0251
 10
215.1827
 20
-287.1499
 10
215.1404
 20
-287.2518
 10
215.068
 20
-287.3264
 10
214.9695
 20
-287.3677
 10
214.8526
 20
-287.3738
 10
214.7216
 20
-287.3469
 10
214.5807
 20
-287.2891
 10
214.4342
 20
-287.2025
 10
214.2863
 20
-287.0893
 10
214.1414
 20
-286.9517
 10
214.0037
 20
-286.7918
 10
213.8834
 20
-286.6201
 10
213.788
 20
-286.449
 10
213.7185
 20
-286.2827
 10
213.6756
 20
-286.1258
 10
213.6603
 20
-285.9828
 10
213.6733
 20
-285.8581
 10
213.7156
 20
-285.7561
 10
213.788
 20
-285.6814
  0
LWPOLYLINE
  5
B8
330
1F
100
AcDbEntity
  8
Layer 1
 62
     7
370
    18
100
AcDbPolyline
 90
       33
 70
     1
 43
0.0
 10
214.3728
 20
-286.4431
 10
214.394
 20
-286.421
 10
214.4191
 20
-286.4056
 10
214.447
 20
-286.3969
 10
214.477
 20
-286.3948
 10
214.508
 20
-286.3992
 10
214.5392
 20
-286.4102
 10
214.5696
 20
-286.4278
 10
214.5984
 20
-286.4518
 10
214.6235
 20
-286.4809
 10
214.6433
 20
-286.5127
 10
214.6576
 20
-286.5464
 10
214.6663
 20
-286.5809
 10
214.669
 20
-286.6151
 10
214.6658
 20
-286.6481
 10
214.6564
 20
-286.6788
 10
214.6406
 20
-286.7062
 10
214.6193
 20
-286.7282
 10
214.5942
 20
-286.7435
 10
214.5663
 20
-286.7522
 10
214.5363
 20
-286.7543
 10
214.5053
 20
-286.7498
 10
214.4741
 20
-286.7388
 10
214.4436
 20
-286.7212
 10
214.4147
 20
-286.6972
 10
214.3896
 20
-286.6683
 10
214.3698
 20
-286.6365
 10
214.3555
 20
-286.6029
 10
214.3469
 20
-286.5685
 10
214.3441
 20
-286.5342
 10
214.3474
 20
-286.5013
 10
214.3569
 20
-286.4705
 10
214.3728
 20
-286.4431
  0
LWPOLYLINE
  5
B9
330
1F
100
AcDbEntity
  8
Layer 1
 62
     7
370
    18
100
AcDbPolyline
 90
       33
 70
     1
 43
0.0
 10
211.0403
 20
-290.0415
 10
211.209
 20
-290.1585
 10
211.3522
 20
-290.2829
 10
211.4678
 20
-290.4108
 10
211.5539
 20
-290.5386
 10
211.6082
 20
-290.6625
 10
211.6287
 20
-290.7788
 10
211.6133
 20
-290.8837
 10
211.5599
 20
-290.9734
 10
211.471
 20
-291.0411
 10
211.3538
 20
-291.0829
 10
211.2134
 20
-291.0993
 10
211.0546
 20
-291.0909
 10
210.8823
 20
-291.0584
 10
210.7016
 20
-291.0024
 10
210.5173
 20
-290.9236
 10
210.3343
 20
-290.8224
 10
210.1656
 20
-290.7053
 10
210.0224
 20
-290.5808
 10
209.9068
 20
-290.4528
 10
209.8207
 20
-290.3249
 10
209.7664
 20
-290.201
 10
209.7459
 20
-290.0848
 10
209.7613
 20
-289.98
 10
209.8147
 20
-289.8904
 10
209.9036
 20
-289.8227
 10
210.0208
 20
-289.7809
 10
210.1612
 20
-289.7645
 10
210.32
 20
-289.7728
 10
210.4922
 20
-289.8053
 10
210.6729
 20
-289.8613
 10
210.8573
 20
-289.9402
 10
211.0403
 20
-290.0415
  0
LWPOLYLINE
  5
BA
330
1F
100
AcDbEntity
  8
Layer 1
 62
     7
370
    18
100
AcDbPolyline
 90
       33
 70
     1
 43
0.0
 10
210.7473
 20
-290.4128
 10
210.7759
 20
-290.433
 10
210.7998
 20
-290.4565
 10
210.8186
 20
-290.4825
 10
210.832
 20
-290.51
 10
210.8397
 20
-290.5384
 10
210.8414
 20
-290.5667
 10
210.8368
 20
-290.5941
 10
210.8256
 20
-290.6198
 10
210.8083
 20
-290.6419
 10
210.7863
 20
-290.659
 10
210.7605
 20
-290.671
 10
210.7318
 20
-290.6778
 10
210.7011
 20
-290.6792
 10
210.6692
 20
-290.6751
 10
210.6371
 20
-290.6655
 10
210.6056
 20
-290.6501
 10
210.5771
 20
-290.6299
 10
210.5533
 20
-290.6064
 10
210.5345
 20
-290.5804
 10
210.5212
 20
-290.5529
 10
210.5134
 20
-290.5245
 10
210.5117
 20
-290.4961
 10
210.5163
 20
-290.4687
 10
210.5274
 20
-290.443
 10
210.5447
 20
-290.4209
 10
210.5667
 20
-290.4038
 10
210.5924
 20
-290.3919
 10
210.6211
 20
-290.3851
 10
210.6518
 20
-290.3837
 10
210.6837
 20
-290.3878
 10
210.7158
 20
-290.3974
 10
210.7473
 20
-290.4128
  0
LWPOLYLINE
  5
BB
330
1F
100
AcDbEntity
  8
Layer 1
 62
     7
370
    18
100
AcDbPolyline
 90
       33
 70
     1
 43
0.0
 10
209.9599
 20
-295.9682
 10
210.1353
 20
-295.9648
 10
210.2968
 20
-295.9792
 10
210.4411
 20
-296.0098
 10
210.5649
 20
-296.0552
 10
210.6648
 20
-296.1137
 10
210.7375
 20
-296.1838
 10
210.7796
 20
-296.264
 10
210.7878
 20
-296.3528
 10
210.7604
 20
-296.444
 10
210.7004
 20
-296.5313
 10
210.6116
 20
-296.6128
 10
210.4976
 20
-296.6864
 10
210.3622
 20
-296.75
 10
210.2091
 20
-296.8017
 10
210.042
 20
-296.8393
 10
209.8646
 20
-296.8608
 10
209.6891
 20
-296.8642
 10
209.5275
 20
-296.8498
 10
209.3832
 20
-296.8191
 10
209.2595
 20
-296.7737
 10
209.1596
 20
-296.7152
 10
209.087
 20
-296.645
 10
209.0449
 20
-296.5648
 10
209.0367
 20
-296.476
 10
209.0641
 20
-296.3848
 10
209.124
 20
-296.2975
 10
209.2128
 20
-296.216
 10
209.3268
 20
-296.1425
 10
209.4622
 20
-296.0789
 10
209.6153
 20
-296.0273
 10
209.7825
 20
-295.9897
 10
209.9599
 20
-295.9682
  0
LWPOLYLINE
  5
BC
330
1F
100
AcDbEntity
  8
Layer 1
 62
     7
370
    18
100
AcDbPolyline
 90
       25
 70
     1
 43
0.0
 10
209.9442
 20
-296.3712
 10
210.0024
 20
-296.3753
 10
210.0516
 20
-296.3962
 10
210.0712
 20
-296.412
 10
210.0866
 20
-296.4307
 10
210.0972
 20
-296.4519
 10
210.1024
 20
-296.4753
 10
210.1016
 20
-296.4992
 10
210.0949
 20
-296.522
 10
210.0831
 20
-296.5431
 10
210.0667
 20
-296.5621
 10
210.0221
 20
-296.5916
 10
209.9655
 20
-296.6061
 10
209.9073
 20
-296.602
 10
209.8582
 20
-296.5811
 10
209.8386
 20
-296.5654
 10
209.8232
 20
-296.5467
 10
209.8126
 20
-296.5254
 10
209.8074
 20
-296.5021
 10
209.8082
 20
-296.4782
 10
209.8148
 20
-296.4553
 10
209.8265
 20
-296.4341
 10
209.8429
 20
-296.4151
 10
209.8875
 20
-296.3856
 10
209.9442
 20
-296.3712
  0
LWPOLYLINE
  5
BD
330
1F
100
AcDbEntity
  8
Layer 1
 62
     7
370
    18
100
AcDbPolyline
 90
       33
 70
     1
 43
0.0
 10
208.8803
 20
-298.7515
 10
209.1193
 20
-298.7099
 10
209.3394
 20
-298.6948
 10
209.5362
 20
-298.7047
 10
209.7049
 20
-298.7383
 10
209.8411
 20
-298.7943
 10
209.9403
 20
-298.8713
 10
209.9978
 20
-298.9681
 10
210.0092
 20
-299.0832
 10
209.9721
 20
-299.2091
 10
209.8906
 20
-299.3368
 10
209.7698
 20
-299.4629
 10
209.6148
 20
-299.5838
 10
209.4305
 20
-299.6962
 10
209.222
 20
-299.7966
 10
208.9945
 20
-299.8814
 10
208.7529
 20
-299.9473
 10
208.5139
 20
-299.9887
 10
208.2938
 20
-300.0039
 10
208.0971
 20
-299.994
 10
207.9284
 20
-299.9604
 10
207.7923
 20
-299.9044
 10
207.6932
 20
-299.8274
 10
207.6357
 20
-299.7307
 10
207.6243
 20
-299.6156
 10
207.6614
 20
-299.4897
 10
207.7429
 20
-299.3619
 10
207.8637
 20
-299.2358
 10
208.0187
 20
-299.1148
 10
208.203
 20
-299.0024
 10
208.4113
 20
-298.9021
 10
208.6388
 20
-298.8173
 10
208.8803
 20
-298.7515
  0
LWPOLYLINE
  5
BE
330
1F
100
AcDbEntity
  8
Layer 1
 62
     7
370
    18
100
AcDbPolyline
 90
       33
 70
     1
 43
0.0
 10
208.86
 20
-299.2857
 10
208.9007
 20
-299.279
 10
208.9393
 20
-299.2788
 10
208.9747
 20
-299.2845
 10
209.0063
 20
-299.2959
 10
209.0331
 20
-299.3125
 10
209.0541
 20
-299.3339
 10
209.0687
 20
-299.3597
 10
209.0758
 20
-299.3894
 10
209.0747
 20
-299.421
 10
209.0658
 20
-299.4524
 10
209.0498
 20
-299.4828
 10
209.0275
 20
-299.5113
 10
208.9995
 20
-299.5371
 10
208.9668
 20
-299.5595
 10
208.9299
 20
-299.5776
 10
208.8897
 20
-299.5906
 10
208.849
 20
-299.5973
 10
208.8105
 20
-299.5975
 10
208.775
 20
-299.5917
 10
208.7435
 20
-299.5803
 10
208.7168
 20
-299.5637
 10
208.6958
 20
-299.5423
 10
208.6813
 20
-299.5166
 10
208.6743
 20
-299.4868
 10
208.6753
 20
-299.4551
 10
208.6842
 20
-299.4236
 10
208.7001
 20
-299.3932
 10
208.7224
 20
-299.3647
 10
208.7502
 20
-299.3389
 10
208.783
 20
-299.3166
 10
208.8198
 20
-299.2986
 10
208.86
 20
-299.2857
  0
LWPOLYLINE
  5
BF
330
1F
100
AcDbEntity
  8
Layer 1
 62
     7
370
    18
100
AcDbPolyline
 90
       33
 70
     1
 43
0.0
 10
208.9617
 20
-303.84
 10
209.148
 20
-303.7354
 10
209.3196
 20
-303.6555
 10
209.4731
 20
-303.6008
 10
209.6048
 20
-303.5718
 10
209.7112
 20
-303.5689
 10
209.7888
 20
-303.5927
 10
209.834
 20
-303.6436
 10
209.8433
 20
-303.722
 10
209.8148
 20
-303.8235
 10
209.7516
 20
-303.9402
 10
209.6579
 20
-304.068
 10
209.5374
 20
-304.203
 10
209.394
 20
-304.341
 10
209.2318
 20
-304.478
 10
209.0546
 20
-304.6099
 10
208.8663
 20
-304.7326
 10
208.6801
 20
-304.8373
 10
208.5085
 20
-304.9173
 10
208.3551
 20
-304.972
 10
208.2235
 20
-305.001
 10
208.1171
 20
-305.0039
 10
208.0395
 20
-304.9801
 10
207.9943
 20
-304.9291
 10
207.985
 20
-304.8506
 10
208.0134
 20
-304.7492
 10
208.0765
 20
-304.6326
 10
208.1703
 20
-304.5048
 10
208.2908
 20
-304.3698
 10
208.4341
 20
-304.2318
 10
208.5964
 20
-304.0948
 10
208.7735
 20
-303.9628
 10
208.9617
 20
-303.84
  0
LWPOLYLINE
  5
C0
330
1F
100
AcDbEntity
  8
Layer 1
 62
     7
370
    18
100
AcDbPolyline
 90
       21
 70
     1
 43
0.0
 10
208.9477
 20
-304.2273
 10
209.0095
 20
-304.1975
 10
209.0619
 20
-304.1887
 10
209.0828
 20
-304.1921
 10
209.0993
 20
-304.2008
 10
209.1107
 20
-304.2146
 10
209.1163
 20
-304.2336
 10
209.1087
 20
-304.2817
 10
209.0791
 20
-304.3357
 10
209.032
 20
-304.389
 10
208.9721
 20
-304.4354
 10
208.9102
 20
-304.4652
 10
208.8578
 20
-304.474
 10
208.8369
 20
-304.4706
 10
208.8205
 20
-304.4619
 10
208.8091
 20
-304.4481
 10
208.8035
 20
-304.4291
 10
208.8109
 20
-304.381
 10
208.8406
 20
-304.327
 10
208.8878
 20
-304.2737
 10
208.9477
 20
-304.2273
  0
LWPOLYLINE
  5
C1
330
1F
100
AcDbEntity
  8
Layer 1
 62
     7
370
    18
100
AcDbPolyline
 90
       33
 70
     1
 43
0.0
 10
210.1049
 20
-305.3506
 10
210.2832
 20
-305.2296
 10
210.4476
 20
-305.1336
 10
210.5945
 20
-305.0633
 10
210.7207
 20
-305.0196
 10
210.8227
 20
-305.0035
 10
210.8971
 20
-305.0159
 10
210.9405
 20
-305.0577
 10
210.9495
 20
-305.1297
 10
210.9224
 20
-305.2277
 10
210.8621
 20
-305.3443
 10
210.7724
 20
-305.4751
 10
210.6571
 20
-305.616
 10
210.5199
 20
-305.7626
 10
210.3646
 20
-305.9107
 10
210.195
 20
-306.056
 10
210.0148
 20
-306.1942
 10
209.8365
 20
-306.3151
 10
209.6723
 20
-306.4112
 10
209.5253
 20
-306.4815
 10
209.3992
 20
-306.5251
 10
209.2973
 20
-306.5412
 10
209.2229
 20
-306.5288
 10
209.1795
 20
-306.4871
 10
209.1705
 20
-306.4152
 10
209.1976
 20
-306.3172
 10
209.2579
 20
-306.2006
 10
209.3475
 20
-306.0697
 10
209.4628
 20
-305.9287
 10
209.5999
 20
-305.7821
 10
209.7551
 20
-305.634
 10
209.9247
 20
-305.4887
 10
210.1049
 20
-305.3506
  0
LWPOLYLINE
  5
C2
330
1F
100
AcDbEntity
  8
Layer 1
 62
     7
370
    18
100
AcDbPolyline
 90
       21
 70
     1
 43
0.0
 10
210.0919
 20
-305.7132
 10
210.1512
 20
-305.6775
 10
210.2013
 20
-305.6627
 10
210.2214
 20
-305.6633
 10
210.2372
 20
-305.6692
 10
210.2482
 20
-305.6807
 10
210.2536
 20
-305.6976
 10
210.2465
 20
-305.7433
 10
210.2181
 20
-305.7973
 10
210.1731
 20
-305.853
 10
210.1157
 20
-305.9036
 10
210.0564
 20
-305.9393
 10
210.0063
 20
-305.9541
 10
209.9862
 20
-305.9536
 10
209.9704
 20
-305.9476
 10
209.9594
 20
-305.9362
 10
209.954
 20
-305.9193
 10
209.9611
 20
-305.8735
 10
209.9895
 20
-305.8195
 10
210.0345
 20
-305.7639
 10
210.0919
 20
-305.7132
  0
LWPOLYLINE
  5
C3
330
1F
100
AcDbEntity
  8
Layer 1
 62
     7
370
    18
100
AcDbPolyline
 90
       33
 70
     1
 43
0.0
 10
214.4765
 20
-305.928
 10
214.5885
 20
-305.7443
 10
214.6981
 20
-305.5889
 10
214.8025
 20
-305.4643
 10
214.8992
 20
-305.3724
 10
214.9854
 20
-305.3157
 10
215.0582
 20
-305.2962
 10
215.1151
 20
-305.3161
 10
215.1532
 20
-305.3778
 10
215.1692
 20
-305.4783
 10
215.1628
 20
-305.6093
 10
215.1356
 20
-305.7655
 10
215.0892
 20
-305.9414
 10
215.0254
 20
-306.1315
 10
214.9456
 20
-306.3304
 10
214.8516
 20
-306.5327
 10
214.745
 20
-306.7329
 10
214.633
 20
-306.9166
 10
214.5234
 20
-307.0719
 10
214.4189
 20
-307.1966
 10
214.3222
 20
-307.2884
 10
214.2361
 20
-307.3451
 10
214.1633
 20
-307.3646
 10
214.1065
 20
-307.3445
 10
214.0683
 20
-307.2827
 10
214.0523
 20
-307.1823
 10
214.0587
 20
-307.0514
 10
214.0859
 20
-306.8952
 10
214.1323
 20
-306.7194
 10
214.1962
 20
-306.5293
 10
214.2759
 20
-306.3304
 10
214.3699
 20
-306.1282
 10
214.4765
 20
-305.928
  0
LWPOLYLINE
  5
C4
330
1F
100
AcDbEntity
  8
Layer 1
 62
     7
370
    18
100
AcDbPolyline
 90
       21
 70
     1
 43
0.0
 10
214.6155
 20
-306.2631
 10
214.6545
 20
-306.2062
 10
214.694
 20
-306.1721
 10
214.7124
 20
-306.1643
 10
214.7293
 20
-306.1633
 10
214.744
 20
-306.1692
 10
214.7559
 20
-306.1824
 10
214.7685
 20
-306.227
 10
214.7652
 20
-306.2879
 10
214.7473
 20
-306.3571
 10
214.7161
 20
-306.427
 10
214.6769
 20
-306.4839
 10
214.6375
 20
-306.518
 10
214.619
 20
-306.5258
 10
214.6021
 20
-306.5268
 10
214.5873
 20
-306.5209
 10
214.5753
 20
-306.5077
 10
214.563
 20
-306.4632
 10
214.5664
 20
-306.4024
 10
214.5843
 20
-306.333
 10
214.6155
 20
-306.2631
  0
LWPOLYLINE
  5
C5
330
1F
100
AcDbEntity
  8
Layer 1
 62
     7
370
    18
100
AcDbPolyline
 90
       33
 70
     1
 43
0.0
 10
217.0915
 20
-305.1429
 10
217.1729
 20
-305.0012
 10
217.257
 20
-304.8843
 10
217.3412
 20
-304.7937
 10
217.4233
 20
-304.7308
 10
217.5008
 20
-304.697
 10
217.5714
 20
-304.6938
 10
217.6327
 20
-304.7225
 10
217.6823
 20
-304.7848
 10
217.7163
 20
-304.8771
 10
217.7329
 20
-304.9923
 10
217.7328
 20
-305.1258
 10
217.7167
 20
-305.2731
 10
217.6853
 20
-305.4297
 10
217.6393
 20
-305.5911
 10
217.5794
 20
-305.7526
 10
217.5063
 20
-305.9099
 10
217.4249
 20
-306.0516
 10
217.3408
 20
-306.1685
 10
217.2566
 20
-306.2591
 10
217.1745
 20
-306.3221
 10
217.097
 20
-306.3559
 10
217.0264
 20
-306.3592
 10
216.9651
 20
-306.3305
 10
216.9155
 20
-306.2683
 10
216.8815
 20
-306.1759
 10
216.8649
 20
-306.0607
 10
216.865
 20
-305.9272
 10
216.8811
 20
-305.7799
 10
216.9125
 20
-305.6232
 10
216.9585
 20
-305.4619
 10
217.0184
 20
-305.3003
 10
217.0915
 20
-305.1429
  0
LWPOLYLINE
  5
C6
330
1F
100
AcDbEntity
  8
Layer 1
 62
     7
370
    18
100
AcDbPolyline
 90
       21
 70
     1
 43
0.0
 10
217.2919
 20
-305.4676
 10
217.3215
 20
-305.4247
 10
217.3555
 20
-305.402
 10
217.3729
 20
-305.3986
 10
217.3899
 20
-305.4009
 10
217.4059
 20
-305.409
 10
217.4204
 20
-305.423
 10
217.441
 20
-305.465
 10
217.4484
 20
-305.5184
 10
217.4423
 20
-305.5765
 10
217.4229
 20
-305.6325
 10
217.3933
 20
-305.6756
 10
217.3593
 20
-305.6984
 10
217.3419
 20
-305.7018
 10
217.3249
 20
-305.6995
 10
217.3089
 20
-305.6914
 10
217.2944
 20
-305.6774
 10
217.2738
 20
-305.6353
 10
217.2665
 20
-305.5818
 10
217.2725
 20
-305.5236
 10
217.2919
 20
-305.4676
  0
LWPOLYLINE
  5
C7
330
1F
100
AcDbEntity
  8
Layer 1
 62
     7
370
    18
100
AcDbPolyline
 90
       33
 70
     1
 43
0.0
 10
219.9523
 20
-303.509
 10
220.0045
 20
-303.3781
 10
220.0675
 20
-303.2706
 10
220.1389
 20
-303.1879
 10
220.2165
 20
-303.1312
 10
220.2977
 20
-303.1019
 10
220.3804
 20
-303.1011
 10
220.462
 20
-303.1303
 10
220.5403
 20
-303.1906
 10
220.6096
 20
-303.2789
 10
220.6653
 20
-303.3881
 10
220.707
 20
-303.514
 10
220.734
 20
-303.6525
 10
220.7458
 20
-303.7991
 10
220.7418
 20
-303.9498
 10
220.7215
 20
-304.1002
 10
220.6842
 20
-304.2461
 10
220.6319
 20
-304.3772
 10
220.5688
 20
-304.4847
 10
220.4973
 20
-304.5675
 10
220.4197
 20
-304.6242
 10
220.3384
 20
-304.6536
 10
220.2558
 20
-304.6543
 10
220.1741
 20
-304.6252
 10
220.0958
 20
-304.5649
 10
220.0265
 20
-304.4766
 10
219.9708
 20
-304.3674
 10
219.9291
 20
-304.2415
 10
219.9021
 20
-304.103
 10
219.8904
 20
-303.9563
 10
219.8944
 20
-303.8055
 10
219.9149
 20
-303.655
 10
219.9523
 20
-303.509
  0
LWPOLYLINE
  5
C8
330
1F
100
AcDbEntity
  8
Layer 1
 62
     7
370
    18
100
AcDbPolyline
 90
       25
 70
     1
 43
0.0
 10
220.2913
 20
-303.8219
 10
220.3004
 20
-303.7998
 10
220.313
 20
-303.7823
 10
220.3285
 20
-303.7696
 10
220.3463
 20
-303.7619
 10
220.3659
 20
-303.7593
 10
220.3867
 20
-303.762
 10
220.4081
 20
-303.7702
 10
220.4296
 20
-303.7839
 10
220.4672
 20
-303.8243
 10
220.4927
 20
-303.875
 10
220.5038
 20
-303.9296
 10
220.4984
 20
-303.982
 10
220.4893
 20
-304.0041
 10
220.4767
 20
-304.0216
 10
220.4613
 20
-304.0342
 10
220.4435
 20
-304.0419
 10
220.424
 20
-304.0445
 10
220.4032
 20
-304.0418
 10
220.3817
 20
-304.0336
 10
220.3601
 20
-304.0199
 10
220.3225
 20
-303.9795
 10
220.2971
 20
-303.9289
 10
220.2859
 20
-303.8742
 10
220.2913
 20
-303.8219
  0
LWPOLYLINE
  5
C9
330
1F
100
AcDbEntity
  8
Layer 1
 62
     7
370
    18
100
AcDbPolyline
 90
       33
 70
     1
 43
0.0
 10
222.665
 20
-301.4339
 10
222.6961
 20
-301.3029
 10
222.7486
 20
-301.1904
 10
222.8199
 20
-301.0983
 10
222.9071
 20
-301.0282
 10
223.0075
 20
-300.9819
 10
223.1182
 20
-300.9612
 10
223.2365
 20
-300.9677
 10
223.3595
 20
-301.0031
 10
223.4787
 20
-301.0661
 10
223.586
 20
-301.1513
 10
223.6795
 20
-301.2551
 10
223.757
 20
-301.3737
 10
223.8166
 20
-301.5034
 10
223.8561
 20
-301.6406
 10
223.8736
 20
-301.7815
 10
223.8669
 20
-301.9225
 10
223.8358
 20
-302.0535
 10
223.7833
 20
-302.166
 10
223.712
 20
-302.2581
 10
223.6248
 20
-302.3282
 10
223.5244
 20
-302.3745
 10
223.4137
 20
-302.3952
 10
223.2954
 20
-302.3887
 10
223.1724
 20
-302.3533
 10
223.0532
 20
-302.2903
 10
222.9459
 20
-302.2052
 10
222.8525
 20
-302.1014
 10
222.775
 20
-301.9829
 10
222.7154
 20
-301.8532
 10
222.6759
 20
-301.716
 10
222.6584
 20
-301.575
 10
222.665
 20
-301.4339
  0
LWPOLYLINE
  5
CA
330
1F
100
AcDbEntity
  8
Layer 1
 62
     7
370
    18
100
AcDbPolyline
 90
       33
 70
     1
 43
0.0
 10
225.7311
 20
-299.3863
 10
225.6329
 20
-299.266
 10
225.5596
 20
-299.1506
 10
225.5114
 20
-299.0429
 10
225.4887
 20
-298.9456
 10
225.4918
 20
-298.8613
 10
225.5209
 20
-298.7928
 10
225.5763
 20
-298.7428
 10
225.6585
 20
-298.7139
 10
225.7623
 20
-298.709
 10
225.8799
 20
-298.7276
 10
226.0075
 20
-298.7677
 10
226.1409
 20
-298.8272
 10
226.2763
 20
-298.9041
 10
226.4095
 20
-298.9964
 10
226.5367
 20
-299.102
 10
226.6537
 20
-299.2189
 10
226.7519
 20
-299.3392
 10
226.8252
 20
-299.4545
 10
226.8734
 20
-299.5622
 10
226.8961
 20
-299.6595
 10
226.893
 20
-299.7438
 10
226.8639
 20
-299.8122
 10
226.8085
 20
-299.8621
 10
226.7263
 20
-299.8909
 10
226.6225
 20
-299.8958
 10
226.5049
 20
-299.8773
 10
226.3773
 20
-299.8373
 10
226.2439
 20
-299.7778
 10
226.1085
 20
-299.701
 10
225.9753
 20
-299.6088
 10
225.8481
 20
-299.5032
 10
225.7311
 20
-299.3863
  0
LWPOLYLINE
  5
CB
330
1F
100
AcDbEntity
  8
Layer 1
 62
     7
370
    18
100
AcDbPolyline
 90
       21
 70
     1
 43
0.0
 10
226.133
 20
-299.2916
 10
226.1054
 20
-299.2504
 10
226.0991
 20
-299.211
 10
226.1039
 20
-299.1934
 10
226.1138
 20
-299.1778
 10
226.1288
 20
-299.1649
 10
226.1488
 20
-299.1552
 10
226.1984
 20
-299.1482
 10
226.2529
 20
-299.1573
 10
226.3058
 20
-299.1805
 10
226.3506
 20
-299.2158
 10
226.3781
 20
-299.257
 10
226.3842
 20
-299.2963
 10
226.3795
 20
-299.314
 10
226.3695
 20
-299.3295
 10
226.3545
 20
-299.3424
 10
226.3345
 20
-299.3522
 10
226.2849
 20
-299.3592
 10
226.2305
 20
-299.3501
 10
226.1777
 20
-299.3269
 10
226.133
 20
-299.2916
  0
LWPOLYLINE
  5
CC
330
1F
100
AcDbEntity
  8
Layer 1
 62
     7
370
    18
100
AcDbPolyline
 90
       33
 70
     1
 43
0.0
 10
230.482
 20
-292.8857
 10
230.6643
 20
-292.8808
 10
230.8323
 20
-292.8944
 10
230.9825
 20
-292.9251
 10
231.1115
 20
-292.9713
 10
231.2157
 20
-293.0313
 10
231.2917
 20
-293.1035
 10
231.336
 20
-293.1865
 10
231.3452
 20
-293.2785
 10
231.3175
 20
-293.3735
 10
231.256
 20
-293.4648
 10
231.1643
 20
-293.5502
 10
231.0465
 20
-293.6276
 10
230.9064
 20
-293.6947
 10
230.7477
 20
-293.7496
 10
230.5744
 20
-293.79
 10
230.3902
 20
-293.8138
 10
230.2079
 20
-293.8187
 10
230.0399
 20
-293.805
 10
229.8897
 20
-293.7743
 10
229.7608
 20
-293.7281
 10
229.6565
 20
-293.668
 10
229.5805
 20
-293.5957
 10
229.5362
 20
-293.5127
 10
229.527
 20
-293.4205
 10
229.5548
 20
-293.3256
 10
229.6164
 20
-293.2344
 10
229.708
 20
-293.149
 10
229.8258
 20
-293.0717
 10
229.9659
 20
-293.0045
 10
230.1245
 20
-292.9497
 10
230.2979
 20
-292.9093
 10
230.482
 20
-292.8857
  0
LWPOLYLINE
  5
CD
330
1F
100
AcDbEntity
  8
Layer 1
 62
     7
370
    18
100
AcDbPolyline
 90
       25
 70
     1
 43
0.0
 10
230.4687
 20
-293.3046
 10
230.5294
 20
-293.3083
 10
230.5807
 20
-293.3296
 10
230.6012
 20
-293.3457
 10
230.6174
 20
-293.365
 10
230.6287
 20
-293.3869
 10
230.6343
 20
-293.4111
 10
230.6336
 20
-293.436
 10
230.6269
 20
-293.4598
 10
230.6148
 20
-293.482
 10
230.5979
 20
-293.5019
 10
230.5518
 20
-293.5328
 10
230.4932
 20
-293.5482
 10
230.4327
 20
-293.5445
 10
230.3814
 20
-293.5233
 10
230.3609
 20
-293.5071
 10
230.3448
 20
-293.4877
 10
230.3336
 20
-293.4657
 10
230.328
 20
-293.4414
 10
230.3287
 20
-293.4166
 10
230.3353
 20
-293.3929
 10
230.3473
 20
-293.3708
 10
230.3642
 20
-293.351
 10
230.4101
 20
-293.3201
 10
230.4687
 20
-293.3046
  0
LWPOLYLINE
  5
CE
330
1F
100
AcDbEntity
  8
Layer 1
 62
     7
370
    18
100
AcDbPolyline
 90
       33
 70
     1
 43
0.0
 10
227.2693
 20
-281.6227
 10
227.3211
 20
-281.6614
 10
227.3503
 20
-281.7367
 10
227.3576
 20
-281.8443
 10
227.3437
 20
-281.9797
 10
227.3094
 20
-282.1387
 10
227.2553
 20
-282.3168
 10
227.1822
 20
-282.5097
 10
227.0908
 20
-282.7129
 10
226.9869
 20
-282.9123
 10
226.878
 20
-283.0945
 10
226.7674
 20
-283.2558
 10
226.6583
 20
-283.3925
 10
226.5537
 20
-283.5011
 10
226.457
 20
-283.5777
 10
226.3712
 20
-283.6189
 10
226.2996
 20
-283.6209
 10
226.2478
 20
-283.5822
 10
226.2186
 20
-283.5069
 10
226.2113
 20
-283.3993
 10
226.2252
 20
-283.2638
 10
226.2596
 20
-283.1049
 10
226.3137
 20
-282.9268
 10
226.3869
 20
-282.734
 10
226.4784
 20
-282.5309
 10
226.5822
 20
-282.3314
 10
226.691
 20
-282.1491
 10
226.8016
 20
-281.9878
 10
226.9108
 20
-281.851
 10
227.0153
 20
-281.7425
 10
227.112
 20
-281.6658
 10
227.1978
 20
-281.6247
 10
227.2693
 20
-281.6227
  0
LWPOLYLINE
  5
CF
330
1F
100
AcDbEntity
  8
Layer 1
 62
     7
370
    18
100
AcDbPolyline
 90
       25
 70
     1
 43
0.0
 10
226.7486
 20
-282.5633
 10
226.7913
 20
-282.514
 10
226.8401
 20
-282.4839
 10
226.865
 20
-282.4768
 10
226.8892
 20
-282.4754
 10
226.9119
 20
-282.48
 10
226.9326
 20
-282.4909
 10
226.9495
 20
-282.5076
 10
226.9618
 20
-282.5287
 10
226.9693
 20
-282.5533
 10
226.972
 20
-282.5806
 10
226.9633
 20
-282.64
 10
226.9354
 20
-282.7001
 10
226.8929
 20
-282.7494
 10
226.8441
 20
-282.7794
 10
226.8192
 20
-282.7864
 10
226.7949
 20
-282.7878
 10
226.7721
 20
-282.7831
 10
226.7514
 20
-282.7721
 10
226.7345
 20
-282.7555
 10
226.7223
 20
-282.7345
 10
226.7148
 20
-282.71
 10
226.7121
 20
-282.6827
 10
226.7208
 20
-282.6234
 10
226.7486
 20
-282.5633
  0
LWPOLYLINE
  5
D0
330
1F
100
AcDbEntity
  8
Layer 1
 62
     7
370
    18
100
AcDbPolyline
 90
       33
 70
     1
 43
0.0
 10
224.1578
 20
-282.3622
 10
224.2229
 20
-282.3833
 10
224.2741
 20
-282.4429
 10
224.311
 20
-282.5369
 10
224.3331
 20
-282.6612
 10
224.34
 20
-282.8117
 10
224.3314
 20
-282.9843
 10
224.3067
 20
-283.1749
 10
224.2656
 20
-283.3794
 10
224.2104
 20
-283.5839
 10
224.1454
 20
-283.7743
 10
224.0728
 20
-283.9464
 10
223.9951
 20
-284.0963
 10
223.9145
 20
-284.2198
 10
223.8336
 20
-284.313
 10
223.7545
 20
-284.3716
 10
223.6797
 20
-284.3917
 10
223.6147
 20
-284.3706
 10
223.5636
 20
-284.311
 10
223.5267
 20
-284.2171
 10
223.5046
 20
-284.0928
 10
223.4975
 20
-283.9423
 10
223.5061
 20
-283.7697
 10
223.5307
 20
-283.5791
 10
223.5718
 20
-283.3745
 10
223.627
 20
-283.1701
 10
223.6921
 20
-282.9798
 10
223.7648
 20
-282.8077
 10
223.8425
 20
-282.6578
 10
223.9231
 20
-282.5343
 10
224.0041
 20
-282.4411
 10
224.0831
 20
-282.3824
 10
224.1578
 20
-282.3622
  0
LWPOLYLINE
  5
D1
330
1F
100
AcDbEntity
  8
Layer 1
 62
     7
370
    18
100
AcDbPolyline
 90
       25
 70
     1
 43
0.0
 10
223.8655
 20
-283.3341
 10
223.8968
 20
-283.2791
 10
223.94
 20
-283.2398
 10
223.9643
 20
-283.2271
 10
223.9894
 20
-283.2197
 10
224.0147
 20
-283.2179
 10
224.0394
 20
-283.2224
 10
224.0617
 20
-283.2329
 10
224.0802
 20
-283.2485
 10
224.0948
 20
-283.2685
 10
224.1051
 20
-283.2921
 10
224.1119
 20
-283.3472
 10
224.0987
 20
-283.4079
 10
224.0674
 20
-283.4628
 10
224.0243
 20
-283.5021
 10
224.0
 20
-283.5148
 10
223.9749
 20
-283.5222
 10
223.9496
 20
-283.524
 10
223.9249
 20
-283.5196
 10
223.9026
 20
-283.5091
 10
223.8841
 20
-283.4935
 10
223.8696
 20
-283.4735
 10
223.8593
 20
-283.4498
 10
223.8525
 20
-283.3947
 10
223.8655
 20
-283.3341
  0
LWPOLYLINE
  5
D2
330
1F
100
AcDbEntity
  8
Layer 1
 62
     7
370
    18
100
AcDbPolyline
 90
       33
 70
     1
 43
0.0
 10
220.8266
 20
-283.884
 10
220.9157
 20
-283.9058
 10
220.9968
 20
-283.9682
 10
221.0682
 20
-284.067
 10
221.1284
 20
-284.1979
 10
221.1758
 20
-284.3564
 10
221.2087
 20
-284.5384
 10
221.2255
 20
-284.7395
 10
221.2247
 20
-284.9554
 10
221.2058
 20
-285.1713
 10
221.1706
 20
-285.3724
 10
221.1211
 20
-285.5543
 10
221.0593
 20
-285.7129
 10
220.9872
 20
-285.8437
 10
220.9068
 20
-285.9424
 10
220.8202
 20
-286.0048
 10
220.7292
 20
-286.0266
 10
220.6401
 20
-286.0048
 10
220.559
 20
-285.9424
 10
220.4876
 20
-285.8436
 10
220.4274
 20
-285.7128
 10
220.38
 20
-285.5542
 10
220.3471
 20
-285.3722
 10
220.3303
 20
-285.1711
 10
220.3311
 20
-284.9551
 10
220.35
 20
-284.7392
 10
220.3852
 20
-284.5382
 10
220.4347
 20
-284.3562
 10
220.4965
 20
-284.1977
 10
220.5686
 20
-284.0669
 10
220.649
 20
-283.9682
 10
220.7356
 20
-283.9058
 10
220.8266
 20
-283.884
  0
LWPOLYLINE
  5
D3
330
1F
100
AcDbEntity
  8
Layer 1
 62
     7
370
    18
100
AcDbPolyline
 90
       33
 70
     1
 43
0.0
 10
220.6981
 20
-284.9102
 10
220.7086
 20
-284.8794
 10
220.7246
 20
-284.8521
 10
220.7454
 20
-284.829
 10
220.7702
 20
-284.8104
 10
220.7981
 20
-284.7969
 10
220.8285
 20
-284.7889
 10
220.8605
 20
-284.787
 10
220.8933
 20
-284.7915
 10
220.9248
 20
-284.8023
 10
220.9528
 20
-284.8186
 10
220.9766
 20
-284.8395
 10
220.9959
 20
-284.8643
 10
221.0101
 20
-284.8922
 10
221.0188
 20
-284.9224
 10
221.0213
 20
-284.954
 10
221.0173
 20
-284.9864
 10
221.0069
 20
-285.0173
 10
220.9909
 20
-285.0446
 10
220.9701
 20
-285.0678
 10
220.9454
 20
-285.0864
 10
220.9174
 20
-285.0999
 10
220.887
 20
-285.1079
 10
220.8549
 20
-285.1099
 10
220.8221
 20
-285.1054
 10
220.7907
 20
-285.0946
 10
220.7629
 20
-285.0783
 10
220.7391
 20
-285.0574
 10
220.7198
 20
-285.0325
 10
220.7056
 20
-285.0046
 10
220.6969
 20
-284.9744
 10
220.6942
 20
-284.9426
 10
220.6981
 20
-284.9102
  0
LWPOLYLINE
  5
D4
330
1F
100
AcDbEntity
  8
Layer 1
 62
     7
370
    18
100
AcDbPolyline
 90
       33
 70
     1
 43
0.0
 10
217.4019
 20
-286.3175
 10
217.5219
 20
-286.3658
 10
217.6368
 20
-286.4456
 10
217.744
 20
-286.553
 10
217.8407
 20
-286.6836
 10
217.9243
 20
-286.8333
 10
217.9921
 20
-286.998
 10
218.0414
 20
-287.1735
 10
218.0695
 20
-287.3556
 10
218.0739
 20
-287.5315
 10
218.0548
 20
-287.6894
 10
218.0144
 20
-287.8265
 10
217.9547
 20
-287.9396
 10
217.8776
 20
-288.0259
 10
217.7853
 20
-288.0824
 10
217.6798
 20
-288.1061
 10
217.5632
 20
-288.0941
 10
217.4432
 20
-288.0458
 10
217.3283
 20
-287.9659
 10
217.2212
 20
-287.8586
 10
217.1244
 20
-287.728
 10
217.0408
 20
-287.5783
 10
216.973
 20
-287.4136
 10
216.9237
 20
-287.2383
 10
216.8956
 20
-287.0563
 10
216.8913
 20
-286.8803
 10
216.9105
 20
-286.7222
 10
216.9509
 20
-286.5851
 10
217.0106
 20
-286.472
 10
217.0876
 20
-286.3856
 10
217.1799
 20
-286.3291
 10
217.2853
 20
-286.3054
 10
217.4019
 20
-286.3175
  0
LWPOLYLINE
  5
D5
330
1F
100
AcDbEntity
  8
Layer 1
 62
     7
370
    18
100
AcDbPolyline
 90
       33
 70
     1
 43
0.0
 10
217.469
 20
-287.1343
 10
217.5034
 20
-287.1378
 10
217.537
 20
-287.1475
 10
217.5691
 20
-287.1628
 10
217.5989
 20
-287.183
 10
217.6255
 20
-287.2074
 10
217.648
 20
-287.2355
 10
217.6658
 20
-287.2664
 10
217.6778
 20
-287.2996
 10
217.6831
 20
-287.3327
 10
217.6814
 20
-287.3636
 10
217.6734
 20
-287.3914
 10
217.6595
 20
-287.4157
 10
217.6402
 20
-287.4357
 10
217.616
 20
-287.4508
 10
217.5874
 20
-287.4603
 10
217.5549
 20
-287.4635
 10
217.5206
 20
-287.46
 10
217.487
 20
-287.4503
 10
217.4549
 20
-287.435
 10
217.4251
 20
-287.4148
 10
217.3984
 20
-287.3903
 10
217.3758
 20
-287.3623
 10
217.3581
 20
-287.3314
 10
217.346
 20
-287.2982
 10
217.3407
 20
-287.2651
 10
217.3424
 20
-287.2342
 10
217.3504
 20
-287.2063
 10
217.3643
 20
-287.1821
 10
217.3836
 20
-287.162
 10
217.4078
 20
-287.147
 10
217.4365
 20
-287.1375
 10
217.469
 20
-287.1343
  0
LWPOLYLINE
  5
D6
330
1F
100
AcDbEntity
  8
Layer 1
 62
     7
370
    18
100
AcDbPolyline
 90
       33
 70
     1
 43
0.0
 10
212.1315
 20
-292.6212
 10
212.3379
 20
-292.6623
 10
212.5233
 20
-292.7207
 10
212.6844
 20
-292.7936
 10
212.8175
 20
-292.8785
 10
212.9193
 20
-292.9727
 10
212.9862
 20
-293.0734
 10
213.0147
 20
-293.1781
 10
213.0013
 20
-293.2841
 10
212.9457
 20
-293.3839
 10
212.853
 20
-293.4708
 10
212.7279
 20
-293.5435
 10
212.5754
 20
-293.6004
 10
212.4004
 20
-293.6402
 10
212.2077
 20
-293.6613
 10
212.0022
 20
-293.6623
 10
211.7889
 20
-293.6419
 10
211.5825
 20
-293.6008
 10
211.3971
 20
-293.5424
 10
211.236
 20
-293.4694
 10
211.1029
 20
-293.3845
 10
211.0011
 20
-293.2903
 10
210.9342
 20
-293.1894
 10
210.9057
 20
-293.0847
 10
210.9191
 20
-292.9786
 10
210.9747
 20
-292.8788
 10
211.0674
 20
-292.7919
 10
211.1925
 20
-292.7193
 10
211.345
 20
-292.6625
 10
211.52
 20
-292.6228
 10
211.7127
 20
-292.6017
 10
211.9182
 20
-292.6007
 10
212.1315
 20
-292.6212
  0
LWPOLYLINE
  5
D7
330
1F
100
AcDbEntity
  8
Layer 1
 62
     7
370
    18
100
AcDbPolyline
 90
       33
 70
     1
 43
0.0
 10
212.0086
 20
-293.0892
 10
212.0438
 20
-293.0965
 10
212.0758
 20
-293.1088
 10
212.1041
 20
-293.1255
 10
212.1281
 20
-293.1459
 10
212.1469
 20
-293.1693
 10
212.1602
 20
-293.1952
 10
212.1671
 20
-293.2227
 10
212.1671
 20
-293.2514
 10
212.1599
 20
-293.2793
 10
212.1463
 20
-293.3043
 10
212.1271
 20
-293.3261
 10
212.1029
 20
-293.3442
 10
212.0747
 20
-293.3581
 10
212.0432
 20
-293.3673
 10
212.0091
 20
-293.3713
 10
211.9733
 20
-293.3697
 10
211.9381
 20
-293.3623
 10
211.9061
 20
-293.3499
 10
211.8778
 20
-293.3332
 10
211.8539
 20
-293.3128
 10
211.835
 20
-293.2893
 10
211.8217
 20
-293.2634
 10
211.8148
 20
-293.2359
 10
211.8148
 20
-293.2072
 10
211.8219
 20
-293.1793
 10
211.8355
 20
-293.1543
 10
211.8548
 20
-293.1325
 10
211.8789
 20
-293.1144
 10
211.9072
 20
-293.1006
 10
211.9387
 20
-293.0915
 10
211.9728
 20
-293.0875
 10
212.0086
 20
-293.0892
  0
LWPOLYLINE
  5
D8
330
1F
100
AcDbEntity
  8
Layer 1
 62
     7
370
    18
100
AcDbPolyline
 90
       33
 70
     1
 43
0.0
 10
230.0124
 20
-281.4758
 10
230.0864
 20
-281.5283
 10
230.1275
 20
-281.6239
 10
230.1368
 20
-281.7574
 10
230.1155
 20
-281.9234
 10
230.0645
 20
-282.1166
 10
229.985
 20
-282.3316
 10
229.878
 20
-282.5632
 10
229.7446
 20
-282.8059
 10
229.5935
 20
-283.0428
 10
229.4355
 20
-283.2579
 10
229.2753
 20
-283.4471
 10
229.1174
 20
-283.606
 10
228.9664
 20
-283.7305
 10
228.827
 20
-283.8164
 10
228.7036
 20
-283.8594
 10
228.601
 20
-283.8554
 10
228.527
 20
-283.803
 10
228.4859
 20
-283.7075
 10
228.4765
 20
-283.574
 10
228.4979
 20
-283.408
 10
228.5488
 20
-283.2148
 10
228.6283
 20
-282.9998
 10
228.7352
 20
-282.7683
 10
228.8685
 20
-282.5257
 10
229.0197
 20
-282.2888
 10
229.1777
 20
-282.0736
 10
229.338
 20
-281.8844
 10
229.496
 20
-281.7254
 10
229.6469
 20
-281.6008
 10
229.7864
 20
-281.5148
 10
229.9098
 20
-281.4718
 10
230.0124
 20
-281.4758
  0
LWPOLYLINE
  5
D9
330
1F
100
AcDbEntity
  8
Layer 1
 62
     7
370
    18
100
AcDbPolyline
 90
       33
 70
     1
 43
0.0
 10
229.2561
 20
-282.5901
 10
229.2853
 20
-282.5587
 10
229.3177
 20
-282.5331
 10
229.3523
 20
-282.5136
 10
229.388
 20
-282.5005
 10
229.4237
 20
-282.4941
 10
229.4584
 20
-282.4946
 10
229.491
 20
-282.5024
 10
229.5204
 20
-282.5177
 10
229.5446
 20
-282.5397
 10
229.562
 20
-282.5668
 10
229.5725
 20
-282.5978
 10
229.5762
 20
-282.6317
 10
229.5729
 20
-282.6675
 10
229.5629
 20
-282.7042
 10
229.5459
 20
-282.7406
 10
229.5221
 20
-282.7759
 10
229.4929
 20
-282.8073
 10
229.4605
 20
-282.8329
 10
229.4259
 20
-282.8525
 10
229.3902
 20
-282.8656
 10
229.3545
 20
-282.8721
 10
229.3198
 20
-282.8715
 10
229.2872
 20
-282.8637
 10
229.2578
 20
-282.8483
 10
229.2337
 20
-282.8263
 10
229.2164
 20
-282.7993
 10
229.206
 20
-282.7683
 10
229.2024
 20
-282.7344
 10
229.2055
 20
-282.6985
 10
229.2156
 20
-282.6619
 10
229.2324
 20
-282.6254
 10
229.2561
 20
-282.5901
  0
LWPOLYLINE
  5
DA
330
1F
100
AcDbEntity
  8
Layer 1
 62
     7
370
    18
100
AcDbPolyline
 90
       33
 70
     1
 43
0.0
 10
231.9066
 20
-282.7216
 10
231.9647
 20
-282.791
 10
231.9801
 20
-282.8939
 10
231.9551
 20
-283.0254
 10
231.8922
 20
-283.1807
 10
231.7937
 20
-283.3546
 10
231.662
 20
-283.5425
 10
231.4996
 20
-283.7394
 10
231.3089
 20
-283.9403
 10
231.1025
 20
-284.1313
 10
230.8949
 20
-284.2994
 10
230.6917
 20
-284.4419
 10
230.4985
 20
-284.5557
 10
230.3207
 20
-284.638
 10
230.1639
 20
-284.6859
 10
230.0337
 20
-284.6964
 10
229.9356
 20
-284.6666
 10
229.8774
 20
-284.5972
 10
229.8619
 20
-284.4943
 10
229.8869
 20
-284.3628
 10
229.9498
 20
-284.2076
 10
230.0482
 20
-284.0336
 10
230.1798
 20
-283.8457
 10
230.3422
 20
-283.6489
 10
230.533
 20
-283.4479
 10
230.7395
 20
-283.257
 10
230.9472
 20
-283.0888
 10
231.1503
 20
-282.9464
 10
231.3436
 20
-282.8325
 10
231.5214
 20
-282.7502
 10
231.6781
 20
-282.7023
 10
231.8084
 20
-282.6918
 10
231.9066
 20
-282.7216
  0
LWPOLYLINE
  5
DB
330
1F
100
AcDbEntity
  8
Layer 1
 62
     7
370
    18
100
AcDbPolyline
 90
       33
 70
     1
 43
0.0
 10
230.8912
 20
-283.6083
 10
230.9275
 20
-283.5853
 10
230.9654
 20
-283.5687
 10
231.0038
 20
-283.5585
 10
231.0416
 20
-283.5548
 10
231.0778
 20
-283.5576
 10
231.1112
 20
-283.5668
 10
231.1407
 20
-283.5826
 10
231.1653
 20
-283.6049
 10
231.183
 20
-283.6324
 10
231.1929
 20
-283.6629
 10
231.1952
 20
-283.6956
 10
231.1901
 20
-283.7293
 10
231.1779
 20
-283.7632
 10
231.1589
 20
-283.7961
 10
231.1333
 20
-283.827
 10
231.1014
 20
-283.8551
 10
231.0652
 20
-283.8781
 10
231.0273
 20
-283.8947
 10
230.9889
 20
-283.9048
 10
230.951
 20
-283.9085
 10
230.9149
 20
-283.9057
 10
230.8814
 20
-283.8965
 10
230.8519
 20
-283.8808
 10
230.8273
 20
-283.8586
 10
230.8096
 20
-283.8311
 10
230.7998
 20
-283.8005
 10
230.7975
 20
-283.7678
 10
230.8026
 20
-283.7341
 10
230.8148
 20
-283.7002
 10
230.8338
 20
-283.6673
 10
230.8593
 20
-283.6364
 10
230.8912
 20
-283.6083
  0
LWPOLYLINE
  5
DC
330
1F
100
AcDbEntity
  8
Layer 1
 62
     7
370
    18
100
AcDbPolyline
 90
       33
 70
     1
 43
0.0
 10
233.038
 20
-284.4237
 10
233.0775
 20
-284.4883
 10
233.0762
 20
-284.583
 10
233.037
 20
-284.7032
 10
232.9624
 20
-284.8444
 10
232.8552
 20
-285.0023
 10
232.7181
 20
-285.1724
 10
232.5539
 20
-285.3503
 10
232.3651
 20
-285.5314
 10
232.1646
 20
-285.7029
 10
231.9663
 20
-285.8536
 10
231.7752
 20
-285.9808
 10
231.5965
 20
-286.0819
 10
231.4352
 20
-286.1543
 10
231.2964
 20
-286.1955
 10
231.1851
 20
-286.2029
 10
231.1063
 20
-286.1738
 10
231.0669
 20
-286.1092
 10
231.0682
 20
-286.0145
 10
231.1075
 20
-285.8944
 10
231.1821
 20
-285.7531
 10
231.2892
 20
-285.5952
 10
231.4263
 20
-285.4251
 10
231.5905
 20
-285.2472
 10
231.7792
 20
-285.0661
 10
231.9797
 20
-284.8946
 10
232.1781
 20
-284.7439
 10
232.3692
 20
-284.6167
 10
232.5479
 20
-284.5156
 10
232.7092
 20
-284.4432
 10
232.8481
 20
-284.402
 10
232.9594
 20
-284.3946
 10
233.038
 20
-284.4237
  0
LWPOLYLINE
  5
DD
330
1F
100
AcDbEntity
  8
Layer 1
 62
     7
370
    18
100
AcDbPolyline
 90
       33
 70
     1
 43
0.0
 10
232.0592
 20
-285.2196
 10
232.0929
 20
-285.1991
 10
232.1271
 20
-285.1845
 10
232.1609
 20
-285.1758
 10
232.1933
 20
-285.1731
 10
232.2234
 20
-285.1762
 10
232.2503
 20
-285.1853
 10
232.2731
 20
-285.2004
 10
232.2907
 20
-285.2213
 10
232.3019
 20
-285.2467
 10
232.3059
 20
-285.2749
 10
232.3033
 20
-285.3049
 10
232.2943
 20
-285.3358
 10
232.2793
 20
-285.3666
 10
232.2587
 20
-285.3964
 10
232.2328
 20
-285.4244
 10
232.202
 20
-285.4496
 10
232.1683
 20
-285.4701
 10
232.1341
 20
-285.4847
 10
232.1003
 20
-285.4934
 10
232.0678
 20
-285.4961
 10
232.0377
 20
-285.4929
 10
232.0108
 20
-285.4838
 10
231.9881
 20
-285.4688
 10
231.9705
 20
-285.4479
 10
231.9594
 20
-285.4225
 10
231.9553
 20
-285.3943
 10
231.9579
 20
-285.3643
 10
231.9668
 20
-285.3335
 10
231.9818
 20
-285.3026
 10
232.0024
 20
-285.2728
 10
232.0283
 20
-285.2448
 10
232.0592
 20
-285.2196
  0
LWPOLYLINE
  5
DE
330
1F
100
AcDbEntity
  8
Layer 1
 62
     7
370
    18
100
AcDbPolyline
 90
       33
 70
     1
 43
0.0
 10
233.317
 20
-286.9766
 10
233.3429
 20
-287.0477
 10
233.323
 20
-287.1403
 10
233.2607
 20
-287.2504
 10
233.1597
 20
-287.3742
 10
233.0235
 20
-287.508
 10
232.8555
 20
-287.6479
 10
232.6593
 20
-287.79
 10
232.4384
 20
-287.9305
 10
232.2079
 20
-288.0594
 10
231.9836
 20
-288.1682
 10
231.7712
 20
-288.2554
 10
231.576
 20
-288.3195
 10
231.4036
 20
-288.3588
 10
231.2593
 20
-288.3719
 10
231.1488
 20
-288.3572
 10
231.0774
 20
-288.3133
 10
231.0515
 20
-288.2422
 10
231.0714
 20
-288.1497
 10
231.1337
 20
-288.0396
 10
231.2347
 20
-287.9157
 10
231.371
 20
-287.7819
 10
231.539
 20
-287.6421
 10
231.7351
 20
-287.4999
 10
231.9559
 20
-287.3594
 10
232.1865
 20
-287.2306
 10
232.4107
 20
-287.1218
 10
232.6231
 20
-287.0346
 10
232.8183
 20
-286.9706
 10
232.9908
 20
-286.9312
 10
233.135
 20
-286.918
 10
233.2456
 20
-286.9327
 10
233.317
 20
-286.9766
  0
LWPOLYLINE
  5
DF
330
1F
100
AcDbEntity
  8
Layer 1
 62
     7
370
    18
100
AcDbPolyline
 90
       33
 70
     1
 43
0.0
 10
232.2
 20
-287.5647
 10
232.2371
 20
-287.5513
 10
232.2736
 20
-287.5437
 10
232.3084
 20
-287.5419
 10
232.3408
 20
-287.5456
 10
232.3697
 20
-287.5546
 10
232.3943
 20
-287.5687
 10
232.4137
 20
-287.5878
 10
232.4269
 20
-287.6117
 10
232.4327
 20
-287.6389
 10
232.4311
 20
-287.6673
 10
232.4226
 20
-287.6962
 10
232.4076
 20
-287.7247
 10
232.3868
 20
-287.752
 10
232.3607
 20
-287.7773
 10
232.3298
 20
-287.7997
 10
232.2946
 20
-287.8184
 10
232.2575
 20
-287.8319
 10
232.221
 20
-287.8394
 10
232.1862
 20
-287.8413
 10
232.1539
 20
-287.8376
 10
232.1251
 20
-287.8285
 10
232.1005
 20
-287.8143
 10
232.0812
 20
-287.7951
 10
232.068
 20
-287.7711
 10
232.0621
 20
-287.744
 10
232.0636
 20
-287.7155
 10
232.0721
 20
-287.6867
 10
232.087
 20
-287.6582
 10
232.1077
 20
-287.6309
 10
232.1338
 20
-287.6056
 10
232.1648
 20
-287.5833
 10
232.2
 20
-287.5647
  0
LWPOLYLINE
  5
E0
330
1F
100
AcDbEntity
  8
Layer 1
 62
     7
370
    18
100
AcDbPolyline
 90
       33
 70
     1
 43
0.0
 10
232.6937
 20
-289.8991
 10
232.7171
 20
-289.9632
 10
232.7015
 20
-290.0401
 10
232.6499
 20
-290.1269
 10
232.5653
 20
-290.2208
 10
232.4506
 20
-290.3188
 10
232.3089
 20
-290.4182
 10
232.143
 20
-290.5162
 10
231.9559
 20
-290.6097
 10
231.7602
 20
-290.6922
 10
231.5696
 20
-290.7582
 10
231.3888
 20
-290.8072
 10
231.2224
 20
-290.8384
 10
231.0751
 20
-290.8512
 10
230.9516
 20
-290.8449
 10
230.8565
 20
-290.819
 10
230.7945
 20
-290.7726
 10
230.7712
 20
-290.7085
 10
230.7869
 20
-290.6316
 10
230.8385
 20
-290.5448
 10
230.9232
 20
-290.451
 10
231.0379
 20
-290.3529
 10
231.1797
 20
-290.2535
 10
231.3456
 20
-290.1556
 10
231.5327
 20
-290.062
 10
231.7284
 20
-289.9795
 10
231.9189
 20
-289.9134
 10
232.0998
 20
-289.8644
 10
232.2661
 20
-289.8332
 10
232.4134
 20
-289.8204
 10
232.5368
 20
-289.8267
 10
232.6318
 20
-289.8527
 10
232.6937
 20
-289.8991
  0
LWPOLYLINE
  5
E1
330
1F
100
AcDbEntity
  8
Layer 1
 62
     7
370
    18
100
AcDbPolyline
 90
       25
 70
     1
 43
0.0
 10
231.7453
 20
-290.2673
 10
231.8082
 20
-290.2582
 10
231.8658
 20
-290.268
 10
231.8907
 20
-290.2793
 10
231.912
 20
-290.2944
 10
231.9289
 20
-290.3131
 10
231.9405
 20
-290.3352
 10
231.9461
 20
-290.3592
 10
231.9452
 20
-290.3834
 10
231.9384
 20
-290.4072
 10
231.9261
 20
-290.4298
 10
231.8867
 20
-290.4691
 10
231.8305
 20
-290.4963
 10
231.7678
 20
-290.5054
 10
231.7101
 20
-290.4956
 10
231.6852
 20
-290.4843
 10
231.6638
 20
-290.4692
 10
231.647
 20
-290.4505
 10
231.6353
 20
-290.4284
 10
231.6299
 20
-290.4044
 10
231.6308
 20
-290.3802
 10
231.6376
 20
-290.3564
 10
231.65
 20
-290.3338
 10
231.6893
 20
-290.2945
 10
231.7453
 20
-290.2673
  0
LWPOLYLINE
  5
E2
330
1F
100
AcDbEntity
  8
Layer 1
 62
     7
370
    18
100
AcDbPolyline
 90
       33
 70
     1
 43
0.0
 10
228.8238
 20
-295.9331
 10
228.9779
 20
-296.0133
 10
229.1116
 20
-296.1032
 10
229.2228
 20
-296.2
 10
229.3094
 20
-296.3006
 10
229.369
 20
-296.402
 10
229.3995
 20
-296.5012
 10
229.3988
 20
-296.5952
 10
229.3647
 20
-296.6809
 10
229.2985
 20
-296.7521
 10
229.2058
 20
-296.8043
 10
229.0907
 20
-296.8373
 10
228.9574
 20
-296.8512
 10
228.81
 20
-296.8456
 10
228.6529
 20
-296.8206
 10
228.4901
 20
-296.776
 10
228.3259
 20
-296.7116
 10
228.1717
 20
-296.6314
 10
228.0379
 20
-296.5414
 10
227.9266
 20
-296.4446
 10
227.8401
 20
-296.3441
 10
227.7805
 20
-296.2427
 10
227.7499
 20
-296.1436
 10
227.7506
 20
-296.0497
 10
227.7846
 20
-295.9641
 10
227.8509
 20
-295.8929
 10
227.9436
 20
-295.8407
 10
228.0588
 20
-295.8076
 10
228.1921
 20
-295.7937
 10
228.3395
 20
-295.7992
 10
228.4966
 20
-295.8242
 10
228.6595
 20
-295.8688
 10
228.8238
 20
-295.9331
  0
LWPOLYLINE
  5
E3
330
1F
100
AcDbEntity
  8
Layer 1
 62
     7
370
    18
100
AcDbPolyline
 90
       25
 70
     1
 43
0.0
 10
228.6227
 20
-296.2978
 10
228.6714
 20
-296.3291
 10
228.7044
 20
-296.3716
 10
228.7141
 20
-296.3954
 10
228.7188
 20
-296.42
 10
228.7181
 20
-296.4447
 10
228.7117
 20
-296.4687
 10
228.6999
 20
-296.4904
 10
228.6836
 20
-296.5083
 10
228.6635
 20
-296.5223
 10
228.6404
 20
-296.532
 10
228.588
 20
-296.5381
 10
228.5322
 20
-296.5247
 10
228.4834
 20
-296.4933
 10
228.4503
 20
-296.4506
 10
228.4406
 20
-296.4267
 10
228.4358
 20
-296.4022
 10
228.4365
 20
-296.3775
 10
228.4428
 20
-296.3535
 10
228.4547
 20
-296.3318
 10
228.4711
 20
-296.3138
 10
228.4912
 20
-296.2999
 10
228.5143
 20
-296.2901
 10
228.5667
 20
-296.2842
 10
228.6227
 20
-296.2978
  0
LWPOLYLINE
  5
E4
330
1F
100
AcDbEntity
  8
Layer 1
 62
     7
370
    18
100
AcDbPolyline
 90
       33
 70
     1
 43
0.0
 10
223.1291
 20
-301.6225
 10
223.1362
 20
-301.5927
 10
223.1482
 20
-301.5671
 10
223.1645
 20
-301.5461
 10
223.1844
 20
-301.5301
 10
223.2072
 20
-301.5196
 10
223.2324
 20
-301.5149
 10
223.2593
 20
-301.5163
 10
223.2873
 20
-301.5244
 10
223.3144
 20
-301.5388
 10
223.3388
 20
-301.5583
 10
223.3601
 20
-301.5819
 10
223.3778
 20
-301.6089
 10
223.3914
 20
-301.6385
 10
223.4004
 20
-301.6697
 10
223.4043
 20
-301.7018
 10
223.4028
 20
-301.7339
 10
223.3957
 20
-301.7637
 10
223.3838
 20
-301.7893
 10
223.3676
 20
-301.8103
 10
223.3477
 20
-301.8263
 10
223.3249
 20
-301.8368
 10
223.2997
 20
-301.8415
 10
223.2727
 20
-301.8401
 10
223.2447
 20
-301.832
 10
223.2176
 20
-301.8177
 10
223.1931
 20
-301.7983
 10
223.1718
 20
-301.7747
 10
223.1541
 20
-301.7476
 10
223.1405
 20
-301.718
 10
223.1315
 20
-301.6867
 10
223.1276
 20
-301.6546
 10
223.1291
 20
-301.6225
  0
LWPOLYLINE
  5
E5
330
1F
100
AcDbEntity
  8
Layer 1
 62
     7
370
    18
100
AcDbPolyline
 90
       33
 70
     1
 43
0.0
 10
212.0107
 20
-306.0567
 10
212.1481
 20
-305.891
 10
212.2789
 20
-305.753
 10
212.4004
 20
-305.6447
 10
212.5093
 20
-305.5677
 10
212.6027
 20
-305.5239
 10
212.6775
 20
-305.5151
 10
212.7309
 20
-305.543
 10
212.7596
 20
-305.6095
 10
212.7611
 20
-305.7113
 10
212.7359
 20
-305.84
 10
212.6864
 20
-305.9907
 10
212.6152
 20
-306.158
 10
212.5245
 20
-306.337
 10
212.4168
 20
-306.5223
 10
212.2945
 20
-306.7089
 10
212.1601
 20
-306.8916
 10
212.0226
 20
-307.0573
 10
211.8917
 20
-307.1953
 10
211.7702
 20
-307.3037
 10
211.6613
 20
-307.3807
 10
211.5679
 20
-307.4246
 10
211.4931
 20
-307.4334
 10
211.4398
 20
-307.4054
 10
211.4111
 20
-307.3388
 10
211.4097
 20
-307.237
 10
211.4349
 20
-307.1083
 10
211.4843
 20
-306.9576
 10
211.5556
 20
-306.7903
 10
211.6463
 20
-306.6113
 10
211.754
 20
-306.426
 10
211.8763
 20
-306.2394
 10
212.0107
 20
-306.0567
  0
LWPOLYLINE
  5
E6
330
1F
100
AcDbEntity
  8
Layer 1
 62
     7
370
    18
100
AcDbPolyline
 90
       21
 70
     1
 43
0.0
 10
212.0997
 20
-306.4086
 10
212.1465
 20
-306.3579
 10
212.1906
 20
-306.3297
 10
212.21
 20
-306.3246
 10
212.2269
 20
-306.3258
 10
212.2406
 20
-306.3337
 10
212.2505
 20
-306.3483
 10
212.2564
 20
-306.3944
 10
212.2444
 20
-306.4543
 10
212.2167
 20
-306.5204
 10
212.1758
 20
-306.585
 10
212.1288
 20
-306.6357
 10
212.0848
 20
-306.6639
 10
212.0654
 20
-306.6689
 10
212.0486
 20
-306.6675
 10
212.0349
 20
-306.6596
 10
212.025
 20
-306.6448
 10
212.0189
 20
-306.5988
 10
212.0309
 20
-306.5391
 10
212.0587
 20
-306.4731
 10
212.0997
 20
-306.4086
  0
LWPOLYLINE
  5
E7
330
1F
100
AcDbEntity
  8
Layer 1
 62
     7
370
    18
100
AcDbPolyline
 90
       33
 70
     1
 43
0.0
 10
208.4672
 20
-301.7558
 10
208.6654
 20
-301.6758
 10
208.8459
 20
-301.6184
 10
209.0051
 20
-301.5837
 10
209.1395
 20
-301.5718
 10
209.2454
 20
-301.5825
 10
209.3192
 20
-301.616
 10
209.3575
 20
-301.6723
 10
209.3566
 20
-301.7513
 10
209.3154
 20
-301.8482
 10
209.2379
 20
-301.9559
 10
209.1285
 20
-302.0707
 10
208.9917
 20
-302.1892
 10
208.8319
 20
-302.3077
 10
208.6535
 20
-302.4229
 10
208.4608
 20
-302.5311
 10
208.2584
 20
-302.6289
 10
208.0602
 20
-302.7091
 10
207.8798
 20
-302.7665
 10
207.7206
 20
-302.8013
 10
207.5863
 20
-302.8133
 10
207.4804
 20
-302.8026
 10
207.4066
 20
-302.7691
 10
207.3683
 20
-302.7128
 10
207.3691
 20
-302.6338
 10
207.4103
 20
-302.5368
 10
207.4878
 20
-302.4292
 10
207.5971
 20
-302.3143
 10
207.7339
 20
-302.1958
 10
207.8937
 20
-302.0772
 10
208.0722
 20
-301.962
 10
208.2648
 20
-301.8537
 10
208.4672
 20
-301.7558
  0
LWPOLYLINE
  5
E8
330
1F
100
AcDbEntity
  8
Layer 1
 62
     7
370
    18
100
AcDbPolyline
 90
       21
 70
     1
 43
0.0
 10
208.4037
 20
-302.1383
 10
208.4688
 20
-302.1165
 10
208.5219
 20
-302.1144
 10
208.5422
 20
-302.1205
 10
208.5575
 20
-302.1311
 10
208.567
 20
-302.1462
 10
208.5702
 20
-302.1657
 10
208.5565
 20
-302.2125
 10
208.5202
 20
-302.2623
 10
208.4666
 20
-302.3093
 10
208.4012
 20
-302.3477
 10
208.3361
 20
-302.3695
 10
208.283
 20
-302.3715
 10
208.2627
 20
-302.3654
 10
208.2474
 20
-302.3547
 10
208.2379
 20
-302.3395
 10
208.2347
 20
-302.3199
 10
208.2484
 20
-302.2732
 10
208.2847
 20
-302.2235
 10
208.3383
 20
-302.1766
 10
208.4037
 20
-302.1383
  0
LWPOLYLINE
  5
E9
330
1F
100
AcDbEntity
  8
Layer 1
 62
     7
370
    18
100
AcDbPolyline
 90
       33
 70
     1
 43
0.0
 10
214.8453
 20
-289.5737
 10
214.981
 20
-289.7341
 10
215.0895
 20
-289.895
 10
215.1698
 20
-290.0521
 10
215.2209
 20
-290.2012
 10
215.2417
 20
-290.3381
 10
215.231
 20
-290.4585
 10
215.1879
 20
-290.5581
 10
215.1113
 20
-290.6327
 10
215.0054
 20
-290.6762
 10
214.8784
 20
-290.6866
 10
214.7351
 20
-290.6657
 10
214.5803
 20
-290.6156
 10
214.4185
 20
-290.538
 10
214.2546
 20
-290.4349
 10
214.0932
 20
-290.3082
 10
213.9391
 20
-290.1598
 10
213.8034
 20
-289.9995
 10
213.6949
 20
-289.8387
 10
213.6146
 20
-289.6816
 10
213.5635
 20
-289.5324
 10
213.5427
 20
-289.3955
 10
213.5534
 20
-289.2751
 10
213.5965
 20
-289.1754
 10
213.6731
 20
-289.1008
 10
213.779
 20
-289.0574
 10
213.906
 20
-289.0471
 10
214.0492
 20
-289.068
 10
214.204
 20
-289.1181
 10
214.3658
 20
-289.1957
 10
214.5297
 20
-289.2987
 10
214.6911
 20
-289.4254
 10
214.8453
 20
-289.5737
  0
LWPOLYLINE
  5
EA
330
1F
100
AcDbEntity
  8
Layer 1
 62
     7
370
    18
100
AcDbPolyline
 90
       33
 70
     1
 43
0.0
 10
214.4566
 20
-289.864
 10
214.4795
 20
-289.8915
 10
214.4969
 20
-289.921
 10
214.5086
 20
-289.9516
 10
214.5146
 20
-289.9824
 10
214.5147
 20
-290.0124
 10
214.5088
 20
-290.0409
 10
214.497
 20
-290.0667
 10
214.479
 20
-290.0891
 10
214.456
 20
-290.1065
 10
214.4297
 20
-290.1177
 10
214.401
 20
-290.1228
 10
214.3708
 20
-290.1219
 10
214.34
 20
-290.1152
 10
214.3096
 20
-290.1028
 10
214.2804
 20
-290.0848
 10
214.2534
 20
-290.0613
 10
214.2305
 20
-290.0338
 10
214.2132
 20
-290.0042
 10
214.2015
 20
-289.9736
 10
214.1956
 20
-289.9428
 10
214.1956
 20
-289.9127
 10
214.2014
 20
-289.8842
 10
214.2132
 20
-289.8583
 10
214.2311
 20
-289.8358
 10
214.2541
 20
-289.8186
 10
214.2804
 20
-289.8075
 10
214.3091
 20
-289.8024
 10
214.3393
 20
-289.8033
 10
214.37
 20
-289.81
 10
214.4004
 20
-289.8224
 10
214.4296
 20
-289.8405
 10
214.4566
 20
-289.864
  0
LWPOLYLINE
  5
EB
330
1F
100
AcDbEntity
  8
Layer 1
 62
     7
370
    18
100
AcDbPolyline
 90
       33
 70
     1
 43
0.0
 10
211.2844
 20
-309.3133
 10
211.3912
 20
-309.135
 10
211.5008
 20
-308.9882
 10
211.6099
 20
-308.8749
 10
211.7157
 20
-308.7967
 10
211.815
 20
-308.7554
 10
211.9048
 20
-308.7529
 10
211.9821
 20
-308.7908
 10
212.0438
 20
-308.871
 10
212.085
 20
-308.9892
 10
212.1036
 20
-309.136
 10
212.1005
 20
-309.3057
 10
212.0767
 20
-309.4927
 10
212.0333
 20
-309.6911
 10
211.9712
 20
-309.8952
 10
211.8914
 20
-310.0994
 10
211.7949
 20
-310.2978
 10
211.6882
 20
-310.4761
 10
211.5787
 20
-310.6229
 10
211.4695
 20
-310.7362
 10
211.3638
 20
-310.8144
 10
211.2644
 20
-310.8557
 10
211.1746
 20
-310.8582
 10
211.0974
 20
-310.8203
 10
211.0358
 20
-310.7401
 10
210.9946
 20
-310.6219
 10
210.976
 20
-310.4751
 10
210.9791
 20
-310.3054
 10
211.0028
 20
-310.1184
 10
211.0462
 20
-309.92
 10
211.1083
 20
-309.7159
 10
211.188
 20
-309.5117
 10
211.2844
 20
-309.3133
  0
LWPOLYLINE
  5
EC
330
1F
100
AcDbEntity
  8
Layer 1
 62
     7
370
    18
100
AcDbPolyline
 90
       29
 70
     1
 43
0.0
 10
211.5319
 20
-309.7306
 10
211.5503
 20
-309.7005
 10
211.5706
 20
-309.6766
 10
211.5922
 20
-309.6592
 10
211.6145
 20
-309.6484
 10
211.6367
 20
-309.6445
 10
211.6582
 20
-309.6478
 10
211.6783
 20
-309.6584
 10
211.6964
 20
-309.6766
 10
211.7112
 20
-309.7012
 10
211.7216
 20
-309.7304
 10
211.7279
 20
-309.7632
 10
211.7299
 20
-309.7985
 10
211.721
 20
-309.8723
 10
211.695
 20
-309.9432
 10
211.6767
 20
-309.9734
 10
211.6564
 20
-309.9973
 10
211.6348
 20
-310.0148
 10
211.6125
 20
-310.0255
 10
211.5903
 20
-310.0294
 10
211.5688
 20
-310.0261
 10
211.5486
 20
-310.0156
 10
211.5305
 20
-309.9975
 10
211.5158
 20
-309.9728
 10
211.5053
 20
-309.9435
 10
211.4991
 20
-309.9106
 10
211.4972
 20
-309.8753
 10
211.5061
 20
-309.8015
 10
211.5319
 20
-309.7306
  0
LWPOLYLINE
  5
ED
330
1F
100
AcDbEntity
  8
Layer 1
 62
     7
370
    18
100
AcDbPolyline
 90
       33
 70
     1
 43
0.0
 10
216.8897
 20
-291.2083
 10
216.9452
 20
-291.4079
 10
217.0472
 20
-291.5689
 10
217.19
 20
-291.6894
 10
217.3678
 20
-291.7679
 10
217.5749
 20
-291.8025
 10
217.8055
 20
-291.7917
 10
218.0541
 20
-291.7337
 10
218.3147
 20
-291.6269
 10
218.5692
 20
-291.4772
 10
218.8005
 20
-291.2963
 10
219.004
 20
-291.0909
 10
219.1751
 20
-290.8679
 10
219.3094
 20
-290.634
 10
219.4023
 20
-290.3961
 10
219.4492
 20
-290.1609
 10
219.4456
 20
-289.9353
 10
219.3901
 20
-289.7357
 10
219.2881
 20
-289.5747
 10
219.1453
 20
-289.4542
 10
218.9675
 20
-289.3758
 10
218.7604
 20
-289.3411
 10
218.5298
 20
-289.3519
 10
218.2813
 20
-289.4099
 10
218.0207
 20
-289.5167
 10
217.7662
 20
-289.6664
 10
217.5348
 20
-289.8473
 10
217.3313
 20
-290.0527
 10
217.16
 20
-290.2757
 10
217.0257
 20
-290.5096
 10
216.9328
 20
-290.7475
 10
216.886
 20
-290.9827
 10
216.8897
 20
-291.2083
  0
LWPOLYLINE
  5
EE
330
1F
100
AcDbEntity
  8
Layer 1
 62
     7
370
    18
100
AcDbPolyline
 90
       29
 70
     1
 43
0.0
 10
218.4791
 20
-291.0754
 10
218.486
 20
-291.0998
 10
218.4985
 20
-291.1195
 10
218.5159
 20
-291.1343
 10
218.5377
 20
-291.1439
 10
218.5631
 20
-291.1482
 10
218.5913
 20
-291.1469
 10
218.6217
 20
-291.1399
 10
218.6537
 20
-291.1269
 10
218.7133
 20
-291.0863
 10
218.7593
 20
-291.0337
 10
218.7758
 20
-291.0051
 10
218.7871
 20
-290.9759
 10
218.7928
 20
-290.9471
 10
218.7923
 20
-290.9195
 10
218.7856
 20
-290.895
 10
218.7731
 20
-290.8753
 10
218.7556
 20
-290.8605
 10
218.7338
 20
-290.8509
 10
218.7084
 20
-290.8467
 10
218.6802
 20
-290.848
 10
218.6497
 20
-290.8552
 10
218.6177
 20
-290.8683
 10
218.5581
 20
-290.9087
 10
218.5123
 20
-290.9611
 10
218.4958
 20
-290.9898
 10
218.4844
 20
-291.0189
 10
218.4787
 20
-291.0478
 10
218.4791
 20
-291.0754
  0
LWPOLYLINE
  5
EF
330
1F
100
AcDbEntity
  8
Layer 1
 62
     7
370
    18
100
AcDbPolyline
 90
       33
 70
     1
 43
0.0
 10
221.8899
 20
-288.0847
 10
221.9454
 20
-288.2845
 10
222.0474
 20
-288.4454
 10
222.1902
 20
-288.566
 10
222.368
 20
-288.6444
 10
222.5751
 20
-288.679
 10
222.8057
 20
-288.6682
 10
223.0542
 20
-288.6101
 10
223.3148
 20
-288.5033
 10
223.5693
 20
-288.3536
 10
223.8006
 20
-288.1727
 10
224.0041
 20
-287.9673
 10
224.1753
 20
-287.7443
 10
224.3096
 20
-287.5105
 10
224.4025
 20
-287.2726
 10
224.4494
 20
-287.0375
 10
224.4458
 20
-286.812
 10
224.3903
 20
-286.6122
 10
224.2883
 20
-286.4513
 10
224.1455
 20
-286.3307
 10
223.9677
 20
-286.2523
 10
223.7606
 20
-286.2177
 10
223.53
 20
-286.2285
 10
223.2814
 20
-286.2866
 10
223.0208
 20
-286.3934
 10
222.7663
 20
-286.5431
 10
222.535
 20
-286.724
 10
222.3314
 20
-286.9294
 10
222.1602
 20
-287.1524
 10
222.0259
 20
-287.3862
 10
221.933
 20
-287.6241
 10
221.8862
 20
-287.8592
 10
221.8899
 20
-288.0847
  0
LWPOLYLINE
  5
F0
330
1F
100
AcDbEntity
  8
Layer 1
 62
     7
370
    18
100
AcDbPolyline
 90
       29
 70
     1
 43
0.0
 10
223.4793
 20
-287.9521
 10
223.4862
 20
-287.9765
 10
223.4987
 20
-287.9962
 10
223.5161
 20
-288.011
 10
223.5379
 20
-288.0206
 10
223.5633
 20
-288.0248
 10
223.5915
 20
-288.0235
 10
223.6219
 20
-288.0163
 10
223.6539
 20
-288.0032
 10
223.7135
 20
-287.9627
 10
223.7594
 20
-287.9103
 10
223.7758
 20
-287.8817
 10
223.7872
 20
-287.8526
 10
223.7929
 20
-287.8238
 10
223.7925
 20
-287.7962
 10
223.7857
 20
-287.7716
 10
223.7733
 20
-287.7518
 10
223.7558
 20
-287.737
 10
223.734
 20
-287.7274
 10
223.7086
 20
-287.7231
 10
223.6803
 20
-287.7244
 10
223.6499
 20
-287.7316
 10
223.6179
 20
-287.7447
 10
223.5583
 20
-287.7852
 10
223.5125
 20
-287.8378
 10
223.496
 20
-287.8665
 10
223.4846
 20
-287.8956
 10
223.4789
 20
-287.9245
 10
223.4793
 20
-287.9521
  0
LWPOLYLINE
  5
F1
330
1F
100
AcDbEntity
  8
Layer 1
 62
     7
370
    18
100
AcDbPolyline
 90
       33
 70
     1
 43
0.0
 10
225.8694
 20
-287.9274
 10
225.9249
 20
-288.127
 10
226.0269
 20
-288.288
 10
226.1697
 20
-288.4085
 10
226.3475
 20
-288.487
 10
226.5546
 20
-288.5216
 10
226.7853
 20
-288.5108
 10
227.0338
 20
-288.4528
 10
227.2944
 20
-288.346
 10
227.5489
 20
-288.1963
 10
227.7803
 20
-288.0154
 10
227.9838
 20
-287.81
 10
228.155
 20
-287.587
 10
228.2893
 20
-287.3532
 10
228.3822
 20
-287.1153
 10
228.4291
 20
-286.8802
 10
228.4254
 20
-286.6547
 10
228.3699
 20
-286.4549
 10
228.2679
 20
-286.294
 10
228.1251
 20
-286.1734
 10
227.9473
 20
-286.095
 10
227.7402
 20
-286.0604
 10
227.5096
 20
-286.0712
 10
227.2612
 20
-286.1293
 10
227.0007
 20
-286.2361
 10
226.7461
 20
-286.3858
 10
226.5147
 20
-286.5667
 10
226.3111
 20
-286.7721
 10
226.1399
 20
-286.9951
 10
226.0056
 20
-287.2289
 10
225.9127
 20
-287.4668
 10
225.8658
 20
-287.7019
 10
225.8694
 20
-287.9274
  0
LWPOLYLINE
  5
F2
330
1F
100
AcDbEntity
  8
Layer 1
 62
     7
370
    18
100
AcDbPolyline
 90
       29
 70
     1
 43
0.0
 10
227.4589
 20
-287.7948
 10
227.4658
 20
-287.8192
 10
227.4783
 20
-287.8389
 10
227.4958
 20
-287.8537
 10
227.5176
 20
-287.8633
 10
227.543
 20
-287.8675
 10
227.5712
 20
-287.8662
 10
227.6016
 20
-287.859
 10
227.6334
 20
-287.8459
 10
227.693
 20
-287.8054
 10
227.739
 20
-287.7529
 10
227.7555
 20
-287.7243
 10
227.7669
 20
-287.6951
 10
227.7726
 20
-287.6662
 10
227.7721
 20
-287.6385
 10
227.7653
 20
-287.6141
 10
227.7529
 20
-287.5944
 10
227.7354
 20
-287.5796
 10
227.7136
 20
-287.57
 10
227.6882
 20
-287.5658
 10
227.6599
 20
-287.5671
 10
227.6295
 20
-287.5743
 10
227.5975
 20
-287.5874
 10
227.5381
 20
-287.6279
 10
227.4922
 20
-287.6804
 10
227.4757
 20
-287.709
 10
227.4643
 20
-287.7382
 10
227.4585
 20
-287.7671
 10
227.4589
 20
-287.7948
  0
LWPOLYLINE
  5
F3
330
1F
100
AcDbEntity
  8
Layer 1
 62
     7
370
    18
100
AcDbPolyline
 90
       33
 70
     1
 43
0.0
 10
227.3957
 20
-290.7385
 10
227.4512
 20
-290.9381
 10
227.5532
 20
-291.0991
 10
227.696
 20
-291.2196
 10
227.8738
 20
-291.2981
 10
228.0809
 20
-291.3327
 10
228.3115
 20
-291.3219
 10
228.56
 20
-291.2639
 10
228.8206
 20
-291.1571
 10
229.0751
 20
-291.0074
 10
229.3064
 20
-290.8265
 10
229.5099
 20
-290.6212
 10
229.6811
 20
-290.3982
 10
229.8154
 20
-290.1643
 10
229.9083
 20
-289.9265
 10
229.9552
 20
-289.6914
 10
229.9516
 20
-289.4659
 10
229.8961
 20
-289.2661
 10
229.7941
 20
-289.1051
 10
229.6513
 20
-288.9845
 10
229.4735
 20
-288.906
 10
229.2664
 20
-288.8713
 10
229.0358
 20
-288.8821
 10
228.7872
 20
-288.9401
 10
228.5266
 20
-289.0469
 10
228.2721
 20
-289.1966
 10
228.0407
 20
-289.3775
 10
227.8372
 20
-289.5829
 10
227.666
 20
-289.8059
 10
227.5317
 20
-290.0398
 10
227.4388
 20
-290.2777
 10
227.392
 20
-290.5129
 10
227.3957
 20
-290.7385
  0
LWPOLYLINE
  5
F4
330
1F
100
AcDbEntity
  8
Layer 1
 62
     7
370
    18
100
AcDbPolyline
 90
       29
 70
     1
 43
0.0
 10
228.9851
 20
-290.6056
 10
228.9919
 20
-290.6301
 10
229.0043
 20
-290.6499
 10
229.0218
 20
-290.6647
 10
229.0436
 20
-290.6744
 10
229.069
 20
-290.6786
 10
229.0973
 20
-290.6773
 10
229.1277
 20
-290.6702
 10
229.1597
 20
-290.6571
 10
229.2193
 20
-290.6165
 10
229.2652
 20
-290.5639
 10
229.2816
 20
-290.5353
 10
229.293
 20
-290.5061
 10
229.2987
 20
-290.4773
 10
229.2983
 20
-290.4497
 10
229.2915
 20
-290.4252
 10
229.2791
 20
-290.4055
 10
229.2616
 20
-290.3908
 10
229.2398
 20
-290.3812
 10
229.2144
 20
-290.3769
 10
229.1861
 20
-290.3783
 10
229.1557
 20
-290.3854
 10
229.1237
 20
-290.3985
 10
229.0641
 20
-290.439
 10
229.0183
 20
-290.4915
 10
229.0018
 20
-290.5201
 10
228.9904
 20
-290.5492
 10
228.9847
 20
-290.578
 10
228.9851
 20
-290.6056
  0
LWPOLYLINE
  5
F5
330
1F
100
AcDbEntity
  8
Layer 1
 62
     7
370
    18
100
AcDbPolyline
 90
       33
 70
     1
 43
0.0
 10
212.8124
 20
-296.0531
 10
212.868
 20
-296.2528
 10
212.9701
 20
-296.4137
 10
213.1129
 20
-296.5343
 10
213.2907
 20
-296.6127
 10
213.4978
 20
-296.6474
 10
213.7284
 20
-296.6366
 10
213.9768
 20
-296.5786
 10
214.2373
 20
-296.4718
 10
214.492
 20
-296.3221
 10
214.7234
 20
-296.1412
 10
214.9269
 20
-295.9358
 10
215.0982
 20
-295.7128
 10
215.2325
 20
-295.479
 10
215.3254
 20
-295.2411
 10
215.3723
 20
-295.006
 10
215.3687
 20
-294.7805
 10
215.3132
 20
-294.5807
 10
215.2112
 20
-294.4197
 10
215.0684
 20
-294.2991
 10
214.8906
 20
-294.2206
 10
214.6835
 20
-294.1859
 10
214.4528
 20
-294.1967
 10
214.2043
 20
-294.2547
 10
213.9437
 20
-294.3615
 10
213.6892
 20
-294.5112
 10
213.4578
 20
-294.6921
 10
213.2543
 20
-294.8975
 10
213.083
 20
-295.1205
 10
212.9487
 20
-295.3544
 10
212.8558
 20
-295.5923
 10
212.8088
 20
-295.8275
 10
212.8124
 20
-296.0531
  0
LWPOLYLINE
  5
F6
330
1F
100
AcDbEntity
  8
Layer 1
 62
     7
370
    18
100
AcDbPolyline
 90
       29
 70
     1
 43
0.0
 10
214.4022
 20
-295.9202
 10
214.4089
 20
-295.9448
 10
214.4214
 20
-295.9646
 10
214.4388
 20
-295.9794
 10
214.4606
 20
-295.989
 10
214.486
 20
-295.9933
 10
214.5143
 20
-295.992
 10
214.5447
 20
-295.9848
 10
214.5767
 20
-295.9717
 10
214.6363
 20
-295.9311
 10
214.6822
 20
-295.8786
 10
214.6986
 20
-295.8499
 10
214.71
 20
-295.8207
 10
214.7158
 20
-295.7919
 10
214.7154
 20
-295.7643
 10
214.7085
 20
-295.7399
 10
214.696
 20
-295.7202
 10
214.6785
 20
-295.7054
 10
214.6568
 20
-295.6958
 10
214.6314
 20
-295.6916
 10
214.6032
 20
-295.6929
 10
214.5727
 20
-295.7
 10
214.5408
 20
-295.7131
 10
214.4812
 20
-295.7537
 10
214.4352
 20
-295.8061
 10
214.4187
 20
-295.8347
 10
214.4074
 20
-295.8638
 10
214.4017
 20
-295.8926
 10
214.4022
 20
-295.9202
  0
LWPOLYLINE
  5
F7
330
1F
100
AcDbEntity
  8
Layer 1
 62
     7
370
    18
100
AcDbPolyline
 90
       33
 70
     1
 43
0.0
 10
211.4701
 20
-300.6366
 10
211.5258
 20
-300.8364
 10
211.6279
 20
-300.9974
 10
211.7707
 20
-301.1179
 10
211.9485
 20
-301.1964
 10
212.1556
 20
-301.231
 10
212.3862
 20
-301.2201
 10
212.6346
 20
-301.1621
 10
212.8951
 20
-301.0553
 10
213.1497
 20
-300.9056
 10
213.3811
 20
-300.7247
 10
213.5847
 20
-300.5193
 10
213.7559
 20
-300.2963
 10
213.8902
 20
-300.0625
 10
213.9831
 20
-299.8246
 10
214.03
 20
-299.5895
 10
214.0264
 20
-299.364
 10
213.9709
 20
-299.1642
 10
213.8688
 20
-299.0033
 10
213.726
 20
-298.8827
 10
213.5482
 20
-298.8043
 10
213.3411
 20
-298.7697
 10
213.1104
 20
-298.7805
 10
212.862
 20
-298.8386
 10
212.6015
 20
-298.9454
 10
212.3468
 20
-299.0951
 10
212.1154
 20
-299.276
 10
211.9119
 20
-299.4813
 10
211.7406
 20
-299.7043
 10
211.6063
 20
-299.9382
 10
211.5134
 20
-300.176
 10
211.4665
 20
-300.4111
 10
211.4701
 20
-300.6366
  0
LWPOLYLINE
  5
F8
330
1F
100
AcDbEntity
  8
Layer 1
 62
     7
370
    18
100
AcDbPolyline
 90
       29
 70
     1
 43
0.0
 10
213.0599
 20
-300.504
 10
213.0667
 20
-300.5285
 10
213.0791
 20
-300.5482
 10
213.0966
 20
-300.563
 10
213.1184
 20
-300.5726
 10
213.1438
 20
-300.5768
 10
213.1721
 20
-300.5755
 10
213.2025
 20
-300.5683
 10
213.2345
 20
-300.5552
 10
213.2941
 20
-300.5147
 10
213.34
 20
-300.4623
 10
213.3564
 20
-300.4336
 10
213.3678
 20
-300.4045
 10
213.3735
 20
-300.3757
 10
213.3731
 20
-300.3481
 10
213.3662
 20
-300.3236
 10
213.3537
 20
-300.3038
 10
213.3362
 20
-300.289
 10
213.3144
 20
-300.2793
 10
213.289
 20
-300.2751
 10
213.2608
 20
-300.2764
 10
213.2304
 20
-300.2835
 10
213.1985
 20
-300.2966
 10
213.1389
 20
-300.3372
 10
213.093
 20
-300.3898
 10
213.0765
 20
-300.4184
 10
213.0651
 20
-300.4476
 10
213.0594
 20
-300.4764
 10
213.0599
 20
-300.504
  0
LWPOLYLINE
  5
F9
330
1F
100
AcDbEntity
  8
Layer 1
 62
     7
370
    18
100
AcDbPolyline
 90
       33
 70
     1
 43
0.0
 10
213.1853
 20
-303.1854
 10
213.2408
 20
-303.3852
 10
213.3428
 20
-303.5461
 10
213.4856
 20
-303.6667
 10
213.6634
 20
-303.7451
 10
213.8705
 20
-303.7797
 10
214.1011
 20
-303.7689
 10
214.3497
 20
-303.7108
 10
214.6103
 20
-303.604
 10
214.8649
 20
-303.4544
 10
215.0963
 20
-303.2735
 10
215.2999
 20
-303.0682
 10
215.4711
 20
-302.8452
 10
215.6054
 20
-302.6113
 10
215.6983
 20
-302.3734
 10
215.7452
 20
-302.1383
 10
215.7416
 20
-301.9128
 10
215.6859
 20
-301.7131
 10
215.5838
 20
-301.5522
 10
215.441
 20
-301.4316
 10
215.2632
 20
-301.3532
 10
215.0561
 20
-301.3185
 10
214.8255
 20
-301.3293
 10
214.5771
 20
-301.3873
 10
214.3166
 20
-301.4941
 10
214.062
 20
-301.6438
 10
213.8306
 20
-301.8247
 10
213.627
 20
-302.0301
 10
213.4558
 20
-302.2531
 10
213.3215
 20
-302.4869
 10
213.2286
 20
-302.7248
 10
213.1817
 20
-302.9599
 10
213.1853
 20
-303.1854
  0
LWPOLYLINE
  5
FA
330
1F
100
AcDbEntity
  8
Layer 1
 62
     7
370
    18
100
AcDbPolyline
 90
       29
 70
     1
 43
0.0
 10
214.7751
 20
-303.0528
 10
214.7818
 20
-303.0772
 10
214.7943
 20
-303.0969
 10
214.8118
 20
-303.1117
 10
214.8336
 20
-303.1213
 10
214.859
 20
-303.1255
 10
214.8872
 20
-303.1242
 10
214.9177
 20
-303.1171
 10
214.9497
 20
-303.104
 10
215.0091
 20
-303.0636
 10
215.055
 20
-303.0111
 10
215.0715
 20
-302.9824
 10
215.0829
 20
-302.9533
 10
215.0887
 20
-302.9245
 10
215.0883
 20
-302.8969
 10
215.0814
 20
-302.8725
 10
215.0689
 20
-302.8528
 10
215.0513
 20
-302.838
 10
215.0295
 20
-302.8284
 10
215.0041
 20
-302.8241
 10
214.9758
 20
-302.8254
 10
214.9453
 20
-302.8324
 10
214.9133
 20
-302.8454
 10
214.8539
 20
-302.886
 10
214.8081
 20
-302.9385
 10
214.7916
 20
-302.9672
 10
214.7803
 20
-302.9964
 10
214.7746
 20
-303.0252
 10
214.7751
 20
-303.0528
  0
LWPOLYLINE
  5
FB
330
1F
100
AcDbEntity
  8
Layer 1
 62
     7
370
    18
100
AcDbPolyline
 90
       33
 70
     1
 43
0.0
 10
217.0657
 20
-302.9898
 10
217.1212
 20
-303.1896
 10
217.2232
 20
-303.3505
 10
217.366
 20
-303.4711
 10
217.5438
 20
-303.5495
 10
217.7509
 20
-303.5841
 10
217.9815
 20
-303.5733
 10
218.23
 20
-303.5153
 10
218.4906
 20
-303.4085
 10
218.7451
 20
-303.2588
 10
218.9764
 20
-303.0779
 10
219.1799
 20
-302.8725
 10
219.3511
 20
-302.6495
 10
219.4854
 20
-302.4156
 10
219.5783
 20
-302.1778
 10
219.6252
 20
-301.9427
 10
219.6216
 20
-301.7172
 10
219.5661
 20
-301.5174
 10
219.4641
 20
-301.3565
 10
219.3213
 20
-301.2359
 10
219.1435
 20
-301.1575
 10
218.9364
 20
-301.1229
 10
218.7058
 20
-301.1337
 10
218.4572
 20
-301.1917
 10
218.1966
 20
-301.2985
 10
217.9421
 20
-301.4482
 10
217.7108
 20
-301.6291
 10
217.5072
 20
-301.8345
 10
217.336
 20
-302.0575
 10
217.2017
 20
-302.2914
 10
217.1088
 20
-302.5292
 10
217.062
 20
-302.7643
 10
217.0657
 20
-302.9898
  0
LWPOLYLINE
  5
FC
330
1F
100
AcDbEntity
  8
Layer 1
 62
     7
370
    18
100
AcDbPolyline
 90
       29
 70
     1
 43
0.0
 10
218.6551
 20
-302.8572
 10
218.6619
 20
-302.8817
 10
218.6743
 20
-302.9014
 10
218.6918
 20
-302.9161
 10
218.7136
 20
-302.9257
 10
218.739
 20
-302.93
 10
218.7673
 20
-302.9286
 10
218.7977
 20
-302.9215
 10
218.8297
 20
-302.9084
 10
218.8893
 20
-302.8679
 10
218.9352
 20
-302.8154
 10
218.9516
 20
-302.7868
 10
218.963
 20
-302.7577
 10
218.9687
 20
-302.7289
 10
218.9683
 20
-302.7013
 10
218.9615
 20
-302.6767
 10
218.9491
 20
-302.6569
 10
218.9316
 20
-302.6421
 10
218.9098
 20
-302.6325
 10
218.8844
 20
-302.6282
 10
218.8561
 20
-302.6296
 10
218.8257
 20
-302.6367
 10
218.7937
 20
-302.6498
 10
218.7341
 20
-302.6903
 10
218.6883
 20
-302.7428
 10
218.6718
 20
-302.7715
 10
218.6604
 20
-302.8006
 10
218.6547
 20
-302.8295
 10
218.6551
 20
-302.8572
  0
LWPOLYLINE
  5
FD
330
1F
100
AcDbEntity
  8
Layer 1
 62
     7
370
    18
100
AcDbPolyline
 90
       33
 70
     1
 43
0.0
 10
222.1793
 20
-299.7966
 10
222.2248
 20
-299.96
 10
222.3083
 20
-300.0916
 10
222.4251
 20
-300.1902
 10
222.5706
 20
-300.2543
 10
222.74
 20
-300.2827
 10
222.9286
 20
-300.2738
 10
223.1318
 20
-300.2264
 10
223.3449
 20
-300.139
 10
223.5532
 20
-300.0166
 10
223.7424
 20
-299.8686
 10
223.9089
 20
-299.7006
 10
224.049
 20
-299.5182
 10
224.1588
 20
-299.327
 10
224.2348
 20
-299.1324
 10
224.2732
 20
-298.9401
 10
224.2702
 20
-298.7557
 10
224.2247
 20
-298.5923
 10
224.1412
 20
-298.4606
 10
224.0244
 20
-298.3619
 10
223.879
 20
-298.2978
 10
223.7095
 20
-298.2694
 10
223.5209
 20
-298.2783
 10
223.3177
 20
-298.3258
 10
223.1046
 20
-298.4133
 10
222.8963
 20
-298.5357
 10
222.7071
 20
-298.6837
 10
222.5406
 20
-298.8517
 10
222.4005
 20
-299.0341
 10
222.2907
 20
-299.2253
 10
222.2147
 20
-299.4199
 10
222.1763
 20
-299.6122
 10
222.1793
 20
-299.7966
  0
LWPOLYLINE
  5
FE
330
1F
100
AcDbEntity
  8
Layer 1
 62
     7
370
    18
100
AcDbPolyline
 90
       21
 70
     1
 43
0.0
 10
223.4797
 20
-299.688
 10
223.4852
 20
-299.708
 10
223.4954
 20
-299.7242
 10
223.5097
 20
-299.7363
 10
223.5275
 20
-299.7442
 10
223.5714
 20
-299.7466
 10
223.6225
 20
-299.7301
 10
223.6711
 20
-299.6968
 10
223.7086
 20
-299.6538
 10
223.7314
 20
-299.6066
 10
223.7356
 20
-299.5606
 10
223.7301
 20
-299.5406
 10
223.7199
 20
-299.5244
 10
223.7056
 20
-299.5124
 10
223.6878
 20
-299.5045
 10
223.6439
 20
-299.5021
 10
223.5928
 20
-299.5185
 10
223.5442
 20
-299.5516
 10
223.5067
 20
-299.5945
 10
223.4839
 20
-299.6418
 10
223.4797
 20
-299.688
  0
LWPOLYLINE
  5
FF
330
1F
100
AcDbEntity
  8
Layer 1
 62
     7
370
    18
100
AcDbPolyline
 90
       33
 70
     1
 43
0.0
 10
225.7144
 20
-295.2987
 10
225.77
 20
-295.4983
 10
225.8721
 20
-295.6593
 10
226.0149
 20
-295.7798
 10
226.1928
 20
-295.8583
 10
226.3998
 20
-295.8929
 10
226.6305
 20
-295.8821
 10
226.8789
 20
-295.8241
 10
227.1394
 20
-295.7173
 10
227.394
 20
-295.5676
 10
227.6254
 20
-295.3867
 10
227.829
 20
-295.1813
 10
228.0002
 20
-294.9583
 10
228.1345
 20
-294.7244
 10
228.2274
 20
-294.4865
 10
228.2743
 20
-294.2513
 10
228.2707
 20
-294.0257
 10
228.2152
 20
-293.826
 10
228.1131
 20
-293.6651
 10
227.9703
 20
-293.5445
 10
227.7925
 20
-293.4661
 10
227.5853
 20
-293.4315
 10
227.3547
 20
-293.4423
 10
227.1062
 20
-293.5003
 10
226.8457
 20
-293.6071
 10
226.5911
 20
-293.7568
 10
226.3597
 20
-293.9377
 10
226.1561
 20
-294.1431
 10
225.9849
 20
-294.3661
 10
225.8506
 20
-294.6
 10
225.7577
 20
-294.8379
 10
225.7108
 20
-295.0731
 10
225.7144
 20
-295.2987
  0
LWPOLYLINE
  5
100
330
1F
100
AcDbEntity
  8
Layer 1
 62
     7
370
    18
100
AcDbPolyline
 90
       29
 70
     1
 43
0.0
 10
227.3042
 20
-295.1657
 10
227.3109
 20
-295.1902
 10
227.3234
 20
-295.2099
 10
227.3409
 20
-295.2247
 10
227.3627
 20
-295.2343
 10
227.3881
 20
-295.2386
 10
227.4163
 20
-295.2373
 10
227.4468
 20
-295.2302
 10
227.4788
 20
-295.2172
 10
227.5382
 20
-295.1767
 10
227.5841
 20
-295.1241
 10
227.6006
 20
-295.0954
 10
227.612
 20
-295.0663
 10
227.6178
 20
-295.0374
 10
227.6174
 20
-295.0098
 10
227.6105
 20
-294.9854
 10
227.598
 20
-294.9657
 10
227.5804
 20
-294.9509
 10
227.5586
 20
-294.9413
 10
227.5333
 20
-294.9371
 10
227.505
 20
-294.9384
 10
227.4746
 20
-294.9456
 10
227.4428
 20
-294.9587
 10
227.3832
 20
-294.9991
 10
227.3372
 20
-295.0515
 10
227.3207
 20
-295.0802
 10
227.3094
 20
-295.1093
 10
227.3037
 20
-295.1381
 10
227.3042
 20
-295.1657
  0
LWPOLYLINE
  5
101
330
1F
100
AcDbEntity
  8
Layer 1
 62
     7
370
    18
100
AcDbPolyline
 90
       33
 70
     1
 43
0.0
 10
219.9596
 20
-292.0543
 10
219.8004
 20
-291.9917
 10
219.5933
 20
-292.0078
 10
219.347
 20
-292.0971
 10
219.0701
 20
-292.254
 10
218.771
 20
-292.4728
 10
218.4585
 20
-292.7481
 10
218.141
 20
-293.074
 10
217.8272
 20
-293.4452
 10
217.5395
 20
-293.8369
 10
217.2967
 20
-294.2214
 10
217.1023
 20
-294.5891
 10
216.9596
 20
-294.9305
 10
216.8721
 20
-295.2358
 10
216.8432
 20
-295.4955
 10
216.8765
 20
-295.7
 10
216.9752
 20
-295.8395
 10
217.1345
 20
-295.902
 10
217.3415
 20
-295.8858
 10
217.5878
 20
-295.7964
 10
217.8648
 20
-295.6395
 10
218.1638
 20
-295.4206
 10
218.4763
 20
-295.1453
 10
218.7938
 20
-294.8194
 10
219.1076
 20
-294.4482
 10
219.3953
 20
-294.0565
 10
219.6381
 20
-293.672
 10
219.8326
 20
-293.3043
 10
219.9753
 20
-292.963
 10
220.0627
 20
-292.6577
 10
220.0916
 20
-292.398
 10
220.0583
 20
-292.1937
 10
219.9596
 20
-292.0543
  0
LWPOLYLINE
  5
102
330
1F
100
AcDbEntity
  8
Layer 1
 62
     7
370
    18
100
AcDbPolyline
 90
       33
 70
     1
 43
0.0
 10
217.6526
 20
-294.8839
 10
217.7069
 20
-294.8436
 10
217.7633
 20
-294.8127
 10
217.8201
 20
-294.7916
 10
217.8758
 20
-294.7804
 10
217.9286
 20
-294.7792
 10
217.9771
 20
-294.7883
 10
218.0195
 20
-294.8078
 10
218.0542
 20
-294.8379
 10
218.0785
 20
-294.8767
 10
218.0911
 20
-294.9214
 10
218.0925
 20
-294.9705
 10
218.083
 20
-295.0223
 10
218.0632
 20
-295.0753
 10
218.0335
 20
-295.1279
 10
217.9943
 20
-295.1786
 10
217.9459
 20
-295.2259
 10
217.8915
 20
-295.2661
 10
217.8351
 20
-295.2969
 10
217.7783
 20
-295.318
 10
217.7227
 20
-295.3292
 10
217.6699
 20
-295.3304
 10
217.6215
 20
-295.3213
 10
217.5791
 20
-295.3019
 10
217.5444
 20
-295.2719
 10
217.52
 20
-295.2329
 10
217.5073
 20
-295.1882
 10
217.5059
 20
-295.1391
 10
217.5154
 20
-295.0873
 10
217.5352
 20
-295.0343
 10
217.5649
 20
-294.9817
 10
217.6042
 20
-294.9311
 10
217.6526
 20
-294.8839
  0
LWPOLYLINE
  5
103
330
1F
100
AcDbEntity
  8
Layer 1
 62
     7
370
    18
100
AcDbPolyline
 90
       33
 70
     1
 43
0.0
 10
219.189
 20
-293.0029
 10
219.2434
 20
-292.9627
 10
219.2999
 20
-292.9319
 10
219.3567
 20
-292.9108
 10
219.4123
 20
-292.8996
 10
219.4651
 20
-292.8983
 10
219.5134
 20
-292.9074
 10
219.5558
 20
-292.9269
 10
219.5905
 20
-292.957
 10
219.6149
 20
-292.9958
 10
219.6276
 20
-293.0406
 10
219.629
 20
-293.0896
 10
219.6196
 20
-293.1415
 10
219.5998
 20
-293.1945
 10
219.57
 20
-293.2471
 10
219.5307
 20
-293.2978
 10
219.4823
 20
-293.345
 10
219.428
 20
-293.3852
 10
219.3716
 20
-293.4159
 10
219.3148
 20
-293.437
 10
219.2592
 20
-293.4482
 10
219.2063
 20
-293.4494
 10
219.1579
 20
-293.4404
 10
219.1155
 20
-293.4209
 10
219.0807
 20
-293.3909
 10
219.0564
 20
-293.352
 10
219.0438
 20
-293.3072
 10
219.0424
 20
-293.2581
 10
219.0519
 20
-293.2063
 10
219.0717
 20
-293.1533
 10
219.1014
 20
-293.1007
 10
219.1406
 20
-293.0501
 10
219.189
 20
-293.0029
  0
LWPOLYLINE
  5
104
330
1F
100
AcDbEntity
  8
Layer 1
 62
     7
370
    18
100
AcDbPolyline
 90
       33
 70
     1
 43
0.0
 10
225.0356
 20
-290.9616
 10
225.0179
 20
-290.8163
 10
224.928
 20
-290.689
 10
224.7729
 20
-290.582
 10
224.5598
 20
-290.4972
 10
224.2958
 20
-290.437
 10
223.9879
 20
-290.4034
 10
223.6433
 20
-290.3985
 10
223.2691
 20
-290.4246
 10
222.8909
 20
-290.4809
 10
222.5347
 20
-290.5625
 10
222.2083
 20
-290.6656
 10
221.9198
 20
-290.7864
 10
221.677
 20
-290.921
 10
221.4879
 20
-291.0658
 10
221.3603
 20
-291.2169
 10
221.3022
 20
-291.3705
 10
221.3199
 20
-291.5157
 10
221.4098
 20
-291.6429
 10
221.5649
 20
-291.7499
 10
221.778
 20
-291.8347
 10
222.042
 20
-291.8949
 10
222.3499
 20
-291.9285
 10
222.6945
 20
-291.9333
 10
223.0687
 20
-291.9071
 10
223.447
 20
-291.8509
 10
223.8033
 20
-291.7693
 10
224.1296
 20
-291.6663
 10
224.4181
 20
-291.5455
 10
224.6609
 20
-291.4108
 10
224.85
 20
-291.2661
 10
224.9775
 20
-291.1151
 10
225.0356
 20
-290.9616
  0
LWPOLYLINE
  5
105
330
1F
100
AcDbEntity
  8
Layer 1
 62
     7
370
    18
100
AcDbPolyline
 90
       33
 70
     1
 43
0.0
 10
222.2156
 20
-291.2166
 10
222.2639
 20
-291.2273
 10
222.3066
 20
-291.2453
 10
222.3427
 20
-291.2697
 10
222.3716
 20
-291.2996
 10
222.3925
 20
-291.3339
 10
222.4047
 20
-291.3717
 10
222.4075
 20
-291.4121
 10
222.4
 20
-291.454
 10
222.3826
 20
-291.4947
 10
222.3568
 20
-291.5314
 10
222.3237
 20
-291.5633
 10
222.2846
 20
-291.5898
 10
222.2407
 20
-291.6101
 10
222.1933
 20
-291.6236
 10
222.1435
 20
-291.6296
 10
222.0927
 20
-291.6273
 10
222.0444
 20
-291.6166
 10
222.0018
 20
-291.5987
 10
221.9657
 20
-291.5743
 10
221.9368
 20
-291.5445
 10
221.9158
 20
-291.5102
 10
221.9036
 20
-291.4724
 10
221.9009
 20
-291.432
 10
221.9084
 20
-291.39
 10
221.9257
 20
-291.3492
 10
221.9516
 20
-291.3125
 10
221.9846
 20
-291.2806
 10
222.0238
 20
-291.2541
 10
222.0676
 20
-291.2338
 10
222.1151
 20
-291.2203
 10
222.1648
 20
-291.2143
 10
222.2156
 20
-291.2166
  0
LWPOLYLINE
  5
106
330
1F
100
AcDbEntity
  8
Layer 1
 62
     7
370
    18
100
AcDbPolyline
 90
       33
 70
     1
 43
0.0
 10
224.0914
 20
-291.0489
 10
224.1397
 20
-291.0596
 10
224.1823
 20
-291.0776
 10
224.2183
 20
-291.102
 10
224.2472
 20
-291.1319
 10
224.2681
 20
-291.1662
 10
224.2803
 20
-291.2041
 10
224.2832
 20
-291.2445
 10
224.2758
 20
-291.2866
 10
224.2583
 20
-291.3272
 10
224.2324
 20
-291.3638
 10
224.1993
 20
-291.3957
 10
224.1601
 20
-291.4222
 10
224.1162
 20
-291.4425
 10
224.0687
 20
-291.4559
 10
224.019
 20
-291.4619
 10
223.9682
 20
-291.4596
 10
223.9199
 20
-291.4489
 10
223.8773
 20
-291.431
 10
223.8412
 20
-291.4066
 10
223.8123
 20
-291.3768
 10
223.7914
 20
-291.3425
 10
223.7792
 20
-291.3047
 10
223.7764
 20
-291.2643
 10
223.7838
 20
-291.2222
 10
223.8013
 20
-291.1815
 10
223.8272
 20
-291.1448
 10
223.8603
 20
-291.1129
 10
223.8995
 20
-291.0864
 10
223.9434
 20
-291.0661
 10
223.9909
 20
-291.0526
 10
224.0406
 20
-291.0466
 10
224.0914
 20
-291.0489
  0
LWPOLYLINE
  5
107
330
1F
100
AcDbEntity
  8
Layer 1
 62
     7
370
    18
100
AcDbPolyline
 90
       33
 70
     1
 43
0.0
 10
218.8339
 20
-299.4684
 10
218.9558
 20
-299.5665
 10
219.151
 20
-299.6032
 10
219.4096
 20
-299.5815
 10
219.7215
 20
-299.5046
 10
220.0769
 20
-299.3754
 10
220.4657
 20
-299.197
 10
220.8782
 20
-298.9726
 10
221.3043
 20
-298.7052
 10
221.7145
 20
-298.4125
 10
222.0809
 20
-298.1151
 10
222.397
 20
-297.8213
 10
222.6558
 20
-297.5392
 10
222.8506
 20
-297.2767
 10
222.9748
 20
-297.0421
 10
223.0214
 20
-296.8435
 10
222.9838
 20
-296.6889
 10
222.8619
 20
-296.5908
 10
222.6667
 20
-296.5541
 10
222.4082
 20
-296.5758
 10
222.0962
 20
-296.6528
 10
221.7408
 20
-296.782
 10
221.3519
 20
-296.9603
 10
220.9393
 20
-297.1847
 10
220.5131
 20
-297.4521
 10
220.103
 20
-297.745
 10
219.7365
 20
-298.0424
 10
219.4205
 20
-298.3362
 10
219.1618
 20
-298.6184
 10
218.967
 20
-298.8808
 10
218.8429
 20
-299.1154
 10
218.7963
 20
-299.3139
 10
218.8339
 20
-299.4684
  0
LWPOLYLINE
  5
108
330
1F
100
AcDbEntity
  8
Layer 1
 62
     7
370
    18
100
AcDbPolyline
 90
       33
 70
     1
 43
0.0
 10
221.974
 20
-297.8182
 10
221.9073
 20
-297.8428
 10
221.8424
 20
-297.8578
 10
221.7808
 20
-297.8634
 10
221.7241
 20
-297.8599
 10
221.674
 20
-297.8474
 10
221.632
 20
-297.8263
 10
221.5997
 20
-297.7968
 10
221.5787
 20
-297.759
 10
221.5709
 20
-297.7155
 10
221.5763
 20
-297.6693
 10
221.594
 20
-297.6219
 10
221.623
 20
-297.5747
 10
221.6621
 20
-297.529
 10
221.7105
 20
-297.4862
 10
221.7671
 20
-297.4477
 10
221.8309
 20
-297.4149
 10
221.8976
 20
-297.3903
 10
221.9624
 20
-297.3753
 10
222.024
 20
-297.3697
 10
222.0806
 20
-297.3732
 10
222.1306
 20
-297.3856
 10
222.1726
 20
-297.4067
 10
222.2048
 20
-297.4363
 10
222.2258
 20
-297.474
 10
222.2336
 20
-297.5175
 10
222.2282
 20
-297.5637
 10
222.2105
 20
-297.611
 10
222.1816
 20
-297.6583
 10
222.1425
 20
-297.7039
 10
222.0941
 20
-297.7468
 10
222.0377
 20
-297.7853
 10
221.974
 20
-297.8182
  0
LWPOLYLINE
  5
109
330
1F
100
AcDbEntity
  8
Layer 1
 62
     7
370
    18
100
AcDbPolyline
 90
       33
 70
     1
 43
0.0
 10
220.0766
 20
-299.0247
 10
220.0099
 20
-299.0493
 10
219.945
 20
-299.0643
 10
219.8834
 20
-299.0699
 10
219.8268
 20
-299.0664
 10
219.7767
 20
-299.0539
 10
219.7347
 20
-299.0328
 10
219.7024
 20
-299.0033
 10
219.6813
 20
-298.9655
 10
219.6735
 20
-298.922
 10
219.6789
 20
-298.8759
 10
219.6966
 20
-298.8285
 10
219.7256
 20
-298.7813
 10
219.7647
 20
-298.7356
 10
219.8131
 20
-298.6928
 10
219.8696
 20
-298.6543
 10
219.9334
 20
-298.6214
 10
220.0001
 20
-298.5968
 10
220.065
 20
-298.5818
 10
220.1266
 20
-298.5762
 10
220.1832
 20
-298.5797
 10
220.2333
 20
-298.5921
 10
220.2753
 20
-298.6132
 10
220.3076
 20
-298.6428
 10
220.3287
 20
-298.6805
 10
220.3365
 20
-298.7241
 10
220.3311
 20
-298.7702
 10
220.3133
 20
-298.8176
 10
220.2844
 20
-298.8649
 10
220.2452
 20
-298.9106
 10
220.1968
 20
-298.9534
 10
220.1403
 20
-298.9919
 10
220.0766
 20
-299.0247
  0
LWPOLYLINE
  5
10A
330
1F
100
AcDbEntity
  8
Layer 1
 62
     7
370
    18
100
AcDbPolyline
 90
       33
 70
     1
 43
0.0
 10
223.7611
 20
-295.5635
 10
223.8918
 20
-295.6302
 10
224.0479
 20
-295.6271
 10
224.2237
 20
-295.559
 10
224.4134
 20
-295.4305
 10
224.6113
 20
-295.2462
 10
224.8116
 20
-295.0108
 10
225.0085
 20
-294.729
 10
225.1962
 20
-294.4054
 10
225.3613
 20
-294.0614
 10
225.4929
 20
-293.7215
 10
225.5899
 20
-293.3943
 10
225.651
 20
-293.0883
 10
225.675
 20
-292.8124
 10
225.6605
 20
-292.5752
 10
225.6063
 20
-292.3852
 10
225.5112
 20
-292.2512
 10
225.3805
 20
-292.1845
 10
225.2244
 20
-292.1876
 10
225.0486
 20
-292.2558
 10
224.8588
 20
-292.3844
 10
224.6609
 20
-292.5688
 10
224.4606
 20
-292.8042
 10
224.2637
 20
-293.0861
 10
224.076
 20
-293.4097
 10
223.911
 20
-293.7536
 10
223.7794
 20
-294.0934
 10
223.6824
 20
-294.4206
 10
223.6213
 20
-294.7265
 10
223.5974
 20
-295.0024
 10
223.6118
 20
-295.2396
 10
223.666
 20
-295.4295
 10
223.7611
 20
-295.5635
  0
LWPOLYLINE
  5
10B
330
1F
100
AcDbEntity
  8
Layer 1
 62
     7
370
    18
100
AcDbPolyline
 90
       33
 70
     1
 43
0.0
 10
225.163
 20
-293.2441
 10
225.1168
 20
-293.2718
 10
225.0707
 20
-293.289
 10
225.0261
 20
-293.296
 10
224.984
 20
-293.2931
 10
224.9457
 20
-293.2804
 10
224.9124
 20
-293.2582
 10
224.8853
 20
-293.2268
 10
224.8655
 20
-293.1863
 10
224.8549
 20
-293.1393
 10
224.8537
 20
-293.0892
 10
224.8614
 20
-293.0376
 10
224.8773
 20
-292.9859
 10
224.901
 20
-292.9358
 10
224.9317
 20
-292.8888
 10
224.969
 20
-292.8462
 10
225.0122
 20
-292.8098
 10
225.0584
 20
-292.7821
 10
225.1045
 20
-292.7648
 10
225.1491
 20
-292.7577
 10
225.1911
 20
-292.7606
 10
225.2294
 20
-292.7733
 10
225.2626
 20
-292.7955
 10
225.2896
 20
-292.827
 10
225.3093
 20
-292.8676
 10
225.32
 20
-292.9145
 10
225.3212
 20
-292.9645
 10
225.3136
 20
-293.0161
 10
225.2977
 20
-293.0677
 10
225.2741
 20
-293.1178
 10
225.2434
 20
-293.1649
 10
225.2062
 20
-293.2075
 10
225.163
 20
-293.2441
  0
LWPOLYLINE
  5
10C
330
1F
100
AcDbEntity
  8
Layer 1
 62
     7
370
    18
100
AcDbPolyline
 90
       33
 70
     1
 43
0.0
 10
224.4647
 20
-294.8491
 10
224.4201
 20
-294.8908
 10
224.3745
 20
-294.922
 10
224.3292
 20
-294.9424
 10
224.2854
 20
-294.9521
 10
224.2445
 20
-294.9508
 10
224.2076
 20
-294.9383
 10
224.176
 20
-294.9147
 10
224.1511
 20
-294.8797
 10
224.1348
 20
-294.8356
 10
224.1279
 20
-294.7856
 10
224.13
 20
-294.7314
 10
224.1406
 20
-294.6747
 10
224.1593
 20
-294.6172
 10
224.1857
 20
-294.5606
 10
224.2193
 20
-294.5066
 10
224.2597
 20
-294.4569
 10
224.3043
 20
-294.4152
 10
224.3499
 20
-294.384
 10
224.3952
 20
-294.3635
 10
224.439
 20
-294.3538
 10
224.4799
 20
-294.3551
 10
224.5168
 20
-294.3675
 10
224.5484
 20
-294.391
 10
224.5733
 20
-294.4259
 10
224.5896
 20
-294.47
 10
224.5966
 20
-294.52
 10
224.5945
 20
-294.5742
 10
224.5839
 20
-294.6309
 10
224.5652
 20
-294.6885
 10
224.5388
 20
-294.7452
 10
224.5052
 20
-294.7993
 10
224.4647
 20
-294.8491
  0
LWPOLYLINE
  5
10D
330
1F
100
AcDbEntity
  8
Layer 1
 62
     7
370
    18
100
AcDbPolyline
 90
       33
 70
     1
 43
0.0
 10
216.3411
 20
-297.086
 10
216.539
 20
-297.0212
 10
216.75
 20
-297.0139
 10
216.9678
 20
-297.0605
 10
217.1858
 20
-297.1575
 10
217.3978
 20
-297.3011
 10
217.5973
 20
-297.488
 10
217.778
 20
-297.7144
 10
217.9334
 20
-297.9769
 10
218.0517
 20
-298.2578
 10
218.1259
 20
-298.5374
 10
218.157
 20
-298.8085
 10
218.1459
 20
-299.0638
 10
218.0936
 20
-299.296
 10
218.001
 20
-299.4978
 10
217.869
 20
-299.6621
 10
217.6987
 20
-299.7816
 10
217.5009
 20
-299.8463
 10
217.2899
 20
-299.8535
 10
217.0722
 20
-299.8069
 10
216.8542
 20
-299.7099
 10
216.6421
 20
-299.5662
 10
216.4426
 20
-299.3794
 10
216.2619
 20
-299.1531
 10
216.1065
 20
-298.8907
 10
215.9882
 20
-298.6098
 10
215.914
 20
-298.3302
 10
215.8829
 20
-298.0591
 10
215.894
 20
-297.8039
 10
215.9463
 20
-297.5716
 10
216.0389
 20
-297.3698
 10
216.1708
 20
-297.2055
 10
216.3411
 20
-297.086
  0
LWPOLYLINE
  5
10E
330
1F
100
AcDbEntity
  8
Layer 1
 62
     7
370
    18
100
AcDbPolyline
 90
       33
 70
     1
 43
0.0
 10
216.9054
 20
-297.8394
 10
216.9604
 20
-297.8518
 10
217.0102
 20
-297.8742
 10
217.054
 20
-297.9053
 10
217.0906
 20
-297.9439
 10
217.1192
 20
-297.9887
 10
217.1388
 20
-298.0385
 10
217.1484
 20
-298.0921
 10
217.147
 20
-298.1481
 10
217.1345
 20
-298.2029
 10
217.1121
 20
-298.2526
 10
217.0809
 20
-298.2962
 10
217.0421
 20
-298.3328
 10
216.9971
 20
-298.3613
 10
216.9471
 20
-298.3809
 10
216.8933
 20
-298.3906
 10
216.837
 20
-298.3893
 10
216.7821
 20
-298.3767
 10
216.7323
 20
-298.3543
 10
216.6886
 20
-298.3231
 10
216.652
 20
-298.2845
 10
216.6234
 20
-298.2396
 10
216.6037
 20
-298.1898
 10
216.594
 20
-298.1363
 10
216.5953
 20
-298.0802
 10
216.6079
 20
-298.0254
 10
216.6304
 20
-297.9758
 10
216.6617
 20
-297.9322
 10
216.7004
 20
-297.8956
 10
216.7454
 20
-297.8671
 10
216.7954
 20
-297.8476
 10
216.8491
 20
-297.838
 10
216.9054
 20
-297.8394
  0
LWPOLYLINE
  5
10F
330
1F
100
AcDbEntity
  8
Layer 1
 62
     7
370
    18
100
AcDbPolyline
 90
       33
 70
     1
 43
0.0
 10
217.4574
 20
-298.8486
 10
217.5123
 20
-298.8611
 10
217.5621
 20
-298.8835
 10
217.6058
 20
-298.9146
 10
217.6424
 20
-298.9533
 10
217.671
 20
-298.9981
 10
217.6907
 20
-299.048
 10
217.7004
 20
-299.1015
 10
217.6991
 20
-299.1576
 10
217.6866
 20
-299.2123
 10
217.6641
 20
-299.2619
 10
217.6328
 20
-299.3055
 10
217.594
 20
-299.342
 10
217.549
 20
-299.3705
 10
217.499
 20
-299.3901
 10
217.4452
 20
-299.3997
 10
217.389
 20
-299.3985
 10
217.334
 20
-299.3861
 10
217.2842
 20
-299.3637
 10
217.2405
 20
-299.3325
 10
217.2039
 20
-299.2939
 10
217.1753
 20
-299.2491
 10
217.1557
 20
-299.1992
 10
217.1461
 20
-299.1456
 10
217.1474
 20
-299.0894
 10
217.1599
 20
-299.0347
 10
217.1823
 20
-298.9851
 10
217.2135
 20
-298.9416
 10
217.2522
 20
-298.9051
 10
217.2972
 20
-298.8765
 10
217.3472
 20
-298.857
 10
217.401
 20
-298.8473
 10
217.4574
 20
-298.8486
  0
LWPOLYLINE
  5
110
330
1F
100
AcDbEntity
  8
Layer 1
 62
     7
370
    18
100
AcDbPolyline
 90
       33
 70
     0
 43
0.0
 10
201.6421
 20
-310.1656
 10
201.557
 20
-310.0368
 10
201.3448
 20
-309.6486
 10
201.0704
 20
-308.9987
 10
200.7985
 20
-308.0844
 10
200.5941
 20
-306.9035
 10
200.5218
 20
-305.4533
 10
200.6465
 20
-303.7314
 10
201.033
 20
-301.7353
 10
201.7188
 20
-299.5775
 10
202.6868
 20
-297.3778
 10
203.9196
 20
-295.1452
 10
205.3999
 20
-292.8884
 10
207.1106
 20
-290.6162
 10
209.0342
 20
-288.3375
 10
211.1536
 20
-286.061
 10
213.4514
 20
-283.7957
 10
215.8272
 20
-281.7105
 10
218.1691
 20
-279.9536
 10
220.443
 20
-278.503
 10
222.6148
 20
-277.3364
 10
224.6501
 20
-276.4317
 10
226.5149
 20
-275.7666
 10
228.1749
 20
-275.3191
 10
229.596
 20
-275.0669
 10
230.799
 20
-274.9393
 10
231.8452
 20
-274.8794
 10
232.7609
 20
-274.8856
 10
233.5725
 20
-274.9563
 10
234.3063
 20
-275.0899
 10
234.9887
 20
-275.285
 10
235.646
 20
-275.54
 10
236.3047
 20
-275.8533
  0
LWPOLYLINE
  5
111
330
1F
100
AcDbEntity
  8
Layer 1
 62
     7
370
    18
100
AcDbPolyline
 90
        9
 70
     0
 43
0.0
 10
200.4272
 20
-286.6873
 10
200.67
 20
-286.3527
 10
201.3649
 20
-285.434
 10
202.4618
 20
-284.059
 10
203.9107
 20
-282.3557
 10
205.6614
 20
-280.4519
 10
207.6639
 20
-278.4753
 10
209.868
 20
-276.5539
 10
212.2237
 20
-274.8154
  0
LWPOLYLINE
  5
112
330
1F
100
AcDbEntity
  8
Layer 1
 62
     7
370
     9
100
AcDbPolyline
 90
        2
 70
     0
 43
0.0
 10
235.5719
 20
-275.1048
 10
255.2263
 20
-295.2632
  0
LWPOLYLINE
  5
113
330
1F
100
AcDbEntity
  8
Layer 1
 62
     7
370
     9
100
AcDbPolyline
 90
        2
 70
     0
 43
0.0
 10
213.1516
 20
-322.1233
 10
248.6074
 20
-288.2983
  0
LWPOLYLINE
  5
114
330
1F
100
AcDbEntity
  8
Layer 1
 62
     7
370
     9
100
AcDbPolyline
 90
        7
 70
     1
 43
0.0
 10
227.7284
 20
-319.7481
 10
228.1541
 20
-319.3221
 10
223.9503
 20
-315.1506
 10
223.0383
 20
-316.2827
 10
223.4109
 20
-316.6526
 10
224.0069
 20
-316.0558
 10
227.7284
 20
-319.7481
  0
LWPOLYLINE
  5
115
330
1F
100
AcDbEntity
  8
Layer 1
 62
     7
370
     9
100
AcDbPolyline
 90
       70
 70
     1
 43
0.0
 10
226.9365
 20
-313.2206
 10
227.0546
 20
-313.1979
 10
227.1745
 20
-313.1864
 10
227.2961
 20
-313.186
 10
227.4195
 20
-313.1969
 10
227.5447
 20
-313.2189
 10
227.6716
 20
-313.2522
 10
227.8002
 20
-313.2966
 10
227.9306
 20
-313.3522
 10
228.0957
 20
-313.4337
 10
228.2572
 20
-313.5226
 10
228.415
 20
-313.6188
 10
228.5691
 20
-313.7223
 10
228.7196
 20
-313.833
 10
228.8663
 20
-313.9512
 10
229.0093
 20
-314.0766
 10
229.1485
 20
-314.2093
 10
229.4331
 20
-314.5277
 10
229.5763
 20
-314.7118
 10
229.7039
 20
-314.8934
 10
229.816
 20
-315.0724
 10
229.9125
 20
-315.249
 10
229.9935
 20
-315.423
 10
230.0589
 20
-315.5945
 10
230.1089
 20
-315.7634
 10
230.1433
 20
-315.9298
 10
230.1587
 20
-316.0658
 10
230.1608
 20
-316.1949
 10
230.1495
 20
-316.3173
 10
230.1248
 20
-316.4328
 10
230.0868
 20
-316.5414
 10
230.0354
 20
-316.6433
 10
229.9707
 20
-316.7384
 10
229.8926
 20
-316.8266
 10
229.7948
 20
-316.9145
 10
229.6913
 20
-316.9881
 10
229.5824
 20
-317.0472
 10
229.4679
 20
-317.092
 10
229.3478
 20
-317.1223
 10
229.2222
 20
-317.1381
 10
229.0911
 20
-317.1396
 10
228.9544
 20
-317.1266
 10
228.8292
 20
-317.104
 10
228.7041
 20
-317.0724
 10
228.579
 20
-317.0316
 10
228.454
 20
-316.9818
 10
227.9777
 20
-316.7215
 10
227.5594
 20
-316.4094
 10
227.1359
 20
-316.0196
 10
227.0178
 20
-315.894
 10
226.8942
 20
-315.7465
 10
226.7651
 20
-315.5767
 10
226.6303
 20
-315.3848
 10
226.3642
 20
-314.9143
 10
226.3107
 20
-314.7897
 10
226.2667
 20
-314.6646
 10
226.2322
 20
-314.5393
 10
226.2074
 20
-314.4136
 10
226.1937
 20
-314.2883
 10
226.1925
 20
-314.165
 10
226.2038
 20
-314.0437
 10
226.228
 20
-313.9243
 10
226.2671
 20
-313.8077
 10
226.324
 20
-313.6953
 10
226.3989
 20
-313.5871
 10
226.492
 20
-313.483
 10
226.596
 20
-313.3901
 10
226.7048
 20
-313.3154
 10
226.8183
 20
-313.2589
 10
226.9365
 20
-313.2206
  0
LWPOLYLINE
  5
116
330
1F
100
AcDbEntity
  8
Layer 1
 62
     7
370
     9
100
AcDbPolyline
 90
       65
 70
     1
 43
0.0
 10
230.3322
 20
-317.2512
 10
230.4986
 20
-317.0621
 10
230.631
 20
-316.862
 10
230.7294
 20
-316.6507
 10
230.7939
 20
-316.4282
 10
230.8245
 20
-316.1947
 10
230.8211
 20
-315.95
 10
230.7838
 20
-315.6942
 10
230.7125
 20
-315.4273
 10
230.6335
 20
-315.2111
 10
230.5371
 20
-314.996
 10
230.4233
 20
-314.782
 10
230.292
 20
-314.5691
 10
230.1434
 20
-314.3573
 10
229.9773
 20
-314.1466
 10
229.7937
 20
-313.937
 10
229.5927
 20
-313.7284
 10
229.3825
 20
-313.5291
 10
229.1714
 20
-313.3471
 10
228.9592
 20
-313.1825
 10
228.746
 20
-313.0353
 10
228.5318
 20
-312.9054
 10
228.3166
 20
-312.793
 10
228.1004
 20
-312.6979
 10
227.8831
 20
-312.6203
 10
227.615
 20
-312.5504
 10
227.3582
 20
-312.5143
 10
227.1127
 20
-312.512
 10
226.8785
 20
-312.5434
 10
226.6556
 20
-312.6086
 10
226.4441
 20
-312.7076
 10
226.2438
 20
-312.8404
 10
226.0548
 20
-313.007
 10
225.8886
 20
-313.1959
 10
225.7563
 20
-313.396
 10
225.6579
 20
-313.6073
 10
225.5934
 20
-313.8298
 10
225.5629
 20
-314.0633
 10
225.5663
 20
-314.308
 10
225.6036
 20
-314.5639
 10
225.6749
 20
-314.8308
 10
225.7538
 20
-315.0469
 10
225.8502
 20
-315.262
 10
225.964
 20
-315.4759
 10
226.0952
 20
-315.6888
 10
226.2438
 20
-315.9006
 10
226.4099
 20
-316.1113
 10
226.5935
 20
-316.3209
 10
226.7944
 20
-316.5294
 10
227.0047
 20
-316.7289
 10
227.2159
 20
-316.9109
 10
227.428
 20
-317.0755
 10
227.6412
 20
-317.2228
 10
227.8554
 20
-317.3526
 10
228.0705
 20
-317.4651
 10
228.2867
 20
-317.5603
 10
228.5039
 20
-317.6381
 10
228.7722
 20
-317.7079
 10
229.0291
 20
-317.7439
 10
229.2746
 20
-317.7461
 10
229.5088
 20
-317.7147
 10
229.7317
 20
-317.6494
 10
229.9432
 20
-317.5504
 10
230.1433
 20
-317.4177
 10
230.3322
 20
-317.2512
  0
LWPOLYLINE
  5
117
330
1F
100
AcDbEntity
  8
Layer 1
 62
     7
370
     9
100
AcDbPolyline
 90
       87
 70
     1
 43
0.0
 10
232.3641
 20
-315.1075
 10
235.2779
 20
-312.1906
 10
234.8502
 20
-311.766
 10
232.9643
 20
-313.6539
 10
232.9699
 20
-310.7857
 10
232.9608
 20
-310.589
 10
232.9338
 20
-310.3996
 10
232.8892
 20
-310.2177
 10
232.8268
 20
-310.0432
 10
232.7466
 20
-309.8762
 10
232.6488
 20
-309.7166
 10
232.5332
 20
-309.5645
 10
232.4
 20
-309.4198
 10
232.251
 20
-309.2847
 10
232.0949
 20
-309.1681
 10
231.9316
 20
-309.0701
 10
231.7613
 20
-308.9906
 10
231.5839
 20
-308.9296
 10
231.3993
 20
-308.8872
 10
231.2077
 20
-308.8633
 10
231.0089
 20
-308.8581
 10
230.8067
 20
-308.8706
 10
230.6125
 20
-308.9004
 10
230.4262
 20
-308.9476
 10
230.2478
 20
-309.0121
 10
230.0774
 20
-309.094
 10
229.9149
 20
-309.1934
 10
229.7605
 20
-309.31
 10
229.614
 20
-309.4441
 10
229.475
 20
-309.5964
 10
229.3549
 20
-309.7566
 10
229.2535
 20
-309.9247
 10
229.171
 20
-310.1007
 10
229.1073
 20
-310.2845
 10
229.0623
 20
-310.4761
 10
229.0361
 20
-310.6755
 10
229.0287
 20
-310.8828
 10
229.0407
 20
-311.0858
 10
229.0719
 20
-311.2807
 10
229.1223
 20
-311.4676
 10
229.1919
 20
-311.6465
 10
229.2808
 20
-311.8173
 10
229.3889
 20
-311.9801
 10
229.5162
 20
-312.1349
 10
229.6628
 20
-312.2817
 10
230.0948
 20
-311.8495
 10
229.9957
 20
-311.7583
 10
229.909
 20
-311.659
 10
229.8348
 20
-311.5517
 10
229.773
 20
-311.4362
 10
229.7237
 20
-311.3127
 10
229.6868
 20
-311.181
 10
229.6625
 20
-311.0412
 10
229.6506
 20
-310.8932
 10
229.6519
 20
-310.7492
 10
229.6666
 20
-310.6108
 10
229.6947
 20
-310.478
 10
229.7362
 20
-310.3508
 10
229.791
 20
-310.2293
 10
229.8591
 20
-310.1135
 10
229.9406
 20
-310.0034
 10
230.0354
 20
-309.899
 10
230.1375
 20
-309.8054
 10
230.2445
 20
-309.724
 10
230.3564
 20
-309.6549
 10
230.4732
 20
-309.598
 10
230.5948
 20
-309.5534
 10
230.7214
 20
-309.521
 10
230.8527
 20
-309.5008
 10
230.989
 20
-309.4929
 10
231.1264
 20
-309.4972
 10
231.2585
 20
-309.5138
 10
231.3851
 20
-309.5426
 10
231.5064
 20
-309.5837
 10
231.6223
 20
-309.637
 10
231.7329
 20
-309.7026
 10
231.838
 20
-309.7804
 10
231.9377
 20
-309.8704
 10
232.0308
 20
-309.9713
 10
232.1115
 20
-310.0771
 10
232.1799
 20
-310.1876
 10
232.2359
 20
-310.3028
 10
232.2795
 20
-310.4229
 10
232.3108
 20
-310.5476
 10
232.3296
 20
-310.6772
 10
232.3361
 20
-310.8114
 10
232.3641
 20
-315.1075
  0
LWPOLYLINE
  5
118
330
1F
100
AcDbEntity
  8
Layer 1
 62
     7
370
     9
100
AcDbPolyline
 90
      115
 70
     1
 43
0.0
 10
241.2034
 20
-306.2346
 10
241.6291
 20
-305.8083
 10
239.9488
 20
-304.141
 10
239.8337
 20
-304.0337
 10
239.7169
 20
-303.9386
 10
239.5985
 20
-303.8556
 10
239.4784
 20
-303.7849
 10
239.3566
 20
-303.7262
 10
239.2332
 20
-303.6798
 10
239.1081
 20
-303.6454
 10
238.9813
 20
-303.6232
 10
238.8516
 20
-303.6142
 10
238.722
 20
-303.6195
 10
238.5924
 20
-303.6392
 10
238.4628
 20
-303.6733
 10
238.3978
 20
-303.6971
 10
238.3321
 20
-303.7271
 10
238.2658
 20
-303.7632
 10
238.1988
 20
-303.8054
 10
238.0629
 20
-303.9083
 10
237.9243
 20
-304.0359
 10
237.8578
 20
-304.1071
 10
237.7982
 20
-304.181
 10
237.7456
 20
-304.2574
 10
237.7001
 20
-304.3364
 10
237.6614
 20
-304.418
 10
237.6298
 20
-304.5021
 10
237.6051
 20
-304.5888
 10
237.5874
 20
-304.678
 10
237.5707
 20
-304.8423
 10
237.5727
 20
-305.0088
 10
237.5934
 20
-305.1772
 10
237.6324
 20
-305.3472
 10
237.3325
 20
-305.2741
 10
237.2028
 20
-305.2647
 10
237.0733
 20
-305.2698
 10
236.9437
 20
-305.2894
 10
236.8143
 20
-305.3235
 10
236.7493
 20
-305.3473
 10
236.6836
 20
-305.3773
 10
236.6172
 20
-305.4134
 10
236.5502
 20
-305.4556
 10
236.4141
 20
-305.5585
 10
236.2755
 20
-305.6861
 10
236.2091
 20
-305.7575
 10
236.1496
 20
-305.8314
 10
236.097
 20
-305.9078
 10
236.0514
 20
-305.9868
 10
236.0128
 20
-306.0683
 10
235.9812
 20
-306.1524
 10
235.9565
 20
-306.239
 10
235.9389
 20
-306.3282
 10
235.9224
 20
-306.4847
 10
235.9229
 20
-306.6428
 10
235.9403
 20
-306.8025
 10
235.9749
 20
-306.964
 10
235.5457
 20
-306.5387
 10
235.1201
 20
-306.965
 10
237.8088
 20
-309.6328
 10
238.2347
 20
-309.2065
 10
236.8586
 20
-307.8409
 10
236.7884
 20
-307.7517
 10
236.7243
 20
-307.6624
 10
236.6663
 20
-307.5732
 10
236.6144
 20
-307.4839
 10
236.5686
 20
-307.3946
 10
236.5289
 20
-307.3052
 10
236.4952
 20
-307.2157
 10
236.4676
 20
-307.1261
 10
236.4389
 20
-306.9921
 10
236.4262
 20
-306.8573
 10
236.4293
 20
-306.7217
 10
236.4484
 20
-306.5853
 10
236.4839
 20
-306.4539
 10
236.5362
 20
-306.333
 10
236.6052
 20
-306.2228
 10
236.691
 20
-306.1232
 10
236.783
 20
-306.0384
 10
236.8699
 20
-305.9731
 10
236.9518
 20
-305.9271
 10
237.0287
 20
-305.9005
 10
237.1356
 20
-305.8843
 10
237.2422
 20
-305.8841
 10
237.3484
 20
-305.8997
 10
237.4543
 20
-305.9314
 10
237.5598
 20
-305.979
 10
237.665
 20
-306.0426
 10
237.7699
 20
-306.1222
 10
237.8744
 20
-306.2178
 10
239.5546
 20
-307.8851
 10
239.9806
 20
-307.4585
 10
238.3
 20
-305.7912
 10
238.1939
 20
-305.6924
 10
238.1164
 20
-305.4756
 10
238.0875
 20
-305.3416
 10
238.0747
 20
-305.2069
 10
238.0778
 20
-305.0713
 10
238.0968
 20
-304.9348
 10
238.1324
 20
-304.8034
 10
238.1848
 20
-304.6826
 10
238.2539
 20
-304.5723
 10
238.3398
 20
-304.4726
 10
238.4317
 20
-304.3879
 10
238.5186
 20
-304.3225
 10
238.6006
 20
-304.2765
 10
238.6775
 20
-304.2499
 10
238.7844
 20
-304.2337
 10
238.8909
 20
-304.2335
 10
238.9971
 20
-304.2493
 10
239.1029
 20
-304.281
 10
239.2084
 20
-304.3286
 10
239.3136
 20
-304.3922
 10
239.4184
 20
-304.4718
 10
239.5229
 20
-304.5673
 10
241.2034
 20
-306.2346
  0
LWPOLYLINE
  5
119
330
1F
100
AcDbEntity
  8
Layer 1
 62
     7
370
     9
100
AcDbPolyline
 90
      115
 70
     1
 43
0.0
 10
245.845
 20
-301.5877
 10
246.271
 20
-301.1614
 10
244.5904
 20
-299.4942
 10
244.4754
 20
-299.3869
 10
244.3586
 20
-299.2917
 10
244.2402
 20
-299.2088
 10
244.1202
 20
-299.1381
 10
243.9984
 20
-299.0795
 10
243.875
 20
-299.0331
 10
243.7499
 20
-298.9988
 10
243.6232
 20
-298.9767
 10
243.4934
 20
-298.9675
 10
243.3638
 20
-298.9728
 10
243.2343
 20
-298.9924
 10
243.1047
 20
-299.0264
 10
243.0397
 20
-299.0502
 10
242.974
 20
-299.0802
 10
242.9076
 20
-299.1163
 10
242.8406
 20
-299.1586
 10
242.7045
 20
-299.2615
 10
242.5659
 20
-299.3891
 10
242.4995
 20
-299.4604
 10
242.44
 20
-299.5343
 10
242.3874
 20
-299.6108
 10
242.3418
 20
-299.6897
 10
242.3032
 20
-299.7713
 10
242.2716
 20
-299.8553
 10
242.2469
 20
-299.942
 10
242.2293
 20
-300.0311
 10
242.2124
 20
-300.1954
 10
242.2143
 20
-300.3619
 10
242.235
 20
-300.5303
 10
242.274
 20
-300.7003
 10
241.9741
 20
-300.6272
 10
241.8447
 20
-300.618
 10
241.7152
 20
-300.6231
 10
241.5856
 20
-300.6427
 10
241.4562
 20
-300.6767
 10
241.3912
 20
-300.7005
 10
241.3255
 20
-300.7305
 10
241.2591
 20
-300.7665
 10
241.1921
 20
-300.8088
 10
241.0561
 20
-300.9118
 10
240.9175
 20
-301.0396
 10
240.851
 20
-301.1108
 10
240.7915
 20
-301.1846
 10
240.739
 20
-301.261
 10
240.6934
 20
-301.34
 10
240.6547
 20
-301.4215
 10
240.623
 20
-301.5055
 10
240.5983
 20
-301.5922
 10
240.5805
 20
-301.6813
 10
240.564
 20
-301.8379
 10
240.5645
 20
-301.996
 10
240.5819
 20
-302.1557
 10
240.6165
 20
-302.3171
 10
240.1877
 20
-301.8919
 10
239.7617
 20
-302.3182
 10
242.4507
 20
-304.9859
 10
242.8767
 20
-304.5596
 10
241.5006
 20
-303.1944
 10
241.4302
 20
-303.1051
 10
241.3661
 20
-303.0158
 10
241.3081
 20
-302.9265
 10
241.2562
 20
-302.8372
 10
241.2104
 20
-302.7478
 10
241.1707
 20
-302.6584
 10
241.1371
 20
-302.5689
 10
241.1095
 20
-302.4793
 10
241.0808
 20
-302.3453
 10
241.0679
 20
-302.2105
 10
241.0709
 20
-302.0749
 10
241.0899
 20
-301.9385
 10
241.1256
 20
-301.8071
 10
241.178
 20
-301.6862
 10
241.2471
 20
-301.576
 10
241.333
 20
-301.4764
 10
241.4248
 20
-301.3916
 10
241.5116
 20
-301.3263
 10
241.5936
 20
-301.2803
 10
241.6706
 20
-301.2536
 10
241.7776
 20
-301.2375
 10
241.8841
 20
-301.2373
 10
241.9903
 20
-301.253
 10
242.0962
 20
-301.2847
 10
242.2017
 20
-301.3324
 10
242.3068
 20
-301.396
 10
242.4116
 20
-301.4755
 10
242.516
 20
-301.571
 10
244.1966
 20
-303.2383
 10
244.6226
 20
-302.812
 10
242.942
 20
-301.1444
 10
242.8358
 20
-301.0455
 10
242.758
 20
-300.8291
 10
242.7293
 20
-300.6949
 10
242.7166
 20
-300.5601
 10
242.7197
 20
-300.4244
 10
242.7388
 20
-300.2879
 10
242.7744
 20
-300.1565
 10
242.8266
 20
-300.0357
 10
242.8957
 20
-299.9255
 10
242.9818
 20
-299.8258
 10
243.0736
 20
-299.741
 10
243.1604
 20
-299.6757
 10
243.2424
 20
-299.6297
 10
243.3194
 20
-299.6031
 10
243.4262
 20
-299.5869
 10
243.5327
 20
-299.5867
 10
243.6389
 20
-299.6025
 10
243.7447
 20
-299.6342
 10
243.8502
 20
-299.6818
 10
243.9554
 20
-299.7454
 10
244.0603
 20
-299.825
 10
244.1648
 20
-299.9205
 10
245.845
 20
-301.5877
  0
LWPOLYLINE
  5
11A
330
1F
100
AcDbEntity
  8
Layer 1
 62
     7
370
     9
100
AcDbPolyline
 90
        2
 70
     0
 43
0.0
 10
199.68
 20
-308.3059
 10
217.9655
 20
-327.0604
  0
ENDSEC
  0
SECTION
  2
OBJECTS
  0
DICTIONARY
  5
C
330
0
100
AcDbDictionary
281
     1
  3
ACAD_DETAILVIEWSTYLE
350
122
  3
ACAD_GROUP
350
D
  3
ACAD_LAYOUT
350
1A
  3
ACAD_MATERIAL
350
43
  3
ACAD_MLEADERSTYLE
350
5B
  3
ACAD_MLINESTYLE
350
17
  3
ACAD_PLOTSETTINGS
350
19
  3
ACAD_PLOTSTYLENAME
350
E
  3
ACAD_SCALELIST
350
47
  3
ACAD_SECTIONVIEWSTYLE
350
123
  3
ACAD_TABLESTYLE
350
59
  3
ACAD_VISUALSTYLE
350
2A
  3
ACDB_RECOMPOSE_DATA
350
11F
  3
AcDbVariableDictionary
350
11B
  0
SUN
  5
5D
330
29
100
AcDbSun
 90
        1
290
     0
 63
     7
421
 16777215
 40
1.0
291
     1
 91
  2455826
 92
 54000000
292
     0
 70
     2
 71
   256
280
     1
  0
DICTIONARY
  5
122
102
{ACAD_REACTORS
330
C
102
}
330
C
100
AcDbDictionary
281
     1
  0
DICTIONARY
  5
D
102
{ACAD_REACTORS
330
C
102
}
330
C
100
AcDbDictionary
281
     1
  0
DICTIONARY
  5
1A
102
{ACAD_REACTORS
330
C
102
}
330
C
100
AcDbDictionary
281
     1
  3
Layout1
350
1E
  3
Layout2
350
26
  3
Model
350
22
  0
DICTIONARY
  5
43
102
{ACAD_REACTORS
330
C
102
}
330
C
100
AcDbDictionary
281
     1
  3
ByBlock
350
45
  3
ByLayer
350
44
  3
Global
350
46
  0
DICTIONARY
  5
5B
102
{ACAD_REACTORS
330
C
102
}
330
C
100
AcDbDictionary
281
     1
  3
Standard
350
5C
  0
DICTIONARY
  5
17
102
{ACAD_REACTORS
330
C
102
}
330
C
100
AcDbDictionary
281
     1
  3
Standard
350
18
  0
DICTIONARY
  5
19
102
{ACAD_REACTORS
330
C
102
}
330
C
100
AcDbDictionary
281
     1
  0
ACDBDICTIONARYWDFLT
  5
E
102
{ACAD_REACTORS
330
C
102
}
330
C
100
AcDbDictionary
281
     1
  3
Normal
350
F
100
AcDbDictionaryWithDefault
340
F
  0
DICTIONARY
  5
47
102
{ACAD_REACTORS
330
C
102
}
330
C
100
AcDbDictionary
281
     1
  3
A0
350
48
  3
A1
350
49
  3
A2
350
4A
  3
A3
350
4B
  3
A4
350
4C
  3
A5
350
4D
  3
A6
350
4E
  3
A7
350
4F
  3
A8
350
50
  3
A9
350
51
  3
B1
350
52
  3
B2
350
53
  3
B3
350
54
  3
B4
350
55
  3
B5
350
56
  3
B6
350
57
  3
B7
350
58
  0
DICTIONARY
  5
123
102
{ACAD_REACTORS
330
C
102
}
330
C
100
AcDbDictionary
281
     1
  0
DICTIONARY
  5
59
102
{ACAD_REACTORS
330
C
102
}
330
C
100
AcDbDictionary
281
     1
  3
Standard
350
5A
  0
DICTIONARY
  5
2A
102
{ACAD_REACTORS
330
C
102
}
330
C
100
AcDbDictionary
281
     1
  3
2dWireframe
350
2F
  3
Basic
350
32
  3
Brighten
350
36
  3
ColorChange
350
3A
  3
Conceptual
350
34
  3
Dim
350
35
  3
EdgeColorOff
350
3D
  3
Facepattern
350
39
  3
Flat
350
2B
  3
FlatWithEdges
350
2C
  3
Gouraud
350
2D
  3
GouraudWithEdges
350
2E
  3
Hidden
350
31
  3
JitterOff
350
3B
  3
Linepattern
350
38
  3
OverhangOff
350
3C
  3
Realistic
350
33
  3
Shaded
350
42
  3
Shaded with edges
350
41
  3
Shades of Gray
350
3E
  3
Sketchy
350
3F
  3
Thicken
350
37
  3
Wireframe
350
30
  3
X-Ray
350
40
  0
XRECORD
  5
11F
102
{ACAD_REACTORS
330
C
102
}
330
C
100
AcDbXrecord
280
     1
 90
        1
330
5A
  0
DICTIONARY
  5
11B
102
{ACAD_REACTORS
330
C
102
}
330
C
100
AcDbDictionary
281
     1
  3
CANNOSCALE
350
11C
  3
CMLEADERSTYLE
350
121
  3
CTABLESTYLE
350
120
  0
LAYOUT
  5
1E
102
{ACAD_REACTORS
330
1A
102
}
330
1A
100
AcDbPlotSettings
  1

  2
none_device
  4

  6

 40
0.0
 41
0.0
 42
0.0
 43
0.0
 44
0.0
 45
0.0
 46
0.0
 47
0.0
 48
0.0
 49
0.0
140
0.0
141
0.0
142
1.0
143
1.0
 70
   688
 72
     0
 73
     0
 74
     5
  7

 75
    16
 76
     0
 77
     2
 78
   300
147
1.0
148
0.0
149
0.0
100
AcDbLayout
  1
Layout1
 70
     1
 71
     1
 10
0.0
 20
0.0
 11
12.0
 21
9.0
 12
0.0
 22
0.0
 32
0.0
 14
1.000000000000000E+20
 24
1.000000000000000E+20
 34
1.000000000000000E+20
 15
-1.000000000000000E+20
 25
-1.000000000000000E+20
 35
-1.000000000000000E+20
146
0.0
 13
0.0
 23
0.0
 33
0.0
 16
1.0
 26
0.0
 36
0.0
 17
0.0
 27
1.0
 37
0.0
 76
     0
330
1B
  0
LAYOUT
  5
26
102
{ACAD_REACTORS
330
1A
102
}
330
1A
100
AcDbPlotSettings
  1

  2
none_device
  4

  6

 40
0.0
 41
0.0
 42
0.0
 43
0.0
 44
0.0
 45
0.0
 46
0.0
 47
0.0
 48
0.0
 49
0.0
140
0.0
141
0.0
142
1.0
143
1.0
 70
   688
 72
     0
 73
     0
 74
     5
  7

 75
    16
 76
     0
 77
     2
 78
   300
147
1.0
148
0.0
149
0.0
100
AcDbLayout
  1
Layout2
 70
     1
 71
     2
 10
0.0
 20
0.0
 11
0.0
 21
0.0
 12
0.0
 22
0.0
 32
0.0
 14
0.0
 24
0.0
 34
0.0
 15
0.0
 25
0.0
 35
0.0
146
0.0
 13
0.0
 23
0.0
 33
0.0
 16
1.0
 26
0.0
 36
0.0
 17
0.0
 27
1.0
 37
0.0
 76
     0
330
23
  0
LAYOUT
  5
22
102
{ACAD_REACTORS
330
1A
102
}
330
1A
100
AcDbPlotSettings
  1

  2
none_device
  4
Letter_(8.50_x_11.00_Inches)
  6

 40
6.35
 41
6.35
 42
6.35000508
 43
6.35000508
 44
215.9
 45
279.4
 46
0.0
 47
0.0
 48
0.0
 49
0.0
140
0.0
141
0.0
142
1.0
143
1.0
 70
  1712
 72
     0
 73
     0
 74
     0
  7

 75
     0
 76
     0
 77
     2
 78
   300
147
1.0
148
0.0
149
0.0
100
AcDbLayout
  1
Model
 70
     1
 71
     0
 10
0.0
 20
0.0
 11
12.0
 21
9.0
 12
0.0
 22
0.0
 32
0.0
 14
140.3242
 24
-472.6557
 34
0.0
 15
423.607
 25
-123.7145
 35
0.0
146
0.0
 13
0.0
 23
0.0
 33
0.0
 16
1.0
 26
0.0
 36
0.0
 17
0.0
 27
1.0
 37
0.0
 76
     0
330
1F
331
29
  0
MATERIAL
  5
45
102
{ACAD_REACTORS
330
43
102
}
330
43
100
AcDbMaterial
  1
ByBlock
 72
     1
 94
      127
  0
MATERIAL
  5
44
102
{ACAD_REACTORS
330
43
102
}
330
43
100
AcDbMaterial
  1
ByLayer
 72
     1
 94
      127
  0
MATERIAL
  5
46
102
{ACAD_REACTORS
330
43
102
}
330
43
100
AcDbMaterial
  1
Global
 72
     1
 94
      127
  0
MLEADERSTYLE
  5
5C
102
{ACAD_REACTORS
330
5B
102
}
330
5B
100
AcDbMLeaderStyle
179
     2
170
     2
171
     1
172
     0
 90
        2
 40
0.0
 41
0.0
173
     1
 91
-1056964608
340
14
 92
       -2
290
     1
 42
0.09
291
     1
 43
0.36
  3
Standard
341
0
 44
0.18
300

342
11
174
     1
178
     6
175
     1
176
     0
 93
-1056964608
 45
0.18
292
     0
297
     0
 46
0.18
343
0
 94
-1056964608
 47
1.0
 49
1.0
140
1.0
293
     1
141
0.0
294
     1
177
     0
142
1.0
295
     0
296
     0
143
0.125
271
     0
272
     9
273
     9
298
     0
  0
MLINESTYLE
  5
18
102
{ACAD_REACTORS
330
17
102
}
330
17
100
AcDbMlineStyle
  2
Standard
 70
     0
  3

 62
   256
 51
90.0
 52
90.0
 71
     2
 49
0.5
 62
   256
  6
BYLAYER
 49
-0.5
 62
   256
  6
BYLAYER
  0
ACDBPLACEHOLDER
  5
F
102
{ACAD_REACTORS
330
E
102
}
330
E
  0
SCALE
  5
48
102
{ACAD_REACTORS
330
47
102
}
330
47
100
AcDbScale
 70
     0
300
1:1
140
1.0
141
1.0
290
     1
  0
SCALE
  5
49
102
{ACAD_REACTORS
330
47
102
}
330
47
100
AcDbScale
 70
     0
300
1/128" = 1'-0"
140
0.0078125
141
12.0
290
     0
  0
SCALE
  5
4A
102
{ACAD_REACTORS
330
47
102
}
330
47
100
AcDbScale
 70
     0
300
1/64" = 1'-0"
140
0.015625
141
12.0
290
     0
  0
SCALE
  5
4B
102
{ACAD_REACTORS
330
47
102
}
330
47
100
AcDbScale
 70
     0
300
1/32" = 1'-0"
140
0.03125
141
12.0
290
     0
  0
SCALE
  5
4C
102
{ACAD_REACTORS
330
47
102
}
330
47
100
AcDbScale
 70
     0
300
1/16" = 1'-0"
140
0.0625
141
12.0
290
     0
  0
SCALE
  5
4D
102
{ACAD_REACTORS
330
47
102
}
330
47
100
AcDbScale
 70
     0
300
3/32" = 1'-0"
140
0.09375
141
12.0
290
     0
  0
SCALE
  5
4E
102
{ACAD_REACTORS
330
47
102
}
330
47
100
AcDbScale
 70
     0
300
1/8" = 1'-0"
140
0.125
141
12.0
290
     0
  0
SCALE
  5
4F
102
{ACAD_REACTORS
330
47
102
}
330
47
100
AcDbScale
 70
     0
300
3/16" = 1'-0"
140
0.1875
141
12.0
290
     0
  0
SCALE
  5
50
102
{ACAD_REACTORS
330
47
102
}
330
47
100
AcDbScale
 70
     0
300
1/4" = 1'-0"
140
0.25
141
12.0
290
     0
  0
SCALE
  5
51
102
{ACAD_REACTORS
330
47
102
}
330
47
100
AcDbScale
 70
     0
300
3/8" = 1'-0"
140
0.375
141
12.0
290
     0
  0
SCALE
  5
52
102
{ACAD_REACTORS
330
47
102
}
330
47
100
AcDbScale
 70
     0
300
1/2" = 1'-0"
140
0.5
141
12.0
290
     0
  0
SCALE
  5
53
102
{ACAD_REACTORS
330
47
102
}
330
47
100
AcDbScale
 70
     0
300
3/4" = 1'-0"
140
0.75
141
12.0
290
     0
  0
SCALE
  5
54
102
{ACAD_REACTORS
330
47
102
}
330
47
100
AcDbScale
 70
     0
300
1" = 1'-0"
140
1.0
141
12.0
290
     0
  0
SCALE
  5
55
102
{ACAD_REACTORS
330
47
102
}
330
47
100
AcDbScale
 70
     0
300
1-1/2" = 1'-0"
140
1.5
141
12.0
290
     0
  0
SCALE
  5
56
102
{ACAD_REACTORS
330
47
102
}
330
47
100
AcDbScale
 70
     0
300
3" = 1'-0"
140
3.0
141
12.0
290
     0
  0
SCALE
  5
57
102
{ACAD_REACTORS
330
47
102
}
330
47
100
AcDbScale
 70
     0
300
6" = 1'-0"
140
6.0
141
12.0
290
     0
  0
SCALE
  5
58
102
{ACAD_REACTORS
330
47
102
}
330
47
100
AcDbScale
 70
     0
300
1'-0" = 1'-0"
140
12.0
141
12.0
290
     0
  0
TABLESTYLE
  5
5A
102
{ACAD_REACTORS
330
59
102
}
102
{ACAD_XDICTIONARY
360
11D
102
}
330
59
100
AcDbTableStyle
  3
Standard
 70
     0
 71
     0
 40
0.06
 41
0.06
280
     0
281
     0
  7
Standard
140
0.18
170
     2
 62
     0
 63
   257
283
     0
 90
        4
 91
        0
  1

274
    -2
284
     1
 64
     0
275
    -2
285
     1
 65
     0
276
    -2
286
     1
 66
     0
277
    -2
287
     1
 67
     0
278
    -2
288
     1
 68
     0
279
    -2
289
     1
 69
     0
  7
Standard
140
0.25
170
     5
 62
     0
 63
   257
283
     0
 90
        4
 91
        0
  1

274
    -2
284
     1
 64
     0
275
    -2
285
     1
 65
     0
276
    -2
286
     1
 66
     0
277
    -2
287
     1
 67
     0
278
    -2
288
     1
 68
     0
279
    -2
289
     1
 69
     0
  7
Standard
140
0.18
170
     5
 62
     0
 63
   257
283
     0
 90
        4
 91
        0
  1

274
    -2
284
     1
 64
     0
275
    -2
285
     1
 65
     0
276
    -2
286
     1
 66
     0
277
    -2
287
     1
 67
     0
278
    -2
288
     1
 68
     0
279
    -2
289
     1
 69
     0
  0
VISUALSTYLE
  5
2F
102
{ACAD_REACTORS
330
2A
102
}
330
2A
100
AcDbVisualStyle
  2
2dWireframe
 70
     4
177
     3
291
     0
 70
    58
 90
        0
176
     1
 90
        2
176
     1
 90
        0
176
     1
 90
        0
176
     1
 40
0.6
176
     1
 40
30.0
176
     1
 62
     7
420
 16777215
176
     1
 90
        1
176
     1
 90
        4
176
     1
 62
     7
176
     1
 62
   257
176
     1
 90
        1
176
     1
 90
        1
176
     1
 40
1.0
176
     1
 90
        0
176
     1
 62
   257
176
     1
 40
1.0
176
     1
 90
        1
176
     1
 90
        6
176
     1
 90
        2
176
     1
 62
     7
176
     1
 90
        5
176
     1
 90
        0
176
     1
 90
        0
176
     1
290
     0
176
     1
 90
        1
176
     1
 40
0.0
176
     1
 90
        0
176
     1
290
     1
176
     1
290
     1
176
     1
290
     0
176
     1
290
     0
176
     1
290
     0
176
     1
290
     0
176
     1
290
     0
176
     1
290
     0
176
     1
290
     0
176
     1
 90
       50
176
     1
 40
0.0
176
     1
 40
1.0
176
     1
 90
        0
176
     1
 62
    18
420
        0
176
     1
 90
       50
176
     1
 90
        3
176
     1
 62
     5
420
      255
176
     1
290
     0
176
     1
 90
       50
176
     1
 90
       50
176
     1
 90
       50
176
     1
290
     0
176
     1
 90
       50
176
     1
 62
   256
176
     0
 40
1.0
176
     0
 90
        2
176
     1
  1
strokes_ogs.tif
176
     1
290
     0
176
     1
 40
1.0
176
     1
 40
1.0
176
     1
  0
VISUALSTYLE
  5
32
102
{ACAD_REACTORS
330
2A
102
}
330
2A
100
AcDbVisualStyle
  2
Basic
 70
     7
177
     3
291
     1
 70
    58
 90
        1
176
     1
 90
        0
176
     1
 90
        1
176
     1
 90
        0
176
     1
 40
0.6
176
     1
 40
30.0
176
     1
 62
     7
420
 16777215
176
     1
 90
        0
176
     1
 90
        4
176
     1
 62
     7
176
     1
 62
   257
176
     1
 90
        1
176
     1
 90
        1
176
     1
 40
1.0
176
     1
 90
        8
176
     1
 62
     7
176
     1
 40
1.0
176
     1
 90
        1
176
     1
 90
        6
176
     1
 90
        2
176
     1
 62
     7
176
     1
 90
        5
176
     1
 90
        0
176
     1
 90
        0
176
     1
290
     0
176
     1
 90
        1
176
     1
 40
0.0
176
     1
 90
        0
176
     1
290
     0
176
     1
290
     1
176
     1
290
     1
176
     1
290
     0
176
     1
290
     0
176
     1
290
     0
176
     1
290
     0
176
     1
290
     0
176
     1
290
     0
176
     1
 90
       50
176
     1
 40
0.0
176
     1
 40
1.0
176
     1
 90
        0
176
     1
 62
    18
420
        0
176
     1
 90
       50
176
     1
 90
        3
176
     1
 62
     5
420
      255
176
     1
290
     0
176
     1
 90
       50
176
     1
 90
       50
176
     1
 90
       50
176
     1
290
     0
176
     1
 90
       50
176
     1
 62
   256
176
     0
 40
1.0
176
     0
 90
        2
176
     1
  1
strokes_ogs.tif
176
     1
290
     0
176
     1
 40
1.0
176
     1
 40
1.0
176
     1
  0
VISUALSTYLE
  5
36
102
{ACAD_REACTORS
330
2A
102
}
330
2A
100
AcDbVisualStyle
  2
Brighten
 70
    12
177
     3
291
     1
 70
    58
 90
        2
176
     1
 90
        2
176
     1
 90
        0
176
     1
 90
        0
176
     1
 40
0.6
176
     1
 40
30.0
176
     1
 62
     7
420
 16777215
176
     1
 90
        1
176
     1
 90
        4
176
     1
 62
     7
176
     1
 62
   257
176
     1
 90
        1
176
     1
 90
        1
176
     1
 40
1.0
176
     1
 90
        8
176
     1
 62
     7
176
     1
 40
1.0
176
     1
 90
        1
176
     1
 90
        6
176
     1
 90
        2
176
     1
 62
     7
176
     1
 90
        5
176
     1
 90
        0
176
     1
 90
        0
176
     1
290
     0
176
     1
 90
        1
176
     1
 40
50.0
176
     1
 90
        0
176
     1
290
     0
176
     1
290
     1
176
     1
290
     1
176
     1
290
     0
176
     1
290
     0
176
     1
290
     0
176
     1
290
     0
176
     1
290
     0
176
     1
290
     0
176
     1
 90
       50
176
     1
 40
0.0
176
     1
 40
1.0
176
     1
 90
        0
176
     1
 62
    18
420
        0
176
     1
 90
       50
176
     1
 90
        3
176
     1
 62
     5
420
      255
176
     1
290
     0
176
     1
 90
       50
176
     1
 90
       50
176
     1
 90
       50
176
     1
290
     0
176
     1
 90
       50
176
     1
 62
   256
176
     0
 40
1.0
176
     0
 90
        2
176
     1
  1
strokes_ogs.tif
176
     1
290
     0
176
     1
 40
1.0
176
     1
 40
1.0
176
     1
  0
VISUALSTYLE
  5
3A
102
{ACAD_REACTORS
330
2A
102
}
330
2A
100
AcDbVisualStyle
  2
ColorChange
 70
    16
177
     3
291
     1
 70
    58
 90
        2
176
     1
 90
        2
176
     1
 90
        3
176
     1
 90
        0
176
     1
 40
0.6
176
     1
 40
30.0
176
     1
 62
     8
420
  8421504
176
     1
 90
        1
176
     1
 90
        4
176
     1
 62
     7
176
     1
 62
   257
176
     1
 90
        1
176
     1
 90
        1
176
     1
 40
1.0
176
     1
 90
        8
176
     1
 62
     8
420
  8421504
176
     1
 40
1.0
176
     1
 90
        1
176
     1
 90
        6
176
     1
 90
        2
176
     1
 62
     7
176
     1
 90
        5
176
     1
 90
        0
176
     1
 90
        0
176
     1
290
     0
176
     1
 90
        1
176
     1
 40
0.0
176
     1
 90
        0
176
     1
290
     0
176
     1
290
     1
176
     1
290
     1
176
     1
290
     0
176
     1
290
     0
176
     1
290
     0
176
     1
290
     0
176
     1
290
     0
176
     1
290
     0
176
     1
 90
       50
176
     1
 40
0.0
176
     1
 40
1.0
176
     1
 90
        0
176
     1
 62
    18
420
        0
176
     1
 90
       50
176
     1
 90
        3
176
     1
 62
     5
420
      255
176
     1
290
     0
176
     1
 90
       50
176
     1
 90
       50
176
     1
 90
       50
176
     1
290
     0
176
     1
 90
       50
176
     1
 62
   256
176
     0
 40
1.0
176
     0
 90
        2
176
     1
  1
strokes_ogs.tif
176
     1
290
     0
176
     1
 40
1.0
176
     1
 40
1.0
176
     1
  0
VISUALSTYLE
  5
34
102
{ACAD_REACTORS
330
2A
102
}
330
2A
100
AcDbVisualStyle
  2
Conceptual
 70
     9
177
     3
291
     0
 70
    58
 90
        3
176
     1
 90
        2
176
     1
 90
        0
176
     1
 90
        0
176
     1
 40
0.6
176
     1
 40
30.0
176
     1
 62
     7
420
 16777215
176
     1
 90
        2
176
     1
 90
        2
176
     1
 62
     7
176
     1
 62
   257
176
     1
 90
        1
176
     1
 90
        1
176
     1
 40
179.0
176
     1
 90
        8
176
     1
 62
     7
176
     1
 40
1.0
176
     1
 90
        1
176
     1
 90
        6
176
     1
 90
        2
176
     1
 62
     7
176
     1
 90
        3
176
     1
 90
        0
176
     1
 90
        0
176
     1
290
     0
176
     1
 90
        1
176
     1
 40
0.0
176
     1
 90
        0
176
     1
290
     0
176
     1
290
     1
176
     1
290
     1
176
     1
290
     0
176
     1
290
     0
176
     1
290
     0
176
     1
290
     0
176
     1
290
     0
176
     1
290
     0
176
     1
 90
       50
176
     1
 40
0.0
176
     1
 40
1.0
176
     1
 90
        0
176
     1
 62
    18
420
        0
176
     1
 90
       50
176
     1
 90
        3
176
     1
 62
     5
420
      255
176
     1
290
     0
176
     1
 90
       50
176
     1
 90
       50
176
     1
 90
       50
176
     1
290
     0
176
     1
 90
       50
176
     1
 62
   256
176
     0
 40
1.0
176
     0
 90
        2
176
     1
  1
strokes_ogs.tif
176
     1
290
     0
176
     1
 40
1.0
176
     1
 40
1.0
176
     1
  0
VISUALSTYLE
  5
35
102
{ACAD_REACTORS
330
2A
102
}
330
2A
100
AcDbVisualStyle
  2
Dim
 70
    11
177
     3
291
     1
 70
    58
 90
        2
176
     1
 90
        2
176
     1
 90
        0
176
     1
 90
        0
176
     1
 40
0.6
176
     1
 40
30.0
176
     1
 62
     7
420
 16777215
176
     1
 90
        1
176
     1
 90
        4
176
     1
 62
     7
176
     1
 62
   257
176
     1
 90
        1
176
     1
 90
        1
176
     1
 40
1.0
176
     1
 90
        8
176
     1
 62
     7
176
     1
 40
1.0
176
     1
 90
        1
176
     1
 90
        6
176
     1
 90
        2
176
     1
 62
     7
176
     1
 90
        5
176
     1
 90
        0
176
     1
 90
        0
176
     1
290
     0
176
     1
 90
        1
176
     1
 40
-50.0
176
     1
 90
        0
176
     1
290
     0
176
     1
290
     1
176
     1
290
     1
176
     1
290
     0
176
     1
290
     0
176
     1
290
     0
176
     1
290
     0
176
     1
290
     0
176
     1
290
     0
176
     1
 90
       50
176
     1
 40
0.0
176
     1
 40
1.0
176
     1
 90
        0
176
     1
 62
    18
420
        0
176
     1
 90
       50
176
     1
 90
        3
176
     1
 62
     5
420
      255
176
     1
290
     0
176
     1
 90
       50
176
     1
 90
       50
176
     1
 90
       50
176
     1
290
     0
176
     1
 90
       50
176
     1
 62
   256
176
     0
 40
1.0
176
     0
 90
        2
176
     1
  1
strokes_ogs.tif
176
     1
290
     0
176
     1
 40
1.0
176
     1
 40
1.0
176
     1
  0
VISUALSTYLE
  5
3D
102
{ACAD_REACTORS
330
2A
102
}
330
2A
100
AcDbVisualStyle
  2
EdgeColorOff
 70
    22
177
     3
291
     1
 70
    58
 90
        2
176
     0
 90
        2
176
     0
 90
        0
176
     0
 90
        0
176
     0
 40
0.6
176
     0
 40
30.0
176
     0
 62
     7
420
 16777215
176
     0
 90
        1
176
     0
 90
        4
176
     0
 62
     7
176
     0
 62
   257
176
     0
 90
        1
176
     0
 90
        1
176
     0
 40
1.0
176
     0
 90
        8
176
     2
 62
     7
176
     0
 40
1.0
176
     0
 90
        1
176
     0
 90
        6
176
     0
 90
        2
176
     0
 62
     7
176
     0
 90
        5
176
     0
 90
        0
176
     0
 90
        0
176
     0
290
     0
176
     0
 90
        1
176
     0
 40
0.0
176
     0
 90
        0
176
     0
290
     0
176
     0
290
     1
176
     0
290
     1
176
     0
290
     0
176
     0
290
     0
176
     0
290
     0
176
     0
290
     0
176
     0
290
     0
176
     0
290
     0
176
     0
 90
       50
176
     0
 40
0.0
176
     0
 40
1.0
176
     0
 90
        0
176
     0
 62
    18
420
        0
176
     0
 90
       50
176
     0
 90
        3
176
     0
 62
     5
420
      255
176
     0
290
     0
176
     0
 90
       50
176
     0
 90
       50
176
     0
 90
       50
176
     0
290
     0
176
     0
 90
       50
176
     0
 62
   256
176
     0
 40
1.0
176
     0
 90
        2
176
     0
  1
strokes_ogs.tif
176
     0
290
     0
176
     0
 40
1.0
176
     0
 40
1.0
176
     0
  0
VISUALSTYLE
  5
39
102
{ACAD_REACTORS
330
2A
102
}
330
2A
100
AcDbVisualStyle
  2
Facepattern
 70
    15
177
     3
291
     1
 70
    58
 90
        2
176
     1
 90
        2
176
     1
 90
        0
176
     1
 90
        0
176
     1
 40
0.6
176
     1
 40
30.0
176
     1
 62
     7
420
 16777215
176
     1
 90
        1
176
     1
 90
        4
176
     1
 62
     7
176
     1
 62
   257
176
     1
 90
        1
176
     1
 90
        1
176
     1
 40
1.0
176
     1
 90
        8
176
     1
 62
     7
176
     1
 40
1.0
176
     1
 90
        1
176
     1
 90
        6
176
     1
 90
        2
176
     1
 62
     7
176
     1
 90
        5
176
     1
 90
        0
176
     1
 90
        0
176
     1
290
     0
176
     1
 90
        1
176
     1
 40
0.0
176
     1
 90
        0
176
     1
290
     0
176
     1
290
     1
176
     1
290
     1
176
     1
290
     0
176
     1
290
     0
176
     1
290
     0
176
     1
290
     0
176
     1
290
     0
176
     1
290
     0
176
     1
 90
       50
176
     1
 40
0.0
176
     1
 40
1.0
176
     1
 90
        0
176
     1
 62
    18
420
        0
176
     1
 90
       50
176
     1
 90
        3
176
     1
 62
     5
420
      255
176
     1
290
     0
176
     1
 90
       50
176
     1
 90
       50
176
     1
 90
       50
176
     1
290
     0
176
     1
 90
       50
176
     1
 62
   256
176
     0
 40
1.0
176
     0
 90
        2
176
     1
  1
strokes_ogs.tif
176
     1
290
     0
176
     1
 40
1.0
176
     1
 40
1.0
176
     1
  0
VISUALSTYLE
  5
2B
102
{ACAD_REACTORS
330
2A
102
}
330
2A
100
AcDbVisualStyle
  2
Flat
 70
     0
177
     3
291
     1
 70
    58
 90
        2
176
     1
 90
        1
176
     1
 90
        1
176
     1
 90
        2
176
     1
 40
0.6
176
     1
 40
30.0
176
     1
 62
     7
420
 16777215
176
     1
 90
        0
176
     1
 90
        0
176
     1
 62
     7
176
     1
 62
   257
176
     1
 90
        1
176
     1
 90
        1
176
     1
 40
1.0
176
     1
 90
        8
176
     1
 62
     7
176
     1
 40
1.0
176
     1
 90
        1
176
     1
 90
        6
176
     1
 90
        2
176
     1
 62
     7
176
     1
 90
        5
176
     1
 90
        0
176
     1
 90
        0
176
     1
290
     0
176
     1
 90
       13
176
     1
 40
0.0
176
     1
 90
        0
176
     1
290
     0
176
     1
290
     1
176
     1
290
     1
176
     1
290
     0
176
     1
290
     0
176
     1
290
     0
176
     1
290
     0
176
     1
290
     0
176
     1
290
     0
176
     1
 90
       50
176
     1
 40
0.0
176
     1
 40
1.0
176
     1
 90
        0
176
     1
 62
    18
420
        0
176
     1
 90
       50
176
     1
 90
        3
176
     1
 62
     5
420
      255
176
     1
290
     0
176
     1
 90
       50
176
     1
 90
       50
176
     1
 90
       50
176
     1
290
     0
176
     1
 90
       50
176
     1
 62
   256
176
     0
 40
1.0
176
     0
 90
        2
176
     1
  1
strokes_ogs.tif
176
     1
290
     0
176
     1
 40
1.0
176
     1
 40
1.0
176
     1
  0
VISUALSTYLE
  5
2C
102
{ACAD_REACTORS
330
2A
102
}
330
2A
100
AcDbVisualStyle
  2
FlatWithEdges
 70
     1
177
     3
291
     1
 70
    58
 90
        2
176
     1
 90
        1
176
     1
 90
        1
176
     1
 90
        2
176
     1
 40
0.6
176
     1
 40
30.0
176
     1
 62
     7
420
 16777215
176
     1
 90
        1
176
     1
 90
        0
176
     1
 62
     7
176
     1
 62
   257
176
     1
 90
        1
176
     1
 90
        1
176
     1
 40
1.0
176
     1
 90
        0
176
     1
 62
   257
176
     1
 40
1.0
176
     1
 90
        1
176
     1
 90
        6
176
     1
 90
        2
176
     1
 62
     7
176
     1
 90
        5
176
     1
 90
        0
176
     1
 90
        0
176
     1
290
     0
176
     1
 90
       13
176
     1
 40
0.0
176
     1
 90
        0
176
     1
290
     0
176
     1
290
     1
176
     1
290
     1
176
     1
290
     0
176
     1
290
     0
176
     1
290
     0
176
     1
290
     0
176
     1
290
     0
176
     1
290
     0
176
     1
 90
       50
176
     1
 40
0.0
176
     1
 40
1.0
176
     1
 90
        0
176
     1
 62
    18
420
        0
176
     1
 90
       50
176
     1
 90
        3
176
     1
 62
     5
420
      255
176
     1
290
     0
176
     1
 90
       50
176
     1
 90
       50
176
     1
 90
       50
176
     1
290
     0
176
     1
 90
       50
176
     1
 62
   256
176
     0
 40
1.0
176
     0
 90
        2
176
     1
  1
strokes_ogs.tif
176
     1
290
     0
176
     1
 40
1.0
176
     1
 40
1.0
176
     1
  0
VISUALSTYLE
  5
2D
102
{ACAD_REACTORS
330
2A
102
}
330
2A
100
AcDbVisualStyle
  2
Gouraud
 70
     2
177
     3
291
     1
 70
    58
 90
        2
176
     1
 90
        2
176
     1
 90
        1
176
     1
 90
        2
176
     1
 40
0.6
176
     1
 40
30.0
176
     1
 62
     7
420
 16777215
176
     1
 90
        0
176
     1
 90
        0
176
     1
 62
     7
176
     1
 62
   257
176
     1
 90
        1
176
     1
 90
        1
176
     1
 40
1.0
176
     1
 90
        0
176
     1
 62
     7
176
     1
 40
1.0
176
     1
 90
        1
176
     1
 90
        6
176
     1
 90
        2
176
     1
 62
     7
176
     1
 90
        5
176
     1
 90
        0
176
     1
 90
        0
176
     1
290
     0
176
     1
 90
       13
176
     1
 40
0.0
176
     1
 90
        0
176
     1
290
     0
176
     1
290
     1
176
     1
290
     1
176
     1
290
     0
176
     1
290
     0
176
     1
290
     0
176
     1
290
     0
176
     1
290
     0
176
     1
290
     0
176
     1
 90
       50
176
     1
 40
0.0
176
     1
 40
1.0
176
     1
 90
        0
176
     1
 62
    18
420
        0
176
     1
 90
       50
176
     1
 90
        3
176
     1
 62
     5
420
      255
176
     1
290
     0
176
     1
 90
       50
176
     1
 90
       50
176
     1
 90
       50
176
     1
290
     0
176
     1
 90
       50
176
     1
 62
   256
176
     0
 40
1.0
176
     0
 90
        2
176
     1
  1
strokes_ogs.tif
176
     1
290
     0
176
     1
 40
1.0
176
     1
 40
1.0
176
     1
  0
VISUALSTYLE
  5
2E
102
{ACAD_REACTORS
330
2A
102
}
330
2A
100
AcDbVisualStyle
  2
GouraudWithEdges
 70
     3
177
     3
291
     1
 70
    58
 90
        2
176
     1
 90
        2
176
     1
 90
        1
176
     1
 90
        2
176
     1
 40
0.6
176
     1
 40
30.0
176
     1
 62
     7
420
 16777215
176
     1
 90
        1
176
     1
 90
        0
176
     1
 62
     7
176
     1
 62
   257
176
     1
 90
        1
176
     1
 90
        1
176
     1
 40
1.0
176
     1
 90
        0
176
     1
 62
   257
176
     1
 40
1.0
176
     1
 90
        1
176
     1
 90
        6
176
     1
 90
        2
176
     1
 62
     7
176
     1
 90
        5
176
     1
 90
        0
176
     1
 90
        0
176
     1
290
     0
176
     1
 90
       13
176
     1
 40
0.0
176
     1
 90
        0
176
     1
290
     0
176
     1
290
     1
176
     1
290
     1
176
     1
290
     0
176
     1
290
     0
176
     1
290
     0
176
     1
290
     0
176
     1
290
     0
176
     1
290
     0
176
     1
 90
       50
176
     1
 40
0.0
176
     1
 40
1.0
176
     1
 90
        0
176
     1
 62
    18
420
        0
176
     1
 90
       50
176
     1
 90
        3
176
     1
 62
     5
420
      255
176
     1
290
     0
176
     1
 90
       50
176
     1
 90
       50
176
     1
 90
       50
176
     1
290
     0
176
     1
 90
       50
176
     1
 62
   256
176
     0
 40
1.0
176
     0
 90
        2
176
     1
  1
strokes_ogs.tif
176
     1
290
     0
176
     1
 40
1.0
176
     1
 40
1.0
176
     1
  0
VISUALSTYLE
  5
31
102
{ACAD_REACTORS
330
2A
102
}
330
2A
100
AcDbVisualStyle
  2
Hidden
 70
     6
177
     3
291
     0
 70
    58
 90
        1
176
     1
 90
        2
176
     1
 90
        2
176
     1
 90
        0
176
     1
 40
0.6
176
     1
 40
30.0
176
     1
 62
     7
420
 16777215
176
     1
 90
        2
176
     1
 90
        2
176
     1
 62
     7
176
     1
 62
   257
176
     1
 90
        2
176
     1
 90
        1
176
     1
 40
40.0
176
     1
 90
        0
176
     1
 62
   257
176
     1
 40
1.0
176
     1
 90
        1
176
     1
 90
        6
176
     1
 90
        2
176
     1
 62
     7
176
     1
 90
        3
176
     1
 90
        0
176
     1
 90
        0
176
     1
290
     0
176
     1
 90
        1
176
     1
 40
0.0
176
     1
 90
        0
176
     1
290
     0
176
     1
290
     1
176
     1
290
     1
176
     1
290
     0
176
     1
290
     0
176
     1
290
     0
176
     1
290
     0
176
     1
290
     0
176
     1
290
     0
176
     1
 90
       50
176
     1
 40
0.0
176
     1
 40
1.0
176
     1
 90
        0
176
     1
 62
    18
420
        0
176
     1
 90
       50
176
     1
 90
        3
176
     1
 62
     5
420
      255
176
     1
290
     0
176
     1
 90
       50
176
     1
 90
       50
176
     1
 90
       50
176
     1
290
     0
176
     1
 90
       50
176
     1
 62
   256
176
     0
 40
1.0
176
     0
 90
        2
176
     1
  1
strokes_ogs.tif
176
     1
290
     0
176
     1
 40
1.0
176
     1
 40
1.0
176
     1
  0
VISUALSTYLE
  5
3B
102
{ACAD_REACTORS
330
2A
102
}
330
2A
100
AcDbVisualStyle
  2
JitterOff
 70
    20
177
     3
291
     1
 70
    58
 90
        2
176
     0
 90
        2
176
     0
 90
        0
176
     0
 90
        0
176
     0
 40
0.6
176
     0
 40
30.0
176
     0
 62
     7
420
 16777215
176
     0
 90
        1
176
     0
 90
        4
176
     0
 62
     7
176
     0
 62
   257
176
     0
 90
        1
176
     0
 90
        1
176
     0
 40
1.0
176
     0
 90
       10
176
     2
 62
     7
176
     0
 40
1.0
176
     0
 90
        1
176
     0
 90
        6
176
     0
 90
        2
176
     0
 62
     7
176
     0
 90
        5
176
     0
 90
        0
176
     0
 90
        0
176
     0
290
     0
176
     0
 90
        1
176
     0
 40
0.0
176
     0
 90
        0
176
     0
290
     0
176
     0
290
     1
176
     0
290
     1
176
     0
290
     0
176
     0
290
     0
176
     0
290
     0
176
     0
290
     0
176
     0
290
     0
176
     0
290
     0
176
     0
 90
       50
176
     0
 40
0.0
176
     0
 40
1.0
176
     0
 90
        0
176
     0
 62
    18
420
        0
176
     0
 90
       50
176
     0
 90
        3
176
     0
 62
     5
420
      255
176
     0
290
     0
176
     0
 90
       50
176
     0
 90
       50
176
     0
 90
       50
176
     0
290
     0
176
     0
 90
       50
176
     0
 62
   256
176
     0
 40
1.0
176
     0
 90
        2
176
     0
  1
strokes_ogs.tif
176
     0
290
     0
176
     0
 40
1.0
176
     0
 40
1.0
176
     0
  0
VISUALSTYLE
  5
38
102
{ACAD_REACTORS
330
2A
102
}
330
2A
100
AcDbVisualStyle
  2
Linepattern
 70
    14
177
     3
291
     1
 70
    58
 90
        2
176
     1
 90
        2
176
     1
 90
        0
176
     1
 90
        0
176
     1
 40
0.6
176
     1
 40
30.0
176
     1
 62
     7
420
 16777215
176
     1
 90
        1
176
     1
 90
        4
176
     1
 62
     7
176
     1
 62
   257
176
     1
 90
        7
176
     1
 90
        7
176
     1
 40
1.0
176
     1
 90
        8
176
     1
 62
     7
176
     1
 40
1.0
176
     1
 90
        1
176
     1
 90
        6
176
     1
 90
        2
176
     1
 62
     7
176
     1
 90
        5
176
     1
 90
        0
176
     1
 90
        0
176
     1
290
     0
176
     1
 90
        1
176
     1
 40
0.0
176
     1
 90
        0
176
     1
290
     0
176
     1
290
     1
176
     1
290
     1
176
     1
290
     0
176
     1
290
     0
176
     1
290
     0
176
     1
290
     0
176
     1
290
     0
176
     1
290
     0
176
     1
 90
       50
176
     1
 40
0.0
176
     1
 40
1.0
176
     1
 90
        0
176
     1
 62
    18
420
        0
176
     1
 90
       50
176
     1
 90
        3
176
     1
 62
     5
420
      255
176
     1
290
     0
176
     1
 90
       50
176
     1
 90
       50
176
     1
 90
       50
176
     1
290
     0
176
     1
 90
       50
176
     1
 62
   256
176
     0
 40
1.0
176
     0
 90
        2
176
     1
  1
strokes_ogs.tif
176
     1
290
     0
176
     1
 40
1.0
176
     1
 40
1.0
176
     1
  0
VISUALSTYLE
  5
3C
102
{ACAD_REACTORS
330
2A
102
}
330
2A
100
AcDbVisualStyle
  2
OverhangOff
 70
    21
177
     3
291
     1
 70
    58
 90
        2
176
     0
 90
        2
176
     0
 90
        0
176
     0
 90
        0
176
     0
 40
0.6
176
     0
 40
30.0
176
     0
 62
     7
420
 16777215
176
     0
 90
        1
176
     0
 90
        4
176
     0
 62
     7
176
     0
 62
   257
176
     0
 90
        1
176
     0
 90
        1
176
     0
 40
1.0
176
     0
 90
        9
176
     2
 62
     7
176
     0
 40
1.0
176
     0
 90
        1
176
     0
 90
        6
176
     0
 90
        2
176
     0
 62
     7
176
     0
 90
        5
176
     0
 90
        0
176
     0
 90
        0
176
     0
290
     0
176
     0
 90
        1
176
     0
 40
0.0
176
     0
 90
        0
176
     0
290
     0
176
     0
290
     1
176
     0
290
     1
176
     0
290
     0
176
     0
290
     0
176
     0
290
     0
176
     0
290
     0
176
     0
290
     0
176
     0
290
     0
176
     0
 90
       50
176
     0
 40
0.0
176
     0
 40
1.0
176
     0
 90
        0
176
     0
 62
    18
420
        0
176
     0
 90
       50
176
     0
 90
        3
176
     0
 62
     5
420
      255
176
     0
290
     0
176
     0
 90
       50
176
     0
 90
       50
176
     0
 90
       50
176
     0
290
     0
176
     0
 90
       50
176
     0
 62
   256
176
     0
 40
1.0
176
     0
 90
        2
176
     0
  1
strokes_ogs.tif
176
     0
290
     0
176
     0
 40
1.0
176
     0
 40
1.0
176
     0
  0
VISUALSTYLE
  5
33
102
{ACAD_REACTORS
330
2A
102
}
330
2A
100
AcDbVisualStyle
  2
Realistic
 70
     8
177
     3
291
     0
 70
    58
 90
        2
176
     1
 90
        3
176
     1
 90
        0
176
     1
 90
        2
176
     1
 40
0.6
176
     1
 40
30.0
176
     1
 62
     7
420
 16777215
176
     1
 90
        0
176
     1
 90
        0
176
     1
 62
     7
176
     1
 62
   257
176
     1
 90
        1
176
     1
 90
        1
176
     1
 40
1.0
176
     1
 90
        8
176
     1
 62
   257
176
     1
 40
1.0
176
     1
 90
        1
176
     1
 90
        6
176
     1
 90
        2
176
     1
 62
     7
176
     1
 90
        3
176
     1
 90
        0
176
     1
 90
        0
176
     1
290
     0
176
     1
 90
       13
176
     1
 40
0.0
176
     1
 90
        0
176
     1
290
     0
176
     1
290
     1
176
     1
290
     1
176
     1
290
     0
176
     1
290
     0
176
     1
290
     0
176
     1
290
     0
176
     1
290
     0
176
     1
290
     0
176
     1
 90
       50
176
     1
 40
0.0
176
     1
 40
1.0
176
     1
 90
        0
176
     1
 62
    18
420
        0
176
     1
 90
       50
176
     1
 90
        3
176
     1
 62
     5
420
      255
176
     1
290
     0
176
     1
 90
       50
176
     1
 90
       50
176
     1
 90
       50
176
     1
290
     0
176
     1
 90
       50
176
     1
 62
   256
176
     0
 40
1.0
176
     0
 90
        2
176
     1
  1
strokes_ogs.tif
176
     1
290
     0
176
     1
 40
1.0
176
     1
 40
1.0
176
     1
  0
VISUALSTYLE
  5
42
102
{ACAD_REACTORS
330
2A
102
}
330
2A
100
AcDbVisualStyle
  2
Shaded
 70
    27
177
     3
291
     0
 70
    58
 90
        2
176
     1
 90
        2
176
     1
 90
        1
176
     1
 90
        2
176
     1
 40
0.6
176
     1
 40
30.0
176
     1
 62
     7
420
 16777215
176
     1
 90
        0
176
     1
 90
        4
176
     1
 62
     7
176
     1
 62
   257
176
     1
 90
        1
176
     1
 90
        1
176
     1
 40
1.0
176
     1
 90
        8
176
     1
 62
   257
176
     1
 40
1.0
176
     1
 90
        1
176
     1
 90
        6
176
     1
 90
        2
176
     1
 62
     8
420
  7895160
176
     1
 90
        3
176
     1
 90
        0
176
     1
 90
        0
176
     1
290
     0
176
     1
 90
        5
176
     1
 40
0.0
176
     1
 90
        0
176
     1
290
     0
176
     1
290
     1
176
     1
290
     1
176
     1
290
     0
176
     1
290
     0
176
     1
290
     0
176
     1
290
     0
176
     1
290
     0
176
     1
290
     0
176
     1
 90
       50
176
     1
 40
0.0
176
     1
 40
1.0
176
     1
 90
        0
176
     1
 62
    18
420
        0
176
     1
 90
       50
176
     1
 90
        3
176
     1
 62
     5
420
      255
176
     1
290
     0
176
     1
 90
       50
176
     1
 90
       50
176
     1
 90
       50
176
     1
290
     0
176
     1
 90
       50
176
     1
 62
   256
176
     0
 40
1.0
176
     0
 90
        2
176
     1
  1
strokes_ogs.tif
176
     1
290
     0
176
     1
 40
1.0
176
     1
 40
1.0
176
     1
  0
VISUALSTYLE
  5
41
102
{ACAD_REACTORS
330
2A
102
}
330
2A
100
AcDbVisualStyle
  2
Shaded with edges
 70
    26
177
     3
291
     0
 70
    58
 90
        2
176
     1
 90
        2
176
     1
 90
        1
176
     1
 90
        2
176
     1
 40
0.6
176
     1
 40
30.0
176
     1
 62
     7
420
 16777215
176
     1
 90
        1
176
     1
 90
       10
176
     1
 62
     7
176
     1
 62
   257
176
     1
 90
        2
176
     1
 90
        1
176
     1
 40
1.0
176
     1
 90
        8
176
     1
 62
   257
176
     1
 40
1.0
176
     1
 90
        1
176
     1
 90
        6
176
     1
 90
        2
176
     1
 62
     7
176
     1
 90
        3
176
     1
 90
        0
176
     1
 90
        0
176
     1
290
     0
176
     1
 90
        5
176
     1
 40
0.0
176
     1
 90
        0
176
     1
290
     0
176
     1
290
     1
176
     1
290
     1
176
     1
290
     0
176
     1
290
     0
176
     1
290
     0
176
     1
290
     0
176
     1
290
     0
176
     1
290
     0
176
     1
 90
       50
176
     1
 40
0.0
176
     1
 40
1.0
176
     1
 90
        0
176
     1
 62
    18
420
        0
176
     1
 90
       50
176
     1
 90
        3
176
     1
 62
     5
420
      255
176
     1
290
     0
176
     1
 90
       50
176
     1
 90
       50
176
     1
 90
       50
176
     1
290
     0
176
     1
 90
       50
176
     1
 62
   256
176
     0
 40
1.0
176
     0
 90
        2
176
     1
  1
strokes_ogs.tif
176
     1
290
     0
176
     1
 40
1.0
176
     1
 40
1.0
176
     1
  0
VISUALSTYLE
  5
3E
102
{ACAD_REACTORS
330
2A
102
}
330
2A
100
AcDbVisualStyle
  2
Shades of Gray
 70
    23
177
     3
291
     0
 70
    58
 90
        2
176
     1
 90
        2
176
     1
 90
        3
176
     1
 90
        0
176
     1
 40
0.6
176
     1
 40
30.0
176
     1
 62
     7
420
 16777215
176
     1
 90
        2
176
     1
 90
        2
176
     1
 62
     7
176
     1
 62
     7
176
     1
 90
        1
176
     1
 90
        1
176
     1
 40
40.0
176
     1
 90
        8
176
     1
 62
     7
176
     1
 40
1.0
176
     1
 90
        1
176
     1
 90
        6
176
     1
 90
        2
176
     1
 62
     7
176
     1
 90
        3
176
     1
 90
        0
176
     1
 90
        0
176
     1
290
     0
176
     1
 90
        1
176
     1
 40
0.0
176
     1
 90
        0
176
     1
290
     0
176
     1
290
     1
176
     1
290
     1
176
     1
290
     0
176
     1
290
     0
176
     1
290
     0
176
     1
290
     0
176
     1
290
     0
176
     1
290
     0
176
     1
 90
       50
176
     1
 40
0.0
176
     1
 40
1.0
176
     1
 90
        0
176
     1
 62
    18
420
        0
176
     1
 90
       50
176
     1
 90
        3
176
     1
 62
     5
420
      255
176
     1
290
     0
176
     1
 90
       50
176
     1
 90
       50
176
     1
 90
       50
176
     1
290
     0
176
     1
 90
       50
176
     1
 62
   256
176
     0
 40
1.0
176
     0
 90
        2
176
     1
  1
strokes_ogs.tif
176
     1
290
     0
176
     1
 40
1.0
176
     1
 40
1.0
176
     1
  0
VISUALSTYLE
  5
3F
102
{ACAD_REACTORS
330
2A
102
}
330
2A
100
AcDbVisualStyle
  2
Sketchy
 70
    24
177
     3
291
     0
 70
    58
 90
        1
176
     1
 90
        2
176
     1
 90
        2
176
     1
 90
        0
176
     1
 40
0.6
176
     1
 40
30.0
176
     1
 62
     7
420
 16777215
176
     1
 90
        2
176
     1
 90
        2
176
     1
 62
     7
176
     1
 62
     7
176
     1
 90
        1
176
     1
 90
        1
176
     1
 40
40.0
176
     1
 90
       11
176
     1
 62
     7
176
     1
 40
1.0
176
     1
 90
        1
176
     1
 90
        6
176
     1
 90
        2
176
     1
 62
     7
176
     1
 90
        6
176
     1
 90
        0
176
     1
 90
        0
176
     1
290
     0
176
     1
 90
        1
176
     1
 40
0.0
176
     1
 90
        0
176
     1
290
     0
176
     1
290
     1
176
     1
290
     1
176
     1
290
     0
176
     1
290
     0
176
     1
290
     0
176
     1
290
     0
176
     1
290
     0
176
     1
290
     0
176
     1
 90
       50
176
     1
 40
0.0
176
     1
 40
1.0
176
     1
 90
        0
176
     1
 62
    18
420
        0
176
     1
 90
       50
176
     1
 90
        3
176
     1
 62
     5
420
      255
176
     1
290
     0
176
     1
 90
       50
176
     1
 90
       50
176
     1
 90
       50
176
     1
290
     0
176
     1
 90
       50
176
     1
 62
   256
176
     0
 40
1.0
176
     0
 90
        2
176
     1
  1
strokes_ogs.tif
176
     1
290
     0
176
     1
 40
1.0
176
     1
 40
1.0
176
     1
  0
VISUALSTYLE
  5
37
102
{ACAD_REACTORS
330
2A
102
}
330
2A
100
AcDbVisualStyle
  2
Thicken
 70
    13
177
     3
291
     1
 70
    58
 90
        2
176
     1
 90
        2
176
     1
 90
        0
176
     1
 90
        0
176
     1
 40
0.6
176
     1
 40
30.0
176
     1
 62
     7
420
 16777215
176
     1
 90
        1
176
     1
 90
        4
176
     1
 62
     7
176
     1
 62
   257
176
     1
 90
        1
176
     1
 90
        1
176
     1
 40
1.0
176
     1
 90
       12
176
     1
 62
     7
176
     1
 40
1.0
176
     1
 90
        1
176
     1
 90
        6
176
     1
 90
        2
176
     1
 62
     7
176
     1
 90
        5
176
     1
 90
        0
176
     1
 90
        0
176
     1
290
     0
176
     1
 90
        1
176
     1
 40
0.0
176
     1
 90
        0
176
     1
290
     0
176
     1
290
     1
176
     1
290
     1
176
     1
290
     0
176
     1
290
     0
176
     1
290
     0
176
     1
290
     0
176
     1
290
     0
176
     1
290
     0
176
     1
 90
       50
176
     1
 40
0.0
176
     1
 40
1.0
176
     1
 90
        0
176
     1
 62
    18
420
        0
176
     1
 90
       50
176
     1
 90
        3
176
     1
 62
     5
420
      255
176
     1
290
     0
176
     1
 90
       50
176
     1
 90
       50
176
     1
 90
       50
176
     1
290
     0
176
     1
 90
       50
176
     1
 62
   256
176
     0
 40
1.0
176
     0
 90
        2
176
     1
  1
strokes_ogs.tif
176
     1
290
     0
176
     1
 40
1.0
176
     1
 40
1.0
176
     1
  0
VISUALSTYLE
  5
30
102
{ACAD_REACTORS
330
2A
102
}
330
2A
100
AcDbVisualStyle
  2
Wireframe
 70
     5
177
     3
291
     0
 70
    58
 90
        0
176
     1
 90
        2
176
     1
 90
        0
176
     1
 90
        0
176
     1
 40
0.6
176
     1
 40
30.0
176
     1
 62
     7
420
 16777215
176
     1
 90
        1
176
     1
 90
        4
176
     1
 62
     7
176
     1
 62
   257
176
     1
 90
        1
176
     1
 90
        1
176
     1
 40
1.0
176
     1
 90
        0
176
     1
 62
   257
176
     1
 40
1.0
176
     1
 90
        1
176
     1
 90
        6
176
     1
 90
        2
176
     1
 62
     7
176
     1
 90
        3
176
     1
 90
        0
176
     1
 90
        0
176
     1
290
     0
176
     1
 90
        1
176
     1
 40
0.0
176
     1
 90
        0
176
     1
290
     0
176
     1
290
     1
176
     1
290
     1
176
     1
290
     0
176
     1
290
     0
176
     1
290
     0
176
     1
290
     0
176
     1
290
     0
176
     1
290
     0
176
     1
 90
       50
176
     1
 40
0.0
176
     1
 40
1.0
176
     1
 90
        0
176
     1
 62
    18
420
        0
176
     1
 90
       50
176
     1
 90
        3
176
     1
 62
     5
420
      255
176
     1
290
     0
176
     1
 90
       50
176
     1
 90
       50
176
     1
 90
       50
176
     1
290
     0
176
     1
 90
       50
176
     1
 62
   256
176
     0
 40
1.0
176
     0
 90
        2
176
     1
  1
strokes_ogs.tif
176
     1
290
     0
176
     1
 40
1.0
176
     1
 40
1.0
176
     1
  0
VISUALSTYLE
  5
40
102
{ACAD_REACTORS
330
2A
102
}
330
2A
100
AcDbVisualStyle
  2
X-Ray
 70
    25
177
     3
291
     0
 70
    58
 90
        2
176
     1
 90
        2
176
     1
 90
        1
176
     1
 90
        1
176
     1
 40
0.5
176
     1
 40
30.0
176
     1
 62
     7
420
 16777215
176
     1
 90
        1
176
     1
 90
        0
176
     1
 62
     7
176
     1
 62
   257
176
     1
 90
        1
176
     1
 90
        1
176
     1
 40
1.0
176
     1
 90
        8
176
     1
 62
     7
176
     1
 40
1.0
176
     1
 90
        1
176
     1
 90
        6
176
     1
 90
        2
176
     1
 62
     7
176
     1
 90
        3
176
     1
 90
        0
176
     1
 90
        0
176
     1
290
     0
176
     1
 90
       13
176
     1
 40
0.0
176
     1
 90
        0
176
     1
290
     0
176
     1
290
     1
176
     1
290
     1
176
     1
290
     0
176
     1
290
     0
176
     1
290
     0
176
     1
290
     0
176
     1
290
     0
176
     1
290
     0
176
     1
 90
       50
176
     1
 40
0.0
176
     1
 40
1.0
176
     1
 90
        0
176
     1
 62
    18
420
        0
176
     1
 90
       50
176
     1
 90
        3
176
     1
 62
     5
420
      255
176
     1
290
     0
176
     1
 90
       50
176
     1
 90
       50
176
     1
 90
       50
176
     1
290
     0
176
     1
 90
       50
176
     1
 62
   256
176
     0
 40
1.0
176
     0
 90
        2
176
     1
  1
strokes_ogs.tif
176
     1
290
     0
176
     1
 40
1.0
176
     1
 40
1.0
176
     1
  0
DICTIONARYVAR
  5
11C
102
{ACAD_REACTORS
330
11B
102
}
330
11B
100
DictionaryVariables
280
     0
  1
1:1
  0
DICTIONARYVAR
  5
121
102
{ACAD_REACTORS
330
11B
102
}
330
11B
100
DictionaryVariables
280
     0
  1
Standard
  0
DICTIONARYVAR
  5
120
102
{ACAD_REACTORS
330
11B
102
}
330
11B
100
DictionaryVariables
280
     0
  1
Standard
  0
DICTIONARY
  5
11D
330
5A
100
AcDbDictionary
280
     1
281
     1
  3
ACAD_ROUNDTRIP_2008_TABLESTYLE_CELLSTYLEMAP
360
11E
  0
CELLSTYLEMAP
  5
11E
102
{ACAD_REACTORS
330
11D
102
}
330
11D
100
AcDbCellStyleMap
 90
        3
300
CELLSTYLE
  1
TABLEFORMAT_BEGIN
 90
        5
170
     1
 91
        0
 92
    32768
 62
   257
 93
        1
300
CONTENTFORMAT
  1
CONTENTFORMAT_BEGIN
 90
        0
 91
        0
 92
        4
 93
        0
300

 40
0.0
140
1.0
 94
        5
 62
     0
340
11
144
0.25
309
CONTENTFORMAT_END
171
     1
301
MARGIN
  1
CELLMARGIN_BEGIN
 40
0.06
 40
0.06
 40
0.06
 40
0.06
 40
0.06
 40
0.06
309
CELLMARGIN_END
 94
        6
 95
        1
302
GRIDFORMAT
  1
GRIDFORMAT_BEGIN
 90
        0
 91
        1
 62
     0
 92
       -2
340
14
 93
        0
 40
0.045
309
GRIDFORMAT_END
 95
        2
302
GRIDFORMAT
  1
GRIDFORMAT_BEGIN
 90
        0
 91
        1
 62
     0
 92
       -2
340
14
 93
        0
 40
0.045
309
GRIDFORMAT_END
 95
        4
302
GRIDFORMAT
  1
GRIDFORMAT_BEGIN
 90
        0
 91
        1
 62
     0
 92
       -2
340
14
 93
        0
 40
0.045
309
GRIDFORMAT_END
 95
        8
302
GRIDFORMAT
  1
GRIDFORMAT_BEGIN
 90
        0
 91
        1
 62
     0
 92
       -2
340
14
 93
        0
 40
0.045
309
GRIDFORMAT_END
 95
       16
302
GRIDFORMAT
  1
GRIDFORMAT_BEGIN
 90
        0
 91
        1
 62
     0
 92
       -2
340
14
 93
        0
 40
0.045
309
GRIDFORMAT_END
 95
       32
302
GRIDFORMAT
  1
GRIDFORMAT_BEGIN
 90
        0
 91
        1
 62
     0
 92
       -2
340
14
 93
        0
 40
0.045
309
GRIDFORMAT_END
309
TABLEFORMAT_END
  1
CELLSTYLE_BEGIN
 90
        1
 91
        1
300
_TITLE
309
CELLSTYLE_END
300
CELLSTYLE
  1
TABLEFORMAT_BEGIN
 90
        5
170
     1
 91
        0
 92
        0
 62
   257
 93
        1
300
CONTENTFORMAT
  1
CONTENTFORMAT_BEGIN
 90
        0
 91
        0
 92
        4
 93
        0
300

 40
0.0
140
1.0
 94
        5
 62
     0
340
11
144
0.18
309
CONTENTFORMAT_END
171
     1
301
MARGIN
  1
CELLMARGIN_BEGIN
 40
0.06
 40
0.06
 40
0.06
 40
0.06
 40
0.06
 40
0.06
309
CELLMARGIN_END
 94
        6
 95
        1
302
GRIDFORMAT
  1
GRIDFORMAT_BEGIN
 90
        0
 91
        1
 62
     0
 92
       -2
340
14
 93
        0
 40
0.045
309
GRIDFORMAT_END
 95
        2
302
GRIDFORMAT
  1
GRIDFORMAT_BEGIN
 90
        0
 91
        1
 62
     0
 92
       -2
340
14
 93
        0
 40
0.045
309
GRIDFORMAT_END
 95
        4
302
GRIDFORMAT
  1
GRIDFORMAT_BEGIN
 90
        0
 91
        1
 62
     0
 92
       -2
340
14
 93
        0
 40
0.045
309
GRIDFORMAT_END
 95
        8
302
GRIDFORMAT
  1
GRIDFORMAT_BEGIN
 90
        0
 91
        1
 62
     0
 92
       -2
340
14
 93
        0
 40
0.045
309
GRIDFORMAT_END
 95
       16
302
GRIDFORMAT
  1
GRIDFORMAT_BEGIN
 90
        0
 91
        1
 62
     0
 92
       -2
340
14
 93
        0
 40
0.045
309
GRIDFORMAT_END
 95
       32
302
GRIDFORMAT
  1
GRIDFORMAT_BEGIN
 90
        0
 91
        1
 62
     0
 92
       -2
340
14
 93
        0
 40
0.045
309
GRIDFORMAT_END
309
TABLEFORMAT_END
  1
CELLSTYLE_BEGIN
 90
        2
 91
        1
300
_HEADER
309
CELLSTYLE_END
300
CELLSTYLE
  1
TABLEFORMAT_BEGIN
 90
        5
170
     1
 91
        0
 92
        0
 62
   257
 93
        1
300
CONTENTFORMAT
  1
CONTENTFORMAT_BEGIN
 90
        0
 91
        0
 92
        4
 93
        0
300

 40
0.0
140
1.0
 94
        2
 62
     0
340
11
144
0.18
309
CONTENTFORMAT_END
171
     1
301
MARGIN
  1
CELLMARGIN_BEGIN
 40
0.06
 40
0.06
 40
0.06
 40
0.06
 40
0.06
 40
0.06
309
CELLMARGIN_END
 94
        6
 95
        1
302
GRIDFORMAT
  1
GRIDFORMAT_BEGIN
 90
        0
 91
        1
 62
     0
 92
       -2
340
14
 93
        0
 40
0.045
309
GRIDFORMAT_END
 95
        2
302
GRIDFORMAT
  1
GRIDFORMAT_BEGIN
 90
        0
 91
        1
 62
     0
 92
       -2
340
14
 93
        0
 40
0.045
309
GRIDFORMAT_END
 95
        4
302
GRIDFORMAT
  1
GRIDFORMAT_BEGIN
 90
        0
 91
        1
 62
     0
 92
       -2
340
14
 93
        0
 40
0.045
309
GRIDFORMAT_END
 95
        8
302
GRIDFORMAT
  1
GRIDFORMAT_BEGIN
 90
        0
 91
        1
 62
     0
 92
       -2
340
14
 93
        0
 40
0.045
309
GRIDFORMAT_END
 95
       16
302
GRIDFORMAT
  1
GRIDFORMAT_BEGIN
 90
        0
 91
        1
 62
     0
 92
       -2
340
14
 93
        0
 40
0.045
309
GRIDFORMAT_END
 95
       32
302
GRIDFORMAT
  1
GRIDFORMAT_BEGIN
 90
        0
 91
        1
 62
     0
 92
       -2
340
14
 93
        0
 40
0.045
309
GRIDFORMAT_END
309
TABLEFORMAT_END
  1
CELLSTYLE_BEGIN
 90
        3
 91
        2
300
_DATA
309
CELLSTYLE_END
  0
ENDSEC
  0
EOF
