  0
SECTION
  2
HEADER
  9
$ACADVER
  1
AC1027
  9
$ACADMAINTVER
 70
   105
  9
$DWGCODEPAGE
  3
ANSI_1252
  9
$LASTSAVEDBY
  1
Office Desk
  9
$REQUIREDVERSIONS
160
                 0
  9
$INSBASE
 10
0.0
 20
0.0
 30
0.0
  9
$EXTMIN
 10
-903.6508
 20
-451.9903
 30
0.0
  9
$EXTMAX
 10
-600.2413
 20
-103.0491
 30
0.0
  9
$LIMMIN
 10
0.0
 20
0.0
  9
$LIMMAX
 10
12.0
 20
9.0
  9
$ORTHOMODE
 70
     0
  9
$REGENMODE
 70
     1
  9
$FILLMODE
 70
     1
  9
$QTEXTMODE
 70
     0
  9
$MIRRTEXT
 70
     1
  9
$LTSCALE
 40
1.0
  9
$ATTMODE
 70
     1
  9
$TEXTSIZE
 40
0.2
  9
$TRACEWID
 40
0.05
  9
$TEXTSTYLE
  7
Standard
  9
$CLAYER
  8
0
  9
$CELTYPE
  6
ByLayer
  9
$CECOLOR
 62
   256
  9
$CELTSCALE
 40
1.0
  9
$DISPSILH
 70
     0
  9
$DIMSCALE
 40
1.0
  9
$DIMASZ
 40
0.18
  9
$DIMEXO
 40
0.0625
  9
$DIMDLI
 40
0.38
  9
$DIMRND
 40
0.0
  9
$DIMDLE
 40
0.0
  9
$DIMEXE
 40
0.18
  9
$DIMTP
 40
0.0
  9
$DIMTM
 40
0.0
  9
$DIMTXT
 40
0.18
  9
$DIMCEN
 40
0.09
  9
$DIMTSZ
 40
0.0
  9
$DIMTOL
 70
     0
  9
$DIMLIM
 70
     0
  9
$DIMTIH
 70
     1
  9
$DIMTOH
 70
     1
  9
$DIMSE1
 70
     0
  9
$DIMSE2
 70
     0
  9
$DIMTAD
 70
     0
  9
$DIMZIN
 70
     0
  9
$DIMBLK
  1

  9
$DIMASO
 70
     1
  9
$DIMSHO
 70
     1
  9
$DIMPOST
  1

  9
$DIMAPOST
  1

  9
$DIMALT
 70
     0
  9
$DIMALTD
 70
     2
  9
$DIMALTF
 40
25.4
  9
$DIMLFAC
 40
1.0
  9
$DIMTOFL
 70
     0
  9
$DIMTVP
 40
0.0
  9
$DIMTIX
 70
     0
  9
$DIMSOXD
 70
     0
  9
$DIMSAH
 70
     0
  9
$DIMBLK1
  1

  9
$DIMBLK2
  1

  9
$DIMSTYLE
  2
Standard
  9
$DIMCLRD
 70
     0
  9
$DIMCLRE
 70
     0
  9
$DIMCLRT
 70
     0
  9
$DIMTFAC
 40
1.0
  9
$DIMGAP
 40
0.09
  9
$DIMJUST
 70
     0
  9
$DIMSD1
 70
     0
  9
$DIMSD2
 70
     0
  9
$DIMTOLJ
 70
     1
  9
$DIMTZIN
 70
     0
  9
$DIMALTZ
 70
     0
  9
$DIMALTTZ
 70
     0
  9
$DIMUPT
 70
     0
  9
$DIMDEC
 70
     4
  9
$DIMTDEC
 70
     4
  9
$DIMALTU
 70
     2
  9
$DIMALTTD
 70
     2
  9
$DIMTXSTY
  7
Standard
  9
$DIMAUNIT
 70
     0
  9
$DIMADEC
 70
     0
  9
$DIMALTRND
 40
0.0
  9
$DIMAZIN
 70
     0
  9
$DIMDSEP
 70
    46
  9
$DIMATFIT
 70
     3
  9
$DIMFRAC
 70
     0
  9
$DIMLDRBLK
  1

  9
$DIMLUNIT
 70
     2
  9
$DIMLWD
 70
    -2
  9
$DIMLWE
 70
    -2
  9
$DIMTMOVE
 70
     0
  9
$DIMFXL
 40
1.0
  9
$DIMFXLON
 70
     0
  9
$DIMJOGANG
 40
0.7853981633974483
  9
$DIMTFILL
 70
     0
  9
$DIMTFILLCLR
 70
     0
  9
$DIMARCSYM
 70
     0
  9
$DIMLTYPE
  6

  9
$DIMLTEX1
  6

  9
$DIMLTEX2
  6

  9
$DIMTXTDIRECTION
 70
     0
  9
$LUNITS
 70
     2
  9
$LUPREC
 70
     4
  9
$SKETCHINC
 40
0.1
  9
$FILLETRAD
 40
0.0
  9
$AUNITS
 70
     0
  9
$AUPREC
 70
     0
  9
$MENU
  1
.
  9
$ELEVATION
 40
0.0
  9
$PELEVATION
 40
0.0
  9
$THICKNESS
 40
0.0
  9
$LIMCHECK
 70
     0
  9
$CHAMFERA
 40
0.0
  9
$CHAMFERB
 40
0.0
  9
$CHAMFERC
 40
0.0
  9
$CHAMFERD
 40
0.0
  9
$SKPOLY
 70
     0
  9
$TDCREATE
 40
2461016.708296053
  9
$TDUCREATE
 40
2461016.479129387
  9
$TDUPDATE
 40
2461016.708296169
  9
$TDUUPDATE
 40
2461016.479129502
  9
$TDINDWG
 40
0.0000000116
  9
$TDUSRTIMER
 40
0.0000000116
  9
$USRTIMER
 70
     1
  9
$ANGBASE
 50
0.0
  9
$ANGDIR
 70
     0
  9
$PDMODE
 70
     0
  9
$PDSIZE
 40
0.0
  9
$PLINEWID
 40
0.0
  9
$SPLFRAME
 70
     0
  9
$SPLINETYPE
 70
     6
  9
$SPLINESEGS
 70
     8
  9
$HANDSEED
  5
129
  9
$SURFTAB1
 70
     6
  9
$SURFTAB2
 70
     6
  9
$SURFTYPE
 70
     6
  9
$SURFU
 70
     6
  9
$SURFV
 70
     6
  9
$UCSBASE
  2

  9
$UCSNAME
  2

  9
$UCSORG
 10
0.0
 20
0.0
 30
0.0
  9
$UCSXDIR
 10
1.0
 20
0.0
 30
0.0
  9
$UCSYDIR
 10
0.0
 20
1.0
 30
0.0
  9
$UCSORTHOREF
  2

  9
$UCSORTHOVIEW
 70
     0
  9
$UCSORGTOP
 10
0.0
 20
0.0
 30
0.0
  9
$UCSORGBOTTOM
 10
0.0
 20
0.0
 30
0.0
  9
$UCSORGLEFT
 10
0.0
 20
0.0
 30
0.0
  9
$UCSORGRIGHT
 10
0.0
 20
0.0
 30
0.0
  9
$UCSORGFRONT
 10
0.0
 20
0.0
 30
0.0
  9
$UCSORGBACK
 10
0.0
 20
0.0
 30
0.0
  9
$PUCSBASE
  2

  9
$PUCSNAME
  2

  9
$PUCSORG
 10
0.0
 20
0.0
 30
0.0
  9
$PUCSXDIR
 10
1.0
 20
0.0
 30
0.0
  9
$PUCSYDIR
 10
0.0
 20
1.0
 30
0.0
  9
$PUCSORTHOREF
  2

  9
$PUCSORTHOVIEW
 70
     0
  9
$PUCSORGTOP
 10
0.0
 20
0.0
 30
0.0
  9
$PUCSORGBOTTOM
 10
0.0
 20
0.0
 30
0.0
  9
$PUCSORGLEFT
 10
0.0
 20
0.0
 30
0.0
  9
$PUCSORGRIGHT
 10
0.0
 20
0.0
 30
0.0
  9
$PUCSORGFRONT
 10
0.0
 20
0.0
 30
0.0
  9
$PUCSORGBACK
 10
0.0
 20
0.0
 30
0.0
  9
$USERI1
 70
     0
  9
$USERI2
 70
     0
  9
$USERI3
 70
     0
  9
$USERI4
 70
     0
  9
$USERI5
 70
     0
  9
$USERR1
 40
0.0
  9
$USERR2
 40
0.0
  9
$USERR3
 40
0.0
  9
$USERR4
 40
0.0
  9
$USERR5
 40
0.0
  9
$WORLDVIEW
 70
     1
  9
$SHADEDGE
 70
     3
  9
$SHADEDIF
 70
    70
  9
$TILEMODE
 70
     1
  9
$MAXACTVP
 70
    64
  9
$PINSBASE
 10
0.0
 20
0.0
 30
0.0
  9
$PLIMCHECK
 70
     0
  9
$PEXTMIN
 10
1.000000000000000E+20
 20
1.000000000000000E+20
 30
1.000000000000000E+20
  9
$PEXTMAX
 10
-1.000000000000000E+20
 20
-1.000000000000000E+20
 30
-1.000000000000000E+20
  9
$PLIMMIN
 10
0.0
 20
0.0
  9
$PLIMMAX
 10
12.0
 20
9.0
  9
$UNITMODE
 70
     0
  9
$VISRETAIN
 70
     1
  9
$PLINEGEN
 70
     0
  9
$PSLTSCALE
 70
     1
  9
$TREEDEPTH
 70
  3020
  9
$CMLSTYLE
  2
Standard
  9
$CMLJUST
 70
     0
  9
$CMLSCALE
 40
1.0
  9
$PROXYGRAPHICS
 70
     1
  9
$MEASUREMENT
 70
     0
  9
$CELWEIGHT
370
    -1
  9
$ENDCAPS
280
     0
  9
$JOINSTYLE
280
     0
  9
$LWDISPLAY
290
     0
  9
$INSUNITS
 70
     4
  9
$HYPERLINKBASE
  1

  9
$STYLESHEET
  1

  9
$XEDIT
290
     1
  9
$CEPSNTYPE
380
     0
  9
$PSTYLEMODE
290
     1
  9
$FINGERPRINTGUID
  2
{db5520a9-b8be-4f42-a5b2-9178538e62d9}
  9
$VERSIONGUID
  2
{FAEB1C32-E019-11D5-929B-00C0DF256EC4}
  9
$EXTNAMES
290
     1
  9
$PSVPSCALE
 40
0.0
  9
$OLESTARTUP
290
     0
  9
$SORTENTS
280
   127
  9
$INDEXCTL
280
     0
  9
$HIDETEXT
280
     1
  9
$XCLIPFRAME
280
     2
  9
$HALOGAP
280
     0
  9
$OBSCOLOR
 70
   257
  9
$OBSLTYPE
280
     0
  9
$INTERSECTIONDISPLAY
280
     0
  9
$INTERSECTIONCOLOR
 70
   257
  9
$DIMASSOC
280
     2
  9
$PROJECTNAME
  1

  9
$CAMERADISPLAY
290
     0
  9
$LENSLENGTH
 40
50.0
  9
$CAMERAHEIGHT
 40
0.0
  9
$STEPSPERSEC
 40
2.0
  9
$STEPSIZE
 40
6.0
  9
$3DDWFPREC
 40
2.0
  9
$PSOLWIDTH
 40
0.25
  9
$PSOLHEIGHT
 40
4.0
  9
$LOFTANG1
 40
1.570796326794897
  9
$LOFTANG2
 40
1.570796326794897
  9
$LOFTMAG1
 40
0.0
  9
$LOFTMAG2
 40
0.0
  9
$LOFTPARAM
 70
     7
  9
$LOFTNORMALS
280
     1
  9
$LATITUDE
 40
37.795
  9
$LONGITUDE
 40
-122.394
  9
$NORTHDIRECTION
 40
0.0
  9
$TIMEZONE
 70
 -8000
  9
$LIGHTGLYPHDISPLAY
280
     1
  9
$TILEMODELIGHTSYNCH
280
     1
  9
$CMATERIAL
347
44
  9
$SOLIDHIST
280
     0
  9
$SHOWHIST
280
     1
  9
$DWFFRAME
280
     2
  9
$DGNFRAME
280
     2
  9
$REALWORLDSCALE
290
     1
  9
$INTERFERECOLOR
 62
   256
  9
$CSHADOW
280
     0
  9
$SHADOWPLANELOCATION
 40
0.0
  0
ENDSEC
  0
SECTION
  2
CLASSES
  0
CLASS
  1
ACDBDICTIONARYWDFLT
  2
AcDbDictionaryWithDefault
  3
ObjectDBX Classes
 90
        0
 91
        3
280
     0
281
     0
  0
CLASS
  1
VISUALSTYLE
  2
AcDbVisualStyle
  3
ObjectDBX Classes
 90
     4095
 91
        3
280
     0
281
     0
  0
CLASS
  1
MATERIAL
  2
AcDbMaterial
  3
ObjectDBX Classes
 90
     1153
 91
        3
280
     0
281
     0
  0
CLASS
  1
SCALE
  2
AcDbScale
  3
ObjectDBX Classes
 90
     1153
 91
        3
280
     0
281
     0
  0
CLASS
  1
TABLESTYLE
  2
AcDbTableStyle
  3
ObjectDBX Classes
 90
     4095
 91
        3
280
     0
281
     0
  0
CLASS
  1
MLEADERSTYLE
  2
AcDbMLeaderStyle
  3
ACDB_MLEADERSTYLE_CLASS
 90
     4095
 91
        3
280
     0
281
     0
  0
CLASS
  1
SUN
  2
AcDbSun
  3
SCENEOE
 90
     1153
 91
        3
280
     0
281
     0
  0
CLASS
  1
DICTIONARYVAR
  2
AcDbDictionaryVar
  3
ObjectDBX Classes
 90
        0
 91
        3
280
     0
281
     0
  0
CLASS
  1
CELLSTYLEMAP
  2
AcDbCellStyleMap
  3
ObjectDBX Classes
 90
     1152
 91
        3
280
     0
281
     0
  0
ENDSEC
  0
SECTION
  2
TABLES
  0
TABLE
  2
VPORT
  5
8
330
0
100
AcDbSymbolTable
 70
     1
  0
VPORT
  5
29
330
8
100
AcDbSymbolTableRecord
100
AcDbViewportTableRecord
  2
*Active
 70
     0
 10
0.0
 20
0.0
 11
1.0
 21
1.0
 12
10.42990654205607
 22
4.5
 13
0.0
 23
0.0
 14
0.5
 24
0.5
 15
0.5
 25
0.5
 16
0.0
 26
0.0
 36
1.0
 17
0.0
 27
0.0
 37
0.0
 40
9.0
 41
1.972972972850329
 42
50.0
 43
0.0
 44
0.0
 50
0.0
 51
0.0
 71
     0
 72
   100
 73
     1
 74
     3
 75
     0
 76
     0
 77
     0
 78
     0
281
     0
 65
     1
110
0.0
120
0.0
130
0.0
111
1.0
121
0.0
131
0.0
112
0.0
122
1.0
132
0.0
 79
     0
146
0.0
348
2F
 60
     3
 61
     5
292
     1
282
     1
141
0.0
142
0.0
 63
   250
361
5D
  0
ENDTAB
  0
TABLE
  2
LTYPE
  5
5
330
0
100
AcDbSymbolTable
 70
     3
  0
LTYPE
  5
14
330
5
100
AcDbSymbolTableRecord
100
AcDbLinetypeTableRecord
  2
ByBlock
 70
     0
  3

 72
    65
 73
     0
 40
0.0
  0
LTYPE
  5
15
330
5
100
AcDbSymbolTableRecord
100
AcDbLinetypeTableRecord
  2
ByLayer
 70
     0
  3

 72
    65
 73
     0
 40
0.0
  0
LTYPE
  5
16
330
5
100
AcDbSymbolTableRecord
100
AcDbLinetypeTableRecord
  2
Continuous
 70
     0
  3
Solid line
 72
    65
 73
     0
 40
0.0
  0
LTYPE
  5
66
330
5
100
AcDbSymbolTableRecord
100
AcDbLinetypeTableRecord
  2
New Line1
 70
     0
  3

 72
    65
 73
     2
 40
0.3
 49
0.2
 74
     4
 75
     0
340
0
 46
1.0
 50
0.0
 44
0.0
 45
0.0
 49
-0.1
 74
     4
 75
     0
340
0
 46
1.0
 50
0.0
 44
0.0
 45
0.0
  0
LTYPE
  5
68
330
5
100
AcDbSymbolTableRecord
100
AcDbLinetypeTableRecord
  2
New Line2
 70
     0
  3

 72
    65
 73
     2
 40
0.3
 49
0.2
 74
     4
 75
     0
340
0
 46
1.0
 50
0.0
 44
0.0
 45
0.0
 49
-0.1
 74
     4
 75
     0
340
0
 46
1.0
 50
0.0
 44
0.0
 45
0.0
  0
ENDTAB
  0
TABLE
  2
LAYER
  5
2
330
0
100
AcDbSymbolTable
 70
     2
  0
LAYER
  5
10
330
2
100
AcDbSymbolTableRecord
100
AcDbLayerTableRecord
  2
0
 70
     0
 62
     7
  6
Continuous
370
    -3
390
F
347
46
348
0
  0
LAYER
  5
5F
330
2
100
AcDbSymbolTableRecord
100
AcDbLayerTableRecord
  2
Layer 1
 70
     0
 62
     7
  6
Continuous
370
    -3
390
F
347
46
348
0
  0
ENDTAB
  0
TABLE
  2
STYLE
  5
3
330
0
100
AcDbSymbolTable
 70
     1
  0
STYLE
  5
11
330
3
100
AcDbSymbolTableRecord
100
AcDbTextStyleTableRecord
  2
Standard
 70
     0
 40
0.0
 41
1.0
 50
0.0
 71
     0
 42
0.2
  3
txt
  4

  0
ENDTAB
  0
TABLE
  2
VIEW
  5
6
330
0
100
AcDbSymbolTable
 70
     0
  0
ENDTAB
  0
TABLE
  2
UCS
  5
7
330
0
100
AcDbSymbolTable
 70
     0
  0
ENDTAB
  0
TABLE
  2
APPID
  5
9
330
0
100
AcDbSymbolTable
 70
     2
  0
APPID
  5
12
330
9
100
AcDbSymbolTableRecord
100
AcDbRegAppTableRecord
  2
ACAD
 70
     0
  0
APPID
  5
5E
330
9
100
AcDbSymbolTableRecord
100
AcDbRegAppTableRecord
  2
ODA
 70
     0
  0
ENDTAB
  0
TABLE
  2
DIMSTYLE
  5
A
330
0
100
AcDbSymbolTable
 70
     1
100
AcDbDimStyleTable
  0
DIMSTYLE
105
27
330
A
100
AcDbSymbolTableRecord
100
AcDbDimStyleTableRecord
  2
Standard
 70
     0
178
     0
340
11
  0
ENDTAB
  0
TABLE
  2
BLOCK_RECORD
  5
1
330
0
100
AcDbSymbolTable
 70
     1
  0
BLOCK_RECORD
  5
1F
330
1
100
AcDbSymbolTableRecord
100
AcDbBlockTableRecord
  2
*Model_Space
340
22
 70
     0
280
     1
281
     0
  0
BLOCK_RECORD
  5
1B
330
1
100
AcDbSymbolTableRecord
100
AcDbBlockTableRecord
  2
*Paper_Space
340
1E
 70
     0
280
     1
281
     0
  0
BLOCK_RECORD
  5
23
330
1
100
AcDbSymbolTableRecord
100
AcDbBlockTableRecord
  2
*Paper_Space0
340
26
 70
     0
280
     1
281
     0
  0
ENDTAB
  0
ENDSEC
  0
SECTION
  2
BLOCKS
  0
BLOCK
  5
20
330
1F
100
AcDbEntity
  8
0
100
AcDbBlockBegin
  2
*Model_Space
 70
     0
 10
0.0
 20
0.0
 30
0.0
  3
*Model_Space
  1

  0
ENDBLK
  5
21
330
1F
100
AcDbEntity
  8
0
100
AcDbBlockEnd
  0
BLOCK
  5
1C
330
1B
100
AcDbEntity
 67
     1
  8
0
100
AcDbBlockBegin
  2
*Paper_Space
 70
     0
 10
0.0
 20
0.0
 30
0.0
  3
*Paper_Space
  1

  0
ENDBLK
  5
1D
330
1B
100
AcDbEntity
 67
     1
  8
0
100
AcDbBlockEnd
  0
BLOCK
  5
24
330
23
100
AcDbEntity
  8
0
100
AcDbBlockBegin
  2
*Paper_Space0
 70
     0
 10
0.0
 20
0.0
 30
0.0
  3
*Paper_Space0
  1

  0
ENDBLK
  5
25
330
23
100
AcDbEntity
  8
0
100
AcDbBlockEnd
  0
ENDSEC
  0
SECTION
  2
ENTITIES
  0
LWPOLYLINE
  5
60
330
1F
100
AcDbEntity
  8
Layer 1
 62
   250
370
     9
100
AcDbPolyline
 90
        5
 70
     1
 43
0.0
 10
-903.6127
 20
-451.9522
 10
-600.2795
 20
-451.9522
 10
-600.2795
 20
-103.0872
 10
-903.6127
 20
-103.0872
 10
-903.6127
 20
-451.9522
  0
LWPOLYLINE
  5
61
330
1F
100
AcDbEntity
  8
Layer 1
 62
     7
370
    25
100
AcDbPolyline
 90
        2
 70
     0
 43
0.0
 10
-742.4579
 20
-168.2994
 10
-642.2221
 20
-168.2994
  0
LWPOLYLINE
  5
62
330
1F
100
AcDbEntity
  8
Layer 1
 62
     7
370
    80
100
AcDbPolyline
 90
        2
 70
     0
 43
0.0
 10
-725.2435
 20
-182.1423
 10
-659.4683
 20
-182.0379
  0
LWPOLYLINE
  5
63
330
1F
100
AcDbEntity
  8
Layer 1
 62
     7
370
   140
100
AcDbPolyline
 90
        3
 70
     0
 43
0.0
 10
-720.2467
 20
-176.2184
 10
-726.1581
 20
-181.8205
 10
-719.5294
 20
-187.7524
  0
LWPOLYLINE
  5
64
330
1F
100
AcDbEntity
  8
Layer 1
 62
     7
370
   140
100
AcDbPolyline
 90
        3
 70
     0
 43
0.0
 10
-664.4339
 20
-187.6067
 10
-658.5225
 20
-182.0046
 10
-665.1512
 20
-176.0727
  0
LWPOLYLINE
  5
65
330
1F
100
AcDbEntity
  8
Layer 1
  6
New Line1
 62
     7
370
    25
100
AcDbPolyline
 90
        2
 70
     0
 43
0.0
 10
-653.3947
 20
-169.1973
 10
-632.34
 20
-411.7175
  0
LWPOLYLINE
  5
67
330
1F
100
AcDbEntity
  8
Layer 1
  6
New Line2
 62
     7
370
    25
100
AcDbPolyline
 90
        2
 70
     0
 43
0.0
 10
-730.7727
 20
-169.1973
 10
-752.3401
 20
-411.7175
  0
LWPOLYLINE
  5
69
330
1F
100
AcDbEntity
  8
Layer 1
 62
     7
370
    60
100
AcDbPolyline
 90
        2
 70
     0
 43
0.0
 10
-741.7215
 20
-404.1554
 10
-643.0109
 20
-404.051
  0
LWPOLYLINE
  5
6A
330
1F
100
AcDbEntity
  8
Layer 1
 62
     7
370
   100
100
AcDbPolyline
 90
        3
 70
     0
 43
0.0
 10
-732.6075
 20
-398.2315
 10
-742.8733
 20
-403.8336
 10
-731.3618
 20
-409.7655
  0
LWPOLYLINE
  5
6B
330
1F
100
AcDbEntity
  8
Layer 1
 62
     7
370
   100
100
AcDbPolyline
 90
        3
 70
     0
 43
0.0
 10
-652.0707
 20
-409.6198
 10
-641.8049
 20
-404.0177
 10
-653.3164
 20
-398.0858
  0
LWPOLYLINE
  5
6C
330
1F
100
AcDbEntity
  8
Layer 1
 62
     7
370
    60
100
AcDbPolyline
 90
        2
 70
     0
 43
0.0
 10
-738.1718
 20
-154.1554
 10
-646.5572
 20
-154.0152
  0
LWPOLYLINE
  5
6D
330
1F
100
AcDbEntity
  8
Layer 1
 62
     7
370
   100
100
AcDbPolyline
 90
        3
 70
     0
 43
0.0
 10
-729.713
 20
-146.2021
 10
-739.2408
 20
-153.7233
 10
-728.5568
 20
-161.6874
  0
LWPOLYLINE
  5
6E
330
1F
100
AcDbEntity
  8
Layer 1
 62
     7
370
   100
100
AcDbPolyline
 90
        3
 70
     0
 43
0.0
 10
-654.9657
 20
-161.4918
 10
-645.4379
 20
-153.9706
 10
-656.1219
 20
-146.0065
  0
LWPOLYLINE
  5
6F
330
1F
100
AcDbEntity
  8
Layer 1
 62
     7
370
    60
100
AcDbPolyline
 90
        2
 70
     0
 43
0.0
 10
-684.4835
 20
-233.3018
 10
-684.3469
 20
-375.7217
  0
LWPOLYLINE
  5
70
330
1F
100
AcDbEntity
  8
Layer 1
 62
     7
370
    90
100
AcDbPolyline
 90
        3
 70
     0
 43
0.0
 10
-676.7302
 20
-246.4515
 10
-684.0623
 20
-231.6399
 10
-691.8262
 20
-248.2488
  0
LWPOLYLINE
  5
71
330
1F
100
AcDbEntity
  8
Layer 1
 62
     7
370
    90
100
AcDbPolyline
 90
        3
 70
     0
 43
0.0
 10
-691.6355
 20
-362.6502
 10
-684.3033
 20
-377.4617
 10
-676.5394
 20
-360.8529
  0
LWPOLYLINE
  5
72
330
1F
100
AcDbEntity
  8
Layer 1
 62
     7
370
     9
100
AcDbPolyline
 90
        7
 70
     1
 43
0.0
 10
-721.6814
 20
-143.5214
 10
-720.1058
 20
-143.5123
 10
-720.1988
 20
-128.043
 10
-723.9782
 20
-128.47
 10
-723.97
 20
-129.8413
 10
-721.7635
 20
-129.8286
 10
-721.6814
 20
-143.5214
  0
LWPOLYLINE
  5
73
330
1F
100
AcDbEntity
  8
Layer 1
 62
     7
370
     9
100
AcDbPolyline
 90
      113
 70
     1
 43
0.0
 10
-711.1019
 20
-129.9451
 10
-710.8408
 20
-130.1197
 10
-710.5972
 20
-130.3183
 10
-710.3711
 20
-130.541
 10
-710.1624
 20
-130.7877
 10
-709.9712
 20
-131.0584
 10
-709.7975
 20
-131.3532
 10
-709.6413
 20
-131.672
 10
-709.5026
 20
-132.0148
 10
-709.3469
 20
-132.4696
 10
-709.2115
 20
-132.9314
 10
-709.0964
 20
-133.4
 10
-709.0016
 20
-133.8754
 10
-708.9272
 20
-134.3576
 10
-708.8731
 20
-134.8465
 10
-708.8394
 20
-135.3422
 10
-708.8261
 20
-135.8446
 10
-708.8289
 20
-136.0914
 10
-708.8399
 20
-136.3594
 10
-708.8593
 20
-136.6483
 10
-708.8872
 20
-136.9582
 10
-708.9615
 20
-137.563
 10
-709.0601
 20
-138.1347
 10
-709.1829
 20
-138.6731
 10
-709.3298
 20
-139.1783
 10
-709.5009
 20
-139.6503
 10
-709.696
 20
-140.0891
 10
-709.9151
 20
-140.4947
 10
-710.1582
 20
-140.8671
 10
-710.3807
 20
-141.1477
 10
-710.6154
 20
-141.3911
 10
-710.8621
 20
-141.5973
 10
-711.1211
 20
-141.7664
 10
-711.3921
 20
-141.8983
 10
-711.6753
 20
-141.993
 10
-711.9706
 20
-142.0506
 10
-712.2781
 20
-142.0709
 10
-712.6218
 20
-142.0548
 10
-712.9493
 20
-142.0016
 10
-713.2605
 20
-141.9114
 10
-713.5553
 20
-141.7842
 10
-713.8338
 20
-141.62
 10
-714.096
 20
-141.4188
 10
-714.3419
 20
-141.1806
 10
-714.5713
 20
-140.9054
 10
-714.6684
 20
-140.7715
 10
-714.7614
 20
-140.6334
 10
-714.8502
 20
-140.4911
 10
-714.9348
 20
-140.3447
 10
-715.0153
 20
-140.1941
 10
-715.0916
 20
-140.0393
 10
-715.1636
 20
-139.8803
 10
-715.2314
 20
-139.7171
 10
-715.355
 20
-139.3838
 10
-715.4632
 20
-139.0464
 10
-715.5561
 20
-138.7047
 10
-715.6335
 20
-138.3586
 10
-715.6983
 20
-138.0133
 10
-715.7532
 20
-137.6739
 10
-715.7982
 20
-137.3399
 10
-715.8332
 20
-137.011
 10
-715.8474
 20
-136.8449
 10
-715.8599
 20
-136.6725
 10
-715.8706
 20
-136.4938
 10
-715.8797
 20
-136.3089
 10
-715.887
 20
-136.1179
 10
-715.8927
 20
-135.9208
 10
-715.8966
 20
-135.7177
 10
-715.8988
 20
-135.5086
 10
-715.896
 20
-135.2899
 10
-715.8857
 20
-135.0586
 10
-715.8677
 20
-134.8146
 10
-715.8421
 20
-134.5579
 10
-715.8089
 20
-134.2882
 10
-715.7681
 20
-134.0057
 10
-715.7196
 20
-133.7102
 10
-715.6636
 20
-133.4016
 10
-715.5909
 20
-133.0588
 10
-715.5043
 20
-132.7173
 10
-715.4035
 20
-132.3772
 10
-715.2888
 20
-132.0385
 10
-715.2257
 20
-131.8715
 10
-715.1579
 20
-131.7088
 10
-715.0855
 20
-131.5502
 10
-715.0086
 20
-131.3958
 10
-714.9271
 20
-131.2456
 10
-714.841
 20
-131.0996
 10
-714.7504
 20
-130.9578
 10
-714.6552
 20
-130.8202
 10
-714.5547
 20
-130.688
 10
-714.4493
 20
-130.5624
 10
-714.339
 20
-130.4435
 10
-714.2239
 20
-130.3313
 10
-714.1038
 20
-130.2258
 10
-713.9787
 20
-130.1271
 10
-713.8485
 20
-130.035
 10
-713.7133
 20
-129.9497
 10
-713.5729
 20
-129.8721
 10
-713.4261
 20
-129.8047
 10
-713.2727
 20
-129.7475
 10
-713.113
 20
-129.7005
 10
-712.9467
 20
-129.6637
 10
-712.774
 20
-129.6371
 10
-712.5949
 20
-129.6207
 10
-712.4094
 20
-129.6146
 10
-712.2241
 20
-129.6189
 10
-712.0451
 20
-129.6337
 10
-711.8723
 20
-129.6592
 10
-711.7057
 20
-129.6952
 10
-711.5454
 20
-129.7418
 10
-711.3913
 20
-129.799
 10
-711.2435
 20
-129.8667
 10
-711.1019
 20
-129.9451
  0
LWPOLYLINE
  5
74
330
1F
100
AcDbEntity
  8
Layer 1
 62
     7
370
     9
100
AcDbPolyline
 90
       65
 70
     1
 43
0.0
 10
-712.2471
 20
-143.6671
 10
-711.5899
 20
-143.6215
 10
-710.9752
 20
-143.493
 10
-710.4028
 20
-143.2814
 10
-709.8728
 20
-142.9868
 10
-709.3852
 20
-142.6092
 10
-708.9401
 20
-142.1486
 10
-708.5373
 20
-141.6049
 10
-708.1769
 20
-140.9782
 10
-707.924
 20
-140.4319
 10
-707.7054
 20
-139.8555
 10
-707.5212
 20
-139.2491
 10
-707.3713
 20
-138.6126
 10
-707.2559
 20
-137.9461
 10
-707.1747
 20
-137.2496
 10
-707.128
 20
-136.523
 10
-707.1156
 20
-135.7663
 10
-707.137
 20
-135.0101
 10
-707.1925
 20
-134.2844
 10
-707.282
 20
-133.589
 10
-707.4054
 20
-132.9241
 10
-707.5628
 20
-132.2896
 10
-707.7542
 20
-131.6855
 10
-707.9796
 20
-131.1119
 10
-708.2389
 20
-130.5688
 10
-708.607
 20
-129.9464
 10
-709.0164
 20
-129.4075
 10
-709.4673
 20
-128.9522
 10
-709.9595
 20
-128.5803
 10
-710.493
 20
-128.2919
 10
-711.068
 20
-128.0871
 10
-711.6842
 20
-127.9659
 10
-712.3419
 20
-127.9282
 10
-712.9988
 20
-127.9738
 10
-713.6134
 20
-128.1024
 10
-714.1856
 20
-128.314
 10
-714.7156
 20
-128.6086
 10
-715.2032
 20
-128.9862
 10
-715.6485
 20
-129.4468
 10
-716.0515
 20
-129.9904
 10
-716.4122
 20
-130.6171
 10
-716.6648
 20
-131.1635
 10
-716.883
 20
-131.7399
 10
-717.067
 20
-132.3465
 10
-717.2166
 20
-132.983
 10
-717.332
 20
-133.6496
 10
-717.4131
 20
-134.3462
 10
-717.4599
 20
-135.0727
 10
-717.4726
 20
-135.8291
 10
-717.4509
 20
-136.5852
 10
-717.3953
 20
-137.311
 10
-717.3058
 20
-138.0064
 10
-717.1824
 20
-138.6714
 10
-717.0251
 20
-139.306
 10
-716.8338
 20
-139.9102
 10
-716.6086
 20
-140.484
 10
-716.3493
 20
-141.0274
 10
-715.9812
 20
-141.6497
 10
-715.5718
 20
-142.1885
 10
-715.121
 20
-142.6438
 10
-714.6288
 20
-143.0155
 10
-714.0954
 20
-143.3036
 10
-713.5206
 20
-143.5083
 10
-712.9045
 20
-143.6294
 10
-712.2471
 20
-143.6671
  0
LWPOLYLINE
  5
75
330
1F
100
AcDbEntity
  8
Layer 1
 62
     7
370
     9
100
AcDbPolyline
 90
       73
 70
     1
 43
0.0
 10
-700.1951
 20
-135.0515
 10
-699.8359
 20
-135.0657
 10
-699.4899
 20
-135.1129
 10
-699.1571
 20
-135.1933
 10
-698.8375
 20
-135.3069
 10
-698.531
 20
-135.4535
 10
-698.2377
 20
-135.6333
 10
-697.9575
 20
-135.8462
 10
-697.6904
 20
-136.0922
 10
-697.4486
 20
-136.3588
 10
-697.2387
 20
-136.6381
 10
-697.0608
 20
-136.9301
 10
-696.9149
 20
-137.235
 10
-696.801
 20
-137.5526
 10
-696.719
 20
-137.8831
 10
-696.669
 20
-138.2264
 10
-696.651
 20
-138.5826
 10
-696.6651
 20
-138.9308
 10
-696.7116
 20
-139.2673
 10
-696.7904
 20
-139.5921
 10
-696.9017
 20
-139.9051
 10
-697.0455
 20
-140.2064
 10
-697.2218
 20
-140.4958
 10
-697.4307
 20
-140.7734
 10
-697.6722
 20
-141.0392
 10
-697.9311
 20
-141.2781
 10
-698.205
 20
-141.4854
 10
-698.4941
 20
-141.661
 10
-698.7982
 20
-141.8051
 10
-699.1174
 20
-141.9177
 10
-699.4516
 20
-141.9987
 10
-699.8008
 20
-142.0482
 10
-700.165
 20
-142.0663
 10
-700.5219
 20
-142.052
 10
-700.8671
 20
-142.005
 10
-701.2006
 20
-141.9253
 10
-701.5224
 20
-141.8129
 10
-701.8325
 20
-141.6677
 10
-702.1309
 20
-141.4897
 10
-702.4175
 20
-141.2791
 10
-702.6925
 20
-141.0356
 10
-702.9423
 20
-140.7722
 10
-703.1591
 20
-140.4955
 10
-703.3428
 20
-140.2055
 10
-703.4934
 20
-139.9022
 10
-703.611
 20
-139.5857
 10
-703.6956
 20
-139.256
 10
-703.7471
 20
-138.9131
 10
-703.7657
 20
-138.5571
 10
-703.7514
 20
-138.2026
 10
-703.704
 20
-137.8617
 10
-703.6233
 20
-137.5343
 10
-703.5094
 20
-137.2205
 10
-703.3624
 20
-136.9202
 10
-703.1822
 20
-136.6334
 10
-702.969
 20
-136.3602
 10
-702.7226
 20
-136.1004
 10
-702.597
 20
-135.9846
 10
-702.4663
 20
-135.8747
 10
-702.3307
 20
-135.7708
 10
-702.1902
 20
-135.6728
 10
-702.0447
 20
-135.5808
 10
-701.8944
 20
-135.4946
 10
-701.7392
 20
-135.4144
 10
-701.5792
 20
-135.3401
 10
-701.4151
 20
-135.2732
 10
-701.2484
 20
-135.2151
 10
-701.0792
 20
-135.1659
 10
-700.9073
 20
-135.1255
 10
-700.733
 20
-135.0938
 10
-700.5561
 20
-135.071
 10
-700.3768
 20
-135.0569
 10
-700.1951
 20
-135.0515
  0
LWPOLYLINE
  5
76
330
1F
100
AcDbEntity
  8
Layer 1
 62
     7
370
     9
100
AcDbPolyline
 90
       69
 70
     1
 43
0.0
 10
-695.0526
 20
-138.4606
 10
-695.0806
 20
-137.9193
 10
-695.1577
 20
-137.4029
 10
-695.2839
 20
-136.9115
 10
-695.4593
 20
-136.445
 10
-695.6836
 20
-136.0033
 10
-695.9571
 20
-135.5866
 10
-696.2795
 20
-135.1946
 10
-696.651
 20
-134.8275
 10
-697.0306
 20
-134.5186
 10
-697.4364
 20
-134.2482
 10
-697.8682
 20
-134.0163
 10
-698.3263
 20
-133.8228
 10
-698.8104
 20
-133.6678
 10
-699.3206
 20
-133.5512
 10
-699.857
 20
-133.4731
 10
-700.4194
 20
-133.4334
 10
-700.868
 20
-133.7284
 10
-696.2179
 20
-128.0794
 10
-698.2894
 20
-128.0912
 10
-704.2361
 20
-135.3447
 10
-704.5027
 20
-135.6977
 10
-704.7334
 20
-136.065
 10
-704.9283
 20
-136.4465
 10
-705.0873
 20
-136.8422
 10
-705.2104
 20
-137.2521
 10
-705.2975
 20
-137.6763
 10
-705.3487
 20
-138.1146
 10
-705.364
 20
-138.5671
 10
-705.3374
 20
-139.0882
 10
-705.2638
 20
-139.5891
 10
-705.1432
 20
-140.0695
 10
-704.9756
 20
-140.5297
 10
-704.761
 20
-140.9694
 10
-704.4993
 20
-141.3888
 10
-704.1907
 20
-141.7879
 10
-703.835
 20
-142.1665
 10
-703.4434
 20
-142.5146
 10
-703.033
 20
-142.8159
 10
-702.6039
 20
-143.0705
 10
-702.1561
 20
-143.2782
 10
-701.6896
 20
-143.4391
 10
-701.2044
 20
-143.5531
 10
-700.7005
 20
-143.6203
 10
-700.1778
 20
-143.6407
 10
-699.6482
 20
-143.6142
 10
-699.1399
 20
-143.5414
 10
-698.653
 20
-143.4223
 10
-698.1874
 20
-143.2571
 10
-697.7433
 20
-143.0457
 10
-697.3206
 20
-142.7881
 10
-696.9194
 20
-142.4844
 10
-696.5397
 20
-142.1346
 10
-696.3709
 20
-141.9557
 10
-696.2111
 20
-141.7699
 10
-696.0606
 20
-141.5772
 10
-695.9191
 20
-141.3776
 10
-695.7869
 20
-141.171
 10
-695.6638
 20
-140.9575
 10
-695.5501
 20
-140.7369
 10
-695.4456
 20
-140.5093
 10
-695.3521
 20
-140.275
 10
-695.2712
 20
-140.0345
 10
-695.203
 20
-139.7878
 10
-695.1475
 20
-139.5348
 10
-695.1047
 20
-139.2756
 10
-695.0746
 20
-139.0101
 10
-695.0572
 20
-138.7385
 10
-695.0526
 20
-138.4606
  0
LWPOLYLINE
  5
77
330
1F
100
AcDbEntity
  8
Layer 1
 62
     7
370
     9
100
AcDbPolyline
 90
      162
 70
     1
 43
0.0
 10
-680.164
 20
-143.2282
 10
-678.5875
 20
-143.2191
 10
-678.6249
 20
-137.0356
 10
-678.6401
 20
-136.625
 10
-678.681
 20
-136.234
 10
-678.7474
 20
-135.8625
 10
-678.8394
 20
-135.5105
 10
-678.957
 20
-135.178
 10
-679.1001
 20
-134.865
 10
-679.2687
 20
-134.5715
 10
-679.4628
 20
-134.2975
 10
-679.5711
 20
-134.1664
 10
-679.6861
 20
-134.0421
 10
-679.8077
 20
-133.9245
 10
-679.936
 20
-133.8137
 10
-680.071
 20
-133.7096
 10
-680.2126
 20
-133.6121
 10
-680.3609
 20
-133.5213
 10
-680.5159
 20
-133.4371
 10
-680.6802
 20
-133.3619
 10
-680.8572
 20
-133.2969
 10
-681.0467
 20
-133.2421
 10
-681.2489
 20
-133.1975
 10
-681.4637
 20
-133.1631
 10
-681.6911
 20
-133.1389
 10
-681.9311
 20
-133.1249
 10
-682.1836
 20
-133.1211
 10
-682.4383
 20
-133.1316
 10
-682.6849
 20
-133.1595
 10
-682.9232
 20
-133.205
 10
-683.1534
 20
-133.268
 10
-683.3754
 20
-133.3484
 10
-683.5893
 20
-133.4464
 10
-683.795
 20
-133.5618
 10
-683.9926
 20
-133.6948
 10
-684.1638
 20
-133.8271
 10
-684.3272
 20
-133.9691
 10
-684.4828
 20
-134.1209
 10
-684.6306
 20
-134.2822
 10
-684.7707
 20
-134.4529
 10
-684.903
 20
-134.6329
 10
-685.0275
 20
-134.8222
 10
-685.1442
 20
-135.0205
 10
-685.2367
 20
-134.839
 10
-685.3377
 20
-134.6636
 10
-685.4473
 20
-134.495
 10
-685.5654
 20
-134.334
 10
-685.6734
 20
-134.2031
 10
-685.7882
 20
-134.0789
 10
-685.9096
 20
-133.9614
 10
-686.0378
 20
-133.8506
 10
-686.1727
 20
-133.7465
 10
-686.3144
 20
-133.649
 10
-686.4626
 20
-133.5584
 10
-686.6176
 20
-133.4744
 10
-686.7819
 20
-133.3989
 10
-686.9589
 20
-133.3337
 10
-687.1484
 20
-133.2788
 10
-687.3506
 20
-133.2341
 10
-687.5654
 20
-133.1997
 10
-687.7928
 20
-133.1757
 10
-688.0328
 20
-133.1619
 10
-688.2853
 20
-133.1584
 10
-688.54
 20
-133.1686
 10
-688.7866
 20
-133.1963
 10
-689.0249
 20
-133.2416
 10
-689.2551
 20
-133.3045
 10
-689.4771
 20
-133.3849
 10
-689.691
 20
-133.4828
 10
-689.8967
 20
-133.5982
 10
-690.0943
 20
-133.7312
 10
-690.2576
 20
-133.8573
 10
-690.4137
 20
-133.9918
 10
-690.5626
 20
-134.1347
 10
-690.7045
 20
-134.2862
 10
-690.8393
 20
-134.4463
 10
-690.9669
 20
-134.615
 10
-691.0876
 20
-134.7925
 10
-691.2012
 20
-134.9786
 10
-691.2103
 20
-133.4006
 10
-692.7868
 20
-133.4098
 10
-692.7275
 20
-143.3038
 10
-691.151
 20
-143.2947
 10
-691.1811
 20
-138.2311
 10
-691.1467
 20
-137.936
 10
-691.1008
 20
-137.6524
 10
-691.0435
 20
-137.38
 10
-690.9748
 20
-137.119
 10
-690.8948
 20
-136.869
 10
-690.8034
 20
-136.6301
 10
-690.7007
 20
-136.4022
 10
-690.5867
 20
-136.1851
 10
-690.4936
 20
-136.0305
 10
-690.3927
 20
-135.883
 10
-690.284
 20
-135.7425
 10
-690.1676
 20
-135.6091
 10
-690.0434
 20
-135.4825
 10
-689.9116
 20
-135.3629
 10
-689.772
 20
-135.2502
 10
-689.6247
 20
-135.1443
 10
-689.4715
 20
-135.0488
 10
-689.3156
 20
-134.9659
 10
-689.1569
 20
-134.8956
 10
-688.9954
 20
-134.8378
 10
-688.831
 20
-134.7927
 10
-688.6639
 20
-134.7601
 10
-688.4938
 20
-134.7401
 10
-688.3209
 20
-134.7328
 10
-688.1518
 20
-134.7351
 10
-687.9941
 20
-134.7441
 10
-687.8477
 20
-134.7597
 10
-687.7126
 20
-134.7822
 10
-687.5887
 20
-134.8113
 10
-687.476
 20
-134.8472
 10
-687.3745
 20
-134.89
 10
-687.2841
 20
-134.9395
 10
-687.0561
 20
-135.1059
 10
-686.8582
 20
-135.3013
 10
-686.6905
 20
-135.5256
 10
-686.5529
 20
-135.7789
 10
-686.4454
 20
-136.0612
 10
-686.3679
 20
-136.3724
 10
-686.3205
 20
-136.7127
 10
-686.3031
 20
-137.082
 10
-686.2657
 20
-143.2646
 10
-684.6892
 20
-143.2555
 10
-684.7266
 20
-137.072
 10
-684.7403
 20
-136.6932
 10
-684.485
 20
-136.1487
 10
-684.3919
 20
-135.9941
 10
-684.291
 20
-135.8466
 10
-684.1823
 20
-135.7061
 10
-684.0659
 20
-135.5727
 10
-683.9417
 20
-135.4461
 10
-683.8099
 20
-135.3265
 10
-683.6703
 20
-135.2138
 10
-683.523
 20
-135.1079
 10
-683.3698
 20
-135.0124
 10
-683.2139
 20
-134.9295
 10
-683.0551
 20
-134.8592
 10
-682.8936
 20
-134.8014
 10
-682.7291
 20
-134.7563
 10
-682.5617
 20
-134.7237
 10
-682.3915
 20
-134.7037
 10
-682.2182
 20
-134.6964
 10
-682.0494
 20
-134.6987
 10
-681.8919
 20
-134.7077
 10
-681.7455
 20
-134.7233
 10
-681.6104
 20
-134.7458
 10
-681.4866
 20
-134.7749
 10
-681.3739
 20
-134.8108
 10
-681.2726
 20
-134.8536
 10
-681.1825
 20
-134.9031
 10
-680.9545
 20
-135.0695
 10
-680.7566
 20
-135.2648
 10
-680.5889
 20
-135.4891
 10
-680.4512
 20
-135.7423
 10
-680.3437
 20
-136.0245
 10
-680.2662
 20
-136.3356
 10
-680.2188
 20
-136.6757
 10
-680.2014
 20
-137.0447
 10
-680.164
 20
-143.2282
  0
LWPOLYLINE
  5
78
330
1F
100
AcDbEntity
  8
Layer 1
 62
     7
370
     9
100
AcDbPolyline
 90
      162
 70
     1
 43
0.0
 10
-662.985
 20
-143.1253
 10
-661.4085
 20
-143.1162
 10
-661.4449
 20
-136.9327
 10
-661.4604
 20
-136.5221
 10
-661.5015
 20
-136.1311
 10
-661.5681
 20
-135.7596
 10
-661.6601
 20
-135.4076
 10
-661.7777
 20
-135.0751
 10
-661.9207
 20
-134.7621
 10
-662.0891
 20
-134.4686
 10
-662.2829
 20
-134.1946
 10
-662.3915
 20
-134.0635
 10
-662.5067
 20
-133.9392
 10
-662.6284
 20
-133.8217
 10
-662.7568
 20
-133.7109
 10
-662.8917
 20
-133.6069
 10
-663.0332
 20
-133.5096
 10
-663.1813
 20
-133.419
 10
-663.336
 20
-133.3351
 10
-663.5003
 20
-133.2596
 10
-663.6772
 20
-133.1944
 10
-663.8668
 20
-133.1394
 10
-664.0689
 20
-133.0947
 10
-664.2837
 20
-133.0602
 10
-664.5111
 20
-133.036
 10
-664.7511
 20
-133.022
 10
-665.0037
 20
-133.0182
 10
-665.2585
 20
-133.0287
 10
-665.5051
 20
-133.0566
 10
-665.7435
 20
-133.1021
 10
-665.9738
 20
-133.1651
 10
-666.1959
 20
-133.2455
 10
-666.4098
 20
-133.3435
 10
-666.6154
 20
-133.4589
 10
-666.8127
 20
-133.5919
 10
-666.9839
 20
-133.7242
 10
-667.1473
 20
-133.8663
 10
-667.3029
 20
-134.018
 10
-667.4508
 20
-134.1793
 10
-667.591
 20
-134.35
 10
-667.7234
 20
-134.5301
 10
-667.8482
 20
-134.7193
 10
-667.9652
 20
-134.9176
 10
-668.0573
 20
-134.7361
 10
-668.1583
 20
-134.5607
 10
-668.2678
 20
-134.3921
 10
-668.3855
 20
-134.2311
 10
-668.4938
 20
-134.1002
 10
-668.6086
 20
-133.976
 10
-668.7301
 20
-133.8585
 10
-668.8582
 20
-133.7477
 10
-668.993
 20
-133.6436
 10
-669.1345
 20
-133.5461
 10
-669.2828
 20
-133.4555
 10
-669.4377
 20
-133.3715
 10
-669.602
 20
-133.296
 10
-669.7789
 20
-133.2308
 10
-669.9685
 20
-133.1759
 10
-670.1706
 20
-133.1312
 10
-670.3854
 20
-133.0968
 10
-670.6128
 20
-133.0728
 10
-670.8528
 20
-133.059
 10
-671.1054
 20
-133.0555
 10
-671.3602
 20
-133.0657
 10
-671.6068
 20
-133.0934
 10
-671.8452
 20
-133.1388
 10
-672.0755
 20
-133.2017
 10
-672.2976
 20
-133.2822
 10
-672.5114
 20
-133.3803
 10
-672.717
 20
-133.4959
 10
-672.9143
 20
-133.6292
 10
-673.0776
 20
-133.755
 10
-673.2337
 20
-133.8892
 10
-673.3827
 20
-134.0321
 10
-673.5246
 20
-134.1835
 10
-673.6593
 20
-134.3435
 10
-673.787
 20
-134.5122
 10
-673.9077
 20
-134.6896
 10
-674.0213
 20
-134.8757
 10
-674.0304
 20
-133.2978
 10
-675.6069
 20
-133.3069
 10
-675.5476
 20
-143.2009
 10
-673.9711
 20
-143.1918
 10
-674.0021
 20
-138.1282
 10
-673.9674
 20
-137.8331
 10
-673.9212
 20
-137.5495
 10
-673.8638
 20
-137.2772
 10
-673.795
 20
-137.0161
 10
-673.7149
 20
-136.7662
 10
-673.6235
 20
-136.5273
 10
-673.5207
 20
-136.2993
 10
-673.4067
 20
-136.0822
 10
-673.3136
 20
-135.9276
 10
-673.2127
 20
-135.7801
 10
-673.104
 20
-135.6397
 10
-672.9876
 20
-135.5062
 10
-672.8635
 20
-135.3796
 10
-672.7316
 20
-135.26
 10
-672.5921
 20
-135.1473
 10
-672.4448
 20
-135.0415
 10
-672.2919
 20
-134.946
 10
-672.1362
 20
-134.8631
 10
-671.9776
 20
-134.7927
 10
-671.8162
 20
-134.7349
 10
-671.6519
 20
-134.6898
 10
-671.4848
 20
-134.6572
 10
-671.3147
 20
-134.6372
 10
-671.1418
 20
-134.6299
 10
-670.9727
 20
-134.6323
 10
-670.8149
 20
-134.6413
 10
-670.6684
 20
-134.6571
 10
-670.5331
 20
-134.6797
 10
-670.409
 20
-134.7089
 10
-670.2962
 20
-134.7448
 10
-670.1946
 20
-134.7874
 10
-670.1042
 20
-134.8366
 10
-669.8764
 20
-135.003
 10
-669.6787
 20
-135.1984
 10
-669.511
 20
-135.4227
 10
-669.3733
 20
-135.676
 10
-669.2656
 20
-135.9583
 10
-669.1881
 20
-136.2695
 10
-669.1405
 20
-136.6098
 10
-669.1231
 20
-136.9791
 10
-669.0857
 20
-143.1626
 10
-667.5093
 20
-143.1526
 10
-667.5466
 20
-136.9691
 10
-667.5612
 20
-136.5903
 10
-667.305
 20
-136.0458
 10
-667.2119
 20
-135.8912
 10
-667.111
 20
-135.7437
 10
-667.0023
 20
-135.6032
 10
-666.8859
 20
-135.4698
 10
-666.7618
 20
-135.3432
 10
-666.6299
 20
-135.2236
 10
-666.4904
 20
-135.1109
 10
-666.3431
 20
-135.005
 10
-666.1902
 20
-134.9095
 10
-666.0345
 20
-134.8266
 10
-665.8759
 20
-134.7563
 10
-665.7144
 20
-134.6985
 10
-665.55
 20
-134.6534
 10
-665.3827
 20
-134.6208
 10
-665.2124
 20
-134.6008
 10
-665.0392
 20
-134.5935
 10
-664.8704
 20
-134.5958
 10
-664.7127
 20
-134.6048
 10
-664.5662
 20
-134.6204
 10
-664.4309
 20
-134.6429
 10
-664.3069
 20
-134.672
 10
-664.1941
 20
-134.7079
 10
-664.0926
 20
-134.7507
 10
-664.0025
 20
-134.8002
 10
-663.7747
 20
-134.9666
 10
-663.577
 20
-135.162
 10
-663.4093
 20
-135.3863
 10
-663.2716
 20
-135.6396
 10
-663.1639
 20
-135.9219
 10
-663.0864
 20
-136.2331
 10
-663.0388
 20
-136.5734
 10
-663.0214
 20
-136.9427
 10
-662.985
 20
-143.1253
  0
LWPOLYLINE
  5
79
330
1F
100
AcDbEntity
  8
Layer 1
 62
     7
370
     9
100
AcDbPolyline
 90
        7
 70
     1
 43
0.0
 10
-716.4204
 20
-210.088
 10
-709.7798
 20
-194.8254
 10
-719.3937
 20
-194.8827
 10
-719.3846
 20
-196.4571
 10
-712.2243
 20
-196.4143
 10
-718.1765
 20
-210.098
 10
-716.4204
 20
-210.088
  0
LWPOLYLINE
  5
7A
330
1F
100
AcDbEntity
  8
Layer 1
 62
     7
370
     9
100
AcDbPolyline
 90
      113
 70
     1
 43
0.0
 10
-701.4278
 20
-196.4844
 10
-701.1667
 20
-196.659
 10
-700.9231
 20
-196.8577
 10
-700.6969
 20
-197.0805
 10
-700.4882
 20
-197.3274
 10
-700.2969
 20
-197.5984
 10
-700.123
 20
-197.8933
 10
-699.9666
 20
-198.2122
 10
-699.8276
 20
-198.555
 10
-699.6719
 20
-199.0098
 10
-699.5366
 20
-199.4714
 10
-699.4217
 20
-199.9399
 10
-699.3271
 20
-200.4151
 10
-699.2528
 20
-200.8971
 10
-699.1988
 20
-201.3859
 10
-699.1652
 20
-201.8815
 10
-699.152
 20
-202.3838
 10
-699.1548
 20
-202.6307
 10
-699.1658
 20
-202.8988
 10
-699.1852
 20
-203.188
 10
-699.2131
 20
-203.4983
 10
-699.2874
 20
-204.1031
 10
-699.3859
 20
-204.6748
 10
-699.5086
 20
-205.2132
 10
-699.6554
 20
-205.7183
 10
-699.8264
 20
-206.1903
 10
-700.0215
 20
-206.6289
 10
-700.2407
 20
-207.0343
 10
-700.4841
 20
-207.4064
 10
-700.7066
 20
-207.6873
 10
-700.9413
 20
-207.9309
 10
-701.188
 20
-208.1373
 10
-701.447
 20
-208.3065
 10
-701.718
 20
-208.4385
 10
-702.0012
 20
-208.5332
 10
-702.2965
 20
-208.5908
 10
-702.604
 20
-208.6111
 10
-702.9477
 20
-208.5946
 10
-703.2752
 20
-208.5412
 10
-703.5864
 20
-208.4509
 10
-703.8813
 20
-208.3236
 10
-704.1598
 20
-208.1593
 10
-704.422
 20
-207.958
 10
-704.6678
 20
-207.7198
 10
-704.8972
 20
-207.4447
 10
-704.9943
 20
-207.3111
 10
-705.0873
 20
-207.1731
 10
-705.1761
 20
-207.0308
 10
-705.2608
 20
-206.8843
 10
-705.3413
 20
-206.7336
 10
-705.4175
 20
-206.5787
 10
-705.4895
 20
-206.4196
 10
-705.5573
 20
-206.2564
 10
-705.6809
 20
-205.9235
 10
-705.7891
 20
-205.5861
 10
-705.882
 20
-205.2444
 10
-705.9594
 20
-204.8988
 10
-706.0242
 20
-204.5534
 10
-706.0791
 20
-204.2136
 10
-706.1241
 20
-203.8793
 10
-706.1591
 20
-203.5502
 10
-706.1733
 20
-203.3844
 10
-706.1858
 20
-203.2123
 10
-706.1965
 20
-203.0338
 10
-706.2056
 20
-202.849
 10
-706.213
 20
-202.658
 10
-706.2186
 20
-202.4609
 10
-706.2226
 20
-202.2578
 10
-706.2248
 20
-202.0487
 10
-706.222
 20
-201.83
 10
-706.2116
 20
-201.5986
 10
-706.1936
 20
-201.3545
 10
-706.1679
 20
-201.0976
 10
-706.1346
 20
-200.8278
 10
-706.0936
 20
-200.5451
 10
-706.0449
 20
-200.2495
 10
-705.9886
 20
-199.9408
 10
-705.916
 20
-199.5981
 10
-705.8293
 20
-199.257
 10
-705.7286
 20
-198.9172
 10
-705.6139
 20
-198.5786
 10
-705.5508
 20
-198.4116
 10
-705.4831
 20
-198.2488
 10
-705.4108
 20
-198.0901
 10
-705.334
 20
-197.9356
 10
-705.2525
 20
-197.7852
 10
-705.1664
 20
-197.639
 10
-705.0756
 20
-197.4971
 10
-704.9802
 20
-197.3594
 10
-704.88
 20
-197.2275
 10
-704.7748
 20
-197.1021
 10
-704.6647
 20
-196.9834
 10
-704.5497
 20
-196.8712
 10
-704.4296
 20
-196.7657
 10
-704.3046
 20
-196.6668
 10
-704.1744
 20
-196.5745
 10
-704.0392
 20
-196.4889
 10
-703.8988
 20
-196.4117
 10
-703.752
 20
-196.3445
 10
-703.5987
 20
-196.2875
 10
-703.4389
 20
-196.2406
 10
-703.2726
 20
-196.2038
 10
-703.1
 20
-196.1773
 10
-702.9208
 20
-196.1609
 10
-702.7353
 20
-196.1548
 10
-702.55
 20
-196.1587
 10
-702.371
 20
-196.1734
 10
-702.1982
 20
-196.1986
 10
-702.0316
 20
-196.2346
 10
-701.8713
 20
-196.2811
 10
-701.7172
 20
-196.3383
 10
-701.5694
 20
-196.406
 10
-701.4278
 20
-196.4844
  0
LWPOLYLINE
  5
7B
330
1F
100
AcDbEntity
  8
Layer 1
 62
     7
370
     9
100
AcDbPolyline
 90
       65
 70
     1
 43
0.0
 10
-702.573
 20
-210.2073
 10
-701.9158
 20
-210.1617
 10
-701.301
 20
-210.0331
 10
-700.7286
 20
-209.8215
 10
-700.1986
 20
-209.5269
 10
-699.7109
 20
-209.1493
 10
-699.2656
 20
-208.6887
 10
-698.8626
 20
-208.1451
 10
-698.5019
 20
-207.5184
 10
-698.2493
 20
-206.9718
 10
-698.0309
 20
-206.3953
 10
-697.8469
 20
-205.7889
 10
-697.6971
 20
-205.1525
 10
-697.5817
 20
-204.4861
 10
-697.5006
 20
-203.7896
 10
-697.4539
 20
-203.063
 10
-697.4415
 20
-202.3064
 10
-697.4629
 20
-201.5502
 10
-697.5184
 20
-200.8244
 10
-697.6079
 20
-200.1289
 10
-697.7313
 20
-199.4638
 10
-697.8887
 20
-198.8291
 10
-698.0801
 20
-198.225
 10
-698.3055
 20
-197.6513
 10
-698.5648
 20
-197.1081
 10
-698.9328
 20
-196.4857
 10
-699.3422
 20
-195.9468
 10
-699.7929
 20
-195.4915
 10
-700.2849
 20
-195.1196
 10
-700.8183
 20
-194.8312
 10
-701.3931
 20
-194.6264
 10
-702.0093
 20
-194.5052
 10
-702.6669
 20
-194.4675
 10
-703.3238
 20
-194.5131
 10
-703.9384
 20
-194.6418
 10
-704.5107
 20
-194.8535
 10
-705.0407
 20
-195.1482
 10
-705.5284
 20
-195.526
 10
-705.9739
 20
-195.9868
 10
-706.3771
 20
-196.5305
 10
-706.7381
 20
-197.1573
 10
-706.9904
 20
-197.7036
 10
-707.2086
 20
-198.28
 10
-707.3925
 20
-198.8864
 10
-707.5421
 20
-199.5228
 10
-707.6574
 20
-200.1892
 10
-707.7385
 20
-200.8856
 10
-707.7852
 20
-201.6119
 10
-707.7976
 20
-202.3683
 10
-707.7762
 20
-203.1248
 10
-707.7208
 20
-203.8508
 10
-707.6315
 20
-204.5463
 10
-707.5082
 20
-205.2114
 10
-707.3509
 20
-205.8461
 10
-707.1597
 20
-206.4503
 10
-706.9345
 20
-207.0242
 10
-706.6752
 20
-207.5676
 10
-706.3071
 20
-208.1899
 10
-705.8977
 20
-208.7287
 10
-705.4469
 20
-209.184
 10
-704.9547
 20
-209.5557
 10
-704.4213
 20
-209.8438
 10
-703.8465
 20
-210.0485
 10
-703.2304
 20
-210.1696
 10
-702.573
 20
-210.2073
  0
LWPOLYLINE
  5
7C
330
1F
100
AcDbEntity
  8
Layer 1
 62
     7
370
     9
100
AcDbPolyline
 90
      162
 70
     1
 43
0.0
 10
-682.0177
 20
-209.8376
 10
-680.4412
 20
-209.8276
 10
-680.4786
 20
-203.644
 10
-680.4938
 20
-203.2334
 10
-680.5346
 20
-202.8424
 10
-680.601
 20
-202.4709
 10
-680.6931
 20
-202.119
 10
-680.8106
 20
-201.7865
 10
-680.9538
 20
-201.4735
 10
-681.1224
 20
-201.18
 10
-681.3165
 20
-200.906
 10
-681.4248
 20
-200.7752
 10
-681.5397
 20
-200.651
 10
-681.6613
 20
-200.5334
 10
-681.7896
 20
-200.4226
 10
-681.9244
 20
-200.3185
 10
-682.0659
 20
-200.2211
 10
-682.214
 20
-200.1304
 10
-682.3687
 20
-200.0464
 10
-682.5333
 20
-199.9712
 10
-682.7103
 20
-199.9062
 10
-682.8999
 20
-199.8512
 10
-683.102
 20
-199.8065
 10
-683.3167
 20
-199.772
 10
-683.544
 20
-199.7478
 10
-683.7839
 20
-199.734
 10
-684.0364
 20
-199.7305
 10
-684.2912
 20
-199.7406
 10
-684.5378
 20
-199.7684
 10
-684.7763
 20
-199.8137
 10
-685.0066
 20
-199.8766
 10
-685.2288
 20
-199.9571
 10
-685.4428
 20
-200.0552
 10
-685.6487
 20
-200.1708
 10
-685.8463
 20
-200.3041
 10
-686.0172
 20
-200.4364
 10
-686.1803
 20
-200.5784
 10
-686.3358
 20
-200.73
 10
-686.4836
 20
-200.8911
 10
-686.6237
 20
-201.0617
 10
-686.7561
 20
-201.2416
 10
-686.8808
 20
-201.4307
 10
-686.9978
 20
-201.629
 10
-687.0903
 20
-201.4474
 10
-687.1913
 20
-201.272
 10
-687.3006
 20
-201.1034
 10
-687.4182
 20
-200.9424
 10
-687.5265
 20
-200.8116
 10
-687.6414
 20
-200.6874
 10
-687.763
 20
-200.5699
 10
-687.8913
 20
-200.4591
 10
-688.0261
 20
-200.3549
 10
-688.1676
 20
-200.2575
 10
-688.3157
 20
-200.1669
 10
-688.4704
 20
-200.0829
 10
-688.6349
 20
-200.0077
 10
-688.812
 20
-199.9426
 10
-689.0015
 20
-199.8877
 10
-689.2037
 20
-199.843
 10
-689.4183
 20
-199.8085
 10
-689.6456
 20
-199.7843
 10
-689.8855
 20
-199.7704
 10
-690.138
 20
-199.7669
 10
-690.3928
 20
-199.777
 10
-690.6395
 20
-199.8048
 10
-690.878
 20
-199.8501
 10
-691.1083
 20
-199.913
 10
-691.3305
 20
-199.9935
 10
-691.5445
 20
-200.0916
 10
-691.7504
 20
-200.2073
 10
-691.948
 20
-200.3405
 10
-692.111
 20
-200.4666
 10
-692.267
 20
-200.601
 10
-692.4159
 20
-200.7438
 10
-692.5577
 20
-200.8952
 10
-692.6925
 20
-201.0551
 10
-692.8201
 20
-201.2237
 10
-692.9407
 20
-201.401
 10
-693.054
 20
-201.5871
 10
-693.064
 20
-200.0091
 10
-694.6405
 20
-200.0182
 10
-694.5812
 20
-209.9122
 10
-693.0047
 20
-209.9031
 10
-693.0348
 20
-204.8396
 10
-693.0001
 20
-204.5445
 10
-692.9541
 20
-204.2609
 10
-692.8967
 20
-203.9885
 10
-692.828
 20
-203.7275
 10
-692.748
 20
-203.4775
 10
-692.6565
 20
-203.2386
 10
-692.5537
 20
-203.0107
 10
-692.4394
 20
-202.7936
 10
-692.3463
 20
-202.639
 10
-692.2454
 20
-202.4915
 10
-692.1367
 20
-202.3511
 10
-692.0203
 20
-202.2177
 10
-691.8962
 20
-202.0912
 10
-691.7643
 20
-201.9718
 10
-691.6248
 20
-201.8593
 10
-691.4775
 20
-201.7537
 10
-691.3246
 20
-201.6579
 10
-691.1689
 20
-201.5748
 10
-691.0103
 20
-201.5043
 10
-690.8489
 20
-201.4464
 10
-690.6846
 20
-201.4012
 10
-690.5175
 20
-201.3686
 10
-690.3474
 20
-201.3486
 10
-690.1745
 20
-201.3412
 10
-690.0054
 20
-201.3436
 10
-689.8476
 20
-201.3526
 10
-689.7011
 20
-201.3684
 10
-689.5659
 20
-201.391
 10
-689.4419
 20
-201.4202
 10
-689.3293
 20
-201.4561
 10
-689.2279
 20
-201.4987
 10
-689.1378
 20
-201.5479
 10
-688.9097
 20
-201.7143
 10
-688.7118
 20
-201.9097
 10
-688.5439
 20
-202.134
 10
-688.4061
 20
-202.3873
 10
-688.2984
 20
-202.6696
 10
-688.2208
 20
-202.9809
 10
-688.1732
 20
-203.3212
 10
-688.1558
 20
-203.6905
 10
-688.1193
 20
-209.874
 10
-686.5429
 20
-209.864
 10
-686.5793
 20
-203.6814
 10
-686.5939
 20
-203.3026
 10
-686.3377
 20
-202.7571
 10
-686.2446
 20
-202.6026
 10
-686.1438
 20
-202.4551
 10
-686.0353
 20
-202.3147
 10
-685.919
 20
-202.1813
 10
-685.7949
 20
-202.0548
 10
-685.663
 20
-201.9354
 10
-685.5233
 20
-201.8229
 10
-685.3758
 20
-201.7173
 10
-685.2229
 20
-201.6215
 10
-685.0672
 20
-201.5384
 10
-684.9086
 20
-201.4679
 10
-684.7471
 20
-201.41
 10
-684.5827
 20
-201.3648
 10
-684.4154
 20
-201.3321
 10
-684.2451
 20
-201.3122
 10
-684.0719
 20
-201.3048
 10
-683.9031
 20
-201.3072
 10
-683.7456
 20
-201.3162
 10
-683.5992
 20
-201.332
 10
-683.4641
 20
-201.3546
 10
-683.3402
 20
-201.3838
 10
-683.2276
 20
-201.4197
 10
-683.1262
 20
-201.4623
 10
-683.0361
 20
-201.5115
 10
-682.808
 20
-201.6779
 10
-682.6101
 20
-201.8733
 10
-682.4422
 20
-202.0976
 10
-682.3045
 20
-202.3509
 10
-682.1969
 20
-202.6332
 10
-682.1195
 20
-202.9445
 10
-682.0721
 20
-203.2847
 10
-682.055
 20
-203.654
 10
-682.0177
 20
-209.8376
  0
LWPOLYLINE
  5
7D
330
1F
100
AcDbEntity
  8
Layer 1
 62
     7
370
     9
100
AcDbPolyline
 90
      162
 70
     1
 43
0.0
 10
-664.8377
 20
-209.7347
 10
-663.2612
 20
-209.7247
 10
-663.2986
 20
-203.5411
 10
-663.3138
 20
-203.1305
 10
-663.3547
 20
-202.7395
 10
-663.4211
 20
-202.368
 10
-663.5131
 20
-202.0161
 10
-663.6307
 20
-201.6836
 10
-663.7738
 20
-201.3706
 10
-663.9425
 20
-201.0771
 10
-664.1366
 20
-200.8031
 10
-664.2449
 20
-200.6723
 10
-664.3599
 20
-200.5481
 10
-664.4815
 20
-200.4305
 10
-664.6098
 20
-200.3197
 10
-664.7448
 20
-200.2156
 10
-664.8864
 20
-200.1182
 10
-665.0347
 20
-200.0275
 10
-665.1897
 20
-199.9436
 10
-665.354
 20
-199.8684
 10
-665.5309
 20
-199.8033
 10
-665.7205
 20
-199.7484
 10
-665.9226
 20
-199.7036
 10
-666.1374
 20
-199.6691
 10
-666.3648
 20
-199.6449
 10
-666.6048
 20
-199.6311
 10
-666.8573
 20
-199.6276
 10
-667.1121
 20
-199.6377
 10
-667.3586
 20
-199.6655
 10
-667.597
 20
-199.7108
 10
-667.8271
 20
-199.7737
 10
-668.0491
 20
-199.8542
 10
-668.263
 20
-199.9523
 10
-668.4687
 20
-200.0679
 10
-668.6663
 20
-200.2012
 10
-668.8375
 20
-200.3335
 10
-669.0009
 20
-200.4755
 10
-669.1565
 20
-200.6271
 10
-669.3044
 20
-200.7882
 10
-669.4444
 20
-200.9588
 10
-669.5767
 20
-201.1387
 10
-669.7012
 20
-201.3278
 10
-669.8179
 20
-201.5261
 10
-669.9104
 20
-201.3445
 10
-670.0114
 20
-201.1692
 10
-670.121
 20
-201.0006
 10
-670.2392
 20
-200.8395
 10
-670.3472
 20
-200.7087
 10
-670.4619
 20
-200.5845
 10
-670.5834
 20
-200.467
 10
-670.7115
 20
-200.3562
 10
-670.8463
 20
-200.252
 10
-670.9877
 20
-200.1546
 10
-671.1358
 20
-200.064
 10
-671.2905
 20
-199.98
 10
-671.4551
 20
-199.9048
 10
-671.6322
 20
-199.8397
 10
-671.8219
 20
-199.7848
 10
-672.0242
 20
-199.7401
 10
-672.2391
 20
-199.7056
 10
-672.4665
 20
-199.6814
 10
-672.7065
 20
-199.6675
 10
-672.959
 20
-199.664
 10
-673.2137
 20
-199.6742
 10
-673.4603
 20
-199.7019
 10
-673.6986
 20
-199.7473
 10
-673.9288
 20
-199.8102
 10
-674.1508
 20
-199.8907
 10
-674.3647
 20
-199.9888
 10
-674.5704
 20
-200.1044
 10
-674.768
 20
-200.2377
 10
-674.9313
 20
-200.3637
 10
-675.0874
 20
-200.4981
 10
-675.2364
 20
-200.641
 10
-675.3782
 20
-200.7923
 10
-675.513
 20
-200.9522
 10
-675.6407
 20
-201.1208
 10
-675.7613
 20
-201.2981
 10
-675.8749
 20
-201.4842
 10
-675.884
 20
-199.9062
 10
-677.4605
 20
-199.9162
 10
-677.4013
 20
-209.8093
 10
-675.8248
 20
-209.8002
 10
-675.8549
 20
-204.7367
 10
-675.8205
 20
-204.4419
 10
-675.7746
 20
-204.1583
 10
-675.7173
 20
-203.886
 10
-675.6486
 20
-203.6249
 10
-675.5685
 20
-203.3749
 10
-675.4771
 20
-203.1359
 10
-675.3744
 20
-202.9078
 10
-675.2604
 20
-202.6907
 10
-675.167
 20
-202.5364
 10
-675.066
 20
-202.389
 10
-674.9573
 20
-202.2486
 10
-674.841
 20
-202.1151
 10
-674.7169
 20
-201.9886
 10
-674.5852
 20
-201.869
 10
-674.4457
 20
-201.7564
 10
-674.2984
 20
-201.6508
 10
-674.1452
 20
-201.555
 10
-673.9893
 20
-201.4719
 10
-673.8306
 20
-201.4014
 10
-673.6691
 20
-201.3435
 10
-673.5047
 20
-201.2983
 10
-673.3376
 20
-201.2657
 10
-673.1675
 20
-201.2457
 10
-672.9946
 20
-201.2384
 10
-672.8256
 20
-201.2407
 10
-672.6679
 20
-201.2498
 10
-672.5215
 20
-201.2656
 10
-672.3863
 20
-201.2881
 10
-672.2624
 20
-201.3173
 10
-672.1498
 20
-201.3532
 10
-672.0483
 20
-201.3958
 10
-671.9579
 20
-201.445
 10
-671.7298
 20
-201.6114
 10
-671.5319
 20
-201.8068
 10
-671.364
 20
-202.0311
 10
-671.2263
 20
-202.2844
 10
-671.1187
 20
-202.5667
 10
-671.0413
 20
-202.878
 10
-670.9939
 20
-203.2183
 10
-670.9768
 20
-203.5876
 10
-670.9394
 20
-209.7711
 10
-669.3629
 20
-209.7611
 10
-669.4003
 20
-203.5785
 10
-669.414
 20
-203.1997
 10
-669.1587
 20
-202.6543
 10
-669.0656
 20
-202.4997
 10
-668.9647
 20
-202.3522
 10
-668.856
 20
-202.2118
 10
-668.7396
 20
-202.0784
 10
-668.6155
 20
-201.9519
 10
-668.4836
 20
-201.8325
 10
-668.344
 20
-201.72
 10
-668.1967
 20
-201.6144
 10
-668.0435
 20
-201.5186
 10
-667.8876
 20
-201.4355
 10
-667.7288
 20
-201.365
 10
-667.5673
 20
-201.3071
 10
-667.4028
 20
-201.2619
 10
-667.2355
 20
-201.2293
 10
-667.0652
 20
-201.2093
 10
-666.892
 20
-201.2019
 10
-666.7232
 20
-201.2043
 10
-666.5657
 20
-201.2133
 10
-666.4193
 20
-201.2291
 10
-666.2842
 20
-201.2517
 10
-666.1603
 20
-201.2809
 10
-666.0477
 20
-201.3168
 10
-665.9463
 20
-201.3594
 10
-665.8562
 20
-201.4086
 10
-665.6282
 20
-201.575
 10
-665.4303
 20
-201.7704
 10
-665.2626
 20
-201.9947
 10
-665.1249
 20
-202.248
 10
-665.0174
 20
-202.5303
 10
-664.9399
 20
-202.8416
 10
-664.8925
 20
-203.1818
 10
-664.8751
 20
-203.5511
 10
-664.8377
 20
-209.7347
  0
LWPOLYLINE
  5
7E
330
1F
100
AcDbEntity
  8
Layer 1
 62
     7
370
     9
100
AcDbPolyline
 90
        7
 70
     1
 43
0.0
 10
-726.3096
 20
-427.8648
 10
-724.8417
 20
-427.8548
 10
-724.9283
 20
-412.3855
 10
-728.4487
 20
-412.8126
 10
-728.4414
 20
-414.1838
 10
-726.3862
 20
-414.1711
 10
-726.3096
 20
-427.8648
  0
LWPOLYLINE
  5
7F
330
1F
100
AcDbEntity
  8
Layer 1
 62
     7
370
     9
100
AcDbPolyline
 90
       87
 70
     1
 43
0.0
 10
-722.0726
 20
-427.8375
 10
-712.0265
 20
-427.7729
 10
-712.0347
 20
-426.1985
 10
-718.5366
 20
-426.2404
 10
-713.5957
 20
-420.9246
 10
-713.2734
 20
-420.5421
 10
-712.9944
 20
-420.1408
 10
-712.7588
 20
-419.7209
 10
-712.5666
 20
-419.2822
 10
-712.4177
 20
-418.8249
 10
-712.3123
 20
-418.3489
 10
-712.2502
 20
-417.8541
 10
-712.2316
 20
-417.3407
 10
-712.2567
 20
-416.816
 10
-712.3258
 20
-416.3126
 10
-712.4391
 20
-415.8306
 10
-712.5964
 20
-415.37
 10
-712.7979
 20
-414.9307
 10
-713.0436
 20
-414.5128
 10
-713.3335
 20
-414.1164
 10
-713.6677
 20
-413.7413
 10
-714.0382
 20
-413.3932
 10
-714.4249
 20
-413.0919
 10
-714.8277
 20
-412.8373
 10
-715.2466
 20
-412.6296
 10
-715.6816
 20
-412.4687
 10
-716.1327
 20
-412.3547
 10
-716.6
 20
-412.2875
 10
-717.0833
 20
-412.2671
 10
-717.5853
 20
-412.2951
 10
-718.0682
 20
-412.3721
 10
-718.5321
 20
-412.4982
 10
-718.9771
 20
-412.6733
 10
-719.403
 20
-412.8975
 10
-719.81
 20
-413.1707
 10
-720.1981
 20
-413.493
 10
-720.5672
 20
-413.8642
 10
-720.8955
 20
-414.263
 10
-721.1769
 20
-414.6822
 10
-721.4112
 20
-415.1219
 10
-721.5986
 20
-415.582
 10
-721.7389
 20
-416.0626
 10
-721.8324
 20
-416.5637
 10
-721.8789
 20
-417.0853
 10
-721.8784
 20
-417.6275
 10
-720.3894
 20
-417.6184
 10
-720.4035
 20
-417.2669
 10
-720.3824
 20
-416.9232
 10
-720.3258
 20
-416.5874
 10
-720.2339
 20
-416.2594
 10
-720.1067
 20
-415.9393
 10
-719.944
 20
-415.627
 10
-719.7459
 20
-415.3226
 10
-719.5123
 20
-415.0261
 10
-719.2621
 20
-414.7612
 10
-718.9986
 20
-414.5312
 10
-718.7216
 20
-414.3362
 10
-718.4313
 20
-414.1762
 10
-718.1277
 20
-414.0513
 10
-717.8108
 20
-413.9614
 10
-717.4805
 20
-413.9066
 10
-717.137
 20
-413.887
 10
-716.8
 20
-413.9005
 10
-716.4756
 20
-413.9459
 10
-716.1638
 20
-414.023
 10
-715.8645
 20
-414.1318
 10
-715.5779
 20
-414.2724
 10
-715.3039
 20
-414.4447
 10
-715.0425
 20
-414.6486
 10
-714.7937
 20
-414.8841
 10
-714.5637
 20
-415.1446
 10
-714.3641
 20
-415.4179
 10
-714.1949
 20
-415.7041
 10
-714.056
 20
-416.0032
 10
-713.9475
 20
-416.3152
 10
-713.8694
 20
-416.6399
 10
-713.8217
 20
-416.9776
 10
-713.8045
 20
-417.328
 10
-713.8172
 20
-417.6864
 10
-713.8595
 20
-418.0311
 10
-713.9314
 20
-418.3618
 10
-714.0329
 20
-418.6788
 10
-714.1639
 20
-418.9819
 10
-714.3245
 20
-419.2712
 10
-714.5147
 20
-419.5467
 10
-714.7345
 20
-419.8083
 10
-722.0726
 20
-427.8375
  0
LWPOLYLINE
  5
80
330
1F
100
AcDbEntity
  8
Layer 1
 62
     7
370
     9
100
AcDbPolyline
 90
      110
 70
     1
 43
0.0
 10
-703.555
 20
-414.2048
 10
-703.3118
 20
-414.3794
 10
-703.0848
 20
-414.578
 10
-702.8739
 20
-414.8007
 10
-702.6794
 20
-415.0474
 10
-702.5011
 20
-415.3181
 10
-702.3391
 20
-415.6129
 10
-702.1935
 20
-415.9317
 10
-702.0643
 20
-416.2745
 10
-701.9192
 20
-416.7293
 10
-701.7931
 20
-417.1911
 10
-701.686
 20
-417.6596
 10
-701.5978
 20
-418.1351
 10
-701.5285
 20
-418.6172
 10
-701.4781
 20
-419.1062
 10
-701.4467
 20
-419.6018
 10
-701.4342
 20
-420.1042
 10
-701.4917
 20
-421.2178
 10
-701.5608
 20
-421.8226
 10
-701.6525
 20
-422.3943
 10
-701.7668
 20
-422.9327
 10
-701.9036
 20
-423.438
 10
-702.0629
 20
-423.91
 10
-702.2446
 20
-424.3488
 10
-702.4487
 20
-424.7544
 10
-702.6752
 20
-425.1268
 10
-702.8826
 20
-425.4074
 10
-703.1012
 20
-425.6508
 10
-703.3311
 20
-425.8571
 10
-703.5724
 20
-426.0262
 10
-703.8249
 20
-426.1582
 10
-704.0887
 20
-426.2531
 10
-704.3637
 20
-426.3109
 10
-704.6501
 20
-426.3315
 10
-704.9704
 20
-426.315
 10
-705.2755
 20
-426.2616
 10
-705.5653
 20
-426.1713
 10
-705.84
 20
-426.044
 10
-706.0994
 20
-425.8797
 10
-706.3436
 20
-425.6784
 10
-706.5726
 20
-425.4402
 10
-706.7864
 20
-425.1651
 10
-706.8768
 20
-425.0312
 10
-706.9635
 20
-424.8931
 10
-707.0463
 20
-424.7508
 10
-707.1252
 20
-424.6044
 10
-707.2001
 20
-424.4538
 10
-707.2711
 20
-424.299
 10
-707.3381
 20
-424.14
 10
-707.401
 20
-423.9768
 10
-707.5162
 20
-423.6435
 10
-707.6171
 20
-423.3062
 10
-707.7036
 20
-422.9647
 10
-707.7757
 20
-422.6192
 10
-707.836
 20
-422.2734
 10
-707.8872
 20
-421.9337
 10
-707.929
 20
-421.5995
 10
-707.9617
 20
-421.2706
 10
-707.9749
 20
-421.1045
 10
-707.9865
 20
-420.9322
 10
-707.9965
 20
-420.7535
 10
-708.0049
 20
-420.5686
 10
-708.0117
 20
-420.3776
 10
-708.017
 20
-420.1804
 10
-708.0207
 20
-419.9773
 10
-708.0228
 20
-419.7682
 10
-708.0203
 20
-419.5495
 10
-708.0106
 20
-419.3183
 10
-707.9939
 20
-419.0743
 10
-707.97
 20
-418.8175
 10
-707.939
 20
-418.5479
 10
-707.9009
 20
-418.2654
 10
-707.8556
 20
-417.9698
 10
-707.8031
 20
-417.6612
 10
-707.7356
 20
-417.3184
 10
-707.6549
 20
-416.977
 10
-707.5613
 20
-416.6369
 10
-707.4548
 20
-416.2981
 10
-707.3959
 20
-416.1312
 10
-707.3327
 20
-415.9684
 10
-707.2653
 20
-415.8099
 10
-707.1936
 20
-415.6555
 10
-707.1176
 20
-415.5053
 10
-707.0373
 20
-415.3593
 10
-706.9527
 20
-415.2175
 10
-706.8639
 20
-415.0798
 10
-706.7704
 20
-414.9476
 10
-706.6724
 20
-414.822
 10
-706.5699
 20
-414.7031
 10
-706.4627
 20
-414.591
 10
-706.351
 20
-414.4855
 10
-706.2346
 20
-414.3867
 10
-706.1135
 20
-414.2946
 10
-705.9877
 20
-414.2093
 10
-705.8566
 20
-414.1318
 10
-705.7196
 20
-414.0645
 10
-705.5767
 20
-414.0074
 10
-705.428
 20
-413.9605
 10
-705.2733
 20
-413.9238
 10
-705.1126
 20
-413.8972
 10
-704.9459
 20
-413.8807
 10
-704.7732
 20
-413.8743
 10
-704.6004
 20
-413.8785
 10
-704.4333
 20
-413.8934
 10
-704.2722
 20
-413.9188
 10
-704.1169
 20
-413.9548
 10
-703.9676
 20
-414.0014
 10
-703.8241
 20
-414.0586
 10
-703.6866
 20
-414.1264
 10
-703.555
 20
-414.2048
  0
LWPOLYLINE
  5
81
330
1F
100
AcDbEntity
  8
Layer 1
 62
     7
370
     9
100
AcDbPolyline
 90
       65
 70
     1
 43
0.0
 10
-704.6209
 20
-427.9268
 10
-704.0088
 20
-427.8815
 10
-703.4361
 20
-427.7531
 10
-702.903
 20
-427.5417
 10
-702.4093
 20
-427.2473
 10
-701.955
 20
-426.8697
 10
-701.5402
 20
-426.4092
 10
-701.1648
 20
-425.8655
 10
-700.8288
 20
-425.2388
 10
-700.5935
 20
-424.6922
 10
-700.3901
 20
-424.1157
 10
-700.2187
 20
-423.5093
 10
-700.0792
 20
-422.8729
 10
-699.9716
 20
-422.2065
 10
-699.896
 20
-421.51
 10
-699.8523
 20
-420.7834
 10
-699.8404
 20
-420.0268
 10
-699.8606
 20
-419.2706
 10
-699.9124
 20
-418.5448
 10
-699.9958
 20
-417.8493
 10
-700.1108
 20
-417.1842
 10
-700.2574
 20
-416.5495
 10
-700.4356
 20
-415.9454
 10
-700.6455
 20
-415.3717
 10
-700.8871
 20
-414.8285
 10
-701.2299
 20
-414.2061
 10
-701.6113
 20
-413.6672
 10
-702.0313
 20
-413.2119
 10
-702.4899
 20
-412.84
 10
-702.987
 20
-412.5516
 10
-703.5226
 20
-412.3468
 10
-704.0968
 20
-412.2256
 10
-704.7094
 20
-412.1879
 10
-705.3212
 20
-412.2335
 10
-705.8936
 20
-412.3622
 10
-706.4267
 20
-412.5739
 10
-706.9203
 20
-412.8686
 10
-707.3746
 20
-413.2464
 10
-707.7896
 20
-413.7072
 10
-708.1652
 20
-414.2509
 10
-708.5015
 20
-414.8777
 10
-708.7365
 20
-415.4238
 10
-708.9396
 20
-416.0
 10
-709.1109
 20
-416.6064
 10
-709.2503
 20
-417.2428
 10
-709.3578
 20
-417.9093
 10
-709.4334
 20
-418.6058
 10
-709.4771
 20
-419.3323
 10
-709.489
 20
-420.0887
 10
-709.4688
 20
-420.8451
 10
-709.417
 20
-421.571
 10
-709.3336
 20
-422.2664
 10
-709.2187
 20
-422.9314
 10
-709.0722
 20
-423.5659
 10
-708.8941
 20
-424.17
 10
-708.6844
 20
-424.7437
 10
-708.4431
 20
-425.2871
 10
-708.1
 20
-425.9094
 10
-707.7185
 20
-426.4482
 10
-707.2984
 20
-426.9035
 10
-706.8398
 20
-427.2752
 10
-706.3427
 20
-427.5633
 10
-705.8072
 20
-427.768
 10
-705.2332
 20
-427.8891
 10
-704.6209
 20
-427.9268
  0
LWPOLYLINE
  5
82
330
1F
100
AcDbEntity
  8
Layer 1
 62
     7
370
     9
100
AcDbPolyline
 90
      162
 70
     1
 43
0.0
 10
-685.4724
 20
-427.5571
 10
-684.0044
 20
-427.548
 10
-684.0391
 20
-421.3644
 10
-684.0531
 20
-420.9538
 10
-684.0911
 20
-420.5628
 10
-684.1529
 20
-420.1913
 10
-684.2386
 20
-419.8394
 10
-684.3481
 20
-419.5069
 10
-684.4815
 20
-419.1939
 10
-684.6386
 20
-418.9004
 10
-684.8196
 20
-418.6264
 10
-684.9205
 20
-418.4953
 10
-685.0276
 20
-418.371
 10
-685.141
 20
-418.2534
 10
-685.2605
 20
-418.1426
 10
-685.3861
 20
-418.0384
 10
-685.5179
 20
-417.941
 10
-685.6558
 20
-417.8501
 10
-685.7998
 20
-417.7659
 10
-685.953
 20
-417.6908
 10
-686.1179
 20
-417.6258
 10
-686.2945
 20
-417.571
 10
-686.4829
 20
-417.5264
 10
-686.6829
 20
-417.4919
 10
-686.8947
 20
-417.4677
 10
-687.1182
 20
-417.4537
 10
-687.3534
 20
-417.45
 10
-687.5907
 20
-417.4604
 10
-687.8205
 20
-417.4884
 10
-688.0427
 20
-417.5338
 10
-688.2573
 20
-417.5968
 10
-688.4642
 20
-417.6772
 10
-688.6636
 20
-417.7752
 10
-688.8553
 20
-417.8906
 10
-689.0393
 20
-418.0236
 10
-689.1985
 20
-418.1559
 10
-689.3506
 20
-418.298
 10
-689.4956
 20
-418.4498
 10
-689.6334
 20
-418.6111
 10
-689.764
 20
-418.7818
 10
-689.8874
 20
-418.9618
 10
-690.0036
 20
-419.1511
 10
-690.1125
 20
-419.3494
 10
-690.1981
 20
-419.1678
 10
-690.292
 20
-418.9925
 10
-690.394
 20
-418.8239
 10
-690.5037
 20
-418.6628
 10
-690.6045
 20
-418.5317
 10
-690.7116
 20
-418.4074
 10
-690.8248
 20
-418.2899
 10
-690.9442
 20
-418.1791
 10
-691.0698
 20
-418.0751
 10
-691.2016
 20
-417.9778
 10
-691.3396
 20
-417.8872
 10
-691.4839
 20
-417.8033
 10
-691.6371
 20
-417.7278
 10
-691.802
 20
-417.6626
 10
-691.9786
 20
-417.6076
 10
-692.167
 20
-417.5629
 10
-692.367
 20
-417.5284
 10
-692.5788
 20
-417.5042
 10
-692.8023
 20
-417.4902
 10
-693.0375
 20
-417.4864
 10
-693.2748
 20
-417.4969
 10
-693.5046
 20
-417.5248
 10
-693.7268
 20
-417.5703
 10
-693.9414
 20
-417.6333
 10
-694.1483
 20
-417.7137
 10
-694.3477
 20
-417.8116
 10
-694.5394
 20
-417.9271
 10
-694.7234
 20
-418.06
 10
-694.8754
 20
-418.1861
 10
-695.0207
 20
-418.3206
 10
-695.1595
 20
-418.4636
 10
-695.2916
 20
-418.6151
 10
-695.4171
 20
-418.7752
 10
-695.536
 20
-418.9439
 10
-695.6482
 20
-419.1214
 10
-695.7538
 20
-419.3075
 10
-695.7629
 20
-417.7295
 10
-697.2318
 20
-417.7386
 10
-697.1762
 20
-427.6326
 10
-695.7073
 20
-427.6235
 10
-695.7355
 20
-422.56
 10
-695.7032
 20
-422.2649
 10
-695.6604
 20
-421.9813
 10
-695.6071
 20
-421.7089
 10
-695.5431
 20
-421.4479
 10
-695.4686
 20
-421.1979
 10
-695.3834
 20
-420.959
 10
-695.2877
 20
-420.7311
 10
-695.1812
 20
-420.514
 10
-695.0945
 20
-420.3594
 10
-695.0005
 20
-420.2119
 10
-694.8993
 20
-420.0714
 10
-694.7909
 20
-419.938
 10
-694.6753
 20
-419.8114
 10
-694.5526
 20
-419.6918
 10
-694.4228
 20
-419.5791
 10
-694.2858
 20
-419.4732
 10
-694.1433
 20
-419.3777
 10
-693.9981
 20
-419.2948
 10
-693.8502
 20
-419.2245
 10
-693.6997
 20
-419.1667
 10
-693.5466
 20
-419.1215
 10
-693.3908
 20
-419.0889
 10
-693.2324
 20
-419.069
 10
-693.0713
 20
-419.0616
 10
-692.9138
 20
-419.0639
 10
-692.7668
 20
-419.0729
 10
-692.6303
 20
-419.0886
 10
-692.5044
 20
-419.111
 10
-692.3889
 20
-419.1402
 10
-692.284
 20
-419.1761
 10
-692.1896
 20
-419.2188
 10
-692.1057
 20
-419.2683
 10
-691.8931
 20
-419.4347
 10
-691.7085
 20
-419.6301
 10
-691.5521
 20
-419.8544
 10
-691.4238
 20
-420.1077
 10
-691.3235
 20
-420.39
 10
-691.2514
 20
-420.7013
 10
-691.2073
 20
-421.0416
 10
-691.1912
 20
-421.4109
 10
-691.1565
 20
-427.5935
 10
-689.6876
 20
-427.5844
 10
-689.7223
 20
-421.4008
 10
-689.736
 20
-421.0221
 10
-689.498
 20
-420.4776
 10
-689.411
 20
-420.323
 10
-689.3169
 20
-420.1755
 10
-689.2157
 20
-420.035
 10
-689.1073
 20
-419.9016
 10
-688.9917
 20
-419.775
 10
-688.8689
 20
-419.6554
 10
-688.7389
 20
-419.5427
 10
-688.6017
 20
-419.4368
 10
-688.4592
 20
-419.3413
 10
-688.3139
 20
-419.2584
 10
-688.1661
 20
-419.1881
 10
-688.0155
 20
-419.1303
 10
-687.8623
 20
-419.0851
 10
-687.7063
 20
-419.0525
 10
-687.5477
 20
-419.0326
 10
-687.3863
 20
-419.0252
 10
-687.2291
 20
-419.0275
 10
-687.0823
 20
-419.0365
 10
-686.946
 20
-419.0522
 10
-686.8202
 20
-419.0746
 10
-686.7048
 20
-419.1038
 10
-686.5999
 20
-419.1397
 10
-686.5055
 20
-419.1824
 10
-686.4216
 20
-419.2319
 10
-686.2092
 20
-419.3983
 10
-686.0248
 20
-419.5936
 10
-685.8684
 20
-419.8177
 10
-685.74
 20
-420.0709
 10
-685.6397
 20
-420.353
 10
-685.5674
 20
-420.6641
 10
-685.5232
 20
-421.0043
 10
-685.5071
 20
-421.3735
 10
-685.4724
 20
-427.5571
  0
LWPOLYLINE
  5
83
330
1F
100
AcDbEntity
  8
Layer 1
 62
     7
370
     9
100
AcDbPolyline
 90
      162
 70
     1
 43
0.0
 10
-669.4687
 20
-427.4542
 10
-668.0007
 20
-427.4451
 10
-668.0345
 20
-421.2615
 10
-668.0488
 20
-420.8509
 10
-668.0869
 20
-420.4599
 10
-668.1489
 20
-420.0884
 10
-668.2347
 20
-419.7365
 10
-668.3443
 20
-419.404
 10
-668.4777
 20
-419.091
 10
-668.6349
 20
-418.7975
 10
-668.8159
 20
-418.5235
 10
-668.9167
 20
-418.3924
 10
-669.0238
 20
-418.2681
 10
-669.137
 20
-418.1505
 10
-669.2563
 20
-418.0397
 10
-669.3819
 20
-417.9355
 10
-669.5137
 20
-417.8381
 10
-669.6517
 20
-417.7472
 10
-669.796
 20
-417.663
 10
-669.9492
 20
-417.5879
 10
-670.1142
 20
-417.5229
 10
-670.2908
 20
-417.4681
 10
-670.4792
 20
-417.4235
 10
-670.6792
 20
-417.389
 10
-670.891
 20
-417.3648
 10
-671.1145
 20
-417.3508
 10
-671.3497
 20
-417.3471
 10
-671.587
 20
-417.3575
 10
-671.8167
 20
-417.3855
 10
-672.0389
 20
-417.431
 10
-672.2535
 20
-417.4939
 10
-672.4605
 20
-417.5744
 10
-672.6599
 20
-417.6723
 10
-672.8516
 20
-417.7878
 10
-673.0356
 20
-417.9207
 10
-673.1948
 20
-418.053
 10
-673.3469
 20
-418.1951
 10
-673.4918
 20
-418.3469
 10
-673.6295
 20
-418.5082
 10
-673.76
 20
-418.6789
 10
-673.8833
 20
-418.8589
 10
-673.9993
 20
-419.0482
 10
-674.1079
 20
-419.2465
 10
-674.194
 20
-419.0649
 10
-674.2882
 20
-418.8896
 10
-674.3902
 20
-418.721
 10
-674.4999
 20
-418.5599
 10
-674.6008
 20
-418.4288
 10
-674.7078
 20
-418.3045
 10
-674.821
 20
-418.187
 10
-674.9404
 20
-418.0762
 10
-675.066
 20
-417.9722
 10
-675.1978
 20
-417.8749
 10
-675.3358
 20
-417.7843
 10
-675.4801
 20
-417.7004
 10
-675.6333
 20
-417.6249
 10
-675.7983
 20
-417.5597
 10
-675.9749
 20
-417.5048
 10
-676.1633
 20
-417.4601
 10
-676.3633
 20
-417.4257
 10
-676.5751
 20
-417.4017
 10
-676.7986
 20
-417.3879
 10
-677.0338
 20
-417.3844
 10
-677.2711
 20
-417.3946
 10
-677.5008
 20
-417.4223
 10
-677.723
 20
-417.4676
 10
-677.9375
 20
-417.5305
 10
-678.1444
 20
-417.6109
 10
-678.3436
 20
-417.7088
 10
-678.5351
 20
-417.8242
 10
-678.7188
 20
-417.9572
 10
-678.8711
 20
-418.0833
 10
-679.0166
 20
-418.2178
 10
-679.1555
 20
-418.3607
 10
-679.2878
 20
-418.5122
 10
-679.4133
 20
-418.6723
 10
-679.5322
 20
-418.841
 10
-679.6444
 20
-419.0185
 10
-679.75
 20
-419.2046
 10
-679.7592
 20
-417.6266
 10
-681.228
 20
-417.6357
 10
-681.1724
 20
-427.5298
 10
-679.7035
 20
-427.5206
 10
-679.7318
 20
-422.4571
 10
-679.6995
 20
-422.162
 10
-679.6567
 20
-421.8784
 10
-679.6034
 20
-421.606
 10
-679.5394
 20
-421.345
 10
-679.4649
 20
-421.095
 10
-679.3797
 20
-420.8561
 10
-679.2839
 20
-420.6282
 10
-679.1774
 20
-420.4111
 10
-679.0907
 20
-420.2565
 10
-678.9967
 20
-420.109
 10
-678.8955
 20
-419.9685
 10
-678.7871
 20
-419.8351
 10
-678.6714
 20
-419.7085
 10
-678.5485
 20
-419.5889
 10
-678.4184
 20
-419.4762
 10
-678.2811
 20
-419.3703
 10
-678.1389
 20
-419.2748
 10
-677.9939
 20
-419.1919
 10
-677.8462
 20
-419.1216
 10
-677.6959
 20
-419.0638
 10
-677.5428
 20
-419.0187
 10
-677.387
 20
-418.9861
 10
-677.2286
 20
-418.9661
 10
-677.0675
 20
-418.9588
 10
-676.91
 20
-418.9611
 10
-676.763
 20
-418.9701
 10
-676.6265
 20
-418.9857
 10
-676.5005
 20
-419.0082
 10
-676.385
 20
-419.0373
 10
-676.2799
 20
-419.0732
 10
-676.1853
 20
-419.116
 10
-676.1011
 20
-419.1655
 10
-675.8887
 20
-419.3319
 10
-675.7044
 20
-419.5272
 10
-675.5482
 20
-419.7516
 10
-675.4199
 20
-420.0049
 10
-675.3197
 20
-420.2871
 10
-675.2476
 20
-420.5984
 10
-675.2035
 20
-420.9387
 10
-675.1874
 20
-421.308
 10
-675.1528
 20
-427.4906
 10
-673.6839
 20
-427.4815
 10
-673.7185
 20
-421.298
 10
-673.7322
 20
-420.9192
 10
-673.4942
 20
-420.3747
 10
-673.4072
 20
-420.2201
 10
-673.3132
 20
-420.0726
 10
-673.2119
 20
-419.9321
 10
-673.1036
 20
-419.7987
 10
-672.988
 20
-419.6721
 10
-672.8652
 20
-419.5525
 10
-672.7352
 20
-419.4398
 10
-672.598
 20
-419.3339
 10
-672.4555
 20
-419.2384
 10
-672.3102
 20
-419.1555
 10
-672.1624
 20
-419.0852
 10
-672.0118
 20
-419.0274
 10
-671.8586
 20
-418.9822
 10
-671.7026
 20
-418.9496
 10
-671.5439
 20
-418.9297
 10
-671.3825
 20
-418.9223
 10
-671.2253
 20
-418.9246
 10
-671.0786
 20
-418.9336
 10
-670.9423
 20
-418.9493
 10
-670.8164
 20
-418.9717
 10
-670.7011
 20
-419.0009
 10
-670.5962
 20
-419.0368
 10
-670.5018
 20
-419.0795
 10
-670.4179
 20
-419.129
 10
-670.2055
 20
-419.2954
 10
-670.0211
 20
-419.4907
 10
-669.8647
 20
-419.7148
 10
-669.7363
 20
-419.968
 10
-669.6359
 20
-420.2501
 10
-669.5636
 20
-420.5612
 10
-669.5194
 20
-420.9014
 10
-669.5033
 20
-421.2706
 10
-669.4687
 20
-427.4542
  0
LWPOLYLINE
  5
84
330
1F
100
AcDbEntity
  8
Layer 1
 62
     7
370
     9
100
AcDbPolyline
 90
      137
 70
     1
 43
0.0
 10
-693.4415
 20
-335.4223
 10
-693.5445
 20
-335.1923
 10
-693.6567
 20
-334.9695
 10
-693.7781
 20
-334.7537
 10
-693.9087
 20
-334.5451
 10
-694.0484
 20
-334.3435
 10
-694.1973
 20
-334.1489
 10
-694.3554
 20
-333.9613
 10
-694.5228
 20
-333.7806
 10
-694.9006
 20
-333.4249
 10
-695.2995
 20
-333.1166
 10
-695.7195
 20
-332.8557
 10
-696.1607
 20
-332.6423
 10
-696.6229
 20
-332.4762
 10
-697.1063
 20
-332.3576
 10
-697.6107
 20
-332.2864
 10
-698.1363
 20
-332.2627
 10
-698.6622
 20
-332.2868
 10
-699.1677
 20
-332.359
 10
-699.6528
 20
-332.4793
 10
-700.1175
 20
-332.6478
 10
-700.5618
 20
-332.8645
 10
-700.9857
 20
-333.1293
 10
-701.3893
 20
-333.4422
 10
-701.7725
 20
-333.8033
 10
-702.1033
 20
-334.1762
 10
-702.3946
 20
-334.5731
 10
-702.6466
 20
-334.9939
 10
-702.8591
 20
-335.4387
 10
-703.0322
 20
-335.9073
 10
-703.166
 20
-336.3998
 10
-703.2603
 20
-336.9162
 10
-703.3152
 20
-337.4564
 10
-702.9095
 20
-338.1312
 10
-708.5836
 20
-333.3417
 10
-708.5836
 20
-341.5712
 10
-707.0071
 20
-341.5712
 10
-707.0071
 20
-336.535
 10
-701.6038
 20
-341.1669
 10
-700.6355
 20
-339.975
 10
-700.8887
 20
-339.6989
 10
-701.1082
 20
-339.4102
 10
-701.2939
 20
-339.1089
 10
-701.4459
 20
-338.7948
 10
-701.564
 20
-338.4681
 10
-701.6485
 20
-338.1287
 10
-701.6991
 20
-337.7766
 10
-701.716
 20
-337.4118
 10
-701.6996
 20
-337.0475
 10
-701.6505
 20
-336.697
 10
-701.5687
 20
-336.3602
 10
-701.4542
 20
-336.0371
 10
-701.3069
 20
-335.7278
 10
-701.127
 20
-335.4322
 10
-700.9144
 20
-335.1504
 10
-700.6692
 20
-334.8823
 10
-700.4008
 20
-334.6371
 10
-700.1196
 20
-334.4247
 10
-699.8253
 20
-334.245
 10
-699.5181
 20
-334.0981
 10
-699.1979
 20
-333.9838
 10
-698.8647
 20
-333.9022
 10
-698.5184
 20
-333.8533
 10
-698.1591
 20
-333.837
 10
-697.8075
 20
-333.8537
 10
-697.4678
 20
-333.9038
 10
-697.1403
 20
-333.9872
 10
-696.8247
 20
-334.104
 10
-696.521
 20
-334.2542
 10
-696.2293
 20
-334.4378
 10
-695.9496
 20
-334.6548
 10
-695.6817
 20
-334.9051
 10
-695.5667
 20
-335.0286
 10
-695.4576
 20
-335.1573
 10
-695.3544
 20
-335.2912
 10
-695.2572
 20
-335.4305
 10
-695.1659
 20
-335.575
 10
-695.0805
 20
-335.7248
 10
-695.0011
 20
-335.88
 10
-694.9277
 20
-336.0405
 10
-694.8617
 20
-336.2076
 10
-694.8044
 20
-336.3832
 10
-694.756
 20
-336.5672
 10
-694.7164
 20
-336.7597
 10
-694.6855
 20
-336.9606
 10
-694.6635
 20
-337.1699
 10
-694.6503
 20
-337.3877
 10
-694.6459
 20
-337.614
 10
-694.6556
 20
-337.8445
 10
-694.6847
 20
-338.075
 10
-694.7331
 20
-338.3054
 10
-694.8009
 20
-338.5359
 10
-694.888
 20
-338.7664
 10
-694.9944
 20
-338.9969
 10
-695.1201
 20
-339.2273
 10
-695.265
 20
-339.4578
 10
-695.4267
 20
-339.6799
 10
-695.6022
 20
-339.8851
 10
-695.7913
 20
-340.0735
 10
-695.9941
 20
-340.245
 10
-696.2107
 20
-340.3996
 10
-696.4409
 20
-340.5373
 10
-696.6849
 20
-340.658
 10
-696.9427
 20
-340.7617
 10
-696.4248
 20
-342.2915
 10
-696.0579
 20
-342.1462
 10
-695.7085
 20
-341.9745
 10
-695.3768
 20
-341.7764
 10
-695.0627
 20
-341.552
 10
-694.7661
 20
-341.3012
 10
-694.4872
 20
-341.0242
 10
-694.2259
 20
-340.7208
 10
-693.9822
 20
-340.3911
 10
-693.8754
 20
-340.229
 10
-693.7746
 20
-340.063
 10
-693.6798
 20
-339.8931
 10
-693.591
 20
-339.7194
 10
-693.5082
 20
-339.5418
 10
-693.4313
 20
-339.3604
 10
-693.3605
 20
-339.1752
 10
-693.2956
 20
-338.9862
 10
-693.2375
 20
-338.7923
 10
-693.1872
 20
-338.5932
 10
-693.1446
 20
-338.3888
 10
-693.1097
 20
-338.1791
 10
-693.0825
 20
-337.9642
 10
-693.0631
 20
-337.744
 10
-693.0515
 20
-337.5186
 10
-693.0476
 20
-337.288
 10
-693.0538
 20
-337.0548
 10
-693.0722
 20
-336.8216
 10
-693.103
 20
-336.5884
 10
-693.1461
 20
-336.3552
 10
-693.2015
 20
-336.1219
 10
-693.2692
 20
-335.8887
 10
-693.3492
 20
-335.6555
 10
-693.4415
 20
-335.4223
  0
LWPOLYLINE
  5
85
330
1F
100
AcDbEntity
  8
Layer 1
 62
     7
370
     9
100
AcDbPolyline
 90
      113
 70
     1
 43
0.0
 10
-706.8046
 20
-324.2244
 10
-706.6282
 20
-323.9648
 10
-706.4277
 20
-323.7226
 10
-706.2033
 20
-323.4981
 10
-705.9549
 20
-323.2911
 10
-705.6825
 20
-323.1016
 10
-705.3863
 20
-322.9298
 10
-705.0661
 20
-322.7756
 10
-704.7221
 20
-322.6391
 10
-704.2657
 20
-322.4864
 10
-703.8025
 20
-322.354
 10
-703.3327
 20
-322.2419
 10
-702.8561
 20
-322.1502
 10
-702.3729
 20
-322.0789
 10
-701.8831
 20
-322.0279
 10
-701.3866
 20
-321.9973
 10
-700.8835
 20
-321.9871
 10
-700.6363
 20
-321.9912
 10
-700.368
 20
-322.0037
 10
-700.0787
 20
-322.0248
 10
-699.7684
 20
-322.0545
 10
-699.1631
 20
-322.1324
 10
-698.5913
 20
-322.2343
 10
-698.0529
 20
-322.3601
 10
-697.5479
 20
-322.5098
 10
-697.0764
 20
-322.6835
 10
-696.6383
 20
-322.881
 10
-696.2336
 20
-323.1023
 10
-695.8623
 20
-323.3475
 10
-695.5825
 20
-323.5713
 10
-695.34
 20
-323.8071
 10
-695.1348
 20
-324.0548
 10
-694.967
 20
-324.3144
 10
-694.8365
 20
-324.5859
 10
-694.7433
 20
-324.8693
 10
-694.6873
 20
-325.1646
 10
-694.6687
 20
-325.4718
 10
-694.6872
 20
-325.8149
 10
-694.7426
 20
-326.1416
 10
-694.8349
 20
-326.4517
 10
-694.9641
 20
-326.7453
 10
-695.1303
 20
-327.0224
 10
-695.3334
 20
-327.283
 10
-695.5734
 20
-327.527
 10
-695.8504
 20
-327.7545
 10
-695.9849
 20
-327.8508
 10
-696.1236
 20
-327.9428
 10
-696.2665
 20
-328.0307
 10
-696.4137
 20
-328.1143
 10
-696.565
 20
-328.1937
 10
-696.7205
 20
-328.2689
 10
-696.8801
 20
-328.3398
 10
-697.0439
 20
-328.4065
 10
-697.3783
 20
-328.5279
 10
-697.7168
 20
-328.6339
 10
-698.0595
 20
-328.7246
 10
-698.4062
 20
-328.7999
 10
-698.7526
 20
-328.8625
 10
-699.0931
 20
-328.9153
 10
-699.4279
 20
-328.9581
 10
-699.7574
 20
-328.9911
 10
-699.9237
 20
-329.0042
 10
-700.0964
 20
-329.0156
 10
-700.2753
 20
-329.0253
 10
-700.4605
 20
-329.0333
 10
-700.6517
 20
-329.0395
 10
-700.8491
 20
-329.0439
 10
-701.0525
 20
-329.0466
 10
-701.2619
 20
-329.0475
 10
-701.4809
 20
-329.0436
 10
-701.7125
 20
-329.032
 10
-701.9567
 20
-329.0126
 10
-702.2138
 20
-328.9855
 10
-702.4837
 20
-328.9507
 10
-702.7664
 20
-328.9081
 10
-703.0621
 20
-328.8579
 10
-703.3708
 20
-328.7999
 10
-703.7134
 20
-328.7253
 10
-704.0547
 20
-328.6366
 10
-704.3946
 20
-328.534
 10
-704.7331
 20
-328.4174
 10
-704.8999
 20
-328.3533
 10
-705.0625
 20
-328.2847
 10
-705.2209
 20
-328.2116
 10
-705.3751
 20
-328.1339
 10
-705.525
 20
-328.0516
 10
-705.6707
 20
-327.9648
 10
-705.8122
 20
-327.8734
 10
-705.9494
 20
-327.7773
 10
-706.0811
 20
-327.6762
 10
-706.2061
 20
-327.5704
 10
-706.3245
 20
-327.4596
 10
-706.4362
 20
-327.344
 10
-706.5411
 20
-327.2235
 10
-706.6393
 20
-327.098
 10
-706.7308
 20
-326.9676
 10
-706.8156
 20
-326.8322
 10
-706.8922
 20
-326.6914
 10
-706.9587
 20
-326.5443
 10
-707.0149
 20
-326.3909
 10
-707.061
 20
-326.2311
 10
-707.0968
 20
-326.065
 10
-707.1224
 20
-325.8925
 10
-707.1378
 20
-325.7136
 10
-707.1429
 20
-325.5283
 10
-707.1376
 20
-325.3433
 10
-707.1217
 20
-325.1645
 10
-707.0953
 20
-324.992
 10
-707.0582
 20
-324.8258
 10
-707.0106
 20
-324.6659
 10
-706.9525
 20
-324.5124
 10
-706.8838
 20
-324.3652
 10
-706.8046
 20
-324.2244
  0
LWPOLYLINE
  5
86
330
1F
100
AcDbEntity
  8
Layer 1
 62
     7
370
     9
100
AcDbPolyline
 90
       65
 70
     1
 43
0.0
 10
-693.0704
 20
-325.45
 10
-693.1121
 20
-324.7934
 10
-693.2371
 20
-324.1787
 10
-693.4455
 20
-323.6058
 10
-693.7373
 20
-323.0748
 10
-694.1124
 20
-322.5856
 10
-694.571
 20
-322.1382
 10
-695.1129
 20
-321.7326
 10
-695.7383
 20
-321.3689
 10
-696.2841
 20
-321.1131
 10
-696.86
 20
-320.8915
 10
-697.4662
 20
-320.704
 10
-698.1026
 20
-320.5506
 10
-698.7692
 20
-320.4313
 10
-699.4662
 20
-320.3461
 10
-700.1934
 20
-320.295
 10
-700.951
 20
-320.278
 10
-701.7083
 20
-320.295
 10
-702.4354
 20
-320.3461
 10
-703.1323
 20
-320.4313
 10
-703.799
 20
-320.5506
 10
-704.4353
 20
-320.704
 10
-705.0414
 20
-320.8915
 10
-705.6172
 20
-321.1131
 10
-706.1627
 20
-321.3689
 10
-706.7881
 20
-321.7326
 10
-707.3302
 20
-322.1382
 10
-707.7889
 20
-322.5856
 10
-708.1643
 20
-323.0748
 10
-708.4562
 20
-323.6058
 10
-708.6648
 20
-324.1787
 10
-708.7899
 20
-324.7934
 10
-708.8316
 20
-325.45
 10
-708.7899
 20
-326.1062
 10
-708.6648
 20
-326.7207
 10
-708.4562
 20
-327.2934
 10
-708.1643
 20
-327.8244
 10
-707.7889
 20
-328.3137
 10
-707.3302
 20
-328.7612
 10
-706.7881
 20
-329.167
 10
-706.1627
 20
-329.531
 10
-705.6172
 20
-329.7864
 10
-705.0414
 20
-330.0078
 10
-704.4353
 20
-330.1952
 10
-703.799
 20
-330.3485
 10
-703.1323
 20
-330.4677
 10
-702.4354
 20
-330.5529
 10
-701.7083
 20
-330.604
 10
-700.951
 20
-330.621
 10
-700.1934
 20
-330.604
 10
-699.4662
 20
-330.5529
 10
-698.7692
 20
-330.4677
 10
-698.1026
 20
-330.3485
 10
-697.4662
 20
-330.1952
 10
-696.86
 20
-330.0078
 10
-696.2841
 20
-329.7864
 10
-695.7383
 20
-329.531
 10
-695.1129
 20
-329.167
 10
-694.571
 20
-328.7612
 10
-694.1124
 20
-328.3137
 10
-693.7373
 20
-327.8244
 10
-693.4455
 20
-327.2934
 10
-693.2371
 20
-326.7207
 10
-693.1121
 20
-326.1062
 10
-693.0704
 20
-325.45
  0
LWPOLYLINE
  5
87
330
1F
100
AcDbEntity
  8
Layer 1
 62
     7
370
     9
100
AcDbPolyline
 90
      113
 70
     1
 43
0.0
 10
-706.8046
 20
-311.6324
 10
-706.6282
 20
-311.3728
 10
-706.4277
 20
-311.1307
 10
-706.2033
 20
-310.9061
 10
-705.9549
 20
-310.6991
 10
-705.6825
 20
-310.5097
 10
-705.3863
 20
-310.3378
 10
-705.0661
 20
-310.1837
 10
-704.7221
 20
-310.0471
 10
-704.2657
 20
-309.8944
 10
-703.8025
 20
-309.762
 10
-703.3327
 20
-309.65
 10
-702.8561
 20
-309.5583
 10
-702.3729
 20
-309.487
 10
-701.8831
 20
-309.436
 10
-701.3866
 20
-309.4054
 10
-700.8835
 20
-309.3952
 10
-700.6363
 20
-309.3993
 10
-700.368
 20
-309.4118
 10
-700.0787
 20
-309.4328
 10
-699.7684
 20
-309.4625
 10
-699.1631
 20
-309.5404
 10
-698.5913
 20
-309.6423
 10
-698.0529
 20
-309.7681
 10
-697.5479
 20
-309.9178
 10
-697.0764
 20
-310.0915
 10
-696.6383
 20
-310.289
 10
-696.2336
 20
-310.5103
 10
-695.8623
 20
-310.7555
 10
-695.5825
 20
-310.9793
 10
-695.34
 20
-311.2151
 10
-695.1348
 20
-311.4628
 10
-694.967
 20
-311.7224
 10
-694.8365
 20
-311.9939
 10
-694.7433
 20
-312.2773
 10
-694.6873
 20
-312.5726
 10
-694.6687
 20
-312.8798
 10
-694.6872
 20
-313.2229
 10
-694.7426
 20
-313.5496
 10
-694.8349
 20
-313.8597
 10
-694.9641
 20
-314.1534
 10
-695.1303
 20
-314.4305
 10
-695.3334
 20
-314.6911
 10
-695.5734
 20
-314.9351
 10
-695.8504
 20
-315.1626
 10
-695.9849
 20
-315.2588
 10
-696.1236
 20
-315.3509
 10
-696.2665
 20
-315.4387
 10
-696.4137
 20
-315.5223
 10
-696.565
 20
-315.6017
 10
-696.7205
 20
-315.6769
 10
-696.8801
 20
-315.7478
 10
-697.0439
 20
-315.8145
 10
-697.3783
 20
-315.9359
 10
-697.7168
 20
-316.0419
 10
-698.0595
 20
-316.1326
 10
-698.4062
 20
-316.2079
 10
-698.7526
 20
-316.2705
 10
-699.0931
 20
-316.3233
 10
-699.4279
 20
-316.3662
 10
-699.7574
 20
-316.3991
 10
-699.9237
 20
-316.4122
 10
-700.0964
 20
-316.4237
 10
-700.2753
 20
-316.4334
 10
-700.4605
 20
-316.4413
 10
-700.6517
 20
-316.4476
 10
-700.8491
 20
-316.452
 10
-701.0525
 20
-316.4547
 10
-701.2619
 20
-316.4556
 10
-701.4809
 20
-316.4517
 10
-701.7125
 20
-316.4401
 10
-701.9567
 20
-316.4207
 10
-702.2138
 20
-316.3936
 10
-702.4837
 20
-316.3587
 10
-702.7664
 20
-316.3161
 10
-703.0621
 20
-316.2659
 10
-703.3708
 20
-316.2079
 10
-703.7134
 20
-316.1333
 10
-704.0547
 20
-316.0447
 10
-704.3946
 20
-315.9421
 10
-704.7331
 20
-315.8255
 10
-704.8999
 20
-315.7614
 10
-705.0625
 20
-315.6928
 10
-705.2209
 20
-315.6196
 10
-705.3751
 20
-315.5419
 10
-705.525
 20
-315.4597
 10
-705.6707
 20
-315.3728
 10
-705.8122
 20
-315.2814
 10
-705.9494
 20
-315.1853
 10
-706.0811
 20
-315.0842
 10
-706.2061
 20
-314.9784
 10
-706.3245
 20
-314.8676
 10
-706.4362
 20
-314.752
 10
-706.5411
 20
-314.6315
 10
-706.6393
 20
-314.506
 10
-706.7308
 20
-314.3756
 10
-706.8156
 20
-314.2402
 10
-706.8922
 20
-314.0994
 10
-706.9587
 20
-313.9523
 10
-707.0149
 20
-313.7989
 10
-707.061
 20
-313.6391
 10
-707.0968
 20
-313.473
 10
-707.1224
 20
-313.3005
 10
-707.1378
 20
-313.1216
 10
-707.1429
 20
-312.9363
 10
-707.1376
 20
-312.7513
 10
-707.1217
 20
-312.5725
 10
-707.0953
 20
-312.4
 10
-707.0582
 20
-312.2338
 10
-707.0106
 20
-312.0739
 10
-706.9525
 20
-311.9204
 10
-706.8838
 20
-311.7732
 10
-706.8046
 20
-311.6324
  0
LWPOLYLINE
  5
88
330
1F
100
AcDbEntity
  8
Layer 1
 62
     7
370
     9
100
AcDbPolyline
 90
       65
 70
     1
 43
0.0
 10
-693.0704
 20
-312.858
 10
-693.1121
 20
-312.2014
 10
-693.2371
 20
-311.5867
 10
-693.4455
 20
-311.0138
 10
-693.7373
 20
-310.4828
 10
-694.1124
 20
-309.9936
 10
-694.571
 20
-309.5462
 10
-695.1129
 20
-309.1406
 10
-695.7383
 20
-308.7769
 10
-696.2841
 20
-308.5212
 10
-696.86
 20
-308.2995
 10
-697.4662
 20
-308.1121
 10
-698.1026
 20
-307.9587
 10
-698.7692
 20
-307.8394
 10
-699.4662
 20
-307.7542
 10
-700.1934
 20
-307.7031
 10
-700.951
 20
-307.6861
 10
-701.7083
 20
-307.7031
 10
-702.4354
 20
-307.7542
 10
-703.1323
 20
-307.8394
 10
-703.799
 20
-307.9587
 10
-704.4353
 20
-308.1121
 10
-705.0414
 20
-308.2995
 10
-705.6172
 20
-308.5212
 10
-706.1627
 20
-308.7769
 10
-706.7881
 20
-309.1406
 10
-707.3302
 20
-309.5462
 10
-707.7889
 20
-309.9936
 10
-708.1643
 20
-310.4828
 10
-708.4562
 20
-311.0138
 10
-708.6648
 20
-311.5867
 10
-708.7899
 20
-312.2014
 10
-708.8316
 20
-312.858
 10
-708.7899
 20
-313.5142
 10
-708.6648
 20
-314.1287
 10
-708.4562
 20
-314.7015
 10
-708.1643
 20
-315.2325
 10
-707.7889
 20
-315.7218
 10
-707.3302
 20
-316.1693
 10
-706.7881
 20
-316.5751
 10
-706.1627
 20
-316.9391
 10
-705.6172
 20
-317.1945
 10
-705.0414
 20
-317.4159
 10
-704.4353
 20
-317.6033
 10
-703.799
 20
-317.7565
 10
-703.1323
 20
-317.8757
 10
-702.4354
 20
-317.9609
 10
-701.7083
 20
-318.012
 10
-700.951
 20
-318.029
 10
-700.1934
 20
-318.012
 10
-699.4662
 20
-317.9609
 10
-698.7692
 20
-317.8757
 10
-698.1026
 20
-317.7565
 10
-697.4662
 20
-317.6033
 10
-696.86
 20
-317.4159
 10
-696.2841
 20
-317.1945
 10
-695.7383
 20
-316.9391
 10
-695.1129
 20
-316.5751
 10
-694.571
 20
-316.1693
 10
-694.1124
 20
-315.7218
 10
-693.7373
 20
-315.2325
 10
-693.4455
 20
-314.7015
 10
-693.2371
 20
-314.1287
 10
-693.1121
 20
-313.5142
 10
-693.0704
 20
-312.858
  0
LWPOLYLINE
  5
89
330
1F
100
AcDbEntity
  8
Layer 1
 62
     7
370
     9
100
AcDbPolyline
 90
      162
 70
     1
 43
0.0
 10
-693.3175
 20
-292.3287
 10
-693.3175
 20
-290.7544
 10
-699.5094
 20
-290.7544
 10
-699.9206
 20
-290.7672
 10
-700.3124
 20
-290.8058
 10
-700.6849
 20
-290.8699
 10
-701.0379
 20
-290.9597
 10
-701.3716
 20
-291.0751
 10
-701.686
 20
-291.2161
 10
-701.9809
 20
-291.3827
 10
-702.2566
 20
-291.5748
 10
-702.3883
 20
-291.6823
 10
-702.5134
 20
-291.7964
 10
-702.6318
 20
-291.9172
 10
-702.7435
 20
-292.0447
 10
-702.8486
 20
-292.1788
 10
-702.947
 20
-292.3195
 10
-703.0387
 20
-292.4669
 10
-703.1238
 20
-292.621
 10
-703.2001
 20
-292.7847
 10
-703.2663
 20
-292.9611
 10
-703.3224
 20
-293.1501
 10
-703.3684
 20
-293.3517
 10
-703.4041
 20
-293.566
 10
-703.4297
 20
-293.7929
 10
-703.4451
 20
-294.0324
 10
-703.4502
 20
-294.2846
 10
-703.4414
 20
-294.5391
 10
-703.415
 20
-294.7855
 10
-703.3709
 20
-295.0239
 10
-703.3093
 20
-295.2542
 10
-703.2301
 20
-295.4765
 10
-703.1332
 20
-295.6907
 10
-703.0188
 20
-295.8968
 10
-702.8867
 20
-296.0948
 10
-702.7552
 20
-296.2665
 10
-702.614
 20
-296.4304
 10
-702.463
 20
-296.5867
 10
-702.3025
 20
-296.7354
 10
-702.1324
 20
-296.8763
 10
-701.953
 20
-297.0096
 10
-701.7643
 20
-297.1351
 10
-701.5664
 20
-297.253
 10
-701.7489
 20
-297.3441
 10
-701.9252
 20
-297.444
 10
-702.0947
 20
-297.5523
 10
-702.2566
 20
-297.6691
 10
-702.3883
 20
-297.7763
 10
-702.5134
 20
-297.8902
 10
-702.6318
 20
-298.0108
 10
-702.7435
 20
-298.1382
 10
-702.8486
 20
-298.2722
 10
-702.947
 20
-298.4129
 10
-703.0387
 20
-298.5603
 10
-703.1238
 20
-298.7144
 10
-703.2001
 20
-298.8781
 10
-703.2663
 20
-299.0545
 10
-703.3224
 20
-299.2435
 10
-703.3684
 20
-299.4451
 10
-703.4041
 20
-299.6594
 10
-703.4297
 20
-299.8863
 10
-703.4451
 20
-300.1258
 10
-703.4502
 20
-300.378
 10
-703.4414
 20
-300.6325
 10
-703.415
 20
-300.8789
 10
-703.3709
 20
-301.1173
 10
-703.3093
 20
-301.3476
 10
-703.2301
 20
-301.5699
 10
-703.1332
 20
-301.7841
 10
-703.0188
 20
-301.9902
 10
-702.8867
 20
-302.1882
 10
-702.7615
 20
-302.352
 10
-702.6278
 20
-302.5086
 10
-702.4856
 20
-302.6583
 10
-702.3348
 20
-302.8008
 10
-702.1754
 20
-302.9364
 10
-702.0073
 20
-303.0649
 10
-701.8305
 20
-303.1864
 10
-701.6448
 20
-303.3009
 10
-703.225
 20
-303.3009
 10
-703.225
 20
-304.8752
 10
-693.3175
 20
-304.8752
 10
-693.3175
 20
-303.3009
 10
-698.3879
 20
-303.3009
 10
-698.683
 20
-303.2645
 10
-698.9667
 20
-303.2169
 10
-699.2391
 20
-303.158
 10
-699.5001
 20
-303.0878
 10
-699.7499
 20
-303.0064
 10
-699.9886
 20
-302.9136
 10
-700.2163
 20
-302.8097
 10
-700.4331
 20
-302.6944
 10
-700.5872
 20
-302.6004
 10
-700.7342
 20
-302.4987
 10
-700.8741
 20
-302.3894
 10
-701.0071
 20
-302.2724
 10
-701.133
 20
-302.1476
 10
-701.2519
 20
-302.0153
 10
-701.3639
 20
-301.8752
 10
-701.4689
 20
-301.7274
 10
-701.5638
 20
-301.5741
 10
-701.646
 20
-301.418
 10
-701.7155
 20
-301.2592
 10
-701.7725
 20
-301.0977
 10
-701.8168
 20
-300.9333
 10
-701.8484
 20
-300.7662
 10
-701.8674
 20
-300.5962
 10
-701.8737
 20
-300.4235
 10
-701.8704
 20
-300.2547
 10
-701.8604
 20
-300.0972
 10
-701.8437
 20
-299.951
 10
-701.8204
 20
-299.8162
 10
-701.7904
 20
-299.6925
 10
-701.7537
 20
-299.5802
 10
-701.7103
 20
-299.479
 10
-701.6603
 20
-299.3891
 10
-701.4924
 20
-299.1625
 10
-701.2956
 20
-298.9661
 10
-701.0701
 20
-298.7999
 10
-700.8157
 20
-298.6639
 10
-700.5324
 20
-298.5581
 10
-700.2203
 20
-298.4825
 10
-699.8793
 20
-298.4372
 10
-699.5094
 20
-298.4221
 10
-693.3175
 20
-298.4221
 10
-693.3175
 20
-296.8478
 10
-699.5094
 20
-296.8478
 10
-699.8887
 20
-296.8596
 10
-700.4331
 20
-296.601
 10
-700.5872
 20
-296.507
 10
-700.7342
 20
-296.4053
 10
-700.8741
 20
-296.296
 10
-701.0071
 20
-296.179
 10
-701.133
 20
-296.0542
 10
-701.2519
 20
-295.9219
 10
-701.3639
 20
-295.7818
 10
-701.4689
 20
-295.634
 10
-701.5638
 20
-295.4807
 10
-701.646
 20
-295.3246
 10
-701.7155
 20
-295.1658
 10
-701.7725
 20
-295.0041
 10
-701.8168
 20
-294.8397
 10
-701.8484
 20
-294.6724
 10
-701.8674
 20
-294.5022
 10
-701.8737
 20
-294.3292
 10
-701.8704
 20
-294.1606
 10
-701.8604
 20
-294.0033
 10
-701.8437
 20
-293.8572
 10
-701.8204
 20
-293.7223
 10
-701.7904
 20
-293.5987
 10
-701.7537
 20
-293.4864
 10
-701.7103
 20
-293.3854
 10
-701.6603
 20
-293.2957
 10
-701.4924
 20
-293.0691
 10
-701.2956
 20
-292.8727
 10
-701.0701
 20
-292.7065
 10
-700.8157
 20
-292.5705
 10
-700.5324
 20
-292.4647
 10
-700.2203
 20
-292.3891
 10
-699.8793
 20
-292.3438
 10
-699.5094
 20
-292.3287
 10
-693.3175
 20
-292.3287
  0
LWPOLYLINE
  5
8A
330
1F
100
AcDbEntity
  8
Layer 1
 62
     7
370
     9
100
AcDbPolyline
 90
      162
 70
     1
 43
0.0
 10
-693.3175
 20
-275.1722
 10
-693.3175
 20
-273.5978
 10
-699.5094
 20
-273.5978
 10
-699.9206
 20
-273.6106
 10
-700.3124
 20
-273.6492
 10
-700.6849
 20
-273.7133
 10
-701.0379
 20
-273.8031
 10
-701.3716
 20
-273.9185
 10
-701.686
 20
-274.0595
 10
-701.9809
 20
-274.2261
 10
-702.2566
 20
-274.4182
 10
-702.3883
 20
-274.5257
 10
-702.5134
 20
-274.6398
 10
-702.6318
 20
-274.7606
 10
-702.7435
 20
-274.8881
 10
-702.8486
 20
-275.0222
 10
-702.947
 20
-275.163
 10
-703.0387
 20
-275.3104
 10
-703.1238
 20
-275.4645
 10
-703.2001
 20
-275.6282
 10
-703.2663
 20
-275.8046
 10
-703.3224
 20
-275.9936
 10
-703.3684
 20
-276.1952
 10
-703.4041
 20
-276.4095
 10
-703.4297
 20
-276.6363
 10
-703.4451
 20
-276.8759
 10
-703.4502
 20
-277.128
 10
-703.4414
 20
-277.3825
 10
-703.415
 20
-277.6289
 10
-703.3709
 20
-277.8673
 10
-703.3093
 20
-278.0976
 10
-703.2301
 20
-278.3199
 10
-703.1332
 20
-278.5341
 10
-703.0188
 20
-278.7402
 10
-702.8867
 20
-278.9382
 10
-702.7552
 20
-279.1099
 10
-702.614
 20
-279.2738
 10
-702.463
 20
-279.4301
 10
-702.3025
 20
-279.5788
 10
-702.1324
 20
-279.7197
 10
-701.953
 20
-279.853
 10
-701.7643
 20
-279.9785
 10
-701.5664
 20
-280.0964
 10
-701.7489
 20
-280.1876
 10
-701.9252
 20
-280.2874
 10
-702.0947
 20
-280.3958
 10
-702.2566
 20
-280.5125
 10
-702.3883
 20
-280.6197
 10
-702.5134
 20
-280.7336
 10
-702.6318
 20
-280.8543
 10
-702.7435
 20
-280.9816
 10
-702.8486
 20
-281.1157
 10
-702.947
 20
-281.2564
 10
-703.0387
 20
-281.4038
 10
-703.1238
 20
-281.5579
 10
-703.2001
 20
-281.7216
 10
-703.2663
 20
-281.898
 10
-703.3224
 20
-282.0869
 10
-703.3684
 20
-282.2886
 10
-703.4041
 20
-282.5028
 10
-703.4297
 20
-282.7297
 10
-703.4451
 20
-282.9692
 10
-703.4502
 20
-283.2214
 10
-703.4414
 20
-283.4759
 10
-703.415
 20
-283.7223
 10
-703.3709
 20
-283.9607
 10
-703.3093
 20
-284.191
 10
-703.2301
 20
-284.4133
 10
-703.1332
 20
-284.6275
 10
-703.0188
 20
-284.8336
 10
-702.8867
 20
-285.0316
 10
-702.7615
 20
-285.1954
 10
-702.6278
 20
-285.3521
 10
-702.4856
 20
-285.5017
 10
-702.3348
 20
-285.6443
 10
-702.1754
 20
-285.7799
 10
-702.0073
 20
-285.9084
 10
-701.8305
 20
-286.0298
 10
-701.6448
 20
-286.1443
 10
-703.225
 20
-286.1443
 10
-703.225
 20
-287.7186
 10
-693.3175
 20
-287.7186
 10
-693.3175
 20
-286.1443
 10
-698.3879
 20
-286.1443
 10
-698.683
 20
-286.1079
 10
-698.9667
 20
-286.0603
 10
-699.2391
 20
-286.0014
 10
-699.5001
 20
-285.9312
 10
-699.7499
 20
-285.8498
 10
-699.9886
 20
-285.7571
 10
-700.2163
 20
-285.6531
 10
-700.4331
 20
-285.5379
 10
-700.5872
 20
-285.4439
 10
-700.7342
 20
-285.3422
 10
-700.8741
 20
-285.2329
 10
-701.0071
 20
-285.1158
 10
-701.133
 20
-284.9911
 10
-701.2519
 20
-284.8587
 10
-701.3639
 20
-284.7186
 10
-701.4689
 20
-284.5709
 10
-701.5638
 20
-284.4176
 10
-701.646
 20
-284.2615
 10
-701.7155
 20
-284.1027
 10
-701.7725
 20
-283.9411
 10
-701.8168
 20
-283.7768
 10
-701.8484
 20
-283.6096
 10
-701.8674
 20
-283.4397
 10
-701.8737
 20
-283.267
 10
-701.8704
 20
-283.0982
 10
-701.8604
 20
-282.9407
 10
-701.8437
 20
-282.7945
 10
-701.8204
 20
-282.6597
 10
-701.7904
 20
-282.536
 10
-701.7537
 20
-282.4237
 10
-701.7103
 20
-282.3225
 10
-701.6603
 20
-282.2326
 10
-701.4924
 20
-282.0059
 10
-701.2956
 20
-281.8095
 10
-701.0701
 20
-281.6433
 10
-700.8157
 20
-281.5073
 10
-700.5324
 20
-281.4016
 10
-700.2203
 20
-281.326
 10
-699.8793
 20
-281.2807
 10
-699.5094
 20
-281.2656
 10
-693.3175
 20
-281.2656
 10
-693.3175
 20
-279.6912
 10
-699.5094
 20
-279.6912
 10
-699.8887
 20
-279.7031
 10
-700.4331
 20
-279.4445
 10
-700.5872
 20
-279.3505
 10
-700.7342
 20
-279.2488
 10
-700.8741
 20
-279.1395
 10
-701.0071
 20
-279.0225
 10
-701.133
 20
-278.8977
 10
-701.2519
 20
-278.7654
 10
-701.3639
 20
-278.6253
 10
-701.4689
 20
-278.4775
 10
-701.5638
 20
-278.3242
 10
-701.646
 20
-278.1681
 10
-701.7155
 20
-278.0092
 10
-701.7725
 20
-277.8476
 10
-701.8168
 20
-277.6831
 10
-701.8484
 20
-277.5159
 10
-701.8674
 20
-277.3457
 10
-701.8737
 20
-277.1727
 10
-701.8704
 20
-277.0041
 10
-701.8604
 20
-276.8468
 10
-701.8437
 20
-276.7007
 10
-701.8204
 20
-276.5658
 10
-701.7904
 20
-276.4422
 10
-701.7537
 20
-276.3299
 10
-701.7103
 20
-276.2289
 10
-701.6603
 20
-276.1392
 10
-701.4924
 20
-275.9125
 10
-701.2956
 20
-275.7161
 10
-701.0701
 20
-275.5499
 10
-700.8157
 20
-275.4139
 10
-700.5324
 20
-275.3082
 10
-700.2203
 20
-275.2326
 10
-699.8793
 20
-275.1873
 10
-699.5094
 20
-275.1722
 10
-693.3175
 20
-275.1722
  0
LWPOLYLINE
  5
8B
330
1F
100
AcDbEntity
  8
Layer 1
 62
     7
370
    18
100
AcDbPolyline
 90
      272
 70
     1
 43
0.0
 10
-882.1305
 20
-226.5213
 10
-882.2606
 20
-226.5619
 10
-882.5984
 20
-226.7076
 10
-883.0655
 20
-226.9942
 10
-883.5833
 20
-227.4573
 10
-884.0731
 20
-228.1327
 10
-884.4564
 20
-229.0561
 10
-884.6547
 20
-230.2634
 10
-884.5893
 20
-231.7902
 10
-884.5751
 20
-231.9304
 10
-884.5114
 20
-232.3051
 10
-884.3661
 20
-232.8459
 10
-884.1074
 20
-233.4841
 10
-883.7032
 20
-234.1511
 10
-883.1216
 20
-234.7783
 10
-882.3308
 20
-235.2972
 10
-881.2987
 20
-235.6391
 10
-881.2344
 20
-235.637
 10
-881.0585
 20
-235.6307
 10
-880.7967
 20
-235.6202
 10
-880.4747
 20
-235.6056
 10
-880.1182
 20
-235.5869
 10
-879.7528
 20
-235.5641
 10
-879.4042
 20
-235.5374
 10
-879.0982
 20
-235.5067
 10
-878.2715
 20
-235.4381
 10
-876.5501
 20
-235.3115
 10
-874.2439
 20
-235.1476
 10
-871.6625
 20
-234.9671
 10
-869.1156
 20
-234.7906
 10
-866.9129
 20
-234.639
 10
-865.3642
 20
-234.5328
 10
-864.7791
 20
-234.4928
 10
-857.5191
 20
-233.9083
 10
-857.3217
 20
-233.8927
 10
-856.8773
 20
-233.8539
 10
-856.6318
 20
-233.8296
 10
-856.4077
 20
-233.8042
 10
-856.2326
 20
-233.7791
 10
-856.1344
 20
-233.7558
 10
-856.0575
 20
-233.7336
 10
-855.9354
 20
-233.7122
 10
-855.7793
 20
-233.6938
 10
-855.6003
 20
-233.6809
 10
-855.4097
 20
-233.6756
 10
-855.2187
 20
-233.6803
 10
-855.0384
 20
-233.6972
 10
-854.88
 20
-233.7286
 10
-854.7024
 20
-233.7698
 10
-854.4572
 20
-233.824
 10
-854.1445
 20
-233.9058
 10
-853.7646
 20
-234.0298
 10
-853.3176
 20
-234.2104
 10
-852.8037
 20
-234.4621
 10
-852.2231
 20
-234.7995
 10
-851.576
 20
-235.2371
 10
-850.045
 20
-236.9789
 10
-845.4552
 20
-242.1904
 10
-842.7401
 20
-245.066
 10
-841.0359
 20
-247.1119
 10
-840.9744
 20
-247.1847
 10
-840.8299
 20
-247.369
 10
-840.7453
 20
-247.487
 10
-840.6625
 20
-247.6138
 10
-840.589
 20
-247.743
 10
-840.5324
 20
-247.8682
 10
-840.5472
 20
-247.9653
 10
-840.5567
 20
-248.2068
 10
-840.5432
 20
-248.3584
 10
-840.5088
 20
-248.5183
 10
-840.4471
 20
-248.677
 10
-840.3515
 20
-248.8253
 10
-840.4529
 20
-248.9414
 10
-840.7229
 20
-249.251
 10
-841.1104
 20
-249.696
 10
-841.5643
 20
-250.2183
 10
-842.0334
 20
-250.7599
 10
-842.4665
 20
-251.2626
 10
-842.8126
 20
-251.6685
 10
-843.0205
 20
-251.9193
 10
-843.2085
 20
-252.1499
 10
-843.5144
 20
-252.525
 10
-843.916
 20
-253.0317
 10
-844.3912
 20
-253.6569
 10
-844.9178
 20
-254.3875
 10
-845.4736
 20
-255.2106
 10
-846.0366
 20
-256.1131
 10
-846.5845
 20
-257.082
 10
-847.0699
 20
-258.0097
 10
-847.471
 20
-258.817
 10
-847.8042
 20
-259.5331
 10
-848.086
 20
-260.1876
 10
-848.333
 20
-260.8097
 10
-848.5614
 20
-261.4289
 10
-848.7879
 20
-262.0745
 10
-849.0289
 20
-262.7759
 10
-849.2666
 20
-263.6011
 10
-849.468
 20
-264.5666
 10
-849.6263
 20
-265.6247
 10
-849.7349
 20
-266.7276
 10
-849.7869
 20
-267.8275
 10
-849.7758
 20
-268.8766
 10
-849.6947
 20
-269.8272
 10
-849.5371
 20
-270.6315
 10
-849.3321
 20
-271.3131
 10
-849.1198
 20
-271.9243
 10
-848.9099
 20
-272.4602
 10
-848.7121
 20
-272.9161
 10
-848.536
 20
-273.287
 10
-848.3912
 20
-273.5684
 10
-848.2874
 20
-273.7552
 10
-848.2343
 20
-273.8428
 10
-845.5583
 20
-278.1017
 10
-845.5278
 20
-278.1477
 10
-845.4408
 20
-278.2747
 10
-845.3042
 20
-278.4661
 10
-845.1249
 20
-278.7055
 10
-844.9098
 20
-278.9763
 10
-844.6657
 20
-279.262
 10
-844.3994
 20
-279.5461
 10
-844.1179
 20
-279.812
 10
-843.7846
 20
-280.085
 10
-843.3754
 20
-280.3906
 10
-842.916
 20
-280.7124
 10
-842.4319
 20
-281.0342
 10
-841.9489
 20
-281.3397
 10
-841.4927
 20
-281.6126
 10
-841.0888
 20
-281.8366
 10
-840.7629
 20
-281.9954
 10
-840.4361
 20
-282.1309
 10
-840.0333
 20
-282.2887
 10
-839.5854
 20
-282.458
 10
-839.1234
 20
-282.6279
 10
-838.6784
 20
-282.7876
 10
-838.2814
 20
-282.9262
 10
-837.9634
 20
-283.033
 10
-837.7555
 20
-283.0971
 10
-837.7777
 20
-283.1416
 10
-837.8369
 20
-283.2648
 10
-837.9217
 20
-283.4516
 10
-838.0207
 20
-283.6867
 10
-838.1227
 20
-283.9549
 10
-838.2163
 20
-284.241
 10
-838.2903
 20
-284.5297
 10
-838.3332
 20
-284.8058
 10
-838.355
 20
-285.0445
 10
-838.3702
 20
-285.2417
 10
-838.3742
 20
-285.4133
 10
-838.3628
 20
-285.5751
 10
-838.3313
 20
-285.7431
 10
-838.2755
 20
-285.933
 10
-838.1908
 20
-286.1607
 10
-838.0729
 20
-286.4421
 10
-838.0262
 20
-286.4997
 10
-837.8731
 20
-286.6383
 10
-837.7508
 20
-286.7218
 10
-837.5947
 20
-286.8063
 10
-837.4024
 20
-286.8854
 10
-837.1716
 20
-286.9525
 10
-836.9055
 20
-287.0089
 10
-836.6203
 20
-287.0598
 10
-836.3328
 20
-287.1046
 10
-836.0597
 20
-287.1426
 10
-835.8181
 20
-287.1732
 10
-835.6246
 20
-287.1959
 10
-835.4962
 20
-287.2099
 10
-835.4496
 20
-287.2147
 10
-835.4283
 20
-287.214
 10
-835.3661
 20
-287.2027
 10
-835.2658
 20
-287.1667
 10
-835.1303
 20
-287.0919
 10
-834.9623
 20
-286.9645
 10
-834.7646
 20
-286.7703
 10
-834.5399
 20
-286.4954
 10
-834.291
 20
-286.1257
 10
-833.3541
 20
-283.595
 10
-833.2721
 20
-283.5917
 10
-833.0488
 20
-283.5823
 10
-832.7181
 20
-283.5674
 10
-832.3141
 20
-283.5475
 10
-831.8706
 20
-283.5234
 10
-831.4217
 20
-283.4957
 10
-831.0014
 20
-283.4649
 10
-830.6435
 20
-283.4318
 10
-824.5614
 20
-282.0749
 10
-818.3602
 20
-279.4058
 10
-812.3864
 20
-275.6084
 10
-806.9869
 20
-270.8669
 10
-802.5083
 20
-265.3652
 10
-799.2971
 20
-259.2874
 10
-797.7001
 20
-252.8175
 10
-798.0639
 20
-246.1395
 10
-798.1284
 20
-245.846
 10
-798.2147
 20
-245.5402
 10
-798.3556
 20
-245.1945
 10
-798.5837
 20
-244.781
 10
-798.9316
 20
-244.2721
 10
-799.432
 20
-243.64
 10
-800.1176
 20
-242.8572
 10
-801.021
 20
-241.8957
 10
-801.1417
 20
-241.7669
 10
-801.4674
 20
-241.4222
 10
-801.9437
 20
-240.924
 10
-802.516
 20
-240.3347
 10
-803.1298
 20
-239.7167
 10
-803.7308
 20
-239.1325
 10
-804.2643
 20
-238.6445
 10
-804.6759
 20
-238.3151
 10
-804.7339
 20
-238.2562
 10
-804.9028
 20
-238.0962
 10
-805.1751
 20
-237.8605
 10
-805.5431
 20
-237.574
 10
-805.9994
 20
-237.2622
 10
-806.5363
 20
-236.95
 10
-807.1463
 20
-236.6629
 10
-807.8218
 20
-236.4258
 10
-808.0042
 20
-236.3603
 10
-808.5253
 20
-236.1933
 10
-809.3459
 20
-235.9686
 10
-810.4268
 20
-235.7305
 10
-811.7289
 20
-235.5228
 10
-813.2131
 20
-235.3898
 10
-814.8402
 20
-235.3753
 10
-816.5709
 20
-235.5234
 10
-816.8091
 20
-235.562
 10
-817.4751
 20
-235.6829
 10
-818.4962
 20
-235.8936
 10
-819.7998
 20
-236.2019
 10
-821.313
 20
-236.6154
 10
-822.9631
 20
-237.1417
 10
-824.6775
 20
-237.7885
 10
-826.3833
 20
-238.5633
 10
-826.5854
 20
-238.6761
 10
-827.123
 20
-238.9767
 10
-827.8929
 20
-239.4082
 10
-828.7919
 20
-239.9141
 10
-829.7167
 20
-240.4375
 10
-830.5642
 20
-240.9218
 10
-831.2312
 20
-241.3101
 10
-831.6145
 20
-241.5458
 10
-831.6719
 20
-241.5859
 10
-831.7434
 20
-241.52
 10
-831.9618
 20
-241.3633
 10
-832.1278
 20
-241.27
 10
-832.3327
 20
-241.177
 10
-832.5773
 20
-241.092
 10
-832.8621
 20
-241.0225
 10
-842.2327
 20
-231.3165
 10
-842.3559
 20
-231.1641
 10
-842.734
 20
-230.7433
 10
-843.3795
 20
-230.1085
 10
-844.305
 20
-229.3143
 10
-845.5232
 20
-228.4151
 10
-847.0465
 20
-227.4654
 10
-848.8876
 20
-226.5197
 10
-851.0591
 20
-225.6325
 10
-851.2144
 20
-225.5702
 10
-851.6902
 20
-225.4108
 10
-852.5011
 20
-225.1951
 10
-853.6618
 20
-224.9641
 10
-855.1872
 20
-224.7588
 10
-857.0918
 20
-224.6201
 10
-859.3904
 20
-224.589
 10
-862.0978
 20
-224.7065
 10
-865.1917
 20
-224.9417
 10
-868.5092
 20
-225.2211
 10
-871.8543
 20
-225.5214
 10
-875.0308
 20
-225.8193
 10
-877.8428
 20
-226.0915
 10
-880.0941
 20
-226.3147
 10
-881.5887
 20
-226.4658
 10
-882.1305
 20
-226.5213
  0
LWPOLYLINE
  5
8C
330
1F
100
AcDbEntity
  8
Layer 1
 62
     7
370
    18
100
AcDbPolyline
 90
        9
 70
     0
 43
0.0
 10
-840.5168
 20
-247.857
 10
-840.4822
 20
-247.6015
 10
-840.3294
 20
-246.9201
 10
-839.9851
 20
-245.9406
 10
-839.3758
 20
-244.7907
 10
-838.4281
 20
-243.598
 10
-837.0686
 20
-242.4904
 10
-835.224
 20
-241.5954
 10
-832.8208
 20
-241.0408
  0
LWPOLYLINE
  5
8D
330
1F
100
AcDbEntity
  8
Layer 1
 62
     7
370
    18
100
AcDbPolyline
 90
       17
 70
     0
 43
0.0
 10
-801.1755
 20
-241.8109
 10
-801.6858
 20
-241.4538
 10
-803.2157
 20
-240.6591
 10
-805.7634
 20
-239.8414
 10
-809.3273
 20
-239.4154
 10
-813.9058
 20
-239.7958
 10
-819.4971
 20
-241.3973
 10
-826.0995
 20
-244.6346
 10
-833.7115
 20
-249.9224
 10
-834.6444
 20
-250.8226
 10
-836.9831
 20
-253.2891
 10
-840.0372
 20
-256.9707
 10
-843.1168
 20
-261.5164
 10
-845.5316
 20
-266.5749
 10
-846.5915
 20
-271.7951
 10
-845.6063
 20
-276.826
 10
-841.8858
 20
-281.3163
  0
LWPOLYLINE
  5
8E
330
1F
100
AcDbEntity
  8
Layer 1
 62
     7
370
    18
100
AcDbPolyline
 90
       33
 70
     0
 43
0.0
 10
-824.937
 20
-281.4248
 10
-826.1859
 20
-281.7344
 10
-827.4383
 20
-281.962
 10
-828.6856
 20
-282.1082
 10
-829.9195
 20
-282.1734
 10
-831.1314
 20
-282.1581
 10
-832.3129
 20
-282.0627
 10
-833.4555
 20
-281.8878
 10
-834.5508
 20
-281.6338
 10
-837.1074
 20
-280.4515
 10
-838.9517
 20
-278.5723
 10
-840.0615
 20
-276.1052
 10
-840.4147
 20
-273.1594
 10
-839.9891
 20
-269.8439
 10
-838.7626
 20
-266.2677
 10
-836.7131
 20
-262.5399
 10
-833.8183
 20
-258.7696
 10
-830.3411
 20
-255.2405
 10
-826.6268
 20
-252.1891
 10
-822.7775
 20
-249.6535
 10
-818.8948
 20
-247.6715
 10
-815.0808
 20
-246.2814
 10
-811.4372
 20
-245.521
 10
-808.066
 20
-245.4285
 10
-805.0689
 20
-246.0419
 10
-803.4266
 20
-246.834
 10
-802.0816
 20
-247.9259
 10
-801.0389
 20
-249.2842
 10
-800.3034
 20
-250.8756
 10
-799.8801
 20
-252.6664
 10
-799.7739
 20
-254.6233
 10
-799.9898
 20
-256.7129
 10
-800.5327
 20
-258.9016
  0
LWPOLYLINE
  5
8F
330
1F
100
AcDbEntity
  8
Layer 1
 62
     7
370
    18
100
AcDbPolyline
 90
       33
 70
     1
 43
0.0
 10
-807.2988
 20
-262.8418
 10
-808.081
 20
-264.4833
 10
-809.5143
 20
-266.6582
 10
-811.5164
 20
-269.098
 10
-814.0052
 20
-271.5342
 10
-816.8987
 20
-273.6982
 10
-820.1146
 20
-275.3214
 10
-823.5709
 20
-276.1353
 10
-827.1854
 20
-275.8713
 10
-828.6507
 20
-275.1601
 10
-829.6973
 20
-274.0695
 10
-830.3163
 20
-272.6554
 10
-830.4987
 20
-270.9735
 10
-830.2355
 20
-269.0798
 10
-829.5177
 20
-267.03
 10
-828.3363
 20
-264.88
 10
-826.6823
 20
-262.6856
 10
-824.6889
 20
-260.6202
 10
-822.5392
 20
-258.8341
 10
-820.2993
 20
-257.3491
 10
-818.0352
 20
-256.1866
 10
-815.8127
 20
-255.3681
 10
-813.6979
 20
-254.9152
 10
-811.7568
 20
-254.8494
 10
-810.0553
 20
-255.1923
 10
-809.1169
 20
-255.6412
 10
-808.3214
 20
-256.2637
 10
-807.6821
 20
-257.0455
 10
-807.2124
 20
-257.9723
 10
-806.9258
 20
-259.0296
 10
-806.8358
 20
-260.2032
 10
-806.9556
 20
-261.4787
 10
-807.2988
 20
-262.8418
  0
LWPOLYLINE
  5
90
330
1F
100
AcDbEntity
  8
Layer 1
 62
     7
370
    18
100
AcDbPolyline
 90
       33
 70
     1
 43
0.0
 10
-810.8328
 20
-264.3274
 10
-811.3431
 20
-265.3983
 10
-812.2782
 20
-266.8172
 10
-813.5844
 20
-268.409
 10
-815.2081
 20
-269.9984
 10
-817.0958
 20
-271.4102
 10
-819.1939
 20
-272.4692
 10
-821.4489
 20
-273.0001
 10
-823.807
 20
-272.8279
 10
-824.7629
 20
-272.3639
 10
-825.4458
 20
-271.6524
 10
-825.8496
 20
-270.7298
 10
-825.9687
 20
-269.6326
 10
-825.7969
 20
-268.3971
 10
-825.3286
 20
-267.0598
 10
-824.5579
 20
-265.6572
 10
-823.4788
 20
-264.2255
 10
-822.1783
 20
-262.878
 10
-820.7758
 20
-261.7127
 10
-819.3145
 20
-260.7439
 10
-817.8373
 20
-259.9854
 10
-816.3874
 20
-259.4514
 10
-815.0076
 20
-259.156
 10
-813.7412
 20
-259.1131
 10
-812.6312
 20
-259.3368
 10
-812.019
 20
-259.6297
 10
-811.5
 20
-260.0358
 10
-811.0829
 20
-260.5458
 10
-810.7765
 20
-261.1504
 10
-810.5895
 20
-261.8402
 10
-810.5307
 20
-262.6059
 10
-810.6089
 20
-263.4381
 10
-810.8328
 20
-264.3274
  0
LWPOLYLINE
  5
91
330
1F
100
AcDbEntity
  8
Layer 1
 62
     7
370
    18
100
AcDbPolyline
 90
       33
 70
     1
 43
0.0
 10
-814.8911
 20
-265.6013
 10
-815.1144
 20
-266.0698
 10
-815.5234
 20
-266.6905
 10
-816.0949
 20
-267.3869
 10
-816.8053
 20
-268.0822
 10
-817.6311
 20
-268.6999
 10
-818.549
 20
-269.1632
 10
-819.5355
 20
-269.3955
 10
-820.5672
 20
-269.3202
 10
-820.9854
 20
-269.1172
 10
-821.2842
 20
-268.8059
 10
-821.4609
 20
-268.4023
 10
-821.5129
 20
-267.9222
 10
-821.4378
 20
-267.3817
 10
-821.2329
 20
-266.7967
 10
-820.8957
 20
-266.183
 10
-820.4236
 20
-265.5567
 10
-819.8546
 20
-264.9672
 10
-819.2411
 20
-264.4574
 10
-818.6018
 20
-264.0335
 10
-817.9555
 20
-263.7017
 10
-817.3212
 20
-263.4681
 10
-816.7176
 20
-263.3388
 10
-816.1635
 20
-263.32
 10
-815.6779
 20
-263.4179
 10
-815.4101
 20
-263.546
 10
-815.183
 20
-263.7237
 10
-815.0005
 20
-263.9469
 10
-814.8665
 20
-264.2114
 10
-814.7847
 20
-264.5131
 10
-814.7589
 20
-264.8481
 10
-814.7931
 20
-265.2122
 10
-814.8911
 20
-265.6013
  0
LWPOLYLINE
  5
92
330
1F
100
AcDbEntity
  8
Layer 1
 62
     7
370
    18
100
AcDbPolyline
 90
       33
 70
     1
 43
0.0
 10
-828.6693
 20
-256.2811
 10
-828.4493
 20
-256.4244
 10
-828.26
 20
-256.598
 10
-828.1043
 20
-256.7952
 10
-827.9851
 20
-257.0095
 10
-827.9055
 20
-257.2345
 10
-827.8684
 20
-257.4635
 10
-827.8766
 20
-257.69
 10
-827.9333
 20
-257.9076
 10
-828.0358
 20
-258.1003
 10
-828.1758
 20
-258.2559
 10
-828.3472
 20
-258.3727
 10
-828.5437
 20
-258.4491
 10
-828.7594
 20
-258.4834
 10
-828.988
 20
-258.4739
 10
-829.2233
 20
-258.4191
 10
-829.4594
 20
-258.3172
 10
-829.6794
 20
-258.1739
 10
-829.8687
 20
-258.0003
 10
-830.0244
 20
-257.803
 10
-830.1435
 20
-257.5887
 10
-830.2231
 20
-257.3637
 10
-830.2603
 20
-257.1347
 10
-830.252
 20
-256.9082
 10
-830.1953
 20
-256.6907
 10
-830.0927
 20
-256.4978
 10
-829.9526
 20
-256.3422
 10
-829.7812
 20
-256.2253
 10
-829.5846
 20
-256.149
 10
-829.369
 20
-256.1147
 10
-829.1405
 20
-256.1242
 10
-828.9052
 20
-256.1791
 10
-828.6693
 20
-256.2811
  0
LWPOLYLINE
  5
93
330
1F
100
AcDbEntity
  8
Layer 1
 62
     7
370
    18
100
AcDbPolyline
 90
       33
 70
     1
 43
0.0
 10
-828.4447
 20
-257.5881
 10
-828.3997
 20
-257.6179
 10
-828.3614
 20
-257.6549
 10
-828.3302
 20
-257.6976
 10
-828.3069
 20
-257.7445
 10
-828.2919
 20
-257.7943
 10
-828.2858
 20
-257.8454
 10
-828.2893
 20
-257.8965
 10
-828.3029
 20
-257.9461
 10
-828.3258
 20
-257.9905
 10
-828.3563
 20
-258.0269
 10
-828.393
 20
-258.055
 10
-828.4348
 20
-258.0742
 10
-828.4802
 20
-258.0842
 10
-828.528
 20
-258.0844
 10
-828.5768
 20
-258.0745
 10
-828.6255
 20
-258.0541
 10
-828.6705
 20
-258.0242
 10
-828.7088
 20
-257.9871
 10
-828.7399
 20
-257.9444
 10
-828.7633
 20
-257.8974
 10
-828.7783
 20
-257.8477
 10
-828.7844
 20
-257.7966
 10
-828.7811
 20
-257.7456
 10
-828.7676
 20
-257.6961
 10
-828.7446
 20
-257.6516
 10
-828.714
 20
-257.6151
 10
-828.6772
 20
-257.587
 10
-828.6354
 20
-257.5679
 10
-828.59
 20
-257.5579
 10
-828.5422
 20
-257.5577
 10
-828.4933
 20
-257.5676
 10
-828.4447
 20
-257.5881
  0
LWPOLYLINE
  5
94
330
1F
100
AcDbEntity
  8
Layer 1
 62
     7
370
    18
100
AcDbPolyline
 90
       33
 70
     1
 43
0.0
 10
-823.8804
 20
-257.2654
 10
-823.6604
 20
-257.4086
 10
-823.4711
 20
-257.5821
 10
-823.3155
 20
-257.7793
 10
-823.1963
 20
-257.9937
 10
-823.1167
 20
-258.2187
 10
-823.0796
 20
-258.4477
 10
-823.0878
 20
-258.6743
 10
-823.1445
 20
-258.8919
 10
-823.2471
 20
-259.0846
 10
-823.3871
 20
-259.2402
 10
-823.5585
 20
-259.357
 10
-823.755
 20
-259.4333
 10
-823.9707
 20
-259.4676
 10
-824.1992
 20
-259.458
 10
-824.4346
 20
-259.4031
 10
-824.6706
 20
-259.3011
 10
-824.8906
 20
-259.1579
 10
-825.0799
 20
-258.9844
 10
-825.2355
 20
-258.7873
 10
-825.3547
 20
-258.573
 10
-825.4343
 20
-258.348
 10
-825.4714
 20
-258.119
 10
-825.4632
 20
-257.8925
 10
-825.4065
 20
-257.675
 10
-825.3039
 20
-257.4821
 10
-825.1638
 20
-257.3265
 10
-824.9924
 20
-257.2096
 10
-824.7958
 20
-257.1333
 10
-824.5802
 20
-257.099
 10
-824.3516
 20
-257.1085
 10
-824.1163
 20
-257.1634
 10
-823.8804
 20
-257.2654
  0
LWPOLYLINE
  5
95
330
1F
100
AcDbEntity
  8
Layer 1
 62
     7
370
    18
100
AcDbPolyline
 90
       33
 70
     1
 43
0.0
 10
-823.6558
 20
-258.572
 10
-823.6108
 20
-258.6019
 10
-823.5725
 20
-258.639
 10
-823.5414
 20
-258.6817
 10
-823.5181
 20
-258.7287
 10
-823.5031
 20
-258.7784
 10
-823.497
 20
-258.8295
 10
-823.5005
 20
-258.8805
 10
-823.5141
 20
-258.93
 10
-823.537
 20
-258.9745
 10
-823.5674
 20
-259.011
 10
-823.6042
 20
-259.0391
 10
-823.6459
 20
-259.0583
 10
-823.6913
 20
-259.0683
 10
-823.7391
 20
-259.0686
 10
-823.788
 20
-259.0588
 10
-823.8366
 20
-259.0384
 10
-823.8817
 20
-259.0085
 10
-823.9201
 20
-258.9714
 10
-823.9513
 20
-258.9287
 10
-823.9746
 20
-258.8817
 10
-823.9896
 20
-258.832
 10
-823.9957
 20
-258.7809
 10
-823.9923
 20
-258.7299
 10
-823.9788
 20
-258.6804
 10
-823.9558
 20
-258.6359
 10
-823.9252
 20
-258.5993
 10
-823.8884
 20
-258.5712
 10
-823.8466
 20
-258.552
 10
-823.8011
 20
-258.542
 10
-823.7533
 20
-258.5417
 10
-823.7045
 20
-258.5516
 10
-823.6558
 20
-258.572
  0
LWPOLYLINE
  5
96
330
1F
100
AcDbEntity
  8
Layer 1
 62
     7
370
    18
100
AcDbPolyline
 90
       33
 70
     1
 43
0.0
 10
-827.5598
 20
-260.6105
 10
-827.3399
 20
-260.7539
 10
-827.1507
 20
-260.9274
 10
-826.995
 20
-261.1247
 10
-826.8758
 20
-261.3391
 10
-826.7961
 20
-261.564
 10
-826.7589
 20
-261.793
 10
-826.7672
 20
-262.0195
 10
-826.8238
 20
-262.237
 10
-826.9264
 20
-262.4299
 10
-827.0665
 20
-262.5855
 10
-827.2379
 20
-262.7024
 10
-827.4345
 20
-262.7788
 10
-827.6502
 20
-262.813
 10
-827.8787
 20
-262.8035
 10
-828.114
 20
-262.7486
 10
-828.3499
 20
-262.6466
 10
-828.5699
 20
-262.5033
 10
-828.7592
 20
-262.3297
 10
-828.915
 20
-262.1325
 10
-829.0342
 20
-261.9182
 10
-829.1139
 20
-261.6932
 10
-829.1511
 20
-261.4642
 10
-829.1429
 20
-261.2377
 10
-829.0862
 20
-261.0201
 10
-828.9836
 20
-260.8274
 10
-828.8435
 20
-260.6718
 10
-828.6721
 20
-260.555
 10
-828.4755
 20
-260.4786
 10
-828.2598
 20
-260.4443
 10
-828.0312
 20
-260.4538
 10
-827.7958
 20
-260.5086
 10
-827.5598
 20
-260.6105
  0
LWPOLYLINE
  5
97
330
1F
100
AcDbEntity
  8
Layer 1
 62
     7
370
    18
100
AcDbPolyline
 90
       33
 70
     1
 43
0.0
 10
-827.3356
 20
-261.9175
 10
-827.2905
 20
-261.9474
 10
-827.2521
 20
-261.9845
 10
-827.2209
 20
-262.0272
 10
-827.1976
 20
-262.0742
 10
-827.1826
 20
-262.1239
 10
-827.1765
 20
-262.175
 10
-827.1799
 20
-262.226
 10
-827.1934
 20
-262.2755
 10
-827.2164
 20
-262.3199
 10
-827.247
 20
-262.3563
 10
-827.2838
 20
-262.3844
 10
-827.3256
 20
-262.4036
 10
-827.3711
 20
-262.4136
 10
-827.4189
 20
-262.4138
 10
-827.4677
 20
-262.4039
 10
-827.5164
 20
-262.3835
 10
-827.5614
 20
-262.3536
 10
-827.5997
 20
-262.3165
 10
-827.6308
 20
-262.2738
 10
-827.6542
 20
-262.2269
 10
-827.6691
 20
-262.1772
 10
-827.6752
 20
-262.1261
 10
-827.6717
 20
-262.0751
 10
-827.6581
 20
-262.0255
 10
-827.6352
 20
-261.9811
 10
-827.6048
 20
-261.9447
 10
-827.568
 20
-261.9166
 10
-827.5263
 20
-261.8974
 10
-827.4809
 20
-261.8874
 10
-827.4331
 20
-261.8871
 10
-827.3842
 20
-261.897
 10
-827.3356
 20
-261.9175
  0
LWPOLYLINE
  5
98
330
1F
100
AcDbEntity
  8
Layer 1
 62
     7
370
    18
100
AcDbPolyline
 90
       33
 70
     1
 43
0.0
 10
-832.8623
 20
-260.8911
 10
-832.6425
 20
-261.0343
 10
-832.4532
 20
-261.2078
 10
-832.2975
 20
-261.405
 10
-832.1784
 20
-261.6193
 10
-832.0987
 20
-261.8443
 10
-832.0615
 20
-262.0733
 10
-832.0698
 20
-262.2997
 10
-832.1264
 20
-262.5172
 10
-832.229
 20
-262.7101
 10
-832.3691
 20
-262.8657
 10
-832.5405
 20
-262.9826
 10
-832.7371
 20
-263.059
 10
-832.9527
 20
-263.0932
 10
-833.1812
 20
-263.0837
 10
-833.4165
 20
-263.0288
 10
-833.6524
 20
-262.9268
 10
-833.8724
 20
-262.7836
 10
-834.0617
 20
-262.6101
 10
-834.2174
 20
-262.4129
 10
-834.3366
 20
-262.1985
 10
-834.4163
 20
-261.9735
 10
-834.4535
 20
-261.7445
 10
-834.4453
 20
-261.5179
 10
-834.3888
 20
-261.3003
 10
-834.2862
 20
-261.1076
 10
-834.1461
 20
-260.952
 10
-833.9747
 20
-260.8352
 10
-833.7781
 20
-260.7589
 10
-833.5624
 20
-260.7246
 10
-833.3338
 20
-260.7342
 10
-833.0984
 20
-260.7891
 10
-832.8623
 20
-260.8911
  0
LWPOLYLINE
  5
99
330
1F
100
AcDbEntity
  8
Layer 1
 62
     7
370
    18
100
AcDbPolyline
 90
       33
 70
     1
 43
0.0
 10
-832.6377
 20
-262.1977
 10
-832.5928
 20
-262.2276
 10
-832.5545
 20
-262.2647
 10
-832.5234
 20
-262.3074
 10
-832.5001
 20
-262.3544
 10
-832.4851
 20
-262.4041
 10
-832.4791
 20
-262.4552
 10
-832.4825
 20
-262.5062
 10
-832.496
 20
-262.5557
 10
-832.519
 20
-262.6002
 10
-832.5495
 20
-262.6367
 10
-832.5863
 20
-262.6648
 10
-832.628
 20
-262.684
 10
-832.6734
 20
-262.6939
 10
-832.7212
 20
-262.6941
 10
-832.7702
 20
-262.6842
 10
-832.8189
 20
-262.6637
 10
-832.8639
 20
-262.6338
 10
-832.9022
 20
-262.5968
 10
-832.9333
 20
-262.5541
 10
-832.9566
 20
-262.5072
 10
-832.9715
 20
-262.4574
 10
-832.9776
 20
-262.4063
 10
-832.9742
 20
-262.3553
 10
-832.9607
 20
-262.3057
 10
-832.9378
 20
-262.2613
 10
-832.9073
 20
-262.2249
 10
-832.8706
 20
-262.1968
 10
-832.8288
 20
-262.1776
 10
-832.7833
 20
-262.1676
 10
-832.7355
 20
-262.1673
 10
-832.6865
 20
-262.1772
 10
-832.6377
 20
-262.1977
  0
LWPOLYLINE
  5
9A
330
1F
100
AcDbEntity
  8
Layer 1
 62
     7
370
    18
100
AcDbPolyline
 90
       33
 70
     1
 43
0.0
 10
-835.8097
 20
-265.8258
 10
-835.5897
 20
-265.9691
 10
-835.4004
 20
-266.1427
 10
-835.2447
 20
-266.3399
 10
-835.1255
 20
-266.5543
 10
-835.0459
 20
-266.7793
 10
-835.0087
 20
-267.0083
 10
-835.0169
 20
-267.2348
 10
-835.0734
 20
-267.4523
 10
-835.176
 20
-267.6452
 10
-835.3161
 20
-267.8008
 10
-835.4875
 20
-267.9177
 10
-835.6841
 20
-267.994
 10
-835.8998
 20
-268.0283
 10
-836.1284
 20
-268.0188
 10
-836.3638
 20
-267.9639
 10
-836.5998
 20
-267.8619
 10
-836.8197
 20
-267.7187
 10
-837.0089
 20
-267.5452
 10
-837.1646
 20
-267.348
 10
-837.2838
 20
-267.1336
 10
-837.3635
 20
-266.9086
 10
-837.4007
 20
-266.6796
 10
-837.3924
 20
-266.453
 10
-837.3358
 20
-266.2354
 10
-837.2332
 20
-266.0427
 10
-837.0931
 20
-265.8871
 10
-836.9217
 20
-265.7703
 10
-836.7251
 20
-265.6939
 10
-836.5094
 20
-265.6596
 10
-836.2809
 20
-265.6691
 10
-836.0456
 20
-265.7239
 10
-835.8097
 20
-265.8258
  0
LWPOLYLINE
  5
9B
330
1F
100
AcDbEntity
  8
Layer 1
 62
     7
370
    18
100
AcDbPolyline
 90
       33
 70
     1
 43
0.0
 10
-835.5851
 20
-267.1327
 10
-835.5401
 20
-267.1627
 10
-835.5018
 20
-267.1997
 10
-835.4707
 20
-267.2425
 10
-835.4473
 20
-267.2894
 10
-835.4323
 20
-267.3392
 10
-835.4263
 20
-267.3903
 10
-835.4298
 20
-267.4413
 10
-835.4433
 20
-267.4907
 10
-835.4662
 20
-267.5351
 10
-835.4967
 20
-267.5715
 10
-835.5335
 20
-267.5996
 10
-835.5752
 20
-267.6188
 10
-835.6206
 20
-267.6288
 10
-835.6684
 20
-267.6291
 10
-835.7173
 20
-267.6192
 10
-835.7659
 20
-267.5987
 10
-835.8109
 20
-267.5688
 10
-835.8492
 20
-267.5318
 10
-835.8803
 20
-267.4891
 10
-835.9037
 20
-267.4422
 10
-835.9187
 20
-267.3924
 10
-835.9248
 20
-267.3413
 10
-835.9213
 20
-267.2903
 10
-835.9077
 20
-267.2407
 10
-835.8848
 20
-267.1963
 10
-835.8543
 20
-267.1599
 10
-835.8175
 20
-267.1318
 10
-835.7758
 20
-267.1126
 10
-835.7304
 20
-267.1026
 10
-835.6826
 20
-267.1024
 10
-835.6337
 20
-267.1123
 10
-835.5851
 20
-267.1327
  0
LWPOLYLINE
  5
9C
330
1F
100
AcDbEntity
  8
Layer 1
 62
     7
370
    18
100
AcDbPolyline
 90
       33
 70
     1
 43
0.0
 10
-837.2083
 20
-270.4286
 10
-836.9883
 20
-270.5719
 10
-836.799
 20
-270.7455
 10
-836.6432
 20
-270.9427
 10
-836.524
 20
-271.157
 10
-836.4443
 20
-271.382
 10
-836.4071
 20
-271.611
 10
-836.4154
 20
-271.8375
 10
-836.472
 20
-272.0551
 10
-836.5746
 20
-272.2478
 10
-836.7147
 20
-272.4034
 10
-836.8861
 20
-272.5202
 10
-837.0827
 20
-272.5966
 10
-837.2984
 20
-272.6309
 10
-837.527
 20
-272.6214
 10
-837.7624
 20
-272.5666
 10
-837.9984
 20
-272.4647
 10
-838.2183
 20
-272.3213
 10
-838.4075
 20
-272.1478
 10
-838.5632
 20
-271.9505
 10
-838.6824
 20
-271.7361
 10
-838.7621
 20
-271.5112
 10
-838.7993
 20
-271.2822
 10
-838.791
 20
-271.0557
 10
-838.7344
 20
-270.8382
 10
-838.6318
 20
-270.6453
 10
-838.4917
 20
-270.4897
 10
-838.3203
 20
-270.3728
 10
-838.1237
 20
-270.2964
 10
-837.9081
 20
-270.2622
 10
-837.6795
 20
-270.2717
 10
-837.4442
 20
-270.3266
 10
-837.2083
 20
-270.4286
  0
LWPOLYLINE
  5
9D
330
1F
100
AcDbEntity
  8
Layer 1
 62
     7
370
    18
100
AcDbPolyline
 90
       33
 70
     1
 43
0.0
 10
-836.9837
 20
-271.7352
 10
-836.9387
 20
-271.7651
 10
-836.9004
 20
-271.8022
 10
-836.8693
 20
-271.8449
 10
-836.846
 20
-271.8919
 10
-836.831
 20
-271.9416
 10
-836.8249
 20
-271.9927
 10
-836.8284
 20
-272.0437
 10
-836.842
 20
-272.0932
 10
-836.8649
 20
-272.1377
 10
-836.8953
 20
-272.1743
 10
-836.9321
 20
-272.2024
 10
-836.9738
 20
-272.2216
 10
-837.0192
 20
-272.2316
 10
-837.067
 20
-272.2319
 10
-837.1159
 20
-272.222
 10
-837.1645
 20
-272.2015
 10
-837.2095
 20
-272.1716
 10
-837.2478
 20
-272.1345
 10
-837.279
 20
-272.0918
 10
-837.3023
 20
-272.0449
 10
-837.3173
 20
-271.9951
 10
-837.3234
 20
-271.944
 10
-837.3199
 20
-271.893
 10
-837.3063
 20
-271.8435
 10
-837.2834
 20
-271.799
 10
-837.2529
 20
-271.7625
 10
-837.2162
 20
-271.7344
 10
-837.1744
 20
-271.7152
 10
-837.129
 20
-271.7053
 10
-837.0812
 20
-271.705
 10
-837.0324
 20
-271.7148
 10
-836.9837
 20
-271.7352
  0
LWPOLYLINE
  5
9E
330
1F
100
AcDbEntity
  8
Layer 1
 62
     7
370
    18
100
AcDbPolyline
 90
       33
 70
     1
 43
0.0
 10
-837.0359
 20
-274.3892
 10
-836.8161
 20
-274.5325
 10
-836.6268
 20
-274.7061
 10
-836.4711
 20
-274.9033
 10
-836.3519
 20
-275.1176
 10
-836.2722
 20
-275.3426
 10
-836.235
 20
-275.5716
 10
-836.2433
 20
-275.7981
 10
-836.2999
 20
-276.0157
 10
-836.4025
 20
-276.2084
 10
-836.5426
 20
-276.364
 10
-836.7141
 20
-276.4808
 10
-836.9107
 20
-276.5572
 10
-837.1264
 20
-276.5915
 10
-837.355
 20
-276.582
 10
-837.5904
 20
-276.5272
 10
-837.8264
 20
-276.4253
 10
-838.0462
 20
-276.282
 10
-838.2355
 20
-276.1084
 10
-838.3912
 20
-275.9112
 10
-838.5104
 20
-275.6968
 10
-838.59
 20
-275.4718
 10
-838.6272
 20
-275.2428
 10
-838.619
 20
-275.0163
 10
-838.5623
 20
-274.7988
 10
-838.4597
 20
-274.6059
 10
-838.3196
 20
-274.4503
 10
-838.1482
 20
-274.3334
 10
-837.9516
 20
-274.2571
 10
-837.7359
 20
-274.2228
 10
-837.5073
 20
-274.2323
 10
-837.2719
 20
-274.2872
 10
-837.0359
 20
-274.3892
  0
LWPOLYLINE
  5
9F
330
1F
100
AcDbEntity
  8
Layer 1
 62
     7
370
    18
100
AcDbPolyline
 90
       33
 70
     1
 43
0.0
 10
-836.8117
 20
-275.6962
 10
-836.7666
 20
-275.7261
 10
-836.7282
 20
-275.7631
 10
-836.6971
 20
-275.8058
 10
-836.6737
 20
-275.8527
 10
-836.6587
 20
-275.9025
 10
-836.6526
 20
-275.9536
 10
-836.656
 20
-276.0046
 10
-836.6695
 20
-276.0542
 10
-836.6925
 20
-276.0986
 10
-836.7231
 20
-276.135
 10
-836.76
 20
-276.1631
 10
-836.8018
 20
-276.1823
 10
-836.8472
 20
-276.1923
 10
-836.895
 20
-276.1926
 10
-836.9439
 20
-276.1827
 10
-836.9925
 20
-276.1622
 10
-837.0375
 20
-276.1323
 10
-837.0758
 20
-276.0952
 10
-837.1069
 20
-276.0525
 10
-837.1303
 20
-276.0055
 10
-837.1453
 20
-275.9558
 10
-837.1513
 20
-275.9047
 10
-837.1478
 20
-275.8537
 10
-837.1343
 20
-275.8042
 10
-837.1114
 20
-275.7598
 10
-837.0809
 20
-275.7234
 10
-837.0441
 20
-275.6953
 10
-837.0024
 20
-275.6761
 10
-836.957
 20
-275.6661
 10
-836.9092
 20
-275.6659
 10
-836.8603
 20
-275.6758
 10
-836.8117
 20
-275.6962
  0
LWPOLYLINE
  5
A0
330
1F
100
AcDbEntity
  8
Layer 1
 62
     7
370
    18
100
AcDbPolyline
 90
       33
 70
     1
 43
0.0
 10
-835.5441
 20
-277.6029
 10
-835.3447
 20
-277.7328
 10
-835.1731
 20
-277.89
 10
-835.032
 20
-278.0687
 10
-834.924
 20
-278.263
 10
-834.8518
 20
-278.4668
 10
-834.8181
 20
-278.6743
 10
-834.8256
 20
-278.8796
 10
-834.877
 20
-279.0766
 10
-834.9699
 20
-279.2514
 10
-835.0968
 20
-279.3924
 10
-835.2521
 20
-279.4984
 10
-835.4303
 20
-279.5676
 10
-835.6257
 20
-279.5987
 10
-835.8329
 20
-279.5901
 10
-836.0462
 20
-279.5404
 10
-836.2601
 20
-279.4481
 10
-836.4593
 20
-279.3182
 10
-836.6308
 20
-279.1609
 10
-836.7719
 20
-278.9821
 10
-836.8799
 20
-278.7879
 10
-836.952
 20
-278.584
 10
-836.9857
 20
-278.3765
 10
-836.9782
 20
-278.1712
 10
-836.9268
 20
-277.974
 10
-836.8339
 20
-277.7993
 10
-836.707
 20
-277.6582
 10
-836.5517
 20
-277.5524
 10
-836.3736
 20
-277.4832
 10
-836.1782
 20
-277.4522
 10
-835.9711
 20
-277.4608
 10
-835.7579
 20
-277.5105
 10
-835.5441
 20
-277.6029
  0
LWPOLYLINE
  5
A1
330
1F
100
AcDbEntity
  8
Layer 1
 62
     7
370
    18
100
AcDbPolyline
 90
       33
 70
     1
 43
0.0
 10
-835.3406
 20
-278.7873
 10
-835.2998
 20
-278.8143
 10
-835.2651
 20
-278.8478
 10
-835.2368
 20
-278.8865
 10
-835.2157
 20
-278.929
 10
-835.2021
 20
-278.9741
 10
-835.1966
 20
-279.0204
 10
-835.1997
 20
-279.0666
 10
-835.212
 20
-279.1115
 10
-835.2328
 20
-279.1518
 10
-835.2605
 20
-279.1848
 10
-835.2938
 20
-279.2103
 10
-835.3316
 20
-279.2277
 10
-835.3727
 20
-279.2367
 10
-835.4159
 20
-279.237
 10
-835.4602
 20
-279.2281
 10
-835.5043
 20
-279.2096
 10
-835.5451
 20
-279.1824
 10
-835.5798
 20
-279.1488
 10
-835.6081
 20
-279.1101
 10
-835.6292
 20
-279.0675
 10
-835.6428
 20
-279.0224
 10
-835.6483
 20
-278.9761
 10
-835.6452
 20
-278.9298
 10
-835.6329
 20
-278.8849
 10
-835.6121
 20
-278.8447
 10
-835.5844
 20
-278.8118
 10
-835.5511
 20
-278.7864
 10
-835.5133
 20
-278.769
 10
-835.4722
 20
-278.76
 10
-835.429
 20
-278.7597
 10
-835.3847
 20
-278.7687
 10
-835.3406
 20
-278.7873
  0
LWPOLYLINE
  5
A2
330
1F
100
AcDbEntity
  8
Layer 1
 62
     7
370
    18
100
AcDbPolyline
 90
       33
 70
     1
 43
0.0
 10
-832.7142
 20
-279.4529
 10
-832.515
 20
-279.5827
 10
-832.3435
 20
-279.74
 10
-832.2024
 20
-279.9187
 10
-832.0944
 20
-280.1129
 10
-832.0223
 20
-280.3168
 10
-831.9886
 20
-280.5243
 10
-831.9961
 20
-280.7295
 10
-832.0475
 20
-280.9266
 10
-832.1404
 20
-281.1013
 10
-832.2673
 20
-281.2424
 10
-832.4226
 20
-281.3482
 10
-832.6007
 20
-281.4174
 10
-832.7961
 20
-281.4484
 10
-833.0032
 20
-281.4398
 10
-833.2164
 20
-281.3901
 10
-833.4302
 20
-281.2977
 10
-833.6296
 20
-281.1678
 10
-833.8012
 20
-281.0106
 10
-833.9423
 20
-280.8319
 10
-834.0503
 20
-280.6376
 10
-834.1225
 20
-280.4338
 10
-834.1562
 20
-280.2263
 10
-834.1487
 20
-280.021
 10
-834.0973
 20
-279.824
 10
-834.0044
 20
-279.6493
 10
-833.8775
 20
-279.5082
 10
-833.7222
 20
-279.4024
 10
-833.5441
 20
-279.3332
 10
-833.3486
 20
-279.3022
 10
-833.1414
 20
-279.3108
 10
-832.9281
 20
-279.3605
 10
-832.7142
 20
-279.4529
  0
LWPOLYLINE
  5
A3
330
1F
100
AcDbEntity
  8
Layer 1
 62
     7
370
    18
100
AcDbPolyline
 90
       33
 70
     1
 43
0.0
 10
-832.5111
 20
-280.6368
 10
-832.4703
 20
-280.664
 10
-832.4356
 20
-280.6976
 10
-832.4073
 20
-280.7363
 10
-832.3862
 20
-280.7789
 10
-832.3726
 20
-280.824
 10
-832.3671
 20
-280.8704
 10
-832.3702
 20
-280.9166
 10
-832.3825
 20
-280.9615
 10
-832.4032
 20
-281.0018
 10
-832.4308
 20
-281.0348
 10
-832.4641
 20
-281.0602
 10
-832.5019
 20
-281.0776
 10
-832.5431
 20
-281.0866
 10
-832.5864
 20
-281.0869
 10
-832.6307
 20
-281.078
 10
-832.6748
 20
-281.0595
 10
-832.7156
 20
-281.0323
 10
-832.7503
 20
-280.9987
 10
-832.7786
 20
-280.96
 10
-832.7997
 20
-280.9175
 10
-832.8133
 20
-280.8724
 10
-832.8188
 20
-280.826
 10
-832.8157
 20
-280.7798
 10
-832.8034
 20
-280.7349
 10
-832.7826
 20
-280.6946
 10
-832.7549
 20
-280.6616
 10
-832.7216
 20
-280.6361
 10
-832.6838
 20
-280.6187
 10
-832.6427
 20
-280.6097
 10
-832.5995
 20
-280.6094
 10
-832.5552
 20
-280.6183
 10
-832.5111
 20
-280.6368
  0
LWPOLYLINE
  5
A4
330
1F
100
AcDbEntity
  8
Layer 1
 62
     7
370
    18
100
AcDbPolyline
 90
       33
 70
     1
 43
0.0
 10
-828.8067
 20
-280.2098
 10
-828.6075
 20
-280.3396
 10
-828.436
 20
-280.4969
 10
-828.2949
 20
-280.6756
 10
-828.1869
 20
-280.8699
 10
-828.1148
 20
-281.0738
 10
-828.0811
 20
-281.2813
 10
-828.0886
 20
-281.4867
 10
-828.14
 20
-281.6839
 10
-828.2329
 20
-281.8585
 10
-828.3598
 20
-281.9995
 10
-828.5151
 20
-282.1053
 10
-828.6932
 20
-282.1746
 10
-828.8886
 20
-282.2056
 10
-829.0957
 20
-282.197
 10
-829.3089
 20
-282.1473
 10
-829.5227
 20
-282.055
 10
-829.7221
 20
-281.925
 10
-829.8937
 20
-281.7677
 10
-830.0348
 20
-281.589
 10
-830.1428
 20
-281.3947
 10
-830.215
 20
-281.1909
 10
-830.2487
 20
-280.9833
 10
-830.2412
 20
-280.778
 10
-830.1898
 20
-280.5809
 10
-830.0969
 20
-280.4062
 10
-829.97
 20
-280.2651
 10
-829.8147
 20
-280.1592
 10
-829.6365
 20
-280.0901
 10
-829.4411
 20
-280.059
 10
-829.2339
 20
-280.0677
 10
-829.0206
 20
-280.1174
 10
-828.8067
 20
-280.2098
  0
LWPOLYLINE
  5
A5
330
1F
100
AcDbEntity
  8
Layer 1
 62
     7
370
    18
100
AcDbPolyline
 90
       33
 70
     1
 43
0.0
 10
-828.6036
 20
-281.3941
 10
-828.5628
 20
-281.4211
 10
-828.528
 20
-281.4546
 10
-828.4998
 20
-281.4933
 10
-828.4786
 20
-281.5359
 10
-828.465
 20
-281.5809
 10
-828.4595
 20
-281.6273
 10
-828.4626
 20
-281.6735
 10
-828.4749
 20
-281.7184
 10
-828.4956
 20
-281.7587
 10
-828.5232
 20
-281.7917
 10
-828.5565
 20
-281.8171
 10
-828.5944
 20
-281.8345
 10
-828.6355
 20
-281.8435
 10
-828.6788
 20
-281.8438
 10
-828.7231
 20
-281.8349
 10
-828.7672
 20
-281.8164
 10
-828.808
 20
-281.7892
 10
-828.8428
 20
-281.7556
 10
-828.871
 20
-281.7169
 10
-828.8922
 20
-281.6743
 10
-828.9058
 20
-281.6292
 10
-828.9113
 20
-281.5829
 10
-828.9082
 20
-281.5367
 10
-828.8959
 20
-281.4918
 10
-828.8751
 20
-281.4516
 10
-828.8474
 20
-281.4187
 10
-828.8141
 20
-281.3932
 10
-828.7763
 20
-281.3758
 10
-828.7352
 20
-281.3668
 10
-828.692
 20
-281.3666
 10
-828.6477
 20
-281.3755
 10
-828.6036
 20
-281.3941
  0
LWPOLYLINE
  5
A6
330
1F
100
AcDbEntity
  8
Layer 1
 62
     7
370
    18
100
AcDbPolyline
 90
       33
 70
     1
 43
0.0
 10
-824.1704
 20
-279.589
 10
-823.971
 20
-279.7188
 10
-823.7994
 20
-279.8761
 10
-823.6583
 20
-280.0548
 10
-823.5503
 20
-280.2491
 10
-823.4781
 20
-280.4529
 10
-823.4444
 20
-280.6604
 10
-823.4519
 20
-280.8657
 10
-823.5033
 20
-281.0627
 10
-823.5962
 20
-281.2374
 10
-823.7231
 20
-281.3785
 10
-823.8784
 20
-281.4843
 10
-824.0566
 20
-281.5535
 10
-824.252
 20
-281.5845
 10
-824.4592
 20
-281.5759
 10
-824.6725
 20
-281.5262
 10
-824.8864
 20
-281.4338
 10
-825.0856
 20
-281.304
 10
-825.2571
 20
-281.1467
 10
-825.3982
 20
-280.968
 10
-825.5062
 20
-280.7738
 10
-825.5783
 20
-280.5699
 10
-825.612
 20
-280.3624
 10
-825.6045
 20
-280.1571
 10
-825.5531
 20
-279.9601
 10
-825.4602
 20
-279.7854
 10
-825.3333
 20
-279.6443
 10
-825.178
 20
-279.5385
 10
-824.9999
 20
-279.4693
 10
-824.8045
 20
-279.4383
 10
-824.5974
 20
-279.4469
 10
-824.3842
 20
-279.4966
 10
-824.1704
 20
-279.589
  0
LWPOLYLINE
  5
A7
330
1F
100
AcDbEntity
  8
Layer 1
 62
     7
370
    18
100
AcDbPolyline
 90
       33
 70
     1
 43
0.0
 10
-823.9669
 20
-280.773
 10
-823.9261
 20
-280.8002
 10
-823.8913
 20
-280.8338
 10
-823.8631
 20
-280.8725
 10
-823.8419
 20
-280.9151
 10
-823.8283
 20
-280.9601
 10
-823.8228
 20
-281.0065
 10
-823.8259
 20
-281.0527
 10
-823.8382
 20
-281.0976
 10
-823.859
 20
-281.1379
 10
-823.8867
 20
-281.1709
 10
-823.92
 20
-281.1964
 10
-823.9578
 20
-281.2138
 10
-823.9989
 20
-281.2228
 10
-824.0422
 20
-281.2231
 10
-824.0864
 20
-281.2142
 10
-824.1305
 20
-281.1957
 10
-824.1713
 20
-281.1685
 10
-824.2061
 20
-281.1349
 10
-824.2343
 20
-281.0962
 10
-824.2555
 20
-281.0536
 10
-824.2691
 20
-281.0085
 10
-824.2746
 20
-280.9622
 10
-824.2715
 20
-280.9159
 10
-824.2592
 20
-280.871
 10
-824.2385
 20
-280.8307
 10
-824.2109
 20
-280.7977
 10
-824.1776
 20
-280.7723
 10
-824.1398
 20
-280.7549
 10
-824.0986
 20
-280.7459
 10
-824.0553
 20
-280.7456
 10
-824.011
 20
-280.7545
 10
-823.9669
 20
-280.773
  0
LWPOLYLINE
  5
A8
330
1F
100
AcDbEntity
  8
Layer 1
 62
     7
370
    18
100
AcDbPolyline
 90
       33
 70
     1
 43
0.0
 10
-819.2983
 20
-278.0772
 10
-819.1386
 20
-278.1813
 10
-819.0011
 20
-278.3073
 10
-818.8881
 20
-278.4505
 10
-818.8016
 20
-278.6062
 10
-818.7437
 20
-278.7696
 10
-818.7167
 20
-278.9359
 10
-818.7228
 20
-279.1004
 10
-818.7639
 20
-279.2584
 10
-818.8384
 20
-279.3983
 10
-818.9402
 20
-279.5113
 10
-819.0646
 20
-279.5961
 10
-819.2074
 20
-279.6516
 10
-819.364
 20
-279.6765
 10
-819.53
 20
-279.6696
 10
-819.7008
 20
-279.6297
 10
-819.8722
 20
-279.5557
 10
-820.0319
 20
-279.4516
 10
-820.1694
 20
-279.3256
 10
-820.2824
 20
-279.1824
 10
-820.3689
 20
-279.0267
 10
-820.4268
 20
-278.8633
 10
-820.4538
 20
-278.697
 10
-820.4477
 20
-278.5325
 10
-820.4066
 20
-278.3745
 10
-820.3322
 20
-278.2345
 10
-820.2306
 20
-278.1214
 10
-820.1062
 20
-278.0366
 10
-819.9634
 20
-277.9812
 10
-819.8068
 20
-277.9563
 10
-819.6408
 20
-277.9632
 10
-819.4698
 20
-278.0031
 10
-819.2983
 20
-278.0772
  0
LWPOLYLINE
  5
A9
330
1F
100
AcDbEntity
  8
Layer 1
 62
     7
370
    18
100
AcDbPolyline
 90
       33
 70
     1
 43
0.0
 10
-819.1354
 20
-279.0262
 10
-819.1027
 20
-279.0479
 10
-819.0749
 20
-279.0747
 10
-819.0523
 20
-279.1057
 10
-819.0353
 20
-279.1398
 10
-819.0244
 20
-279.1759
 10
-819.02
 20
-279.2131
 10
-819.0225
 20
-279.2502
 10
-819.0323
 20
-279.2862
 10
-819.049
 20
-279.3184
 10
-819.0711
 20
-279.3449
 10
-819.0979
 20
-279.3653
 10
-819.1282
 20
-279.3792
 10
-819.1612
 20
-279.3865
 10
-819.196
 20
-279.3867
 10
-819.2315
 20
-279.3796
 10
-819.2668
 20
-279.3648
 10
-819.2995
 20
-279.343
 10
-819.3273
 20
-279.316
 10
-819.35
 20
-279.285
 10
-819.3669
 20
-279.2509
 10
-819.3778
 20
-279.2148
 10
-819.3823
 20
-279.1777
 10
-819.3798
 20
-279.1407
 10
-819.37
 20
-279.1048
 10
-819.3532
 20
-279.0725
 10
-819.331
 20
-279.046
 10
-819.3042
 20
-279.0256
 10
-819.2739
 20
-279.0116
 10
-819.2409
 20
-279.0044
 10
-819.2062
 20
-279.0042
 10
-819.1707
 20
-279.0114
 10
-819.1354
 20
-279.0262
  0
LWPOLYLINE
  5
AA
330
1F
100
AcDbEntity
  8
Layer 1
 62
     7
370
    18
100
AcDbPolyline
 90
       33
 70
     1
 43
0.0
 10
-820.4489
 20
-276.109
 10
-820.246
 20
-276.2412
 10
-820.0713
 20
-276.4013
 10
-819.9277
 20
-276.5832
 10
-819.8177
 20
-276.781
 10
-819.7442
 20
-276.9885
 10
-819.7099
 20
-277.1998
 10
-819.7175
 20
-277.4088
 10
-819.7698
 20
-277.6095
 10
-819.8645
 20
-277.7874
 10
-819.9937
 20
-277.931
 10
-820.1518
 20
-278.0388
 10
-820.3332
 20
-278.1092
 10
-820.5322
 20
-278.1408
 10
-820.7431
 20
-278.1321
 10
-820.9602
 20
-278.0814
 10
-821.1779
 20
-277.9874
 10
-821.3791
 20
-277.8699
 10
-821.5492
 20
-277.7486
 10
-821.6864
 20
-277.6214
 10
-821.789
 20
-277.4865
 10
-821.8551
 20
-277.3418
 10
-821.883
 20
-277.1854
 10
-821.8709
 20
-277.0152
 10
-821.8169
 20
-276.8292
 10
-821.724
 20
-276.6366
 10
-821.5993
 20
-276.4542
 10
-821.4475
 20
-276.2916
 10
-821.2735
 20
-276.1583
 10
-821.0819
 20
-276.0639
 10
-820.8775
 20
-276.0178
 10
-820.6649
 20
-276.0297
 10
-820.4489
 20
-276.109
  0
LWPOLYLINE
  5
AB
330
1F
100
AcDbEntity
  8
Layer 1
 62
     7
370
    18
100
AcDbPolyline
 90
       33
 70
     1
 43
0.0
 10
-820.3274
 20
-277.2136
 10
-820.2859
 20
-277.2413
 10
-820.2506
 20
-277.2755
 10
-820.2219
 20
-277.3149
 10
-820.2004
 20
-277.3582
 10
-820.1866
 20
-277.404
 10
-820.181
 20
-277.4511
 10
-820.1842
 20
-277.4982
 10
-820.1967
 20
-277.5438
 10
-820.2178
 20
-277.5848
 10
-820.2459
 20
-277.6184
 10
-820.2798
 20
-277.6443
 10
-820.3183
 20
-277.6621
 10
-820.3602
 20
-277.6713
 10
-820.4042
 20
-277.6715
 10
-820.4493
 20
-277.6623
 10
-820.4942
 20
-277.6434
 10
-820.5358
 20
-277.6158
 10
-820.5712
 20
-277.5817
 10
-820.6
 20
-277.5423
 10
-820.6215
 20
-277.499
 10
-820.6354
 20
-277.4531
 10
-820.6409
 20
-277.4059
 10
-820.6377
 20
-277.3589
 10
-820.6252
 20
-277.3132
 10
-820.604
 20
-277.2722
 10
-820.5759
 20
-277.2386
 10
-820.5419
 20
-277.2128
 10
-820.5035
 20
-277.1951
 10
-820.4616
 20
-277.1859
 10
-820.4175
 20
-277.1857
 10
-820.3724
 20
-277.1948
 10
-820.3274
 20
-277.2136
  0
LWPOLYLINE
  5
AC
330
1F
100
AcDbEntity
  8
Layer 1
 62
     7
370
    18
100
AcDbPolyline
 90
       33
 70
     1
 43
0.0
 10
-824.1309
 20
-277.1556
 10
-823.9317
 20
-277.2855
 10
-823.7602
 20
-277.4427
 10
-823.6191
 20
-277.6214
 10
-823.5112
 20
-277.8157
 10
-823.439
 20
-278.0195
 10
-823.4054
 20
-278.227
 10
-823.4129
 20
-278.4323
 10
-823.4643
 20
-278.6293
 10
-823.5572
 20
-278.8041
 10
-823.6841
 20
-278.9451
 10
-823.8394
 20
-279.051
 10
-824.0175
 20
-279.1203
 10
-824.2129
 20
-279.1513
 10
-824.42
 20
-279.1427
 10
-824.6332
 20
-279.0929
 10
-824.847
 20
-279.0004
 10
-825.0464
 20
-278.8706
 10
-825.218
 20
-278.7134
 10
-825.3591
 20
-278.5347
 10
-825.4671
 20
-278.3405
 10
-825.5392
 20
-278.1367
 10
-825.5729
 20
-277.9292
 10
-825.5654
 20
-277.7239
 10
-825.514
 20
-277.5267
 10
-825.4211
 20
-277.352
 10
-825.2942
 20
-277.2109
 10
-825.1389
 20
-277.1051
 10
-824.9608
 20
-277.0359
 10
-824.7653
 20
-277.0049
 10
-824.5581
 20
-277.0135
 10
-824.3448
 20
-277.0632
 10
-824.1309
 20
-277.1556
  0
LWPOLYLINE
  5
AD
330
1F
100
AcDbEntity
  8
Layer 1
 62
     7
370
    18
100
AcDbPolyline
 90
       33
 70
     1
 43
0.0
 10
-823.9278
 20
-278.34
 10
-823.8871
 20
-278.367
 10
-823.8523
 20
-278.4005
 10
-823.8241
 20
-278.4392
 10
-823.8029
 20
-278.4817
 10
-823.7893
 20
-278.5268
 10
-823.7838
 20
-278.5731
 10
-823.7869
 20
-278.6193
 10
-823.7992
 20
-278.6642
 10
-823.8199
 20
-278.7045
 10
-823.8475
 20
-278.7375
 10
-823.8808
 20
-278.763
 10
-823.9186
 20
-278.7804
 10
-823.9598
 20
-278.7894
 10
-824.0031
 20
-278.7897
 10
-824.0474
 20
-278.7808
 10
-824.0915
 20
-278.7623
 10
-824.1323
 20
-278.7351
 10
-824.167
 20
-278.7015
 10
-824.1953
 20
-278.6628
 10
-824.2164
 20
-278.6202
 10
-824.23
 20
-278.5751
 10
-824.2355
 20
-278.5288
 10
-824.2324
 20
-278.4825
 10
-824.2201
 20
-278.4376
 10
-824.1993
 20
-278.3973
 10
-824.1716
 20
-278.3643
 10
-824.1383
 20
-278.3389
 10
-824.1005
 20
-278.3215
 10
-824.0594
 20
-278.3126
 10
-824.0162
 20
-278.3124
 10
-823.9719
 20
-278.3214
 10
-823.9278
 20
-278.34
  0
LWPOLYLINE
  5
AE
330
1F
100
AcDbEntity
  8
Layer 1
 62
     7
370
    18
100
AcDbPolyline
 90
       33
 70
     1
 43
0.0
 10
-827.4917
 20
-277.1703
 10
-827.2923
 20
-277.3001
 10
-827.1207
 20
-277.4574
 10
-826.9796
 20
-277.6361
 10
-826.8716
 20
-277.8304
 10
-826.7994
 20
-278.0343
 10
-826.7657
 20
-278.2419
 10
-826.7732
 20
-278.4472
 10
-826.8246
 20
-278.6444
 10
-826.9175
 20
-278.819
 10
-827.0444
 20
-278.96
 10
-827.1997
 20
-279.0658
 10
-827.3779
 20
-279.1351
 10
-827.5733
 20
-279.1661
 10
-827.7805
 20
-279.1575
 10
-827.9938
 20
-279.1078
 10
-828.2077
 20
-279.0155
 10
-828.4069
 20
-278.8856
 10
-828.5784
 20
-278.7282
 10
-828.7195
 20
-278.5495
 10
-828.8275
 20
-278.3553
 10
-828.8996
 20
-278.1514
 10
-828.9333
 20
-277.9439
 10
-828.9258
 20
-277.7385
 10
-828.8744
 20
-277.5414
 10
-828.7815
 20
-277.3667
 10
-828.6546
 20
-277.2256
 10
-828.4993
 20
-277.1198
 10
-828.3212
 20
-277.0506
 10
-828.1258
 20
-277.0196
 10
-827.9187
 20
-277.0282
 10
-827.7055
 20
-277.0779
 10
-827.4917
 20
-277.1703
  0
LWPOLYLINE
  5
AF
330
1F
100
AcDbEntity
  8
Layer 1
 62
     7
370
    18
100
AcDbPolyline
 90
       33
 70
     1
 43
0.0
 10
-827.2882
 20
-278.3547
 10
-827.2474
 20
-278.3817
 10
-827.2127
 20
-278.4152
 10
-827.1844
 20
-278.4539
 10
-827.1633
 20
-278.4964
 10
-827.1497
 20
-278.5415
 10
-827.1442
 20
-278.5878
 10
-827.1473
 20
-278.634
 10
-827.1596
 20
-278.6789
 10
-827.1804
 20
-278.7192
 10
-827.2081
 20
-278.7522
 10
-827.2414
 20
-278.7777
 10
-827.2792
 20
-278.7951
 10
-827.3203
 20
-278.8041
 10
-827.3635
 20
-278.8044
 10
-827.4078
 20
-278.7955
 10
-827.4519
 20
-278.777
 10
-827.4927
 20
-278.7498
 10
-827.5274
 20
-278.7162
 10
-827.5556
 20
-278.6775
 10
-827.5768
 20
-278.6349
 10
-827.5904
 20
-278.5898
 10
-827.5959
 20
-278.5435
 10
-827.5928
 20
-278.4972
 10
-827.5805
 20
-278.4523
 10
-827.5597
 20
-278.4121
 10
-827.532
 20
-278.3792
 10
-827.4987
 20
-278.3538
 10
-827.4609
 20
-278.3364
 10
-827.4198
 20
-278.3274
 10
-827.3766
 20
-278.3271
 10
-827.3323
 20
-278.3361
 10
-827.2882
 20
-278.3547
  0
LWPOLYLINE
  5
B0
330
1F
100
AcDbEntity
  8
Layer 1
 62
     7
370
    18
100
AcDbPolyline
 90
       33
 70
     1
 43
0.0
 10
-830.1396
 20
-276.0963
 10
-829.9404
 20
-276.2261
 10
-829.7689
 20
-276.3834
 10
-829.6278
 20
-276.5621
 10
-829.5198
 20
-276.7564
 10
-829.4477
 20
-276.9602
 10
-829.414
 20
-277.1677
 10
-829.4215
 20
-277.373
 10
-829.4729
 20
-277.57
 10
-829.5658
 20
-277.7448
 10
-829.6927
 20
-277.8858
 10
-829.848
 20
-277.9918
 10
-830.0261
 20
-278.061
 10
-830.2215
 20
-278.0921
 10
-830.4286
 20
-278.0835
 10
-830.6418
 20
-278.0338
 10
-830.8556
 20
-277.9415
 10
-831.055
 20
-277.8116
 10
-831.2266
 20
-277.6542
 10
-831.3677
 20
-277.4755
 10
-831.4757
 20
-277.2813
 10
-831.5479
 20
-277.0774
 10
-831.5816
 20
-276.8699
 10
-831.5741
 20
-276.6645
 10
-831.5227
 20
-276.4674
 10
-831.4298
 20
-276.2927
 10
-831.3029
 20
-276.1516
 10
-831.1476
 20
-276.0458
 10
-830.9694
 20
-275.9766
 10
-830.774
 20
-275.9456
 10
-830.5668
 20
-275.9542
 10
-830.3535
 20
-276.0039
 10
-830.1396
 20
-276.0963
  0
LWPOLYLINE
  5
B1
330
1F
100
AcDbEntity
  8
Layer 1
 62
     7
370
    18
100
AcDbPolyline
 90
       33
 70
     1
 43
0.0
 10
-829.9365
 20
-277.2807
 10
-829.8957
 20
-277.3077
 10
-829.8609
 20
-277.3412
 10
-829.8327
 20
-277.3799
 10
-829.8115
 20
-277.4224
 10
-829.7979
 20
-277.4675
 10
-829.7924
 20
-277.5138
 10
-829.7955
 20
-277.56
 10
-829.8078
 20
-277.6049
 10
-829.8285
 20
-277.6452
 10
-829.8561
 20
-277.6782
 10
-829.8894
 20
-277.7037
 10
-829.9273
 20
-277.7211
 10
-829.9684
 20
-277.7301
 10
-830.0118
 20
-277.7304
 10
-830.0561
 20
-277.7215
 10
-830.1002
 20
-277.703
 10
-830.141
 20
-277.6758
 10
-830.1757
 20
-277.6422
 10
-830.2039
 20
-277.6034
 10
-830.2251
 20
-277.5609
 10
-830.2387
 20
-277.5158
 10
-830.2442
 20
-277.4694
 10
-830.2411
 20
-277.4232
 10
-830.2288
 20
-277.3783
 10
-830.208
 20
-277.3381
 10
-830.1803
 20
-277.3052
 10
-830.147
 20
-277.2798
 10
-830.1092
 20
-277.2623
 10
-830.0681
 20
-277.2533
 10
-830.0249
 20
-277.2531
 10
-829.9806
 20
-277.2621
 10
-829.9365
 20
-277.2807
  0
LWPOLYLINE
  5
B2
330
1F
100
AcDbEntity
  8
Layer 1
 62
     7
370
    18
100
AcDbPolyline
 90
       33
 70
     1
 43
0.0
 10
-831.7947
 20
-274.0638
 10
-831.5955
 20
-274.1937
 10
-831.424
 20
-274.3511
 10
-831.2829
 20
-274.5298
 10
-831.1749
 20
-274.7241
 10
-831.1027
 20
-274.9279
 10
-831.0689
 20
-275.1354
 10
-831.0763
 20
-275.3408
 10
-831.1276
 20
-275.5379
 10
-831.2206
 20
-275.7126
 10
-831.3476
 20
-275.8537
 10
-831.503
 20
-275.9595
 10
-831.6812
 20
-276.0287
 10
-831.8766
 20
-276.0597
 10
-832.0837
 20
-276.0511
 10
-832.2969
 20
-276.0014
 10
-832.5107
 20
-275.909
 10
-832.7101
 20
-275.7792
 10
-832.8817
 20
-275.6219
 10
-833.0228
 20
-275.4432
 10
-833.1308
 20
-275.249
 10
-833.203
 20
-275.0451
 10
-833.2366
 20
-274.8376
 10
-833.2291
 20
-274.6323
 10
-833.1777
 20
-274.4353
 10
-833.0848
 20
-274.2605
 10
-832.9579
 20
-274.1195
 10
-832.8026
 20
-274.0135
 10
-832.6245
 20
-273.9443
 10
-832.4291
 20
-273.9132
 10
-832.2219
 20
-273.9218
 10
-832.0086
 20
-273.9715
 10
-831.7947
 20
-274.0638
  0
LWPOLYLINE
  5
B3
330
1F
100
AcDbEntity
  8
Layer 1
 62
     7
370
    18
100
AcDbPolyline
 90
       33
 70
     1
 43
0.0
 10
-831.5912
 20
-275.2481
 10
-831.5504
 20
-275.2753
 10
-831.5157
 20
-275.3089
 10
-831.4875
 20
-275.3476
 10
-831.4664
 20
-275.3902
 10
-831.4529
 20
-275.4353
 10
-831.4474
 20
-275.4817
 10
-831.4506
 20
-275.5279
 10
-831.4629
 20
-275.5728
 10
-831.4836
 20
-275.613
 10
-831.5112
 20
-275.6459
 10
-831.5445
 20
-275.6713
 10
-831.5824
 20
-275.6887
 10
-831.6235
 20
-275.6977
 10
-831.6668
 20
-275.698
 10
-831.7111
 20
-275.689
 10
-831.7552
 20
-275.6704
 10
-831.796
 20
-275.6434
 10
-831.8308
 20
-275.6099
 10
-831.859
 20
-275.5712
 10
-831.8802
 20
-275.5287
 10
-831.8938
 20
-275.4836
 10
-831.8993
 20
-275.4373
 10
-831.8962
 20
-275.3911
 10
-831.8839
 20
-275.3462
 10
-831.8631
 20
-275.3059
 10
-831.8354
 20
-275.2729
 10
-831.802
 20
-275.2474
 10
-831.7641
 20
-275.23
 10
-831.7229
 20
-275.221
 10
-831.6796
 20
-275.2207
 10
-831.6353
 20
-275.2296
 10
-831.5912
 20
-275.2481
  0
LWPOLYLINE
  5
B4
330
1F
100
AcDbEntity
  8
Layer 1
 62
     7
370
    18
100
AcDbPolyline
 90
       33
 70
     1
 43
0.0
 10
-832.4119
 20
-271.3696
 10
-832.2125
 20
-271.4995
 10
-832.0409
 20
-271.6567
 10
-831.8998
 20
-271.8355
 10
-831.7918
 20
-272.0297
 10
-831.7197
 20
-272.2336
 10
-831.686
 20
-272.4412
 10
-831.6935
 20
-272.6465
 10
-831.7449
 20
-272.8437
 10
-831.8379
 20
-273.0183
 10
-831.9649
 20
-273.1593
 10
-832.1202
 20
-273.2651
 10
-832.2983
 20
-273.3344
 10
-832.4937
 20
-273.3654
 10
-832.7008
 20
-273.3568
 10
-832.9141
 20
-273.3071
 10
-833.128
 20
-273.2148
 10
-833.3272
 20
-273.0849
 10
-833.4987
 20
-272.9276
 10
-833.6398
 20
-272.7488
 10
-833.7478
 20
-272.5546
 10
-833.82
 20
-272.3507
 10
-833.8537
 20
-272.1432
 10
-833.8463
 20
-271.9379
 10
-833.795
 20
-271.7407
 10
-833.702
 20
-271.5661
 10
-833.575
 20
-271.4251
 10
-833.4196
 20
-271.3193
 10
-833.2415
 20
-271.2501
 10
-833.046
 20
-271.219
 10
-832.8389
 20
-271.2276
 10
-832.6257
 20
-271.2773
 10
-832.4119
 20
-271.3696
  0
LWPOLYLINE
  5
B5
330
1F
100
AcDbEntity
  8
Layer 1
 62
     7
370
    18
100
AcDbPolyline
 90
       33
 70
     1
 43
0.0
 10
-832.2084
 20
-272.554
 10
-832.1676
 20
-272.5812
 10
-832.1329
 20
-272.6147
 10
-832.1046
 20
-272.6534
 10
-832.0835
 20
-272.6959
 10
-832.0699
 20
-272.7409
 10
-832.0644
 20
-272.7872
 10
-832.0675
 20
-272.8334
 10
-832.0798
 20
-272.8783
 10
-832.1006
 20
-272.9186
 10
-832.1283
 20
-272.9516
 10
-832.1617
 20
-272.9771
 10
-832.1996
 20
-272.9945
 10
-832.2408
 20
-273.0036
 10
-832.2841
 20
-273.0038
 10
-832.3284
 20
-272.9949
 10
-832.3725
 20
-272.9763
 10
-832.4133
 20
-272.9492
 10
-832.448
 20
-272.9156
 10
-832.4761
 20
-272.8769
 10
-832.4972
 20
-272.8344
 10
-832.5108
 20
-272.7894
 10
-832.5162
 20
-272.7431
 10
-832.513
 20
-272.6969
 10
-832.5007
 20
-272.652
 10
-832.48
 20
-272.6117
 10
-832.4524
 20
-272.5786
 10
-832.4191
 20
-272.5532
 10
-832.3813
 20
-272.5357
 10
-832.3401
 20
-272.5267
 10
-832.2968
 20
-272.5265
 10
-832.2525
 20
-272.5354
 10
-832.2084
 20
-272.554
  0
LWPOLYLINE
  5
B6
330
1F
100
AcDbEntity
  8
Layer 1
 62
     7
370
    18
100
AcDbPolyline
 90
       33
 70
     1
 43
0.0
 10
-831.9269
 20
-268.1258
 10
-831.7277
 20
-268.2557
 10
-831.5562
 20
-268.4131
 10
-831.4151
 20
-268.5918
 10
-831.3071
 20
-268.7861
 10
-831.2349
 20
-268.9899
 10
-831.2011
 20
-269.1974
 10
-831.2085
 20
-269.4028
 10
-831.2598
 20
-269.5999
 10
-831.3529
 20
-269.7746
 10
-831.4799
 20
-269.9157
 10
-831.6352
 20
-270.0215
 10
-831.8134
 20
-270.0907
 10
-832.0088
 20
-270.1217
 10
-832.2159
 20
-270.1131
 10
-832.4291
 20
-270.0634
 10
-832.6429
 20
-269.971
 10
-832.8423
 20
-269.8411
 10
-833.0139
 20
-269.6839
 10
-833.155
 20
-269.5051
 10
-833.263
 20
-269.3109
 10
-833.3352
 20
-269.107
 10
-833.3689
 20
-268.8994
 10
-833.3614
 20
-268.6941
 10
-833.31
 20
-268.4969
 10
-833.2171
 20
-268.3223
 10
-833.0902
 20
-268.1813
 10
-832.9349
 20
-268.0755
 10
-832.7567
 20
-268.0063
 10
-832.5613
 20
-267.9752
 10
-832.3541
 20
-267.9838
 10
-832.1408
 20
-268.0335
 10
-831.9269
 20
-268.1258
  0
LWPOLYLINE
  5
B7
330
1F
100
AcDbEntity
  8
Layer 1
 62
     7
370
    18
100
AcDbPolyline
 90
       33
 70
     1
 43
0.0
 10
-831.7234
 20
-269.3101
 10
-831.6826
 20
-269.3373
 10
-831.6479
 20
-269.3709
 10
-831.6197
 20
-269.4096
 10
-831.5986
 20
-269.4522
 10
-831.5851
 20
-269.4972
 10
-831.5796
 20
-269.5435
 10
-831.5828
 20
-269.5896
 10
-831.5951
 20
-269.6344
 10
-831.6158
 20
-269.6747
 10
-831.6434
 20
-269.7078
 10
-831.6767
 20
-269.7332
 10
-831.7146
 20
-269.7507
 10
-831.7557
 20
-269.7597
 10
-831.7991
 20
-269.76
 10
-831.8434
 20
-269.751
 10
-831.8875
 20
-269.7324
 10
-831.9283
 20
-269.7054
 10
-831.963
 20
-269.6719
 10
-831.9912
 20
-269.6332
 10
-832.0124
 20
-269.5907
 10
-832.026
 20
-269.5456
 10
-832.0315
 20
-269.4993
 10
-832.0284
 20
-269.4531
 10
-832.0161
 20
-269.4082
 10
-831.9953
 20
-269.3679
 10
-831.9676
 20
-269.3348
 10
-831.9342
 20
-269.3093
 10
-831.8963
 20
-269.2919
 10
-831.8551
 20
-269.2828
 10
-831.8118
 20
-269.2826
 10
-831.7675
 20
-269.2915
 10
-831.7234
 20
-269.3101
  0
LWPOLYLINE
  5
B8
330
1F
100
AcDbEntity
  8
Layer 1
 62
     7
370
    18
100
AcDbPolyline
 90
       33
 70
     1
 43
0.0
 10
-830.1475
 20
-264.3223
 10
-829.9481
 20
-264.4521
 10
-829.7765
 20
-264.6094
 10
-829.6354
 20
-264.7881
 10
-829.5274
 20
-264.9824
 10
-829.4553
 20
-265.1862
 10
-829.4216
 20
-265.3937
 10
-829.4291
 20
-265.599
 10
-829.4805
 20
-265.796
 10
-829.5734
 20
-265.9708
 10
-829.7003
 20
-266.1118
 10
-829.8556
 20
-266.2177
 10
-830.0338
 20
-266.287
 10
-830.2292
 20
-266.318
 10
-830.4364
 20
-266.3094
 10
-830.6497
 20
-266.2596
 10
-830.8636
 20
-266.1671
 10
-831.0628
 20
-266.0373
 10
-831.2343
 20
-265.8801
 10
-831.3754
 20
-265.7014
 10
-831.4834
 20
-265.5072
 10
-831.5555
 20
-265.3034
 10
-831.5892
 20
-265.0958
 10
-831.5816
 20
-264.8905
 10
-831.5302
 20
-264.6934
 10
-831.4373
 20
-264.5187
 10
-831.3104
 20
-264.3776
 10
-831.1551
 20
-264.2718
 10
-830.977
 20
-264.2026
 10
-830.7816
 20
-264.1716
 10
-830.5745
 20
-264.1802
 10
-830.3613
 20
-264.2299
 10
-830.1475
 20
-264.3223
  0
LWPOLYLINE
  5
B9
330
1F
100
AcDbEntity
  8
Layer 1
 62
     7
370
    18
100
AcDbPolyline
 90
       33
 70
     1
 43
0.0
 10
-829.944
 20
-265.5067
 10
-829.9033
 20
-265.5337
 10
-829.8685
 20
-265.5672
 10
-829.8403
 20
-265.6059
 10
-829.8191
 20
-265.6484
 10
-829.8055
 20
-265.6935
 10
-829.8
 20
-265.7398
 10
-829.8031
 20
-265.786
 10
-829.8154
 20
-265.8309
 10
-829.8362
 20
-265.8712
 10
-829.8639
 20
-265.9042
 10
-829.8972
 20
-265.9297
 10
-829.935
 20
-265.9471
 10
-829.9761
 20
-265.9561
 10
-830.0193
 20
-265.9564
 10
-830.0636
 20
-265.9475
 10
-830.1077
 20
-265.929
 10
-830.1485
 20
-265.9018
 10
-830.1832
 20
-265.8682
 10
-830.2115
 20
-265.8294
 10
-830.2327
 20
-265.7869
 10
-830.2463
 20
-265.7418
 10
-830.2518
 20
-265.6954
 10
-830.2486
 20
-265.6492
 10
-830.2364
 20
-265.6043
 10
-830.2156
 20
-265.564
 10
-830.1879
 20
-265.531
 10
-830.1546
 20
-265.5056
 10
-830.1168
 20
-265.4882
 10
-830.0757
 20
-265.4792
 10
-830.0324
 20
-265.479
 10
-829.9881
 20
-265.4881
 10
-829.944
 20
-265.5067
  0
LWPOLYLINE
  5
BA
330
1F
100
AcDbEntity
  8
Layer 1
 62
     7
370
    18
100
AcDbPolyline
 90
       33
 70
     1
 43
0.0
 10
-819.9287
 20
-254.5062
 10
-819.7317
 20
-254.6444
 10
-819.5635
 20
-254.8139
 10
-819.4267
 20
-255.0081
 10
-819.3237
 20
-255.2206
 10
-819.2571
 20
-255.4449
 10
-819.2295
 20
-255.6744
 10
-819.2433
 20
-255.9027
 10
-819.3011
 20
-256.1232
 10
-819.4002
 20
-256.32
 10
-819.5326
 20
-256.4804
 10
-819.6925
 20
-256.6027
 10
-819.8743
 20
-256.6849
 10
-820.0723
 20
-256.7253
 10
-820.2809
 20
-256.7221
 10
-820.4945
 20
-256.6733
 10
-820.7073
 20
-256.5772
 10
-820.9043
 20
-256.439
 10
-821.0724
 20
-256.2695
 10
-821.2092
 20
-256.0753
 10
-821.3121
 20
-255.8628
 10
-821.3786
 20
-255.6386
 10
-821.4062
 20
-255.4091
 10
-821.3923
 20
-255.1808
 10
-821.3345
 20
-254.9603
 10
-821.2355
 20
-254.7635
 10
-821.1032
 20
-254.603
 10
-820.9434
 20
-254.4808
 10
-820.7617
 20
-254.3985
 10
-820.5636
 20
-254.3581
 10
-820.355
 20
-254.3613
 10
-820.1415
 20
-254.4101
 10
-819.9287
 20
-254.5062
  0
LWPOLYLINE
  5
BB
330
1F
100
AcDbEntity
  8
Layer 1
 62
     7
370
    18
100
AcDbPolyline
 90
       33
 70
     1
 43
0.0
 10
-819.7599
 20
-255.8152
 10
-819.7196
 20
-255.8442
 10
-819.6855
 20
-255.8805
 10
-819.6583
 20
-255.9227
 10
-819.6383
 20
-255.9693
 10
-819.6259
 20
-256.0189
 10
-819.6218
 20
-256.0701
 10
-819.6263
 20
-256.1215
 10
-819.64
 20
-256.1716
 10
-819.6623
 20
-256.217
 10
-819.6912
 20
-256.2546
 10
-819.7256
 20
-256.2838
 10
-819.7643
 20
-256.3044
 10
-819.8061
 20
-256.3157
 10
-819.8497
 20
-256.3173
 10
-819.8941
 20
-256.3087
 10
-819.9379
 20
-256.2895
 10
-819.9782
 20
-256.2606
 10
-820.0122
 20
-256.2244
 10
-820.0395
 20
-256.1823
 10
-820.0595
 20
-256.1357
 10
-820.0718
 20
-256.086
 10
-820.0759
 20
-256.0347
 10
-820.0714
 20
-255.9833
 10
-820.0577
 20
-255.9331
 10
-820.0355
 20
-255.8877
 10
-820.0066
 20
-255.8501
 10
-819.9722
 20
-255.8209
 10
-819.9335
 20
-255.8003
 10
-819.8917
 20
-255.789
 10
-819.8481
 20
-255.7874
 10
-819.8037
 20
-255.796
 10
-819.7599
 20
-255.8152
  0
LWPOLYLINE
  5
BC
330
1F
100
AcDbEntity
  8
Layer 1
 62
     7
370
    18
100
AcDbPolyline
 90
       33
 70
     1
 43
0.0
 10
-823.759
 20
-252.3209
 10
-823.5305
 20
-252.4697
 10
-823.3338
 20
-252.65
 10
-823.172
 20
-252.8549
 10
-823.0481
 20
-253.0776
 10
-822.9653
 20
-253.3113
 10
-822.9267
 20
-253.5492
 10
-822.9352
 20
-253.7846
 10
-822.994
 20
-254.0105
 10
-823.1007
 20
-254.2108
 10
-823.2463
 20
-254.3726
 10
-823.4243
 20
-254.4939
 10
-823.6286
 20
-254.5733
 10
-823.8526
 20
-254.6089
 10
-824.0901
 20
-254.599
 10
-824.3346
 20
-254.5419
 10
-824.5798
 20
-254.436
 10
-824.8083
 20
-254.2872
 10
-825.005
 20
-254.107
 10
-825.1667
 20
-253.9021
 10
-825.2905
 20
-253.6794
 10
-825.3732
 20
-253.4457
 10
-825.4118
 20
-253.2078
 10
-825.4032
 20
-252.9724
 10
-825.3444
 20
-252.7464
 10
-825.2378
 20
-252.546
 10
-825.0923
 20
-252.3843
 10
-824.9142
 20
-252.2629
 10
-824.71
 20
-252.1836
 10
-824.486
 20
-252.148
 10
-824.2485
 20
-252.1579
 10
-824.0041
 20
-252.2149
 10
-823.759
 20
-252.3209
  0
LWPOLYLINE
  5
BD
330
1F
100
AcDbEntity
  8
Layer 1
 62
     7
370
    18
100
AcDbPolyline
 90
       33
 70
     1
 43
0.0
 10
-823.5256
 20
-253.6787
 10
-823.4788
 20
-253.7097
 10
-823.439
 20
-253.7481
 10
-823.4066
 20
-253.7925
 10
-823.3824
 20
-253.8413
 10
-823.3668
 20
-253.893
 10
-823.3605
 20
-253.9461
 10
-823.3642
 20
-253.9991
 10
-823.3783
 20
-254.0506
 10
-823.4021
 20
-254.0967
 10
-823.4337
 20
-254.1346
 10
-823.4719
 20
-254.1637
 10
-823.5153
 20
-254.1837
 10
-823.5625
 20
-254.194
 10
-823.6122
 20
-254.1943
 10
-823.663
 20
-254.1841
 10
-823.7136
 20
-254.1629
 10
-823.7604
 20
-254.1317
 10
-823.8002
 20
-254.0932
 10
-823.8325
 20
-254.0488
 10
-823.8567
 20
-254.0
 10
-823.8722
 20
-253.9483
 10
-823.8785
 20
-253.8953
 10
-823.8749
 20
-253.8423
 10
-823.8609
 20
-253.791
 10
-823.8371
 20
-253.7448
 10
-823.8055
 20
-253.7069
 10
-823.7673
 20
-253.6777
 10
-823.7239
 20
-253.6577
 10
-823.6767
 20
-253.6474
 10
-823.627
 20
-253.6471
 10
-823.5762
 20
-253.6574
 10
-823.5256
 20
-253.6787
  0
LWPOLYLINE
  5
BE
330
1F
100
AcDbEntity
  8
Layer 1
 62
     7
370
    18
100
AcDbPolyline
 90
       33
 70
     1
 43
0.0
 10
-815.617
 20
-252.536
 10
-815.4211
 20
-252.6784
 10
-815.2545
 20
-252.8541
 10
-815.1199
 20
-253.0562
 10
-815.0195
 20
-253.2779
 10
-814.9558
 20
-253.5126
 10
-814.9313
 20
-253.7532
 10
-814.9483
 20
-253.9932
 10
-815.0093
 20
-254.2256
 10
-815.1115
 20
-254.4338
 10
-815.2466
 20
-254.6042
 10
-815.4088
 20
-254.7348
 10
-815.5924
 20
-254.8238
 10
-815.7917
 20
-254.8689
 10
-816.0011
 20
-254.8684
 10
-816.2147
 20
-254.8201
 10
-816.427
 20
-254.7221
 10
-816.6228
 20
-254.5797
 10
-816.7892
 20
-254.404
 10
-816.9239
 20
-254.2019
 10
-817.0242
 20
-253.9802
 10
-817.0879
 20
-253.7455
 10
-817.1124
 20
-253.5049
 10
-817.0954
 20
-253.2649
 10
-817.0343
 20
-253.0325
 10
-816.9322
 20
-252.8243
 10
-816.7972
 20
-252.6539
 10
-816.6351
 20
-252.5233
 10
-816.4515
 20
-252.4343
 10
-816.2522
 20
-252.3892
 10
-816.0429
 20
-252.3897
 10
-815.8293
 20
-252.438
 10
-815.617
 20
-252.536
  0
LWPOLYLINE
  5
BF
330
1F
100
AcDbEntity
  8
Layer 1
 62
     7
370
    18
100
AcDbPolyline
 90
       33
 70
     1
 43
0.0
 10
-815.4656
 20
-253.9089
 10
-815.4255
 20
-253.9386
 10
-815.3919
 20
-253.9761
 10
-815.3651
 20
-254.02
 10
-815.3457
 20
-254.0687
 10
-815.334
 20
-254.1207
 10
-815.3305
 20
-254.1745
 10
-815.3358
 20
-254.2287
 10
-815.3502
 20
-254.2816
 10
-815.3731
 20
-254.3295
 10
-815.4027
 20
-254.3693
 10
-815.4376
 20
-254.4005
 10
-815.4767
 20
-254.4226
 10
-815.5188
 20
-254.435
 10
-815.5627
 20
-254.4373
 10
-815.6071
 20
-254.4289
 10
-815.6508
 20
-254.4094
 10
-815.6909
 20
-254.3796
 10
-815.7246
 20
-254.3419
 10
-815.7514
 20
-254.298
 10
-815.7708
 20
-254.2494
 10
-815.7825
 20
-254.1974
 10
-815.786
 20
-254.1436
 10
-815.7807
 20
-254.0896
 10
-815.7663
 20
-254.0367
 10
-815.7433
 20
-253.9887
 10
-815.7138
 20
-253.9488
 10
-815.6788
 20
-253.9175
 10
-815.6397
 20
-253.8954
 10
-815.5976
 20
-253.883
 10
-815.5537
 20
-253.8807
 10
-815.5093
 20
-253.8892
 10
-815.4656
 20
-253.9089
  0
LWPOLYLINE
  5
C0
330
1F
100
AcDbEntity
  8
Layer 1
 62
     7
370
    18
100
AcDbPolyline
 90
       33
 70
     1
 43
0.0
 10
-818.4074
 20
-249.2568
 10
-818.1914
 20
-249.3976
 10
-818.0054
 20
-249.5681
 10
-817.8524
 20
-249.7618
 10
-817.7354
 20
-249.9724
 10
-817.6571
 20
-250.1934
 10
-817.6205
 20
-250.4184
 10
-817.6286
 20
-250.641
 10
-817.6842
 20
-250.8547
 10
-817.785
 20
-251.044
 10
-817.9226
 20
-251.1969
 10
-818.091
 20
-251.3116
 10
-818.2841
 20
-251.3866
 10
-818.496
 20
-251.4203
 10
-818.7206
 20
-251.4109
 10
-818.9518
 20
-251.357
 10
-819.1836
 20
-251.2568
 10
-819.3997
 20
-251.1161
 10
-819.5856
 20
-250.9457
 10
-819.7386
 20
-250.752
 10
-819.8557
 20
-250.5414
 10
-819.934
 20
-250.3203
 10
-819.9705
 20
-250.0953
 10
-819.9624
 20
-249.8727
 10
-819.9068
 20
-249.6589
 10
-819.806
 20
-249.4696
 10
-819.6685
 20
-249.3167
 10
-819.5001
 20
-249.202
 10
-819.3069
 20
-249.127
 10
-819.095
 20
-249.0933
 10
-818.8705
 20
-249.1027
 10
-818.6392
 20
-249.1566
 10
-818.4074
 20
-249.2568
  0
LWPOLYLINE
  5
C1
330
1F
100
AcDbEntity
  8
Layer 1
 62
     7
370
    18
100
AcDbPolyline
 90
       33
 70
     1
 43
0.0
 10
-818.1868
 20
-250.5408
 10
-818.1426
 20
-250.5701
 10
-818.1049
 20
-250.6064
 10
-818.0743
 20
-250.6483
 10
-818.0514
 20
-250.6944
 10
-818.0367
 20
-250.7433
 10
-818.0308
 20
-250.7935
 10
-818.0341
 20
-250.8437
 10
-818.0474
 20
-250.8924
 10
-818.0699
 20
-250.936
 10
-818.0999
 20
-250.9718
 10
-818.1361
 20
-250.9993
 10
-818.1771
 20
-251.0182
 10
-818.2217
 20
-251.028
 10
-818.2687
 20
-251.0282
 10
-818.3167
 20
-251.0185
 10
-818.3644
 20
-250.9984
 10
-818.4087
 20
-250.969
 10
-818.4464
 20
-250.9326
 10
-818.4769
 20
-250.8907
 10
-818.4998
 20
-250.8446
 10
-818.5145
 20
-250.7958
 10
-818.5205
 20
-250.7456
 10
-818.5171
 20
-250.6955
 10
-818.5038
 20
-250.6468
 10
-818.4813
 20
-250.6031
 10
-818.4514
 20
-250.5673
 10
-818.4153
 20
-250.5397
 10
-818.3743
 20
-250.5209
 10
-818.3297
 20
-250.5111
 10
-818.2827
 20
-250.5109
 10
-818.2347
 20
-250.5207
 10
-818.1868
 20
-250.5408
  0
LWPOLYLINE
  5
C2
330
1F
100
AcDbEntity
  8
Layer 1
 62
     7
370
    18
100
AcDbPolyline
 90
       33
 70
     1
 43
0.0
 10
-813.0264
 20
-247.5085
 10
-812.8015
 20
-247.6551
 10
-812.6079
 20
-247.8325
 10
-812.4487
 20
-248.0342
 10
-812.3269
 20
-248.2534
 10
-812.2455
 20
-248.4835
 10
-812.2074
 20
-248.7177
 10
-812.2159
 20
-248.9494
 10
-812.2738
 20
-249.1719
 10
-812.3788
 20
-249.3691
 10
-812.5221
 20
-249.5283
 10
-812.6974
 20
-249.6477
 10
-812.8984
 20
-249.7258
 10
-813.1189
 20
-249.7608
 10
-813.3526
 20
-249.7511
 10
-813.5932
 20
-249.6949
 10
-813.8345
 20
-249.5906
 10
-814.0595
 20
-249.444
 10
-814.2531
 20
-249.2666
 10
-814.4124
 20
-249.0649
 10
-814.5343
 20
-248.8457
 10
-814.6158
 20
-248.6156
 10
-814.6538
 20
-248.3814
 10
-814.6454
 20
-248.1497
 10
-814.5875
 20
-247.9272
 10
-814.4825
 20
-247.7301
 10
-814.3392
 20
-247.571
 10
-814.1639
 20
-247.4515
 10
-813.9629
 20
-247.3735
 10
-813.7423
 20
-247.3384
 10
-813.5086
 20
-247.3481
 10
-813.2678
 20
-247.4042
 10
-813.0264
 20
-247.5085
  0
LWPOLYLINE
  5
C3
330
1F
100
AcDbEntity
  8
Layer 1
 62
     7
370
    18
100
AcDbPolyline
 90
       33
 70
     1
 43
0.0
 10
-812.797
 20
-248.8448
 10
-812.7509
 20
-248.8754
 10
-812.7117
 20
-248.9133
 10
-812.6799
 20
-248.957
 10
-812.656
 20
-249.0051
 10
-812.6407
 20
-249.056
 10
-812.6346
 20
-249.1083
 10
-812.6382
 20
-249.1605
 10
-812.6521
 20
-249.2112
 10
-812.6755
 20
-249.2566
 10
-812.7067
 20
-249.2938
 10
-812.7443
 20
-249.3225
 10
-812.787
 20
-249.3421
 10
-812.8334
 20
-249.3523
 10
-812.8822
 20
-249.3526
 10
-812.9321
 20
-249.3424
 10
-812.9818
 20
-249.3215
 10
-813.0279
 20
-249.2909
 10
-813.0671
 20
-249.253
 10
-813.099
 20
-249.2093
 10
-813.1229
 20
-249.1613
 10
-813.1383
 20
-249.1105
 10
-813.1445
 20
-249.0582
 10
-813.141
 20
-249.0061
 10
-813.1272
 20
-248.9556
 10
-813.1036
 20
-248.9101
 10
-813.0724
 20
-248.8728
 10
-813.0347
 20
-248.844
 10
-812.992
 20
-248.8243
 10
-812.9455
 20
-248.8141
 10
-812.8967
 20
-248.8138
 10
-812.8467
 20
-248.8239
 10
-812.797
 20
-248.8448
  0
LWPOLYLINE
  5
C4
330
1F
100
AcDbEntity
  8
Layer 1
 62
     7
370
    18
100
AcDbPolyline
 90
       33
 70
     1
 43
0.0
 10
-808.1671
 20
-247.1699
 10
-807.9421
 20
-247.3165
 10
-807.7484
 20
-247.4939
 10
-807.5891
 20
-247.6956
 10
-807.4672
 20
-247.9148
 10
-807.3857
 20
-248.1449
 10
-807.3477
 20
-248.3791
 10
-807.3561
 20
-248.6108
 10
-807.414
 20
-248.8333
 10
-807.519
 20
-249.0304
 10
-807.6624
 20
-249.1895
 10
-807.8377
 20
-249.309
 10
-808.0388
 20
-249.3871
 10
-808.2594
 20
-249.4222
 10
-808.4931
 20
-249.4125
 10
-808.7338
 20
-249.3564
 10
-808.9751
 20
-249.2521
 10
-809.2
 20
-249.1055
 10
-809.3936
 20
-248.928
 10
-809.5528
 20
-248.7263
 10
-809.6746
 20
-248.5071
 10
-809.7561
 20
-248.2771
 10
-809.7941
 20
-248.0429
 10
-809.7857
 20
-247.8112
 10
-809.7278
 20
-247.5887
 10
-809.6228
 20
-247.3915
 10
-809.4795
 20
-247.2323
 10
-809.3042
 20
-247.1128
 10
-809.1032
 20
-247.0347
 10
-808.8827
 20
-246.9997
 10
-808.649
 20
-247.0095
 10
-808.4084
 20
-247.0656
 10
-808.1671
 20
-247.1699
  0
LWPOLYLINE
  5
C5
330
1F
100
AcDbEntity
  8
Layer 1
 62
     7
370
    18
100
AcDbPolyline
 90
       33
 70
     1
 43
0.0
 10
-807.9373
 20
-248.5063
 10
-807.8914
 20
-248.5369
 10
-807.8522
 20
-248.5748
 10
-807.8203
 20
-248.6185
 10
-807.7965
 20
-248.6665
 10
-807.7811
 20
-248.7174
 10
-807.7749
 20
-248.7697
 10
-807.7785
 20
-248.8219
 10
-807.7924
 20
-248.8726
 10
-807.8158
 20
-248.918
 10
-807.847
 20
-248.9552
 10
-807.8846
 20
-248.9839
 10
-807.9273
 20
-249.0036
 10
-807.9737
 20
-249.0137
 10
-808.0226
 20
-249.014
 10
-808.0727
 20
-249.0039
 10
-808.1225
 20
-248.983
 10
-808.1684
 20
-248.9524
 10
-808.2076
 20
-248.9145
 10
-808.2394
 20
-248.8708
 10
-808.2632
 20
-248.8228
 10
-808.2785
 20
-248.7719
 10
-808.2847
 20
-248.7197
 10
-808.2813
 20
-248.6676
 10
-808.2675
 20
-248.617
 10
-808.2441
 20
-248.5715
 10
-808.2129
 20
-248.5342
 10
-808.1753
 20
-248.5055
 10
-808.1326
 20
-248.4858
 10
-808.0861
 20
-248.4755
 10
-808.0372
 20
-248.4753
 10
-807.9871
 20
-248.4854
 10
-807.9373
 20
-248.5063
  0
LWPOLYLINE
  5
C6
330
1F
100
AcDbEntity
  8
Layer 1
 62
     7
370
    18
100
AcDbPolyline
 90
       33
 70
     1
 43
0.0
 10
-804.244
 20
-248.3328
 10
-804.0574
 20
-248.5257
 10
-803.9082
 20
-248.7417
 10
-803.798
 20
-248.9737
 10
-803.7282
 20
-249.2145
 10
-803.7002
 20
-249.4568
 10
-803.7154
 20
-249.6936
 10
-803.7754
 20
-249.9176
 10
-803.8816
 20
-250.1217
 10
-804.028
 20
-250.2906
 10
-804.2032
 20
-250.4139
 10
-804.4008
 20
-250.4915
 10
-804.6143
 20
-250.523
 10
-804.8371
 20
-250.5082
 10
-805.0628
 20
-250.4469
 10
-805.2849
 20
-250.3388
 10
-805.4969
 20
-250.1836
 10
-805.6834
 20
-249.9908
 10
-805.8325
 20
-249.7749
 10
-805.9426
 20
-249.5429
 10
-806.0124
 20
-249.3021
 10
-806.0404
 20
-249.0597
 10
-806.0251
 20
-248.8229
 10
-805.9651
 20
-248.5989
 10
-805.8589
 20
-248.3948
 10
-805.7125
 20
-248.2259
 10
-805.5373
 20
-248.1026
 10
-805.3398
 20
-248.025
 10
-805.1264
 20
-247.9935
 10
-804.9036
 20
-248.0083
 10
-804.678
 20
-248.0696
 10
-804.456
 20
-248.1777
 10
-804.244
 20
-248.3328
  0
LWPOLYLINE
  5
C7
330
1F
100
AcDbEntity
  8
Layer 1
 62
     7
370
    18
100
AcDbPolyline
 90
       33
 70
     1
 43
0.0
 10
-804.3185
 20
-249.6871
 10
-804.2806
 20
-249.727
 10
-804.2509
 20
-249.7726
 10
-804.2297
 20
-249.8222
 10
-804.2172
 20
-249.8742
 10
-804.2136
 20
-249.9272
 10
-804.2193
 20
-249.9796
 10
-804.2344
 20
-250.0297
 10
-804.2592
 20
-250.076
 10
-804.2922
 20
-250.1151
 10
-804.3309
 20
-250.1446
 10
-804.374
 20
-250.1642
 10
-804.42
 20
-250.174
 10
-804.4675
 20
-250.1736
 10
-804.5152
 20
-250.163
 10
-804.5617
 20
-250.1421
 10
-804.6056
 20
-250.1106
 10
-804.6436
 20
-250.0705
 10
-804.6733
 20
-250.0248
 10
-804.6945
 20
-249.9752
 10
-804.707
 20
-249.923
 10
-804.7105
 20
-249.87
 10
-804.7049
 20
-249.8177
 10
-804.6898
 20
-249.7675
 10
-804.665
 20
-249.7212
 10
-804.6321
 20
-249.6822
 10
-804.5934
 20
-249.6528
 10
-804.5503
 20
-249.6333
 10
-804.5043
 20
-249.6236
 10
-804.4567
 20
-249.624
 10
-804.4089
 20
-249.6346
 10
-804.3624
 20
-249.6556
 10
-804.3185
 20
-249.6871
  0
LWPOLYLINE
  5
C8
330
1F
100
AcDbEntity
  8
Layer 1
 62
     7
370
    18
100
AcDbPolyline
 90
       33
 70
     1
 43
0.0
 10
-811.8429
 20
-251.9188
 10
-811.6267
 20
-252.0595
 10
-811.4406
 20
-252.2299
 10
-811.2876
 20
-252.4236
 10
-811.1705
 20
-252.6342
 10
-811.0923
 20
-252.8552
 10
-811.0558
 20
-253.0802
 10
-811.0639
 20
-253.3027
 10
-811.1197
 20
-253.5163
 10
-811.2205
 20
-253.7058
 10
-811.358
 20
-253.8587
 10
-811.5264
 20
-253.9735
 10
-811.7195
 20
-254.0486
 10
-811.9314
 20
-254.0822
 10
-812.156
 20
-254.0729
 10
-812.3872
 20
-254.019
 10
-812.619
 20
-253.9188
 10
-812.8351
 20
-253.778
 10
-813.021
 20
-253.6075
 10
-813.174
 20
-253.4138
 10
-813.2911
 20
-253.2032
 10
-813.3694
 20
-252.9822
 10
-813.4059
 20
-252.7572
 10
-813.3978
 20
-252.5346
 10
-813.3422
 20
-252.3209
 10
-813.2413
 20
-252.1316
 10
-813.1037
 20
-251.9787
 10
-812.9353
 20
-251.864
 10
-812.7422
 20
-251.789
 10
-812.5304
 20
-251.7553
 10
-812.3059
 20
-251.7647
 10
-812.0747
 20
-251.8186
 10
-811.8429
 20
-251.9188
  0
LWPOLYLINE
  5
C9
330
1F
100
AcDbEntity
  8
Layer 1
 62
     7
370
    18
100
AcDbPolyline
 90
       33
 70
     1
 43
0.0
 10
-811.6222
 20
-253.2024
 10
-811.578
 20
-253.2318
 10
-811.5402
 20
-253.2682
 10
-811.5096
 20
-253.3102
 10
-811.4867
 20
-253.3563
 10
-811.472
 20
-253.4052
 10
-811.466
 20
-253.4554
 10
-811.4695
 20
-253.5054
 10
-811.4828
 20
-253.554
 10
-811.5053
 20
-253.5977
 10
-811.5353
 20
-253.6336
 10
-811.5714
 20
-253.6612
 10
-811.6124
 20
-253.6802
 10
-811.657
 20
-253.69
 10
-811.7039
 20
-253.6902
 10
-811.752
 20
-253.6805
 10
-811.7998
 20
-253.6604
 10
-811.8441
 20
-253.631
 10
-811.8818
 20
-253.5946
 10
-811.9123
 20
-253.5526
 10
-811.9352
 20
-253.5065
 10
-811.9499
 20
-253.4576
 10
-811.9559
 20
-253.4074
 10
-811.9525
 20
-253.3574
 10
-811.9392
 20
-253.3088
 10
-811.9167
 20
-253.2651
 10
-811.8867
 20
-253.2292
 10
-811.8506
 20
-253.2016
 10
-811.8095
 20
-253.1827
 10
-811.7649
 20
-253.1728
 10
-811.718
 20
-253.1726
 10
-811.67
 20
-253.1823
 10
-811.6222
 20
-253.2024
  0
LWPOLYLINE
  5
CA
330
1F
100
AcDbEntity
  8
Layer 1
 62
     7
370
    18
100
AcDbPolyline
 90
       33
 70
     1
 43
0.0
 10
-808.5227
 20
-252.1673
 10
-808.3066
 20
-252.308
 10
-808.1207
 20
-252.4784
 10
-807.9677
 20
-252.6721
 10
-807.8507
 20
-252.8827
 10
-807.7725
 20
-253.1038
 10
-807.736
 20
-253.3288
 10
-807.7442
 20
-253.5514
 10
-807.7999
 20
-253.7652
 10
-807.9007
 20
-253.9545
 10
-808.0383
 20
-254.1074
 10
-808.2067
 20
-254.2221
 10
-808.3998
 20
-254.2971
 10
-808.6117
 20
-254.3308
 10
-808.8363
 20
-254.3214
 10
-809.0675
 20
-254.2675
 10
-809.2993
 20
-254.1673
 10
-809.5154
 20
-254.0265
 10
-809.7013
 20
-253.856
 10
-809.8543
 20
-253.6622
 10
-809.9714
 20
-253.4516
 10
-810.0496
 20
-253.2306
 10
-810.086
 20
-253.0056
 10
-810.0779
 20
-252.783
 10
-810.0221
 20
-252.5693
 10
-809.9214
 20
-252.38
 10
-809.7838
 20
-252.2272
 10
-809.6155
 20
-252.1125
 10
-809.4224
 20
-252.0375
 10
-809.2105
 20
-252.0038
 10
-808.9859
 20
-252.0132
 10
-808.7547
 20
-252.0671
 10
-808.5227
 20
-252.1673
  0
LWPOLYLINE
  5
CB
330
1F
100
AcDbEntity
  8
Layer 1
 62
     7
370
    18
100
AcDbPolyline
 90
       33
 70
     1
 43
0.0
 10
-808.3025
 20
-253.4509
 10
-808.2583
 20
-253.4803
 10
-808.2205
 20
-253.5167
 10
-808.1899
 20
-253.5587
 10
-808.167
 20
-253.6048
 10
-808.1522
 20
-253.6537
 10
-808.1463
 20
-253.7039
 10
-808.1497
 20
-253.7539
 10
-808.1631
 20
-253.8025
 10
-808.1856
 20
-253.8462
 10
-808.2156
 20
-253.8821
 10
-808.2517
 20
-253.9097
 10
-808.2927
 20
-253.9286
 10
-808.3373
 20
-253.9384
 10
-808.3842
 20
-253.9387
 10
-808.4323
 20
-253.929
 10
-808.4801
 20
-253.9089
 10
-808.5242
 20
-253.8795
 10
-808.5619
 20
-253.843
 10
-808.5925
 20
-253.8011
 10
-808.6154
 20
-253.7549
 10
-808.6301
 20
-253.706
 10
-808.6361
 20
-253.6558
 10
-808.6327
 20
-253.6058
 10
-808.6195
 20
-253.5572
 10
-808.597
 20
-253.5135
 10
-808.567
 20
-253.4776
 10
-808.5308
 20
-253.45
 10
-808.4898
 20
-253.4311
 10
-808.4452
 20
-253.4213
 10
-808.3982
 20
-253.4211
 10
-808.3502
 20
-253.4308
 10
-808.3025
 20
-253.4509
  0
LWPOLYLINE
  5
CC
330
1F
100
AcDbEntity
  8
Layer 1
 62
     7
370
    18
100
AcDbPolyline
 90
       33
 70
     1
 43
0.0
 10
-805.9975
 20
-253.46
 10
-805.7944
 20
-253.5972
 10
-805.6203
 20
-253.7644
 10
-805.4779
 20
-253.9553
 10
-805.3698
 20
-254.1634
 10
-805.2987
 20
-254.3825
 10
-805.2672
 20
-254.6061
 10
-805.2781
 20
-254.8279
 10
-805.334
 20
-255.0416
 10
-805.4323
 20
-255.2317
 10
-805.565
 20
-255.386
 10
-805.7264
 20
-255.5027
 10
-805.9107
 20
-255.5802
 10
-806.1122
 20
-255.6167
 10
-806.3251
 20
-255.6105
 10
-806.5436
 20
-255.56
 10
-806.7621
 20
-255.4635
 10
-806.9651
 20
-255.3263
 10
-807.1391
 20
-255.1591
 10
-807.2815
 20
-254.9682
 10
-807.3895
 20
-254.7601
 10
-807.4607
 20
-254.541
 10
-807.4922
 20
-254.3174
 10
-807.4814
 20
-254.0956
 10
-807.4256
 20
-253.8819
 10
-807.3273
 20
-253.6918
 10
-807.1946
 20
-253.5375
 10
-807.0332
 20
-253.4208
 10
-806.8489
 20
-253.3434
 10
-806.6474
 20
-253.3068
 10
-806.4345
 20
-253.313
 10
-806.216
 20
-253.3635
 10
-805.9975
 20
-253.46
  0
LWPOLYLINE
  5
CD
330
1F
100
AcDbEntity
  8
Layer 1
 62
     7
370
    18
100
AcDbPolyline
 90
       33
 70
     1
 43
0.0
 10
-805.8063
 20
-254.736
 10
-805.7648
 20
-254.7646
 10
-805.7296
 20
-254.8002
 10
-805.7012
 20
-254.8415
 10
-805.6801
 20
-254.8871
 10
-805.6668
 20
-254.9356
 10
-805.6618
 20
-254.9855
 10
-805.6657
 20
-255.0355
 10
-805.6789
 20
-255.0841
 10
-805.701
 20
-255.1279
 10
-805.73
 20
-255.164
 10
-805.7647
 20
-255.192
 10
-805.804
 20
-255.2114
 10
-805.8465
 20
-255.2218
 10
-805.8911
 20
-255.2228
 10
-805.9365
 20
-255.2138
 10
-805.9816
 20
-255.1944
 10
-806.023
 20
-255.1657
 10
-806.0581
 20
-255.13
 10
-806.0865
 20
-255.0886
 10
-806.1077
 20
-255.043
 10
-806.1209
 20
-254.9945
 10
-806.1259
 20
-254.9446
 10
-806.1219
 20
-254.8946
 10
-806.1086
 20
-254.846
 10
-806.0866
 20
-254.8022
 10
-806.0577
 20
-254.7661
 10
-806.0231
 20
-254.7381
 10
-805.9839
 20
-254.7188
 10
-805.9414
 20
-254.7084
 10
-805.8968
 20
-254.7076
 10
-805.8514
 20
-254.7166
 10
-805.8063
 20
-254.736
  0
LWPOLYLINE
  5
CE
330
1F
100
AcDbEntity
  8
Layer 1
 62
     7
370
    18
100
AcDbPolyline
 90
       33
 70
     1
 43
0.0
 10
-804.5997
 20
-255.8517
 10
-804.4256
 20
-255.9694
 10
-804.2764
 20
-256.1128
 10
-804.1543
 20
-256.2764
 10
-804.0616
 20
-256.4549
 10
-804.0006
 20
-256.6428
 10
-803.9736
 20
-256.8345
 10
-803.9828
 20
-257.0247
 10
-804.0306
 20
-257.2079
 10
-804.1149
 20
-257.3709
 10
-804.2288
 20
-257.5031
 10
-804.3672
 20
-257.6032
 10
-804.5252
 20
-257.6696
 10
-804.698
 20
-257.7009
 10
-804.8805
 20
-257.6957
 10
-805.0679
 20
-257.6525
 10
-805.2552
 20
-257.5699
 10
-805.4293
 20
-257.4522
 10
-805.5786
 20
-257.3088
 10
-805.7007
 20
-257.1451
 10
-805.7935
 20
-256.9667
 10
-805.8545
 20
-256.7788
 10
-805.8815
 20
-256.5871
 10
-805.8722
 20
-256.3969
 10
-805.8243
 20
-256.2137
 10
-805.74
 20
-256.0507
 10
-805.6261
 20
-255.9185
 10
-805.4877
 20
-255.8184
 10
-805.3297
 20
-255.752
 10
-805.1569
 20
-255.7206
 10
-804.9744
 20
-255.7258
 10
-804.787
 20
-255.769
 10
-804.5997
 20
-255.8517
  0
LWPOLYLINE
  5
CF
330
1F
100
AcDbEntity
  8
Layer 1
 62
     7
370
    18
100
AcDbPolyline
 90
       33
 70
     1
 43
0.0
 10
-804.4356
 20
-256.9459
 10
-804.4
 20
-256.9705
 10
-804.3699
 20
-257.0011
 10
-804.3455
 20
-257.0366
 10
-804.3274
 20
-257.0757
 10
-804.316
 20
-257.1172
 10
-804.3118
 20
-257.16
 10
-804.3151
 20
-257.2028
 10
-804.3265
 20
-257.2444
 10
-804.3454
 20
-257.282
 10
-804.3702
 20
-257.313
 10
-804.3999
 20
-257.3371
 10
-804.4336
 20
-257.3537
 10
-804.47
 20
-257.3626
 10
-804.5082
 20
-257.3634
 10
-804.5471
 20
-257.3556
 10
-804.5857
 20
-257.3389
 10
-804.6214
 20
-257.3143
 10
-804.6516
 20
-257.2837
 10
-804.676
 20
-257.2482
 10
-804.6941
 20
-257.2092
 10
-804.7054
 20
-257.1676
 10
-804.7096
 20
-257.1248
 10
-804.7063
 20
-257.082
 10
-804.6949
 20
-257.0404
 10
-804.676
 20
-257.0028
 10
-804.6512
 20
-256.9719
 10
-804.6215
 20
-256.9479
 10
-804.5879
 20
-256.9313
 10
-804.5515
 20
-256.9224
 10
-804.5133
 20
-256.9216
 10
-804.4743
 20
-256.9293
 10
-804.4356
 20
-256.9459
  0
LWPOLYLINE
  5
D0
330
1F
100
AcDbEntity
  8
Layer 1
 62
     7
370
    18
100
AcDbPolyline
 90
       33
 70
     1
 43
0.0
 10
-803.8466
 20
-258.7046
 10
-803.7094
 20
-258.9225
 10
-803.612
 20
-259.1549
 10
-803.5543
 20
-259.3946
 10
-803.5363
 20
-259.6347
 10
-803.5579
 20
-259.868
 10
-803.6192
 20
-260.0876
 10
-803.7199
 20
-260.2864
 10
-803.8601
 20
-260.4573
 10
-804.0312
 20
-260.5873
 10
-804.2204
 20
-260.6689
 10
-804.4215
 20
-260.7029
 10
-804.6284
 20
-260.6905
 10
-804.835
 20
-260.6328
 10
-805.035
 20
-260.5307
 10
-805.2224
 20
-260.3853
 10
-805.391
 20
-260.1977
 10
-805.5282
 20
-259.9798
 10
-805.6256
 20
-259.7474
 10
-805.6832
 20
-259.5077
 10
-805.7012
 20
-259.2677
 10
-805.6795
 20
-259.0343
 10
-805.6182
 20
-258.8147
 10
-805.5174
 20
-258.6159
 10
-805.377
 20
-258.445
 10
-805.206
 20
-258.315
 10
-805.0168
 20
-258.2335
 10
-804.8157
 20
-258.1994
 10
-804.6088
 20
-258.2118
 10
-804.4023
 20
-258.2695
 10
-804.2023
 20
-258.3716
 10
-804.0151
 20
-258.517
 10
-803.8466
 20
-258.7046
  0
LWPOLYLINE
  5
D1
330
1F
100
AcDbEntity
  8
Layer 1
 62
     7
370
    18
100
AcDbPolyline
 90
       33
 70
     1
 43
0.0
 10
-804.1851
 20
-259.9628
 10
-804.1572
 20
-260.0078
 10
-804.1382
 20
-260.0565
 10
-804.1279
 20
-260.1074
 10
-804.1265
 20
-260.1588
 10
-804.1336
 20
-260.2093
 10
-804.1492
 20
-260.2574
 10
-804.1733
 20
-260.3016
 10
-804.2058
 20
-260.3402
 10
-804.2447
 20
-260.3705
 10
-804.287
 20
-260.3906
 10
-804.3314
 20
-260.4006
 10
-804.3766
 20
-260.4007
 10
-804.4211
 20
-260.3909
 10
-804.4638
 20
-260.3716
 10
-804.5033
 20
-260.3427
 10
-804.5383
 20
-260.3045
 10
-804.5662
 20
-260.2593
 10
-804.5853
 20
-260.2106
 10
-804.5955
 20
-260.1597
 10
-804.597
 20
-260.1083
 10
-804.5898
 20
-260.0578
 10
-804.5742
 20
-260.0098
 10
-804.5501
 20
-259.9657
 10
-804.5176
 20
-259.927
 10
-804.4787
 20
-259.8967
 10
-804.4364
 20
-259.8767
 10
-804.392
 20
-259.8667
 10
-804.3469
 20
-259.8666
 10
-804.3023
 20
-259.8764
 10
-804.2596
 20
-259.8957
 10
-804.2201
 20
-259.9246
 10
-804.1851
 20
-259.9628
  0
LWPOLYLINE
  5
D2
330
1F
100
AcDbEntity
  8
Layer 1
 62
     7
370
    18
100
AcDbPolyline
 90
       33
 70
     1
 43
0.0
 10
-802.0147
 20
-250.8972
 10
-801.8359
 20
-251.0137
 10
-801.682
 20
-251.1547
 10
-801.5554
 20
-251.3151
 10
-801.4585
 20
-251.4894
 10
-801.3937
 20
-251.6723
 10
-801.3635
 20
-251.8585
 10
-801.3701
 20
-252.0428
 10
-801.4161
 20
-252.2197
 10
-801.4996
 20
-252.3764
 10
-801.6136
 20
-252.5028
 10
-801.753
 20
-252.5978
 10
-801.9128
 20
-252.6599
 10
-802.0881
 20
-252.6878
 10
-802.274
 20
-252.6801
 10
-802.4653
 20
-252.6355
 10
-802.6571
 20
-252.5527
 10
-802.8359
 20
-252.4361
 10
-802.9897
 20
-252.295
 10
-803.1163
 20
-252.1346
 10
-803.2132
 20
-251.9603
 10
-803.278
 20
-251.7775
 10
-803.3082
 20
-251.5913
 10
-803.3016
 20
-251.4071
 10
-803.2556
 20
-251.2302
 10
-803.1721
 20
-251.0734
 10
-803.0582
 20
-250.9469
 10
-802.9188
 20
-250.8519
 10
-802.759
 20
-250.7898
 10
-802.5837
 20
-250.762
 10
-802.3978
 20
-250.7697
 10
-802.2065
 20
-250.8143
 10
-802.0147
 20
-250.8972
  0
LWPOLYLINE
  5
D3
330
1F
100
AcDbEntity
  8
Layer 1
 62
     7
370
    18
100
AcDbPolyline
 90
       33
 70
     1
 43
0.0
 10
-801.8323
 20
-251.9597
 10
-801.7957
 20
-251.984
 10
-801.7645
 20
-252.0141
 10
-801.7392
 20
-252.0488
 10
-801.7202
 20
-252.087
 10
-801.708
 20
-252.1274
 10
-801.7031
 20
-252.169
 10
-801.7058
 20
-252.2104
 10
-801.7168
 20
-252.2506
 10
-801.7355
 20
-252.2868
 10
-801.7603
 20
-252.3165
 10
-801.7902
 20
-252.3393
 10
-801.8241
 20
-252.355
 10
-801.8611
 20
-252.3631
 10
-801.9
 20
-252.3633
 10
-801.9397
 20
-252.3553
 10
-801.9793
 20
-252.3387
 10
-802.0159
 20
-252.3143
 10
-802.0471
 20
-252.2842
 10
-802.0724
 20
-252.2494
 10
-802.0914
 20
-252.2112
 10
-802.1036
 20
-252.1708
 10
-802.1085
 20
-252.1292
 10
-802.1057
 20
-252.0877
 10
-802.0947
 20
-252.0474
 10
-802.076
 20
-252.0114
 10
-802.0512
 20
-251.9818
 10
-802.0213
 20
-251.959
 10
-801.9874
 20
-251.9434
 10
-801.9505
 20
-251.9353
 10
-801.9116
 20
-251.9351
 10
-801.8719
 20
-251.9431
 10
-801.8323
 20
-251.9597
  0
LWPOLYLINE
  5
D4
330
1F
100
AcDbEntity
  8
Layer 1
 62
     7
370
    18
100
AcDbPolyline
 90
       33
 70
     1
 43
0.0
 10
-800.491
 20
-254.436
 10
-800.3787
 20
-254.617
 10
-800.2993
 20
-254.8099
 10
-800.2529
 20
-255.0086
 10
-800.2393
 20
-255.2074
 10
-800.2585
 20
-255.4005
 10
-800.3103
 20
-255.5819
 10
-800.3947
 20
-255.7459
 10
-800.5117
 20
-255.8866
 10
-800.654
 20
-255.9933
 10
-800.811
 20
-256.0597
 10
-800.9776
 20
-256.0868
 10
-801.1487
 20
-256.0755
 10
-801.3193
 20
-256.0266
 10
-801.4843
 20
-255.941
 10
-801.6385
 20
-255.8197
 10
-801.777
 20
-255.6636
 10
-801.8893
 20
-255.4825
 10
-801.9687
 20
-255.2897
 10
-802.0151
 20
-255.091
 10
-802.0287
 20
-254.8923
 10
-802.0095
 20
-254.6993
 10
-801.9577
 20
-254.5179
 10
-801.8732
 20
-254.354
 10
-801.7562
 20
-254.2133
 10
-801.614
 20
-254.1066
 10
-801.457
 20
-254.0401
 10
-801.2904
 20
-254.013
 10
-801.1193
 20
-254.0243
 10
-800.9487
 20
-254.0731
 10
-800.7837
 20
-254.1586
 10
-800.6295
 20
-254.2799
 10
-800.491
 20
-254.436
  0
LWPOLYLINE
  5
D5
330
1F
100
AcDbEntity
  8
Layer 1
 62
     7
370
    18
100
AcDbPolyline
 90
       33
 70
     1
 43
0.0
 10
-800.7778
 20
-255.4754
 10
-800.755
 20
-255.5129
 10
-800.7396
 20
-255.5533
 10
-800.7314
 20
-255.5954
 10
-800.7305
 20
-255.638
 10
-800.7366
 20
-255.6798
 10
-800.7499
 20
-255.7195
 10
-800.7701
 20
-255.7559
 10
-800.7973
 20
-255.7878
 10
-800.8295
 20
-255.8126
 10
-800.8646
 20
-255.8289
 10
-800.9013
 20
-255.8369
 10
-800.9387
 20
-255.8367
 10
-800.9756
 20
-255.8284
 10
-801.0108
 20
-255.8122
 10
-801.0434
 20
-255.7882
 10
-801.0721
 20
-255.7564
 10
-801.0949
 20
-255.7189
 10
-801.1103
 20
-255.6785
 10
-801.1184
 20
-255.6363
 10
-801.1194
 20
-255.5937
 10
-801.1132
 20
-255.5519
 10
-801.1
 20
-255.5122
 10
-801.0798
 20
-255.4759
 10
-801.0526
 20
-255.4441
 10
-801.0203
 20
-255.4192
 10
-800.9853
 20
-255.4028
 10
-800.9485
 20
-255.3948
 10
-800.9112
 20
-255.395
 10
-800.8743
 20
-255.4033
 10
-800.839
 20
-255.4196
 10
-800.8065
 20
-255.4436
 10
-800.7778
 20
-255.4754
  0
LWPOLYLINE
  5
D6
330
1F
100
AcDbEntity
  8
Layer 1
 62
     7
370
    18
100
AcDbPolyline
 90
       33
 70
     1
 43
0.0
 10
-800.7459
 20
-258.453
 10
-800.6335
 20
-258.6342
 10
-800.5542
 20
-258.8271
 10
-800.5078
 20
-259.0258
 10
-800.4942
 20
-259.2246
 10
-800.5133
 20
-259.4176
 10
-800.5652
 20
-259.599
 10
-800.6496
 20
-259.7629
 10
-800.7666
 20
-259.9036
 10
-800.9088
 20
-260.0103
 10
-801.0658
 20
-260.0767
 10
-801.2324
 20
-260.1038
 10
-801.4035
 20
-260.0925
 10
-801.5741
 20
-260.0436
 10
-801.7391
 20
-259.958
 10
-801.8933
 20
-259.8367
 10
-802.0318
 20
-259.6806
 10
-802.1442
 20
-259.4995
 10
-802.2235
 20
-259.3068
 10
-802.2699
 20
-259.1081
 10
-802.2835
 20
-258.9093
 10
-802.2644
 20
-258.7163
 10
-802.2125
 20
-258.535
 10
-802.1281
 20
-258.371
 10
-802.0111
 20
-258.2303
 10
-801.8689
 20
-258.1236
 10
-801.7119
 20
-258.0572
 10
-801.5453
 20
-258.03
 10
-801.3742
 20
-258.0413
 10
-801.2036
 20
-258.0902
 10
-801.0386
 20
-258.1756
 10
-800.8844
 20
-258.2969
 10
-800.7459
 20
-258.453
  0
LWPOLYLINE
  5
D7
330
1F
100
AcDbEntity
  8
Layer 1
 62
     7
370
    18
100
AcDbPolyline
 90
       33
 70
     1
 43
0.0
 10
-801.0326
 20
-259.4924
 10
-801.0099
 20
-259.5299
 10
-800.9945
 20
-259.5703
 10
-800.9863
 20
-259.6124
 10
-800.9853
 20
-259.655
 10
-800.9914
 20
-259.6968
 10
-801.0046
 20
-259.7365
 10
-801.0247
 20
-259.7729
 10
-801.0518
 20
-259.8048
 10
-801.0842
 20
-259.8296
 10
-801.1193
 20
-259.8459
 10
-801.1561
 20
-259.8539
 10
-801.1936
 20
-259.8537
 10
-801.2304
 20
-259.8454
 10
-801.2657
 20
-259.8292
 10
-801.2982
 20
-259.8052
 10
-801.3269
 20
-259.7734
 10
-801.3497
 20
-259.736
 10
-801.3651
 20
-259.6956
 10
-801.3733
 20
-259.6534
 10
-801.3742
 20
-259.6109
 10
-801.3681
 20
-259.5691
 10
-801.3548
 20
-259.5294
 10
-801.3346
 20
-259.493
 10
-801.3074
 20
-259.4611
 10
-801.2752
 20
-259.4362
 10
-801.2401
 20
-259.4198
 10
-801.2034
 20
-259.4118
 10
-801.166
 20
-259.412
 10
-801.1291
 20
-259.4203
 10
-801.0939
 20
-259.4366
 10
-801.0613
 20
-259.4606
 10
-801.0326
 20
-259.4924
  0
LWPOLYLINE
  5
D8
330
1F
100
AcDbEntity
  8
Layer 1
 62
     7
370
    18
100
AcDbPolyline
 90
       33
 70
     1
 43
0.0
 10
-802.401
 20
-262.9538
 10
-802.2886
 20
-263.1349
 10
-802.2093
 20
-263.3276
 10
-802.1629
 20
-263.5263
 10
-802.1493
 20
-263.7251
 10
-802.1684
 20
-263.9181
 10
-802.2203
 20
-264.0994
 10
-802.3047
 20
-264.2634
 10
-802.4217
 20
-264.4041
 10
-802.5639
 20
-264.5108
 10
-802.7209
 20
-264.5772
 10
-802.8875
 20
-264.6044
 10
-803.0586
 20
-264.5931
 10
-803.2292
 20
-264.5442
 10
-803.3942
 20
-264.4588
 10
-803.5484
 20
-264.3375
 10
-803.6869
 20
-264.1814
 10
-803.7993
 20
-264.0002
 10
-803.8786
 20
-263.8073
 10
-803.925
 20
-263.6086
 10
-803.9386
 20
-263.4098
 10
-803.9195
 20
-263.2168
 10
-803.8676
 20
-263.0354
 10
-803.7832
 20
-262.8714
 10
-803.6662
 20
-262.7307
 10
-803.524
 20
-262.624
 10
-803.367
 20
-262.5576
 10
-803.2004
 20
-262.5305
 10
-803.0293
 20
-262.5419
 10
-802.8587
 20
-262.5908
 10
-802.6937
 20
-262.6764
 10
-802.5395
 20
-262.7977
 10
-802.401
 20
-262.9538
  0
LWPOLYLINE
  5
D9
330
1F
100
AcDbEntity
  8
Layer 1
 62
     7
370
    18
100
AcDbPolyline
 90
       33
 70
     1
 43
0.0
 10
-802.6877
 20
-263.9929
 10
-802.6649
 20
-264.0305
 10
-802.6495
 20
-264.071
 10
-802.6414
 20
-264.1131
 10
-802.6404
 20
-264.1557
 10
-802.6466
 20
-264.1975
 10
-802.6598
 20
-264.2371
 10
-802.68
 20
-264.2735
 10
-802.7072
 20
-264.3052
 10
-802.7395
 20
-264.3301
 10
-802.7745
 20
-264.3465
 10
-802.8113
 20
-264.3546
 10
-802.8487
 20
-264.3544
 10
-802.8855
 20
-264.3462
 10
-802.9208
 20
-264.3299
 10
-802.9533
 20
-264.3058
 10
-802.982
 20
-264.2739
 10
-803.0048
 20
-264.2364
 10
-803.0202
 20
-264.196
 10
-803.0283
 20
-264.1539
 10
-803.0293
 20
-264.1113
 10
-803.0231
 20
-264.0695
 10
-803.0099
 20
-264.0298
 10
-802.9897
 20
-263.9934
 10
-802.9625
 20
-263.9615
 10
-802.9303
 20
-263.9367
 10
-802.8952
 20
-263.9204
 10
-802.8585
 20
-263.9124
 10
-802.8211
 20
-263.9126
 10
-802.7842
 20
-263.9209
 10
-802.749
 20
-263.9371
 10
-802.7164
 20
-263.9611
 10
-802.6877
 20
-263.9929
  0
LWPOLYLINE
  5
DA
330
1F
100
AcDbEntity
  8
Layer 1
 62
     7
370
    18
100
AcDbPolyline
 90
       33
 70
     1
 43
0.0
 10
-804.7068
 20
-262.1314
 10
-804.5945
 20
-262.3125
 10
-804.5151
 20
-262.5052
 10
-804.4688
 20
-262.7039
 10
-804.4553
 20
-262.9027
 10
-804.4745
 20
-263.0957
 10
-804.5264
 20
-263.277
 10
-804.6109
 20
-263.441
 10
-804.7279
 20
-263.5817
 10
-804.87
 20
-263.6884
 10
-805.0269
 20
-263.7548
 10
-805.1935
 20
-263.782
 10
-805.3647
 20
-263.7707
 10
-805.5353
 20
-263.7218
 10
-805.7003
 20
-263.6364
 10
-805.8546
 20
-263.5151
 10
-805.9931
 20
-263.359
 10
-806.1055
 20
-263.1778
 10
-806.1848
 20
-262.9849
 10
-806.2312
 20
-262.7862
 10
-806.2448
 20
-262.5874
 10
-806.2257
 20
-262.3944
 10
-806.1738
 20
-262.213
 10
-806.0894
 20
-262.0491
 10
-805.9724
 20
-261.9084
 10
-805.8302
 20
-261.8017
 10
-805.6732
 20
-261.7353
 10
-805.5066
 20
-261.7082
 10
-805.3354
 20
-261.7195
 10
-805.1648
 20
-261.7684
 10
-804.9998
 20
-261.854
 10
-804.8454
 20
-261.9753
 10
-804.7068
 20
-262.1314
  0
LWPOLYLINE
  5
DB
330
1F
100
AcDbEntity
  8
Layer 1
 62
     7
370
    18
100
AcDbPolyline
 90
       33
 70
     1
 43
0.0
 10
-804.9939
 20
-263.1705
 10
-804.971
 20
-263.2081
 10
-804.9556
 20
-263.2486
 10
-804.9474
 20
-263.2908
 10
-804.9464
 20
-263.3334
 10
-804.9526
 20
-263.3752
 10
-804.9658
 20
-263.4148
 10
-804.986
 20
-263.4512
 10
-805.013
 20
-263.4829
 10
-805.0453
 20
-263.5078
 10
-805.0804
 20
-263.5242
 10
-805.1172
 20
-263.5323
 10
-805.1547
 20
-263.5321
 10
-805.1916
 20
-263.5238
 10
-805.2269
 20
-263.5076
 10
-805.2595
 20
-263.4834
 10
-805.2882
 20
-263.4515
 10
-805.3109
 20
-263.414
 10
-805.3263
 20
-263.3736
 10
-805.3344
 20
-263.3315
 10
-805.3354
 20
-263.2889
 10
-805.3292
 20
-263.2472
 10
-805.316
 20
-263.2074
 10
-805.2958
 20
-263.171
 10
-805.2687
 20
-263.1392
 10
-805.2365
 20
-263.1144
 10
-805.2014
 20
-263.0981
 10
-805.1647
 20
-263.0901
 10
-805.1273
 20
-263.0902
 10
-805.0904
 20
-263.0985
 10
-805.0552
 20
-263.1147
 10
-805.0226
 20
-263.1387
 10
-804.9939
 20
-263.1705
  0
LWPOLYLINE
  5
DC
330
1F
100
AcDbEntity
  8
Layer 1
 62
     7
370
    18
100
AcDbPolyline
 90
       33
 70
     1
 43
0.0
 10
-806.5686
 20
-265.6603
 10
-806.4563
 20
-265.8413
 10
-806.3769
 20
-266.0341
 10
-806.3305
 20
-266.2328
 10
-806.317
 20
-266.4315
 10
-806.3362
 20
-266.6245
 10
-806.388
 20
-266.8059
 10
-806.4724
 20
-266.9698
 10
-806.5893
 20
-267.1105
 10
-806.7316
 20
-267.2172
 10
-806.8886
 20
-267.2836
 10
-807.0552
 20
-267.3107
 10
-807.2264
 20
-267.2994
 10
-807.3971
 20
-267.2505
 10
-807.5621
 20
-267.1649
 10
-807.7164
 20
-267.0436
 10
-807.8549
 20
-266.8875
 10
-807.9673
 20
-266.7064
 10
-808.0466
 20
-266.5136
 10
-808.093
 20
-266.3149
 10
-808.1066
 20
-266.1162
 10
-808.0875
 20
-265.9232
 10
-808.0356
 20
-265.7418
 10
-807.9512
 20
-265.5779
 10
-807.8342
 20
-265.4372
 10
-807.6919
 20
-265.3305
 10
-807.5349
 20
-265.264
 10
-807.3682
 20
-265.2369
 10
-807.1971
 20
-265.2482
 10
-807.0264
 20
-265.2971
 10
-806.8614
 20
-265.3827
 10
-806.7071
 20
-265.5041
 10
-806.5686
 20
-265.6603
  0
LWPOLYLINE
  5
DD
330
1F
100
AcDbEntity
  8
Layer 1
 62
     7
370
    18
100
AcDbPolyline
 90
       33
 70
     1
 43
0.0
 10
-806.8557
 20
-266.6993
 10
-806.8328
 20
-266.7368
 10
-806.8174
 20
-266.7772
 10
-806.8092
 20
-266.8193
 10
-806.8082
 20
-266.8619
 10
-806.8144
 20
-266.9037
 10
-806.8276
 20
-266.9434
 10
-806.8478
 20
-266.9798
 10
-806.8748
 20
-267.0117
 10
-806.9071
 20
-267.0366
 10
-806.9421
 20
-267.053
 10
-806.9789
 20
-267.061
 10
-807.0163
 20
-267.0608
 10
-807.0532
 20
-267.0525
 10
-807.0885
 20
-267.0362
 10
-807.1212
 20
-267.0121
 10
-807.15
 20
-266.9803
 10
-807.1727
 20
-266.9429
 10
-807.1881
 20
-266.9025
 10
-807.1962
 20
-266.8603
 10
-807.1971
 20
-266.8178
 10
-807.1909
 20
-266.776
 10
-807.1777
 20
-266.7363
 10
-807.1575
 20
-266.6999
 10
-807.1305
 20
-266.668
 10
-807.0982
 20
-266.6432
 10
-807.0632
 20
-266.6269
 10
-807.0264
 20
-266.6189
 10
-806.9891
 20
-266.6191
 10
-806.9522
 20
-266.6273
 10
-806.9169
 20
-266.6435
 10
-806.8844
 20
-266.6676
 10
-806.8557
 20
-266.6993
  0
LWPOLYLINE
  5
DE
330
1F
100
AcDbEntity
  8
Layer 1
 62
     7
370
    18
100
AcDbPolyline
 90
       33
 70
     1
 43
0.0
 10
-805.2667
 20
-267.7039
 10
-805.2439
 20
-267.8906
 10
-805.2518
 20
-268.0745
 10
-805.2883
 20
-268.251
 10
-805.3512
 20
-268.4155
 10
-805.4381
 20
-268.5632
 10
-805.547
 20
-268.6896
 10
-805.6755
 20
-268.79
 10
-805.8215
 20
-268.8597
 10
-805.9752
 20
-268.8929
 10
-806.1258
 20
-268.8884
 10
-806.2695
 20
-268.8488
 10
-806.4026
 20
-268.7766
 10
-806.5214
 20
-268.6746
 10
-806.622
 20
-268.5451
 10
-806.7007
 20
-268.391
 10
-806.7538
 20
-268.2147
 10
-806.7768
 20
-268.028
 10
-806.7689
 20
-267.8441
 10
-806.7325
 20
-267.6676
 10
-806.6696
 20
-267.5032
 10
-806.5827
 20
-267.3554
 10
-806.4737
 20
-267.229
 10
-806.3451
 20
-267.1286
 10
-806.199
 20
-267.0589
 10
-806.0453
 20
-267.0258
 10
-805.8948
 20
-267.0303
 10
-805.7511
 20
-267.0699
 10
-805.618
 20
-267.1421
 10
-805.4993
 20
-267.2441
 10
-805.3987
 20
-267.3735
 10
-805.3199
 20
-267.5276
 10
-805.2667
 20
-267.7039
  0
LWPOLYLINE
  5
DF
330
1F
100
AcDbEntity
  8
Layer 1
 62
     7
370
    18
100
AcDbPolyline
 90
       33
 70
     1
 43
0.0
 10
-805.8824
 20
-268.4318
 10
-805.878
 20
-268.4703
 10
-805.8806
 20
-268.5085
 10
-805.8897
 20
-268.5453
 10
-805.9048
 20
-268.5798
 10
-805.9252
 20
-268.6111
 10
-805.9506
 20
-268.6381
 10
-805.9803
 20
-268.6599
 10
-806.0138
 20
-268.6755
 10
-806.0489
 20
-268.6835
 10
-806.0831
 20
-268.6836
 10
-806.1156
 20
-268.6764
 10
-806.1455
 20
-268.6625
 10
-806.1721
 20
-268.6422
 10
-806.1944
 20
-268.6162
 10
-806.2116
 20
-268.5849
 10
-806.2229
 20
-268.5489
 10
-806.2273
 20
-268.5105
 10
-806.2247
 20
-268.4724
 10
-806.2156
 20
-268.4356
 10
-806.2005
 20
-268.401
 10
-806.1801
 20
-268.3698
 10
-806.1547
 20
-268.3428
 10
-806.125
 20
-268.3211
 10
-806.0915
 20
-268.3056
 10
-806.0564
 20
-268.2975
 10
-806.0222
 20
-268.2972
 10
-805.9897
 20
-268.3043
 10
-805.9598
 20
-268.3182
 10
-805.9332
 20
-268.3384
 10
-805.9109
 20
-268.3645
 10
-805.8937
 20
-268.3958
 10
-805.8824
 20
-268.4318
  0
LWPOLYLINE
  5
E0
330
1F
100
AcDbEntity
  8
Layer 1
 62
     7
370
    18
100
AcDbPolyline
 90
       33
 70
     1
 43
0.0
 10
-809.2575
 20
-269.0879
 10
-809.1451
 20
-269.269
 10
-809.0658
 20
-269.4617
 10
-809.0194
 20
-269.6604
 10
-809.0058
 20
-269.8592
 10
-809.0249
 20
-270.0522
 10
-809.0768
 20
-270.2337
 10
-809.1612
 20
-270.3977
 10
-809.2782
 20
-270.5385
 10
-809.4204
 20
-270.6452
 10
-809.5774
 20
-270.7116
 10
-809.744
 20
-270.7387
 10
-809.9151
 20
-270.7274
 10
-810.0857
 20
-270.6785
 10
-810.2507
 20
-270.5929
 10
-810.4049
 20
-270.4716
 10
-810.5434
 20
-270.3155
 10
-810.6558
 20
-270.1344
 10
-810.7351
 20
-269.9417
 10
-810.7815
 20
-269.743
 10
-810.7951
 20
-269.5442
 10
-810.776
 20
-269.3512
 10
-810.7241
 20
-269.1699
 10
-810.6397
 20
-269.0059
 10
-810.5227
 20
-268.8652
 10
-810.3805
 20
-268.7585
 10
-810.2235
 20
-268.6921
 10
-810.0569
 20
-268.6649
 10
-809.8858
 20
-268.6762
 10
-809.7152
 20
-268.7251
 10
-809.5502
 20
-268.8105
 10
-809.396
 20
-268.9318
 10
-809.2575
 20
-269.0879
  0
LWPOLYLINE
  5
E1
330
1F
100
AcDbEntity
  8
Layer 1
 62
     7
370
    18
100
AcDbPolyline
 90
       33
 70
     1
 43
0.0
 10
-809.5442
 20
-270.1273
 10
-809.5215
 20
-270.1648
 10
-809.5061
 20
-270.2052
 10
-809.498
 20
-270.2473
 10
-809.4971
 20
-270.2899
 10
-809.5033
 20
-270.3317
 10
-809.5165
 20
-270.3714
 10
-809.5367
 20
-270.4078
 10
-809.5637
 20
-270.4397
 10
-809.596
 20
-270.4645
 10
-809.631
 20
-270.4808
 10
-809.6678
 20
-270.4888
 10
-809.7052
 20
-270.4886
 10
-809.742
 20
-270.4804
 10
-809.7773
 20
-270.4642
 10
-809.8098
 20
-270.4401
 10
-809.8385
 20
-270.4084
 10
-809.8614
 20
-270.3709
 10
-809.8768
 20
-270.3304
 10
-809.885
 20
-270.2883
 10
-809.886
 20
-270.2456
 10
-809.8798
 20
-270.2038
 10
-809.8666
 20
-270.1641
 10
-809.8464
 20
-270.1278
 10
-809.8194
 20
-270.096
 10
-809.787
 20
-270.0711
 10
-809.7519
 20
-270.0547
 10
-809.7151
 20
-270.0467
 10
-809.6776
 20
-270.0469
 10
-809.6407
 20
-270.0552
 10
-809.6055
 20
-270.0715
 10
-809.5729
 20
-270.0955
 10
-809.5442
 20
-270.1273
  0
LWPOLYLINE
  5
E2
330
1F
100
AcDbEntity
  8
Layer 1
 62
     7
370
    18
100
AcDbPolyline
 90
       33
 70
     1
 43
0.0
 10
-809.3009
 20
-271.5379
 10
-809.1885
 20
-271.719
 10
-809.1092
 20
-271.9117
 10
-809.0628
 20
-272.1104
 10
-809.0492
 20
-272.3092
 10
-809.0683
 20
-272.5022
 10
-809.1202
 20
-272.6835
 10
-809.2046
 20
-272.8475
 10
-809.3216
 20
-272.9882
 10
-809.4638
 20
-273.0949
 10
-809.6208
 20
-273.1613
 10
-809.7874
 20
-273.1885
 10
-809.9585
 20
-273.1771
 10
-810.1291
 20
-273.1283
 10
-810.2941
 20
-273.0427
 10
-810.4483
 20
-272.9213
 10
-810.5868
 20
-272.7651
 10
-810.6992
 20
-272.584
 10
-810.7785
 20
-272.3913
 10
-810.8249
 20
-272.1926
 10
-810.8385
 20
-271.9938
 10
-810.8194
 20
-271.8009
 10
-810.7675
 20
-271.6195
 10
-810.6831
 20
-271.4556
 10
-810.5661
 20
-271.3149
 10
-810.4239
 20
-271.2082
 10
-810.2669
 20
-271.1418
 10
-810.1003
 20
-271.1147
 10
-809.9292
 20
-271.126
 10
-809.7586
 20
-271.1749
 10
-809.5936
 20
-271.2605
 10
-809.4394
 20
-271.3818
 10
-809.3009
 20
-271.5379
  0
LWPOLYLINE
  5
E3
330
1F
100
AcDbEntity
  8
Layer 1
 62
     7
370
    18
100
AcDbPolyline
 90
       33
 70
     1
 43
0.0
 10
-809.5876
 20
-272.577
 10
-809.5649
 20
-272.6145
 10
-809.5495
 20
-272.655
 10
-809.5414
 20
-272.6971
 10
-809.5405
 20
-272.7398
 10
-809.5467
 20
-272.7816
 10
-809.5599
 20
-272.8213
 10
-809.5801
 20
-272.8576
 10
-809.6071
 20
-272.8894
 10
-809.6394
 20
-272.9143
 10
-809.6744
 20
-272.9307
 10
-809.7112
 20
-272.9387
 10
-809.7486
 20
-272.9385
 10
-809.7854
 20
-272.9302
 10
-809.8207
 20
-272.9139
 10
-809.8532
 20
-272.8898
 10
-809.8819
 20
-272.858
 10
-809.9048
 20
-272.8205
 10
-809.9202
 20
-272.7801
 10
-809.9284
 20
-272.738
 10
-809.9294
 20
-272.6954
 10
-809.9232
 20
-272.6537
 10
-809.91
 20
-272.6139
 10
-809.8898
 20
-272.5775
 10
-809.8628
 20
-272.5457
 10
-809.8304
 20
-272.5209
 10
-809.7953
 20
-272.5046
 10
-809.7585
 20
-272.4966
 10
-809.721
 20
-272.4967
 10
-809.6841
 20
-272.505
 10
-809.6489
 20
-272.5212
 10
-809.6163
 20
-272.5452
 10
-809.5876
 20
-272.577
  0
LWPOLYLINE
  5
E4
330
1F
100
AcDbEntity
  8
Layer 1
 62
     7
370
    18
100
AcDbPolyline
 90
       33
 70
     1
 43
0.0
 10
-812.406
 20
-272.2317
 10
-812.2936
 20
-272.4129
 10
-812.2143
 20
-272.6058
 10
-812.1678
 20
-272.8045
 10
-812.1542
 20
-273.0033
 10
-812.1734
 20
-273.1963
 10
-812.2252
 20
-273.3777
 10
-812.3097
 20
-273.5417
 10
-812.4267
 20
-273.6824
 10
-812.569
 20
-273.7891
 10
-812.726
 20
-273.8555
 10
-812.8926
 20
-273.8826
 10
-813.0638
 20
-273.8712
 10
-813.2345
 20
-273.8223
 10
-813.3995
 20
-273.7367
 10
-813.5538
 20
-273.6154
 10
-813.6923
 20
-273.4593
 10
-813.8046
 20
-273.2782
 10
-813.884
 20
-273.0855
 10
-813.9303
 20
-272.8868
 10
-813.9439
 20
-272.688
 10
-813.9247
 20
-272.495
 10
-813.8728
 20
-272.3137
 10
-813.7885
 20
-272.1497
 10
-813.6716
 20
-272.009
 10
-813.5293
 20
-271.9023
 10
-813.3723
 20
-271.8359
 10
-813.2056
 20
-271.8087
 10
-813.0344
 20
-271.82
 10
-812.8638
 20
-271.8689
 10
-812.6987
 20
-271.9543
 10
-812.5445
 20
-272.0756
 10
-812.406
 20
-272.2317
  0
LWPOLYLINE
  5
E5
330
1F
100
AcDbEntity
  8
Layer 1
 62
     7
370
    18
100
AcDbPolyline
 90
       33
 70
     1
 43
0.0
 10
-812.6927
 20
-273.2712
 10
-812.67
 20
-273.3087
 10
-812.6546
 20
-273.3491
 10
-812.6465
 20
-273.3912
 10
-812.6456
 20
-273.4338
 10
-812.6518
 20
-273.4755
 10
-812.665
 20
-273.5153
 10
-812.6852
 20
-273.5517
 10
-812.7122
 20
-273.5835
 10
-812.7445
 20
-273.6083
 10
-812.7795
 20
-273.6246
 10
-812.8163
 20
-273.6326
 10
-812.8537
 20
-273.6324
 10
-812.8906
 20
-273.6242
 10
-812.9259
 20
-273.608
 10
-812.9586
 20
-273.5839
 10
-812.9874
 20
-273.5522
 10
-813.0101
 20
-273.5147
 10
-813.0255
 20
-273.4743
 10
-813.0336
 20
-273.4322
 10
-813.0345
 20
-273.3896
 10
-813.0283
 20
-273.3478
 10
-813.0151
 20
-273.3081
 10
-812.9949
 20
-273.2717
 10
-812.9679
 20
-273.2398
 10
-812.9356
 20
-273.2149
 10
-812.9006
 20
-273.1985
 10
-812.8638
 20
-273.1905
 10
-812.8264
 20
-273.1907
 10
-812.7895
 20
-273.199
 10
-812.7542
 20
-273.2153
 10
-812.7215
 20
-273.2394
 10
-812.6927
 20
-273.2712
  0
LWPOLYLINE
  5
E6
330
1F
100
AcDbEntity
  8
Layer 1
 62
     7
370
    18
100
AcDbPolyline
 90
       33
 70
     1
 43
0.0
 10
-814.0025
 20
-275.1648
 10
-813.904
 20
-275.3237
 10
-813.8344
 20
-275.4929
 10
-813.7937
 20
-275.6673
 10
-813.7818
 20
-275.8417
 10
-813.7987
 20
-276.011
 10
-813.8442
 20
-276.1702
 10
-813.9182
 20
-276.3141
 10
-814.0208
 20
-276.4376
 10
-814.1457
 20
-276.5312
 10
-814.2835
 20
-276.5895
 10
-814.4297
 20
-276.6133
 10
-814.5799
 20
-276.6034
 10
-814.7296
 20
-276.5605
 10
-814.8743
 20
-276.4855
 10
-815.0096
 20
-276.3791
 10
-815.1311
 20
-276.242
 10
-815.2298
 20
-276.0832
 10
-815.2995
 20
-275.914
 10
-815.3402
 20
-275.7396
 10
-815.3521
 20
-275.5652
 10
-815.3353
 20
-275.3958
 10
-815.2898
 20
-275.2366
 10
-815.2158
 20
-275.0926
 10
-815.1132
 20
-274.9691
 10
-814.9883
 20
-274.8755
 10
-814.8506
 20
-274.8172
 10
-814.7043
 20
-274.7934
 10
-814.5541
 20
-274.8034
 10
-814.4044
 20
-274.8462
 10
-814.2596
 20
-274.9213
 10
-814.1241
 20
-275.0277
 10
-814.0025
 20
-275.1648
  0
LWPOLYLINE
  5
E7
330
1F
100
AcDbEntity
  8
Layer 1
 62
     7
370
    18
100
AcDbPolyline
 90
       33
 70
     1
 43
0.0
 10
-814.2542
 20
-276.0769
 10
-814.2343
 20
-276.1098
 10
-814.2208
 20
-276.1453
 10
-814.2137
 20
-276.1823
 10
-814.2129
 20
-276.2197
 10
-814.2183
 20
-276.2563
 10
-814.2299
 20
-276.2912
 10
-814.2476
 20
-276.3232
 10
-814.2713
 20
-276.3511
 10
-814.2996
 20
-276.3728
 10
-814.3304
 20
-276.3871
 10
-814.3627
 20
-276.3941
 10
-814.3956
 20
-276.3939
 10
-814.428
 20
-276.3866
 10
-814.4589
 20
-276.3724
 10
-814.4875
 20
-276.3512
 10
-814.5127
 20
-276.3233
 10
-814.5327
 20
-276.2904
 10
-814.5463
 20
-276.2549
 10
-814.5535
 20
-276.2179
 10
-814.5543
 20
-276.1806
 10
-814.5488
 20
-276.144
 10
-814.5372
 20
-276.1092
 10
-814.5194
 20
-276.0773
 10
-814.4955
 20
-276.0495
 10
-814.4672
 20
-276.0276
 10
-814.4365
 20
-276.0132
 10
-814.4042
 20
-276.0062
 10
-814.3714
 20
-276.0063
 10
-814.339
 20
-276.0136
 10
-814.3081
 20
-276.0278
 10
-814.2795
 20
-276.049
 10
-814.2542
 20
-276.0769
  0
LWPOLYLINE
  5
E8
330
1F
100
AcDbEntity
  8
Layer 1
 62
     7
370
    18
100
AcDbPolyline
 90
       33
 70
     1
 43
0.0
 10
-816.2438
 20
-274.7988
 10
-816.1314
 20
-274.9799
 10
-816.0521
 20
-275.1727
 10
-816.0057
 20
-275.3714
 10
-815.9921
 20
-275.5701
 10
-816.0112
 20
-275.7631
 10
-816.0631
 20
-275.9445
 10
-816.1475
 20
-276.1084
 10
-816.2645
 20
-276.2491
 10
-816.4067
 20
-276.3558
 10
-816.5637
 20
-276.4223
 10
-816.7303
 20
-276.4494
 10
-816.9014
 20
-276.4381
 10
-817.072
 20
-276.3893
 10
-817.237
 20
-276.3038
 10
-817.3912
 20
-276.1826
 10
-817.5297
 20
-276.0265
 10
-817.6421
 20
-275.8454
 10
-817.7214
 20
-275.6526
 10
-817.7678
 20
-275.4538
 10
-817.7814
 20
-275.255
 10
-817.7623
 20
-275.0619
 10
-817.7104
 20
-274.8805
 10
-817.626
 20
-274.7165
 10
-817.509
 20
-274.5758
 10
-817.3668
 20
-274.4691
 10
-817.2098
 20
-274.4027
 10
-817.0432
 20
-274.3756
 10
-816.8721
 20
-274.387
 10
-816.7015
 20
-274.4359
 10
-816.5365
 20
-274.5214
 10
-816.3823
 20
-274.6427
 10
-816.2438
 20
-274.7988
  0
LWPOLYLINE
  5
E9
330
1F
100
AcDbEntity
  8
Layer 1
 62
     7
370
    18
100
AcDbPolyline
 90
       33
 70
     1
 43
0.0
 10
-816.5305
 20
-275.8383
 10
-816.5078
 20
-275.8758
 10
-816.4924
 20
-275.9162
 10
-816.4843
 20
-275.9583
 10
-816.4834
 20
-276.0009
 10
-816.4896
 20
-276.0426
 10
-816.5028
 20
-276.0822
 10
-816.523
 20
-276.1186
 10
-816.55
 20
-276.1503
 10
-816.5823
 20
-276.1752
 10
-816.6173
 20
-276.1916
 10
-816.6541
 20
-276.1997
 10
-816.6915
 20
-276.1995
 10
-816.7283
 20
-276.1912
 10
-816.7636
 20
-276.175
 10
-816.7961
 20
-276.1508
 10
-816.8248
 20
-276.1189
 10
-816.8477
 20
-276.0815
 10
-816.8632
 20
-276.0411
 10
-816.8714
 20
-275.999
 10
-816.8723
 20
-275.9564
 10
-816.8662
 20
-275.9147
 10
-816.853
 20
-275.8751
 10
-816.8328
 20
-275.8387
 10
-816.8057
 20
-275.807
 10
-816.7733
 20
-275.7821
 10
-816.7382
 20
-275.7657
 10
-816.7014
 20
-275.7576
 10
-816.6639
 20
-275.7578
 10
-816.627
 20
-275.766
 10
-816.5918
 20
-275.7823
 10
-816.5592
 20
-275.8064
 10
-816.5305
 20
-275.8383
  0
LWPOLYLINE
  5
EA
330
1F
100
AcDbEntity
  8
Layer 1
 62
     7
370
    18
100
AcDbPolyline
 90
       33
 70
     1
 43
0.0
 10
-825.3081
 20
-263.4289
 10
-825.1341
 20
-263.4985
 10
-824.989
 20
-263.6009
 10
-824.8747
 20
-263.7312
 10
-824.7932
 20
-263.8846
 10
-824.7463
 20
-264.0563
 10
-824.736
 20
-264.2414
 10
-824.7641
 20
-264.4352
 10
-824.8326
 20
-264.6327
 10
-824.9379
 20
-264.82
 10
-825.0717
 20
-264.9846
 10
-825.2286
 20
-265.1238
 10
-825.4031
 20
-265.2347
 10
-825.59
 20
-265.3144
 10
-825.7838
 20
-265.3602
 10
-825.9791
 20
-265.3691
 10
-826.1707
 20
-265.3384
 10
-826.3448
 20
-265.2687
 10
-826.4899
 20
-265.1664
 10
-826.6043
 20
-265.036
 10
-826.6859
 20
-264.8826
 10
-826.7328
 20
-264.711
 10
-826.7432
 20
-264.5259
 10
-826.7151
 20
-264.3321
 10
-826.6466
 20
-264.1346
 10
-826.5412
 20
-263.9473
 10
-826.4073
 20
-263.7827
 10
-826.2504
 20
-263.6435
 10
-826.0758
 20
-263.5326
 10
-825.8889
 20
-263.4529
 10
-825.6951
 20
-263.4071
 10
-825.4997
 20
-263.3982
 10
-825.3081
 20
-263.4289
  0
LWPOLYLINE
  5
EB
330
1F
100
AcDbEntity
  8
Layer 1
 62
     7
370
    18
100
AcDbPolyline
 90
       33
 70
     1
 43
0.0
 10
-825.3209
 20
-264.5855
 10
-825.2837
 20
-264.6003
 10
-825.2527
 20
-264.6221
 10
-825.2283
 20
-264.6499
 10
-825.2109
 20
-264.6826
 10
-825.2008
 20
-264.7192
 10
-825.1986
 20
-264.7587
 10
-825.2047
 20
-264.8
 10
-825.2193
 20
-264.8422
 10
-825.2417
 20
-264.8821
 10
-825.2702
 20
-264.9173
 10
-825.3036
 20
-264.9469
 10
-825.3408
 20
-264.9706
 10
-825.3807
 20
-264.9876
 10
-825.422
 20
-264.9974
 10
-825.4637
 20
-264.9993
 10
-825.5045
 20
-264.9927
 10
-825.5417
 20
-264.9778
 10
-825.5727
 20
-264.956
 10
-825.5971
 20
-264.9281
 10
-825.6145
 20
-264.8954
 10
-825.6245
 20
-264.8588
 10
-825.6267
 20
-264.8193
 10
-825.6207
 20
-264.778
 10
-825.606
 20
-264.7359
 10
-825.5836
 20
-264.696
 10
-825.5551
 20
-264.6609
 10
-825.5217
 20
-264.6312
 10
-825.4845
 20
-264.6076
 10
-825.4447
 20
-264.5906
 10
-825.4033
 20
-264.5808
 10
-825.3617
 20
-264.5789
 10
-825.3209
 20
-264.5855
  0
LWPOLYLINE
  5
EC
330
1F
100
AcDbEntity
  8
Layer 1
 62
     7
370
    18
100
AcDbPolyline
 90
       33
 70
     1
 43
0.0
 10
-827.7613
 20
-268.9101
 10
-827.5874
 20
-268.9796
 10
-827.4423
 20
-269.0819
 10
-827.3281
 20
-269.2122
 10
-827.2465
 20
-269.3656
 10
-827.1996
 20
-269.5373
 10
-827.1892
 20
-269.7224
 10
-827.2173
 20
-269.9161
 10
-827.2858
 20
-270.1135
 10
-827.3911
 20
-270.3009
 10
-827.5249
 20
-270.4656
 10
-827.6818
 20
-270.6049
 10
-827.8564
 20
-270.7158
 10
-828.0433
 20
-270.7955
 10
-828.2371
 20
-270.8412
 10
-828.4324
 20
-270.85
 10
-828.6239
 20
-270.8191
 10
-828.798
 20
-270.7496
 10
-828.9431
 20
-270.6473
 10
-829.0574
 20
-270.517
 10
-829.139
 20
-270.3636
 10
-829.186
 20
-270.1919
 10
-829.1963
 20
-270.0068
 10
-829.1683
 20
-269.8131
 10
-829.0998
 20
-269.6157
 10
-828.9944
 20
-269.4283
 10
-828.8606
 20
-269.2636
 10
-828.7037
 20
-269.1243
 10
-828.5291
 20
-269.0135
 10
-828.3422
 20
-268.9337
 10
-828.1483
 20
-268.8881
 10
-827.9529
 20
-268.8792
 10
-827.7613
 20
-268.9101
  0
LWPOLYLINE
  5
ED
330
1F
100
AcDbEntity
  8
Layer 1
 62
     7
370
    18
100
AcDbPolyline
 90
       33
 70
     1
 43
0.0
 10
-827.774
 20
-270.0662
 10
-827.7369
 20
-270.0811
 10
-827.706
 20
-270.1029
 10
-827.6817
 20
-270.1308
 10
-827.6643
 20
-270.1635
 10
-827.6542
 20
-270.2001
 10
-827.652
 20
-270.2396
 10
-827.658
 20
-270.2809
 10
-827.6725
 20
-270.323
 10
-827.695
 20
-270.3629
 10
-827.7236
 20
-270.398
 10
-827.757
 20
-270.4277
 10
-827.7942
 20
-270.4513
 10
-827.834
 20
-270.4683
 10
-827.8754
 20
-270.4781
 10
-827.9171
 20
-270.48
 10
-827.958
 20
-270.4734
 10
-827.9951
 20
-270.4586
 10
-828.026
 20
-270.4368
 10
-828.0503
 20
-270.409
 10
-828.0677
 20
-270.3764
 10
-828.0777
 20
-270.3398
 10
-828.0799
 20
-270.3004
 10
-828.0738
 20
-270.2591
 10
-828.0592
 20
-270.217
 10
-828.0368
 20
-270.177
 10
-828.0083
 20
-270.1418
 10
-827.9749
 20
-270.1121
 10
-827.9377
 20
-270.0885
 10
-827.8978
 20
-270.0715
 10
-827.8565
 20
-270.0617
 10
-827.8148
 20
-270.0598
 10
-827.774
 20
-270.0662
  0
LWPOLYLINE
  5
EE
330
1F
100
AcDbEntity
  8
Layer 1
 62
     7
370
    18
100
AcDbPolyline
 90
       33
 70
     1
 43
0.0
 10
-826.3197
 20
-272.7457
 10
-826.1458
 20
-272.8153
 10
-826.0007
 20
-272.9177
 10
-825.8865
 20
-273.048
 10
-825.8049
 20
-273.2014
 10
-825.758
 20
-273.3731
 10
-825.7476
 20
-273.5582
 10
-825.7757
 20
-273.752
 10
-825.8442
 20
-273.9495
 10
-825.9495
 20
-274.1368
 10
-826.0833
 20
-274.3014
 10
-826.2402
 20
-274.4406
 10
-826.4148
 20
-274.5515
 10
-826.6017
 20
-274.6312
 10
-826.7955
 20
-274.677
 10
-826.9908
 20
-274.6859
 10
-827.1823
 20
-274.6552
 10
-827.3563
 20
-274.5855
 10
-827.5015
 20
-274.4832
 10
-827.6158
 20
-274.3528
 10
-827.6974
 20
-274.1994
 10
-827.7443
 20
-274.0278
 10
-827.7547
 20
-273.8427
 10
-827.7266
 20
-273.6489
 10
-827.6581
 20
-273.4514
 10
-827.5528
 20
-273.2641
 10
-827.419
 20
-273.0995
 10
-827.2621
 20
-272.9603
 10
-827.0875
 20
-272.8494
 10
-826.9005
 20
-272.7697
 10
-826.7067
 20
-272.7239
 10
-826.5113
 20
-272.715
 10
-826.3197
 20
-272.7457
  0
LWPOLYLINE
  5
EF
330
1F
100
AcDbEntity
  8
Layer 1
 62
     7
370
    18
100
AcDbPolyline
 90
       33
 70
     1
 43
0.0
 10
-826.3324
 20
-273.9023
 10
-826.2952
 20
-273.9171
 10
-826.2642
 20
-273.9389
 10
-826.2398
 20
-273.9667
 10
-826.2224
 20
-273.9993
 10
-826.2124
 20
-274.0359
 10
-826.2102
 20
-274.0753
 10
-826.2162
 20
-274.1165
 10
-826.2309
 20
-274.1586
 10
-826.2533
 20
-274.1987
 10
-826.2817
 20
-274.2338
 10
-826.3152
 20
-274.2635
 10
-826.3524
 20
-274.2872
 10
-826.3922
 20
-274.3042
 10
-826.4335
 20
-274.314
 10
-826.4752
 20
-274.3159
 10
-826.516
 20
-274.3095
 10
-826.5532
 20
-274.2946
 10
-826.5842
 20
-274.2728
 10
-826.6086
 20
-274.2449
 10
-826.626
 20
-274.2122
 10
-826.636
 20
-274.1756
 10
-826.6382
 20
-274.1361
 10
-826.6322
 20
-274.0948
 10
-826.6175
 20
-274.0527
 10
-826.5951
 20
-274.0128
 10
-826.5667
 20
-273.9777
 10
-826.5332
 20
-273.948
 10
-826.496
 20
-273.9244
 10
-826.4562
 20
-273.9074
 10
-826.4149
 20
-273.8976
 10
-826.3732
 20
-273.8957
 10
-826.3324
 20
-273.9023
  0
LWPOLYLINE
  5
F0
330
1F
100
AcDbEntity
  8
Layer 1
 62
     7
370
    18
100
AcDbPolyline
 90
       33
 70
     1
 43
0.0
 10
-821.9028
 20
-273.8257
 10
-821.7615
 20
-273.8821
 10
-821.6437
 20
-273.9652
 10
-821.5509
 20
-274.0709
 10
-821.4847
 20
-274.1954
 10
-821.4466
 20
-274.3348
 10
-821.4382
 20
-274.485
 10
-821.461
 20
-274.6422
 10
-821.5165
 20
-274.8024
 10
-821.6021
 20
-274.9546
 10
-821.7107
 20
-275.0883
 10
-821.8381
 20
-275.2014
 10
-821.9798
 20
-275.2914
 10
-822.1315
 20
-275.356
 10
-822.2888
 20
-275.3931
 10
-822.4474
 20
-275.4002
 10
-822.6029
 20
-275.3751
 10
-822.744
 20
-275.3187
 10
-822.8617
 20
-275.2356
 10
-822.9544
 20
-275.1299
 10
-823.0206
 20
-275.0054
 10
-823.0587
 20
-274.866
 10
-823.0671
 20
-274.7158
 10
-823.0443
 20
-274.5586
 10
-822.9888
 20
-274.3984
 10
-822.9033
 20
-274.2464
 10
-822.7947
 20
-274.1127
 10
-822.6674
 20
-273.9997
 10
-822.5257
 20
-273.9097
 10
-822.374
 20
-273.845
 10
-822.2167
 20
-273.8079
 10
-822.0582
 20
-273.8007
 10
-821.9028
 20
-273.8257
  0
LWPOLYLINE
  5
F1
330
1F
100
AcDbEntity
  8
Layer 1
 62
     7
370
    18
100
AcDbPolyline
 90
       33
 70
     1
 43
0.0
 10
-821.9127
 20
-274.7643
 10
-821.8826
 20
-274.7763
 10
-821.8574
 20
-274.7941
 10
-821.8377
 20
-274.8166
 10
-821.8236
 20
-274.8432
 10
-821.8155
 20
-274.8729
 10
-821.8137
 20
-274.905
 10
-821.8185
 20
-274.9385
 10
-821.8303
 20
-274.9727
 10
-821.8486
 20
-275.0051
 10
-821.8718
 20
-275.0336
 10
-821.8989
 20
-275.0577
 10
-821.9292
 20
-275.0768
 10
-821.9615
 20
-275.0905
 10
-821.9951
 20
-275.0984
 10
-822.0289
 20
-275.0999
 10
-822.0621
 20
-275.0945
 10
-822.0922
 20
-275.0825
 10
-822.1174
 20
-275.0648
 10
-822.1371
 20
-275.0422
 10
-822.1512
 20
-275.0157
 10
-822.1593
 20
-274.9861
 10
-822.1611
 20
-274.9541
 10
-822.1563
 20
-274.9207
 10
-822.1445
 20
-274.8866
 10
-822.1262
 20
-274.8542
 10
-822.103
 20
-274.8256
 10
-822.0759
 20
-274.8015
 10
-822.0457
 20
-274.7823
 10
-822.0133
 20
-274.7685
 10
-821.9798
 20
-274.7605
 10
-821.9459
 20
-274.759
 10
-821.9127
 20
-274.7643
  0
LWPOLYLINE
  5
F2
330
1F
100
AcDbEntity
  8
Layer 1
 62
     7
370
    18
100
AcDbPolyline
 90
       33
 70
     1
 43
0.0
 10
-816.0483
 20
-271.4439
 10
-815.907
 20
-271.5003
 10
-815.7892
 20
-271.5834
 10
-815.6964
 20
-271.6891
 10
-815.6302
 20
-271.8136
 10
-815.5921
 20
-271.953
 10
-815.5837
 20
-272.1032
 10
-815.6065
 20
-272.2604
 10
-815.662
 20
-272.4206
 10
-815.7476
 20
-272.5726
 10
-815.8562
 20
-272.7063
 10
-815.9836
 20
-272.8193
 10
-816.1253
 20
-272.9093
 10
-816.277
 20
-272.974
 10
-816.4343
 20
-273.0111
 10
-816.5929
 20
-273.0184
 10
-816.7484
 20
-272.9934
 10
-816.8895
 20
-272.9369
 10
-817.0072
 20
-272.8539
 10
-817.0999
 20
-272.7481
 10
-817.1661
 20
-272.6236
 10
-817.2042
 20
-272.4842
 10
-817.2126
 20
-272.334
 10
-817.1898
 20
-272.1768
 10
-817.1343
 20
-272.0166
 10
-817.0488
 20
-271.8646
 10
-816.9402
 20
-271.7309
 10
-816.8129
 20
-271.6179
 10
-816.6712
 20
-271.5279
 10
-816.5195
 20
-271.4632
 10
-816.3622
 20
-271.4261
 10
-816.2037
 20
-271.4189
 10
-816.0483
 20
-271.4439
  0
LWPOLYLINE
  5
F3
330
1F
100
AcDbEntity
  8
Layer 1
 62
     7
370
    18
100
AcDbPolyline
 90
       33
 70
     1
 43
0.0
 10
-816.0582
 20
-272.3821
 10
-816.0281
 20
-272.3941
 10
-816.0029
 20
-272.4119
 10
-815.9832
 20
-272.4344
 10
-815.9691
 20
-272.461
 10
-815.961
 20
-272.4907
 10
-815.9592
 20
-272.5228
 10
-815.964
 20
-272.5563
 10
-815.9758
 20
-272.5905
 10
-815.9941
 20
-272.6229
 10
-816.0173
 20
-272.6515
 10
-816.0444
 20
-272.6756
 10
-816.0746
 20
-272.6948
 10
-816.107
 20
-272.7086
 10
-816.1405
 20
-272.7165
 10
-816.1744
 20
-272.7181
 10
-816.2076
 20
-272.7127
 10
-816.2377
 20
-272.7007
 10
-816.2629
 20
-272.683
 10
-816.2826
 20
-272.6604
 10
-816.2967
 20
-272.6339
 10
-816.3048
 20
-272.6042
 10
-816.3066
 20
-272.5721
 10
-816.3018
 20
-272.5386
 10
-816.29
 20
-272.5044
 10
-816.2717
 20
-272.472
 10
-816.2485
 20
-272.4434
 10
-816.2214
 20
-272.4193
 10
-816.1911
 20
-272.4001
 10
-816.1588
 20
-272.3863
 10
-816.1252
 20
-272.3783
 10
-816.0914
 20
-272.3768
 10
-816.0582
 20
-272.3821
  0
LWPOLYLINE
  5
F4
330
1F
100
AcDbEntity
  8
Layer 1
 62
     7
370
    18
100
AcDbPolyline
 90
       33
 70
     1
 43
0.0
 10
-810.8843
 20
-266.7386
 10
-810.7432
 20
-266.7951
 10
-810.6255
 20
-266.8781
 10
-810.5328
 20
-266.9839
 10
-810.4666
 20
-267.1084
 10
-810.4285
 20
-267.2477
 10
-810.4201
 20
-267.3979
 10
-810.4429
 20
-267.5552
 10
-810.4984
 20
-267.7154
 10
-810.5838
 20
-267.8674
 10
-810.6924
 20
-268.0011
 10
-810.8198
 20
-268.114
 10
-810.9615
 20
-268.204
 10
-811.1132
 20
-268.2687
 10
-811.2705
 20
-268.3058
 10
-811.429
 20
-268.3131
 10
-811.5844
 20
-268.2881
 10
-811.7257
 20
-268.2317
 10
-811.8434
 20
-268.1486
 10
-811.9362
 20
-268.0429
 10
-812.0024
 20
-267.9184
 10
-812.0405
 20
-267.779
 10
-812.049
 20
-267.6288
 10
-812.0262
 20
-267.4716
 10
-811.9707
 20
-267.3114
 10
-811.8851
 20
-267.1593
 10
-811.7765
 20
-267.0256
 10
-811.6491
 20
-266.9126
 10
-811.5074
 20
-266.8226
 10
-811.3557
 20
-266.7578
 10
-811.1984
 20
-266.7207
 10
-811.0398
 20
-266.7135
 10
-810.8843
 20
-266.7386
  0
LWPOLYLINE
  5
F5
330
1F
100
AcDbEntity
  8
Layer 1
 62
     7
370
    18
100
AcDbPolyline
 90
       33
 70
     1
 43
0.0
 10
-810.8946
 20
-267.6769
 10
-810.8645
 20
-267.6889
 10
-810.8393
 20
-267.7067
 10
-810.8196
 20
-267.7292
 10
-810.8055
 20
-267.7558
 10
-810.7974
 20
-267.7855
 10
-810.7956
 20
-267.8176
 10
-810.8004
 20
-267.8511
 10
-810.8122
 20
-267.8853
 10
-810.8305
 20
-267.9177
 10
-810.8537
 20
-267.9463
 10
-810.8808
 20
-267.9704
 10
-810.9111
 20
-267.9896
 10
-810.9434
 20
-268.0034
 10
-810.977
 20
-268.0113
 10
-811.0108
 20
-268.0128
 10
-811.044
 20
-268.0075
 10
-811.074
 20
-267.9955
 10
-811.0991
 20
-267.9777
 10
-811.1188
 20
-267.9552
 10
-811.1329
 20
-267.9286
 10
-811.141
 20
-267.8989
 10
-811.1428
 20
-267.8668
 10
-811.1379
 20
-267.8333
 10
-811.126
 20
-267.7991
 10
-811.1078
 20
-267.7667
 10
-811.0847
 20
-267.7382
 10
-811.0576
 20
-267.7141
 10
-811.0274
 20
-267.6949
 10
-810.995
 20
-267.6811
 10
-810.9615
 20
-267.6731
 10
-810.9277
 20
-267.6716
 10
-810.8946
 20
-267.6769
  0
LWPOLYLINE
  5
F6
330
1F
100
AcDbEntity
  8
Layer 1
 62
     7
370
    18
100
AcDbPolyline
 90
       33
 70
     1
 43
0.0
 10
-808.3431
 20
-261.4396
 10
-808.202
 20
-261.4961
 10
-808.0843
 20
-261.5791
 10
-807.9916
 20
-261.6849
 10
-807.9254
 20
-261.8094
 10
-807.8873
 20
-261.9487
 10
-807.8789
 20
-262.0989
 10
-807.9017
 20
-262.2562
 10
-807.9572
 20
-262.4164
 10
-808.0427
 20
-262.5684
 10
-808.1513
 20
-262.7021
 10
-808.2786
 20
-262.8151
 10
-808.4203
 20
-262.9051
 10
-808.572
 20
-262.9698
 10
-808.7293
 20
-263.0069
 10
-808.8878
 20
-263.0141
 10
-809.0432
 20
-262.9891
 10
-809.1845
 20
-262.9327
 10
-809.3023
 20
-262.8496
 10
-809.3951
 20
-262.7439
 10
-809.4613
 20
-262.6194
 10
-809.4994
 20
-262.48
 10
-809.5078
 20
-262.3298
 10
-809.485
 20
-262.1726
 10
-809.4295
 20
-262.0124
 10
-809.3439
 20
-261.8604
 10
-809.2353
 20
-261.7267
 10
-809.1079
 20
-261.6137
 10
-808.9662
 20
-261.5237
 10
-808.8145
 20
-261.459
 10
-808.6572
 20
-261.4219
 10
-808.4986
 20
-261.4146
 10
-808.3431
 20
-261.4396
  0
LWPOLYLINE
  5
F7
330
1F
100
AcDbEntity
  8
Layer 1
 62
     7
370
    18
100
AcDbPolyline
 90
       33
 70
     1
 43
0.0
 10
-808.3535
 20
-262.3783
 10
-808.3234
 20
-262.3902
 10
-808.2982
 20
-262.4078
 10
-808.2784
 20
-262.4303
 10
-808.2643
 20
-262.4568
 10
-808.2562
 20
-262.4865
 10
-808.2544
 20
-262.5186
 10
-808.2592
 20
-262.5521
 10
-808.271
 20
-262.5863
 10
-808.2893
 20
-262.6187
 10
-808.3125
 20
-262.6473
 10
-808.3397
 20
-262.6714
 10
-808.3699
 20
-262.6906
 10
-808.4023
 20
-262.7044
 10
-808.4358
 20
-262.7123
 10
-808.4696
 20
-262.7138
 10
-808.5028
 20
-262.7085
 10
-808.5328
 20
-262.6965
 10
-808.5579
 20
-262.6787
 10
-808.5777
 20
-262.6562
 10
-808.5918
 20
-262.6296
 10
-808.5999
 20
-262.5999
 10
-808.6017
 20
-262.5678
 10
-808.5968
 20
-262.5343
 10
-808.5849
 20
-262.5001
 10
-808.5667
 20
-262.4677
 10
-808.5436
 20
-262.4392
 10
-808.5164
 20
-262.4152
 10
-808.4862
 20
-262.3961
 10
-808.4538
 20
-262.3823
 10
-808.4203
 20
-262.3745
 10
-808.3866
 20
-262.373
 10
-808.3535
 20
-262.3783
  0
LWPOLYLINE
  5
F8
330
1F
100
AcDbEntity
  8
Layer 1
 62
     7
370
    18
100
AcDbPolyline
 90
       33
 70
     1
 43
0.0
 10
-809.5382
 20
-257.5139
 10
-809.3969
 20
-257.5703
 10
-809.2792
 20
-257.6534
 10
-809.1864
 20
-257.7591
 10
-809.1202
 20
-257.8837
 10
-809.0821
 20
-258.023
 10
-809.0737
 20
-258.1732
 10
-809.0964
 20
-258.3304
 10
-809.152
 20
-258.4907
 10
-809.2376
 20
-258.6427
 10
-809.3462
 20
-258.7763
 10
-809.4735
 20
-258.8893
 10
-809.6152
 20
-258.9793
 10
-809.7669
 20
-259.044
 10
-809.9242
 20
-259.0811
 10
-810.0828
 20
-259.0884
 10
-810.2383
 20
-259.0634
 10
-810.3796
 20
-259.007
 10
-810.4974
 20
-258.9239
 10
-810.5902
 20
-258.8182
 10
-810.6564
 20
-258.6937
 10
-810.6944
 20
-258.5543
 10
-810.7028
 20
-258.4041
 10
-810.6799
 20
-258.2469
 10
-810.6242
 20
-258.0866
 10
-810.5388
 20
-257.9345
 10
-810.4302
 20
-257.8007
 10
-810.3029
 20
-257.6877
 10
-810.1613
 20
-257.5977
 10
-810.0096
 20
-257.533
 10
-809.8523
 20
-257.496
 10
-809.6937
 20
-257.4888
 10
-809.5382
 20
-257.5139
  0
LWPOLYLINE
  5
F9
330
1F
100
AcDbEntity
  8
Layer 1
 62
     7
370
    18
100
AcDbPolyline
 90
       33
 70
     1
 43
0.0
 10
-809.5482
 20
-258.4522
 10
-809.5182
 20
-258.4642
 10
-809.4931
 20
-258.482
 10
-809.4733
 20
-258.5045
 10
-809.4592
 20
-258.5311
 10
-809.4511
 20
-258.5608
 10
-809.4494
 20
-258.5928
 10
-809.4543
 20
-258.6263
 10
-809.4662
 20
-258.6605
 10
-809.4844
 20
-258.6929
 10
-809.5074
 20
-258.7215
 10
-809.5345
 20
-258.7456
 10
-809.5647
 20
-258.7648
 10
-809.597
 20
-258.7786
 10
-809.6305
 20
-258.7866
 10
-809.6643
 20
-258.7881
 10
-809.6975
 20
-258.7828
 10
-809.7277
 20
-258.7708
 10
-809.7528
 20
-258.753
 10
-809.7726
 20
-258.7305
 10
-809.7867
 20
-258.7039
 10
-809.7948
 20
-258.6742
 10
-809.7966
 20
-258.6421
 10
-809.7918
 20
-258.6086
 10
-809.78
 20
-258.5744
 10
-809.7617
 20
-258.542
 10
-809.7385
 20
-258.5134
 10
-809.7114
 20
-258.4893
 10
-809.6811
 20
-258.4701
 10
-809.6488
 20
-258.4563
 10
-809.6152
 20
-258.4484
 10
-809.5814
 20
-258.4469
 10
-809.5482
 20
-258.4522
  0
LWPOLYLINE
  5
FA
330
1F
100
AcDbEntity
  8
Layer 1
 62
     7
370
    18
100
AcDbPolyline
 90
       33
 70
     1
 43
0.0
 10
-813.8102
 20
-256.1311
 10
-813.6349
 20
-256.2012
 10
-813.4887
 20
-256.3043
 10
-813.3735
 20
-256.4356
 10
-813.2913
 20
-256.5902
 10
-813.244
 20
-256.7631
 10
-813.2335
 20
-256.9496
 10
-813.2618
 20
-257.1447
 10
-813.3307
 20
-257.3436
 10
-813.4369
 20
-257.5323
 10
-813.5717
 20
-257.6982
 10
-813.7298
 20
-257.8384
 10
-813.9057
 20
-257.9502
 10
-814.094
 20
-258.0305
 10
-814.2893
 20
-258.0765
 10
-814.4861
 20
-258.0855
 10
-814.6791
 20
-258.0545
 10
-814.8544
 20
-257.9844
 10
-815.0005
 20
-257.8813
 10
-815.1156
 20
-257.75
 10
-815.1978
 20
-257.5954
 10
-815.245
 20
-257.4225
 10
-815.2554
 20
-257.236
 10
-815.2271
 20
-257.0409
 10
-815.1582
 20
-256.842
 10
-815.052
 20
-256.6533
 10
-814.9172
 20
-256.4874
 10
-814.7592
 20
-256.3472
 10
-814.5834
 20
-256.2355
 10
-814.3951
 20
-256.1551
 10
-814.1999
 20
-256.1091
 10
-814.0031
 20
-256.1001
 10
-813.8102
 20
-256.1311
  0
LWPOLYLINE
  5
FB
330
1F
100
AcDbEntity
  8
Layer 1
 62
     7
370
    18
100
AcDbPolyline
 90
       33
 70
     1
 43
0.0
 10
-813.8225
 20
-257.296
 10
-813.7851
 20
-257.3109
 10
-813.754
 20
-257.3329
 10
-813.7295
 20
-257.3609
 10
-813.712
 20
-257.3938
 10
-813.7019
 20
-257.4307
 10
-813.6997
 20
-257.4704
 10
-813.7058
 20
-257.512
 10
-813.7206
 20
-257.5544
 10
-813.7431
 20
-257.5947
 10
-813.7718
 20
-257.6302
 10
-813.8055
 20
-257.6601
 10
-813.8429
 20
-257.6839
 10
-813.883
 20
-257.7011
 10
-813.9246
 20
-257.7108
 10
-813.9666
 20
-257.7127
 10
-814.0077
 20
-257.706
 10
-814.0452
 20
-257.6911
 10
-814.0764
 20
-257.6691
 10
-814.1009
 20
-257.6411
 10
-814.1184
 20
-257.6082
 10
-814.1285
 20
-257.5713
 10
-814.1307
 20
-257.5316
 10
-814.1247
 20
-257.49
 10
-814.11
 20
-257.4476
 10
-814.0873
 20
-257.4074
 10
-814.0586
 20
-257.3721
 10
-814.0248
 20
-257.3422
 10
-813.9873
 20
-257.3184
 10
-813.9472
 20
-257.3012
 10
-813.9056
 20
-257.2914
 10
-813.8636
 20
-257.2894
 10
-813.8225
 20
-257.296
  0
LWPOLYLINE
  5
FC
330
1F
100
AcDbEntity
  8
Layer 1
 62
     7
370
    18
100
AcDbPolyline
 90
       33
 70
     1
 43
0.0
 10
-819.9263
 20
-258.555
 10
-819.751
 20
-258.6251
 10
-819.6048
 20
-258.7282
 10
-819.4897
 20
-258.8595
 10
-819.4075
 20
-259.014
 10
-819.3603
 20
-259.187
 10
-819.3498
 20
-259.3735
 10
-819.3782
 20
-259.5686
 10
-819.4472
 20
-259.7675
 10
-819.5533
 20
-259.9562
 10
-819.688
 20
-260.1221
 10
-819.8461
 20
-260.2623
 10
-820.022
 20
-260.374
 10
-820.2102
 20
-260.4543
 10
-820.4055
 20
-260.5004
 10
-820.6023
 20
-260.5093
 10
-820.7953
 20
-260.4783
 10
-820.9706
 20
-260.4082
 10
-821.1168
 20
-260.3051
 10
-821.2319
 20
-260.1738
 10
-821.3141
 20
-260.0193
 10
-821.3614
 20
-259.8463
 10
-821.3718
 20
-259.6598
 10
-821.3434
 20
-259.4647
 10
-821.2744
 20
-259.2658
 10
-821.1683
 20
-259.0771
 10
-821.0336
 20
-258.9112
 10
-820.8755
 20
-258.771
 10
-820.6997
 20
-258.6593
 10
-820.5114
 20
-258.579
 10
-820.3161
 20
-258.533
 10
-820.1193
 20
-258.524
 10
-819.9263
 20
-258.555
  0
LWPOLYLINE
  5
FD
330
1F
100
AcDbEntity
  8
Layer 1
 62
     7
370
    18
100
AcDbPolyline
 90
       33
 70
     1
 43
0.0
 10
-819.9391
 20
-259.7199
 10
-819.9017
 20
-259.7348
 10
-819.8705
 20
-259.7567
 10
-819.846
 20
-259.7847
 10
-819.8284
 20
-259.8176
 10
-819.8183
 20
-259.8545
 10
-819.8161
 20
-259.8942
 10
-819.822
 20
-259.9358
 10
-819.8367
 20
-259.9782
 10
-819.8594
 20
-260.0186
 10
-819.8882
 20
-260.054
 10
-819.9219
 20
-260.084
 10
-819.9594
 20
-260.1078
 10
-819.9995
 20
-260.1249
 10
-820.0412
 20
-260.1347
 10
-820.0831
 20
-260.1366
 10
-820.1242
 20
-260.1299
 10
-820.1616
 20
-260.115
 10
-820.1928
 20
-260.093
 10
-820.2173
 20
-260.065
 10
-820.2349
 20
-260.0321
 10
-820.245
 20
-259.9952
 10
-820.2472
 20
-259.9555
 10
-820.2413
 20
-259.9139
 10
-820.2266
 20
-259.8715
 10
-820.2039
 20
-259.8313
 10
-820.1751
 20
-259.796
 10
-820.1414
 20
-259.7661
 10
-820.1039
 20
-259.7423
 10
-820.0638
 20
-259.7251
 10
-820.0221
 20
-259.7153
 10
-819.9802
 20
-259.7133
 10
-819.9391
 20
-259.7199
  0
LWPOLYLINE
  5
FE
330
1F
100
AcDbEntity
  8
Layer 1
 62
     7
370
    18
100
AcDbPolyline
 90
       65
 70
     1
 43
0.0
 10
-821.1754
 20
-264.2882
 10
-821.2711
 20
-264.1956
 10
-821.3854
 20
-264.1321
 10
-821.5141
 20
-264.0973
 10
-821.6529
 20
-264.0911
 10
-821.7976
 20
-264.1132
 10
-821.9441
 20
-264.1634
 10
-822.088
 20
-264.2414
 10
-822.2252
 20
-264.347
 10
-822.3074
 20
-264.4289
 10
-822.3791
 20
-264.5166
 10
-822.4401
 20
-264.6087
 10
-822.49
 20
-264.704
 10
-822.5287
 20
-264.8013
 10
-822.5559
 20
-264.8993
 10
-822.5713
 20
-264.9967
 10
-822.5746
 20
-265.0922
 10
-822.6625
 20
-265.1072
 10
-822.7507
 20
-265.1343
 10
-822.8381
 20
-265.1733
 10
-822.9237
 20
-265.2238
 10
-823.0064
 20
-265.2853
 10
-823.085
 20
-265.3575
 10
-823.1585
 20
-265.4401
 10
-823.2259
 20
-265.5326
 10
-823.3116
 20
-265.6873
 10
-823.3706
 20
-265.8463
 10
-823.4032
 20
-266.0052
 10
-823.4094
 20
-266.1594
 10
-823.3896
 20
-266.3045
 10
-823.3439
 20
-266.4361
 10
-823.2725
 20
-266.5497
 10
-823.1756
 20
-266.6409
 10
-823.0592
 20
-266.7024
 10
-822.932
 20
-266.731
 10
-822.798
 20
-266.728
 10
-822.6613
 20
-266.695
 10
-822.5258
 20
-266.6333
 10
-822.3957
 20
-266.5443
 10
-822.275
 20
-266.4294
 10
-822.1678
 20
-266.2901
 10
-822.1198
 20
-266.2103
 10
-822.079
 20
-266.1287
 10
-822.0455
 20
-266.046
 10
-822.0193
 20
-265.9629
 10
-822.0002
 20
-265.8798
 10
-821.9883
 20
-265.7976
 10
-821.9835
 20
-265.7168
 10
-821.9858
 20
-265.638
 10
-821.9129
 20
-265.6312
 10
-821.8391
 20
-265.6171
 10
-821.7647
 20
-265.5958
 10
-821.6904
 20
-265.5673
 10
-821.6167
 20
-265.5316
 10
-821.5442
 20
-265.4887
 10
-821.4734
 20
-265.4388
 10
-821.4048
 20
-265.3817
 10
-821.2842
 20
-265.2551
 10
-821.1881
 20
-265.1168
 10
-821.1173
 20
-264.9713
 10
-821.0727
 20
-264.8228
 10
-821.0553
 20
-264.6759
 10
-821.066
 20
-264.5349
 10
-821.1057
 20
-264.4042
 10
-821.1754
 20
-264.2882
  0
LWPOLYLINE
  5
FF
330
1F
100
AcDbEntity
  8
Layer 1
 62
     7
370
    18
100
AcDbPolyline
 90
       33
 70
     1
 43
0.0
 10
-821.6224
 20
-264.7319
 10
-821.6009
 20
-264.76
 10
-821.5878
 20
-264.7945
 10
-821.5831
 20
-264.8338
 10
-821.5864
 20
-264.8769
 10
-821.5975
 20
-264.9222
 10
-821.6163
 20
-264.9685
 10
-821.6424
 20
-265.0146
 10
-821.6758
 20
-265.059
 10
-821.7142
 20
-265.0986
 10
-821.755
 20
-265.1307
 10
-821.7968
 20
-265.1551
 10
-821.8384
 20
-265.1713
 10
-821.8787
 20
-265.1791
 10
-821.9163
 20
-265.1781
 10
-821.9501
 20
-265.168
 10
-821.9789
 20
-265.1483
 10
-822.0004
 20
-265.12
 10
-822.0134
 20
-265.0855
 10
-822.0182
 20
-265.0461
 10
-822.0149
 20
-265.0031
 10
-822.0037
 20
-264.9577
 10
-821.9849
 20
-264.9114
 10
-821.9586
 20
-264.8655
 10
-821.9251
 20
-264.8212
 10
-821.8867
 20
-264.7816
 10
-821.8459
 20
-264.7494
 10
-821.8041
 20
-264.725
 10
-821.7625
 20
-264.7087
 10
-821.7223
 20
-264.7008
 10
-821.6848
 20
-264.7019
 10
-821.651
 20
-264.7121
 10
-821.6224
 20
-264.7319
  0
LWPOLYLINE
  5
100
330
1F
100
AcDbEntity
  8
Layer 1
 62
     7
370
    18
100
AcDbPolyline
 90
       33
 70
     1
 43
0.0
 10
-822.5324
 20
-265.7551
 10
-822.5109
 20
-265.7832
 10
-822.4979
 20
-265.8177
 10
-822.4932
 20
-265.857
 10
-822.4966
 20
-265.9001
 10
-822.5078
 20
-265.9454
 10
-822.5266
 20
-265.9917
 10
-822.5528
 20
-266.0378
 10
-822.5862
 20
-266.0822
 10
-822.6246
 20
-266.1218
 10
-822.6653
 20
-266.1539
 10
-822.7071
 20
-266.1783
 10
-822.7487
 20
-266.1945
 10
-822.789
 20
-266.2023
 10
-822.8266
 20
-266.2013
 10
-822.8604
 20
-266.1912
 10
-822.8892
 20
-266.1715
 10
-822.9107
 20
-266.1432
 10
-822.9238
 20
-266.1087
 10
-822.9285
 20
-266.0693
 10
-822.9252
 20
-266.0262
 10
-822.914
 20
-265.9808
 10
-822.8952
 20
-265.9345
 10
-822.869
 20
-265.8884
 10
-822.8355
 20
-265.844
 10
-822.7971
 20
-265.8045
 10
-822.7563
 20
-265.7725
 10
-822.7145
 20
-265.7481
 10
-822.6729
 20
-265.7318
 10
-822.6326
 20
-265.724
 10
-822.595
 20
-265.7251
 10
-822.5612
 20
-265.7353
 10
-822.5324
 20
-265.7551
  0
LWPOLYLINE
  5
101
330
1F
100
AcDbEntity
  8
Layer 1
 62
     7
370
    18
100
AcDbPolyline
 90
       65
 70
     1
 43
0.0
 10
-815.5625
 20
-261.1774
 10
-815.609
 20
-261.0528
 10
-815.6848
 20
-260.9465
 10
-815.786
 20
-260.86
 10
-815.9086
 20
-260.795
 10
-816.0488
 20
-260.7529
 10
-816.2027
 20
-260.7355
 10
-816.3663
 20
-260.7443
 10
-816.5357
 20
-260.7809
 10
-816.6453
 20
-260.8197
 10
-816.7478
 20
-260.8681
 10
-816.8426
 20
-260.9252
 10
-816.9288
 20
-260.9899
 10
-817.0057
 20
-261.0611
 10
-817.0725
 20
-261.1379
 10
-817.1283
 20
-261.2193
 10
-817.1725
 20
-261.3041
 10
-817.2583
 20
-261.28
 10
-817.3497
 20
-261.2667
 10
-817.4455
 20
-261.2645
 10
-817.5445
 20
-261.2734
 10
-817.6457
 20
-261.2936
 10
-817.7478
 20
-261.3251
 10
-817.8498
 20
-261.3682
 10
-817.9505
 20
-261.4229
 10
-818.0946
 20
-261.5259
 10
-818.2165
 20
-261.6441
 10
-818.3143
 20
-261.7736
 10
-818.3865
 20
-261.9102
 10
-818.4312
 20
-262.0497
 10
-818.4467
 20
-262.1881
 10
-818.4312
 20
-262.3213
 10
-818.383
 20
-262.4451
 10
-818.3044
 20
-262.5505
 10
-818.2019
 20
-262.6307
 10
-818.0796
 20
-262.6855
 10
-817.9419
 20
-262.7142
 10
-817.793
 20
-262.7165
 10
-817.6371
 20
-262.6919
 10
-817.4786
 20
-262.6399
 10
-817.3217
 20
-262.56
 10
-817.2439
 20
-262.5085
 10
-817.172
 20
-262.4523
 10
-817.1061
 20
-262.392
 10
-817.0465
 20
-262.3281
 10
-816.9935
 20
-262.2614
 10
-816.9473
 20
-262.1922
 10
-816.9081
 20
-262.1213
 10
-816.8762
 20
-262.0491
 10
-816.8075
 20
-262.0742
 10
-816.7347
 20
-262.0931
 10
-816.6584
 20
-262.1057
 10
-816.579
 20
-262.1118
 10
-816.4971
 20
-262.1111
 10
-816.4131
 20
-262.1035
 10
-816.3276
 20
-262.0887
 10
-816.2411
 20
-262.0666
 10
-816.0777
 20
-262.0039
 10
-815.9312
 20
-261.9202
 10
-815.8045
 20
-261.8191
 10
-815.7003
 20
-261.7042
 10
-815.6212
 20
-261.5789
 10
-815.5701
 20
-261.447
 10
-815.5496
 20
-261.312
 10
-815.5625
 20
-261.1774
  0
LWPOLYLINE
  5
102
330
1F
100
AcDbEntity
  8
Layer 1
 62
     7
370
    18
100
AcDbPolyline
 90
       33
 70
     1
 43
0.0
 10
-816.1574
 20
-261.3864
 10
-816.1501
 20
-261.4211
 10
-816.1532
 20
-261.4579
 10
-816.1659
 20
-261.4956
 10
-816.1875
 20
-261.5331
 10
-816.217
 20
-261.5693
 10
-816.2539
 20
-261.6031
 10
-816.2973
 20
-261.6334
 10
-816.3465
 20
-261.6591
 10
-816.3983
 20
-261.6783
 10
-816.449
 20
-261.6899
 10
-816.4973
 20
-261.694
 10
-816.5419
 20
-261.6909
 10
-816.5816
 20
-261.6808
 10
-816.6152
 20
-261.6637
 10
-816.6413
 20
-261.6401
 10
-816.6588
 20
-261.6099
 10
-816.666
 20
-261.5752
 10
-816.6629
 20
-261.5385
 10
-816.6502
 20
-261.5009
 10
-816.6287
 20
-261.4634
 10
-816.599
 20
-261.4272
 10
-816.5621
 20
-261.3934
 10
-816.5185
 20
-261.363
 10
-816.4692
 20
-261.3372
 10
-816.4175
 20
-261.318
 10
-816.3669
 20
-261.3065
 10
-816.3187
 20
-261.3024
 10
-816.2742
 20
-261.3056
 10
-816.2345
 20
-261.3157
 10
-816.2009
 20
-261.3327
 10
-816.1748
 20
-261.3564
 10
-816.1574
 20
-261.3864
  0
LWPOLYLINE
  5
103
330
1F
100
AcDbEntity
  8
Layer 1
 62
     7
370
    18
100
AcDbPolyline
 90
       33
 70
     1
 43
0.0
 10
-817.4202
 20
-261.9207
 10
-817.413
 20
-261.9553
 10
-817.4161
 20
-261.9919
 10
-817.4288
 20
-262.0295
 10
-817.4504
 20
-262.0669
 10
-817.48
 20
-262.1031
 10
-817.517
 20
-262.1369
 10
-817.5605
 20
-262.1672
 10
-817.6098
 20
-262.1929
 10
-817.6616
 20
-262.2121
 10
-817.7123
 20
-262.2237
 10
-817.7606
 20
-262.2278
 10
-817.8052
 20
-262.2247
 10
-817.8449
 20
-262.2146
 10
-817.8784
 20
-262.1976
 10
-817.9045
 20
-262.1739
 10
-817.922
 20
-262.1437
 10
-817.9292
 20
-262.109
 10
-817.9261
 20
-262.0723
 10
-817.9134
 20
-262.0347
 10
-817.8919
 20
-261.9973
 10
-817.8622
 20
-261.9612
 10
-817.8253
 20
-261.9275
 10
-817.7817
 20
-261.8972
 10
-817.7324
 20
-261.8715
 10
-817.6806
 20
-261.8522
 10
-817.6299
 20
-261.8405
 10
-817.5816
 20
-261.8364
 10
-817.537
 20
-261.8395
 10
-817.4973
 20
-261.8497
 10
-817.4638
 20
-261.8668
 10
-817.4377
 20
-261.8905
 10
-817.4202
 20
-261.9207
  0
LWPOLYLINE
  5
104
330
1F
100
AcDbEntity
  8
Layer 1
 62
     7
370
    18
100
AcDbPolyline
 90
       65
 70
     1
 43
0.0
 10
-812.4464
 20
-263.7523
 10
-812.3437
 20
-263.703
 10
-812.2588
 20
-263.6303
 10
-812.1929
 20
-263.5376
 10
-812.1471
 20
-263.4283
 10
-812.1222
 20
-263.306
 10
-812.1195
 20
-263.1741
 10
-812.1399
 20
-263.036
 10
-812.1846
 20
-262.8951
 10
-812.2264
 20
-262.8052
 10
-812.2759
 20
-262.722
 10
-812.3322
 20
-262.6461
 10
-812.3943
 20
-262.578
 10
-812.4612
 20
-262.5184
 10
-812.5321
 20
-262.4678
 10
-812.606
 20
-262.4268
 10
-812.682
 20
-262.396
 10
-812.6682
 20
-262.3213
 10
-812.6641
 20
-262.2427
 10
-812.6697
 20
-262.1613
 10
-812.6852
 20
-262.078
 10
-812.7104
 20
-261.9937
 10
-812.7454
 20
-261.9095
 10
-812.7903
 20
-261.8263
 10
-812.845
 20
-261.7452
 10
-812.9444
 20
-261.6311
 10
-813.055
 20
-261.537
 10
-813.1734
 20
-261.4642
 10
-813.2958
 20
-261.4138
 10
-813.4186
 20
-261.3869
 10
-813.5381
 20
-261.3847
 10
-813.6506
 20
-261.4084
 10
-813.7526
 20
-261.4591
 10
-813.8364
 20
-261.5341
 10
-813.8969
 20
-261.6275
 10
-813.934
 20
-261.7355
 10
-813.9476
 20
-261.8547
 10
-813.9378
 20
-261.9813
 10
-813.9044
 20
-262.1116
 10
-813.8474
 20
-262.242
 10
-813.7667
 20
-262.3688
 10
-813.7166
 20
-262.4307
 10
-813.6629
 20
-262.4873
 10
-813.6062
 20
-262.5384
 10
-813.5469
 20
-262.584
 10
-813.4857
 20
-262.6237
 10
-813.4229
 20
-262.6574
 10
-813.3592
 20
-262.6851
 10
-813.2951
 20
-262.7064
 10
-813.3111
 20
-262.7667
 10
-813.3215
 20
-262.8299
 10
-813.3262
 20
-262.8957
 10
-813.3251
 20
-262.9636
 10
-813.318
 20
-263.033
 10
-813.3049
 20
-263.1037
 10
-813.2855
 20
-263.1751
 10
-813.2597
 20
-263.2467
 10
-813.1932
 20
-263.3805
 10
-813.1102
 20
-263.4981
 10
-813.0138
 20
-263.5977
 10
-812.9074
 20
-263.6771
 10
-812.7941
 20
-263.7342
 10
-812.6774
 20
-263.7672
 10
-812.5604
 20
-263.7739
 10
-812.4464
 20
-263.7523
  0
LWPOLYLINE
  5
105
330
1F
100
AcDbEntity
  8
Layer 1
 62
     7
370
    18
100
AcDbPolyline
 90
       33
 70
     1
 43
0.0
 10
-812.672
 20
-263.2642
 10
-812.7011
 20
-263.2731
 10
-812.7327
 20
-263.2733
 10
-812.7659
 20
-263.2655
 10
-812.7997
 20
-263.2502
 10
-812.8329
 20
-263.2279
 10
-812.8648
 20
-263.1992
 10
-812.8942
 20
-263.1647
 10
-812.9201
 20
-263.1249
 10
-812.9405
 20
-263.0824
 10
-812.9544
 20
-263.0403
 10
-812.9617
 20
-262.9997
 10
-812.9625
 20
-262.9616
 10
-812.957
 20
-262.9272
 10
-812.9451
 20
-262.8974
 10
-812.927
 20
-262.8734
 10
-812.9026
 20
-262.8562
 10
-812.8735
 20
-262.8473
 10
-812.8419
 20
-262.847
 10
-812.8088
 20
-262.8548
 10
-812.7752
 20
-262.8702
 10
-812.7419
 20
-262.8925
 10
-812.7102
 20
-262.9212
 10
-812.6808
 20
-262.9557
 10
-812.6549
 20
-262.9955
 10
-812.6343
 20
-263.0379
 10
-812.6204
 20
-263.08
 10
-812.6131
 20
-263.1206
 10
-812.6122
 20
-263.1587
 10
-812.6177
 20
-263.1932
 10
-812.6296
 20
-263.223
 10
-812.6477
 20
-263.247
 10
-812.672
 20
-263.2642
  0
LWPOLYLINE
  5
106
330
1F
100
AcDbEntity
  8
Layer 1
 62
     7
370
    18
100
AcDbPolyline
 90
       33
 70
     1
 43
0.0
 10
-813.2283
 20
-262.2346
 10
-813.2574
 20
-262.2435
 10
-813.289
 20
-262.2437
 10
-813.3221
 20
-262.2359
 10
-813.3558
 20
-262.2206
 10
-813.389
 20
-262.1983
 10
-813.4207
 20
-262.1696
 10
-813.4501
 20
-262.1351
 10
-813.476
 20
-262.0953
 10
-813.4966
 20
-262.0529
 10
-813.5105
 20
-262.0108
 10
-813.5178
 20
-261.9702
 10
-813.5187
 20
-261.9321
 10
-813.5131
 20
-261.8976
 10
-813.5011
 20
-261.8678
 10
-813.4829
 20
-261.8438
 10
-813.4585
 20
-261.8266
 10
-813.4295
 20
-261.8177
 10
-813.398
 20
-261.8175
 10
-813.3649
 20
-261.8253
 10
-813.3312
 20
-261.8406
 10
-813.2979
 20
-261.8629
 10
-813.2661
 20
-261.8916
 10
-813.2367
 20
-261.9261
 10
-813.2108
 20
-261.9659
 10
-813.1903
 20
-262.0082
 10
-813.1764
 20
-262.0502
 10
-813.169
 20
-262.0909
 10
-813.1682
 20
-262.129
 10
-813.1738
 20
-262.1635
 10
-813.1857
 20
-262.1933
 10
-813.2039
 20
-262.2174
 10
-813.2283
 20
-262.2346
  0
LWPOLYLINE
  5
107
330
1F
100
AcDbEntity
  8
Layer 1
 62
     7
370
    18
100
AcDbPolyline
 90
       65
 70
     1
 43
0.0
 10
-817.6817
 20
-270.218
 10
-817.7158
 20
-270.0895
 10
-817.7808
 20
-269.9763
 10
-817.873
 20
-269.8803
 10
-817.9887
 20
-269.8036
 10
-818.1241
 20
-269.7481
 10
-818.2755
 20
-269.7158
 10
-818.4392
 20
-269.7086
 10
-818.6114
 20
-269.7285
 10
-818.7242
 20
-269.7564
 10
-818.831
 20
-269.7946
 10
-818.9309
 20
-269.8422
 10
-819.0231
 20
-269.8982
 10
-819.1066
 20
-269.9616
 10
-819.1806
 20
-270.0316
 10
-819.2441
 20
-270.1071
 10
-819.2964
 20
-270.1872
 10
-819.3795
 20
-270.1548
 10
-819.4691
 20
-270.1327
 10
-819.5642
 20
-270.1212
 10
-819.6636
 20
-270.1204
 10
-819.7663
 20
-270.1306
 10
-819.871
 20
-270.1521
 10
-819.9767
 20
-270.185
 10
-820.0823
 20
-270.2296
 10
-820.2358
 20
-270.3181
 10
-820.3687
 20
-270.4239
 10
-820.4788
 20
-270.5432
 10
-820.564
 20
-270.6721
 10
-820.6222
 20
-270.8067
 10
-820.6512
 20
-270.9429
 10
-820.6488
 20
-271.077
 10
-820.613
 20
-271.2049
 10
-820.5451
 20
-271.3174
 10
-820.451
 20
-271.4073
 10
-820.3346
 20
-271.4737
 10
-820.2004
 20
-271.5157
 10
-820.0524
 20
-271.5324
 10
-819.8949
 20
-271.5231
 10
-819.7321
 20
-271.4867
 10
-819.5681
 20
-271.4225
 10
-819.4857
 20
-271.3788
 10
-819.4085
 20
-271.3299
 10
-819.337
 20
-271.2763
 10
-819.2715
 20
-271.2186
 10
-819.2121
 20
-271.1573
 10
-819.1594
 20
-271.093
 10
-819.1134
 20
-271.0262
 10
-819.0746
 20
-270.9575
 10
-819.0087
 20
-270.9891
 10
-818.9381
 20
-271.0151
 10
-818.8634
 20
-271.035
 10
-818.785
 20
-271.0488
 10
-818.7034
 20
-271.0561
 10
-818.6191
 20
-271.0567
 10
-818.5325
 20
-271.0503
 10
-818.4443
 20
-271.0367
 10
-818.2755
 20
-270.9903
 10
-818.1215
 20
-270.9213
 10
-817.9855
 20
-270.833
 10
-817.8705
 20
-270.7288
 10
-817.7795
 20
-270.6119
 10
-817.7157
 20
-270.4856
 10
-817.6821
 20
-270.3532
 10
-817.6817
 20
-270.218
  0
LWPOLYLINE
  5
108
330
1F
100
AcDbEntity
  8
Layer 1
 62
     7
370
    18
100
AcDbPolyline
 90
       33
 70
     1
 43
0.0
 10
-818.2939
 20
-270.3683
 10
-818.2902
 20
-270.4035
 10
-818.2969
 20
-270.4397
 10
-818.3133
 20
-270.4759
 10
-818.3385
 20
-270.5111
 10
-818.3715
 20
-270.5442
 10
-818.4116
 20
-270.5742
 10
-818.4578
 20
-270.6002
 10
-818.5094
 20
-270.6211
 10
-818.5628
 20
-270.6351
 10
-818.6143
 20
-270.6416
 10
-818.6627
 20
-270.6409
 10
-818.7068
 20
-270.6334
 10
-818.7453
 20
-270.6194
 10
-818.7771
 20
-270.5991
 10
-818.8008
 20
-270.573
 10
-818.8152
 20
-270.5413
 10
-818.819
 20
-270.5061
 10
-818.8124
 20
-270.4699
 10
-818.796
 20
-270.4337
 10
-818.7708
 20
-270.3986
 10
-818.7378
 20
-270.3655
 10
-818.6977
 20
-270.3355
 10
-818.6514
 20
-270.3097
 10
-818.5998
 20
-270.2889
 10
-818.5464
 20
-270.2748
 10
-818.4949
 20
-270.2682
 10
-818.4464
 20
-270.2688
 10
-818.4023
 20
-270.2762
 10
-818.3638
 20
-270.2902
 10
-818.3321
 20
-270.3105
 10
-818.3084
 20
-270.3366
 10
-818.2939
 20
-270.3683
  0
LWPOLYLINE
  5
109
330
1F
100
AcDbEntity
  8
Layer 1
 62
     7
370
    18
100
AcDbPolyline
 90
       33
 70
     1
 43
0.0
 10
-819.6034
 20
-270.7767
 10
-819.5997
 20
-270.8119
 10
-819.6064
 20
-270.8481
 10
-819.6228
 20
-270.8843
 10
-819.6479
 20
-270.9194
 10
-819.6809
 20
-270.9525
 10
-819.721
 20
-270.9825
 10
-819.7672
 20
-271.0083
 10
-819.8188
 20
-271.0291
 10
-819.8722
 20
-271.0432
 10
-819.9237
 20
-271.0498
 10
-819.9722
 20
-271.0492
 10
-820.0163
 20
-271.0418
 10
-820.0548
 20
-271.0278
 10
-820.0865
 20
-271.0075
 10
-820.1102
 20
-270.9814
 10
-820.1246
 20
-270.9497
 10
-820.1284
 20
-270.9145
 10
-820.1218
 20
-270.8783
 10
-820.1054
 20
-270.8421
 10
-820.0802
 20
-270.807
 10
-820.0472
 20
-270.7739
 10
-820.0071
 20
-270.7439
 10
-819.9608
 20
-270.7181
 10
-819.9092
 20
-270.6973
 10
-819.8558
 20
-270.6832
 10
-819.8043
 20
-270.6766
 10
-819.7558
 20
-270.6772
 10
-819.7118
 20
-270.6846
 10
-819.6732
 20
-270.6986
 10
-819.6415
 20
-270.7189
 10
-819.6178
 20
-270.745
 10
-819.6034
 20
-270.7767
  0
LWPOLYLINE
  5
10A
330
1F
100
AcDbEntity
  8
Layer 1
 62
     7
370
    18
100
AcDbPolyline
 90
       65
 70
     1
 43
0.0
 10
-813.3831
 20
-265.8747
 10
-813.4906
 20
-265.796
 10
-813.6125
 20
-265.7487
 10
-813.7447
 20
-265.7318
 10
-813.8831
 20
-265.7446
 10
-814.0234
 20
-265.7862
 10
-814.1616
 20
-265.8559
 10
-814.2935
 20
-265.9529
 10
-814.4149
 20
-266.0762
 10
-814.4851
 20
-266.1686
 10
-814.544
 20
-266.2652
 10
-814.5918
 20
-266.3648
 10
-814.6282
 20
-266.466
 10
-814.6531
 20
-266.5677
 10
-814.6666
 20
-266.6684
 10
-814.6684
 20
-266.767
 10
-814.6586
 20
-266.8621
 10
-814.7436
 20
-266.8889
 10
-814.8272
 20
-266.9278
 10
-814.9085
 20
-266.9784
 10
-814.9863
 20
-267.04
 10
-815.0597
 20
-267.1122
 10
-815.1277
 20
-267.1945
 10
-815.1892
 20
-267.2864
 10
-815.2432
 20
-267.3872
 10
-815.3069
 20
-267.5521
 10
-815.3435
 20
-267.7177
 10
-815.3539
 20
-267.8795
 10
-815.3389
 20
-268.0331
 10
-815.2993
 20
-268.1742
 10
-815.236
 20
-268.2983
 10
-815.1496
 20
-268.4011
 10
-815.0411
 20
-268.4782
 10
-814.9174
 20
-268.5232
 10
-814.7875
 20
-268.5341
 10
-814.6551
 20
-268.5129
 10
-814.5242
 20
-268.4616
 10
-814.3985
 20
-268.3819
 10
-814.2819
 20
-268.276
 10
-814.1782
 20
-268.1458
 10
-814.0911
 20
-267.9931
 10
-814.0545
 20
-267.9075
 10
-814.0253
 20
-267.8211
 10
-814.0035
 20
-267.7347
 10
-813.9889
 20
-267.6487
 10
-813.9814
 20
-267.5639
 10
-813.9809
 20
-267.4808
 10
-813.9873
 20
-267.4001
 10
-814.0004
 20
-267.3224
 10
-813.9292
 20
-267.3057
 10
-813.8579
 20
-267.2816
 10
-813.7871
 20
-267.2504
 10
-813.7175
 20
-267.212
 10
-813.6494
 20
-267.1666
 10
-813.5834
 20
-267.1142
 10
-813.5202
 20
-267.0551
 10
-813.4601
 20
-266.9892
 10
-813.3581
 20
-266.8473
 10
-813.2818
 20
-266.6973
 10
-813.2316
 20
-266.5434
 10
-813.2079
 20
-266.3903
 10
-813.2108
 20
-266.2424
 10
-813.2408
 20
-266.1041
 10
-813.2981
 20
-265.9801
 10
-813.3831
 20
-265.8747
  0
LWPOLYLINE
  5
10B
330
1F
100
AcDbEntity
  8
Layer 1
 62
     7
370
    18
100
AcDbPolyline
 90
       33
 70
     1
 43
0.0
 10
-813.7648
 20
-266.3751
 10
-813.7396
 20
-266.4
 10
-813.7219
 20
-266.4324
 10
-813.7118
 20
-266.4708
 10
-813.7092
 20
-266.5138
 10
-813.714
 20
-266.5603
 10
-813.7262
 20
-266.6088
 10
-813.7458
 20
-266.658
 10
-813.7727
 20
-266.7065
 10
-813.8055
 20
-266.7509
 10
-813.8415
 20
-266.7883
 10
-813.8795
 20
-266.8182
 10
-813.9185
 20
-266.84
 10
-813.9573
 20
-266.8532
 10
-813.9946
 20
-266.8573
 10
-814.0295
 20
-266.8519
 10
-814.0607
 20
-266.8363
 10
-814.0859
 20
-266.8113
 10
-814.1035
 20
-266.779
 10
-814.1136
 20
-266.7406
 10
-814.1163
 20
-266.6975
 10
-814.1114
 20
-266.6511
 10
-814.0992
 20
-266.6026
 10
-814.0796
 20
-266.5534
 10
-814.0527
 20
-266.5049
 10
-814.02
 20
-266.4604
 10
-813.9841
 20
-266.423
 10
-813.9461
 20
-266.3931
 10
-813.9071
 20
-266.3713
 10
-813.8683
 20
-266.3581
 10
-813.8309
 20
-266.354
 10
-813.796
 20
-266.3595
 10
-813.7648
 20
-266.3751
  0
LWPOLYLINE
  5
10C
330
1F
100
AcDbEntity
  8
Layer 1
 62
     7
370
    18
100
AcDbPolyline
 90
       33
 70
     1
 43
0.0
 10
-814.5258
 20
-267.513
 10
-814.5006
 20
-267.5379
 10
-814.483
 20
-267.5703
 10
-814.4728
 20
-267.6087
 10
-814.4702
 20
-267.6517
 10
-814.4751
 20
-267.6982
 10
-814.4874
 20
-267.7467
 10
-814.5071
 20
-267.7959
 10
-814.5342
 20
-267.8444
 10
-814.5668
 20
-267.8887
 10
-814.6027
 20
-267.9261
 10
-814.6408
 20
-267.9559
 10
-814.6798
 20
-267.9777
 10
-814.7186
 20
-267.9909
 10
-814.756
 20
-267.995
 10
-814.7909
 20
-267.9895
 10
-814.8221
 20
-267.9738
 10
-814.8473
 20
-267.9488
 10
-814.8648
 20
-267.9165
 10
-814.8749
 20
-267.8781
 10
-814.8775
 20
-267.835
 10
-814.8726
 20
-267.7886
 10
-814.8603
 20
-267.7401
 10
-814.8407
 20
-267.6909
 10
-814.8137
 20
-267.6424
 10
-814.7811
 20
-267.5981
 10
-814.7452
 20
-267.5607
 10
-814.7071
 20
-267.5309
 10
-814.6681
 20
-267.5091
 10
-814.6293
 20
-267.4958
 10
-814.5919
 20
-267.4917
 10
-814.557
 20
-267.4973
 10
-814.5258
 20
-267.513
  0
LWPOLYLINE
  5
10D
330
1F
100
AcDbEntity
  8
Layer 1
 62
     7
370
    18
100
AcDbPolyline
 90
       65
 70
     1
 43
0.0
 10
-822.6399
 20
-270.9464
 10
-822.5371
 20
-270.8971
 10
-822.4523
 20
-270.8244
 10
-822.3864
 20
-270.7317
 10
-822.3405
 20
-270.6225
 10
-822.3156
 20
-270.5001
 10
-822.3129
 20
-270.3682
 10
-822.3333
 20
-270.2301
 10
-822.378
 20
-270.0892
 10
-822.4198
 20
-269.9993
 10
-822.4693
 20
-269.9161
 10
-822.5256
 20
-269.8402
 10
-822.5877
 20
-269.7722
 10
-822.6546
 20
-269.7126
 10
-822.7256
 20
-269.662
 10
-822.7995
 20
-269.621
 10
-822.8755
 20
-269.5902
 10
-822.8617
 20
-269.5155
 10
-822.8575
 20
-269.4369
 10
-822.8632
 20
-269.3554
 10
-822.8786
 20
-269.2721
 10
-822.9038
 20
-269.1879
 10
-822.9389
 20
-269.1037
 10
-822.9837
 20
-269.0205
 10
-823.0384
 20
-268.9394
 10
-823.1378
 20
-268.8252
 10
-823.2485
 20
-268.7312
 10
-823.3669
 20
-268.6583
 10
-823.4892
 20
-268.6079
 10
-823.612
 20
-268.581
 10
-823.7315
 20
-268.5788
 10
-823.844
 20
-268.6025
 10
-823.946
 20
-268.6532
 10
-824.0298
 20
-268.7282
 10
-824.0903
 20
-268.8216
 10
-824.1274
 20
-268.9296
 10
-824.141
 20
-269.0488
 10
-824.1312
 20
-269.1754
 10
-824.0978
 20
-269.3057
 10
-824.0408
 20
-269.4361
 10
-823.9602
 20
-269.5629
 10
-823.91
 20
-269.6248
 10
-823.8563
 20
-269.6814
 10
-823.7996
 20
-269.7325
 10
-823.7403
 20
-269.7781
 10
-823.6791
 20
-269.8178
 10
-823.6163
 20
-269.8515
 10
-823.5526
 20
-269.8792
 10
-823.4885
 20
-269.9005
 10
-823.5045
 20
-269.9608
 10
-823.5149
 20
-270.0241
 10
-823.5196
 20
-270.0899
 10
-823.5185
 20
-270.1577
 10
-823.5115
 20
-270.2272
 10
-823.4983
 20
-270.2979
 10
-823.479
 20
-270.3692
 10
-823.4532
 20
-270.4409
 10
-823.3867
 20
-270.5746
 10
-823.3036
 20
-270.6923
 10
-823.2072
 20
-270.7918
 10
-823.1008
 20
-270.8712
 10
-822.9875
 20
-270.9283
 10
-822.8708
 20
-270.9613
 10
-822.7538
 20
-270.968
 10
-822.6399
 20
-270.9464
  0
LWPOLYLINE
  5
10E
330
1F
100
AcDbEntity
  8
Layer 1
 62
     7
370
    18
100
AcDbPolyline
 90
       33
 70
     1
 43
0.0
 10
-822.8657
 20
-270.4584
 10
-822.8947
 20
-270.4673
 10
-822.9262
 20
-270.4675
 10
-822.9593
 20
-270.4597
 10
-822.993
 20
-270.4444
 10
-823.0263
 20
-270.4221
 10
-823.0581
 20
-270.3934
 10
-823.0875
 20
-270.3589
 10
-823.1134
 20
-270.3191
 10
-823.134
 20
-270.2766
 10
-823.1479
 20
-270.2345
 10
-823.1552
 20
-270.1939
 10
-823.1561
 20
-270.1558
 10
-823.1505
 20
-270.1214
 10
-823.1385
 20
-270.0916
 10
-823.1203
 20
-270.0676
 10
-823.0959
 20
-270.0504
 10
-823.0668
 20
-270.0415
 10
-823.0352
 20
-270.0412
 10
-823.0021
 20
-270.049
 10
-822.9685
 20
-270.0643
 10
-822.9352
 20
-270.0866
 10
-822.9035
 20
-270.1153
 10
-822.8741
 20
-270.1499
 10
-822.8482
 20
-270.1897
 10
-822.8277
 20
-270.2321
 10
-822.8138
 20
-270.2742
 10
-822.8064
 20
-270.3148
 10
-822.8056
 20
-270.3529
 10
-822.8112
 20
-270.3874
 10
-822.8231
 20
-270.4172
 10
-822.8413
 20
-270.4412
 10
-822.8657
 20
-270.4584
  0
LWPOLYLINE
  5
10F
330
1F
100
AcDbEntity
  8
Layer 1
 62
     7
370
    18
100
AcDbPolyline
 90
       33
 70
     1
 43
0.0
 10
-823.4217
 20
-269.4288
 10
-823.4507
 20
-269.4377
 10
-823.4823
 20
-269.4379
 10
-823.5154
 20
-269.4301
 10
-823.5491
 20
-269.4148
 10
-823.5823
 20
-269.3925
 10
-823.6141
 20
-269.3638
 10
-823.6435
 20
-269.3293
 10
-823.6694
 20
-269.2895
 10
-823.6899
 20
-269.2471
 10
-823.7038
 20
-269.205
 10
-823.7112
 20
-269.1644
 10
-823.712
 20
-269.1263
 10
-823.7065
 20
-269.0918
 10
-823.6946
 20
-269.062
 10
-823.6765
 20
-269.038
 10
-823.6523
 20
-269.0208
 10
-823.6232
 20
-269.0119
 10
-823.5916
 20
-269.0117
 10
-823.5584
 20
-269.0195
 10
-823.5247
 20
-269.0348
 10
-823.4914
 20
-269.057
 10
-823.4595
 20
-269.0856
 10
-823.4301
 20
-269.12
 10
-823.4042
 20
-269.1597
 10
-823.3837
 20
-269.2022
 10
-823.3699
 20
-269.2443
 10
-823.3625
 20
-269.285
 10
-823.3617
 20
-269.3231
 10
-823.3672
 20
-269.3577
 10
-823.3791
 20
-269.3875
 10
-823.3973
 20
-269.4116
 10
-823.4217
 20
-269.4288
  0
LWPOLYLINE
  5
110
330
1F
100
AcDbEntity
  8
Layer 1
 62
     7
370
    18
100
AcDbPolyline
 90
        2
 70
     0
 43
0.0
 10
-823.4542
 20
-280.881
 10
-819.8723
 20
-279.5556
  0
LWPOLYLINE
  5
111
330
1F
100
AcDbEntity
  8
Layer 1
 62
     7
370
    18
100
AcDbPolyline
 90
        9
 70
     0
 43
0.0
 10
-818.7318
 20
-278.8222
 10
-818.6073
 20
-278.7508
 10
-818.27
 20
-278.5569
 10
-817.7745
 20
-278.2706
 10
-817.1753
 20
-277.9221
 10
-816.5269
 20
-277.5418
 10
-815.8838
 20
-277.1597
 10
-815.3005
 20
-276.8062
 10
-814.8315
 20
-276.5115
  0
LWPOLYLINE
  5
112
330
1F
100
AcDbEntity
  8
Layer 1
 62
     7
370
    18
100
AcDbPolyline
 90
        9
 70
     0
 43
0.0
 10
-813.7899
 20
-275.695
 10
-813.7026
 20
-275.6309
 10
-813.4592
 20
-275.4516
 10
-813.0874
 20
-275.1767
 10
-812.615
 20
-274.8259
 10
-812.0697
 20
-274.4187
 10
-811.4794
 20
-273.9748
 10
-810.8716
 20
-273.5137
 10
-810.2743
 20
-273.0552
  0
LWPOLYLINE
  5
113
330
1F
100
AcDbEntity
  8
Layer 1
 62
     7
370
    18
100
AcDbPolyline
 90
        9
 70
     0
 43
0.0
 10
-809.0758
 20
-272.0031
 10
-808.5385
 20
-271.4801
 10
-808.0088
 20
-270.9449
 10
-807.5063
 20
-270.4228
 10
-807.0509
 20
-269.9391
 10
-806.6623
 20
-269.519
 10
-806.3602
 20
-269.1876
 10
-806.1645
 20
-268.9703
 10
-806.0949
 20
-268.8923
  0
LWPOLYLINE
  5
114
330
1F
100
AcDbEntity
  8
Layer 1
 62
     7
370
    18
100
AcDbPolyline
 90
        9
 70
     0
 43
0.0
 10
-805.2572
 20
-267.7257
 10
-804.9899
 20
-267.4068
 10
-804.7222
 20
-267.0757
 10
-804.4537
 20
-266.728
 10
-804.1844
 20
-266.3593
 10
-803.9139
 20
-265.9651
 10
-803.6423
 20
-265.5411
 10
-803.3691
 20
-265.0829
 10
-803.0944
 20
-264.586
  0
LWPOLYLINE
  5
115
330
1F
100
AcDbEntity
  8
Layer 1
 62
     7
370
    18
100
AcDbPolyline
 90
        9
 70
     0
 43
0.0
 10
-802.2458
 20
-263.1762
 10
-802.1333
 20
-262.9268
 10
-801.9845
 20
-262.5905
 10
-801.8098
 20
-262.1898
 10
-801.6196
 20
-261.7475
 10
-801.4243
 20
-261.286
 10
-801.2345
 20
-260.828
 10
-801.0604
 20
-260.3959
 10
-800.9125
 20
-260.0124
  0
LWPOLYLINE
  5
116
330
1F
100
AcDbEntity
  8
Layer 1
 62
     7
370
     9
100
AcDbPolyline
 90
        2
 70
     0
 43
0.0
 10
-798.8218
 20
-244.1117
 10
-778.6662
 20
-269.1921
  0
LWPOLYLINE
  5
117
330
1F
100
AcDbEntity
  8
Layer 1
 62
     7
370
     9
100
AcDbPolyline
 90
        2
 70
     0
 43
0.0
 10
-826.3352
 20
-300.9497
 10
-781.6503
 20
-265.8258
  0
LWPOLYLINE
  5
118
330
1F
100
AcDbEntity
  8
Layer 1
 62
     7
370
     9
100
AcDbPolyline
 90
        7
 70
     1
 43
0.0
 10
-807.064
 20
-301.2299
 10
-806.5287
 20
-300.8251
 10
-810.5235
 20
-295.5852
 10
-811.7027
 20
-296.6946
 10
-811.3486
 20
-297.1593
 10
-810.5996
 20
-296.5922
 10
-807.064
 20
-301.2299
  0
LWPOLYLINE
  5
119
330
1F
100
AcDbEntity
  8
Layer 1
 62
     7
370
     9
100
AcDbPolyline
 90
       74
 70
     1
 43
0.0
 10
-806.9353
 20
-293.9135
 10
-806.8015
 20
-293.9063
 10
-806.6676
 20
-293.9117
 10
-806.5334
 20
-293.9297
 10
-806.399
 20
-293.9603
 10
-806.2643
 20
-294.0036
 10
-806.1295
 20
-294.0596
 10
-805.9945
 20
-294.1283
 10
-805.8593
 20
-294.2096
 10
-805.6897
 20
-294.3247
 10
-805.5253
 20
-294.4473
 10
-805.3661
 20
-294.5774
 10
-805.2121
 20
-294.715
 10
-805.0632
 20
-294.8601
 10
-804.9196
 20
-295.0127
 10
-804.7811
 20
-295.1727
 10
-804.6479
 20
-295.3403
 10
-804.3834
 20
-295.7345
 10
-804.2538
 20
-295.9593
 10
-804.141
 20
-296.179
 10
-804.0449
 20
-296.3935
 10
-803.9655
 20
-296.6028
 10
-803.9028
 20
-296.807
 10
-803.8569
 20
-297.006
 10
-803.8276
 20
-297.1999
 10
-803.8151
 20
-297.3887
 10
-803.8192
 20
-297.541
 10
-803.837
 20
-297.6837
 10
-803.8683
 20
-297.8168
 10
-803.9133
 20
-297.9404
 10
-803.9719
 20
-298.0544
 10
-804.0442
 20
-298.1589
 10
-804.1301
 20
-298.2539
 10
-804.2297
 20
-298.3393
 10
-804.3511
 20
-298.4214
 10
-804.4764
 20
-298.4867
 10
-804.6056
 20
-298.5353
 10
-804.7387
 20
-298.5671
 10
-804.8757
 20
-298.5821
 10
-805.0166
 20
-298.5803
 10
-805.1614
 20
-298.5618
 10
-805.3101
 20
-298.5266
 10
-805.4447
 20
-298.4829
 10
-805.5778
 20
-298.429
 10
-805.7095
 20
-298.365
 10
-805.8398
 20
-298.2909
 10
-806.3248
 20
-297.9313
 10
-806.7382
 20
-297.5237
 10
-807.1448
 20
-297.0291
 10
-807.256
 20
-296.8728
 10
-807.3696
 20
-296.6912
 10
-807.4858
 20
-296.4845
 10
-807.6048
 20
-296.2524
 10
-807.8262
 20
-295.6932
 10
-807.866
 20
-295.5476
 10
-807.8952
 20
-295.403
 10
-807.914
 20
-295.2594
 10
-807.9222
 20
-295.1169
 10
-807.918
 20
-294.9769
 10
-807.9004
 20
-294.8407
 10
-807.8694
 20
-294.7085
 10
-807.8246
 20
-294.5803
 10
-807.7965
 20
-294.5183
 10
-807.7636
 20
-294.458
 10
-807.7259
 20
-294.3996
 10
-807.6835
 20
-294.343
 10
-807.5842
 20
-294.2352
 10
-807.4658
 20
-294.1346
 10
-807.3366
 20
-294.048
 10
-807.2051
 20
-293.9824
 10
-807.1385
 20
-293.9574
 10
-807.0713
 20
-293.9376
 10
-807.0036
 20
-293.9229
 10
-806.9353
 20
-293.9135
  0
LWPOLYLINE
  5
11A
330
1F
100
AcDbEntity
  8
Layer 1
 62
     7
370
     9
100
AcDbPolyline
 90
       65
 70
     1
 43
0.0
 10
-803.81
 20
-298.8743
 10
-803.5976
 20
-298.6912
 10
-803.4209
 20
-298.4906
 10
-803.2799
 20
-298.2727
 10
-803.1747
 20
-298.0373
 10
-803.1052
 20
-297.7844
 10
-803.0714
 20
-297.5141
 10
-803.0734
 20
-297.2264
 10
-803.1111
 20
-296.9212
 10
-803.1649
 20
-296.6709
 10
-803.2381
 20
-296.4191
 10
-803.3307
 20
-296.1658
 10
-803.4427
 20
-295.9111
 10
-803.5742
 20
-295.655
 10
-803.725
 20
-295.3973
 10
-803.8952
 20
-295.1382
 10
-804.0847
 20
-294.8776
 10
-804.2858
 20
-294.6259
 10
-804.4907
 20
-294.3931
 10
-804.6993
 20
-294.1793
 10
-804.9117
 20
-293.9846
 10
-805.1278
 20
-293.8087
 10
-805.3478
 20
-293.6519
 10
-805.5716
 20
-293.514
 10
-805.7992
 20
-293.3951
 10
-806.0841
 20
-293.2773
 10
-806.3617
 20
-293.1985
 10
-806.632
 20
-293.1586
 10
-806.895
 20
-293.1576
 10
-807.1507
 20
-293.1956
 10
-807.3991
 20
-293.2725
 10
-807.6402
 20
-293.3884
 10
-807.874
 20
-293.5432
 10
-808.0864
 20
-293.7262
 10
-808.2631
 20
-293.9267
 10
-808.4041
 20
-294.1446
 10
-808.5094
 20
-294.3799
 10
-808.5789
 20
-294.6327
 10
-808.6127
 20
-294.9029
 10
-808.6109
 20
-295.1905
 10
-808.5733
 20
-295.4955
 10
-808.5193
 20
-295.746
 10
-808.446
 20
-295.9978
 10
-808.3533
 20
-296.2512
 10
-808.2413
 20
-296.5059
 10
-808.11
 20
-296.7621
 10
-807.9592
 20
-297.0198
 10
-807.7891
 20
-297.279
 10
-807.5996
 20
-297.5396
 10
-807.3985
 20
-297.7913
 10
-807.1936
 20
-298.024
 10
-806.9849
 20
-298.2378
 10
-806.7724
 20
-298.4326
 10
-806.5561
 20
-298.6084
 10
-806.3361
 20
-298.7653
 10
-806.1123
 20
-298.9031
 10
-805.8848
 20
-299.022
 10
-805.5999
 20
-299.1399
 10
-805.3223
 20
-299.2188
 10
-805.052
 20
-299.2588
 10
-804.789
 20
-299.2598
 10
-804.5333
 20
-299.2219
 10
-804.2849
 20
-299.145
 10
-804.0438
 20
-299.0291
 10
-803.81
 20
-298.8743
  0
LWPOLYLINE
  5
11B
330
1F
100
AcDbEntity
  8
Layer 1
 62
     7
370
     9
100
AcDbPolyline
 90
       65
 70
     1
 43
0.0
 10
-801.9092
 20
-292.87
 10
-801.783
 20
-292.7833
 10
-801.6527
 20
-292.7112
 10
-801.5186
 20
-292.6538
 10
-801.3805
 20
-292.611
 10
-801.2383
 20
-292.5828
 10
-801.0923
 20
-292.5692
 10
-800.9422
 20
-292.5702
 10
-800.7881
 20
-292.5859
 10
-800.6375
 20
-292.6148
 10
-800.4944
 20
-292.6562
 10
-800.359
 20
-292.7102
 10
-800.2311
 20
-292.7766
 10
-800.1109
 20
-292.8556
 10
-799.9982
 20
-292.9472
 10
-799.8931
 20
-293.0512
 10
-799.7957
 20
-293.1677
 10
-799.7113
 20
-293.2898
 10
-799.6411
 20
-293.4162
 10
-799.5848
 20
-293.5468
 10
-799.5427
 20
-293.6818
 10
-799.5146
 20
-293.8209
 10
-799.5005
 20
-293.9644
 10
-799.5005
 20
-294.1121
 10
-799.5146
 20
-294.264
 10
-799.5418
 20
-294.4114
 10
-799.5821
 20
-294.5518
 10
-799.6357
 20
-294.6853
 10
-799.7025
 20
-294.8119
 10
-799.7824
 20
-294.9315
 10
-799.8756
 20
-295.0442
 10
-799.982
 20
-295.1501
 10
-800.1016
 20
-295.2491
 10
-800.227
 20
-295.3353
 10
-800.3567
 20
-295.4074
 10
-800.4908
 20
-295.4654
 10
-800.6294
 20
-295.5092
 10
-800.7723
 20
-295.5389
 10
-800.9196
 20
-295.5545
 10
-801.0713
 20
-295.5559
 10
-801.2274
 20
-295.5432
 10
-801.38
 20
-295.5171
 10
-801.5246
 20
-295.4781
 10
-801.6615
 20
-295.4262
 10
-801.7905
 20
-295.3614
 10
-801.9116
 20
-295.2837
 10
-802.0248
 20
-295.1931
 10
-802.1302
 20
-295.0896
 10
-802.2278
 20
-294.9732
 10
-802.3137
 20
-294.849
 10
-802.3849
 20
-294.7209
 10
-802.4413
 20
-294.5889
 10
-802.4829
 20
-294.4531
 10
-802.5098
 20
-294.3135
 10
-802.5218
 20
-294.17
 10
-802.5191
 20
-294.0226
 10
-802.5017
 20
-293.8714
 10
-802.4723
 20
-293.7292
 10
-802.43
 20
-293.5901
 10
-802.3748
 20
-293.4542
 10
-802.3066
 20
-293.3213
 10
-802.2258
 20
-293.1944
 10
-802.1327
 20
-293.0769
 10
-802.0272
 20
-292.9688
 10
-801.9092
 20
-292.87
  0
LWPOLYLINE
  5
11C
330
1F
100
AcDbEntity
  8
Layer 1
 62
     7
370
     9
100
AcDbPolyline
 90
       65
 70
     1
 43
0.0
 10
-799.2824
 20
-292.7184
 10
-799.4305
 20
-292.5415
 10
-799.589
 20
-292.3855
 10
-799.7578
 20
-292.2505
 10
-799.9371
 20
-292.1365
 10
-800.1267
 20
-292.0434
 10
-800.3267
 20
-291.9712
 10
-800.5371
 20
-291.92
 10
-800.7579
 20
-291.8897
 10
-800.9664
 20
-291.8815
 10
-801.1739
 20
-291.8931
 10
-801.3806
 20
-291.9243
 10
-801.5863
 20
-291.9752
 10
-801.7911
 20
-292.0459
 10
-801.995
 20
-292.1363
 10
-802.1979
 20
-292.2464
 10
-802.3998
 20
-292.3763
 10
-802.4771
 20
-292.591
 10
-802.3393
 20
-289.4837
 10
-803.0422
 20
-290.0163
 10
-803.211
 20
-293.9996
 10
-803.2116
 20
-294.188
 10
-803.1962
 20
-294.372
 10
-803.165
 20
-294.5516
 10
-803.1178
 20
-294.7268
 10
-803.0548
 20
-294.8977
 10
-802.9758
 20
-295.0642
 10
-802.881
 20
-295.2264
 10
-802.7702
 20
-295.3844
 10
-802.6277
 20
-295.5548
 10
-802.4743
 20
-295.7063
 10
-802.3102
 20
-295.8389
 10
-802.1351
 20
-295.9527
 10
-801.9493
 20
-296.0476
 10
-801.7525
 20
-296.1236
 10
-801.5449
 20
-296.1808
 10
-801.3265
 20
-296.2191
 10
-801.1038
 20
-296.2376
 10
-800.8868
 20
-296.2355
 10
-800.6754
 20
-296.2126
 10
-800.4696
 20
-296.1691
 10
-800.2694
 20
-296.1048
 10
-800.0748
 20
-296.0199
 10
-799.8859
 20
-295.9143
 10
-799.7025
 20
-295.788
 10
-799.5287
 20
-295.6439
 10
-799.374
 20
-295.4895
 10
-799.2385
 20
-295.3249
 10
-799.1221
 20
-295.1501
 10
-799.0249
 20
-294.965
 10
-798.9468
 20
-294.7696
 10
-798.8878
 20
-294.564
 10
-798.8479
 20
-294.3481
 10
-798.8293
 20
-294.1403
 10
-798.8304
 20
-293.9323
 10
-798.8511
 20
-293.7241
 10
-798.8917
 20
-293.5158
 10
-798.9198
 20
-293.4123
 10
-798.9537
 20
-293.31
 10
-798.9937
 20
-293.2087
 10
-799.0395
 20
-293.1085
 10
-799.0913
 20
-293.0094
 10
-799.1491
 20
-292.9113
 10
-799.2128
 20
-292.8143
 10
-799.2824
 20
-292.7184
  0
LWPOLYLINE
  5
11D
330
1F
100
AcDbEntity
  8
Layer 1
 62
     7
370
     9
100
AcDbPolyline
 90
      125
 70
     1
 43
0.0
 10
-790.9209
 20
-288.982
 10
-790.3861
 20
-288.5768
 10
-791.9826
 20
-286.4828
 10
-792.0931
 20
-286.3469
 10
-792.2072
 20
-286.2243
 10
-792.3251
 20
-286.1148
 10
-792.4468
 20
-286.0185
 10
-792.5721
 20
-285.9353
 10
-792.7011
 20
-285.8652
 10
-792.8339
 20
-285.8083
 10
-792.9703
 20
-285.7644
 10
-793.1118
 20
-285.7346
 10
-793.2555
 20
-285.7208
 10
-793.4013
 20
-285.7228
 10
-793.5493
 20
-285.7406
 10
-793.6245
 20
-285.7569
 10
-793.7015
 20
-285.7798
 10
-793.7802
 20
-285.8094
 10
-793.8606
 20
-285.8458
 10
-794.0264
 20
-285.9385
 10
-794.1988
 20
-286.0581
 10
-794.2831
 20
-286.1267
 10
-794.3601
 20
-286.1991
 10
-794.4298
 20
-286.2754
 10
-794.4922
 20
-286.3555
 10
-794.5473
 20
-286.4395
 10
-794.5951
 20
-286.5273
 10
-794.6356
 20
-286.619
 10
-794.6688
 20
-286.7145
 10
-794.6933
 20
-286.8032
 10
-794.7126
 20
-286.8932
 10
-794.7268
 20
-286.9845
 10
-794.7359
 20
-287.0771
 10
-794.7389
 20
-287.2659
 10
-794.7217
 20
-287.4595
 10
-795.0415
 20
-287.3329
 10
-795.1828
 20
-287.3031
 10
-795.3263
 20
-287.2891
 10
-795.472
 20
-287.291
 10
-795.6198
 20
-287.3087
 10
-795.6952
 20
-287.325
 10
-795.7722
 20
-287.348
 10
-795.851
 20
-287.3777
 10
-795.9314
 20
-287.4141
 10
-796.0973
 20
-287.5069
 10
-796.2697
 20
-287.6266
 10
-796.354
 20
-287.6951
 10
-796.431
 20
-287.7674
 10
-796.5007
 20
-287.8436
 10
-796.5631
 20
-287.9237
 10
-796.6181
 20
-288.0076
 10
-796.6659
 20
-288.0954
 10
-796.7064
 20
-288.1871
 10
-796.7396
 20
-288.2827
 10
-796.7818
 20
-288.4527
 10
-796.8056
 20
-288.627
 10
-796.8109
 20
-288.8058
 10
-796.7978
 20
-288.9892
 10
-797.2052
 20
-288.4549
 10
-797.74
 20
-288.8602
 10
-795.1853
 20
-292.2112
 10
-794.6505
 20
-291.806
 10
-795.9579
 20
-290.0914
 10
-796.0216
 20
-289.9819
 10
-796.0784
 20
-289.8735
 10
-796.1286
 20
-289.7661
 10
-796.172
 20
-289.6597
 10
-796.2087
 20
-289.5543
 10
-796.2387
 20
-289.4497
 10
-796.2621
 20
-289.346
 10
-796.2789
 20
-289.2432
 10
-796.29
 20
-289.0909
 10
-796.2836
 20
-288.9403
 10
-796.2594
 20
-288.7912
 10
-796.2175
 20
-288.6439
 10
-796.1899
 20
-288.5724
 10
-796.1581
 20
-288.5044
 10
-796.122
 20
-288.44
 10
-796.0818
 20
-288.3791
 10
-796.0374
 20
-288.3217
 10
-795.9887
 20
-288.268
 10
-795.9358
 20
-288.2178
 10
-795.8786
 20
-288.1712
 10
-795.7643
 20
-288.0918
 10
-795.6584
 20
-288.0329
 10
-795.5608
 20
-287.9946
 10
-795.4716
 20
-287.9771
 10
-795.3515
 20
-287.9757
 10
-795.2341
 20
-287.9918
 10
-795.1196
 20
-288.0253
 10
-795.0078
 20
-288.0763
 10
-794.8988
 20
-288.1449
 10
-794.7927
 20
-288.2309
 10
-794.6893
 20
-288.3345
 10
-794.5887
 20
-288.4557
 10
-792.9922
 20
-290.5502
 10
-792.4569
 20
-290.1453
 10
-794.0539
 20
-288.0509
 10
-794.1554
 20
-287.9255
 10
-794.2076
 20
-287.675
 10
-794.219
 20
-287.5228
 10
-794.2127
 20
-287.3722
 10
-794.1884
 20
-287.2232
 10
-794.1463
 20
-287.0757
 10
-794.1188
 20
-287.0041
 10
-794.087
 20
-286.9361
 10
-794.051
 20
-286.8717
 10
-794.0108
 20
-286.8108
 10
-793.9664
 20
-286.7535
 10
-793.9177
 20
-286.6998
 10
-793.8648
 20
-286.6496
 10
-793.8078
 20
-286.603
 10
-793.6935
 20
-286.5235
 10
-793.5876
 20
-286.4648
 10
-793.4902
 20
-286.4268
 10
-793.4012
 20
-286.4093
 10
-793.2809
 20
-286.4077
 10
-793.1634
 20
-286.4236
 10
-793.0487
 20
-286.4571
 10
-792.9368
 20
-286.5081
 10
-792.8278
 20
-286.5767
 10
-792.7216
 20
-286.6628
 10
-792.6183
 20
-286.7664
 10
-792.5179
 20
-286.8876
 10
-790.9209
 20
-288.982
  0
LWPOLYLINE
  5
11E
330
1F
100
AcDbEntity
  8
Layer 1
 62
     7
370
     9
100
AcDbPolyline
 90
      127
 70
     1
 43
0.0
 10
-785.0903
 20
-284.5665
 10
-784.5555
 20
-284.1617
 10
-786.152
 20
-282.0673
 10
-786.2624
 20
-281.9316
 10
-786.3766
 20
-281.809
 10
-786.4945
 20
-281.6995
 10
-786.6161
 20
-281.6032
 10
-786.7414
 20
-281.52
 10
-786.8705
 20
-281.45
 10
-787.0032
 20
-281.3931
 10
-787.1397
 20
-281.3493
 10
-787.2811
 20
-281.3195
 10
-787.4247
 20
-281.3055
 10
-787.5705
 20
-281.3075
 10
-787.7187
 20
-281.3255
 10
-787.7939
 20
-281.3417
 10
-787.8709
 20
-281.3645
 10
-787.9496
 20
-281.3942
 10
-788.03
 20
-281.4305
 10
-788.1958
 20
-281.5233
 10
-788.3682
 20
-281.643
 10
-788.4524
 20
-281.7115
 10
-788.5293
 20
-281.7838
 10
-788.599
 20
-281.86
 10
-788.6614
 20
-281.9401
 10
-788.7165
 20
-282.0241
 10
-788.7644
 20
-282.112
 10
-788.8049
 20
-282.2037
 10
-788.8381
 20
-282.2994
 10
-788.8626
 20
-282.3881
 10
-788.8819
 20
-282.4781
 10
-788.8961
 20
-282.5694
 10
-788.9053
 20
-282.6619
 10
-788.9093
 20
-282.7557
 10
-788.9083
 20
-282.8507
 10
-788.9022
 20
-282.9468
 10
-788.8911
 20
-283.044
 10
-789.2105
 20
-282.9174
 10
-789.352
 20
-282.8876
 10
-789.4956
 20
-282.8736
 10
-789.6414
 20
-282.8755
 10
-789.7891
 20
-282.8932
 10
-789.8645
 20
-282.9095
 10
-789.9416
 20
-282.9325
 10
-790.0204
 20
-282.9622
 10
-790.1008
 20
-282.9986
 10
-790.2667
 20
-283.0914
 10
-790.4391
 20
-283.2111
 10
-790.5234
 20
-283.2796
 10
-790.6003
 20
-283.3519
 10
-790.6699
 20
-283.4281
 10
-790.7323
 20
-283.5082
 10
-790.7873
 20
-283.5922
 10
-790.8351
 20
-283.6801
 10
-790.8757
 20
-283.7719
 10
-790.909
 20
-283.8676
 10
-790.9512
 20
-284.0376
 10
-790.975
 20
-284.2119
 10
-790.9803
 20
-284.3907
 10
-790.9671
 20
-284.5741
 10
-791.3745
 20
-284.0394
 10
-791.9094
 20
-284.4447
 10
-789.3547
 20
-287.7957
 10
-788.8198
 20
-287.3909
 10
-790.1268
 20
-285.6759
 10
-790.1906
 20
-285.5665
 10
-790.2476
 20
-285.4582
 10
-790.2978
 20
-285.3509
 10
-790.3413
 20
-285.2445
 10
-790.378
 20
-285.1391
 10
-790.4079
 20
-285.0345
 10
-790.4312
 20
-284.9309
 10
-790.4478
 20
-284.8281
 10
-790.4592
 20
-284.6758
 10
-790.4527
 20
-284.5252
 10
-790.4285
 20
-284.3761
 10
-790.3865
 20
-284.2288
 10
-790.359
 20
-284.1572
 10
-790.3272
 20
-284.0892
 10
-790.2912
 20
-284.0247
 10
-790.251
 20
-283.9638
 10
-790.2066
 20
-283.9064
 10
-790.1579
 20
-283.8526
 10
-790.105
 20
-283.8024
 10
-790.048
 20
-283.7557
 10
-789.9337
 20
-283.6764
 10
-789.8278
 20
-283.6176
 10
-789.7302
 20
-283.5795
 10
-789.641
 20
-283.562
 10
-789.5208
 20
-283.5605
 10
-789.4034
 20
-283.5764
 10
-789.2888
 20
-283.6099
 10
-789.177
 20
-283.6609
 10
-789.068
 20
-283.7295
 10
-788.9618
 20
-283.8156
 10
-788.8585
 20
-283.9193
 10
-788.7581
 20
-284.0406
 10
-787.1612
 20
-286.1351
 10
-786.6263
 20
-285.7298
 10
-788.2229
 20
-283.6354
 10
-788.3248
 20
-283.51
 10
-788.377
 20
-283.2595
 10
-788.3884
 20
-283.1075
 10
-788.3821
 20
-282.9569
 10
-788.3578
 20
-282.8079
 10
-788.3157
 20
-282.6606
 10
-788.2881
 20
-282.589
 10
-788.2563
 20
-282.5209
 10
-788.2203
 20
-282.4564
 10
-788.1801
 20
-282.3955
 10
-788.1356
 20
-282.3381
 10
-788.087
 20
-282.2843
 10
-788.0342
 20
-282.2341
 10
-787.9772
 20
-282.1875
 10
-787.8629
 20
-282.1082
 10
-787.757
 20
-282.0494
 10
-787.6595
 20
-282.0113
 10
-787.5705
 20
-281.9938
 10
-787.4502
 20
-281.9923
 10
-787.3327
 20
-282.0083
 10
-787.2181
 20
-282.0418
 10
-787.1062
 20
-282.0928
 10
-786.9972
 20
-282.1614
 10
-786.891
 20
-282.2475
 10
-786.7877
 20
-282.3512
 10
-786.6873
 20
-282.4725
 10
-785.0903
 20
-284.5665
  0
LWPOLYLINE
  5
11F
330
1F
100
AcDbEntity
  8
Layer 1
 62
     7
370
     9
100
AcDbPolyline
 90
        2
 70
     0
 43
0.0
 10
-842.2412
 20
-281.7232
 10
-823.4894
 20
-305.0568
  0
ENDSEC
  0
SECTION
  2
OBJECTS
  0
DICTIONARY
  5
C
330
0
100
AcDbDictionary
281
     1
  3
ACAD_DETAILVIEWSTYLE
350
127
  3
ACAD_GROUP
350
D
  3
ACAD_LAYOUT
350
1A
  3
ACAD_MATERIAL
350
43
  3
ACAD_MLEADERSTYLE
350
5B
  3
ACAD_MLINESTYLE
350
17
  3
ACAD_PLOTSETTINGS
350
19
  3
ACAD_PLOTSTYLENAME
350
E
  3
ACAD_SCALELIST
350
47
  3
ACAD_SECTIONVIEWSTYLE
350
128
  3
ACAD_TABLESTYLE
350
59
  3
ACAD_VISUALSTYLE
350
2A
  3
ACDB_RECOMPOSE_DATA
350
124
  3
AcDbVariableDictionary
350
120
  0
SUN
  5
5D
330
29
100
AcDbSun
 90
        1
290
     0
 63
     7
421
 16777215
 40
1.0
291
     1
 91
  2455826
 92
 54000000
292
     0
 70
     2
 71
   256
280
     1
  0
DICTIONARY
  5
127
102
{ACAD_REACTORS
330
C
102
}
330
C
100
AcDbDictionary
281
     1
  0
DICTIONARY
  5
D
102
{ACAD_REACTORS
330
C
102
}
330
C
100
AcDbDictionary
281
     1
  0
DICTIONARY
  5
1A
102
{ACAD_REACTORS
330
C
102
}
330
C
100
AcDbDictionary
281
     1
  3
Layout1
350
1E
  3
Layout2
350
26
  3
Model
350
22
  0
DICTIONARY
  5
43
102
{ACAD_REACTORS
330
C
102
}
330
C
100
AcDbDictionary
281
     1
  3
ByBlock
350
45
  3
ByLayer
350
44
  3
Global
350
46
  0
DICTIONARY
  5
5B
102
{ACAD_REACTORS
330
C
102
}
330
C
100
AcDbDictionary
281
     1
  3
Standard
350
5C
  0
DICTIONARY
  5
17
102
{ACAD_REACTORS
330
C
102
}
330
C
100
AcDbDictionary
281
     1
  3
Standard
350
18
  0
DICTIONARY
  5
19
102
{ACAD_REACTORS
330
C
102
}
330
C
100
AcDbDictionary
281
     1
  0
ACDBDICTIONARYWDFLT
  5
E
102
{ACAD_REACTORS
330
C
102
}
330
C
100
AcDbDictionary
281
     1
  3
Normal
350
F
100
AcDbDictionaryWithDefault
340
F
  0
DICTIONARY
  5
47
102
{ACAD_REACTORS
330
C
102
}
330
C
100
AcDbDictionary
281
     1
  3
A0
350
48
  3
A1
350
49
  3
A2
350
4A
  3
A3
350
4B
  3
A4
350
4C
  3
A5
350
4D
  3
A6
350
4E
  3
A7
350
4F
  3
A8
350
50
  3
A9
350
51
  3
B1
350
52
  3
B2
350
53
  3
B3
350
54
  3
B4
350
55
  3
B5
350
56
  3
B6
350
57
  3
B7
350
58
  0
DICTIONARY
  5
128
102
{ACAD_REACTORS
330
C
102
}
330
C
100
AcDbDictionary
281
     1
  0
DICTIONARY
  5
59
102
{ACAD_REACTORS
330
C
102
}
330
C
100
AcDbDictionary
281
     1
  3
Standard
350
5A
  0
DICTIONARY
  5
2A
102
{ACAD_REACTORS
330
C
102
}
330
C
100
AcDbDictionary
281
     1
  3
2dWireframe
350
2F
  3
Basic
350
32
  3
Brighten
350
36
  3
ColorChange
350
3A
  3
Conceptual
350
34
  3
Dim
350
35
  3
EdgeColorOff
350
3D
  3
Facepattern
350
39
  3
Flat
350
2B
  3
FlatWithEdges
350
2C
  3
Gouraud
350
2D
  3
GouraudWithEdges
350
2E
  3
Hidden
350
31
  3
JitterOff
350
3B
  3
Linepattern
350
38
  3
OverhangOff
350
3C
  3
Realistic
350
33
  3
Shaded
350
42
  3
Shaded with edges
350
41
  3
Shades of Gray
350
3E
  3
Sketchy
350
3F
  3
Thicken
350
37
  3
Wireframe
350
30
  3
X-Ray
350
40
  0
XRECORD
  5
124
102
{ACAD_REACTORS
330
C
102
}
330
C
100
AcDbXrecord
280
     1
 90
        1
330
5A
  0
DICTIONARY
  5
120
102
{ACAD_REACTORS
330
C
102
}
330
C
100
AcDbDictionary
281
     1
  3
CANNOSCALE
350
121
  3
CMLEADERSTYLE
350
126
  3
CTABLESTYLE
350
125
  0
LAYOUT
  5
1E
102
{ACAD_REACTORS
330
1A
102
}
330
1A
100
AcDbPlotSettings
  1

  2
none_device
  4

  6

 40
0.0
 41
0.0
 42
0.0
 43
0.0
 44
0.0
 45
0.0
 46
0.0
 47
0.0
 48
0.0
 49
0.0
140
0.0
141
0.0
142
1.0
143
1.0
 70
   688
 72
     0
 73
     0
 74
     5
  7

 75
    16
 76
     0
 77
     2
 78
   300
147
1.0
148
0.0
149
0.0
100
AcDbLayout
  1
Layout1
 70
     1
 71
     1
 10
0.0
 20
0.0
 11
12.0
 21
9.0
 12
0.0
 22
0.0
 32
0.0
 14
1.000000000000000E+20
 24
1.000000000000000E+20
 34
1.000000000000000E+20
 15
-1.000000000000000E+20
 25
-1.000000000000000E+20
 35
-1.000000000000000E+20
146
0.0
 13
0.0
 23
0.0
 33
0.0
 16
1.0
 26
0.0
 36
0.0
 17
0.0
 27
1.0
 37
0.0
 76
     0
330
1B
  0
LAYOUT
  5
26
102
{ACAD_REACTORS
330
1A
102
}
330
1A
100
AcDbPlotSettings
  1

  2
none_device
  4

  6

 40
0.0
 41
0.0
 42
0.0
 43
0.0
 44
0.0
 45
0.0
 46
0.0
 47
0.0
 48
0.0
 49
0.0
140
0.0
141
0.0
142
1.0
143
1.0
 70
   688
 72
     0
 73
     0
 74
     5
  7

 75
    16
 76
     0
 77
     2
 78
   300
147
1.0
148
0.0
149
0.0
100
AcDbLayout
  1
Layout2
 70
     1
 71
     2
 10
0.0
 20
0.0
 11
0.0
 21
0.0
 12
0.0
 22
0.0
 32
0.0
 14
0.0
 24
0.0
 34
0.0
 15
0.0
 25
0.0
 35
0.0
146
0.0
 13
0.0
 23
0.0
 33
0.0
 16
1.0
 26
0.0
 36
0.0
 17
0.0
 27
1.0
 37
0.0
 76
     0
330
23
  0
LAYOUT
  5
22
102
{ACAD_REACTORS
330
1A
102
}
330
1A
100
AcDbPlotSettings
  1

  2
none_device
  4
Letter_(8.50_x_11.00_Inches)
  6

 40
6.35
 41
6.35
 42
6.35000508
 43
6.35000508
 44
215.9
 45
279.4
 46
0.0
 47
0.0
 48
0.0
 49
0.0
140
0.0
141
0.0
142
1.0
143
1.0
 70
  1712
 72
     0
 73
     0
 74
     0
  7

 75
     0
 76
     0
 77
     2
 78
   300
147
1.0
148
0.0
149
0.0
100
AcDbLayout
  1
Model
 70
     1
 71
     0
 10
0.0
 20
0.0
 11
12.0
 21
9.0
 12
0.0
 22
0.0
 32
0.0
 14
-903.6508
 24
-451.9903
 34
0.0
 15
-600.2413
 25
-103.0491
 35
0.0
146
0.0
 13
0.0
 23
0.0
 33
0.0
 16
1.0
 26
0.0
 36
0.0
 17
0.0
 27
1.0
 37
0.0
 76
     0
330
1F
331
29
  0
MATERIAL
  5
45
102
{ACAD_REACTORS
330
43
102
}
330
43
100
AcDbMaterial
  1
ByBlock
 72
     1
 94
      127
  0
MATERIAL
  5
44
102
{ACAD_REACTORS
330
43
102
}
330
43
100
AcDbMaterial
  1
ByLayer
 72
     1
 94
      127
  0
MATERIAL
  5
46
102
{ACAD_REACTORS
330
43
102
}
330
43
100
AcDbMaterial
  1
Global
 72
     1
 94
      127
  0
MLEADERSTYLE
  5
5C
102
{ACAD_REACTORS
330
5B
102
}
330
5B
100
AcDbMLeaderStyle
179
     2
170
     2
171
     1
172
     0
 90
        2
 40
0.0
 41
0.0
173
     1
 91
-1056964608
340
14
 92
       -2
290
     1
 42
0.09
291
     1
 43
0.36
  3
Standard
341
0
 44
0.18
300

342
11
174
     1
178
     6
175
     1
176
     0
 93
-1056964608
 45
0.18
292
     0
297
     0
 46
0.18
343
0
 94
-1056964608
 47
1.0
 49
1.0
140
1.0
293
     1
141
0.0
294
     1
177
     0
142
1.0
295
     0
296
     0
143
0.125
271
     0
272
     9
273
     9
298
     0
  0
MLINESTYLE
  5
18
102
{ACAD_REACTORS
330
17
102
}
330
17
100
AcDbMlineStyle
  2
Standard
 70
     0
  3

 62
   256
 51
90.0
 52
90.0
 71
     2
 49
0.5
 62
   256
  6
BYLAYER
 49
-0.5
 62
   256
  6
BYLAYER
  0
ACDBPLACEHOLDER
  5
F
102
{ACAD_REACTORS
330
E
102
}
330
E
  0
SCALE
  5
48
102
{ACAD_REACTORS
330
47
102
}
330
47
100
AcDbScale
 70
     0
300
1:1
140
1.0
141
1.0
290
     1
  0
SCALE
  5
49
102
{ACAD_REACTORS
330
47
102
}
330
47
100
AcDbScale
 70
     0
300
1/128" = 1'-0"
140
0.0078125
141
12.0
290
     0
  0
SCALE
  5
4A
102
{ACAD_REACTORS
330
47
102
}
330
47
100
AcDbScale
 70
     0
300
1/64" = 1'-0"
140
0.015625
141
12.0
290
     0
  0
SCALE
  5
4B
102
{ACAD_REACTORS
330
47
102
}
330
47
100
AcDbScale
 70
     0
300
1/32" = 1'-0"
140
0.03125
141
12.0
290
     0
  0
SCALE
  5
4C
102
{ACAD_REACTORS
330
47
102
}
330
47
100
AcDbScale
 70
     0
300
1/16" = 1'-0"
140
0.0625
141
12.0
290
     0
  0
SCALE
  5
4D
102
{ACAD_REACTORS
330
47
102
}
330
47
100
AcDbScale
 70
     0
300
3/32" = 1'-0"
140
0.09375
141
12.0
290
     0
  0
SCALE
  5
4E
102
{ACAD_REACTORS
330
47
102
}
330
47
100
AcDbScale
 70
     0
300
1/8" = 1'-0"
140
0.125
141
12.0
290
     0
  0
SCALE
  5
4F
102
{ACAD_REACTORS
330
47
102
}
330
47
100
AcDbScale
 70
     0
300
3/16" = 1'-0"
140
0.1875
141
12.0
290
     0
  0
SCALE
  5
50
102
{ACAD_REACTORS
330
47
102
}
330
47
100
AcDbScale
 70
     0
300
1/4" = 1'-0"
140
0.25
141
12.0
290
     0
  0
SCALE
  5
51
102
{ACAD_REACTORS
330
47
102
}
330
47
100
AcDbScale
 70
     0
300
3/8" = 1'-0"
140
0.375
141
12.0
290
     0
  0
SCALE
  5
52
102
{ACAD_REACTORS
330
47
102
}
330
47
100
AcDbScale
 70
     0
300
1/2" = 1'-0"
140
0.5
141
12.0
290
     0
  0
SCALE
  5
53
102
{ACAD_REACTORS
330
47
102
}
330
47
100
AcDbScale
 70
     0
300
3/4" = 1'-0"
140
0.75
141
12.0
290
     0
  0
SCALE
  5
54
102
{ACAD_REACTORS
330
47
102
}
330
47
100
AcDbScale
 70
     0
300
1" = 1'-0"
140
1.0
141
12.0
290
     0
  0
SCALE
  5
55
102
{ACAD_REACTORS
330
47
102
}
330
47
100
AcDbScale
 70
     0
300
1-1/2" = 1'-0"
140
1.5
141
12.0
290
     0
  0
SCALE
  5
56
102
{ACAD_REACTORS
330
47
102
}
330
47
100
AcDbScale
 70
     0
300
3" = 1'-0"
140
3.0
141
12.0
290
     0
  0
SCALE
  5
57
102
{ACAD_REACTORS
330
47
102
}
330
47
100
AcDbScale
 70
     0
300
6" = 1'-0"
140
6.0
141
12.0
290
     0
  0
SCALE
  5
58
102
{ACAD_REACTORS
330
47
102
}
330
47
100
AcDbScale
 70
     0
300
1'-0" = 1'-0"
140
12.0
141
12.0
290
     0
  0
TABLESTYLE
  5
5A
102
{ACAD_REACTORS
330
59
102
}
102
{ACAD_XDICTIONARY
360
122
102
}
330
59
100
AcDbTableStyle
  3
Standard
 70
     0
 71
     0
 40
0.06
 41
0.06
280
     0
281
     0
  7
Standard
140
0.18
170
     2
 62
     0
 63
   257
283
     0
 90
        4
 91
        0
  1

274
    -2
284
     1
 64
     0
275
    -2
285
     1
 65
     0
276
    -2
286
     1
 66
     0
277
    -2
287
     1
 67
     0
278
    -2
288
     1
 68
     0
279
    -2
289
     1
 69
     0
  7
Standard
140
0.25
170
     5
 62
     0
 63
   257
283
     0
 90
        4
 91
        0
  1

274
    -2
284
     1
 64
     0
275
    -2
285
     1
 65
     0
276
    -2
286
     1
 66
     0
277
    -2
287
     1
 67
     0
278
    -2
288
     1
 68
     0
279
    -2
289
     1
 69
     0
  7
Standard
140
0.18
170
     5
 62
     0
 63
   257
283
     0
 90
        4
 91
        0
  1

274
    -2
284
     1
 64
     0
275
    -2
285
     1
 65
     0
276
    -2
286
     1
 66
     0
277
    -2
287
     1
 67
     0
278
    -2
288
     1
 68
     0
279
    -2
289
     1
 69
     0
  0
VISUALSTYLE
  5
2F
102
{ACAD_REACTORS
330
2A
102
}
330
2A
100
AcDbVisualStyle
  2
2dWireframe
 70
     4
177
     3
291
     0
 70
    58
 90
        0
176
     1
 90
        2
176
     1
 90
        0
176
     1
 90
        0
176
     1
 40
0.6
176
     1
 40
30.0
176
     1
 62
     7
420
 16777215
176
     1
 90
        1
176
     1
 90
        4
176
     1
 62
     7
176
     1
 62
   257
176
     1
 90
        1
176
     1
 90
        1
176
     1
 40
1.0
176
     1
 90
        0
176
     1
 62
   257
176
     1
 40
1.0
176
     1
 90
        1
176
     1
 90
        6
176
     1
 90
        2
176
     1
 62
     7
176
     1
 90
        5
176
     1
 90
        0
176
     1
 90
        0
176
     1
290
     0
176
     1
 90
        1
176
     1
 40
0.0
176
     1
 90
        0
176
     1
290
     1
176
     1
290
     1
176
     1
290
     0
176
     1
290
     0
176
     1
290
     0
176
     1
290
     0
176
     1
290
     0
176
     1
290
     0
176
     1
290
     0
176
     1
 90
       50
176
     1
 40
0.0
176
     1
 40
1.0
176
     1
 90
        0
176
     1
 62
    18
420
        0
176
     1
 90
       50
176
     1
 90
        3
176
     1
 62
     5
420
      255
176
     1
290
     0
176
     1
 90
       50
176
     1
 90
       50
176
     1
 90
       50
176
     1
290
     0
176
     1
 90
       50
176
     1
 62
   256
176
     0
 40
1.0
176
     0
 90
        2
176
     1
  1
strokes_ogs.tif
176
     1
290
     0
176
     1
 40
1.0
176
     1
 40
1.0
176
     1
  0
VISUALSTYLE
  5
32
102
{ACAD_REACTORS
330
2A
102
}
330
2A
100
AcDbVisualStyle
  2
Basic
 70
     7
177
     3
291
     1
 70
    58
 90
        1
176
     1
 90
        0
176
     1
 90
        1
176
     1
 90
        0
176
     1
 40
0.6
176
     1
 40
30.0
176
     1
 62
     7
420
 16777215
176
     1
 90
        0
176
     1
 90
        4
176
     1
 62
     7
176
     1
 62
   257
176
     1
 90
        1
176
     1
 90
        1
176
     1
 40
1.0
176
     1
 90
        8
176
     1
 62
     7
176
     1
 40
1.0
176
     1
 90
        1
176
     1
 90
        6
176
     1
 90
        2
176
     1
 62
     7
176
     1
 90
        5
176
     1
 90
        0
176
     1
 90
        0
176
     1
290
     0
176
     1
 90
        1
176
     1
 40
0.0
176
     1
 90
        0
176
     1
290
     0
176
     1
290
     1
176
     1
290
     1
176
     1
290
     0
176
     1
290
     0
176
     1
290
     0
176
     1
290
     0
176
     1
290
     0
176
     1
290
     0
176
     1
 90
       50
176
     1
 40
0.0
176
     1
 40
1.0
176
     1
 90
        0
176
     1
 62
    18
420
        0
176
     1
 90
       50
176
     1
 90
        3
176
     1
 62
     5
420
      255
176
     1
290
     0
176
     1
 90
       50
176
     1
 90
       50
176
     1
 90
       50
176
     1
290
     0
176
     1
 90
       50
176
     1
 62
   256
176
     0
 40
1.0
176
     0
 90
        2
176
     1
  1
strokes_ogs.tif
176
     1
290
     0
176
     1
 40
1.0
176
     1
 40
1.0
176
     1
  0
VISUALSTYLE
  5
36
102
{ACAD_REACTORS
330
2A
102
}
330
2A
100
AcDbVisualStyle
  2
Brighten
 70
    12
177
     3
291
     1
 70
    58
 90
        2
176
     1
 90
        2
176
     1
 90
        0
176
     1
 90
        0
176
     1
 40
0.6
176
     1
 40
30.0
176
     1
 62
     7
420
 16777215
176
     1
 90
        1
176
     1
 90
        4
176
     1
 62
     7
176
     1
 62
   257
176
     1
 90
        1
176
     1
 90
        1
176
     1
 40
1.0
176
     1
 90
        8
176
     1
 62
     7
176
     1
 40
1.0
176
     1
 90
        1
176
     1
 90
        6
176
     1
 90
        2
176
     1
 62
     7
176
     1
 90
        5
176
     1
 90
        0
176
     1
 90
        0
176
     1
290
     0
176
     1
 90
        1
176
     1
 40
50.0
176
     1
 90
        0
176
     1
290
     0
176
     1
290
     1
176
     1
290
     1
176
     1
290
     0
176
     1
290
     0
176
     1
290
     0
176
     1
290
     0
176
     1
290
     0
176
     1
290
     0
176
     1
 90
       50
176
     1
 40
0.0
176
     1
 40
1.0
176
     1
 90
        0
176
     1
 62
    18
420
        0
176
     1
 90
       50
176
     1
 90
        3
176
     1
 62
     5
420
      255
176
     1
290
     0
176
     1
 90
       50
176
     1
 90
       50
176
     1
 90
       50
176
     1
290
     0
176
     1
 90
       50
176
     1
 62
   256
176
     0
 40
1.0
176
     0
 90
        2
176
     1
  1
strokes_ogs.tif
176
     1
290
     0
176
     1
 40
1.0
176
     1
 40
1.0
176
     1
  0
VISUALSTYLE
  5
3A
102
{ACAD_REACTORS
330
2A
102
}
330
2A
100
AcDbVisualStyle
  2
ColorChange
 70
    16
177
     3
291
     1
 70
    58
 90
        2
176
     1
 90
        2
176
     1
 90
        3
176
     1
 90
        0
176
     1
 40
0.6
176
     1
 40
30.0
176
     1
 62
     8
420
  8421504
176
     1
 90
        1
176
     1
 90
        4
176
     1
 62
     7
176
     1
 62
   257
176
     1
 90
        1
176
     1
 90
        1
176
     1
 40
1.0
176
     1
 90
        8
176
     1
 62
     8
420
  8421504
176
     1
 40
1.0
176
     1
 90
        1
176
     1
 90
        6
176
     1
 90
        2
176
     1
 62
     7
176
     1
 90
        5
176
     1
 90
        0
176
     1
 90
        0
176
     1
290
     0
176
     1
 90
        1
176
     1
 40
0.0
176
     1
 90
        0
176
     1
290
     0
176
     1
290
     1
176
     1
290
     1
176
     1
290
     0
176
     1
290
     0
176
     1
290
     0
176
     1
290
     0
176
     1
290
     0
176
     1
290
     0
176
     1
 90
       50
176
     1
 40
0.0
176
     1
 40
1.0
176
     1
 90
        0
176
     1
 62
    18
420
        0
176
     1
 90
       50
176
     1
 90
        3
176
     1
 62
     5
420
      255
176
     1
290
     0
176
     1
 90
       50
176
     1
 90
       50
176
     1
 90
       50
176
     1
290
     0
176
     1
 90
       50
176
     1
 62
   256
176
     0
 40
1.0
176
     0
 90
        2
176
     1
  1
strokes_ogs.tif
176
     1
290
     0
176
     1
 40
1.0
176
     1
 40
1.0
176
     1
  0
VISUALSTYLE
  5
34
102
{ACAD_REACTORS
330
2A
102
}
330
2A
100
AcDbVisualStyle
  2
Conceptual
 70
     9
177
     3
291
     0
 70
    58
 90
        3
176
     1
 90
        2
176
     1
 90
        0
176
     1
 90
        0
176
     1
 40
0.6
176
     1
 40
30.0
176
     1
 62
     7
420
 16777215
176
     1
 90
        2
176
     1
 90
        2
176
     1
 62
     7
176
     1
 62
   257
176
     1
 90
        1
176
     1
 90
        1
176
     1
 40
179.0
176
     1
 90
        8
176
     1
 62
     7
176
     1
 40
1.0
176
     1
 90
        1
176
     1
 90
        6
176
     1
 90
        2
176
     1
 62
     7
176
     1
 90
        3
176
     1
 90
        0
176
     1
 90
        0
176
     1
290
     0
176
     1
 90
        1
176
     1
 40
0.0
176
     1
 90
        0
176
     1
290
     0
176
     1
290
     1
176
     1
290
     1
176
     1
290
     0
176
     1
290
     0
176
     1
290
     0
176
     1
290
     0
176
     1
290
     0
176
     1
290
     0
176
     1
 90
       50
176
     1
 40
0.0
176
     1
 40
1.0
176
     1
 90
        0
176
     1
 62
    18
420
        0
176
     1
 90
       50
176
     1
 90
        3
176
     1
 62
     5
420
      255
176
     1
290
     0
176
     1
 90
       50
176
     1
 90
       50
176
     1
 90
       50
176
     1
290
     0
176
     1
 90
       50
176
     1
 62
   256
176
     0
 40
1.0
176
     0
 90
        2
176
     1
  1
strokes_ogs.tif
176
     1
290
     0
176
     1
 40
1.0
176
     1
 40
1.0
176
     1
  0
VISUALSTYLE
  5
35
102
{ACAD_REACTORS
330
2A
102
}
330
2A
100
AcDbVisualStyle
  2
Dim
 70
    11
177
     3
291
     1
 70
    58
 90
        2
176
     1
 90
        2
176
     1
 90
        0
176
     1
 90
        0
176
     1
 40
0.6
176
     1
 40
30.0
176
     1
 62
     7
420
 16777215
176
     1
 90
        1
176
     1
 90
        4
176
     1
 62
     7
176
     1
 62
   257
176
     1
 90
        1
176
     1
 90
        1
176
     1
 40
1.0
176
     1
 90
        8
176
     1
 62
     7
176
     1
 40
1.0
176
     1
 90
        1
176
     1
 90
        6
176
     1
 90
        2
176
     1
 62
     7
176
     1
 90
        5
176
     1
 90
        0
176
     1
 90
        0
176
     1
290
     0
176
     1
 90
        1
176
     1
 40
-50.0
176
     1
 90
        0
176
     1
290
     0
176
     1
290
     1
176
     1
290
     1
176
     1
290
     0
176
     1
290
     0
176
     1
290
     0
176
     1
290
     0
176
     1
290
     0
176
     1
290
     0
176
     1
 90
       50
176
     1
 40
0.0
176
     1
 40
1.0
176
     1
 90
        0
176
     1
 62
    18
420
        0
176
     1
 90
       50
176
     1
 90
        3
176
     1
 62
     5
420
      255
176
     1
290
     0
176
     1
 90
       50
176
     1
 90
       50
176
     1
 90
       50
176
     1
290
     0
176
     1
 90
       50
176
     1
 62
   256
176
     0
 40
1.0
176
     0
 90
        2
176
     1
  1
strokes_ogs.tif
176
     1
290
     0
176
     1
 40
1.0
176
     1
 40
1.0
176
     1
  0
VISUALSTYLE
  5
3D
102
{ACAD_REACTORS
330
2A
102
}
330
2A
100
AcDbVisualStyle
  2
EdgeColorOff
 70
    22
177
     3
291
     1
 70
    58
 90
        2
176
     0
 90
        2
176
     0
 90
        0
176
     0
 90
        0
176
     0
 40
0.6
176
     0
 40
30.0
176
     0
 62
     7
420
 16777215
176
     0
 90
        1
176
     0
 90
        4
176
     0
 62
     7
176
     0
 62
   257
176
     0
 90
        1
176
     0
 90
        1
176
     0
 40
1.0
176
     0
 90
        8
176
     2
 62
     7
176
     0
 40
1.0
176
     0
 90
        1
176
     0
 90
        6
176
     0
 90
        2
176
     0
 62
     7
176
     0
 90
        5
176
     0
 90
        0
176
     0
 90
        0
176
     0
290
     0
176
     0
 90
        1
176
     0
 40
0.0
176
     0
 90
        0
176
     0
290
     0
176
     0
290
     1
176
     0
290
     1
176
     0
290
     0
176
     0
290
     0
176
     0
290
     0
176
     0
290
     0
176
     0
290
     0
176
     0
290
     0
176
     0
 90
       50
176
     0
 40
0.0
176
     0
 40
1.0
176
     0
 90
        0
176
     0
 62
    18
420
        0
176
     0
 90
       50
176
     0
 90
        3
176
     0
 62
     5
420
      255
176
     0
290
     0
176
     0
 90
       50
176
     0
 90
       50
176
     0
 90
       50
176
     0
290
     0
176
     0
 90
       50
176
     0
 62
   256
176
     0
 40
1.0
176
     0
 90
        2
176
     0
  1
strokes_ogs.tif
176
     0
290
     0
176
     0
 40
1.0
176
     0
 40
1.0
176
     0
  0
VISUALSTYLE
  5
39
102
{ACAD_REACTORS
330
2A
102
}
330
2A
100
AcDbVisualStyle
  2
Facepattern
 70
    15
177
     3
291
     1
 70
    58
 90
        2
176
     1
 90
        2
176
     1
 90
        0
176
     1
 90
        0
176
     1
 40
0.6
176
     1
 40
30.0
176
     1
 62
     7
420
 16777215
176
     1
 90
        1
176
     1
 90
        4
176
     1
 62
     7
176
     1
 62
   257
176
     1
 90
        1
176
     1
 90
        1
176
     1
 40
1.0
176
     1
 90
        8
176
     1
 62
     7
176
     1
 40
1.0
176
     1
 90
        1
176
     1
 90
        6
176
     1
 90
        2
176
     1
 62
     7
176
     1
 90
        5
176
     1
 90
        0
176
     1
 90
        0
176
     1
290
     0
176
     1
 90
        1
176
     1
 40
0.0
176
     1
 90
        0
176
     1
290
     0
176
     1
290
     1
176
     1
290
     1
176
     1
290
     0
176
     1
290
     0
176
     1
290
     0
176
     1
290
     0
176
     1
290
     0
176
     1
290
     0
176
     1
 90
       50
176
     1
 40
0.0
176
     1
 40
1.0
176
     1
 90
        0
176
     1
 62
    18
420
        0
176
     1
 90
       50
176
     1
 90
        3
176
     1
 62
     5
420
      255
176
     1
290
     0
176
     1
 90
       50
176
     1
 90
       50
176
     1
 90
       50
176
     1
290
     0
176
     1
 90
       50
176
     1
 62
   256
176
     0
 40
1.0
176
     0
 90
        2
176
     1
  1
strokes_ogs.tif
176
     1
290
     0
176
     1
 40
1.0
176
     1
 40
1.0
176
     1
  0
VISUALSTYLE
  5
2B
102
{ACAD_REACTORS
330
2A
102
}
330
2A
100
AcDbVisualStyle
  2
Flat
 70
     0
177
     3
291
     1
 70
    58
 90
        2
176
     1
 90
        1
176
     1
 90
        1
176
     1
 90
        2
176
     1
 40
0.6
176
     1
 40
30.0
176
     1
 62
     7
420
 16777215
176
     1
 90
        0
176
     1
 90
        0
176
     1
 62
     7
176
     1
 62
   257
176
     1
 90
        1
176
     1
 90
        1
176
     1
 40
1.0
176
     1
 90
        8
176
     1
 62
     7
176
     1
 40
1.0
176
     1
 90
        1
176
     1
 90
        6
176
     1
 90
        2
176
     1
 62
     7
176
     1
 90
        5
176
     1
 90
        0
176
     1
 90
        0
176
     1
290
     0
176
     1
 90
       13
176
     1
 40
0.0
176
     1
 90
        0
176
     1
290
     0
176
     1
290
     1
176
     1
290
     1
176
     1
290
     0
176
     1
290
     0
176
     1
290
     0
176
     1
290
     0
176
     1
290
     0
176
     1
290
     0
176
     1
 90
       50
176
     1
 40
0.0
176
     1
 40
1.0
176
     1
 90
        0
176
     1
 62
    18
420
        0
176
     1
 90
       50
176
     1
 90
        3
176
     1
 62
     5
420
      255
176
     1
290
     0
176
     1
 90
       50
176
     1
 90
       50
176
     1
 90
       50
176
     1
290
     0
176
     1
 90
       50
176
     1
 62
   256
176
     0
 40
1.0
176
     0
 90
        2
176
     1
  1
strokes_ogs.tif
176
     1
290
     0
176
     1
 40
1.0
176
     1
 40
1.0
176
     1
  0
VISUALSTYLE
  5
2C
102
{ACAD_REACTORS
330
2A
102
}
330
2A
100
AcDbVisualStyle
  2
FlatWithEdges
 70
     1
177
     3
291
     1
 70
    58
 90
        2
176
     1
 90
        1
176
     1
 90
        1
176
     1
 90
        2
176
     1
 40
0.6
176
     1
 40
30.0
176
     1
 62
     7
420
 16777215
176
     1
 90
        1
176
     1
 90
        0
176
     1
 62
     7
176
     1
 62
   257
176
     1
 90
        1
176
     1
 90
        1
176
     1
 40
1.0
176
     1
 90
        0
176
     1
 62
   257
176
     1
 40
1.0
176
     1
 90
        1
176
     1
 90
        6
176
     1
 90
        2
176
     1
 62
     7
176
     1
 90
        5
176
     1
 90
        0
176
     1
 90
        0
176
     1
290
     0
176
     1
 90
       13
176
     1
 40
0.0
176
     1
 90
        0
176
     1
290
     0
176
     1
290
     1
176
     1
290
     1
176
     1
290
     0
176
     1
290
     0
176
     1
290
     0
176
     1
290
     0
176
     1
290
     0
176
     1
290
     0
176
     1
 90
       50
176
     1
 40
0.0
176
     1
 40
1.0
176
     1
 90
        0
176
     1
 62
    18
420
        0
176
     1
 90
       50
176
     1
 90
        3
176
     1
 62
     5
420
      255
176
     1
290
     0
176
     1
 90
       50
176
     1
 90
       50
176
     1
 90
       50
176
     1
290
     0
176
     1
 90
       50
176
     1
 62
   256
176
     0
 40
1.0
176
     0
 90
        2
176
     1
  1
strokes_ogs.tif
176
     1
290
     0
176
     1
 40
1.0
176
     1
 40
1.0
176
     1
  0
VISUALSTYLE
  5
2D
102
{ACAD_REACTORS
330
2A
102
}
330
2A
100
AcDbVisualStyle
  2
Gouraud
 70
     2
177
     3
291
     1
 70
    58
 90
        2
176
     1
 90
        2
176
     1
 90
        1
176
     1
 90
        2
176
     1
 40
0.6
176
     1
 40
30.0
176
     1
 62
     7
420
 16777215
176
     1
 90
        0
176
     1
 90
        0
176
     1
 62
     7
176
     1
 62
   257
176
     1
 90
        1
176
     1
 90
        1
176
     1
 40
1.0
176
     1
 90
        0
176
     1
 62
     7
176
     1
 40
1.0
176
     1
 90
        1
176
     1
 90
        6
176
     1
 90
        2
176
     1
 62
     7
176
     1
 90
        5
176
     1
 90
        0
176
     1
 90
        0
176
     1
290
     0
176
     1
 90
       13
176
     1
 40
0.0
176
     1
 90
        0
176
     1
290
     0
176
     1
290
     1
176
     1
290
     1
176
     1
290
     0
176
     1
290
     0
176
     1
290
     0
176
     1
290
     0
176
     1
290
     0
176
     1
290
     0
176
     1
 90
       50
176
     1
 40
0.0
176
     1
 40
1.0
176
     1
 90
        0
176
     1
 62
    18
420
        0
176
     1
 90
       50
176
     1
 90
        3
176
     1
 62
     5
420
      255
176
     1
290
     0
176
     1
 90
       50
176
     1
 90
       50
176
     1
 90
       50
176
     1
290
     0
176
     1
 90
       50
176
     1
 62
   256
176
     0
 40
1.0
176
     0
 90
        2
176
     1
  1
strokes_ogs.tif
176
     1
290
     0
176
     1
 40
1.0
176
     1
 40
1.0
176
     1
  0
VISUALSTYLE
  5
2E
102
{ACAD_REACTORS
330
2A
102
}
330
2A
100
AcDbVisualStyle
  2
GouraudWithEdges
 70
     3
177
     3
291
     1
 70
    58
 90
        2
176
     1
 90
        2
176
     1
 90
        1
176
     1
 90
        2
176
     1
 40
0.6
176
     1
 40
30.0
176
     1
 62
     7
420
 16777215
176
     1
 90
        1
176
     1
 90
        0
176
     1
 62
     7
176
     1
 62
   257
176
     1
 90
        1
176
     1
 90
        1
176
     1
 40
1.0
176
     1
 90
        0
176
     1
 62
   257
176
     1
 40
1.0
176
     1
 90
        1
176
     1
 90
        6
176
     1
 90
        2
176
     1
 62
     7
176
     1
 90
        5
176
     1
 90
        0
176
     1
 90
        0
176
     1
290
     0
176
     1
 90
       13
176
     1
 40
0.0
176
     1
 90
        0
176
     1
290
     0
176
     1
290
     1
176
     1
290
     1
176
     1
290
     0
176
     1
290
     0
176
     1
290
     0
176
     1
290
     0
176
     1
290
     0
176
     1
290
     0
176
     1
 90
       50
176
     1
 40
0.0
176
     1
 40
1.0
176
     1
 90
        0
176
     1
 62
    18
420
        0
176
     1
 90
       50
176
     1
 90
        3
176
     1
 62
     5
420
      255
176
     1
290
     0
176
     1
 90
       50
176
     1
 90
       50
176
     1
 90
       50
176
     1
290
     0
176
     1
 90
       50
176
     1
 62
   256
176
     0
 40
1.0
176
     0
 90
        2
176
     1
  1
strokes_ogs.tif
176
     1
290
     0
176
     1
 40
1.0
176
     1
 40
1.0
176
     1
  0
VISUALSTYLE
  5
31
102
{ACAD_REACTORS
330
2A
102
}
330
2A
100
AcDbVisualStyle
  2
Hidden
 70
     6
177
     3
291
     0
 70
    58
 90
        1
176
     1
 90
        2
176
     1
 90
        2
176
     1
 90
        0
176
     1
 40
0.6
176
     1
 40
30.0
176
     1
 62
     7
420
 16777215
176
     1
 90
        2
176
     1
 90
        2
176
     1
 62
     7
176
     1
 62
   257
176
     1
 90
        2
176
     1
 90
        1
176
     1
 40
40.0
176
     1
 90
        0
176
     1
 62
   257
176
     1
 40
1.0
176
     1
 90
        1
176
     1
 90
        6
176
     1
 90
        2
176
     1
 62
     7
176
     1
 90
        3
176
     1
 90
        0
176
     1
 90
        0
176
     1
290
     0
176
     1
 90
        1
176
     1
 40
0.0
176
     1
 90
        0
176
     1
290
     0
176
     1
290
     1
176
     1
290
     1
176
     1
290
     0
176
     1
290
     0
176
     1
290
     0
176
     1
290
     0
176
     1
290
     0
176
     1
290
     0
176
     1
 90
       50
176
     1
 40
0.0
176
     1
 40
1.0
176
     1
 90
        0
176
     1
 62
    18
420
        0
176
     1
 90
       50
176
     1
 90
        3
176
     1
 62
     5
420
      255
176
     1
290
     0
176
     1
 90
       50
176
     1
 90
       50
176
     1
 90
       50
176
     1
290
     0
176
     1
 90
       50
176
     1
 62
   256
176
     0
 40
1.0
176
     0
 90
        2
176
     1
  1
strokes_ogs.tif
176
     1
290
     0
176
     1
 40
1.0
176
     1
 40
1.0
176
     1
  0
VISUALSTYLE
  5
3B
102
{ACAD_REACTORS
330
2A
102
}
330
2A
100
AcDbVisualStyle
  2
JitterOff
 70
    20
177
     3
291
     1
 70
    58
 90
        2
176
     0
 90
        2
176
     0
 90
        0
176
     0
 90
        0
176
     0
 40
0.6
176
     0
 40
30.0
176
     0
 62
     7
420
 16777215
176
     0
 90
        1
176
     0
 90
        4
176
     0
 62
     7
176
     0
 62
   257
176
     0
 90
        1
176
     0
 90
        1
176
     0
 40
1.0
176
     0
 90
       10
176
     2
 62
     7
176
     0
 40
1.0
176
     0
 90
        1
176
     0
 90
        6
176
     0
 90
        2
176
     0
 62
     7
176
     0
 90
        5
176
     0
 90
        0
176
     0
 90
        0
176
     0
290
     0
176
     0
 90
        1
176
     0
 40
0.0
176
     0
 90
        0
176
     0
290
     0
176
     0
290
     1
176
     0
290
     1
176
     0
290
     0
176
     0
290
     0
176
     0
290
     0
176
     0
290
     0
176
     0
290
     0
176
     0
290
     0
176
     0
 90
       50
176
     0
 40
0.0
176
     0
 40
1.0
176
     0
 90
        0
176
     0
 62
    18
420
        0
176
     0
 90
       50
176
     0
 90
        3
176
     0
 62
     5
420
      255
176
     0
290
     0
176
     0
 90
       50
176
     0
 90
       50
176
     0
 90
       50
176
     0
290
     0
176
     0
 90
       50
176
     0
 62
   256
176
     0
 40
1.0
176
     0
 90
        2
176
     0
  1
strokes_ogs.tif
176
     0
290
     0
176
     0
 40
1.0
176
     0
 40
1.0
176
     0
  0
VISUALSTYLE
  5
38
102
{ACAD_REACTORS
330
2A
102
}
330
2A
100
AcDbVisualStyle
  2
Linepattern
 70
    14
177
     3
291
     1
 70
    58
 90
        2
176
     1
 90
        2
176
     1
 90
        0
176
     1
 90
        0
176
     1
 40
0.6
176
     1
 40
30.0
176
     1
 62
     7
420
 16777215
176
     1
 90
        1
176
     1
 90
        4
176
     1
 62
     7
176
     1
 62
   257
176
     1
 90
        7
176
     1
 90
        7
176
     1
 40
1.0
176
     1
 90
        8
176
     1
 62
     7
176
     1
 40
1.0
176
     1
 90
        1
176
     1
 90
        6
176
     1
 90
        2
176
     1
 62
     7
176
     1
 90
        5
176
     1
 90
        0
176
     1
 90
        0
176
     1
290
     0
176
     1
 90
        1
176
     1
 40
0.0
176
     1
 90
        0
176
     1
290
     0
176
     1
290
     1
176
     1
290
     1
176
     1
290
     0
176
     1
290
     0
176
     1
290
     0
176
     1
290
     0
176
     1
290
     0
176
     1
290
     0
176
     1
 90
       50
176
     1
 40
0.0
176
     1
 40
1.0
176
     1
 90
        0
176
     1
 62
    18
420
        0
176
     1
 90
       50
176
     1
 90
        3
176
     1
 62
     5
420
      255
176
     1
290
     0
176
     1
 90
       50
176
     1
 90
       50
176
     1
 90
       50
176
     1
290
     0
176
     1
 90
       50
176
     1
 62
   256
176
     0
 40
1.0
176
     0
 90
        2
176
     1
  1
strokes_ogs.tif
176
     1
290
     0
176
     1
 40
1.0
176
     1
 40
1.0
176
     1
  0
VISUALSTYLE
  5
3C
102
{ACAD_REACTORS
330
2A
102
}
330
2A
100
AcDbVisualStyle
  2
OverhangOff
 70
    21
177
     3
291
     1
 70
    58
 90
        2
176
     0
 90
        2
176
     0
 90
        0
176
     0
 90
        0
176
     0
 40
0.6
176
     0
 40
30.0
176
     0
 62
     7
420
 16777215
176
     0
 90
        1
176
     0
 90
        4
176
     0
 62
     7
176
     0
 62
   257
176
     0
 90
        1
176
     0
 90
        1
176
     0
 40
1.0
176
     0
 90
        9
176
     2
 62
     7
176
     0
 40
1.0
176
     0
 90
        1
176
     0
 90
        6
176
     0
 90
        2
176
     0
 62
     7
176
     0
 90
        5
176
     0
 90
        0
176
     0
 90
        0
176
     0
290
     0
176
     0
 90
        1
176
     0
 40
0.0
176
     0
 90
        0
176
     0
290
     0
176
     0
290
     1
176
     0
290
     1
176
     0
290
     0
176
     0
290
     0
176
     0
290
     0
176
     0
290
     0
176
     0
290
     0
176
     0
290
     0
176
     0
 90
       50
176
     0
 40
0.0
176
     0
 40
1.0
176
     0
 90
        0
176
     0
 62
    18
420
        0
176
     0
 90
       50
176
     0
 90
        3
176
     0
 62
     5
420
      255
176
     0
290
     0
176
     0
 90
       50
176
     0
 90
       50
176
     0
 90
       50
176
     0
290
     0
176
     0
 90
       50
176
     0
 62
   256
176
     0
 40
1.0
176
     0
 90
        2
176
     0
  1
strokes_ogs.tif
176
     0
290
     0
176
     0
 40
1.0
176
     0
 40
1.0
176
     0
  0
VISUALSTYLE
  5
33
102
{ACAD_REACTORS
330
2A
102
}
330
2A
100
AcDbVisualStyle
  2
Realistic
 70
     8
177
     3
291
     0
 70
    58
 90
        2
176
     1
 90
        3
176
     1
 90
        0
176
     1
 90
        2
176
     1
 40
0.6
176
     1
 40
30.0
176
     1
 62
     7
420
 16777215
176
     1
 90
        0
176
     1
 90
        0
176
     1
 62
     7
176
     1
 62
   257
176
     1
 90
        1
176
     1
 90
        1
176
     1
 40
1.0
176
     1
 90
        8
176
     1
 62
   257
176
     1
 40
1.0
176
     1
 90
        1
176
     1
 90
        6
176
     1
 90
        2
176
     1
 62
     7
176
     1
 90
        3
176
     1
 90
        0
176
     1
 90
        0
176
     1
290
     0
176
     1
 90
       13
176
     1
 40
0.0
176
     1
 90
        0
176
     1
290
     0
176
     1
290
     1
176
     1
290
     1
176
     1
290
     0
176
     1
290
     0
176
     1
290
     0
176
     1
290
     0
176
     1
290
     0
176
     1
290
     0
176
     1
 90
       50
176
     1
 40
0.0
176
     1
 40
1.0
176
     1
 90
        0
176
     1
 62
    18
420
        0
176
     1
 90
       50
176
     1
 90
        3
176
     1
 62
     5
420
      255
176
     1
290
     0
176
     1
 90
       50
176
     1
 90
       50
176
     1
 90
       50
176
     1
290
     0
176
     1
 90
       50
176
     1
 62
   256
176
     0
 40
1.0
176
     0
 90
        2
176
     1
  1
strokes_ogs.tif
176
     1
290
     0
176
     1
 40
1.0
176
     1
 40
1.0
176
     1
  0
VISUALSTYLE
  5
42
102
{ACAD_REACTORS
330
2A
102
}
330
2A
100
AcDbVisualStyle
  2
Shaded
 70
    27
177
     3
291
     0
 70
    58
 90
        2
176
     1
 90
        2
176
     1
 90
        1
176
     1
 90
        2
176
     1
 40
0.6
176
     1
 40
30.0
176
     1
 62
     7
420
 16777215
176
     1
 90
        0
176
     1
 90
        4
176
     1
 62
     7
176
     1
 62
   257
176
     1
 90
        1
176
     1
 90
        1
176
     1
 40
1.0
176
     1
 90
        8
176
     1
 62
   257
176
     1
 40
1.0
176
     1
 90
        1
176
     1
 90
        6
176
     1
 90
        2
176
     1
 62
     8
420
  7895160
176
     1
 90
        3
176
     1
 90
        0
176
     1
 90
        0
176
     1
290
     0
176
     1
 90
        5
176
     1
 40
0.0
176
     1
 90
        0
176
     1
290
     0
176
     1
290
     1
176
     1
290
     1
176
     1
290
     0
176
     1
290
     0
176
     1
290
     0
176
     1
290
     0
176
     1
290
     0
176
     1
290
     0
176
     1
 90
       50
176
     1
 40
0.0
176
     1
 40
1.0
176
     1
 90
        0
176
     1
 62
    18
420
        0
176
     1
 90
       50
176
     1
 90
        3
176
     1
 62
     5
420
      255
176
     1
290
     0
176
     1
 90
       50
176
     1
 90
       50
176
     1
 90
       50
176
     1
290
     0
176
     1
 90
       50
176
     1
 62
   256
176
     0
 40
1.0
176
     0
 90
        2
176
     1
  1
strokes_ogs.tif
176
     1
290
     0
176
     1
 40
1.0
176
     1
 40
1.0
176
     1
  0
VISUALSTYLE
  5
41
102
{ACAD_REACTORS
330
2A
102
}
330
2A
100
AcDbVisualStyle
  2
Shaded with edges
 70
    26
177
     3
291
     0
 70
    58
 90
        2
176
     1
 90
        2
176
     1
 90
        1
176
     1
 90
        2
176
     1
 40
0.6
176
     1
 40
30.0
176
     1
 62
     7
420
 16777215
176
     1
 90
        1
176
     1
 90
       10
176
     1
 62
     7
176
     1
 62
   257
176
     1
 90
        2
176
     1
 90
        1
176
     1
 40
1.0
176
     1
 90
        8
176
     1
 62
   257
176
     1
 40
1.0
176
     1
 90
        1
176
     1
 90
        6
176
     1
 90
        2
176
     1
 62
     7
176
     1
 90
        3
176
     1
 90
        0
176
     1
 90
        0
176
     1
290
     0
176
     1
 90
        5
176
     1
 40
0.0
176
     1
 90
        0
176
     1
290
     0
176
     1
290
     1
176
     1
290
     1
176
     1
290
     0
176
     1
290
     0
176
     1
290
     0
176
     1
290
     0
176
     1
290
     0
176
     1
290
     0
176
     1
 90
       50
176
     1
 40
0.0
176
     1
 40
1.0
176
     1
 90
        0
176
     1
 62
    18
420
        0
176
     1
 90
       50
176
     1
 90
        3
176
     1
 62
     5
420
      255
176
     1
290
     0
176
     1
 90
       50
176
     1
 90
       50
176
     1
 90
       50
176
     1
290
     0
176
     1
 90
       50
176
     1
 62
   256
176
     0
 40
1.0
176
     0
 90
        2
176
     1
  1
strokes_ogs.tif
176
     1
290
     0
176
     1
 40
1.0
176
     1
 40
1.0
176
     1
  0
VISUALSTYLE
  5
3E
102
{ACAD_REACTORS
330
2A
102
}
330
2A
100
AcDbVisualStyle
  2
Shades of Gray
 70
    23
177
     3
291
     0
 70
    58
 90
        2
176
     1
 90
        2
176
     1
 90
        3
176
     1
 90
        0
176
     1
 40
0.6
176
     1
 40
30.0
176
     1
 62
     7
420
 16777215
176
     1
 90
        2
176
     1
 90
        2
176
     1
 62
     7
176
     1
 62
     7
176
     1
 90
        1
176
     1
 90
        1
176
     1
 40
40.0
176
     1
 90
        8
176
     1
 62
     7
176
     1
 40
1.0
176
     1
 90
        1
176
     1
 90
        6
176
     1
 90
        2
176
     1
 62
     7
176
     1
 90
        3
176
     1
 90
        0
176
     1
 90
        0
176
     1
290
     0
176
     1
 90
        1
176
     1
 40
0.0
176
     1
 90
        0
176
     1
290
     0
176
     1
290
     1
176
     1
290
     1
176
     1
290
     0
176
     1
290
     0
176
     1
290
     0
176
     1
290
     0
176
     1
290
     0
176
     1
290
     0
176
     1
 90
       50
176
     1
 40
0.0
176
     1
 40
1.0
176
     1
 90
        0
176
     1
 62
    18
420
        0
176
     1
 90
       50
176
     1
 90
        3
176
     1
 62
     5
420
      255
176
     1
290
     0
176
     1
 90
       50
176
     1
 90
       50
176
     1
 90
       50
176
     1
290
     0
176
     1
 90
       50
176
     1
 62
   256
176
     0
 40
1.0
176
     0
 90
        2
176
     1
  1
strokes_ogs.tif
176
     1
290
     0
176
     1
 40
1.0
176
     1
 40
1.0
176
     1
  0
VISUALSTYLE
  5
3F
102
{ACAD_REACTORS
330
2A
102
}
330
2A
100
AcDbVisualStyle
  2
Sketchy
 70
    24
177
     3
291
     0
 70
    58
 90
        1
176
     1
 90
        2
176
     1
 90
        2
176
     1
 90
        0
176
     1
 40
0.6
176
     1
 40
30.0
176
     1
 62
     7
420
 16777215
176
     1
 90
        2
176
     1
 90
        2
176
     1
 62
     7
176
     1
 62
     7
176
     1
 90
        1
176
     1
 90
        1
176
     1
 40
40.0
176
     1
 90
       11
176
     1
 62
     7
176
     1
 40
1.0
176
     1
 90
        1
176
     1
 90
        6
176
     1
 90
        2
176
     1
 62
     7
176
     1
 90
        6
176
     1
 90
        0
176
     1
 90
        0
176
     1
290
     0
176
     1
 90
        1
176
     1
 40
0.0
176
     1
 90
        0
176
     1
290
     0
176
     1
290
     1
176
     1
290
     1
176
     1
290
     0
176
     1
290
     0
176
     1
290
     0
176
     1
290
     0
176
     1
290
     0
176
     1
290
     0
176
     1
 90
       50
176
     1
 40
0.0
176
     1
 40
1.0
176
     1
 90
        0
176
     1
 62
    18
420
        0
176
     1
 90
       50
176
     1
 90
        3
176
     1
 62
     5
420
      255
176
     1
290
     0
176
     1
 90
       50
176
     1
 90
       50
176
     1
 90
       50
176
     1
290
     0
176
     1
 90
       50
176
     1
 62
   256
176
     0
 40
1.0
176
     0
 90
        2
176
     1
  1
strokes_ogs.tif
176
     1
290
     0
176
     1
 40
1.0
176
     1
 40
1.0
176
     1
  0
VISUALSTYLE
  5
37
102
{ACAD_REACTORS
330
2A
102
}
330
2A
100
AcDbVisualStyle
  2
Thicken
 70
    13
177
     3
291
     1
 70
    58
 90
        2
176
     1
 90
        2
176
     1
 90
        0
176
     1
 90
        0
176
     1
 40
0.6
176
     1
 40
30.0
176
     1
 62
     7
420
 16777215
176
     1
 90
        1
176
     1
 90
        4
176
     1
 62
     7
176
     1
 62
   257
176
     1
 90
        1
176
     1
 90
        1
176
     1
 40
1.0
176
     1
 90
       12
176
     1
 62
     7
176
     1
 40
1.0
176
     1
 90
        1
176
     1
 90
        6
176
     1
 90
        2
176
     1
 62
     7
176
     1
 90
        5
176
     1
 90
        0
176
     1
 90
        0
176
     1
290
     0
176
     1
 90
        1
176
     1
 40
0.0
176
     1
 90
        0
176
     1
290
     0
176
     1
290
     1
176
     1
290
     1
176
     1
290
     0
176
     1
290
     0
176
     1
290
     0
176
     1
290
     0
176
     1
290
     0
176
     1
290
     0
176
     1
 90
       50
176
     1
 40
0.0
176
     1
 40
1.0
176
     1
 90
        0
176
     1
 62
    18
420
        0
176
     1
 90
       50
176
     1
 90
        3
176
     1
 62
     5
420
      255
176
     1
290
     0
176
     1
 90
       50
176
     1
 90
       50
176
     1
 90
       50
176
     1
290
     0
176
     1
 90
       50
176
     1
 62
   256
176
     0
 40
1.0
176
     0
 90
        2
176
     1
  1
strokes_ogs.tif
176
     1
290
     0
176
     1
 40
1.0
176
     1
 40
1.0
176
     1
  0
VISUALSTYLE
  5
30
102
{ACAD_REACTORS
330
2A
102
}
330
2A
100
AcDbVisualStyle
  2
Wireframe
 70
     5
177
     3
291
     0
 70
    58
 90
        0
176
     1
 90
        2
176
     1
 90
        0
176
     1
 90
        0
176
     1
 40
0.6
176
     1
 40
30.0
176
     1
 62
     7
420
 16777215
176
     1
 90
        1
176
     1
 90
        4
176
     1
 62
     7
176
     1
 62
   257
176
     1
 90
        1
176
     1
 90
        1
176
     1
 40
1.0
176
     1
 90
        0
176
     1
 62
   257
176
     1
 40
1.0
176
     1
 90
        1
176
     1
 90
        6
176
     1
 90
        2
176
     1
 62
     7
176
     1
 90
        3
176
     1
 90
        0
176
     1
 90
        0
176
     1
290
     0
176
     1
 90
        1
176
     1
 40
0.0
176
     1
 90
        0
176
     1
290
     0
176
     1
290
     1
176
     1
290
     1
176
     1
290
     0
176
     1
290
     0
176
     1
290
     0
176
     1
290
     0
176
     1
290
     0
176
     1
290
     0
176
     1
 90
       50
176
     1
 40
0.0
176
     1
 40
1.0
176
     1
 90
        0
176
     1
 62
    18
420
        0
176
     1
 90
       50
176
     1
 90
        3
176
     1
 62
     5
420
      255
176
     1
290
     0
176
     1
 90
       50
176
     1
 90
       50
176
     1
 90
       50
176
     1
290
     0
176
     1
 90
       50
176
     1
 62
   256
176
     0
 40
1.0
176
     0
 90
        2
176
     1
  1
strokes_ogs.tif
176
     1
290
     0
176
     1
 40
1.0
176
     1
 40
1.0
176
     1
  0
VISUALSTYLE
  5
40
102
{ACAD_REACTORS
330
2A
102
}
330
2A
100
AcDbVisualStyle
  2
X-Ray
 70
    25
177
     3
291
     0
 70
    58
 90
        2
176
     1
 90
        2
176
     1
 90
        1
176
     1
 90
        1
176
     1
 40
0.5
176
     1
 40
30.0
176
     1
 62
     7
420
 16777215
176
     1
 90
        1
176
     1
 90
        0
176
     1
 62
     7
176
     1
 62
   257
176
     1
 90
        1
176
     1
 90
        1
176
     1
 40
1.0
176
     1
 90
        8
176
     1
 62
     7
176
     1
 40
1.0
176
     1
 90
        1
176
     1
 90
        6
176
     1
 90
        2
176
     1
 62
     7
176
     1
 90
        3
176
     1
 90
        0
176
     1
 90
        0
176
     1
290
     0
176
     1
 90
       13
176
     1
 40
0.0
176
     1
 90
        0
176
     1
290
     0
176
     1
290
     1
176
     1
290
     1
176
     1
290
     0
176
     1
290
     0
176
     1
290
     0
176
     1
290
     0
176
     1
290
     0
176
     1
290
     0
176
     1
 90
       50
176
     1
 40
0.0
176
     1
 40
1.0
176
     1
 90
        0
176
     1
 62
    18
420
        0
176
     1
 90
       50
176
     1
 90
        3
176
     1
 62
     5
420
      255
176
     1
290
     0
176
     1
 90
       50
176
     1
 90
       50
176
     1
 90
       50
176
     1
290
     0
176
     1
 90
       50
176
     1
 62
   256
176
     0
 40
1.0
176
     0
 90
        2
176
     1
  1
strokes_ogs.tif
176
     1
290
     0
176
     1
 40
1.0
176
     1
 40
1.0
176
     1
  0
DICTIONARYVAR
  5
121
102
{ACAD_REACTORS
330
120
102
}
330
120
100
DictionaryVariables
280
     0
  1
1:1
  0
DICTIONARYVAR
  5
126
102
{ACAD_REACTORS
330
120
102
}
330
120
100
DictionaryVariables
280
     0
  1
Standard
  0
DICTIONARYVAR
  5
125
102
{ACAD_REACTORS
330
120
102
}
330
120
100
DictionaryVariables
280
     0
  1
Standard
  0
DICTIONARY
  5
122
330
5A
100
AcDbDictionary
280
     1
281
     1
  3
ACAD_ROUNDTRIP_2008_TABLESTYLE_CELLSTYLEMAP
360
123
  0
CELLSTYLEMAP
  5
123
102
{ACAD_REACTORS
330
122
102
}
330
122
100
AcDbCellStyleMap
 90
        3
300
CELLSTYLE
  1
TABLEFORMAT_BEGIN
 90
        5
170
     1
 91
        0
 92
    32768
 62
   257
 93
        1
300
CONTENTFORMAT
  1
CONTENTFORMAT_BEGIN
 90
        0
 91
        0
 92
        4
 93
        0
300

 40
0.0
140
1.0
 94
        5
 62
     0
340
11
144
0.25
309
CONTENTFORMAT_END
171
     1
301
MARGIN
  1
CELLMARGIN_BEGIN
 40
0.06
 40
0.06
 40
0.06
 40
0.06
 40
0.06
 40
0.06
309
CELLMARGIN_END
 94
        6
 95
        1
302
GRIDFORMAT
  1
GRIDFORMAT_BEGIN
 90
        0
 91
        1
 62
     0
 92
       -2
340
14
 93
        0
 40
0.045
309
GRIDFORMAT_END
 95
        2
302
GRIDFORMAT
  1
GRIDFORMAT_BEGIN
 90
        0
 91
        1
 62
     0
 92
       -2
340
14
 93
        0
 40
0.045
309
GRIDFORMAT_END
 95
        4
302
GRIDFORMAT
  1
GRIDFORMAT_BEGIN
 90
        0
 91
        1
 62
     0
 92
       -2
340
14
 93
        0
 40
0.045
309
GRIDFORMAT_END
 95
        8
302
GRIDFORMAT
  1
GRIDFORMAT_BEGIN
 90
        0
 91
        1
 62
     0
 92
       -2
340
14
 93
        0
 40
0.045
309
GRIDFORMAT_END
 95
       16
302
GRIDFORMAT
  1
GRIDFORMAT_BEGIN
 90
        0
 91
        1
 62
     0
 92
       -2
340
14
 93
        0
 40
0.045
309
GRIDFORMAT_END
 95
       32
302
GRIDFORMAT
  1
GRIDFORMAT_BEGIN
 90
        0
 91
        1
 62
     0
 92
       -2
340
14
 93
        0
 40
0.045
309
GRIDFORMAT_END
309
TABLEFORMAT_END
  1
CELLSTYLE_BEGIN
 90
        1
 91
        1
300
_TITLE
309
CELLSTYLE_END
300
CELLSTYLE
  1
TABLEFORMAT_BEGIN
 90
        5
170
     1
 91
        0
 92
        0
 62
   257
 93
        1
300
CONTENTFORMAT
  1
CONTENTFORMAT_BEGIN
 90
        0
 91
        0
 92
        4
 93
        0
300

 40
0.0
140
1.0
 94
        5
 62
     0
340
11
144
0.18
309
CONTENTFORMAT_END
171
     1
301
MARGIN
  1
CELLMARGIN_BEGIN
 40
0.06
 40
0.06
 40
0.06
 40
0.06
 40
0.06
 40
0.06
309
CELLMARGIN_END
 94
        6
 95
        1
302
GRIDFORMAT
  1
GRIDFORMAT_BEGIN
 90
        0
 91
        1
 62
     0
 92
       -2
340
14
 93
        0
 40
0.045
309
GRIDFORMAT_END
 95
        2
302
GRIDFORMAT
  1
GRIDFORMAT_BEGIN
 90
        0
 91
        1
 62
     0
 92
       -2
340
14
 93
        0
 40
0.045
309
GRIDFORMAT_END
 95
        4
302
GRIDFORMAT
  1
GRIDFORMAT_BEGIN
 90
        0
 91
        1
 62
     0
 92
       -2
340
14
 93
        0
 40
0.045
309
GRIDFORMAT_END
 95
        8
302
GRIDFORMAT
  1
GRIDFORMAT_BEGIN
 90
        0
 91
        1
 62
     0
 92
       -2
340
14
 93
        0
 40
0.045
309
GRIDFORMAT_END
 95
       16
302
GRIDFORMAT
  1
GRIDFORMAT_BEGIN
 90
        0
 91
        1
 62
     0
 92
       -2
340
14
 93
        0
 40
0.045
309
GRIDFORMAT_END
 95
       32
302
GRIDFORMAT
  1
GRIDFORMAT_BEGIN
 90
        0
 91
        1
 62
     0
 92
       -2
340
14
 93
        0
 40
0.045
309
GRIDFORMAT_END
309
TABLEFORMAT_END
  1
CELLSTYLE_BEGIN
 90
        2
 91
        1
300
_HEADER
309
CELLSTYLE_END
300
CELLSTYLE
  1
TABLEFORMAT_BEGIN
 90
        5
170
     1
 91
        0
 92
        0
 62
   257
 93
        1
300
CONTENTFORMAT
  1
CONTENTFORMAT_BEGIN
 90
        0
 91
        0
 92
        4
 93
        0
300

 40
0.0
140
1.0
 94
        2
 62
     0
340
11
144
0.18
309
CONTENTFORMAT_END
171
     1
301
MARGIN
  1
CELLMARGIN_BEGIN
 40
0.06
 40
0.06
 40
0.06
 40
0.06
 40
0.06
 40
0.06
309
CELLMARGIN_END
 94
        6
 95
        1
302
GRIDFORMAT
  1
GRIDFORMAT_BEGIN
 90
        0
 91
        1
 62
     0
 92
       -2
340
14
 93
        0
 40
0.045
309
GRIDFORMAT_END
 95
        2
302
GRIDFORMAT
  1
GRIDFORMAT_BEGIN
 90
        0
 91
        1
 62
     0
 92
       -2
340
14
 93
        0
 40
0.045
309
GRIDFORMAT_END
 95
        4
302
GRIDFORMAT
  1
GRIDFORMAT_BEGIN
 90
        0
 91
        1
 62
     0
 92
       -2
340
14
 93
        0
 40
0.045
309
GRIDFORMAT_END
 95
        8
302
GRIDFORMAT
  1
GRIDFORMAT_BEGIN
 90
        0
 91
        1
 62
     0
 92
       -2
340
14
 93
        0
 40
0.045
309
GRIDFORMAT_END
 95
       16
302
GRIDFORMAT
  1
GRIDFORMAT_BEGIN
 90
        0
 91
        1
 62
     0
 92
       -2
340
14
 93
        0
 40
0.045
309
GRIDFORMAT_END
 95
       32
302
GRIDFORMAT
  1
GRIDFORMAT_BEGIN
 90
        0
 91
        1
 62
     0
 92
       -2
340
14
 93
        0
 40
0.045
309
GRIDFORMAT_END
309
TABLEFORMAT_END
  1
CELLSTYLE_BEGIN
 90
        3
 91
        2
300
_DATA
309
CELLSTYLE_END
  0
ENDSEC
  0
EOF
