  0
SECTION
  2
HEADER
  9
$ACADVER
  1
AC1027
  9
$ACADMAINTVER
 70
   105
  9
$DWGCODEPAGE
  3
ANSI_1252
  9
$LASTSAVEDBY
  1
Office Desk
  9
$REQUIREDVERSIONS
160
                 0
  9
$INSBASE
 10
0.0
 20
0.0
 30
0.0
  9
$EXTMIN
 10
-560.1323
 20
-463.9576
 30
0.0
  9
$EXTMAX
 10
-194.1474
 20
-115.0164
 30
0.0
  9
$LIMMIN
 10
0.0
 20
0.0
  9
$LIMMAX
 10
12.0
 20
9.0
  9
$ORTHOMODE
 70
     0
  9
$REGENMODE
 70
     1
  9
$FILLMODE
 70
     1
  9
$QTEXTMODE
 70
     0
  9
$MIRRTEXT
 70
     1
  9
$LTSCALE
 40
1.0
  9
$ATTMODE
 70
     1
  9
$TEXTSIZE
 40
0.2
  9
$TRACEWID
 40
0.05
  9
$TEXTSTYLE
  7
Standard
  9
$CLAYER
  8
0
  9
$CELTYPE
  6
ByLayer
  9
$CECOLOR
 62
   256
  9
$CELTSCALE
 40
1.0
  9
$DISPSILH
 70
     0
  9
$DIMSCALE
 40
1.0
  9
$DIMASZ
 40
0.18
  9
$DIMEXO
 40
0.0625
  9
$DIMDLI
 40
0.38
  9
$DIMRND
 40
0.0
  9
$DIMDLE
 40
0.0
  9
$DIMEXE
 40
0.18
  9
$DIMTP
 40
0.0
  9
$DIMTM
 40
0.0
  9
$DIMTXT
 40
0.18
  9
$DIMCEN
 40
0.09
  9
$DIMTSZ
 40
0.0
  9
$DIMTOL
 70
     0
  9
$DIMLIM
 70
     0
  9
$DIMTIH
 70
     1
  9
$DIMTOH
 70
     1
  9
$DIMSE1
 70
     0
  9
$DIMSE2
 70
     0
  9
$DIMTAD
 70
     0
  9
$DIMZIN
 70
     0
  9
$DIMBLK
  1

  9
$DIMASO
 70
     1
  9
$DIMSHO
 70
     1
  9
$DIMPOST
  1

  9
$DIMAPOST
  1

  9
$DIMALT
 70
     0
  9
$DIMALTD
 70
     2
  9
$DIMALTF
 40
25.4
  9
$DIMLFAC
 40
1.0
  9
$DIMTOFL
 70
     0
  9
$DIMTVP
 40
0.0
  9
$DIMTIX
 70
     0
  9
$DIMSOXD
 70
     0
  9
$DIMSAH
 70
     0
  9
$DIMBLK1
  1

  9
$DIMBLK2
  1

  9
$DIMSTYLE
  2
Standard
  9
$DIMCLRD
 70
     0
  9
$DIMCLRE
 70
     0
  9
$DIMCLRT
 70
     0
  9
$DIMTFAC
 40
1.0
  9
$DIMGAP
 40
0.09
  9
$DIMJUST
 70
     0
  9
$DIMSD1
 70
     0
  9
$DIMSD2
 70
     0
  9
$DIMTOLJ
 70
     1
  9
$DIMTZIN
 70
     0
  9
$DIMALTZ
 70
     0
  9
$DIMALTTZ
 70
     0
  9
$DIMUPT
 70
     0
  9
$DIMDEC
 70
     4
  9
$DIMTDEC
 70
     4
  9
$DIMALTU
 70
     2
  9
$DIMALTTD
 70
     2
  9
$DIMTXSTY
  7
Standard
  9
$DIMAUNIT
 70
     0
  9
$DIMADEC
 70
     0
  9
$DIMALTRND
 40
0.0
  9
$DIMAZIN
 70
     0
  9
$DIMDSEP
 70
    46
  9
$DIMATFIT
 70
     3
  9
$DIMFRAC
 70
     0
  9
$DIMLDRBLK
  1

  9
$DIMLUNIT
 70
     2
  9
$DIMLWD
 70
    -2
  9
$DIMLWE
 70
    -2
  9
$DIMTMOVE
 70
     0
  9
$DIMFXL
 40
1.0
  9
$DIMFXLON
 70
     0
  9
$DIMJOGANG
 40
0.7853981633974483
  9
$DIMTFILL
 70
     0
  9
$DIMTFILLCLR
 70
     0
  9
$DIMARCSYM
 70
     0
  9
$DIMLTYPE
  6

  9
$DIMLTEX1
  6

  9
$DIMLTEX2
  6

  9
$DIMTXTDIRECTION
 70
     0
  9
$LUNITS
 70
     2
  9
$LUPREC
 70
     4
  9
$SKETCHINC
 40
0.1
  9
$FILLETRAD
 40
0.0
  9
$AUNITS
 70
     0
  9
$AUPREC
 70
     0
  9
$MENU
  1
.
  9
$ELEVATION
 40
0.0
  9
$PELEVATION
 40
0.0
  9
$THICKNESS
 40
0.0
  9
$LIMCHECK
 70
     0
  9
$CHAMFERA
 40
0.0
  9
$CHAMFERB
 40
0.0
  9
$CHAMFERC
 40
0.0
  9
$CHAMFERD
 40
0.0
  9
$SKPOLY
 70
     0
  9
$TDCREATE
 40
2461016.704685834
  9
$TDUCREATE
 40
2461016.475519167
  9
$TDUPDATE
 40
2461016.704685926
  9
$TDUUPDATE
 40
2461016.47551926
  9
$TDINDWG
 40
0.0000000116
  9
$TDUSRTIMER
 40
0.0000000116
  9
$USRTIMER
 70
     1
  9
$ANGBASE
 50
0.0
  9
$ANGDIR
 70
     0
  9
$PDMODE
 70
     0
  9
$PDSIZE
 40
0.0
  9
$PLINEWID
 40
0.0
  9
$SPLFRAME
 70
     0
  9
$SPLINETYPE
 70
     6
  9
$SPLINESEGS
 70
     8
  9
$HANDSEED
  5
12A
  9
$SURFTAB1
 70
     6
  9
$SURFTAB2
 70
     6
  9
$SURFTYPE
 70
     6
  9
$SURFU
 70
     6
  9
$SURFV
 70
     6
  9
$UCSBASE
  2

  9
$UCSNAME
  2

  9
$UCSORG
 10
0.0
 20
0.0
 30
0.0
  9
$UCSXDIR
 10
1.0
 20
0.0
 30
0.0
  9
$UCSYDIR
 10
0.0
 20
1.0
 30
0.0
  9
$UCSORTHOREF
  2

  9
$UCSORTHOVIEW
 70
     0
  9
$UCSORGTOP
 10
0.0
 20
0.0
 30
0.0
  9
$UCSORGBOTTOM
 10
0.0
 20
0.0
 30
0.0
  9
$UCSORGLEFT
 10
0.0
 20
0.0
 30
0.0
  9
$UCSORGRIGHT
 10
0.0
 20
0.0
 30
0.0
  9
$UCSORGFRONT
 10
0.0
 20
0.0
 30
0.0
  9
$UCSORGBACK
 10
0.0
 20
0.0
 30
0.0
  9
$PUCSBASE
  2

  9
$PUCSNAME
  2

  9
$PUCSORG
 10
0.0
 20
0.0
 30
0.0
  9
$PUCSXDIR
 10
1.0
 20
0.0
 30
0.0
  9
$PUCSYDIR
 10
0.0
 20
1.0
 30
0.0
  9
$PUCSORTHOREF
  2

  9
$PUCSORTHOVIEW
 70
     0
  9
$PUCSORGTOP
 10
0.0
 20
0.0
 30
0.0
  9
$PUCSORGBOTTOM
 10
0.0
 20
0.0
 30
0.0
  9
$PUCSORGLEFT
 10
0.0
 20
0.0
 30
0.0
  9
$PUCSORGRIGHT
 10
0.0
 20
0.0
 30
0.0
  9
$PUCSORGFRONT
 10
0.0
 20
0.0
 30
0.0
  9
$PUCSORGBACK
 10
0.0
 20
0.0
 30
0.0
  9
$USERI1
 70
     0
  9
$USERI2
 70
     0
  9
$USERI3
 70
     0
  9
$USERI4
 70
     0
  9
$USERI5
 70
     0
  9
$USERR1
 40
0.0
  9
$USERR2
 40
0.0
  9
$USERR3
 40
0.0
  9
$USERR4
 40
0.0
  9
$USERR5
 40
0.0
  9
$WORLDVIEW
 70
     1
  9
$SHADEDGE
 70
     3
  9
$SHADEDIF
 70
    70
  9
$TILEMODE
 70
     1
  9
$MAXACTVP
 70
    64
  9
$PINSBASE
 10
0.0
 20
0.0
 30
0.0
  9
$PLIMCHECK
 70
     0
  9
$PEXTMIN
 10
1.000000000000000E+20
 20
1.000000000000000E+20
 30
1.000000000000000E+20
  9
$PEXTMAX
 10
-1.000000000000000E+20
 20
-1.000000000000000E+20
 30
-1.000000000000000E+20
  9
$PLIMMIN
 10
0.0
 20
0.0
  9
$PLIMMAX
 10
12.0
 20
9.0
  9
$UNITMODE
 70
     0
  9
$VISRETAIN
 70
     1
  9
$PLINEGEN
 70
     0
  9
$PSLTSCALE
 70
     1
  9
$TREEDEPTH
 70
  3020
  9
$CMLSTYLE
  2
Standard
  9
$CMLJUST
 70
     0
  9
$CMLSCALE
 40
1.0
  9
$PROXYGRAPHICS
 70
     1
  9
$MEASUREMENT
 70
     0
  9
$CELWEIGHT
370
    -1
  9
$ENDCAPS
280
     0
  9
$JOINSTYLE
280
     0
  9
$LWDISPLAY
290
     0
  9
$INSUNITS
 70
     4
  9
$HYPERLINKBASE
  1

  9
$STYLESHEET
  1

  9
$XEDIT
290
     1
  9
$CEPSNTYPE
380
     0
  9
$PSTYLEMODE
290
     1
  9
$FINGERPRINTGUID
  2
{e9fa7a03-ac5c-416c-93f1-550f482a4f03}
  9
$VERSIONGUID
  2
{FAEB1C32-E019-11D5-929B-00C0DF256EC4}
  9
$EXTNAMES
290
     1
  9
$PSVPSCALE
 40
0.0
  9
$OLESTARTUP
290
     0
  9
$SORTENTS
280
   127
  9
$INDEXCTL
280
     0
  9
$HIDETEXT
280
     1
  9
$XCLIPFRAME
280
     2
  9
$HALOGAP
280
     0
  9
$OBSCOLOR
 70
   257
  9
$OBSLTYPE
280
     0
  9
$INTERSECTIONDISPLAY
280
     0
  9
$INTERSECTIONCOLOR
 70
   257
  9
$DIMASSOC
280
     2
  9
$PROJECTNAME
  1

  9
$CAMERADISPLAY
290
     0
  9
$LENSLENGTH
 40
50.0
  9
$CAMERAHEIGHT
 40
0.0
  9
$STEPSPERSEC
 40
2.0
  9
$STEPSIZE
 40
6.0
  9
$3DDWFPREC
 40
2.0
  9
$PSOLWIDTH
 40
0.25
  9
$PSOLHEIGHT
 40
4.0
  9
$LOFTANG1
 40
1.570796326794897
  9
$LOFTANG2
 40
1.570796326794897
  9
$LOFTMAG1
 40
0.0
  9
$LOFTMAG2
 40
0.0
  9
$LOFTPARAM
 70
     7
  9
$LOFTNORMALS
280
     1
  9
$LATITUDE
 40
37.795
  9
$LONGITUDE
 40
-122.394
  9
$NORTHDIRECTION
 40
0.0
  9
$TIMEZONE
 70
 -8000
  9
$LIGHTGLYPHDISPLAY
280
     1
  9
$TILEMODELIGHTSYNCH
280
     1
  9
$CMATERIAL
347
44
  9
$SOLIDHIST
280
     0
  9
$SHOWHIST
280
     1
  9
$DWFFRAME
280
     2
  9
$DGNFRAME
280
     2
  9
$REALWORLDSCALE
290
     1
  9
$INTERFERECOLOR
 62
   256
  9
$CSHADOW
280
     0
  9
$SHADOWPLANELOCATION
 40
0.0
  0
ENDSEC
  0
SECTION
  2
CLASSES
  0
CLASS
  1
ACDBDICTIONARYWDFLT
  2
AcDbDictionaryWithDefault
  3
ObjectDBX Classes
 90
        0
 91
        3
280
     0
281
     0
  0
CLASS
  1
VISUALSTYLE
  2
AcDbVisualStyle
  3
ObjectDBX Classes
 90
     4095
 91
        3
280
     0
281
     0
  0
CLASS
  1
MATERIAL
  2
AcDbMaterial
  3
ObjectDBX Classes
 90
     1153
 91
        3
280
     0
281
     0
  0
CLASS
  1
SCALE
  2
AcDbScale
  3
ObjectDBX Classes
 90
     1153
 91
        3
280
     0
281
     0
  0
CLASS
  1
TABLESTYLE
  2
AcDbTableStyle
  3
ObjectDBX Classes
 90
     4095
 91
        3
280
     0
281
     0
  0
CLASS
  1
MLEADERSTYLE
  2
AcDbMLeaderStyle
  3
ACDB_MLEADERSTYLE_CLASS
 90
     4095
 91
        3
280
     0
281
     0
  0
CLASS
  1
SUN
  2
AcDbSun
  3
SCENEOE
 90
     1153
 91
        3
280
     0
281
     0
  0
CLASS
  1
DICTIONARYVAR
  2
AcDbDictionaryVar
  3
ObjectDBX Classes
 90
        0
 91
        3
280
     0
281
     0
  0
CLASS
  1
CELLSTYLEMAP
  2
AcDbCellStyleMap
  3
ObjectDBX Classes
 90
     1152
 91
        3
280
     0
281
     0
  0
ENDSEC
  0
SECTION
  2
TABLES
  0
TABLE
  2
VPORT
  5
8
330
0
100
AcDbSymbolTable
 70
     1
  0
VPORT
  5
29
330
8
100
AcDbSymbolTableRecord
100
AcDbViewportTableRecord
  2
*Active
 70
     0
 10
0.0
 20
0.0
 11
1.0
 21
1.0
 12
10.42990654205607
 22
4.5
 13
0.0
 23
0.0
 14
0.5
 24
0.5
 15
0.5
 25
0.5
 16
0.0
 26
0.0
 36
1.0
 17
0.0
 27
0.0
 37
0.0
 40
9.0
 41
1.972972972850329
 42
50.0
 43
0.0
 44
0.0
 50
0.0
 51
0.0
 71
     0
 72
   100
 73
     1
 74
     3
 75
     0
 76
     0
 77
     0
 78
     0
281
     0
 65
     1
110
0.0
120
0.0
130
0.0
111
1.0
121
0.0
131
0.0
112
0.0
122
1.0
132
0.0
 79
     0
146
0.0
348
2F
 60
     3
 61
     5
292
     1
282
     1
141
0.0
142
0.0
 63
   250
361
5D
  0
ENDTAB
  0
TABLE
  2
LTYPE
  5
5
330
0
100
AcDbSymbolTable
 70
     3
  0
LTYPE
  5
14
330
5
100
AcDbSymbolTableRecord
100
AcDbLinetypeTableRecord
  2
ByBlock
 70
     0
  3

 72
    65
 73
     0
 40
0.0
  0
LTYPE
  5
15
330
5
100
AcDbSymbolTableRecord
100
AcDbLinetypeTableRecord
  2
ByLayer
 70
     0
  3

 72
    65
 73
     0
 40
0.0
  0
LTYPE
  5
16
330
5
100
AcDbSymbolTableRecord
100
AcDbLinetypeTableRecord
  2
Continuous
 70
     0
  3
Solid line
 72
    65
 73
     0
 40
0.0
  0
LTYPE
  5
FC
330
5
100
AcDbSymbolTableRecord
100
AcDbLinetypeTableRecord
  2
New Line1
 70
     0
  3

 72
    65
 73
     2
 40
0.3
 49
0.2
 74
     4
 75
     0
340
0
 46
1.0
 50
0.0
 44
0.0
 45
0.0
 49
-0.1
 74
     4
 75
     0
340
0
 46
1.0
 50
0.0
 44
0.0
 45
0.0
  0
LTYPE
  5
FE
330
5
100
AcDbSymbolTableRecord
100
AcDbLinetypeTableRecord
  2
New Line2
 70
     0
  3

 72
    65
 73
     2
 40
0.3
 49
0.2
 74
     4
 75
     0
340
0
 46
1.0
 50
0.0
 44
0.0
 45
0.0
 49
-0.1
 74
     4
 75
     0
340
0
 46
1.0
 50
0.0
 44
0.0
 45
0.0
  0
ENDTAB
  0
TABLE
  2
LAYER
  5
2
330
0
100
AcDbSymbolTable
 70
     2
  0
LAYER
  5
10
330
2
100
AcDbSymbolTableRecord
100
AcDbLayerTableRecord
  2
0
 70
     0
 62
     7
  6
Continuous
370
    -3
390
F
347
46
348
0
  0
LAYER
  5
5F
330
2
100
AcDbSymbolTableRecord
100
AcDbLayerTableRecord
  2
Layer 1
 70
     0
 62
     7
  6
Continuous
370
    -3
390
F
347
46
348
0
  0
ENDTAB
  0
TABLE
  2
STYLE
  5
3
330
0
100
AcDbSymbolTable
 70
     1
  0
STYLE
  5
11
330
3
100
AcDbSymbolTableRecord
100
AcDbTextStyleTableRecord
  2
Standard
 70
     0
 40
0.0
 41
1.0
 50
0.0
 71
     0
 42
0.2
  3
txt
  4

  0
ENDTAB
  0
TABLE
  2
VIEW
  5
6
330
0
100
AcDbSymbolTable
 70
     0
  0
ENDTAB
  0
TABLE
  2
UCS
  5
7
330
0
100
AcDbSymbolTable
 70
     0
  0
ENDTAB
  0
TABLE
  2
APPID
  5
9
330
0
100
AcDbSymbolTable
 70
     2
  0
APPID
  5
12
330
9
100
AcDbSymbolTableRecord
100
AcDbRegAppTableRecord
  2
ACAD
 70
     0
  0
APPID
  5
5E
330
9
100
AcDbSymbolTableRecord
100
AcDbRegAppTableRecord
  2
ODA
 70
     0
  0
ENDTAB
  0
TABLE
  2
DIMSTYLE
  5
A
330
0
100
AcDbSymbolTable
 70
     1
100
AcDbDimStyleTable
  0
DIMSTYLE
105
27
330
A
100
AcDbSymbolTableRecord
100
AcDbDimStyleTableRecord
  2
Standard
 70
     0
178
     0
340
11
  0
ENDTAB
  0
TABLE
  2
BLOCK_RECORD
  5
1
330
0
100
AcDbSymbolTable
 70
     1
  0
BLOCK_RECORD
  5
1F
330
1
100
AcDbSymbolTableRecord
100
AcDbBlockTableRecord
  2
*Model_Space
340
22
 70
     0
280
     1
281
     0
  0
BLOCK_RECORD
  5
1B
330
1
100
AcDbSymbolTableRecord
100
AcDbBlockTableRecord
  2
*Paper_Space
340
1E
 70
     0
280
     1
281
     0
  0
BLOCK_RECORD
  5
23
330
1
100
AcDbSymbolTableRecord
100
AcDbBlockTableRecord
  2
*Paper_Space0
340
26
 70
     0
280
     1
281
     0
  0
ENDTAB
  0
ENDSEC
  0
SECTION
  2
BLOCKS
  0
BLOCK
  5
20
330
1F
100
AcDbEntity
  8
0
100
AcDbBlockBegin
  2
*Model_Space
 70
     0
 10
0.0
 20
0.0
 30
0.0
  3
*Model_Space
  1

  0
ENDBLK
  5
21
330
1F
100
AcDbEntity
  8
0
100
AcDbBlockEnd
  0
BLOCK
  5
1C
330
1B
100
AcDbEntity
 67
     1
  8
0
100
AcDbBlockBegin
  2
*Paper_Space
 70
     0
 10
0.0
 20
0.0
 30
0.0
  3
*Paper_Space
  1

  0
ENDBLK
  5
1D
330
1B
100
AcDbEntity
 67
     1
  8
0
100
AcDbBlockEnd
  0
BLOCK
  5
24
330
23
100
AcDbEntity
  8
0
100
AcDbBlockBegin
  2
*Paper_Space0
 70
     0
 10
0.0
 20
0.0
 30
0.0
  3
*Paper_Space0
  1

  0
ENDBLK
  5
25
330
23
100
AcDbEntity
  8
0
100
AcDbBlockEnd
  0
ENDSEC
  0
SECTION
  2
ENTITIES
  0
LWPOLYLINE
  5
60
330
1F
100
AcDbEntity
  8
Layer 1
 62
   250
370
     9
100
AcDbPolyline
 90
        5
 70
     1
 43
0.0
 10
-560.0942
 20
-463.9195
 10
-194.1856
 20
-463.9195
 10
-194.1856
 20
-115.0545
 10
-560.0942
 20
-115.0545
 10
-560.0942
 20
-463.9195
  0
LWPOLYLINE
  5
61
330
1F
100
AcDbEntity
  8
Layer 1
 62
     7
370
     9
100
AcDbPolyline
 90
        2
 70
     0
 43
0.0
 10
-427.4281
 20
-280.8589
 10
-427.4312
 20
-311.5219
  0
LWPOLYLINE
  5
62
330
1F
100
AcDbEntity
  8
Layer 1
 62
     7
370
     9
100
AcDbPolyline
 90
        2
 70
     0
 43
0.0
 10
-470.5752
 20
-292.3675
 10
-470.5783
 20
-311.5169
  0
LWPOLYLINE
  5
63
330
1F
100
AcDbEntity
  8
Layer 1
 62
     7
370
     9
100
AcDbPolyline
 90
        2
 70
     0
 43
0.0
 10
-470.5774
 20
-306.6764
 10
-427.4303
 20
-306.6814
  0
LWPOLYLINE
  5
64
330
1F
100
AcDbEntity
  8
Layer 1
 62
     7
370
     9
100
AcDbPolyline
 90
        7
 70
     1
 43
0.0
 10
-466.9507
 20
-321.8089
 10
-466.0946
 20
-321.8094
 10
-466.0937
 20
-313.4207
 10
-468.1489
 20
-313.6398
 10
-468.1489
 20
-314.3837
 10
-466.9498
 20
-314.3837
 10
-466.9507
 20
-321.8089
  0
LWPOLYLINE
  5
65
330
1F
100
AcDbEntity
  8
Layer 1
 62
     7
370
     9
100
AcDbPolyline
 90
       84
 70
     1
 43
0.0
 10
-461.1572
 20
-314.4822
 10
-461.0159
 20
-314.5778
 10
-460.8841
 20
-314.6863
 10
-460.7619
 20
-314.8078
 10
-460.6493
 20
-314.9423
 10
-460.5463
 20
-315.0897
 10
-460.4528
 20
-315.2501
 10
-460.3689
 20
-315.4235
 10
-460.2946
 20
-315.6098
 10
-460.2115
 20
-315.8571
 10
-460.1396
 20
-316.108
 10
-460.0787
 20
-316.3625
 10
-460.0289
 20
-316.6206
 10
-459.9902
 20
-316.8824
 10
-459.9625
 20
-317.1477
 10
-459.9459
 20
-317.4166
 10
-459.9404
 20
-317.6891
 10
-459.9768
 20
-318.2927
 10
-460.0194
 20
-318.6203
 10
-460.0749
 20
-318.9299
 10
-460.1435
 20
-319.2213
 10
-460.225
 20
-319.4947
 10
-460.3194
 20
-319.75
 10
-460.4269
 20
-319.9873
 10
-460.5474
 20
-320.2064
 10
-460.6808
 20
-320.4074
 10
-460.8026
 20
-320.559
 10
-460.9308
 20
-320.6903
 10
-461.0656
 20
-320.8014
 10
-461.2068
 20
-320.8923
 10
-461.3546
 20
-320.963
 10
-461.5089
 20
-321.0134
 10
-461.6696
 20
-321.0437
 10
-461.8369
 20
-321.0538
 10
-462.0236
 20
-321.0438
 10
-462.2013
 20
-321.0138
 10
-462.37
 20
-320.9638
 10
-462.5297
 20
-320.8938
 10
-462.6805
 20
-320.8038
 10
-462.8222
 20
-320.6938
 10
-462.955
 20
-320.5638
 10
-463.0788
 20
-320.4139
 10
-463.1812
 20
-320.2657
 10
-463.2745
 20
-320.1086
 10
-463.3586
 20
-319.9424
 10
-463.4334
 20
-319.7672
 10
-463.4995
 20
-319.5862
 10
-463.5573
 20
-319.4029
 10
-463.6066
 20
-319.2173
 10
-463.6476
 20
-319.0293
 10
-463.7512
 20
-318.2979
 10
-463.7815
 20
-317.4831
 10
-463.7731
 20
-317.2392
 10
-463.748
 20
-316.9677
 10
-463.706
 20
-316.6683
 10
-463.6471
 20
-316.3408
 10
-463.6066
 20
-316.1554
 10
-463.5583
 20
-315.9706
 10
-463.5024
 20
-315.7865
 10
-463.4386
 20
-315.6033
 10
-463.3664
 20
-315.4251
 10
-463.2842
 20
-315.2561
 10
-463.1921
 20
-315.0961
 10
-463.0901
 20
-314.9454
 10
-462.9777
 20
-314.8062
 10
-462.8545
 20
-314.6816
 10
-462.7206
 20
-314.5714
 10
-462.576
 20
-314.4757
 10
-462.4995
 20
-314.4344
 10
-462.4195
 20
-314.3985
 10
-462.336
 20
-314.3682
 10
-462.249
 20
-314.3433
 10
-462.1586
 20
-314.324
 10
-462.0648
 20
-314.3102
 10
-461.9675
 20
-314.3019
 10
-461.8668
 20
-314.2991
 10
-461.766
 20
-314.302
 10
-461.6686
 20
-314.3105
 10
-461.5748
 20
-314.3248
 10
-461.4844
 20
-314.3448
 10
-461.3974
 20
-314.3706
 10
-461.3139
 20
-314.402
 10
-461.2338
 20
-314.4392
 10
-461.1572
 20
-314.4822
  0
LWPOLYLINE
  5
66
330
1F
100
AcDbEntity
  8
Layer 1
 62
     7
370
     9
100
AcDbPolyline
 90
       65
 70
     1
 43
0.0
 10
-461.8252
 20
-321.9195
 10
-461.468
 20
-321.8969
 10
-461.1336
 20
-321.8292
 10
-460.8218
 20
-321.7163
 10
-460.5328
 20
-321.5583
 10
-460.2665
 20
-321.3552
 10
-460.023
 20
-321.107
 10
-459.8024
 20
-320.8137
 10
-459.6045
 20
-320.4753
 10
-459.4654
 20
-320.1797
 10
-459.3448
 20
-319.8678
 10
-459.2428
 20
-319.5396
 10
-459.1593
 20
-319.1949
 10
-459.0943
 20
-318.8339
 10
-459.0479
 20
-318.4565
 10
-459.02
 20
-318.0626
 10
-459.0106
 20
-317.6524
 10
-459.0198
 20
-317.2423
 10
-459.0476
 20
-316.8485
 10
-459.0939
 20
-316.4711
 10
-459.1587
 20
-316.1101
 10
-459.242
 20
-315.7655
 10
-459.344
 20
-315.4373
 10
-459.4645
 20
-315.1254
 10
-459.6036
 20
-314.83
 10
-459.8014
 20
-314.4912
 10
-460.0221
 20
-314.1976
 10
-460.2655
 20
-313.9492
 10
-460.5317
 20
-313.746
 10
-460.8206
 20
-313.588
 10
-461.1323
 20
-313.4752
 10
-461.4667
 20
-313.4075
 10
-461.8239
 20
-313.3849
 10
-462.181
 20
-313.4074
 10
-462.5154
 20
-313.4751
 10
-462.8271
 20
-313.5878
 10
-463.116
 20
-313.7457
 10
-463.3821
 20
-313.9488
 10
-463.6255
 20
-314.197
 10
-463.8462
 20
-314.4904
 10
-464.0442
 20
-314.8291
 10
-464.1834
 20
-315.1246
 10
-464.304
 20
-315.4364
 10
-464.406
 20
-315.7647
 10
-464.4896
 20
-316.1093
 10
-464.5545
 20
-316.4703
 10
-464.601
 20
-316.8477
 10
-464.6288
 20
-317.2415
 10
-464.6381
 20
-317.6516
 10
-464.629
 20
-318.0618
 10
-464.6013
 20
-318.4557
 10
-464.555
 20
-318.8331
 10
-464.4901
 20
-319.1941
 10
-464.4067
 20
-319.5387
 10
-464.3047
 20
-319.8669
 10
-464.1842
 20
-320.1788
 10
-464.0451
 20
-320.4744
 10
-463.8471
 20
-320.813
 10
-463.6265
 20
-321.1065
 10
-463.3831
 20
-321.3548
 10
-463.117
 20
-321.5581
 10
-462.8282
 20
-321.7162
 10
-462.5166
 20
-321.8291
 10
-462.1823
 20
-321.8969
 10
-461.8252
 20
-321.9195
  0
LWPOLYLINE
  5
67
330
1F
100
AcDbEntity
  8
Layer 1
 62
     7
370
     9
100
AcDbPolyline
 90
       65
 70
     1
 43
0.0
 10
-455.2488
 20
-317.2874
 10
-455.0536
 20
-317.2963
 10
-454.8658
 20
-317.3232
 10
-454.6851
 20
-317.3679
 10
-454.5117
 20
-317.4306
 10
-454.3456
 20
-317.5111
 10
-454.1867
 20
-317.6096
 10
-454.0351
 20
-317.7259
 10
-453.8907
 20
-317.8602
 10
-453.7602
 20
-318.0055
 10
-453.6472
 20
-318.1577
 10
-453.5515
 20
-318.3167
 10
-453.4733
 20
-318.4825
 10
-453.4125
 20
-318.6551
 10
-453.3691
 20
-318.8346
 10
-453.3431
 20
-319.021
 10
-453.3345
 20
-319.2142
 10
-453.3433
 20
-319.4029
 10
-453.3697
 20
-319.5852
 10
-453.4137
 20
-319.761
 10
-453.4752
 20
-319.9303
 10
-453.5544
 20
-320.0931
 10
-453.6511
 20
-320.2495
 10
-453.7654
 20
-320.3993
 10
-453.8972
 20
-320.5427
 10
-454.0389
 20
-320.6713
 10
-454.1886
 20
-320.7828
 10
-454.3463
 20
-320.8771
 10
-454.5121
 20
-320.9542
 10
-454.6858
 20
-321.0142
 10
-454.8676
 20
-321.057
 10
-455.0574
 20
-321.0827
 10
-455.2553
 20
-321.0913
 10
-455.4492
 20
-321.0824
 10
-455.6367
 20
-321.0558
 10
-455.8177
 20
-321.0115
 10
-455.9923
 20
-320.9495
 10
-456.1603
 20
-320.8698
 10
-456.3219
 20
-320.7724
 10
-456.477
 20
-320.6573
 10
-456.6256
 20
-320.5245
 10
-456.7603
 20
-320.3806
 10
-456.8771
 20
-320.2297
 10
-456.9759
 20
-320.0717
 10
-457.0567
 20
-319.9068
 10
-457.1196
 20
-319.7348
 10
-457.1645
 20
-319.5558
 10
-457.1914
 20
-319.3697
 10
-457.2004
 20
-319.1766
 10
-457.1913
 20
-318.9845
 10
-457.1642
 20
-318.7998
 10
-457.1192
 20
-318.6225
 10
-457.0563
 20
-318.4528
 10
-456.9754
 20
-318.2904
 10
-456.8766
 20
-318.1355
 10
-456.7598
 20
-317.9881
 10
-456.6251
 20
-317.8481
 10
-456.4852
 20
-317.7266
 10
-456.3345
 20
-317.618
 10
-456.1731
 20
-317.5223
 10
-456.0009
 20
-317.4394
 10
-455.821
 20
-317.3728
 10
-455.6356
 20
-317.3253
 10
-455.4449
 20
-317.2969
 10
-455.2488
 20
-317.2874
  0
LWPOLYLINE
  5
68
330
1F
100
AcDbEntity
  8
Layer 1
 62
     7
370
     9
100
AcDbPolyline
 90
       69
 70
     1
 43
0.0
 10
-452.4658
 20
-319.1533
 10
-452.4791
 20
-318.8596
 10
-452.5191
 20
-318.5793
 10
-452.586
 20
-318.3123
 10
-452.6797
 20
-318.0588
 10
-452.8001
 20
-317.8185
 10
-452.9473
 20
-317.5917
 10
-453.1213
 20
-317.3782
 10
-453.322
 20
-317.1781
 10
-453.5272
 20
-317.0092
 10
-453.7467
 20
-316.8611
 10
-453.9805
 20
-316.7338
 10
-454.2288
 20
-316.6274
 10
-454.4913
 20
-316.5418
 10
-454.7682
 20
-316.4769
 10
-455.0594
 20
-316.4328
 10
-455.365
 20
-316.4095
 10
-455.6095
 20
-316.568
 10
-453.0645
 20
-313.5201
 10
-454.1902
 20
-313.5197
 10
-457.4448
 20
-317.433
 10
-457.591
 20
-317.6237
 10
-457.7177
 20
-317.8221
 10
-457.8249
 20
-318.0284
 10
-457.9127
 20
-318.2424
 10
-457.981
 20
-318.4643
 10
-458.0298
 20
-318.6939
 10
-458.0592
 20
-318.9314
 10
-458.0691
 20
-319.1766
 10
-458.0563
 20
-319.4592
 10
-458.0179
 20
-319.731
 10
-457.9539
 20
-319.9919
 10
-457.8642
 20
-320.242
 10
-457.7489
 20
-320.4812
 10
-457.608
 20
-320.7095
 10
-457.4415
 20
-320.927
 10
-457.2493
 20
-321.1337
 10
-457.0377
 20
-321.3238
 10
-456.8158
 20
-321.4886
 10
-456.5837
 20
-321.628
 10
-456.3412
 20
-321.742
 10
-456.0884
 20
-321.8306
 10
-455.8252
 20
-321.894
 10
-455.5517
 20
-321.9319
 10
-455.2679
 20
-321.9446
 10
-454.98
 20
-321.9321
 10
-454.7036
 20
-321.8944
 10
-454.4386
 20
-321.8317
 10
-454.1851
 20
-321.7438
 10
-453.943
 20
-321.6308
 10
-453.7124
 20
-321.4926
 10
-453.4932
 20
-321.3292
 10
-453.2856
 20
-321.1406
 10
-453.1933
 20
-321.0442
 10
-453.1059
 20
-320.944
 10
-453.0236
 20
-320.84
 10
-452.9461
 20
-320.7321
 10
-452.8737
 20
-320.6204
 10
-452.8062
 20
-320.505
 10
-452.7437
 20
-320.3857
 10
-452.6861
 20
-320.2627
 10
-452.6345
 20
-320.1359
 10
-452.5898
 20
-320.0058
 10
-452.552
 20
-319.8722
 10
-452.521
 20
-319.7352
 10
-452.4969
 20
-319.5948
 10
-452.4796
 20
-319.4511
 10
-452.4693
 20
-319.3039
 10
-452.4658
 20
-319.1533
  0
LWPOLYLINE
  5
69
330
1F
100
AcDbEntity
  8
Layer 1
 62
     7
370
     9
100
AcDbPolyline
 90
      151
 70
     1
 43
0.0
 10
-441.0882
 20
-321.7886
 10
-440.2321
 20
-321.7886
 10
-440.2316
 20
-318.4357
 10
-440.2386
 20
-318.213
 10
-440.2595
 20
-318.0008
 10
-440.2944
 20
-317.7991
 10
-440.3432
 20
-317.6078
 10
-440.406
 20
-317.4271
 10
-440.4827
 20
-317.2568
 10
-440.5734
 20
-317.0971
 10
-440.6781
 20
-316.9478
 10
-440.7365
 20
-316.8765
 10
-440.7986
 20
-316.8089
 10
-440.8642
 20
-316.7448
 10
-440.9335
 20
-316.6844
 10
-441.083
 20
-316.5743
 10
-441.2468
 20
-316.4786
 10
-441.3359
 20
-316.437
 10
-441.4319
 20
-316.401
 10
-441.5348
 20
-316.3705
 10
-441.6445
 20
-316.3457
 10
-441.7611
 20
-316.3263
 10
-441.8847
 20
-316.3125
 10
-442.0151
 20
-316.3043
 10
-442.1524
 20
-316.3015
 10
-442.2908
 20
-316.3063
 10
-442.4249
 20
-316.3205
 10
-442.5546
 20
-316.3443
 10
-442.68
 20
-316.3776
 10
-442.8009
 20
-316.4205
 10
-442.9174
 20
-316.4728
 10
-443.0296
 20
-316.5347
 10
-443.1373
 20
-316.6061
 10
-443.2308
 20
-316.6774
 10
-443.32
 20
-316.754
 10
-443.4051
 20
-316.8358
 10
-443.4859
 20
-316.9228
 10
-443.5625
 20
-317.0149
 10
-443.6349
 20
-317.1121
 10
-443.7031
 20
-317.2143
 10
-443.7671
 20
-317.3215
 10
-443.9934
 20
-316.9474
 10
-444.0518
 20
-316.8761
 10
-444.1139
 20
-316.8084
 10
-444.1796
 20
-316.7444
 10
-444.2489
 20
-316.6839
 10
-444.3985
 20
-316.5737
 10
-444.5626
 20
-316.4778
 10
-444.6516
 20
-316.4363
 10
-444.7474
 20
-316.4004
 10
-444.8502
 20
-316.37
 10
-444.9599
 20
-316.3452
 10
-445.0765
 20
-316.3259
 10
-445.2
 20
-316.3121
 10
-445.3304
 20
-316.3039
 10
-445.4677
 20
-316.3011
 10
-445.6061
 20
-316.3059
 10
-445.7402
 20
-316.3201
 10
-445.8699
 20
-316.3439
 10
-445.9952
 20
-316.3772
 10
-446.1162
 20
-316.42
 10
-446.2327
 20
-316.4724
 10
-446.3449
 20
-316.5342
 10
-446.4526
 20
-316.6056
 10
-446.5417
 20
-316.6735
 10
-446.6269
 20
-316.746
 10
-446.7083
 20
-316.823
 10
-446.7859
 20
-316.9047
 10
-446.8597
 20
-316.9911
 10
-446.9296
 20
-317.0821
 10
-446.9958
 20
-317.1778
 10
-447.0581
 20
-317.2783
 10
-447.0581
 20
-316.4229
 10
-447.9143
 20
-316.4225
 10
-447.9147
 20
-321.7873
 10
-447.0586
 20
-321.7878
 10
-447.0586
 20
-319.0422
 10
-447.0385
 20
-318.8822
 10
-447.0123
 20
-318.7285
 10
-446.9801
 20
-318.581
 10
-446.9418
 20
-318.4396
 10
-446.8974
 20
-318.3043
 10
-446.847
 20
-318.1751
 10
-446.7904
 20
-318.0518
 10
-446.7278
 20
-317.9345
 10
-446.6768
 20
-317.8512
 10
-446.6215
 20
-317.7716
 10
-446.562
 20
-317.6958
 10
-446.4983
 20
-317.6239
 10
-446.4305
 20
-317.5556
 10
-446.3584
 20
-317.4912
 10
-446.2821
 20
-317.4306
 10
-446.2016
 20
-317.3738
 10
-446.1183
 20
-317.3224
 10
-446.0334
 20
-317.2779
 10
-445.947
 20
-317.2401
 10
-445.8591
 20
-317.2093
 10
-445.7697
 20
-317.1852
 10
-445.6787
 20
-317.1681
 10
-445.5861
 20
-317.1577
 10
-445.492
 20
-317.1543
 10
-445.3146
 20
-317.1616
 10
-445.1617
 20
-317.1834
 10
-445.0944
 20
-317.1997
 10
-445.0332
 20
-317.2196
 10
-444.9782
 20
-317.243
 10
-444.9293
 20
-317.2701
 10
-444.806
 20
-317.361
 10
-444.6992
 20
-317.4676
 10
-444.6088
 20
-317.5898
 10
-444.5349
 20
-317.7276
 10
-444.4774
 20
-317.8811
 10
-444.4363
 20
-318.0502
 10
-444.4117
 20
-318.2349
 10
-444.4035
 20
-318.4353
 10
-444.4039
 20
-321.7882
 10
-443.5473
 20
-321.7882
 10
-443.5469
 20
-318.4353
 10
-443.553
 20
-318.2296
 10
-443.4125
 20
-317.935
 10
-443.3615
 20
-317.8517
 10
-443.3062
 20
-317.7721
 10
-443.2468
 20
-317.6963
 10
-443.1831
 20
-317.6243
 10
-443.1152
 20
-317.5561
 10
-443.0431
 20
-317.4917
 10
-442.9668
 20
-317.431
 10
-442.8863
 20
-317.3742
 10
-442.803
 20
-317.3229
 10
-442.7181
 20
-317.2783
 10
-442.6316
 20
-317.2406
 10
-442.5437
 20
-317.2097
 10
-442.4542
 20
-317.1857
 10
-442.3632
 20
-317.1685
 10
-442.2707
 20
-317.1581
 10
-442.1767
 20
-317.1547
 10
-441.9993
 20
-317.162
 10
-441.8464
 20
-317.1838
 10
-441.7791
 20
-317.2001
 10
-441.718
 20
-317.22
 10
-441.6629
 20
-317.2434
 10
-441.614
 20
-317.2705
 10
-441.4907
 20
-317.3616
 10
-441.3838
 20
-317.4682
 10
-441.2934
 20
-317.5904
 10
-441.2194
 20
-317.7282
 10
-441.1618
 20
-317.8816
 10
-441.1207
 20
-318.0506
 10
-441.096
 20
-318.2353
 10
-441.0878
 20
-318.4357
 10
-441.0882
 20
-321.7886
  0
LWPOLYLINE
  5
6A
330
1F
100
AcDbEntity
  8
Layer 1
 62
     7
370
     9
100
AcDbPolyline
 90
      151
 70
     1
 43
0.0
 10
-431.754
 20
-321.7899
 10
-430.8979
 20
-321.7899
 10
-430.8974
 20
-318.437
 10
-430.9044
 20
-318.2143
 10
-430.9253
 20
-318.0021
 10
-430.9602
 20
-317.8004
 10
-431.009
 20
-317.6091
 10
-431.0718
 20
-317.4284
 10
-431.1485
 20
-317.2581
 10
-431.2392
 20
-317.0984
 10
-431.3439
 20
-316.9491
 10
-431.4023
 20
-316.8778
 10
-431.4644
 20
-316.8102
 10
-431.53
 20
-316.7461
 10
-431.5993
 20
-316.6857
 10
-431.7488
 20
-316.5756
 10
-431.9126
 20
-316.4799
 10
-432.0017
 20
-316.4383
 10
-432.0977
 20
-316.4023
 10
-432.2006
 20
-316.3718
 10
-432.3103
 20
-316.347
 10
-432.4269
 20
-316.3276
 10
-432.5505
 20
-316.3138
 10
-432.6809
 20
-316.3056
 10
-432.8182
 20
-316.3028
 10
-432.9566
 20
-316.3076
 10
-433.0907
 20
-316.3218
 10
-433.2204
 20
-316.3456
 10
-433.3457
 20
-316.3789
 10
-433.4667
 20
-316.4218
 10
-433.5832
 20
-316.4741
 10
-433.6954
 20
-316.536
 10
-433.8031
 20
-316.6074
 10
-433.8965
 20
-316.6787
 10
-433.9858
 20
-316.7553
 10
-434.0708
 20
-316.8371
 10
-434.1516
 20
-316.9241
 10
-434.2283
 20
-317.0162
 10
-434.3007
 20
-317.1134
 10
-434.3689
 20
-317.2156
 10
-434.4329
 20
-317.3228
 10
-434.6592
 20
-316.9487
 10
-434.7176
 20
-316.8774
 10
-434.7796
 20
-316.8097
 10
-434.8453
 20
-316.7457
 10
-434.9147
 20
-316.6852
 10
-435.0643
 20
-316.5749
 10
-435.2284
 20
-316.479
 10
-435.3174
 20
-316.4376
 10
-435.4132
 20
-316.4017
 10
-435.516
 20
-316.3713
 10
-435.6257
 20
-316.3464
 10
-435.7423
 20
-316.3271
 10
-435.8658
 20
-316.3133
 10
-435.9962
 20
-316.3051
 10
-436.1335
 20
-316.3023
 10
-436.2719
 20
-316.3071
 10
-436.406
 20
-316.3213
 10
-436.5357
 20
-316.3452
 10
-436.661
 20
-316.3785
 10
-436.7819
 20
-316.4213
 10
-436.8985
 20
-316.4737
 10
-437.0106
 20
-316.5355
 10
-437.1183
 20
-316.6069
 10
-437.2074
 20
-316.6748
 10
-437.2927
 20
-316.7473
 10
-437.3741
 20
-316.8243
 10
-437.4517
 20
-316.906
 10
-437.5255
 20
-316.9924
 10
-437.5954
 20
-317.0834
 10
-437.6616
 20
-317.1791
 10
-437.7239
 20
-317.2796
 10
-437.7239
 20
-316.4242
 10
-438.5801
 20
-316.4237
 10
-438.5805
 20
-321.7886
 10
-437.7244
 20
-321.7891
 10
-437.7244
 20
-319.0435
 10
-437.7043
 20
-318.8835
 10
-437.6781
 20
-318.7298
 10
-437.6459
 20
-318.5823
 10
-437.6076
 20
-318.4409
 10
-437.5632
 20
-318.3056
 10
-437.5127
 20
-318.1764
 10
-437.4562
 20
-318.0531
 10
-437.3936
 20
-317.9358
 10
-437.3426
 20
-317.8525
 10
-437.2873
 20
-317.7729
 10
-437.2278
 20
-317.6971
 10
-437.1641
 20
-317.6252
 10
-437.0963
 20
-317.5569
 10
-437.0242
 20
-317.4925
 10
-436.9479
 20
-317.4319
 10
-436.8674
 20
-317.3751
 10
-436.784
 20
-317.3237
 10
-436.6992
 20
-317.2792
 10
-436.6128
 20
-317.2414
 10
-436.5249
 20
-317.2106
 10
-436.4354
 20
-317.1865
 10
-436.3444
 20
-317.1694
 10
-436.2519
 20
-317.159
 10
-436.1577
 20
-317.1556
 10
-435.9804
 20
-317.1629
 10
-435.8275
 20
-317.1847
 10
-435.7602
 20
-317.201
 10
-435.699
 20
-317.2209
 10
-435.644
 20
-317.2443
 10
-435.5951
 20
-317.2714
 10
-435.4718
 20
-317.3623
 10
-435.365
 20
-317.4689
 10
-435.2746
 20
-317.5911
 10
-435.2007
 20
-317.7289
 10
-435.1432
 20
-317.8823
 10
-435.1021
 20
-318.0514
 10
-435.0775
 20
-318.2362
 10
-435.0693
 20
-318.4365
 10
-435.0697
 20
-321.7895
 10
-434.2131
 20
-321.7895
 10
-434.2127
 20
-318.4365
 10
-434.2188
 20
-318.2309
 10
-434.0783
 20
-317.9363
 10
-434.0273
 20
-317.853
 10
-433.972
 20
-317.7734
 10
-433.9125
 20
-317.6976
 10
-433.8488
 20
-317.6256
 10
-433.781
 20
-317.5574
 10
-433.7089
 20
-317.493
 10
-433.6326
 20
-317.4323
 10
-433.5521
 20
-317.3755
 10
-433.4688
 20
-317.3242
 10
-433.3839
 20
-317.2796
 10
-433.2974
 20
-317.2419
 10
-433.2095
 20
-317.211
 10
-433.12
 20
-317.187
 10
-433.029
 20
-317.1698
 10
-432.9365
 20
-317.1594
 10
-432.8425
 20
-317.156
 10
-432.6651
 20
-317.1633
 10
-432.5122
 20
-317.1851
 10
-432.4449
 20
-317.2014
 10
-432.3837
 20
-317.2213
 10
-432.3287
 20
-317.2447
 10
-432.2798
 20
-317.2718
 10
-432.1565
 20
-317.3629
 10
-432.0496
 20
-317.4695
 10
-431.9592
 20
-317.5917
 10
-431.8851
 20
-317.7295
 10
-431.8276
 20
-317.8829
 10
-431.7864
 20
-318.0519
 10
-431.7617
 20
-318.2366
 10
-431.7535
 20
-318.437
 10
-431.754
 20
-321.7899
  0
LWPOLYLINE
  5
6B
330
1F
100
AcDbEntity
  8
Layer 1
 62
   254
100
AcDbPolyline
 90
       73
 70
     1
 43
0.0
 10
-468.8536
 20
-290.8055
 10
-468.9608
 20
-290.5793
 10
-469.187
 20
-289.9196
 10
-469.389
 20
-288.8551
 10
-469.4238
 20
-287.414
 10
-469.1481
 20
-285.625
 10
-468.4189
 20
-283.5165
 10
-467.0931
 20
-281.1169
 10
-465.0275
 20
-278.4549
 10
-462.119
 20
-275.8815
 10
-458.5711
 20
-273.7156
 10
-454.7002
 20
-271.9374
 10
-450.8231
 20
-270.527
 10
-447.2564
 20
-269.4646
 10
-444.3168
 20
-268.7303
 10
-442.3208
 20
-268.3043
 10
-441.5851
 20
-268.1667
 10
-440.9909
 20
-268.124
 10
-439.4347
 20
-268.0975
 10
-437.2558
 20
-268.2399
 10
-434.7936
 20
-268.7038
 10
-432.3877
 20
-269.6417
 10
-430.3774
 20
-271.2064
 10
-429.1021
 20
-273.5503
 10
-428.9013
 20
-276.8262
 10
-428.9578
 20
-277.2622
 10
-429.0238
 20
-277.698
 10
-429.0989
 20
-278.1335
 10
-429.1828
 20
-278.5684
 10
-429.2752
 20
-279.0026
 10
-429.3758
 20
-279.436
 10
-429.4842
 20
-279.8683
 10
-429.6002
 20
-280.2994
 10
-430.2611
 20
-281.3242
 10
-430.9875
 20
-282.3187
 10
-431.7679
 20
-283.2776
 10
-432.5906
 20
-284.1959
 10
-433.4439
 20
-285.0684
 10
-434.3163
 20
-285.8899
 10
-435.1961
 20
-286.6555
 10
-436.0716
 20
-287.3598
 10
-436.5174
 20
-287.6953
 10
-437.056
 20
-288.0857
 10
-437.6567
 20
-288.5099
 10
-438.2893
 20
-288.9464
 10
-438.9232
 20
-289.3741
 10
-439.5281
 20
-289.7717
 10
-440.0734
 20
-290.1179
 10
-440.5289
 20
-290.3914
 10
-441.7852
 20
-291.0801
 10
-443.0128
 20
-291.6894
 10
-444.2251
 20
-292.2339
 10
-445.4359
 20
-292.7279
 10
-446.6586
 20
-293.186
 10
-447.9068
 20
-293.6228
 10
-449.1941
 20
-294.0527
 10
-450.534
 20
-294.4903
 10
-451.2022
 20
-294.6484
 10
-451.854
 20
-294.7985
 10
-452.4912
 20
-294.9398
 10
-453.1155
 20
-295.0718
 10
-453.7284
 20
-295.1938
 10
-454.3319
 20
-295.3052
 10
-454.9274
 20
-295.4053
 10
-455.5169
 20
-295.4934
 10
-456.0562
 20
-295.5477
 10
-457.233
 20
-295.6048
 10
-458.8895
 20
-295.572
 10
-460.8684
 20
-295.3562
 10
-463.0118
 20
-294.8645
 10
-465.1622
 20
-294.0042
 10
-467.162
 20
-292.6821
 10
-468.8536
 20
-290.8055
  0
LWPOLYLINE
  5
6C
330
1F
100
AcDbEntity
  8
Layer 1
 62
     7
370
    20
100
AcDbPolyline
 90
       67
 70
     1
 43
0.0
 10
-470.7482
 20
-288.4428
 10
-470.689
 20
-287.9284
 10
-470.3789
 20
-286.5112
 10
-469.6189
 20
-284.3806
 10
-468.2102
 20
-281.7258
 10
-465.9538
 20
-278.7362
 10
-462.6509
 20
-275.6009
 10
-458.1026
 20
-272.5092
 10
-452.1099
 20
-269.6505
 10
-445.8177
 20
-267.9768
 10
-440.7374
 20
-267.3236
 10
-436.7539
 20
-267.445
 10
-433.7524
 20
-268.0954
 10
-431.6179
 20
-269.029
 10
-430.2356
 20
-270.0001
 10
-429.4904
 20
-270.7629
 10
-429.2676
 20
-271.0718
 10
-428.9593
 20
-271.6676
 10
-428.5675
 20
-272.5674
 10
-428.2723
 20
-273.4443
 10
-428.0774
 20
-274.3058
 10
-427.9863
 20
-275.16
 10
-428.0025
 20
-276.0145
 10
-428.1295
 20
-276.8773
 10
-428.371
 20
-277.7559
 10
-428.7304
 20
-278.6584
 10
-429.3805
 20
-279.9242
 10
-430.1466
 20
-281.1565
 10
-431.009
 20
-282.3467
 10
-431.9479
 20
-283.4861
 10
-432.9434
 20
-284.5658
 10
-433.9758
 20
-285.5771
 10
-435.0251
 20
-286.5114
 10
-436.0716
 20
-287.3598
 10
-436.5174
 20
-287.6953
 10
-437.056
 20
-288.0857
 10
-437.6567
 20
-288.5099
 10
-438.2893
 20
-288.9464
 10
-438.9232
 20
-289.3741
 10
-439.5281
 20
-289.7717
 10
-440.0734
 20
-290.1179
 10
-440.5289
 20
-290.3914
 10
-441.7852
 20
-291.0801
 10
-443.0128
 20
-291.6894
 10
-444.2251
 20
-292.2339
 10
-445.4359
 20
-292.7279
 10
-446.6586
 20
-293.186
 10
-447.9068
 20
-293.6228
 10
-449.1941
 20
-294.0527
 10
-450.534
 20
-294.4903
 10
-452.3588
 20
-294.911
 10
-454.0801
 20
-295.2599
 10
-455.7346
 20
-295.523
 10
-457.3596
 20
-295.6864
 10
-458.992
 20
-295.7363
 10
-460.6687
 20
-295.6587
 10
-462.4267
 20
-295.4396
 10
-464.3032
 20
-295.0653
 10
-465.0793
 20
-294.8617
 10
-465.7966
 20
-294.6247
 10
-466.4634
 20
-294.3463
 10
-467.0877
 20
-294.0187
 10
-467.6776
 20
-293.6338
 10
-468.2414
 20
-293.1839
 10
-468.7871
 20
-292.661
 10
-469.3229
 20
-292.0572
 10
-470.7482
 20
-288.4428
  0
LWPOLYLINE
  5
6D
330
1F
100
AcDbEntity
  8
Layer 1
 62
     7
370
    20
100
AcDbPolyline
 90
       17
 70
     0
 43
0.0
 10
-470.7482
 20
-288.4429
 10
-470.689
 20
-287.9284
 10
-470.3789
 20
-286.5113
 10
-469.6189
 20
-284.3806
 10
-468.2102
 20
-281.7259
 10
-465.9538
 20
-278.7362
 10
-462.6509
 20
-275.6009
 10
-458.1026
 20
-272.5092
 10
-452.1099
 20
-269.6505
 10
-445.8177
 20
-267.9768
 10
-440.7374
 20
-267.3236
 10
-436.7539
 20
-267.445
 10
-433.7524
 20
-268.0954
 10
-431.6179
 20
-269.029
 10
-430.2356
 20
-270.0001
 10
-429.4904
 20
-270.7629
 10
-429.2676
 20
-271.0718
  0
LWPOLYLINE
  5
6E
330
1F
100
AcDbEntity
  8
Layer 1
 62
     7
370
    20
100
AcDbPolyline
 90
        9
 70
     0
 43
0.0
 10
-461.4583
 20
-265.4577
 10
-461.2213
 20
-265.3118
 10
-460.5624
 20
-264.924
 10
-459.5599
 20
-264.3694
 10
-458.292
 20
-263.7229
 10
-456.8372
 20
-263.0594
 10
-455.2735
 20
-262.454
 10
-453.6794
 20
-261.9816
 10
-452.1331
 20
-261.7172
  0
LWPOLYLINE
  5
6F
330
1F
100
AcDbEntity
  8
Layer 1
 62
     7
370
    20
100
AcDbPolyline
 90
        9
 70
     0
 43
0.0
 10
-462.6971
 20
-263.0486
 10
-461.9011
 20
-261.385
 10
-460.5404
 20
-260.0625
 10
-458.8265
 20
-259.0958
 10
-456.971
 20
-258.4994
 10
-455.1853
 20
-258.288
 10
-453.6811
 20
-258.4762
 10
-452.6699
 20
-259.0786
 10
-452.3632
 20
-260.1099
  0
LWPOLYLINE
  5
70
330
1F
100
AcDbEntity
  8
Layer 1
 62
     7
370
    20
100
AcDbPolyline
 90
        9
 70
     0
 43
0.0
 10
-461.905
 20
-264.3218
 10
-461.6372
 20
-263.0893
 10
-460.8283
 20
-261.9966
 10
-459.6184
 20
-261.0843
 10
-458.1478
 20
-260.3927
 10
-456.5566
 20
-259.9623
 10
-454.985
 20
-259.8335
 10
-453.5733
 20
-260.0467
 10
-452.4616
 20
-260.6425
  0
LWPOLYLINE
  5
71
330
1F
100
AcDbEntity
  8
Layer 1
 62
     7
370
    20
100
AcDbPolyline
 90
        9
 70
     0
 43
0.0
 10
-462.4384
 20
-263.6463
 10
-461.8147
 20
-262.3475
 10
-460.8365
 20
-261.2283
 10
-459.5902
 20
-260.3214
 10
-458.1622
 20
-259.6593
 10
-456.6391
 20
-259.2745
 10
-455.1072
 20
-259.1997
 10
-453.6531
 20
-259.4673
 10
-452.3632
 20
-260.1099
  0
LWPOLYLINE
  5
72
330
1F
100
AcDbEntity
  8
Layer 1
 62
     7
370
    20
100
AcDbPolyline
 90
      184
 70
     1
 43
0.0
 10
-520.5585
 20
-236.8213
 10
-520.7622
 20
-237.388
 10
-521.0242
 20
-238.3209
 10
-521.3136
 20
-239.525
 10
-521.5994
 20
-240.9054
 10
-521.8506
 20
-242.3669
 10
-522.0362
 20
-243.8146
 10
-522.1254
 20
-245.1534
 10
-522.0871
 20
-246.2884
 10
-469.8517
 20
-255.9435
 10
-467.5664
 20
-256.3119
 10
-465.9199
 20
-256.5594
 10
-464.8028
 20
-256.7557
 10
-464.1054
 20
-256.9705
 10
-463.7179
 20
-257.2735
 10
-463.531
 20
-257.7343
 10
-463.4348
 20
-258.4227
 10
-463.3198
 20
-259.4084
 10
-463.292
 20
-259.6229
 10
-463.2538
 20
-259.9289
 10
-463.2075
 20
-260.2929
 10
-463.1552
 20
-260.6813
 10
-463.099
 20
-261.0607
 10
-463.0411
 20
-261.3976
 10
-462.9836
 20
-261.6585
 10
-462.9287
 20
-261.8099
 10
-462.9047
 20
-262.1242
 10
-462.856
 20
-262.4436
 10
-462.7835
 20
-262.7625
 10
-462.6881
 20
-263.0752
 10
-462.5704
 20
-263.376
 10
-462.4314
 20
-263.6593
 10
-462.2717
 20
-263.9196
 10
-462.0923
 20
-264.1511
 10
-461.9841
 20
-264.2586
 10
-461.8918
 20
-264.3317
 10
-461.8493
 20
-264.3651
 10
-461.808
 20
-264.4016
 10
-461.767
 20
-264.445
 10
-461.7254
 20
-264.4991
 10
-461.6865
 20
-264.5722
 10
-461.6409
 20
-264.6841
 10
-461.5928
 20
-264.822
 10
-461.5463
 20
-264.9733
 10
-461.5055
 20
-265.1252
 10
-461.4745
 20
-265.265
 10
-461.4574
 20
-265.3801
 10
-461.4583
 20
-265.4577
 10
-461.4743
 20
-265.5492
 10
-461.4838
 20
-265.6044
 10
-461.4995
 20
-265.6387
 10
-461.5337
 20
-265.6674
 10
-461.7075
 20
-265.7701
 10
-462.1048
 20
-266.0358
 10
-462.2791
 20
-266.1531
 10
-462.4756
 20
-266.2776
 10
-462.6761
 20
-266.406
 10
-462.8625
 20
-266.5347
 10
-464.4947
 20
-267.7374
 10
-466.0331
 20
-268.9054
 10
-467.4694
 20
-270.0842
 10
-468.7955
 20
-271.32
 10
-470.0032
 20
-272.6583
 10
-471.0841
 20
-274.1451
 10
-472.0301
 20
-275.8262
 10
-472.833
 20
-277.7474
 10
-473.0661
 20
-278.4656
 10
-473.2405
 20
-279.1415
 10
-473.3565
 20
-279.7794
 10
-473.4143
 20
-280.384
 10
-473.4142
 20
-280.9595
 10
-473.3564
 20
-281.5104
 10
-473.2413
 20
-282.0412
 10
-473.0692
 20
-282.5564
 10
-469.3229
 20
-292.0572
 10
-468.7871
 20
-292.661
 10
-468.2414
 20
-293.1839
 10
-467.6776
 20
-293.6338
 10
-467.0877
 20
-294.0187
 10
-466.4634
 20
-294.3463
 10
-465.7966
 20
-294.6247
 10
-465.0793
 20
-294.8617
 10
-464.3032
 20
-295.0653
 10
-462.4267
 20
-295.4396
 10
-460.6687
 20
-295.6587
 10
-458.992
 20
-295.7363
 10
-457.3596
 20
-295.6864
 10
-455.7346
 20
-295.523
 10
-454.0801
 20
-295.2599
 10
-452.3588
 20
-294.911
 10
-450.534
 20
-294.4903
 10
-449.1941
 20
-294.0527
 10
-447.9068
 20
-293.6228
 10
-446.6586
 20
-293.186
 10
-445.4359
 20
-292.7279
 10
-444.2251
 20
-292.2339
 10
-443.0128
 20
-291.6894
 10
-441.7852
 20
-291.0801
 10
-440.5289
 20
-290.3914
 10
-440.0734
 20
-290.1179
 10
-439.5281
 20
-289.7717
 10
-438.9232
 20
-289.3741
 10
-438.2893
 20
-288.9464
 10
-437.6567
 20
-288.5099
 10
-437.056
 20
-288.0857
 10
-436.5174
 20
-287.6953
 10
-436.0716
 20
-287.3598
 10
-435.0251
 20
-286.5114
 10
-433.9758
 20
-285.5771
 10
-432.9434
 20
-284.5658
 10
-431.9479
 20
-283.4861
 10
-431.009
 20
-282.3467
 10
-430.1466
 20
-281.1565
 10
-429.3805
 20
-279.9242
 10
-428.7304
 20
-278.6584
 10
-428.371
 20
-277.7559
 10
-428.1295
 20
-276.8773
 10
-428.0025
 20
-276.0145
 10
-427.9863
 20
-275.16
 10
-428.0774
 20
-274.3058
 10
-428.2723
 20
-273.4443
 10
-428.5675
 20
-272.5674
 10
-428.9593
 20
-271.6676
 10
-429.3021
 20
-271.0062
 10
-429.655
 20
-270.3443
 10
-430.0152
 20
-269.682
 10
-430.3799
 20
-269.0192
 10
-430.7461
 20
-268.3558
 10
-431.1112
 20
-267.6918
 10
-431.4721
 20
-267.0272
 10
-431.8262
 20
-266.362
 10
-432.365
 20
-265.3102
 10
-432.9626
 20
-264.3902
 10
-433.6279
 20
-263.5926
 10
-434.37
 20
-262.9078
 10
-435.1979
 20
-262.3263
 10
-436.1206
 20
-261.8386
 10
-437.1472
 20
-261.4353
 10
-438.2865
 20
-261.1067
 10
-439.507
 20
-260.8297
 10
-440.8011
 20
-260.6024
 10
-442.1445
 20
-260.4613
 10
-443.5191
 20
-260.4022
 10
-444.907
 20
-260.4207
 10
-446.29
 20
-260.5125
 10
-447.6502
 20
-260.6731
 10
-448.9693
 20
-260.8984
 10
-450.2294
 20
-261.1838
 10
-450.4681
 20
-261.2418
 10
-450.7349
 20
-261.3028
 10
-451.0155
 20
-261.3665
 10
-451.296
 20
-261.4327
 10
-451.5621
 20
-261.5011
 10
-451.7997
 20
-261.5715
 10
-451.9947
 20
-261.6436
 10
-452.1331
 20
-261.7172
 10
-452.3414
 20
-261.6182
 10
-452.5531
 20
-261.0417
 10
-452.4918
 20
-260.7525
 10
-452.4323
 20
-260.5455
 10
-452.3849
 20
-260.3853
 10
-452.3603
 20
-260.2364
 10
-452.3689
 20
-260.0635
 10
-452.4212
 20
-259.831
 10
-452.5275
 20
-259.5036
 10
-452.6985
 20
-259.0457
 10
-454.7737
 20
-254.1228
 10
-455.2209
 20
-253.2758
 10
-455.6916
 20
-252.48
 10
-456.205
 20
-251.7402
 10
-456.7803
 20
-251.0612
 10
-457.4367
 20
-250.4477
 10
-458.1936
 20
-249.9047
 10
-459.07
 20
-249.4368
 10
-460.0853
 20
-249.0489
 10
-460.9156
 20
-248.814
 10
-462.0364
 20
-248.5352
 10
-463.3587
 20
-248.2279
 10
-464.7932
 20
-247.9071
 10
-466.2509
 20
-247.5879
 10
-467.6426
 20
-247.2855
 10
-468.8792
 20
-247.0151
 10
-469.8715
 20
-246.7918
 10
-520.5585
 20
-236.8213
  0
LWPOLYLINE
  5
73
330
1F
100
AcDbEntity
  8
Layer 1
 62
     7
370
    20
100
AcDbPolyline
 90
       35
 70
     1
 43
0.0
 10
-521.5581
 20
-240.6217
 10
-521.4625
 20
-240.129
 10
-514.4209
 20
-241.4622
 10
-507.3803
 20
-242.7948
 10
-500.3407
 20
-244.1288
 10
-493.3023
 20
-245.4662
 10
-486.265
 20
-246.809
 10
-479.2289
 20
-248.1594
 10
-472.194
 20
-249.5194
 10
-465.1603
 20
-250.891
 10
-464.9969
 20
-250.9335
 10
-464.5314
 20
-251.1058
 10
-463.8011
 20
-251.4751
 10
-462.8434
 20
-252.1084
 10
-461.6953
 20
-253.073
 10
-460.3943
 20
-254.4359
 10
-458.9774
 20
-256.2643
 10
-457.4821
 20
-258.6254
 10
-458.0143
 20
-258.7391
 10
-459.4973
 20
-256.3931
 10
-460.8816
 20
-254.6046
 10
-462.1367
 20
-253.298
 10
-463.232
 20
-252.3981
 10
-464.137
 20
-251.8294
 10
-464.8213
 20
-251.5165
 10
-465.2542
 20
-251.3841
 10
-465.4053
 20
-251.3567
 10
-472.4206
 20
-249.9886
 10
-479.4367
 20
-248.6321
 10
-486.4537
 20
-247.2851
 10
-493.4718
 20
-245.9456
 10
-500.4911
 20
-244.6116
 10
-507.5118
 20
-243.281
 10
-514.5341
 20
-241.9517
 10
-521.5581
 20
-240.6217
  0
LWPOLYLINE
  5
74
330
1F
100
AcDbEntity
  8
Layer 1
 62
     7
370
    20
100
AcDbPolyline
 90
      145
 70
     1
 43
0.0
 10
-520.5583
 20
-236.8213
 10
-520.8912
 20
-237.953
 10
-521.199
 20
-239.0875
 10
-521.4735
 20
-240.2294
 10
-521.7066
 20
-241.3831
 10
-521.8901
 20
-242.5531
 10
-522.0159
 20
-243.7439
 10
-522.0758
 20
-244.96
 10
-522.0617
 20
-246.2058
 10
-522.3754
 20
-246.3366
 10
-522.6354
 20
-246.3813
 10
-522.8454
 20
-246.3612
 10
-523.0091
 20
-246.2973
 10
-523.13
 20
-246.2108
 10
-523.2118
 20
-246.1228
 10
-523.2582
 20
-246.0546
 10
-523.2729
 20
-246.0271
 10
-523.5866
 20
-246.1579
 10
-523.8467
 20
-246.2026
 10
-524.0567
 20
-246.1825
 10
-524.2203
 20
-246.1186
 10
-524.3412
 20
-246.0321
 10
-524.4231
 20
-245.9441
 10
-524.4695
 20
-245.8759
 10
-524.4842
 20
-245.8484
 10
-524.7979
 20
-245.9792
 10
-525.058
 20
-246.0239
 10
-525.268
 20
-246.0038
 10
-525.4316
 20
-245.9399
 10
-525.5525
 20
-245.8534
 10
-525.6343
 20
-245.7654
 10
-525.6807
 20
-245.6972
 10
-525.6954
 20
-245.6697
 10
-526.0092
 20
-245.8005
 10
-526.2693
 20
-245.8452
 10
-526.4793
 20
-245.8251
 10
-526.643
 20
-245.7612
 10
-526.7639
 20
-245.6747
 10
-526.8457
 20
-245.5867
 10
-526.8921
 20
-245.5185
 10
-526.9068
 20
-245.491
 10
-527.2205
 20
-245.6218
 10
-527.4805
 20
-245.6666
 10
-527.6905
 20
-245.6465
 10
-527.8542
 20
-245.5827
 10
-527.9751
 20
-245.4962
 10
-528.0569
 20
-245.4082
 10
-528.1033
 20
-245.34
 10
-528.118
 20
-245.3125
 10
-528.4318
 20
-245.4433
 10
-528.6918
 20
-245.488
 10
-528.9019
 20
-245.4678
 10
-529.0655
 20
-245.4038
 10
-529.1864
 20
-245.3173
 10
-529.2682
 20
-245.2293
 10
-529.3146
 20
-245.161
 10
-529.3293
 20
-245.1335
 10
-529.6431
 20
-245.2644
 10
-529.9031
 20
-245.3091
 10
-530.1132
 20
-245.289
 10
-530.2768
 20
-245.2251
 10
-530.3977
 20
-245.1386
 10
-530.4796
 20
-245.0506
 10
-530.526
 20
-244.9823
 10
-530.5407
 20
-244.9548
 10
-530.8544
 20
-245.0856
 10
-531.1144
 20
-245.1303
 10
-531.3244
 20
-245.1102
 10
-531.488
 20
-245.0463
 10
-531.6089
 20
-244.9598
 10
-531.6907
 20
-244.8718
 10
-531.7371
 20
-244.8036
 10
-531.7518
 20
-244.7761
 10
-532.7065
 20
-244.7602
 10
-533.2509
 20
-243.7096
 10
-533.4279
 20
-241.9841
 10
-533.2803
 20
-239.9433
 10
-532.8511
 20
-237.947
 10
-532.1831
 20
-236.3548
 10
-531.3194
 20
-235.5264
 10
-530.3027
 20
-235.8216
 10
-530.2817
 20
-235.7986
 10
-530.2198
 20
-235.7439
 10
-530.1187
 20
-235.6788
 10
-529.9801
 20
-235.6247
 10
-529.8057
 20
-235.6031
 10
-529.5972
 20
-235.6353
 10
-529.3563
 20
-235.7426
 10
-529.0847
 20
-235.9466
 10
-529.0637
 20
-235.9236
 10
-529.0018
 20
-235.8689
 10
-528.9007
 20
-235.8038
 10
-528.7621
 20
-235.7497
 10
-528.5877
 20
-235.7281
 10
-528.3792
 20
-235.7602
 10
-528.1382
 20
-235.8676
 10
-527.8666
 20
-236.0715
 10
-527.8456
 20
-236.0485
 10
-527.7837
 20
-235.9938
 10
-527.6826
 20
-235.9287
 10
-527.544
 20
-235.8747
 10
-527.3696
 20
-235.853
 10
-527.1611
 20
-235.8852
 10
-526.9202
 20
-235.9926
 10
-526.6486
 20
-236.1965
 10
-526.6276
 20
-236.1735
 10
-526.5657
 20
-236.1188
 10
-526.4646
 20
-236.0537
 10
-526.326
 20
-235.9996
 10
-526.1516
 20
-235.978
 10
-525.9431
 20
-236.0102
 10
-525.7021
 20
-236.1175
 10
-525.4305
 20
-236.3215
 10
-525.4095
 20
-236.2985
 10
-525.3476
 20
-236.2438
 10
-525.2465
 20
-236.1787
 10
-525.1079
 20
-236.1246
 10
-524.9335
 20
-236.103
 10
-524.725
 20
-236.1351
 10
-524.4841
 20
-236.2425
 10
-524.2125
 20
-236.4464
 10
-524.1915
 20
-236.4234
 10
-524.1296
 20
-236.3687
 10
-524.0285
 20
-236.3036
 10
-523.8899
 20
-236.2496
 10
-523.7155
 20
-236.2279
 10
-523.507
 20
-236.2601
 10
-523.266
 20
-236.3675
 10
-522.9944
 20
-236.5714
 10
-522.9734
 20
-236.5484
 10
-522.9115
 20
-236.4937
 10
-522.8104
 20
-236.4286
 10
-522.6718
 20
-236.3745
 10
-522.4974
 20
-236.3529
 10
-522.2889
 20
-236.3851
 10
-522.048
 20
-236.4924
 10
-521.7764
 20
-236.6964
 10
-521.7554
 20
-236.6734
 10
-521.6935
 20
-236.6187
 10
-521.5924
 20
-236.5536
 10
-521.4538
 20
-236.4995
 10
-521.2794
 20
-236.4779
 10
-521.0709
 20
-236.51
 10
-520.8299
 20
-236.6174
 10
-520.5583
 20
-236.8213
  0
LWPOLYLINE
  5
75
330
1F
100
AcDbEntity
  8
Layer 1
 62
     7
370
    20
100
AcDbPolyline
 90
        9
 70
     0
 43
0.0
 10
-530.3027
 20
-235.8216
 10
-530.4023
 20
-235.9756
 10
-530.6571
 20
-236.4294
 10
-531.0012
 20
-237.1712
 10
-531.3686
 20
-238.1887
 10
-531.6933
 20
-239.47
 10
-531.9094
 20
-241.0031
 10
-531.9509
 20
-242.7758
 10
-531.7518
 20
-244.7761
  0
LWPOLYLINE
  5
76
330
1F
100
AcDbEntity
  8
Layer 1
 62
     7
370
    20
100
AcDbPolyline
 90
        9
 70
     0
 43
0.0
 10
-529.0847
 20
-235.9466
 10
-529.1896
 20
-236.1213
 10
-529.4574
 20
-236.626
 10
-529.8176
 20
-237.4316
 10
-530.1998
 20
-238.509
 10
-530.5337
 20
-239.8291
 10
-530.7487
 20
-241.3628
 10
-530.7745
 20
-243.0811
 10
-530.5407
 20
-244.9548
  0
LWPOLYLINE
  5
77
330
1F
100
AcDbEntity
  8
Layer 1
 62
     7
370
    20
100
AcDbPolyline
 90
        9
 70
     0
 43
0.0
 10
-527.8666
 20
-236.0715
 10
-527.9784
 20
-236.2986
 10
-528.2618
 20
-236.9326
 10
-528.6392
 20
-237.9021
 10
-529.0328
 20
-239.136
 10
-529.3647
 20
-240.5632
 10
-529.5572
 20
-242.1124
 10
-529.5326
 20
-243.7124
 10
-529.213
 20
-245.292
  0
LWPOLYLINE
  5
78
330
1F
100
AcDbEntity
  8
Layer 1
 62
     7
370
    20
100
AcDbPolyline
 90
        9
 70
     0
 43
0.0
 10
-526.6486
 20
-236.1965
 10
-526.7445
 20
-236.4074
 10
-526.9907
 20
-237.001
 10
-527.3244
 20
-237.9186
 10
-527.6832
 20
-239.1015
 10
-528.0045
 20
-240.4911
 10
-528.2258
 20
-242.0285
 10
-528.2845
 20
-243.6552
 10
-528.118
 20
-245.3125
  0
LWPOLYLINE
  5
79
330
1F
100
AcDbEntity
  8
Layer 1
 62
     7
370
    20
100
AcDbPolyline
 90
        9
 70
     0
 43
0.0
 10
-525.4305
 20
-236.3215
 10
-525.5292
 20
-236.5362
 10
-525.782
 20
-237.1394
 10
-526.1242
 20
-238.07
 10
-526.4909
 20
-239.2667
 10
-526.8173
 20
-240.6683
 10
-527.0386
 20
-242.2137
 10
-527.09
 20
-243.8417
 10
-526.9068
 20
-245.491
  0
LWPOLYLINE
  5
7A
330
1F
100
AcDbEntity
  8
Layer 1
 62
     7
370
    20
100
AcDbPolyline
 90
        9
 70
     0
 43
0.0
 10
-524.2125
 20
-236.4464
 10
-524.3024
 20
-236.6339
 10
-524.5339
 20
-237.1716
 10
-524.8498
 20
-238.0223
 10
-525.1931
 20
-239.1489
 10
-525.5064
 20
-240.5141
 10
-525.7327
 20
-242.0808
 10
-525.8147
 20
-243.8117
 10
-525.6954
 20
-245.6697
  0
LWPOLYLINE
  5
7B
330
1F
100
AcDbEntity
  8
Layer 1
 62
     7
370
    20
100
AcDbPolyline
 90
        9
 70
     0
 43
0.0
 10
-522.9944
 20
-236.5714
 10
-523.0634
 20
-236.71
 10
-523.2442
 20
-237.1294
 10
-523.4976
 20
-237.835
 10
-523.7846
 20
-238.8324
 10
-524.0659
 20
-240.127
 10
-524.3024
 20
-241.7242
 10
-524.4549
 20
-243.6295
 10
-524.4842
 20
-245.8484
  0
LWPOLYLINE
  5
7C
330
1F
100
AcDbEntity
  8
Layer 1
 62
     7
370
    20
100
AcDbPolyline
 90
        9
 70
     0
 43
0.0
 10
-521.7764
 20
-236.6964
 10
-522.1769
 20
-237.843
 10
-522.5162
 20
-238.9953
 10
-522.7943
 20
-240.1532
 10
-523.0115
 20
-241.3168
 10
-523.1678
 20
-242.4859
 10
-523.2634
 20
-243.6607
 10
-523.2984
 20
-244.8411
 10
-523.2729
 20
-246.0271
  0
LWPOLYLINE
  5
7D
330
1F
100
AcDbEntity
  8
Layer 1
 62
     7
370
     9
100
AcDbPolyline
 90
       17
 70
     1
 43
0.0
 10
-455.4409
 20
-286.8732
 10
-456.4454
 20
-284.8186
 10
-455.9587
 20
-282.6236
 10
-454.3213
 20
-280.4737
 10
-451.8734
 20
-278.5542
 10
-448.9552
 20
-277.0502
 10
-445.9071
 20
-276.1471
 10
-443.0693
 20
-276.0303
 10
-440.7822
 20
-276.8849
 10
-439.5761
 20
-278.6518
 10
-439.88
 20
-280.7409
 10
-441.3728
 20
-282.9171
 10
-443.7338
 20
-284.9451
 10
-446.6419
 20
-286.5899
 10
-449.7764
 20
-287.6163
 10
-452.8164
 20
-287.7891
 10
-455.4409
 20
-286.8732
  0
LWPOLYLINE
  5
7E
330
1F
100
AcDbEntity
  8
Layer 1
 62
     7
370
     9
100
AcDbPolyline
 90
       17
 70
     1
 43
0.0
 10
-454.1686
 20
-286.026
 10
-455.0017
 20
-284.322
 10
-454.5981
 20
-282.5016
 10
-453.2401
 20
-280.7186
 10
-451.2099
 20
-279.1266
 10
-448.7897
 20
-277.8793
 10
-446.2618
 20
-277.1303
 10
-443.9083
 20
-277.0334
 10
-442.0115
 20
-277.7422
 10
-441.0113
 20
-279.2076
 10
-441.2632
 20
-280.9402
 10
-442.5013
 20
-282.745
 10
-444.4594
 20
-284.427
 10
-446.8713
 20
-285.7911
 10
-449.4708
 20
-286.6423
 10
-451.992
 20
-286.7856
 10
-454.1686
 20
-286.026
  0
LWPOLYLINE
  5
7F
330
1F
100
AcDbEntity
  8
Layer 1
 62
     7
370
    18
100
AcDbPolyline
 90
       33
 70
     1
 43
0.0
 10
-465.0286
 20
-289.3812
 10
-465.0288
 20
-289.278
 10
-465.003
 20
-289.1783
 10
-464.9537
 20
-289.0845
 10
-464.8831
 20
-288.999
 10
-464.7937
 20
-288.9242
 10
-464.6879
 20
-288.8624
 10
-464.568
 20
-288.8161
 10
-464.4365
 20
-288.7876
 10
-464.3023
 20
-288.7795
 10
-464.1746
 20
-288.7918
 10
-464.0563
 20
-288.8227
 10
-463.9505
 20
-288.8707
 10
-463.86
 20
-288.934
 10
-463.7878
 20
-289.0111
 10
-463.7368
 20
-289.1002
 10
-463.71
 20
-289.1997
 10
-463.7098
 20
-289.3028
 10
-463.7356
 20
-289.4024
 10
-463.7849
 20
-289.4962
 10
-463.8555
 20
-289.5817
 10
-463.9449
 20
-289.6565
 10
-464.0507
 20
-289.7183
 10
-464.1706
 20
-289.7645
 10
-464.3021
 20
-289.7929
 10
-464.4364
 20
-289.801
 10
-464.5641
 20
-289.7887
 10
-464.6823
 20
-289.7578
 10
-464.7881
 20
-289.7098
 10
-464.8786
 20
-289.6465
 10
-464.9508
 20
-289.5696
 10
-465.0018
 20
-289.4806
 10
-465.0286
 20
-289.3812
  0
LWPOLYLINE
  5
80
330
1F
100
AcDbEntity
  8
Layer 1
 62
     7
370
    18
100
AcDbPolyline
 90
       33
 70
     1
 43
0.0
 10
-465.5211
 20
-287.3723
 10
-465.5213
 20
-287.2691
 10
-465.4955
 20
-287.1694
 10
-465.4461
 20
-287.0756
 10
-465.3756
 20
-286.9901
 10
-465.2862
 20
-286.9153
 10
-465.1803
 20
-286.8535
 10
-465.0604
 20
-286.8072
 10
-464.9289
 20
-286.7787
 10
-464.7947
 20
-286.7706
 10
-464.667
 20
-286.7829
 10
-464.5487
 20
-286.8138
 10
-464.4429
 20
-286.8617
 10
-464.3524
 20
-286.925
 10
-464.2801
 20
-287.002
 10
-464.229
 20
-287.091
 10
-464.202
 20
-287.1904
 10
-464.2019
 20
-287.2936
 10
-464.2278
 20
-287.3933
 10
-464.2773
 20
-287.4871
 10
-464.3479
 20
-287.5726
 10
-464.4373
 20
-287.6474
 10
-464.5432
 20
-287.7092
 10
-464.6631
 20
-287.7555
 10
-464.7946
 20
-287.784
 10
-464.9288
 20
-287.7921
 10
-465.0565
 20
-287.7798
 10
-465.1746
 20
-287.7489
 10
-465.2804
 20
-287.7009
 10
-465.3708
 20
-287.6376
 10
-465.4431
 20
-287.5607
 10
-465.4941
 20
-287.4717
 10
-465.5211
 20
-287.3723
  0
LWPOLYLINE
  5
81
330
1F
100
AcDbEntity
  8
Layer 1
 62
     7
370
    18
100
AcDbPolyline
 90
       33
 70
     1
 43
0.0
 10
-465.1721
 20
-285.143
 10
-465.1723
 20
-285.0398
 10
-465.1465
 20
-284.9401
 10
-465.0972
 20
-284.8463
 10
-465.0266
 20
-284.7608
 10
-464.9372
 20
-284.686
 10
-464.8314
 20
-284.6242
 10
-464.7115
 20
-284.5779
 10
-464.58
 20
-284.5494
 10
-464.4458
 20
-284.5413
 10
-464.3181
 20
-284.5536
 10
-464.1998
 20
-284.5846
 10
-464.094
 20
-284.6325
 10
-464.0035
 20
-284.6959
 10
-463.9313
 20
-284.773
 10
-463.8803
 20
-284.8621
 10
-463.8535
 20
-284.9616
 10
-463.8533
 20
-285.0647
 10
-463.8791
 20
-285.1643
 10
-463.9284
 20
-285.2581
 10
-463.999
 20
-285.3436
 10
-464.0884
 20
-285.4185
 10
-464.1942
 20
-285.4803
 10
-464.3141
 20
-285.5267
 10
-464.4456
 20
-285.5552
 10
-464.5798
 20
-285.5633
 10
-464.7075
 20
-285.5509
 10
-464.8258
 20
-285.5199
 10
-464.9316
 20
-285.4719
 10
-465.0221
 20
-285.4085
 10
-465.0943
 20
-285.3315
 10
-465.1453
 20
-285.2424
 10
-465.1721
 20
-285.143
  0
LWPOLYLINE
  5
82
330
1F
100
AcDbEntity
  8
Layer 1
 62
     7
370
    18
100
AcDbPolyline
 90
       33
 70
     1
 43
0.0
 10
-464.3047
 20
-282.7004
 10
-464.3049
 20
-282.5972
 10
-464.2791
 20
-282.4975
 10
-464.2298
 20
-282.4037
 10
-464.1592
 20
-282.3182
 10
-464.0698
 20
-282.2434
 10
-463.964
 20
-282.1816
 10
-463.8441
 20
-282.1353
 10
-463.7126
 20
-282.1068
 10
-463.5784
 20
-282.0987
 10
-463.4507
 20
-282.1109
 10
-463.3324
 20
-282.1419
 10
-463.2266
 20
-282.1899
 10
-463.1361
 20
-282.2532
 10
-463.0639
 20
-282.3303
 10
-463.0129
 20
-282.4194
 10
-462.9861
 20
-282.5189
 10
-462.9859
 20
-282.622
 10
-463.0117
 20
-282.7216
 10
-463.061
 20
-282.8154
 10
-463.1316
 20
-282.9009
 10
-463.221
 20
-282.9758
 10
-463.3268
 20
-283.0376
 10
-463.4467
 20
-283.084
 10
-463.5782
 20
-283.1125
 10
-463.7124
 20
-283.1206
 10
-463.8401
 20
-283.1082
 10
-463.9584
 20
-283.0772
 10
-464.0642
 20
-283.0292
 10
-464.1547
 20
-282.9659
 10
-464.2269
 20
-282.8888
 10
-464.2779
 20
-282.7998
 10
-464.3047
 20
-282.7004
  0
LWPOLYLINE
  5
83
330
1F
100
AcDbEntity
  8
Layer 1
 62
     7
370
    18
100
AcDbPolyline
 90
       33
 70
     1
 43
0.0
 10
-462.4806
 20
-280.3441
 10
-462.4808
 20
-280.2409
 10
-462.455
 20
-280.1412
 10
-462.4057
 20
-280.0474
 10
-462.3351
 20
-279.9619
 10
-462.2457
 20
-279.8871
 10
-462.1399
 20
-279.8253
 10
-462.02
 20
-279.779
 10
-461.8885
 20
-279.7505
 10
-461.7543
 20
-279.7424
 10
-461.6266
 20
-279.7547
 10
-461.5083
 20
-279.7857
 10
-461.4025
 20
-279.8336
 10
-461.312
 20
-279.897
 10
-461.2398
 20
-279.974
 10
-461.1888
 20
-280.0631
 10
-461.162
 20
-280.1626
 10
-461.1618
 20
-280.2657
 10
-461.1876
 20
-280.3653
 10
-461.2369
 20
-280.4591
 10
-461.3075
 20
-280.5447
 10
-461.3969
 20
-280.6195
 10
-461.5027
 20
-280.6814
 10
-461.6226
 20
-280.7278
 10
-461.7541
 20
-280.7563
 10
-461.8883
 20
-280.7644
 10
-462.016
 20
-280.752
 10
-462.1343
 20
-280.721
 10
-462.2401
 20
-280.673
 10
-462.3306
 20
-280.6096
 10
-462.4028
 20
-280.5326
 10
-462.4538
 20
-280.4435
 10
-462.4806
 20
-280.3441
  0
LWPOLYLINE
  5
84
330
1F
100
AcDbEntity
  8
Layer 1
 62
     7
370
    18
100
AcDbPolyline
 90
       33
 70
     1
 43
0.0
 10
-460.1814
 20
-277.9131
 10
-460.1816
 20
-277.8099
 10
-460.1558
 20
-277.7102
 10
-460.1065
 20
-277.6164
 10
-460.0359
 20
-277.5309
 10
-459.9465
 20
-277.4561
 10
-459.8407
 20
-277.3943
 10
-459.7208
 20
-277.348
 10
-459.5893
 20
-277.3195
 10
-459.4551
 20
-277.3114
 10
-459.3274
 20
-277.3237
 10
-459.2091
 20
-277.3547
 10
-459.1033
 20
-277.4026
 10
-459.0128
 20
-277.466
 10
-458.9406
 20
-277.543
 10
-458.8896
 20
-277.6321
 10
-458.8628
 20
-277.7316
 10
-458.8626
 20
-277.8347
 10
-458.8884
 20
-277.9343
 10
-458.9377
 20
-278.0281
 10
-459.0083
 20
-278.1136
 10
-459.0977
 20
-278.1885
 10
-459.2035
 20
-278.2503
 10
-459.3234
 20
-278.2967
 10
-459.4549
 20
-278.3252
 10
-459.5891
 20
-278.3333
 10
-459.7168
 20
-278.321
 10
-459.8351
 20
-278.29
 10
-459.9409
 20
-278.242
 10
-460.0314
 20
-278.1786
 10
-460.1036
 20
-278.1016
 10
-460.1546
 20
-278.0125
 10
-460.1814
 20
-277.9131
  0
LWPOLYLINE
  5
85
330
1F
100
AcDbEntity
  8
Layer 1
 62
     7
370
    18
100
AcDbPolyline
 90
       33
 70
     1
 43
0.0
 10
-457.3599
 20
-275.7608
 10
-457.3601
 20
-275.6577
 10
-457.3343
 20
-275.5581
 10
-457.2849
 20
-275.4643
 10
-457.2144
 20
-275.3788
 10
-457.125
 20
-275.304
 10
-457.0191
 20
-275.2422
 10
-456.8992
 20
-275.196
 10
-456.7677
 20
-275.1676
 10
-456.6335
 20
-275.1595
 10
-456.5058
 20
-275.1718
 10
-456.3876
 20
-275.2027
 10
-456.2818
 20
-275.2506
 10
-456.1913
 20
-275.3139
 10
-456.1191
 20
-275.3909
 10
-456.0681
 20
-275.4799
 10
-456.0412
 20
-275.5793
 10
-456.041
 20
-275.6825
 10
-456.0668
 20
-275.7822
 10
-456.1162
 20
-275.876
 10
-456.1867
 20
-275.9615
 10
-456.2761
 20
-276.0363
 10
-456.382
 20
-276.0981
 10
-456.5019
 20
-276.1444
 10
-456.6334
 20
-276.1729
 10
-456.7676
 20
-276.181
 10
-456.8953
 20
-276.1687
 10
-457.0135
 20
-276.1377
 10
-457.1194
 20
-276.0898
 10
-457.2098
 20
-276.0264
 10
-457.282
 20
-275.9494
 10
-457.333
 20
-275.8603
 10
-457.3599
 20
-275.7608
  0
LWPOLYLINE
  5
86
330
1F
100
AcDbEntity
  8
Layer 1
 62
     7
370
    18
100
AcDbPolyline
 90
       33
 70
     1
 43
0.0
 10
-454.0888
 20
-273.8128
 10
-454.0889
 20
-273.7096
 10
-454.063
 20
-273.6099
 10
-454.0135
 20
-273.5161
 10
-453.9429
 20
-273.4306
 10
-453.8535
 20
-273.3558
 10
-453.7476
 20
-273.294
 10
-453.6277
 20
-273.2477
 10
-453.4962
 20
-273.2192
 10
-453.3621
 20
-273.2111
 10
-453.2345
 20
-273.2233
 10
-453.1163
 20
-273.2543
 10
-453.0106
 20
-273.3022
 10
-452.9201
 20
-273.3655
 10
-452.8478
 20
-273.4425
 10
-452.7967
 20
-273.5315
 10
-452.7697
 20
-273.6309
 10
-452.7697
 20
-273.7341
 10
-452.7956
 20
-273.8338
 10
-452.845
 20
-273.9276
 10
-452.9156
 20
-274.0131
 10
-453.005
 20
-274.0879
 10
-453.1108
 20
-274.1497
 10
-453.2305
 20
-274.196
 10
-453.3619
 20
-274.2245
 10
-453.4961
 20
-274.2326
 10
-453.6238
 20
-274.2203
 10
-453.7421
 20
-274.1894
 10
-453.8479
 20
-274.1414
 10
-453.9384
 20
-274.0781
 10
-454.0107
 20
-274.0012
 10
-454.0618
 20
-273.9122
 10
-454.0888
 20
-273.8128
  0
LWPOLYLINE
  5
87
330
1F
100
AcDbEntity
  8
Layer 1
 62
     7
370
    18
100
AcDbPolyline
 90
       33
 70
     1
 43
0.0
 10
-450.611
 20
-272.2907
 10
-450.611
 20
-272.1876
 10
-450.5851
 20
-272.088
 10
-450.5357
 20
-271.9942
 10
-450.465
 20
-271.9087
 10
-450.3756
 20
-271.8338
 10
-450.2698
 20
-271.772
 10
-450.1499
 20
-271.7256
 10
-450.0184
 20
-271.6971
 10
-449.8843
 20
-271.689
 10
-449.7567
 20
-271.7014
 10
-449.6385
 20
-271.7324
 10
-449.5328
 20
-271.7804
 10
-449.4423
 20
-271.8438
 10
-449.37
 20
-271.9208
 10
-449.3189
 20
-272.0099
 10
-449.2919
 20
-272.1093
 10
-449.2918
 20
-272.2125
 10
-449.3177
 20
-272.3122
 10
-449.3671
 20
-272.406
 10
-449.4377
 20
-272.4915
 10
-449.5271
 20
-272.5663
 10
-449.6329
 20
-272.6281
 10
-449.7526
 20
-272.6744
 10
-449.884
 20
-272.7029
 10
-450.0182
 20
-272.711
 10
-450.146
 20
-272.6987
 10
-450.2642
 20
-272.6677
 10
-450.3701
 20
-272.6198
 10
-450.4606
 20
-272.5564
 10
-450.5329
 20
-272.4793
 10
-450.584
 20
-272.3902
 10
-450.611
 20
-272.2907
  0
LWPOLYLINE
  5
88
330
1F
100
AcDbEntity
  8
Layer 1
 62
     7
370
    18
100
AcDbPolyline
 90
       33
 70
     1
 43
0.0
 10
-447.072
 20
-271.2258
 10
-447.0722
 20
-271.1226
 10
-447.0464
 20
-271.0229
 10
-446.9971
 20
-270.9291
 10
-446.9265
 20
-270.8436
 10
-446.8371
 20
-270.7688
 10
-446.7313
 20
-270.707
 10
-446.6114
 20
-270.6607
 10
-446.4799
 20
-270.6322
 10
-446.3456
 20
-270.6241
 10
-446.2179
 20
-270.6364
 10
-446.0997
 20
-270.6674
 10
-445.9939
 20
-270.7153
 10
-445.9034
 20
-270.7787
 10
-445.8312
 20
-270.8557
 10
-445.7802
 20
-270.9448
 10
-445.7533
 20
-271.0443
 10
-445.7531
 20
-271.1474
 10
-445.7789
 20
-271.247
 10
-445.8283
 20
-271.3408
 10
-445.8989
 20
-271.4263
 10
-445.9883
 20
-271.5012
 10
-446.0941
 20
-271.563
 10
-446.214
 20
-271.6094
 10
-446.3455
 20
-271.6379
 10
-446.4797
 20
-271.6458
 10
-446.6074
 20
-271.6335
 10
-446.7257
 20
-271.6025
 10
-446.8315
 20
-271.5545
 10
-446.922
 20
-271.4912
 10
-446.9942
 20
-271.4142
 10
-447.0452
 20
-271.3252
 10
-447.072
 20
-271.2258
  0
LWPOLYLINE
  5
89
330
1F
100
AcDbEntity
  8
Layer 1
 62
     7
370
    18
100
AcDbPolyline
 90
       33
 70
     1
 43
0.0
 10
-443.6679
 20
-270.6434
 10
-443.6681
 20
-270.5402
 10
-443.6423
 20
-270.4405
 10
-443.5929
 20
-270.3467
 10
-443.5223
 20
-270.2612
 10
-443.4329
 20
-270.1864
 10
-443.3271
 20
-270.1246
 10
-443.2072
 20
-270.0783
 10
-443.0757
 20
-270.0498
 10
-442.9415
 20
-270.0417
 10
-442.8137
 20
-270.054
 10
-442.6955
 20
-270.085
 10
-442.5897
 20
-270.1329
 10
-442.4991
 20
-270.1963
 10
-442.4269
 20
-270.2734
 10
-442.3758
 20
-270.3625
 10
-442.3488
 20
-270.462
 10
-442.3487
 20
-270.5651
 10
-442.3746
 20
-270.6647
 10
-442.4241
 20
-270.7585
 10
-442.4947
 20
-270.844
 10
-442.5841
 20
-270.9189
 10
-442.6899
 20
-270.9807
 10
-442.8098
 20
-271.0271
 10
-442.9413
 20
-271.0556
 10
-443.0754
 20
-271.0637
 10
-443.203
 20
-271.0513
 10
-443.3212
 20
-271.0203
 10
-443.427
 20
-270.9723
 10
-443.5175
 20
-270.9089
 10
-443.5898
 20
-270.8319
 10
-443.6409
 20
-270.7428
 10
-443.6679
 20
-270.6434
  0
LWPOLYLINE
  5
8A
330
1F
100
AcDbEntity
  8
Layer 1
 62
     7
370
    18
100
AcDbPolyline
 90
       33
 70
     1
 43
0.0
 10
-440.5871
 20
-270.6179
 10
-440.5873
 20
-270.5147
 10
-440.5615
 20
-270.415
 10
-440.5121
 20
-270.3212
 10
-440.4416
 20
-270.2357
 10
-440.3522
 20
-270.1609
 10
-440.2463
 20
-270.0991
 10
-440.1264
 20
-270.0528
 10
-439.9949
 20
-270.0243
 10
-439.8607
 20
-270.0162
 10
-439.733
 20
-270.0285
 10
-439.6148
 20
-270.0595
 10
-439.509
 20
-270.1074
 10
-439.4185
 20
-270.1708
 10
-439.3463
 20
-270.2479
 10
-439.2953
 20
-270.337
 10
-439.2684
 20
-270.4365
 10
-439.2682
 20
-270.5396
 10
-439.294
 20
-270.6392
 10
-439.3434
 20
-270.733
 10
-439.4139
 20
-270.8185
 10
-439.5033
 20
-270.8934
 10
-439.6092
 20
-270.9552
 10
-439.7291
 20
-271.0016
 10
-439.8606
 20
-271.0301
 10
-439.9948
 20
-271.0382
 10
-440.1225
 20
-271.0258
 10
-440.2407
 20
-270.9948
 10
-440.3466
 20
-270.9468
 10
-440.437
 20
-270.8834
 10
-440.5092
 20
-270.8064
 10
-440.5602
 20
-270.7173
 10
-440.5871
 20
-270.6179
  0
LWPOLYLINE
  5
8B
330
1F
100
AcDbEntity
  8
Layer 1
 62
     7
370
    18
100
AcDbPolyline
 90
       33
 70
     1
 43
0.0
 10
-437.955
 20
-270.9575
 10
-437.9552
 20
-270.8543
 10
-437.9293
 20
-270.7546
 10
-437.8799
 20
-270.6608
 10
-437.8092
 20
-270.5753
 10
-437.7198
 20
-270.5005
 10
-437.614
 20
-270.4387
 10
-437.4942
 20
-270.3924
 10
-437.3628
 20
-270.3639
 10
-437.2286
 20
-270.3558
 10
-437.1009
 20
-270.3681
 10
-436.9826
 20
-270.3991
 10
-436.8768
 20
-270.447
 10
-436.7863
 20
-270.5104
 10
-436.714
 20
-270.5875
 10
-436.6629
 20
-270.6766
 10
-436.6359
 20
-270.7761
 10
-436.6358
 20
-270.8792
 10
-436.6617
 20
-270.9788
 10
-436.7112
 20
-271.0725
 10
-436.7818
 20
-271.1581
 10
-436.8712
 20
-271.2329
 10
-436.9771
 20
-271.2948
 10
-437.097
 20
-271.3412
 10
-437.2285
 20
-271.3697
 10
-437.3626
 20
-271.3778
 10
-437.4902
 20
-271.3654
 10
-437.6083
 20
-271.3344
 10
-437.7141
 20
-271.2864
 10
-437.8046
 20
-271.223
 10
-437.8769
 20
-271.146
 10
-437.928
 20
-271.0569
 10
-437.955
 20
-270.9575
  0
LWPOLYLINE
  5
8C
330
1F
100
AcDbEntity
  8
Layer 1
 62
     7
370
    18
100
AcDbPolyline
 90
       33
 70
     1
 43
0.0
 10
-435.8149
 20
-271.8954
 10
-435.8151
 20
-271.7923
 10
-435.7893
 20
-271.6927
 10
-435.7399
 20
-271.5989
 10
-435.6693
 20
-271.5134
 10
-435.5799
 20
-271.4385
 10
-435.4741
 20
-271.3767
 10
-435.3542
 20
-271.3303
 10
-435.2227
 20
-271.3018
 10
-435.0885
 20
-271.2937
 10
-434.9608
 20
-271.3061
 10
-434.8425
 20
-271.3371
 10
-434.7367
 20
-271.3851
 10
-434.6462
 20
-271.4485
 10
-434.574
 20
-271.5255
 10
-434.523
 20
-271.6146
 10
-434.4962
 20
-271.714
 10
-434.496
 20
-271.8172
 10
-434.5218
 20
-271.9169
 10
-434.5711
 20
-272.0107
 10
-434.6417
 20
-272.0962
 10
-434.7311
 20
-272.171
 10
-434.8369
 20
-272.2328
 10
-434.9568
 20
-272.2791
 10
-435.0883
 20
-272.3076
 10
-435.2226
 20
-272.3157
 10
-435.3503
 20
-272.3034
 10
-435.4685
 20
-272.2724
 10
-435.5743
 20
-272.2245
 10
-435.6648
 20
-272.1611
 10
-435.737
 20
-272.084
 10
-435.788
 20
-271.9949
 10
-435.8149
 20
-271.8954
  0
LWPOLYLINE
  5
8D
330
1F
100
AcDbEntity
  8
Layer 1
 62
     7
370
    18
100
AcDbPolyline
 90
       33
 70
     1
 43
0.0
 10
-434.26
 20
-273.2935
 10
-434.2602
 20
-273.1904
 10
-434.2344
 20
-273.0908
 10
-434.185
 20
-272.997
 10
-434.1144
 20
-272.9115
 10
-434.025
 20
-272.8367
 10
-433.9192
 20
-272.7749
 10
-433.7993
 20
-272.7287
 10
-433.6678
 20
-272.7003
 10
-433.5336
 20
-272.6922
 10
-433.4059
 20
-272.7045
 10
-433.2876
 20
-272.7354
 10
-433.1818
 20
-272.7834
 10
-433.0913
 20
-272.8467
 10
-433.0191
 20
-272.9236
 10
-432.9681
 20
-273.0126
 10
-432.9413
 20
-273.112
 10
-432.9411
 20
-273.2152
 10
-432.9669
 20
-273.3149
 10
-433.0162
 20
-273.4087
 10
-433.0868
 20
-273.4942
 10
-433.1762
 20
-273.569
 10
-433.282
 20
-273.6308
 10
-433.4019
 20
-273.6771
 10
-433.5334
 20
-273.7056
 10
-433.6677
 20
-273.7137
 10
-433.7954
 20
-273.7014
 10
-433.9136
 20
-273.6705
 10
-434.0194
 20
-273.6225
 10
-434.1099
 20
-273.5592
 10
-434.1821
 20
-273.4821
 10
-434.2331
 20
-273.393
 10
-434.26
 20
-273.2935
  0
LWPOLYLINE
  5
8E
330
1F
100
AcDbEntity
  8
Layer 1
 62
     7
370
    18
100
AcDbPolyline
 90
       33
 70
     1
 43
0.0
 10
-433.3206
 20
-274.9282
 10
-433.3206
 20
-274.8251
 10
-433.2947
 20
-274.7255
 10
-433.2453
 20
-274.6318
 10
-433.1746
 20
-274.5462
 10
-433.0852
 20
-274.4714
 10
-432.9794
 20
-274.4095
 10
-432.8595
 20
-274.3631
 10
-432.728
 20
-274.3346
 10
-432.5939
 20
-274.3265
 10
-432.4663
 20
-274.3388
 10
-432.3481
 20
-274.3698
 10
-432.2424
 20
-274.4177
 10
-432.1519
 20
-274.4811
 10
-432.0796
 20
-274.5582
 10
-432.0285
 20
-274.6473
 10
-432.0015
 20
-274.7468
 10
-432.0013
 20
-274.85
 10
-432.0271
 20
-274.9497
 10
-432.0764
 20
-275.0435
 10
-432.147
 20
-275.129
 10
-432.2364
 20
-275.2038
 10
-432.3422
 20
-275.2656
 10
-432.4621
 20
-275.3119
 10
-432.5936
 20
-275.3404
 10
-432.7279
 20
-275.3485
 10
-432.8556
 20
-275.3362
 10
-432.9738
 20
-275.3052
 10
-433.0797
 20
-275.2573
 10
-433.1702
 20
-275.1939
 10
-433.2425
 20
-275.1168
 10
-433.2936
 20
-275.0277
 10
-433.3206
 20
-274.9282
  0
LWPOLYLINE
  5
8F
330
1F
100
AcDbEntity
  8
Layer 1
 62
     7
370
    18
100
AcDbPolyline
 90
       33
 70
     1
 43
0.0
 10
-433.1299
 20
-276.9125
 10
-433.1301
 20
-276.8093
 10
-433.1043
 20
-276.7096
 10
-433.0549
 20
-276.6158
 10
-432.9843
 20
-276.5303
 10
-432.8949
 20
-276.4555
 10
-432.7891
 20
-276.3937
 10
-432.6692
 20
-276.3474
 10
-432.5377
 20
-276.3189
 10
-432.4035
 20
-276.3108
 10
-432.2758
 20
-276.3231
 10
-432.1575
 20
-276.3541
 10
-432.0517
 20
-276.402
 10
-431.9612
 20
-276.4654
 10
-431.889
 20
-276.5425
 10
-431.838
 20
-276.6316
 10
-431.8112
 20
-276.7311
 10
-431.811
 20
-276.8342
 10
-431.8368
 20
-276.9338
 10
-431.8861
 20
-277.0276
 10
-431.9567
 20
-277.1131
 10
-432.0461
 20
-277.188
 10
-432.1519
 20
-277.2498
 10
-432.2718
 20
-277.2962
 10
-432.4033
 20
-277.3247
 10
-432.5376
 20
-277.3328
 10
-432.6652
 20
-277.3204
 10
-432.7834
 20
-277.2894
 10
-432.8892
 20
-277.2414
 10
-432.9796
 20
-277.178
 10
-433.0518
 20
-277.101
 10
-433.1029
 20
-277.0119
 10
-433.1299
 20
-276.9125
  0
LWPOLYLINE
  5
90
330
1F
100
AcDbEntity
  8
Layer 1
 62
     7
370
    18
100
AcDbPolyline
 90
       33
 70
     1
 43
0.0
 10
-433.4914
 20
-279.048
 10
-433.4914
 20
-278.9449
 10
-433.4655
 20
-278.8453
 10
-433.4161
 20
-278.7515
 10
-433.3454
 20
-278.666
 10
-433.256
 20
-278.5911
 10
-433.1502
 20
-278.5293
 10
-433.0303
 20
-278.4829
 10
-432.8988
 20
-278.4544
 10
-432.7647
 20
-278.4463
 10
-432.6371
 20
-278.4587
 10
-432.5189
 20
-278.4897
 10
-432.4132
 20
-278.5377
 10
-432.3227
 20
-278.6011
 10
-432.2504
 20
-278.6781
 10
-432.1993
 20
-278.7672
 10
-432.1723
 20
-278.8666
 10
-432.1721
 20
-278.9698
 10
-432.1979
 20
-279.0695
 10
-432.2472
 20
-279.1633
 10
-432.3178
 20
-279.2488
 10
-432.4072
 20
-279.3236
 10
-432.513
 20
-279.3854
 10
-432.6329
 20
-279.4317
 10
-432.7644
 20
-279.4602
 10
-432.8987
 20
-279.4683
 10
-433.0264
 20
-279.456
 10
-433.1446
 20
-279.425
 10
-433.2505
 20
-279.3771
 10
-433.341
 20
-279.3137
 10
-433.4133
 20
-279.2366
 10
-433.4644
 20
-279.1475
 10
-433.4914
 20
-279.048
  0
LWPOLYLINE
  5
91
330
1F
100
AcDbEntity
  8
Layer 1
 62
     7
370
    18
100
AcDbPolyline
 90
       33
 70
     1
 43
0.0
 10
-434.6826
 20
-281.2984
 10
-434.6828
 20
-281.1952
 10
-434.657
 20
-281.0955
 10
-434.6077
 20
-281.0017
 10
-434.5371
 20
-280.9163
 10
-434.4477
 20
-280.8414
 10
-434.3419
 20
-280.7797
 10
-434.222
 20
-280.7333
 10
-434.0905
 20
-280.7048
 10
-433.9562
 20
-280.6967
 10
-433.8285
 20
-280.709
 10
-433.7103
 20
-280.74
 10
-433.6045
 20
-280.7879
 10
-433.514
 20
-280.8513
 10
-433.4418
 20
-280.9284
 10
-433.3908
 20
-281.0175
 10
-433.3639
 20
-281.117
 10
-433.3637
 20
-281.2201
 10
-433.3895
 20
-281.3197
 10
-433.4389
 20
-281.4135
 10
-433.5095
 20
-281.499
 10
-433.5989
 20
-281.5739
 10
-433.7047
 20
-281.6357
 10
-433.8246
 20
-281.6821
 10
-433.9561
 20
-281.7106
 10
-434.0903
 20
-281.7185
 10
-434.218
 20
-281.7062
 10
-434.3363
 20
-281.6752
 10
-434.4421
 20
-281.6272
 10
-434.5326
 20
-281.5638
 10
-434.6048
 20
-281.4868
 10
-434.6558
 20
-281.3978
 10
-434.6826
 20
-281.2984
  0
LWPOLYLINE
  5
92
330
1F
100
AcDbEntity
  8
Layer 1
 62
     7
370
    18
100
AcDbPolyline
 90
       33
 70
     1
 43
0.0
 10
-436.3632
 20
-283.4262
 10
-436.3634
 20
-283.323
 10
-436.3376
 20
-283.2233
 10
-436.2883
 20
-283.1295
 10
-436.2177
 20
-283.044
 10
-436.1283
 20
-282.9692
 10
-436.0225
 20
-282.9074
 10
-435.9026
 20
-282.8611
 10
-435.7711
 20
-282.8326
 10
-435.6369
 20
-282.8245
 10
-435.5092
 20
-282.8367
 10
-435.3909
 20
-282.8677
 10
-435.2851
 20
-282.9157
 10
-435.1946
 20
-282.979
 10
-435.1224
 20
-283.0561
 10
-435.0714
 20
-283.1452
 10
-435.0446
 20
-283.2447
 10
-435.0444
 20
-283.3478
 10
-435.0702
 20
-283.4474
 10
-435.1195
 20
-283.5412
 10
-435.1901
 20
-283.6267
 10
-435.2795
 20
-283.7016
 10
-435.3853
 20
-283.7634
 10
-435.5052
 20
-283.8098
 10
-435.6367
 20
-283.8383
 10
-435.7709
 20
-283.8464
 10
-435.8986
 20
-283.834
 10
-436.0167
 20
-283.803
 10
-436.1225
 20
-283.755
 10
-436.2129
 20
-283.6917
 10
-436.2852
 20
-283.6146
 10
-436.3362
 20
-283.5256
 10
-436.3632
 20
-283.4262
  0
LWPOLYLINE
  5
93
330
1F
100
AcDbEntity
  8
Layer 1
 62
     7
370
    18
100
AcDbPolyline
 90
       33
 70
     1
 43
0.0
 10
-438.5029
 20
-285.655
 10
-438.5031
 20
-285.5519
 10
-438.4773
 20
-285.4523
 10
-438.428
 20
-285.3585
 10
-438.3574
 20
-285.273
 10
-438.268
 20
-285.1981
 10
-438.1622
 20
-285.1363
 10
-438.0423
 20
-285.0899
 10
-437.9108
 20
-285.0614
 10
-437.7765
 20
-285.0533
 10
-437.6488
 20
-285.0656
 10
-437.5306
 20
-285.0965
 10
-437.4248
 20
-285.1445
 10
-437.3343
 20
-285.2078
 10
-437.2621
 20
-285.2849
 10
-437.2111
 20
-285.374
 10
-437.1842
 20
-285.4735
 10
-437.184
 20
-285.5766
 10
-437.2098
 20
-285.6762
 10
-437.2592
 20
-285.77
 10
-437.3298
 20
-285.8555
 10
-437.4192
 20
-285.9304
 10
-437.525
 20
-285.9922
 10
-437.6449
 20
-286.0386
 10
-437.7764
 20
-286.0671
 10
-437.9106
 20
-286.0752
 10
-438.0383
 20
-286.0629
 10
-438.1564
 20
-286.032
 10
-438.2622
 20
-285.984
 10
-438.3526
 20
-285.9207
 10
-438.4249
 20
-285.8436
 10
-438.4759
 20
-285.7545
 10
-438.5029
 20
-285.655
  0
LWPOLYLINE
  5
94
330
1F
100
AcDbEntity
  8
Layer 1
 62
     7
370
    18
100
AcDbPolyline
 90
       33
 70
     1
 43
0.0
 10
-441.1146
 20
-287.7023
 10
-441.1147
 20
-287.5991
 10
-441.0888
 20
-287.4994
 10
-441.0393
 20
-287.4056
 10
-440.9687
 20
-287.3202
 10
-440.8793
 20
-287.2453
 10
-440.7735
 20
-287.1836
 10
-440.6536
 20
-287.1372
 10
-440.5221
 20
-287.1087
 10
-440.388
 20
-287.1006
 10
-440.2604
 20
-287.1129
 10
-440.1422
 20
-287.1439
 10
-440.0364
 20
-287.1918
 10
-439.9459
 20
-287.2552
 10
-439.8736
 20
-287.3323
 10
-439.8225
 20
-287.4214
 10
-439.7955
 20
-287.5209
 10
-439.7955
 20
-287.624
 10
-439.8214
 20
-287.7236
 10
-439.8708
 20
-287.8174
 10
-439.9414
 20
-287.9029
 10
-440.0308
 20
-287.9778
 10
-440.1366
 20
-288.0396
 10
-440.2563
 20
-288.086
 10
-440.3877
 20
-288.1145
 10
-440.5219
 20
-288.1226
 10
-440.6497
 20
-288.1102
 10
-440.7679
 20
-288.0792
 10
-440.8737
 20
-288.0312
 10
-440.9643
 20
-287.9678
 10
-441.0365
 20
-287.8908
 10
-441.0876
 20
-287.8017
 10
-441.1146
 20
-287.7023
  0
LWPOLYLINE
  5
95
330
1F
100
AcDbEntity
  8
Layer 1
 62
     7
370
    18
100
AcDbPolyline
 90
       33
 70
     1
 43
0.0
 10
-444.0372
 20
-289.4697
 10
-444.0372
 20
-289.3666
 10
-444.0113
 20
-289.267
 10
-443.9619
 20
-289.1733
 10
-443.8912
 20
-289.0877
 10
-443.8018
 20
-289.0129
 10
-443.696
 20
-288.951
 10
-443.5761
 20
-288.9046
 10
-443.4446
 20
-288.8761
 10
-443.3105
 20
-288.8682
 10
-443.1829
 20
-288.8806
 10
-443.0647
 20
-288.9116
 10
-442.959
 20
-288.9596
 10
-442.8685
 20
-289.0229
 10
-442.7962
 20
-289.0999
 10
-442.7451
 20
-289.1889
 10
-442.7181
 20
-289.2883
 10
-442.7179
 20
-289.3915
 10
-442.7437
 20
-289.4912
 10
-442.7932
 20
-289.585
 10
-442.8638
 20
-289.6705
 10
-442.9532
 20
-289.7453
 10
-443.059
 20
-289.8071
 10
-443.1788
 20
-289.8534
 10
-443.3102
 20
-289.8819
 10
-443.4445
 20
-289.89
 10
-443.5722
 20
-289.8777
 10
-443.6904
 20
-289.8467
 10
-443.7963
 20
-289.7988
 10
-443.8868
 20
-289.7354
 10
-443.9591
 20
-289.6583
 10
-444.0102
 20
-289.5692
 10
-444.0372
 20
-289.4697
  0
LWPOLYLINE
  5
96
330
1F
100
AcDbEntity
  8
Layer 1
 62
     7
370
    18
100
AcDbPolyline
 90
       33
 70
     1
 43
0.0
 10
-447.2905
 20
-290.809
 10
-447.2907
 20
-290.7059
 10
-447.2649
 20
-290.6063
 10
-447.2155
 20
-290.5125
 10
-447.145
 20
-290.427
 10
-447.0556
 20
-290.3521
 10
-446.9497
 20
-290.2903
 10
-446.8298
 20
-290.2439
 10
-446.6983
 20
-290.2154
 10
-446.5641
 20
-290.2073
 10
-446.4364
 20
-290.2196
 10
-446.3182
 20
-290.2506
 10
-446.2124
 20
-290.2985
 10
-446.1219
 20
-290.3619
 10
-446.0497
 20
-290.439
 10
-445.9987
 20
-290.5281
 10
-445.9718
 20
-290.6276
 10
-445.9716
 20
-290.7307
 10
-445.9974
 20
-290.8303
 10
-446.0468
 20
-290.9241
 10
-446.1173
 20
-291.0096
 10
-446.2067
 20
-291.0845
 10
-446.3126
 20
-291.1463
 10
-446.4325
 20
-291.1927
 10
-446.564
 20
-291.2212
 10
-446.6982
 20
-291.2293
 10
-446.8259
 20
-291.217
 10
-446.9441
 20
-291.186
 10
-447.05
 20
-291.1381
 10
-447.1404
 20
-291.0747
 10
-447.2126
 20
-290.9976
 10
-447.2636
 20
-290.9085
 10
-447.2905
 20
-290.809
  0
LWPOLYLINE
  5
97
330
1F
100
AcDbEntity
  8
Layer 1
 62
     7
370
    18
100
AcDbPolyline
 90
       33
 70
     1
 43
0.0
 10
-450.5152
 20
-291.9923
 10
-450.5152
 20
-291.8892
 10
-450.4893
 20
-291.7896
 10
-450.4399
 20
-291.6959
 10
-450.3693
 20
-291.6103
 10
-450.2799
 20
-291.5355
 10
-450.1741
 20
-291.4736
 10
-450.0544
 20
-291.4272
 10
-449.923
 20
-291.3987
 10
-449.7888
 20
-291.3906
 10
-449.6611
 20
-291.4029
 10
-449.5428
 20
-291.4339
 10
-449.437
 20
-291.4818
 10
-449.3465
 20
-291.5452
 10
-449.2742
 20
-291.6223
 10
-449.2231
 20
-291.7114
 10
-449.1961
 20
-291.8109
 10
-449.196
 20
-291.914
 10
-449.2219
 20
-292.0136
 10
-449.2713
 20
-292.1074
 10
-449.3419
 20
-292.1929
 10
-449.4313
 20
-292.2678
 10
-449.5371
 20
-292.3296
 10
-449.6568
 20
-292.376
 10
-449.7882
 20
-292.4045
 10
-449.9224
 20
-292.4126
 10
-450.0502
 20
-292.4003
 10
-450.1684
 20
-292.3693
 10
-450.2743
 20
-292.3214
 10
-450.3648
 20
-292.258
 10
-450.4371
 20
-292.1809
 10
-450.4882
 20
-292.0918
 10
-450.5152
 20
-291.9923
  0
LWPOLYLINE
  5
98
330
1F
100
AcDbEntity
  8
Layer 1
 62
     7
370
    18
100
AcDbPolyline
 90
       33
 70
     1
 43
0.0
 10
-453.7108
 20
-292.8305
 10
-453.711
 20
-292.7273
 10
-453.6852
 20
-292.6276
 10
-453.6359
 20
-292.5338
 10
-453.5653
 20
-292.4483
 10
-453.4759
 20
-292.3735
 10
-453.3701
 20
-292.3117
 10
-453.2502
 20
-292.2654
 10
-453.1187
 20
-292.2369
 10
-452.9844
 20
-292.2288
 10
-452.8567
 20
-292.2411
 10
-452.7385
 20
-292.272
 10
-452.6327
 20
-292.32
 10
-452.5422
 20
-292.3833
 10
-452.47
 20
-292.4604
 10
-452.419
 20
-292.5495
 10
-452.3922
 20
-292.649
 10
-452.392
 20
-292.7521
 10
-452.4178
 20
-292.8517
 10
-452.4671
 20
-292.9455
 10
-452.5377
 20
-293.031
 10
-452.6271
 20
-293.1059
 10
-452.7329
 20
-293.1677
 10
-452.8528
 20
-293.2141
 10
-452.9843
 20
-293.2426
 10
-453.1185
 20
-293.2507
 10
-453.2462
 20
-293.2383
 10
-453.3645
 20
-293.2073
 10
-453.4703
 20
-293.1593
 10
-453.5608
 20
-293.096
 10
-453.633
 20
-293.0189
 10
-453.684
 20
-292.9299
 10
-453.7108
 20
-292.8305
  0
LWPOLYLINE
  5
99
330
1F
100
AcDbEntity
  8
Layer 1
 62
     7
370
    18
100
AcDbPolyline
 90
       33
 70
     1
 43
0.0
 10
-456.7742
 20
-292.9864
 10
-456.7744
 20
-292.8832
 10
-456.7486
 20
-292.7835
 10
-456.6993
 20
-292.6897
 10
-456.6287
 20
-292.6042
 10
-456.5393
 20
-292.5294
 10
-456.4335
 20
-292.4676
 10
-456.3136
 20
-292.4213
 10
-456.1821
 20
-292.3928
 10
-456.0479
 20
-292.3847
 10
-455.9202
 20
-292.397
 10
-455.8019
 20
-292.428
 10
-455.6961
 20
-292.4759
 10
-455.6056
 20
-292.5393
 10
-455.5334
 20
-292.6164
 10
-455.4824
 20
-292.7055
 10
-455.4556
 20
-292.805
 10
-455.4554
 20
-292.9081
 10
-455.4812
 20
-293.0077
 10
-455.5305
 20
-293.1014
 10
-455.6011
 20
-293.1869
 10
-455.6905
 20
-293.2618
 10
-455.7963
 20
-293.3235
 10
-455.9162
 20
-293.3697
 10
-456.0477
 20
-293.3981
 10
-456.182
 20
-293.4062
 10
-456.3097
 20
-293.394
 10
-456.4279
 20
-293.363
 10
-456.5337
 20
-293.3151
 10
-456.6242
 20
-293.2518
 10
-456.6964
 20
-293.1748
 10
-456.7474
 20
-293.0858
 10
-456.7742
 20
-292.9864
  0
LWPOLYLINE
  5
9A
330
1F
100
AcDbEntity
  8
Layer 1
 62
     7
370
    18
100
AcDbPolyline
 90
       33
 70
     1
 43
0.0
 10
-459.5282
 20
-292.8529
 10
-459.5282
 20
-292.7498
 10
-459.5023
 20
-292.6502
 10
-459.4529
 20
-292.5564
 10
-459.3823
 20
-292.4709
 10
-459.2929
 20
-292.396
 10
-459.1871
 20
-292.3342
 10
-459.0674
 20
-292.2878
 10
-458.936
 20
-292.2593
 10
-458.8018
 20
-292.2514
 10
-458.6741
 20
-292.2637
 10
-458.5558
 20
-292.2947
 10
-458.45
 20
-292.3427
 10
-458.3595
 20
-292.4061
 10
-458.2872
 20
-292.4831
 10
-458.2361
 20
-292.5721
 10
-458.2091
 20
-292.6715
 10
-458.209
 20
-292.7747
 10
-458.2349
 20
-292.8744
 10
-458.2844
 20
-292.9682
 10
-458.355
 20
-293.0537
 10
-458.4444
 20
-293.1285
 10
-458.5503
 20
-293.1903
 10
-458.6702
 20
-293.2366
 10
-458.8017
 20
-293.2651
 10
-458.9358
 20
-293.2732
 10
-459.0634
 20
-293.2609
 10
-459.1815
 20
-293.2299
 10
-459.2873
 20
-293.182
 10
-459.3778
 20
-293.1186
 10
-459.4501
 20
-293.0415
 10
-459.5012
 20
-292.9524
 10
-459.5282
 20
-292.8529
  0
LWPOLYLINE
  5
9B
330
1F
100
AcDbEntity
  8
Layer 1
 62
     7
370
    18
100
AcDbPolyline
 90
       33
 70
     1
 43
0.0
 10
-461.9604
 20
-292.1448
 10
-461.9606
 20
-292.0416
 10
-461.9348
 20
-291.942
 10
-461.8855
 20
-291.8482
 10
-461.8149
 20
-291.7627
 10
-461.7255
 20
-291.6879
 10
-461.6197
 20
-291.6261
 10
-461.4998
 20
-291.5797
 10
-461.3683
 20
-291.5512
 10
-461.2341
 20
-291.5431
 10
-461.1064
 20
-291.5554
 10
-460.9883
 20
-291.5864
 10
-460.8825
 20
-291.6343
 10
-460.7921
 20
-291.6977
 10
-460.7199
 20
-291.7748
 10
-460.6688
 20
-291.8639
 10
-460.6418
 20
-291.9634
 10
-460.6416
 20
-292.0665
 10
-460.6674
 20
-292.1661
 10
-460.7167
 20
-292.2599
 10
-460.7873
 20
-292.3454
 10
-460.8767
 20
-292.4203
 10
-460.9825
 20
-292.4821
 10
-461.1024
 20
-292.5285
 10
-461.2339
 20
-292.557
 10
-461.3682
 20
-292.5651
 10
-461.4959
 20
-292.5527
 10
-461.6141
 20
-292.5217
 10
-461.7199
 20
-292.4737
 10
-461.8104
 20
-292.4103
 10
-461.8826
 20
-292.3333
 10
-461.9336
 20
-292.2442
 10
-461.9604
 20
-292.1448
  0
LWPOLYLINE
  5
9C
330
1F
100
AcDbEntity
  8
Layer 1
 62
     7
370
    18
100
AcDbPolyline
 90
       33
 70
     1
 43
0.0
 10
-463.6961
 20
-290.8855
 10
-463.6962
 20
-290.7823
 10
-463.6703
 20
-290.6826
 10
-463.6209
 20
-290.5888
 10
-463.5503
 20
-290.5033
 10
-463.4609
 20
-290.4285
 10
-463.3551
 20
-290.3667
 10
-463.2354
 20
-290.3204
 10
-463.104
 20
-290.2919
 10
-462.9698
 20
-290.2838
 10
-462.842
 20
-290.2961
 10
-462.7238
 20
-290.327
 10
-462.618
 20
-290.375
 10
-462.5274
 20
-290.4383
 10
-462.4551
 20
-290.5152
 10
-462.404
 20
-290.6042
 10
-462.377
 20
-290.7036
 10
-462.377
 20
-290.8068
 10
-462.4029
 20
-290.9065
 10
-462.4523
 20
-291.0003
 10
-462.5229
 20
-291.0858
 10
-462.6123
 20
-291.1606
 10
-462.7181
 20
-291.2224
 10
-462.8378
 20
-291.2687
 10
-462.9692
 20
-291.2972
 10
-463.1034
 20
-291.3053
 10
-463.2311
 20
-291.293
 10
-463.3494
 20
-291.2621
 10
-463.4552
 20
-291.2142
 10
-463.5457
 20
-291.1509
 10
-463.618
 20
-291.0739
 10
-463.6691
 20
-290.9849
 10
-463.6961
 20
-290.8855
  0
LWPOLYLINE
  5
9D
330
1F
100
AcDbEntity
  8
Layer 1
 62
     7
370
    18
100
AcDbPolyline
 90
       33
 70
     1
 43
0.0
 10
-460.872
 20
-288.7517
 10
-460.8722
 20
-288.6486
 10
-460.8464
 20
-288.549
 10
-460.797
 20
-288.4552
 10
-460.7264
 20
-288.3697
 10
-460.637
 20
-288.2948
 10
-460.5312
 20
-288.233
 10
-460.4113
 20
-288.1866
 10
-460.2798
 20
-288.1581
 10
-460.1456
 20
-288.15
 10
-460.0179
 20
-288.1624
 10
-459.8997
 20
-288.1934
 10
-459.7939
 20
-288.2414
 10
-459.7034
 20
-288.3048
 10
-459.6312
 20
-288.3818
 10
-459.5802
 20
-288.4709
 10
-459.5533
 20
-288.5703
 10
-459.5531
 20
-288.6735
 10
-459.5789
 20
-288.7732
 10
-459.6283
 20
-288.867
 10
-459.6988
 20
-288.9525
 10
-459.7882
 20
-289.0273
 10
-459.8941
 20
-289.0891
 10
-460.014
 20
-289.1354
 10
-460.1455
 20
-289.1639
 10
-460.2797
 20
-289.172
 10
-460.4074
 20
-289.1597
 10
-460.5256
 20
-289.1287
 10
-460.6315
 20
-289.0808
 10
-460.7219
 20
-289.0174
 10
-460.7941
 20
-288.9403
 10
-460.8451
 20
-288.8512
 10
-460.872
 20
-288.7517
  0
LWPOLYLINE
  5
9E
330
1F
100
AcDbEntity
  8
Layer 1
 62
     7
370
    18
100
AcDbPolyline
 90
       33
 70
     1
 43
0.0
 10
-457.8189
 20
-286.4732
 10
-457.819
 20
-286.37
 10
-457.7931
 20
-286.2703
 10
-457.7437
 20
-286.1765
 10
-457.6731
 20
-286.091
 10
-457.5837
 20
-286.0162
 10
-457.4779
 20
-285.9544
 10
-457.3582
 20
-285.9081
 10
-457.2268
 20
-285.8796
 10
-457.0926
 20
-285.8715
 10
-456.9648
 20
-285.8838
 10
-456.8466
 20
-285.9148
 10
-456.7408
 20
-285.9627
 10
-456.6502
 20
-286.0261
 10
-456.578
 20
-286.1032
 10
-456.5269
 20
-286.1923
 10
-456.4999
 20
-286.2918
 10
-456.4998
 20
-286.3949
 10
-456.5257
 20
-286.4945
 10
-456.5752
 20
-286.5882
 10
-456.6458
 20
-286.6737
 10
-456.7352
 20
-286.7486
 10
-456.841
 20
-286.8103
 10
-456.9609
 20
-286.8565
 10
-457.0924
 20
-286.8849
 10
-457.2265
 20
-286.893
 10
-457.3541
 20
-286.8808
 10
-457.4723
 20
-286.8498
 10
-457.5781
 20
-286.8019
 10
-457.6686
 20
-286.7386
 10
-457.7408
 20
-286.6616
 10
-457.7919
 20
-286.5726
 10
-457.8189
 20
-286.4732
  0
LWPOLYLINE
  5
9F
330
1F
100
AcDbEntity
  8
Layer 1
 62
     7
370
    18
100
AcDbPolyline
 90
       33
 70
     1
 43
0.0
 10
-458.0803
 20
-284.5175
 10
-458.0804
 20
-284.4144
 10
-458.0545
 20
-284.3148
 10
-458.0051
 20
-284.221
 10
-457.9345
 20
-284.1355
 10
-457.8451
 20
-284.0606
 10
-457.7393
 20
-283.9988
 10
-457.6196
 20
-283.9524
 10
-457.4882
 20
-283.9239
 10
-457.354
 20
-283.9158
 10
-457.2262
 20
-283.9281
 10
-457.108
 20
-283.9591
 10
-457.0022
 20
-284.0071
 10
-456.9116
 20
-284.0705
 10
-456.8393
 20
-284.1475
 10
-456.7882
 20
-284.2366
 10
-456.7612
 20
-284.336
 10
-456.7612
 20
-284.4392
 10
-456.7871
 20
-284.5389
 10
-456.8365
 20
-284.6327
 10
-456.9071
 20
-284.7182
 10
-456.9965
 20
-284.793
 10
-457.1023
 20
-284.8548
 10
-457.222
 20
-284.9011
 10
-457.3534
 20
-284.9296
 10
-457.4876
 20
-284.9377
 10
-457.6154
 20
-284.9254
 10
-457.7336
 20
-284.8944
 10
-457.8394
 20
-284.8465
 10
-457.93
 20
-284.7831
 10
-458.0022
 20
-284.7061
 10
-458.0533
 20
-284.617
 10
-458.0803
 20
-284.5175
  0
LWPOLYLINE
  5
A0
330
1F
100
AcDbEntity
  8
Layer 1
 62
     7
370
    18
100
AcDbPolyline
 90
       33
 70
     1
 43
0.0
 10
-457.2485
 20
-281.9944
 10
-457.2487
 20
-281.8913
 10
-457.2229
 20
-281.7917
 10
-457.1735
 20
-281.6979
 10
-457.103
 20
-281.6124
 10
-457.0136
 20
-281.5375
 10
-456.9077
 20
-281.4757
 10
-456.7878
 20
-281.4293
 10
-456.6563
 20
-281.4008
 10
-456.5221
 20
-281.3927
 10
-456.3944
 20
-281.4051
 10
-456.2762
 20
-281.4361
 10
-456.1704
 20
-281.4841
 10
-456.0799
 20
-281.5475
 10
-456.0077
 20
-281.6245
 10
-455.9567
 20
-281.7136
 10
-455.9298
 20
-281.813
 10
-455.9296
 20
-281.9162
 10
-455.9554
 20
-282.0159
 10
-456.0048
 20
-282.1097
 10
-456.0753
 20
-282.1952
 10
-456.1647
 20
-282.27
 10
-456.2706
 20
-282.3318
 10
-456.3905
 20
-282.3781
 10
-456.522
 20
-282.4066
 10
-456.6562
 20
-282.4147
 10
-456.7839
 20
-282.4024
 10
-456.9021
 20
-282.3714
 10
-457.008
 20
-282.3235
 10
-457.0984
 20
-282.2601
 10
-457.1706
 20
-282.183
 10
-457.2216
 20
-282.0939
 10
-457.2485
 20
-281.9944
  0
LWPOLYLINE
  5
A1
330
1F
100
AcDbEntity
  8
Layer 1
 62
     7
370
    18
100
AcDbPolyline
 90
       33
 70
     1
 43
0.0
 10
-455.2805
 20
-279.5997
 10
-455.2805
 20
-279.4965
 10
-455.2546
 20
-279.3968
 10
-455.2052
 20
-279.303
 10
-455.1346
 20
-279.2175
 10
-455.0452
 20
-279.1427
 10
-454.9394
 20
-279.0809
 10
-454.8197
 20
-279.0346
 10
-454.6883
 20
-279.0061
 10
-454.5541
 20
-278.998
 10
-454.4263
 20
-279.0103
 10
-454.3081
 20
-279.0413
 10
-454.2023
 20
-279.0892
 10
-454.1117
 20
-279.1526
 10
-454.0395
 20
-279.2297
 10
-453.9884
 20
-279.3188
 10
-453.9614
 20
-279.4183
 10
-453.9613
 20
-279.5214
 10
-453.9872
 20
-279.621
 10
-454.0366
 20
-279.7148
 10
-454.1072
 20
-279.8003
 10
-454.1966
 20
-279.8752
 10
-454.3024
 20
-279.937
 10
-454.4221
 20
-279.9834
 10
-454.5535
 20
-280.0119
 10
-454.6877
 20
-280.02
 10
-454.8155
 20
-280.0076
 10
-454.9337
 20
-279.9766
 10
-455.0396
 20
-279.9286
 10
-455.1301
 20
-279.8652
 10
-455.2024
 20
-279.7882
 10
-455.2535
 20
-279.6991
 10
-455.2805
 20
-279.5997
  0
LWPOLYLINE
  5
A2
330
1F
100
AcDbEntity
  8
Layer 1
 62
     7
370
    18
100
AcDbPolyline
 90
       33
 70
     1
 43
0.0
 10
-452.4606
 20
-277.6189
 10
-452.4608
 20
-277.5157
 10
-452.435
 20
-277.416
 10
-452.3857
 20
-277.3222
 10
-452.3151
 20
-277.2367
 10
-452.2257
 20
-277.1619
 10
-452.1199
 20
-277.1001
 10
-452.0
 20
-277.0538
 10
-451.8685
 20
-277.0253
 10
-451.7343
 20
-277.0172
 10
-451.6066
 20
-277.0295
 10
-451.4883
 20
-277.0604
 10
-451.3825
 20
-277.1083
 10
-451.292
 20
-277.1716
 10
-451.2198
 20
-277.2486
 10
-451.1688
 20
-277.3376
 10
-451.142
 20
-277.437
 10
-451.1418
 20
-277.5402
 10
-451.1676
 20
-277.6399
 10
-451.2169
 20
-277.7337
 10
-451.2875
 20
-277.8192
 10
-451.3769
 20
-277.894
 10
-451.4827
 20
-277.9558
 10
-451.6026
 20
-278.0021
 10
-451.7341
 20
-278.0306
 10
-451.8684
 20
-278.0387
 10
-451.9961
 20
-278.0264
 10
-452.1143
 20
-277.9955
 10
-452.2201
 20
-277.9475
 10
-452.3106
 20
-277.8842
 10
-452.3828
 20
-277.8073
 10
-452.4338
 20
-277.7183
 10
-452.4606
 20
-277.6189
  0
LWPOLYLINE
  5
A3
330
1F
100
AcDbEntity
  8
Layer 1
 62
     7
370
    18
100
AcDbPolyline
 90
       33
 70
     1
 43
0.0
 10
-449.0608
 20
-276.2593
 10
-449.061
 20
-276.1562
 10
-449.0352
 20
-276.0566
 10
-448.9859
 20
-275.9628
 10
-448.9153
 20
-275.8773
 10
-448.8259
 20
-275.8024
 10
-448.7201
 20
-275.7406
 10
-448.6002
 20
-275.6942
 10
-448.4687
 20
-275.6657
 10
-448.3345
 20
-275.6576
 10
-448.2068
 20
-275.67
 10
-448.0885
 20
-275.701
 10
-447.9827
 20
-275.749
 10
-447.8922
 20
-275.8124
 10
-447.82
 20
-275.8894
 10
-447.769
 20
-275.9785
 10
-447.7422
 20
-276.0779
 10
-447.742
 20
-276.1811
 10
-447.7678
 20
-276.2808
 10
-447.8171
 20
-276.3746
 10
-447.8877
 20
-276.4601
 10
-447.9771
 20
-276.5349
 10
-448.0829
 20
-276.5966
 10
-448.2028
 20
-276.643
 10
-448.3343
 20
-276.6715
 10
-448.4685
 20
-276.6796
 10
-448.5962
 20
-276.6673
 10
-448.7145
 20
-276.6363
 10
-448.8203
 20
-276.5884
 10
-448.9108
 20
-276.525
 10
-448.983
 20
-276.4479
 10
-449.034
 20
-276.3588
 10
-449.0608
 20
-276.2593
  0
LWPOLYLINE
  5
A4
330
1F
100
AcDbEntity
  8
Layer 1
 62
     7
370
    18
100
AcDbPolyline
 90
       33
 70
     1
 43
0.0
 10
-445.7572
 20
-275.4825
 10
-445.7573
 20
-275.3793
 10
-445.7314
 20
-275.2796
 10
-445.6819
 20
-275.1858
 10
-445.6113
 20
-275.1003
 10
-445.5219
 20
-275.0255
 10
-445.4161
 20
-274.9637
 10
-445.2962
 20
-274.9174
 10
-445.1647
 20
-274.8889
 10
-445.0306
 20
-274.8808
 10
-444.903
 20
-274.8931
 10
-444.7848
 20
-274.9241
 10
-444.679
 20
-274.972
 10
-444.5885
 20
-275.0354
 10
-444.5163
 20
-275.1125
 10
-444.4652
 20
-275.2016
 10
-444.4382
 20
-275.3011
 10
-444.438
 20
-275.4042
 10
-444.4638
 20
-275.5038
 10
-444.5131
 20
-275.5976
 10
-444.5837
 20
-275.6831
 10
-444.6731
 20
-275.758
 10
-444.7789
 20
-275.8198
 10
-444.8988
 20
-275.8662
 10
-445.0303
 20
-275.8947
 10
-445.1645
 20
-275.9028
 10
-445.2923
 20
-275.8904
 10
-445.4105
 20
-275.8594
 10
-445.5163
 20
-275.8114
 10
-445.6069
 20
-275.748
 10
-445.6791
 20
-275.671
 10
-445.7302
 20
-275.5819
 10
-445.7572
 20
-275.4825
  0
LWPOLYLINE
  5
A5
330
1F
100
AcDbEntity
  8
Layer 1
 62
     7
370
    18
100
AcDbPolyline
 90
       33
 70
     1
 43
0.0
 10
-442.637
 20
-275.565
 10
-442.6372
 20
-275.4619
 10
-442.6114
 20
-275.3623
 10
-442.5621
 20
-275.2686
 10
-442.4915
 20
-275.183
 10
-442.4021
 20
-275.1082
 10
-442.2963
 20
-275.0463
 10
-442.1764
 20
-274.9999
 10
-442.0449
 20
-274.9714
 10
-441.9107
 20
-274.9633
 10
-441.783
 20
-274.9757
 10
-441.6647
 20
-275.0067
 10
-441.5589
 20
-275.0547
 10
-441.4684
 20
-275.1181
 10
-441.3962
 20
-275.1951
 10
-441.3452
 20
-275.2842
 10
-441.3184
 20
-275.3836
 10
-441.3182
 20
-275.4868
 10
-441.344
 20
-275.5865
 10
-441.3933
 20
-275.6803
 10
-441.4639
 20
-275.7658
 10
-441.5533
 20
-275.8406
 10
-441.6591
 20
-275.9024
 10
-441.779
 20
-275.9487
 10
-441.9105
 20
-275.9772
 10
-442.0447
 20
-275.9853
 10
-442.1724
 20
-275.973
 10
-442.2907
 20
-275.942
 10
-442.3965
 20
-275.8941
 10
-442.487
 20
-275.8307
 10
-442.5592
 20
-275.7536
 10
-442.6102
 20
-275.6645
 10
-442.637
 20
-275.565
  0
LWPOLYLINE
  5
A6
330
1F
100
AcDbEntity
  8
Layer 1
 62
     7
370
    18
100
AcDbPolyline
 90
       33
 70
     1
 43
0.0
 10
-440.5945
 20
-276.5168
 10
-440.5947
 20
-276.4137
 10
-440.5689
 20
-276.3141
 10
-440.5195
 20
-276.2203
 10
-440.4489
 20
-276.1348
 10
-440.3595
 20
-276.0599
 10
-440.2537
 20
-275.9981
 10
-440.1338
 20
-275.9517
 10
-440.0023
 20
-275.9232
 10
-439.8681
 20
-275.9151
 10
-439.7404
 20
-275.9275
 10
-439.6221
 20
-275.9585
 10
-439.5163
 20
-276.0065
 10
-439.4258
 20
-276.0698
 10
-439.3536
 20
-276.1469
 10
-439.3026
 20
-276.2359
 10
-439.2758
 20
-276.3353
 10
-439.2756
 20
-276.4385
 10
-439.3014
 20
-276.5382
 10
-439.3507
 20
-276.632
 10
-439.4213
 20
-276.7175
 10
-439.5107
 20
-276.7923
 10
-439.6165
 20
-276.8541
 10
-439.7364
 20
-276.9004
 10
-439.8679
 20
-276.9289
 10
-440.0022
 20
-276.937
 10
-440.1299
 20
-276.9248
 10
-440.2481
 20
-276.8938
 10
-440.3539
 20
-276.8459
 10
-440.4444
 20
-276.7825
 10
-440.5166
 20
-276.7054
 10
-440.5676
 20
-276.6163
 10
-440.5945
 20
-276.5168
  0
LWPOLYLINE
  5
A7
330
1F
100
AcDbEntity
  8
Layer 1
 62
     7
370
    18
100
AcDbPolyline
 90
       33
 70
     1
 43
0.0
 10
-439.457
 20
-278.1434
 10
-439.4572
 20
-278.0402
 10
-439.4314
 20
-277.9405
 10
-439.3821
 20
-277.8467
 10
-439.3115
 20
-277.7612
 10
-439.2221
 20
-277.6864
 10
-439.1163
 20
-277.6246
 10
-438.9964
 20
-277.5783
 10
-438.8649
 20
-277.5498
 10
-438.7306
 20
-277.5417
 10
-438.6029
 20
-277.554
 10
-438.4847
 20
-277.5849
 10
-438.3788
 20
-277.6328
 10
-438.2883
 20
-277.6961
 10
-438.216
 20
-277.7731
 10
-438.1649
 20
-277.8621
 10
-438.1379
 20
-277.9615
 10
-438.1379
 20
-278.0647
 10
-438.1638
 20
-278.1644
 10
-438.2132
 20
-278.2582
 10
-438.2838
 20
-278.3437
 10
-438.3732
 20
-278.4185
 10
-438.4791
 20
-278.4803
 10
-438.599
 20
-278.5266
 10
-438.7305
 20
-278.5551
 10
-438.8646
 20
-278.5632
 10
-438.9922
 20
-278.5509
 10
-439.1104
 20
-278.52
 10
-439.2162
 20
-278.472
 10
-439.3066
 20
-278.4087
 10
-439.3789
 20
-278.3318
 10
-439.43
 20
-278.2428
 10
-439.457
 20
-278.1434
  0
LWPOLYLINE
  5
A8
330
1F
100
AcDbEntity
  8
Layer 1
 62
     7
370
    18
100
AcDbPolyline
 90
       33
 70
     1
 43
0.0
 10
-439.4332
 20
-279.9985
 10
-439.4332
 20
-279.8954
 10
-439.4073
 20
-279.7958
 10
-439.3579
 20
-279.702
 10
-439.2872
 20
-279.6165
 10
-439.1978
 20
-279.5416
 10
-439.092
 20
-279.4798
 10
-438.9721
 20
-279.4334
 10
-438.8406
 20
-279.4049
 10
-438.7064
 20
-279.3968
 10
-438.5787
 20
-279.4091
 10
-438.4605
 20
-279.44
 10
-438.3548
 20
-279.488
 10
-438.2643
 20
-279.5513
 10
-438.1921
 20
-279.6284
 10
-438.1411
 20
-279.7175
 10
-438.1141
 20
-279.817
 10
-438.1139
 20
-279.9202
 10
-438.1397
 20
-280.0199
 10
-438.189
 20
-280.1137
 10
-438.2596
 20
-280.1992
 10
-438.349
 20
-280.274
 10
-438.4548
 20
-280.3358
 10
-438.5747
 20
-280.3821
 10
-438.7062
 20
-280.4106
 10
-438.8404
 20
-280.4187
 10
-438.9682
 20
-280.4064
 10
-439.0864
 20
-280.3755
 10
-439.1923
 20
-280.3275
 10
-439.2828
 20
-280.2642
 10
-439.3551
 20
-280.1871
 10
-439.4062
 20
-280.098
 10
-439.4332
 20
-279.9985
  0
LWPOLYLINE
  5
A9
330
1F
100
AcDbEntity
  8
Layer 1
 62
     7
370
    18
100
AcDbPolyline
 90
       33
 70
     1
 43
0.0
 10
-440.4705
 20
-282.2843
 10
-440.4707
 20
-282.1812
 10
-440.4449
 20
-282.0816
 10
-440.3955
 20
-281.9878
 10
-440.325
 20
-281.9023
 10
-440.2356
 20
-281.8274
 10
-440.1297
 20
-281.7656
 10
-440.0098
 20
-281.7192
 10
-439.8783
 20
-281.6907
 10
-439.7441
 20
-281.6826
 10
-439.6164
 20
-281.695
 10
-439.4982
 20
-281.726
 10
-439.3924
 20
-281.774
 10
-439.3019
 20
-281.8374
 10
-439.2297
 20
-281.9144
 10
-439.1787
 20
-282.0035
 10
-439.1518
 20
-282.1029
 10
-439.1516
 20
-282.2061
 10
-439.1774
 20
-282.3058
 10
-439.2268
 20
-282.3996
 10
-439.2973
 20
-282.4851
 10
-439.3867
 20
-282.5599
 10
-439.4926
 20
-282.6217
 10
-439.6125
 20
-282.668
 10
-439.744
 20
-282.6965
 10
-439.8782
 20
-282.7046
 10
-440.0059
 20
-282.6923
 10
-440.1241
 20
-282.6613
 10
-440.23
 20
-282.6134
 10
-440.3204
 20
-282.55
 10
-440.3926
 20
-282.4729
 10
-440.4436
 20
-282.3838
 10
-440.4705
 20
-282.2843
  0
LWPOLYLINE
  5
AA
330
1F
100
AcDbEntity
  8
Layer 1
 62
     7
370
    18
100
AcDbPolyline
 90
       33
 70
     1
 43
0.0
 10
-442.4272
 20
-284.393
 10
-442.4274
 20
-284.2899
 10
-442.4016
 20
-284.1903
 10
-442.3523
 20
-284.0966
 10
-442.2817
 20
-284.0111
 10
-442.1923
 20
-283.9362
 10
-442.0865
 20
-283.8745
 10
-441.9666
 20
-283.8283
 10
-441.8351
 20
-283.7999
 10
-441.7009
 20
-283.7918
 10
-441.5731
 20
-283.804
 10
-441.4549
 20
-283.835
 10
-441.3491
 20
-283.8829
 10
-441.2585
 20
-283.9462
 10
-441.1862
 20
-284.0232
 10
-441.1351
 20
-284.1122
 10
-441.1081
 20
-284.2116
 10
-441.1081
 20
-284.3148
 10
-441.134
 20
-284.4145
 10
-441.1834
 20
-284.5083
 10
-441.2541
 20
-284.5938
 10
-441.3435
 20
-284.6686
 10
-441.4493
 20
-284.7304
 10
-441.5692
 20
-284.7767
 10
-441.7007
 20
-284.8052
 10
-441.8348
 20
-284.8133
 10
-441.9624
 20
-284.801
 10
-442.0806
 20
-284.77
 10
-442.1864
 20
-284.7221
 10
-442.2768
 20
-284.6587
 10
-442.3491
 20
-284.5816
 10
-442.4002
 20
-284.4925
 10
-442.4272
 20
-284.393
  0
LWPOLYLINE
  5
AB
330
1F
100
AcDbEntity
  8
Layer 1
 62
     7
370
    18
100
AcDbPolyline
 90
       33
 70
     1
 43
0.0
 10
-445.032
 20
-286.3069
 10
-445.0321
 20
-286.2037
 10
-445.0062
 20
-286.104
 10
-444.9567
 20
-286.0102
 10
-444.8861
 20
-285.9247
 10
-444.7967
 20
-285.8499
 10
-444.6909
 20
-285.7881
 10
-444.571
 20
-285.7418
 10
-444.4395
 20
-285.7133
 10
-444.3054
 20
-285.7052
 10
-444.1778
 20
-285.7175
 10
-444.0596
 20
-285.7485
 10
-443.9538
 20
-285.7964
 10
-443.8633
 20
-285.8598
 10
-443.791
 20
-285.9368
 10
-443.7399
 20
-286.0259
 10
-443.7129
 20
-286.1254
 10
-443.7127
 20
-286.2285
 10
-443.7386
 20
-286.3281
 10
-443.788
 20
-286.4219
 10
-443.8587
 20
-286.5075
 10
-443.9481
 20
-286.5823
 10
-444.0539
 20
-286.6442
 10
-444.1737
 20
-286.6906
 10
-444.3051
 20
-286.7191
 10
-444.4393
 20
-286.7272
 10
-444.5671
 20
-286.7148
 10
-444.6853
 20
-286.6838
 10
-444.7911
 20
-286.6358
 10
-444.8817
 20
-286.5724
 10
-444.9539
 20
-286.4954
 10
-445.005
 20
-286.4063
 10
-445.032
 20
-286.3069
  0
LWPOLYLINE
  5
AC
330
1F
100
AcDbEntity
  8
Layer 1
 62
     7
370
    18
100
AcDbPolyline
 90
       33
 70
     1
 43
0.0
 10
-448.2021
 20
-287.7101
 10
-448.2021
 20
-287.607
 10
-448.1762
 20
-287.5074
 10
-448.1268
 20
-287.4136
 10
-448.0562
 20
-287.3281
 10
-447.9668
 20
-287.2532
 10
-447.8609
 20
-287.1914
 10
-447.741
 20
-287.145
 10
-447.6095
 20
-287.1165
 10
-447.4754
 20
-287.1084
 10
-447.3478
 20
-287.1208
 10
-447.2296
 20
-287.1518
 10
-447.1239
 20
-287.1998
 10
-447.0334
 20
-287.2632
 10
-446.9611
 20
-287.3402
 10
-446.91
 20
-287.4293
 10
-446.883
 20
-287.5287
 10
-446.883
 20
-287.6319
 10
-446.9089
 20
-287.7316
 10
-446.9583
 20
-287.8254
 10
-447.0289
 20
-287.9109
 10
-447.1183
 20
-287.9857
 10
-447.224
 20
-288.0475
 10
-447.3438
 20
-288.0938
 10
-447.4751
 20
-288.1223
 10
-447.6094
 20
-288.1304
 10
-447.7371
 20
-288.1181
 10
-447.8553
 20
-288.0871
 10
-447.9612
 20
-288.0392
 10
-448.0517
 20
-287.9758
 10
-448.124
 20
-287.8987
 10
-448.1751
 20
-287.8096
 10
-448.2021
 20
-287.7101
  0
LWPOLYLINE
  5
AD
330
1F
100
AcDbEntity
  8
Layer 1
 62
     7
370
    18
100
AcDbPolyline
 90
       33
 70
     1
 43
0.0
 10
-451.3418
 20
-288.5975
 10
-451.3419
 20
-288.4944
 10
-451.316
 20
-288.3948
 10
-451.2666
 20
-288.301
 10
-451.196
 20
-288.2155
 10
-451.1066
 20
-288.1406
 10
-451.0008
 20
-288.0788
 10
-450.8811
 20
-288.0324
 10
-450.7497
 20
-288.0039
 10
-450.6155
 20
-287.9958
 10
-450.4877
 20
-288.0081
 10
-450.3695
 20
-288.0391
 10
-450.2637
 20
-288.087
 10
-450.1731
 20
-288.1504
 10
-450.1008
 20
-288.2274
 10
-450.0497
 20
-288.3165
 10
-450.0227
 20
-288.416
 10
-450.0227
 20
-288.5191
 10
-450.0486
 20
-288.6187
 10
-450.098
 20
-288.7125
 10
-450.1687
 20
-288.798
 10
-450.2581
 20
-288.8729
 10
-450.3639
 20
-288.9347
 10
-450.4838
 20
-288.9811
 10
-450.6153
 20
-289.0096
 10
-450.7494
 20
-289.0177
 10
-450.877
 20
-289.0055
 10
-450.9952
 20
-288.9745
 10
-451.101
 20
-288.9266
 10
-451.1914
 20
-288.8632
 10
-451.2637
 20
-288.7861
 10
-451.3148
 20
-288.697
 10
-451.3418
 20
-288.5975
  0
LWPOLYLINE
  5
AE
330
1F
100
AcDbEntity
  8
Layer 1
 62
     7
370
    18
100
AcDbPolyline
 90
       33
 70
     1
 43
0.0
 10
-454.2297
 20
-288.5776
 10
-454.2297
 20
-288.4745
 10
-454.2038
 20
-288.3749
 10
-454.1544
 20
-288.2811
 10
-454.0838
 20
-288.1956
 10
-453.9944
 20
-288.1207
 10
-453.8887
 20
-288.0589
 10
-453.7689
 20
-288.0125
 10
-453.6376
 20
-287.984
 10
-453.5033
 20
-287.9759
 10
-453.3756
 20
-287.9883
 10
-453.2574
 20
-288.0193
 10
-453.1515
 20
-288.0673
 10
-453.061
 20
-288.1307
 10
-452.9887
 20
-288.2077
 10
-452.9376
 20
-288.2968
 10
-452.9106
 20
-288.3962
 10
-452.9106
 20
-288.4994
 10
-452.9365
 20
-288.5991
 10
-452.9859
 20
-288.6929
 10
-453.0565
 20
-288.7784
 10
-453.1459
 20
-288.8532
 10
-453.2518
 20
-288.915
 10
-453.3717
 20
-288.9613
 10
-453.5032
 20
-288.9898
 10
-453.6373
 20
-288.9979
 10
-453.7649
 20
-288.9856
 10
-453.8831
 20
-288.9546
 10
-453.9889
 20
-288.9067
 10
-454.0793
 20
-288.8433
 10
-454.1516
 20
-288.7662
 10
-454.2027
 20
-288.6771
 10
-454.2297
 20
-288.5776
  0
LWPOLYLINE
  5
AF
330
1F
100
AcDbEntity
  8
Layer 1
 62
     7
370
    18
100
AcDbPolyline
 90
       33
 70
     1
 43
0.0
 10
-456.4894
 20
-287.6747
 10
-456.4895
 20
-287.5716
 10
-456.4636
 20
-287.472
 10
-456.4141
 20
-287.3782
 10
-456.3435
 20
-287.2927
 10
-456.2541
 20
-287.2178
 10
-456.1483
 20
-287.156
 10
-456.0284
 20
-287.1096
 10
-455.8969
 20
-287.0811
 10
-455.7628
 20
-287.073
 10
-455.6352
 20
-287.0854
 10
-455.517
 20
-287.1164
 10
-455.4112
 20
-287.1644
 10
-455.3207
 20
-287.2277
 10
-455.2485
 20
-287.3048
 10
-455.1974
 20
-287.3938
 10
-455.1704
 20
-287.4932
 10
-455.1702
 20
-287.5964
 10
-455.196
 20
-287.6961
 10
-455.2453
 20
-287.7899
 10
-455.3159
 20
-287.8754
 10
-455.4053
 20
-287.9502
 10
-455.5111
 20
-288.012
 10
-455.631
 20
-288.0583
 10
-455.7625
 20
-288.0868
 10
-455.8967
 20
-288.0949
 10
-456.0245
 20
-288.0827
 10
-456.1427
 20
-288.0517
 10
-456.2485
 20
-288.0038
 10
-456.3391
 20
-287.9404
 10
-456.4113
 20
-287.8633
 10
-456.4624
 20
-287.7742
 10
-456.4894
 20
-287.6747
  0
LWPOLYLINE
  5
B0
330
1F
100
AcDbEntity
  8
Layer 1
 62
     7
370
    18
100
AcDbPolyline
 90
       33
 70
     1
 43
0.0
 10
-461.778
 20
-286.999
 10
-461.7782
 20
-286.8958
 10
-461.7524
 20
-286.7961
 10
-461.703
 20
-286.7023
 10
-461.6324
 20
-286.6168
 10
-461.543
 20
-286.542
 10
-461.4372
 20
-286.4802
 10
-461.3173
 20
-286.4339
 10
-461.1858
 20
-286.4054
 10
-461.0516
 20
-286.3973
 10
-460.9239
 20
-286.4096
 10
-460.8056
 20
-286.4406
 10
-460.6998
 20
-286.4885
 10
-460.6093
 20
-286.5519
 10
-460.5371
 20
-286.629
 10
-460.4861
 20
-286.7181
 10
-460.4593
 20
-286.8176
 10
-460.4591
 20
-286.9207
 10
-460.4849
 20
-287.0203
 10
-460.5342
 20
-287.114
 10
-460.6048
 20
-287.1996
 10
-460.6942
 20
-287.2744
 10
-460.8
 20
-287.3363
 10
-460.9199
 20
-287.3827
 10
-461.0514
 20
-287.4112
 10
-461.1857
 20
-287.4193
 10
-461.3134
 20
-287.4069
 10
-461.4316
 20
-287.3759
 10
-461.5374
 20
-287.3279
 10
-461.6279
 20
-287.2645
 10
-461.7001
 20
-287.1875
 10
-461.7511
 20
-287.0984
 10
-461.778
 20
-286.999
  0
LWPOLYLINE
  5
B1
330
1F
100
AcDbEntity
  8
Layer 1
 62
     7
370
    18
100
AcDbPolyline
 90
       33
 70
     1
 43
0.0
 10
-461.7125
 20
-284.8847
 10
-461.7125
 20
-284.7815
 10
-461.6866
 20
-284.6818
 10
-461.6372
 20
-284.588
 10
-461.5666
 20
-284.5025
 10
-461.4772
 20
-284.4277
 10
-461.3715
 20
-284.3659
 10
-461.2517
 20
-284.3196
 10
-461.1204
 20
-284.2911
 10
-460.9861
 20
-284.283
 10
-460.8584
 20
-284.2953
 10
-460.7402
 20
-284.3262
 10
-460.6343
 20
-284.3742
 10
-460.5438
 20
-284.4375
 10
-460.4715
 20
-284.5146
 10
-460.4204
 20
-284.6037
 10
-460.3934
 20
-284.7032
 10
-460.3934
 20
-284.8063
 10
-460.4193
 20
-284.9059
 10
-460.4687
 20
-284.9997
 10
-460.5393
 20
-285.0852
 10
-460.6287
 20
-285.1601
 10
-460.7346
 20
-285.2219
 10
-460.8545
 20
-285.2683
 10
-460.986
 20
-285.2968
 10
-461.1201
 20
-285.3049
 10
-461.2477
 20
-285.2925
 10
-461.3659
 20
-285.2615
 10
-461.4717
 20
-285.2135
 10
-461.5621
 20
-285.1502
 10
-461.6344
 20
-285.0731
 10
-461.6855
 20
-284.9841
 10
-461.7125
 20
-284.8847
  0
LWPOLYLINE
  5
B2
330
1F
100
AcDbEntity
  8
Layer 1
 62
     7
370
    18
100
AcDbPolyline
 90
       33
 70
     1
 43
0.0
 10
-460.6015
 20
-282.5889
 10
-460.6017
 20
-282.4857
 10
-460.5759
 20
-282.386
 10
-460.5265
 20
-282.2922
 10
-460.456
 20
-282.2067
 10
-460.3666
 20
-282.1319
 10
-460.2607
 20
-282.0701
 10
-460.1408
 20
-282.0238
 10
-460.0093
 20
-281.9953
 10
-459.8751
 20
-281.9872
 10
-459.7474
 20
-281.9995
 10
-459.6291
 20
-282.0304
 10
-459.5233
 20
-282.0784
 10
-459.4328
 20
-282.1417
 10
-459.3605
 20
-282.2186
 10
-459.3094
 20
-282.3076
 10
-459.2824
 20
-282.407
 10
-459.2823
 20
-282.5102
 10
-459.3082
 20
-282.6099
 10
-459.3577
 20
-282.7037
 10
-459.4283
 20
-282.7892
 10
-459.5177
 20
-282.864
 10
-459.6236
 20
-282.9258
 10
-459.7435
 20
-282.9721
 10
-459.875
 20
-283.0006
 10
-460.0091
 20
-283.0087
 10
-460.1367
 20
-282.9964
 10
-460.2548
 20
-282.9655
 10
-460.3606
 20
-282.9176
 10
-460.4511
 20
-282.8543
 10
-460.5234
 20
-282.7773
 10
-460.5745
 20
-282.6883
 10
-460.6015
 20
-282.5889
  0
LWPOLYLINE
  5
B3
330
1F
100
AcDbEntity
  8
Layer 1
 62
     7
370
    18
100
AcDbPolyline
 90
       33
 70
     1
 43
0.0
 10
-458.8415
 20
-280.1277
 10
-458.8416
 20
-280.0246
 10
-458.8157
 20
-279.925
 10
-458.7662
 20
-279.8312
 10
-458.6956
 20
-279.7457
 10
-458.6062
 20
-279.6708
 10
-458.5004
 20
-279.609
 10
-458.3805
 20
-279.5626
 10
-458.249
 20
-279.5341
 10
-458.1149
 20
-279.526
 10
-457.9873
 20
-279.5383
 10
-457.8691
 20
-279.5693
 10
-457.7633
 20
-279.6173
 10
-457.6728
 20
-279.6807
 10
-457.6005
 20
-279.7577
 10
-457.5494
 20
-279.8468
 10
-457.5224
 20
-279.9462
 10
-457.5224
 20
-280.0494
 10
-457.5483
 20
-280.1491
 10
-457.5977
 20
-280.2429
 10
-457.6683
 20
-280.3284
 10
-457.7577
 20
-280.4032
 10
-457.8635
 20
-280.465
 10
-457.9832
 20
-280.5113
 10
-458.1146
 20
-280.5398
 10
-458.2488
 20
-280.5479
 10
-458.3766
 20
-280.5356
 10
-458.4948
 20
-280.5046
 10
-458.6006
 20
-280.4567
 10
-458.6912
 20
-280.3933
 10
-458.7634
 20
-280.3163
 10
-458.8145
 20
-280.2272
 10
-458.8415
 20
-280.1277
  0
LWPOLYLINE
  5
B4
330
1F
100
AcDbEntity
  8
Layer 1
 62
     7
370
    18
100
AcDbPolyline
 90
       33
 70
     1
 43
0.0
 10
-456.3624
 20
-277.8332
 10
-456.3625
 20
-277.73
 10
-456.3366
 20
-277.6303
 10
-456.2871
 20
-277.5365
 10
-456.2165
 20
-277.451
 10
-456.1271
 20
-277.3762
 10
-456.0213
 20
-277.3144
 10
-455.9014
 20
-277.2681
 10
-455.7699
 20
-277.2396
 10
-455.6358
 20
-277.2315
 10
-455.5082
 20
-277.2438
 10
-455.39
 20
-277.2747
 10
-455.2842
 20
-277.3227
 10
-455.1937
 20
-277.386
 10
-455.1214
 20
-277.4631
 10
-455.0703
 20
-277.5522
 10
-455.0433
 20
-277.6517
 10
-455.0433
 20
-277.7548
 10
-455.0692
 20
-277.8544
 10
-455.1186
 20
-277.9482
 10
-455.1892
 20
-278.0337
 10
-455.2786
 20
-278.1086
 10
-455.3844
 20
-278.1704
 10
-455.5041
 20
-278.2168
 10
-455.6355
 20
-278.2453
 10
-455.7697
 20
-278.2534
 10
-455.8975
 20
-278.241
 10
-456.0157
 20
-278.21
 10
-456.1215
 20
-278.162
 10
-456.2121
 20
-278.0987
 10
-456.2843
 20
-278.0216
 10
-456.3354
 20
-277.9326
 10
-456.3624
 20
-277.8332
  0
LWPOLYLINE
  5
B5
330
1F
100
AcDbEntity
  8
Layer 1
 62
     7
370
    18
100
AcDbPolyline
 90
       33
 70
     1
 43
0.0
 10
-453.2054
 20
-275.9573
 10
-453.2054
 20
-275.8542
 10
-453.1795
 20
-275.7546
 10
-453.1301
 20
-275.6608
 10
-453.0595
 20
-275.5753
 10
-452.9701
 20
-275.5004
 10
-452.8643
 20
-275.4386
 10
-452.7446
 20
-275.3922
 10
-452.6132
 20
-275.3637
 10
-452.479
 20
-275.3556
 10
-452.3513
 20
-275.368
 10
-452.233
 20
-275.399
 10
-452.1272
 20
-275.447
 10
-452.0367
 20
-275.5104
 10
-451.9644
 20
-275.5874
 10
-451.9133
 20
-275.6765
 10
-451.8863
 20
-275.7759
 10
-451.8862
 20
-275.8791
 10
-451.9121
 20
-275.9788
 10
-451.9616
 20
-276.0726
 10
-452.0322
 20
-276.1581
 10
-452.1216
 20
-276.2329
 10
-452.2275
 20
-276.2947
 10
-452.3474
 20
-276.341
 10
-452.4789
 20
-276.3695
 10
-452.613
 20
-276.3776
 10
-452.7406
 20
-276.3653
 10
-452.8587
 20
-276.3343
 10
-452.9645
 20
-276.2864
 10
-453.055
 20
-276.223
 10
-453.1273
 20
-276.1459
 10
-453.1784
 20
-276.0568
 10
-453.2054
 20
-275.9573
  0
LWPOLYLINE
  5
B6
330
1F
100
AcDbEntity
  8
Layer 1
 62
     7
370
    18
100
AcDbPolyline
 90
       33
 70
     1
 43
0.0
 10
-449.9724
 20
-274.2798
 10
-449.9726
 20
-274.1766
 10
-449.9468
 20
-274.0769
 10
-449.8975
 20
-273.9831
 10
-449.8269
 20
-273.8976
 10
-449.7375
 20
-273.8228
 10
-449.6317
 20
-273.761
 10
-449.5118
 20
-273.7147
 10
-449.3803
 20
-273.6862
 10
-449.2461
 20
-273.6781
 10
-449.1184
 20
-273.6904
 10
-449.0001
 20
-273.7213
 10
-448.8943
 20
-273.7693
 10
-448.8038
 20
-273.8326
 10
-448.7316
 20
-273.9097
 10
-448.6806
 20
-273.9988
 10
-448.6538
 20
-274.0983
 10
-448.6536
 20
-274.2014
 10
-448.6794
 20
-274.301
 10
-448.7287
 20
-274.3948
 10
-448.7993
 20
-274.4803
 10
-448.8887
 20
-274.5552
 10
-448.9945
 20
-274.617
 10
-449.1144
 20
-274.6634
 10
-449.2459
 20
-274.6919
 10
-449.3802
 20
-274.7
 10
-449.5079
 20
-274.6876
 10
-449.6261
 20
-274.6566
 10
-449.7319
 20
-274.6086
 10
-449.8224
 20
-274.5453
 10
-449.8946
 20
-274.4682
 10
-449.9456
 20
-274.3792
 10
-449.9724
 20
-274.2798
  0
LWPOLYLINE
  5
B7
330
1F
100
AcDbEntity
  8
Layer 1
 62
     7
370
    18
100
AcDbPolyline
 90
       33
 70
     1
 43
0.0
 10
-446.5076
 20
-273.4045
 10
-446.5078
 20
-273.3014
 10
-446.482
 20
-273.2018
 10
-446.4327
 20
-273.108
 10
-446.3621
 20
-273.0225
 10
-446.2727
 20
-272.9476
 10
-446.1669
 20
-272.8858
 10
-446.047
 20
-272.8394
 10
-445.9155
 20
-272.8109
 10
-445.7812
 20
-272.8028
 10
-445.6535
 20
-272.8152
 10
-445.5353
 20
-272.8462
 10
-445.4295
 20
-272.8942
 10
-445.339
 20
-272.9575
 10
-445.2668
 20
-273.0346
 10
-445.2158
 20
-273.1236
 10
-445.189
 20
-273.223
 10
-445.1888
 20
-273.3262
 10
-445.2146
 20
-273.4259
 10
-445.2639
 20
-273.5197
 10
-445.3345
 20
-273.6052
 10
-445.4239
 20
-273.68
 10
-445.5297
 20
-273.7418
 10
-445.6496
 20
-273.7881
 10
-445.7811
 20
-273.8166
 10
-445.9153
 20
-273.8247
 10
-446.043
 20
-273.8125
 10
-446.1613
 20
-273.7815
 10
-446.2671
 20
-273.7336
 10
-446.3576
 20
-273.6702
 10
-446.4298
 20
-273.5931
 10
-446.4808
 20
-273.504
 10
-446.5076
 20
-273.4045
  0
LWPOLYLINE
  5
B8
330
1F
100
AcDbEntity
  8
Layer 1
 62
     7
370
    18
100
AcDbPolyline
 90
       33
 70
     1
 43
0.0
 10
-443.2253
 20
-273.0291
 10
-443.2253
 20
-272.9259
 10
-443.1994
 20
-272.8262
 10
-443.15
 20
-272.7324
 10
-443.0793
 20
-272.6469
 10
-442.9899
 20
-272.5721
 10
-442.8841
 20
-272.5103
 10
-442.7642
 20
-272.464
 10
-442.6327
 20
-272.4355
 10
-442.4986
 20
-272.4274
 10
-442.371
 20
-272.4396
 10
-442.2528
 20
-272.4706
 10
-442.1471
 20
-272.5186
 10
-442.0566
 20
-272.5819
 10
-441.9843
 20
-272.659
 10
-441.9332
 20
-272.7481
 10
-441.9062
 20
-272.8476
 10
-441.9061
 20
-272.9507
 10
-441.932
 20
-273.0503
 10
-441.9814
 20
-273.1441
 10
-442.052
 20
-273.2296
 10
-442.1414
 20
-273.3044
 10
-442.2472
 20
-273.3662
 10
-442.3669
 20
-273.4124
 10
-442.4983
 20
-273.4408
 10
-442.6325
 20
-273.4489
 10
-442.7603
 20
-273.4366
 10
-442.8785
 20
-273.4057
 10
-442.9844
 20
-273.3577
 10
-443.0749
 20
-273.2944
 10
-443.1472
 20
-273.2175
 10
-443.1983
 20
-273.1285
 10
-443.2253
 20
-273.0291
  0
LWPOLYLINE
  5
B9
330
1F
100
AcDbEntity
  8
Layer 1
 62
     7
370
    18
100
AcDbPolyline
 90
       33
 70
     1
 43
0.0
 10
-440.4514
 20
-273.3112
 10
-440.4516
 20
-273.208
 10
-440.4258
 20
-273.1083
 10
-440.3765
 20
-273.0145
 10
-440.3059
 20
-272.929
 10
-440.2165
 20
-272.8542
 10
-440.1107
 20
-272.7924
 10
-439.9908
 20
-272.7461
 10
-439.8593
 20
-272.7176
 10
-439.725
 20
-272.7095
 10
-439.5973
 20
-272.7218
 10
-439.4791
 20
-272.7527
 10
-439.3733
 20
-272.8006
 10
-439.2828
 20
-272.8639
 10
-439.2106
 20
-272.9409
 10
-439.1596
 20
-273.0299
 10
-439.1327
 20
-273.1293
 10
-439.1325
 20
-273.2325
 10
-439.1583
 20
-273.3322
 10
-439.2077
 20
-273.426
 10
-439.2783
 20
-273.5115
 10
-439.3677
 20
-273.5863
 10
-439.4735
 20
-273.6481
 10
-439.5934
 20
-273.6944
 10
-439.7249
 20
-273.7229
 10
-439.8591
 20
-273.731
 10
-439.9868
 20
-273.7187
 10
-440.1051
 20
-273.6878
 10
-440.2109
 20
-273.6398
 10
-440.3014
 20
-273.5765
 10
-440.3736
 20
-273.4996
 10
-440.4246
 20
-273.4106
 10
-440.4514
 20
-273.3112
  0
LWPOLYLINE
  5
BA
330
1F
100
AcDbEntity
  8
Layer 1
 62
     7
370
    18
100
AcDbPolyline
 90
       33
 70
     1
 43
0.0
 10
-438.3486
 20
-274.1597
 10
-438.3486
 20
-274.0565
 10
-438.3227
 20
-273.9568
 10
-438.2733
 20
-273.863
 10
-438.2026
 20
-273.7775
 10
-438.1132
 20
-273.7027
 10
-438.0074
 20
-273.6409
 10
-437.8875
 20
-273.5946
 10
-437.756
 20
-273.5661
 10
-437.6219
 20
-273.558
 10
-437.4943
 20
-273.5703
 10
-437.3761
 20
-273.6012
 10
-437.2704
 20
-273.6492
 10
-437.1799
 20
-273.7125
 10
-437.1076
 20
-273.7896
 10
-437.0565
 20
-273.8787
 10
-437.0295
 20
-273.9782
 10
-437.0294
 20
-274.0813
 10
-437.0553
 20
-274.1809
 10
-437.1047
 20
-274.2747
 10
-437.1753
 20
-274.3602
 10
-437.2647
 20
-274.4351
 10
-437.3705
 20
-274.4969
 10
-437.4902
 20
-274.5433
 10
-437.6216
 20
-274.5718
 10
-437.7558
 20
-274.5799
 10
-437.8836
 20
-274.5675
 10
-438.0018
 20
-274.5365
 10
-438.1077
 20
-274.4885
 10
-438.1982
 20
-274.4252
 10
-438.2705
 20
-274.3481
 10
-438.3216
 20
-274.2591
 10
-438.3486
 20
-274.1597
  0
LWPOLYLINE
  5
BB
330
1F
100
AcDbEntity
  8
Layer 1
 62
     7
370
    18
100
AcDbPolyline
 90
       33
 70
     1
 43
0.0
 10
-436.9181
 20
-275.556
 10
-436.9183
 20
-275.4528
 10
-436.8925
 20
-275.3531
 10
-436.8431
 20
-275.2593
 10
-436.7726
 20
-275.1738
 10
-436.6832
 20
-275.099
 10
-436.5773
 20
-275.0372
 10
-436.4574
 20
-274.9909
 10
-436.3259
 20
-274.9624
 10
-436.1917
 20
-274.9543
 10
-436.064
 20
-274.9666
 10
-435.9458
 20
-274.9975
 10
-435.84
 20
-275.0455
 10
-435.7495
 20
-275.1088
 10
-435.6773
 20
-275.1859
 10
-435.6263
 20
-275.275
 10
-435.5994
 20
-275.3745
 10
-435.5992
 20
-275.4776
 10
-435.625
 20
-275.5772
 10
-435.6744
 20
-275.671
 10
-435.7449
 20
-275.7565
 10
-435.8343
 20
-275.8314
 10
-435.9402
 20
-275.8932
 10
-436.0601
 20
-275.9396
 10
-436.1916
 20
-275.9681
 10
-436.3258
 20
-275.9762
 10
-436.4535
 20
-275.9638
 10
-436.5717
 20
-275.9328
 10
-436.6776
 20
-275.8848
 10
-436.768
 20
-275.8215
 10
-436.8402
 20
-275.7444
 10
-436.8912
 20
-275.6554
 10
-436.9181
 20
-275.556
  0
LWPOLYLINE
  5
BC
330
1F
100
AcDbEntity
  8
Layer 1
 62
     7
370
    18
100
AcDbPolyline
 90
       33
 70
     1
 43
0.0
 10
-436.3004
 20
-277.3865
 10
-436.3006
 20
-277.2833
 10
-436.2748
 20
-277.1836
 10
-436.2254
 20
-277.0898
 10
-436.1548
 20
-277.0043
 10
-436.0654
 20
-276.9295
 10
-435.9596
 20
-276.8677
 10
-435.8397
 20
-276.8214
 10
-435.7082
 20
-276.7929
 10
-435.574
 20
-276.7848
 10
-435.4463
 20
-276.797
 10
-435.328
 20
-276.828
 10
-435.2222
 20
-276.876
 10
-435.1317
 20
-276.9393
 10
-435.0595
 20
-277.0164
 10
-435.0085
 20
-277.1055
 10
-434.9817
 20
-277.205
 10
-434.9815
 20
-277.3081
 10
-435.0073
 20
-277.4077
 10
-435.0566
 20
-277.5015
 10
-435.1272
 20
-277.587
 10
-435.2166
 20
-277.6619
 10
-435.3224
 20
-277.7237
 10
-435.4423
 20
-277.7701
 10
-435.5738
 20
-277.7986
 10
-435.7081
 20
-277.8067
 10
-435.8358
 20
-277.7943
 10
-435.954
 20
-277.7633
 10
-436.0598
 20
-277.7153
 10
-436.1503
 20
-277.652
 10
-436.2225
 20
-277.5749
 10
-436.2735
 20
-277.4859
 10
-436.3004
 20
-277.3865
  0
LWPOLYLINE
  5
BD
330
1F
100
AcDbEntity
  8
Layer 1
 62
     7
370
    18
100
AcDbPolyline
 90
       33
 70
     1
 43
0.0
 10
-436.5886
 20
-279.3228
 10
-436.5888
 20
-279.2196
 10
-436.563
 20
-279.1199
 10
-436.5137
 20
-279.0261
 10
-436.4431
 20
-278.9406
 10
-436.3537
 20
-278.8658
 10
-436.2479
 20
-278.804
 10
-436.128
 20
-278.7577
 10
-435.9965
 20
-278.7292
 10
-435.8623
 20
-278.7211
 10
-435.7346
 20
-278.7334
 10
-435.6164
 20
-278.7643
 10
-435.5107
 20
-278.8123
 10
-435.4202
 20
-278.8756
 10
-435.348
 20
-278.9525
 10
-435.297
 20
-279.0415
 10
-435.27
 20
-279.1409
 10
-435.2698
 20
-279.2441
 10
-435.2956
 20
-279.3438
 10
-435.3449
 20
-279.4376
 10
-435.4155
 20
-279.5231
 10
-435.5049
 20
-279.5979
 10
-435.6107
 20
-279.6597
 10
-435.7306
 20
-279.706
 10
-435.8621
 20
-279.7345
 10
-435.9963
 20
-279.7426
 10
-436.124
 20
-279.7303
 10
-436.2423
 20
-279.6994
 10
-436.3481
 20
-279.6515
 10
-436.4386
 20
-279.5882
 10
-436.5108
 20
-279.5112
 10
-436.5618
 20
-279.4222
 10
-436.5886
 20
-279.3228
  0
LWPOLYLINE
  5
BE
330
1F
100
AcDbEntity
  8
Layer 1
 62
     7
370
    18
100
AcDbPolyline
 90
       33
 70
     1
 43
0.0
 10
-437.5557
 20
-281.5797
 10
-437.5558
 20
-281.4766
 10
-437.5299
 20
-281.377
 10
-437.4805
 20
-281.2832
 10
-437.4099
 20
-281.1977
 10
-437.3205
 20
-281.1228
 10
-437.2147
 20
-281.061
 10
-437.095
 20
-281.0146
 10
-436.9636
 20
-280.9861
 10
-436.8294
 20
-280.978
 10
-436.7016
 20
-280.9904
 10
-436.5834
 20
-281.0214
 10
-436.4776
 20
-281.0694
 10
-436.387
 20
-281.1327
 10
-436.3147
 20
-281.2098
 10
-436.2636
 20
-281.2988
 10
-436.2366
 20
-281.3982
 10
-436.2366
 20
-281.5014
 10
-436.2625
 20
-281.6011
 10
-436.3119
 20
-281.6949
 10
-436.3826
 20
-281.7804
 10
-436.472
 20
-281.8552
 10
-436.5778
 20
-281.917
 10
-436.6977
 20
-281.9633
 10
-436.8292
 20
-281.9918
 10
-436.9633
 20
-281.9999
 10
-437.0909
 20
-281.9877
 10
-437.2091
 20
-281.9567
 10
-437.3149
 20
-281.9088
 10
-437.4054
 20
-281.8454
 10
-437.4776
 20
-281.7683
 10
-437.5287
 20
-281.6792
 10
-437.5557
 20
-281.5797
  0
LWPOLYLINE
  5
BF
330
1F
100
AcDbEntity
  8
Layer 1
 62
     7
370
    18
100
AcDbPolyline
 90
       33
 70
     1
 43
0.0
 10
-439.3755
 20
-283.7834
 10
-439.3755
 20
-283.6803
 10
-439.3496
 20
-283.5807
 10
-439.3002
 20
-283.487
 10
-439.2296
 20
-283.4014
 10
-439.1402
 20
-283.3266
 10
-439.0343
 20
-283.2647
 10
-438.9144
 20
-283.2183
 10
-438.7829
 20
-283.1898
 10
-438.6488
 20
-283.1817
 10
-438.5212
 20
-283.1941
 10
-438.403
 20
-283.2251
 10
-438.2973
 20
-283.2731
 10
-438.2068
 20
-283.3365
 10
-438.1345
 20
-283.4135
 10
-438.0834
 20
-283.5026
 10
-438.0564
 20
-283.602
 10
-438.0562
 20
-283.7052
 10
-438.082
 20
-283.8049
 10
-438.1313
 20
-283.8987
 10
-438.2019
 20
-283.9842
 10
-438.2913
 20
-284.059
 10
-438.3971
 20
-284.1208
 10
-438.517
 20
-284.1671
 10
-438.6485
 20
-284.1956
 10
-438.7828
 20
-284.2037
 10
-438.9105
 20
-284.1914
 10
-439.0287
 20
-284.1604
 10
-439.1346
 20
-284.1125
 10
-439.2251
 20
-284.0491
 10
-439.2974
 20
-283.972
 10
-439.3485
 20
-283.8829
 10
-439.3755
 20
-283.7834
  0
LWPOLYLINE
  5
C0
330
1F
100
AcDbEntity
  8
Layer 1
 62
     7
370
    18
100
AcDbPolyline
 90
       33
 70
     1
 43
0.0
 10
-441.7302
 20
-285.8904
 10
-441.7304
 20
-285.7873
 10
-441.7046
 20
-285.6877
 10
-441.6552
 20
-285.5939
 10
-441.5847
 20
-285.5084
 10
-441.4953
 20
-285.4335
 10
-441.3894
 20
-285.3717
 10
-441.2695
 20
-285.3253
 10
-441.138
 20
-285.2968
 10
-441.0038
 20
-285.2887
 10
-440.8761
 20
-285.3011
 10
-440.7579
 20
-285.3321
 10
-440.6521
 20
-285.3801
 10
-440.5616
 20
-285.4435
 10
-440.4894
 20
-285.5205
 10
-440.4384
 20
-285.6096
 10
-440.4115
 20
-285.709
 10
-440.4113
 20
-285.8122
 10
-440.4371
 20
-285.9119
 10
-440.4865
 20
-286.0057
 10
-440.557
 20
-286.0912
 10
-440.6464
 20
-286.166
 10
-440.7523
 20
-286.2278
 10
-440.8722
 20
-286.2741
 10
-441.0037
 20
-286.3026
 10
-441.1379
 20
-286.3107
 10
-441.2656
 20
-286.2984
 10
-441.3837
 20
-286.2674
 10
-441.4895
 20
-286.2195
 10
-441.5799
 20
-286.1561
 10
-441.6522
 20
-286.079
 10
-441.7032
 20
-285.9899
 10
-441.7302
 20
-285.8904
  0
LWPOLYLINE
  5
C1
330
1F
100
AcDbEntity
  8
Layer 1
 62
     7
370
    18
100
AcDbPolyline
 90
       33
 70
     1
 43
0.0
 10
-444.648
 20
-287.6954
 10
-444.648
 20
-287.5922
 10
-444.6221
 20
-287.4925
 10
-444.5727
 20
-287.3987
 10
-444.502
 20
-287.3132
 10
-444.4126
 20
-287.2384
 10
-444.3068
 20
-287.1766
 10
-444.1869
 20
-287.1303
 10
-444.0554
 20
-287.1018
 10
-443.9212
 20
-287.0937
 10
-443.7935
 20
-287.106
 10
-443.6754
 20
-287.137
 10
-443.5696
 20
-287.1849
 10
-443.4792
 20
-287.2483
 10
-443.407
 20
-287.3254
 10
-443.3559
 20
-287.4145
 10
-443.3289
 20
-287.514
 10
-443.3287
 20
-287.6171
 10
-443.3545
 20
-287.7167
 10
-443.4038
 20
-287.8105
 10
-443.4744
 20
-287.896
 10
-443.5638
 20
-287.9709
 10
-443.6696
 20
-288.0327
 10
-443.7895
 20
-288.0791
 10
-443.921
 20
-288.1076
 10
-444.0552
 20
-288.1157
 10
-444.183
 20
-288.1033
 10
-444.3012
 20
-288.0723
 10
-444.4071
 20
-288.0243
 10
-444.4976
 20
-287.9609
 10
-444.5699
 20
-287.8839
 10
-444.621
 20
-287.7948
 10
-444.648
 20
-287.6954
  0
LWPOLYLINE
  5
C2
330
1F
100
AcDbEntity
  8
Layer 1
 62
     7
370
    18
100
AcDbPolyline
 90
       33
 70
     1
 43
0.0
 10
-447.7348
 20
-289.163
 10
-447.735
 20
-289.0599
 10
-447.7092
 20
-288.9603
 10
-447.6599
 20
-288.8665
 10
-447.5893
 20
-288.781
 10
-447.4999
 20
-288.7061
 10
-447.3941
 20
-288.6443
 10
-447.2742
 20
-288.5979
 10
-447.1427
 20
-288.5694
 10
-447.0084
 20
-288.5615
 10
-446.8807
 20
-288.5738
 10
-446.7625
 20
-288.6048
 10
-446.6566
 20
-288.6528
 10
-446.5661
 20
-288.7162
 10
-446.4938
 20
-288.7932
 10
-446.4427
 20
-288.8822
 10
-446.4157
 20
-288.9816
 10
-446.4157
 20
-289.0848
 10
-446.4416
 20
-289.1845
 10
-446.491
 20
-289.2783
 10
-446.5617
 20
-289.3638
 10
-446.6511
 20
-289.4386
 10
-446.7569
 20
-289.5003
 10
-446.8768
 20
-289.5467
 10
-447.0083
 20
-289.5752
 10
-447.1424
 20
-289.5833
 10
-447.27
 20
-289.571
 10
-447.3882
 20
-289.54
 10
-447.494
 20
-289.4921
 10
-447.5844
 20
-289.4287
 10
-447.6567
 20
-289.3516
 10
-447.7078
 20
-289.2625
 10
-447.7348
 20
-289.163
  0
LWPOLYLINE
  5
C3
330
1F
100
AcDbEntity
  8
Layer 1
 62
     7
370
    18
100
AcDbPolyline
 90
       33
 70
     1
 43
0.0
 10
-450.933
 20
-290.1722
 10
-450.9331
 20
-290.0691
 10
-450.9072
 20
-289.9695
 10
-450.8578
 20
-289.8757
 10
-450.7872
 20
-289.7902
 10
-450.6978
 20
-289.7153
 10
-450.592
 20
-289.6535
 10
-450.4723
 20
-289.6071
 10
-450.3409
 20
-289.5786
 10
-450.2067
 20
-289.5705
 10
-450.0789
 20
-289.5829
 10
-449.9607
 20
-289.6139
 10
-449.8549
 20
-289.6619
 10
-449.7643
 20
-289.7253
 10
-449.6921
 20
-289.8023
 10
-449.641
 20
-289.8914
 10
-449.614
 20
-289.9908
 10
-449.6139
 20
-290.094
 10
-449.6398
 20
-290.1937
 10
-449.6893
 20
-290.2875
 10
-449.7599
 20
-290.373
 10
-449.8493
 20
-290.4478
 10
-449.9551
 20
-290.5096
 10
-450.075
 20
-290.5559
 10
-450.2065
 20
-290.5844
 10
-450.3406
 20
-290.5925
 10
-450.4682
 20
-290.5802
 10
-450.5864
 20
-290.5492
 10
-450.6922
 20
-290.5013
 10
-450.7827
 20
-290.4379
 10
-450.8549
 20
-290.3608
 10
-450.906
 20
-290.2717
 10
-450.933
 20
-290.1722
  0
LWPOLYLINE
  5
C4
330
1F
100
AcDbEntity
  8
Layer 1
 62
     7
370
    18
100
AcDbPolyline
 90
       33
 70
     1
 43
0.0
 10
-454.0147
 20
-290.7481
 10
-454.0147
 20
-290.6449
 10
-453.9888
 20
-290.5452
 10
-453.9394
 20
-290.4514
 10
-453.8688
 20
-290.3659
 10
-453.7794
 20
-290.2911
 10
-453.6736
 20
-290.2293
 10
-453.5539
 20
-290.183
 10
-453.4225
 20
-290.1545
 10
-453.2883
 20
-290.1464
 10
-453.1606
 20
-290.1587
 10
-453.0423
 20
-290.1897
 10
-452.9365
 20
-290.2376
 10
-452.846
 20
-290.301
 10
-452.7737
 20
-290.3781
 10
-452.7226
 20
-290.4672
 10
-452.6956
 20
-290.5667
 10
-452.6955
 20
-290.6698
 10
-452.7214
 20
-290.7694
 10
-452.7708
 20
-290.8631
 10
-452.8414
 20
-290.9487
 10
-452.9308
 20
-291.0235
 10
-453.0366
 20
-291.0854
 10
-453.1563
 20
-291.1318
 10
-453.2877
 20
-291.1603
 10
-453.422
 20
-291.1684
 10
-453.5497
 20
-291.156
 10
-453.6679
 20
-291.125
 10
-453.7738
 20
-291.077
 10
-453.8643
 20
-291.0136
 10
-453.9366
 20
-290.9366
 10
-453.9877
 20
-290.8475
 10
-454.0147
 20
-290.7481
  0
LWPOLYLINE
  5
C5
330
1F
100
AcDbEntity
  8
Layer 1
 62
     7
370
    18
100
AcDbPolyline
 90
       33
 70
     1
 43
0.0
 10
-456.8956
 20
-290.5943
 10
-456.8957
 20
-290.4912
 10
-456.8698
 20
-290.3916
 10
-456.8203
 20
-290.2978
 10
-456.7497
 20
-290.2123
 10
-456.6603
 20
-290.1374
 10
-456.5544
 20
-290.0756
 10
-456.4345
 20
-290.0292
 10
-456.303
 20
-290.0007
 10
-456.1689
 20
-289.9926
 10
-456.0413
 20
-290.005
 10
-455.9232
 20
-290.036
 10
-455.8174
 20
-290.084
 10
-455.7269
 20
-290.1474
 10
-455.6546
 20
-290.2244
 10
-455.6035
 20
-290.3135
 10
-455.5765
 20
-290.4129
 10
-455.5765
 20
-290.5161
 10
-455.6024
 20
-290.6158
 10
-455.6518
 20
-290.7096
 10
-455.7224
 20
-290.7951
 10
-455.8118
 20
-290.8699
 10
-455.9176
 20
-290.9316
 10
-456.0373
 20
-290.978
 10
-456.1687
 20
-291.0065
 10
-456.3029
 20
-291.0146
 10
-456.4306
 20
-291.0023
 10
-456.5489
 20
-290.9713
 10
-456.6547
 20
-290.9234
 10
-456.7452
 20
-290.86
 10
-456.8175
 20
-290.7829
 10
-456.8686
 20
-290.6938
 10
-456.8956
 20
-290.5943
  0
LWPOLYLINE
  5
C6
330
1F
100
AcDbEntity
  8
Layer 1
 62
     7
370
    18
100
AcDbPolyline
 90
       33
 70
     1
 43
0.0
 10
-459.2633
 20
-289.9057
 10
-459.2635
 20
-289.8026
 10
-459.2377
 20
-289.703
 10
-459.1884
 20
-289.6092
 10
-459.1178
 20
-289.5237
 10
-459.0284
 20
-289.4488
 10
-458.9226
 20
-289.387
 10
-458.8027
 20
-289.3406
 10
-458.6712
 20
-289.3121
 10
-458.5369
 20
-289.304
 10
-458.4092
 20
-289.3163
 10
-458.291
 20
-289.3473
 10
-458.1852
 20
-289.3953
 10
-458.0947
 20
-289.4587
 10
-458.0225
 20
-289.5358
 10
-457.9715
 20
-289.6248
 10
-457.9447
 20
-289.7242
 10
-457.9445
 20
-289.8274
 10
-457.9703
 20
-289.9271
 10
-458.0196
 20
-290.0209
 10
-458.0902
 20
-290.1064
 10
-458.1796
 20
-290.1812
 10
-458.2854
 20
-290.243
 10
-458.4053
 20
-290.2893
 10
-458.5368
 20
-290.3178
 10
-458.671
 20
-290.3259
 10
-458.7987
 20
-290.3136
 10
-458.917
 20
-290.2827
 10
-459.0228
 20
-290.2347
 10
-459.1133
 20
-290.1714
 10
-459.1855
 20
-290.0943
 10
-459.2365
 20
-290.0052
 10
-459.2633
 20
-289.9057
  0
LWPOLYLINE
  5
C7
330
1F
100
AcDbEntity
  8
Layer 1
 62
     7
370
    18
100
AcDbPolyline
 90
       33
 70
     1
 43
0.0
 10
-454.6294
 20
-283.9584
 10
-454.6296
 20
-283.8553
 10
-454.6038
 20
-283.7557
 10
-454.5544
 20
-283.662
 10
-454.4838
 20
-283.5765
 10
-454.3944
 20
-283.5016
 10
-454.2886
 20
-283.4399
 10
-454.1687
 20
-283.3936
 10
-454.0372
 20
-283.3652
 10
-453.903
 20
-283.3571
 10
-453.7753
 20
-283.3694
 10
-453.6572
 20
-283.4003
 10
-453.5514
 20
-283.4483
 10
-453.461
 20
-283.5116
 10
-453.3888
 20
-283.5886
 10
-453.3377
 20
-283.6776
 10
-453.3107
 20
-283.777
 10
-453.3105
 20
-283.8802
 10
-453.3363
 20
-283.9799
 10
-453.3856
 20
-284.0737
 10
-453.4562
 20
-284.1592
 10
-453.5456
 20
-284.234
 10
-453.6514
 20
-284.2958
 10
-453.7713
 20
-284.3421
 10
-453.9028
 20
-284.3706
 10
-454.0371
 20
-284.3787
 10
-454.1648
 20
-284.3664
 10
-454.283
 20
-284.3354
 10
-454.3888
 20
-284.2875
 10
-454.4793
 20
-284.2241
 10
-454.5515
 20
-284.147
 10
-454.6025
 20
-284.0579
 10
-454.6294
 20
-283.9584
  0
LWPOLYLINE
  5
C8
330
1F
100
AcDbEntity
  8
Layer 1
 62
     7
370
    18
100
AcDbPolyline
 90
       33
 70
     1
 43
0.0
 10
-453.6709
 20
-281.8259
 10
-453.671
 20
-281.7228
 10
-453.6451
 20
-281.6232
 10
-453.5957
 20
-281.5295
 10
-453.5251
 20
-281.4439
 10
-453.4357
 20
-281.3691
 10
-453.3299
 20
-281.3072
 10
-453.2102
 20
-281.2608
 10
-453.0788
 20
-281.2323
 10
-452.9446
 20
-281.2242
 10
-452.8168
 20
-281.2366
 10
-452.6986
 20
-281.2676
 10
-452.5928
 20
-281.3156
 10
-452.5022
 20
-281.379
 10
-452.4299
 20
-281.456
 10
-452.3788
 20
-281.5451
 10
-452.3518
 20
-281.6445
 10
-452.3518
 20
-281.7477
 10
-452.3777
 20
-281.8474
 10
-452.4271
 20
-281.9412
 10
-452.4978
 20
-282.0267
 10
-452.5872
 20
-282.1015
 10
-452.693
 20
-282.1633
 10
-452.8129
 20
-282.2096
 10
-452.9444
 20
-282.2381
 10
-453.0785
 20
-282.2462
 10
-453.2061
 20
-282.2339
 10
-453.3243
 20
-282.2029
 10
-453.4301
 20
-282.155
 10
-453.5206
 20
-282.0916
 10
-453.5928
 20
-282.0145
 10
-453.6439
 20
-281.9254
 10
-453.6709
 20
-281.8259
  0
LWPOLYLINE
  5
C9
330
1F
100
AcDbEntity
  8
Layer 1
 62
     7
370
    18
100
AcDbPolyline
 90
       33
 70
     1
 43
0.0
 10
-451.2122
 20
-279.7522
 10
-451.2123
 20
-279.6491
 10
-451.1864
 20
-279.5495
 10
-451.137
 20
-279.4557
 10
-451.0664
 20
-279.3702
 10
-450.977
 20
-279.2953
 10
-450.8712
 20
-279.2335
 10
-450.7515
 20
-279.1871
 10
-450.6201
 20
-279.1586
 10
-450.4858
 20
-279.1505
 10
-450.3581
 20
-279.1629
 10
-450.2399
 20
-279.1939
 10
-450.134
 20
-279.2419
 10
-450.0435
 20
-279.3053
 10
-449.9712
 20
-279.3823
 10
-449.9201
 20
-279.4714
 10
-449.8931
 20
-279.5708
 10
-449.8931
 20
-279.674
 10
-449.919
 20
-279.7737
 10
-449.9684
 20
-279.8675
 10
-450.039
 20
-279.953
 10
-450.1284
 20
-280.0278
 10
-450.2342
 20
-280.0896
 10
-450.3539
 20
-280.1359
 10
-450.4853
 20
-280.1644
 10
-450.6195
 20
-280.1725
 10
-450.7472
 20
-280.1602
 10
-450.8655
 20
-280.1292
 10
-450.9713
 20
-280.0813
 10
-451.0618
 20
-280.0179
 10
-451.1341
 20
-279.9408
 10
-451.1852
 20
-279.8517
 10
-451.2122
 20
-279.7522
  0
LWPOLYLINE
  5
CA
330
1F
100
AcDbEntity
  8
Layer 1
 62
     7
370
    18
100
AcDbPolyline
 90
       33
 70
     1
 43
0.0
 10
-448.118
 20
-278.3443
 10
-448.1182
 20
-278.2412
 10
-448.0924
 20
-278.1416
 10
-448.0431
 20
-278.0478
 10
-447.9725
 20
-277.9623
 10
-447.8831
 20
-277.8875
 10
-447.7773
 20
-277.8257
 10
-447.6574
 20
-277.7795
 10
-447.5259
 20
-277.7511
 10
-447.3916
 20
-277.743
 10
-447.2639
 20
-277.7553
 10
-447.1457
 20
-277.7862
 10
-447.0398
 20
-277.8341
 10
-446.9493
 20
-277.8974
 10
-446.877
 20
-277.9744
 10
-446.8259
 20
-278.0634
 10
-446.7989
 20
-278.1628
 10
-446.7989
 20
-278.266
 10
-446.8248
 20
-278.3657
 10
-446.8742
 20
-278.4595
 10
-446.9449
 20
-278.545
 10
-447.0343
 20
-278.6198
 10
-447.1401
 20
-278.6816
 10
-447.26
 20
-278.7279
 10
-447.3915
 20
-278.7564
 10
-447.5256
 20
-278.7645
 10
-447.6532
 20
-278.7522
 10
-447.7714
 20
-278.7213
 10
-447.8772
 20
-278.6733
 10
-447.9676
 20
-278.61
 10
-448.0399
 20
-278.5329
 10
-448.091
 20
-278.4438
 10
-448.118
 20
-278.3443
  0
LWPOLYLINE
  5
CB
330
1F
100
AcDbEntity
  8
Layer 1
 62
     7
370
    18
100
AcDbPolyline
 90
       33
 70
     1
 43
0.0
 10
-445.2371
 20
-277.9386
 10
-445.2373
 20
-277.8355
 10
-445.2115
 20
-277.7359
 10
-445.1621
 20
-277.6421
 10
-445.0915
 20
-277.5566
 10
-445.0021
 20
-277.4817
 10
-444.8963
 20
-277.4199
 10
-444.7764
 20
-277.3735
 10
-444.6449
 20
-277.345
 10
-444.5107
 20
-277.3369
 10
-444.383
 20
-277.3492
 10
-444.2648
 20
-277.3801
 10
-444.159
 20
-277.4281
 10
-444.0685
 20
-277.4914
 10
-443.9963
 20
-277.5685
 10
-443.9453
 20
-277.6576
 10
-443.9184
 20
-277.7571
 10
-443.9182
 20
-277.8602
 10
-443.944
 20
-277.9598
 10
-443.9933
 20
-278.0536
 10
-444.0639
 20
-278.1391
 10
-444.1533
 20
-278.214
 10
-444.2591
 20
-278.2758
 10
-444.379
 20
-278.3222
 10
-444.5105
 20
-278.3507
 10
-444.6448
 20
-278.3588
 10
-444.7725
 20
-278.3466
 10
-444.8907
 20
-278.3156
 10
-444.9965
 20
-278.2677
 10
-445.087
 20
-278.2043
 10
-445.1592
 20
-278.1272
 10
-445.2102
 20
-278.0381
 10
-445.2371
 20
-277.9386
  0
LWPOLYLINE
  5
CC
330
1F
100
AcDbEntity
  8
Layer 1
 62
     7
370
    18
100
AcDbPolyline
 90
       33
 70
     1
 43
0.0
 10
-443.2244
 20
-278.7616
 10
-443.2246
 20
-278.6585
 10
-443.1988
 20
-278.5589
 10
-443.1495
 20
-278.4651
 10
-443.0789
 20
-278.3796
 10
-442.9895
 20
-278.3047
 10
-442.8837
 20
-278.2429
 10
-442.7638
 20
-278.1965
 10
-442.6323
 20
-278.168
 10
-442.498
 20
-278.1599
 10
-442.3703
 20
-278.1723
 10
-442.2521
 20
-278.2033
 10
-442.1463
 20
-278.2513
 10
-442.0558
 20
-278.3146
 10
-441.9836
 20
-278.3917
 10
-441.9326
 20
-278.4807
 10
-441.9057
 20
-278.5801
 10
-441.9055
 20
-278.6833
 10
-441.9313
 20
-278.783
 10
-441.9807
 20
-278.8768
 10
-442.0513
 20
-278.9623
 10
-442.1407
 20
-279.0371
 10
-442.2465
 20
-279.0989
 10
-442.3664
 20
-279.1452
 10
-442.4979
 20
-279.1737
 10
-442.6321
 20
-279.1818
 10
-442.7598
 20
-279.1696
 10
-442.8781
 20
-279.1386
 10
-442.9839
 20
-279.0907
 10
-443.0744
 20
-279.0273
 10
-443.1466
 20
-278.9502
 10
-443.1976
 20
-278.8611
 10
-443.2244
 20
-278.7616
  0
LWPOLYLINE
  5
CD
330
1F
100
AcDbEntity
  8
Layer 1
 62
     7
370
    18
100
AcDbPolyline
 90
       33
 70
     1
 43
0.0
 10
-442.732
 20
-280.577
 10
-442.7322
 20
-280.4738
 10
-442.7064
 20
-280.3741
 10
-442.657
 20
-280.2803
 10
-442.5864
 20
-280.1948
 10
-442.497
 20
-280.12
 10
-442.3912
 20
-280.0582
 10
-442.2713
 20
-280.0119
 10
-442.1398
 20
-279.9834
 10
-442.0056
 20
-279.9753
 10
-441.8779
 20
-279.9875
 10
-441.7597
 20
-280.0185
 10
-441.6539
 20
-280.0665
 10
-441.5634
 20
-280.1298
 10
-441.4912
 20
-280.2069
 10
-441.4402
 20
-280.296
 10
-441.4133
 20
-280.3955
 10
-441.4131
 20
-280.4986
 10
-441.4389
 20
-280.5982
 10
-441.4882
 20
-280.692
 10
-441.5588
 20
-280.7775
 10
-441.6482
 20
-280.8524
 10
-441.754
 20
-280.9142
 10
-441.8739
 20
-280.9606
 10
-442.0054
 20
-280.9891
 10
-442.1397
 20
-280.9972
 10
-442.2674
 20
-280.9848
 10
-442.3856
 20
-280.9538
 10
-442.4914
 20
-280.9058
 10
-442.5819
 20
-280.8425
 10
-442.6541
 20
-280.7654
 10
-442.7051
 20
-280.6764
 10
-442.732
 20
-280.577
  0
LWPOLYLINE
  5
CE
330
1F
100
AcDbEntity
  8
Layer 1
 62
     7
370
    18
100
AcDbPolyline
 90
       33
 70
     1
 43
0.0
 10
-443.866
 20
-282.5159
 10
-443.8662
 20
-282.4127
 10
-443.8404
 20
-282.313
 10
-443.791
 20
-282.2192
 10
-443.7204
 20
-282.1337
 10
-443.631
 20
-282.0589
 10
-443.5252
 20
-281.9971
 10
-443.4053
 20
-281.9508
 10
-443.2738
 20
-281.9223
 10
-443.1396
 20
-281.9142
 10
-443.0118
 20
-281.9265
 10
-442.8936
 20
-281.9574
 10
-442.7878
 20
-282.0054
 10
-442.6972
 20
-282.0687
 10
-442.625
 20
-282.1458
 10
-442.5739
 20
-282.2349
 10
-442.5469
 20
-282.3344
 10
-442.5468
 20
-282.4375
 10
-442.5727
 20
-282.5371
 10
-442.6222
 20
-282.6309
 10
-442.6928
 20
-282.7164
 10
-442.7822
 20
-282.7913
 10
-442.888
 20
-282.8531
 10
-443.0079
 20
-282.8995
 10
-443.1394
 20
-282.928
 10
-443.2737
 20
-282.9361
 10
-443.4013
 20
-282.9238
 10
-443.5195
 20
-282.8928
 10
-443.6253
 20
-282.8448
 10
-443.7157
 20
-282.7814
 10
-443.7879
 20
-282.7043
 10
-443.839
 20
-282.6153
 10
-443.866
 20
-282.5159
  0
LWPOLYLINE
  5
CF
330
1F
100
AcDbEntity
  8
Layer 1
 62
     7
370
    18
100
AcDbPolyline
 90
       33
 70
     1
 43
0.0
 10
-446.2102
 20
-284.422
 10
-446.2104
 20
-284.3189
 10
-446.1846
 20
-284.2193
 10
-446.1353
 20
-284.1255
 10
-446.0647
 20
-284.04
 10
-445.9753
 20
-283.9651
 10
-445.8695
 20
-283.9033
 10
-445.7496
 20
-283.8569
 10
-445.6181
 20
-283.8284
 10
-445.4839
 20
-283.8203
 10
-445.3562
 20
-283.8327
 10
-445.2379
 20
-283.8637
 10
-445.1321
 20
-283.9117
 10
-445.0416
 20
-283.975
 10
-444.9694
 20
-284.0521
 10
-444.9184
 20
-284.1411
 10
-444.8916
 20
-284.2405
 10
-444.8914
 20
-284.3437
 10
-444.9172
 20
-284.4434
 10
-444.9665
 20
-284.5372
 10
-445.0371
 20
-284.6227
 10
-445.1265
 20
-284.6975
 10
-445.2323
 20
-284.7593
 10
-445.3522
 20
-284.8056
 10
-445.4837
 20
-284.8341
 10
-445.6179
 20
-284.8422
 10
-445.7456
 20
-284.8299
 10
-445.8639
 20
-284.799
 10
-445.9697
 20
-284.751
 10
-446.0602
 20
-284.6877
 10
-446.1324
 20
-284.6106
 10
-446.1834
 20
-284.5215
 10
-446.2102
 20
-284.422
  0
LWPOLYLINE
  5
D0
330
1F
100
AcDbEntity
  8
Layer 1
 62
     7
370
    18
100
AcDbPolyline
 90
       33
 70
     1
 43
0.0
 10
-449.1558
 20
-285.8325
 10
-449.156
 20
-285.7294
 10
-449.1302
 20
-285.6298
 10
-449.0808
 20
-285.5361
 10
-449.0102
 20
-285.4505
 10
-448.9208
 20
-285.3757
 10
-448.815
 20
-285.3138
 10
-448.6951
 20
-285.2674
 10
-448.5636
 20
-285.2389
 10
-448.4294
 20
-285.2308
 10
-448.3017
 20
-285.2432
 10
-448.1835
 20
-285.2742
 10
-448.0777
 20
-285.3222
 10
-447.9872
 20
-285.3856
 10
-447.915
 20
-285.4626
 10
-447.864
 20
-285.5517
 10
-447.8371
 20
-285.6511
 10
-447.8369
 20
-285.7543
 10
-447.8627
 20
-285.854
 10
-447.912
 20
-285.9478
 10
-447.9826
 20
-286.0333
 10
-448.072
 20
-286.1081
 10
-448.1778
 20
-286.1699
 10
-448.2977
 20
-286.2162
 10
-448.4292
 20
-286.2447
 10
-448.5635
 20
-286.2528
 10
-448.6912
 20
-286.2405
 10
-448.8094
 20
-286.2095
 10
-448.9152
 20
-286.1616
 10
-449.0057
 20
-286.0982
 10
-449.0779
 20
-286.0211
 10
-449.1289
 20
-285.932
 10
-449.1558
 20
-285.8325
  0
LWPOLYLINE
  5
D1
330
1F
100
AcDbEntity
  8
Layer 1
 62
     7
370
    18
100
AcDbPolyline
 90
       33
 70
     1
 43
0.0
 10
-451.9184
 20
-286.1937
 10
-451.9184
 20
-286.0906
 10
-451.8925
 20
-285.991
 10
-451.8431
 20
-285.8972
 10
-451.7725
 20
-285.8117
 10
-451.6831
 20
-285.7368
 10
-451.5773
 20
-285.675
 10
-451.4576
 20
-285.6286
 10
-451.3262
 20
-285.6001
 10
-451.192
 20
-285.592
 10
-451.0642
 20
-285.6044
 10
-450.946
 20
-285.6354
 10
-450.8402
 20
-285.6834
 10
-450.7496
 20
-285.7468
 10
-450.6774
 20
-285.8238
 10
-450.6263
 20
-285.9129
 10
-450.5993
 20
-286.0123
 10
-450.5992
 20
-286.1155
 10
-450.6251
 20
-286.2152
 10
-450.6746
 20
-286.309
 10
-450.7452
 20
-286.3945
 10
-450.8346
 20
-286.4693
 10
-450.9404
 20
-286.531
 10
-451.0603
 20
-286.5774
 10
-451.1918
 20
-286.6059
 10
-451.3259
 20
-286.614
 10
-451.4535
 20
-286.6017
 10
-451.5717
 20
-286.5707
 10
-451.6775
 20
-286.5228
 10
-451.768
 20
-286.4594
 10
-451.8403
 20
-286.3823
 10
-451.8914
 20
-286.2932
 10
-451.9184
 20
-286.1937
  0
LWPOLYLINE
  5
D2
330
1F
100
AcDbEntity
  8
Layer 1
 62
     7
370
    18
100
AcDbPolyline
 90
       33
 70
     1
 43
0.0
 10
-454.0182
 20
-285.6485
 10
-454.0184
 20
-285.5453
 10
-453.9926
 20
-285.4456
 10
-453.9432
 20
-285.3518
 10
-453.8726
 20
-285.2663
 10
-453.7832
 20
-285.1915
 10
-453.6774
 20
-285.1297
 10
-453.5575
 20
-285.0834
 10
-453.426
 20
-285.0549
 10
-453.2918
 20
-285.0468
 10
-453.1641
 20
-285.0591
 10
-453.0458
 20
-285.09
 10
-452.94
 20
-285.138
 10
-452.8495
 20
-285.2013
 10
-452.7773
 20
-285.2782
 10
-452.7263
 20
-285.3672
 10
-452.6995
 20
-285.4666
 10
-452.6993
 20
-285.5698
 10
-452.7251
 20
-285.6695
 10
-452.7744
 20
-285.7633
 10
-452.845
 20
-285.8488
 10
-452.9344
 20
-285.9236
 10
-453.0402
 20
-285.9854
 10
-453.1601
 20
-286.0317
 10
-453.2916
 20
-286.0602
 10
-453.4259
 20
-286.0683
 10
-453.5536
 20
-286.056
 10
-453.6718
 20
-286.0251
 10
-453.7776
 20
-285.9772
 10
-453.8681
 20
-285.9139
 10
-453.9403
 20
-285.8369
 10
-453.9913
 20
-285.7479
 10
-454.0182
 20
-285.6485
  0
LWPOLYLINE
  5
D3
330
1F
100
AcDbEntity
  8
Layer 1
 62
     7
370
    18
100
AcDbPolyline
 90
       33
 70
     1
 43
0.0
 10
-451.1004
 20
-283.4733
 10
-451.1006
 20
-283.3702
 10
-451.0748
 20
-283.2706
 10
-451.0254
 20
-283.1768
 10
-450.9549
 20
-283.0913
 10
-450.8655
 20
-283.0164
 10
-450.7596
 20
-282.9546
 10
-450.6397
 20
-282.9082
 10
-450.5082
 20
-282.8797
 10
-450.374
 20
-282.8718
 10
-450.2463
 20
-282.8841
 10
-450.1281
 20
-282.9151
 10
-450.0223
 20
-282.9631
 10
-449.9318
 20
-283.0264
 10
-449.8596
 20
-283.1034
 10
-449.8086
 20
-283.1924
 10
-449.7817
 20
-283.2918
 10
-449.7815
 20
-283.395
 10
-449.8073
 20
-283.4947
 10
-449.8567
 20
-283.5885
 10
-449.9272
 20
-283.674
 10
-450.0166
 20
-283.7488
 10
-450.1225
 20
-283.8106
 10
-450.2424
 20
-283.8569
 10
-450.3739
 20
-283.8854
 10
-450.5081
 20
-283.8935
 10
-450.6358
 20
-283.8812
 10
-450.754
 20
-283.8502
 10
-450.8599
 20
-283.8023
 10
-450.9503
 20
-283.7389
 10
-451.0225
 20
-283.6619
 10
-451.0735
 20
-283.5728
 10
-451.1004
 20
-283.4733
  0
LWPOLYLINE
  5
D4
330
1F
100
AcDbEntity
  8
Layer 1
 62
     7
370
    18
100
AcDbPolyline
 90
       33
 70
     1
 43
0.0
 10
-450.3054
 20
-281.5149
 10
-450.3054
 20
-281.4118
 10
-450.2795
 20
-281.3122
 10
-450.2301
 20
-281.2184
 10
-450.1594
 20
-281.1329
 10
-450.07
 20
-281.058
 10
-449.9642
 20
-280.9962
 10
-449.8443
 20
-280.9498
 10
-449.7128
 20
-280.9213
 10
-449.5787
 20
-280.9132
 10
-449.4511
 20
-280.9256
 10
-449.3329
 20
-280.9566
 10
-449.2272
 20
-281.0046
 10
-449.1367
 20
-281.0679
 10
-449.0644
 20
-281.145
 10
-449.0133
 20
-281.234
 10
-448.9863
 20
-281.3334
 10
-448.9861
 20
-281.4366
 10
-449.0119
 20
-281.5363
 10
-449.0612
 20
-281.6301
 10
-449.1318
 20
-281.7156
 10
-449.2212
 20
-281.7904
 10
-449.327
 20
-281.8522
 10
-449.4469
 20
-281.8985
 10
-449.5784
 20
-281.927
 10
-449.7126
 20
-281.9351
 10
-449.8404
 20
-281.9229
 10
-449.9586
 20
-281.8919
 10
-450.0645
 20
-281.844
 10
-450.155
 20
-281.7806
 10
-450.2273
 20
-281.7035
 10
-450.2784
 20
-281.6144
 10
-450.3054
 20
-281.5149
  0
LWPOLYLINE
  5
D5
330
1F
100
AcDbEntity
  8
Layer 1
 62
     7
370
    18
100
AcDbPolyline
 90
       33
 70
     1
 43
0.0
 10
-447.5983
 20
-280.4595
 10
-447.5985
 20
-280.3564
 10
-447.5727
 20
-280.2568
 10
-447.5233
 20
-280.163
 10
-447.4527
 20
-280.0775
 10
-447.3633
 20
-280.0027
 10
-447.2575
 20
-279.9409
 10
-447.1376
 20
-279.8947
 10
-447.0061
 20
-279.8663
 10
-446.8719
 20
-279.8582
 10
-446.7442
 20
-279.8705
 10
-446.6259
 20
-279.9014
 10
-446.5201
 20
-279.9493
 10
-446.4296
 20
-280.0126
 10
-446.3574
 20
-280.0896
 10
-446.3064
 20
-280.1786
 10
-446.2796
 20
-280.278
 10
-446.2794
 20
-280.3812
 10
-446.3052
 20
-280.4809
 10
-446.3545
 20
-280.5747
 10
-446.4251
 20
-280.6602
 10
-446.5145
 20
-280.735
 10
-446.6203
 20
-280.7968
 10
-446.7402
 20
-280.8431
 10
-446.8717
 20
-280.8716
 10
-447.006
 20
-280.8797
 10
-447.1337
 20
-280.8674
 10
-447.2519
 20
-280.8364
 10
-447.3577
 20
-280.7885
 10
-447.4482
 20
-280.7251
 10
-447.5204
 20
-280.6481
 10
-447.5714
 20
-280.559
 10
-447.5983
 20
-280.4595
  0
LWPOLYLINE
  5
D6
330
1F
100
AcDbEntity
  8
Layer 1
 62
     7
370
    18
100
AcDbPolyline
 90
       33
 70
     1
 43
0.0
 10
-445.8669
 20
-281.1317
 10
-445.8671
 20
-281.0286
 10
-445.8413
 20
-280.929
 10
-445.7918
 20
-280.8352
 10
-445.7212
 20
-280.7497
 10
-445.6318
 20
-280.6748
 10
-445.526
 20
-280.613
 10
-445.4062
 20
-280.5666
 10
-445.2748
 20
-280.5381
 10
-445.1406
 20
-280.5302
 10
-445.0128
 20
-280.5425
 10
-444.8946
 20
-280.5735
 10
-444.7888
 20
-280.6215
 10
-444.6982
 20
-280.6848
 10
-444.6259
 20
-280.7618
 10
-444.5748
 20
-280.8508
 10
-444.5478
 20
-280.9502
 10
-444.5478
 20
-281.0534
 10
-444.5737
 20
-281.1531
 10
-444.6231
 20
-281.2469
 10
-444.6938
 20
-281.3324
 10
-444.7832
 20
-281.4072
 10
-444.889
 20
-281.469
 10
-445.0089
 20
-281.5153
 10
-445.1404
 20
-281.5438
 10
-445.2745
 20
-281.5519
 10
-445.4021
 20
-281.5396
 10
-445.5203
 20
-281.5087
 10
-445.6261
 20
-281.4607
 10
-445.7165
 20
-281.3974
 10
-445.7888
 20
-281.3203
 10
-445.8399
 20
-281.2312
 10
-445.8669
 20
-281.1317
  0
LWPOLYLINE
  5
D7
330
1F
100
AcDbEntity
  8
Layer 1
 62
     7
370
    18
100
AcDbPolyline
 90
       33
 70
     1
 43
0.0
 10
-446.8219
 20
-282.7332
 10
-446.8221
 20
-282.63
 10
-446.7963
 20
-282.5303
 10
-446.7469
 20
-282.4365
 10
-446.6764
 20
-282.351
 10
-446.587
 20
-282.2762
 10
-446.4811
 20
-282.2144
 10
-446.3612
 20
-282.1681
 10
-446.2297
 20
-282.1396
 10
-446.0955
 20
-282.1315
 10
-445.9678
 20
-282.1438
 10
-445.8496
 20
-282.1748
 10
-445.7438
 20
-282.2227
 10
-445.6533
 20
-282.2861
 10
-445.5811
 20
-282.3631
 10
-445.5301
 20
-282.4522
 10
-445.5032
 20
-282.5517
 10
-445.503
 20
-282.6548
 10
-445.5288
 20
-282.7544
 10
-445.5782
 20
-282.8482
 10
-445.6487
 20
-282.9337
 10
-445.7381
 20
-283.0086
 10
-445.844
 20
-283.0704
 10
-445.9639
 20
-283.1168
 10
-446.0954
 20
-283.1453
 10
-446.2296
 20
-283.1534
 10
-446.3573
 20
-283.1411
 10
-446.4755
 20
-283.1101
 10
-446.5814
 20
-283.0621
 10
-446.6718
 20
-282.9987
 10
-446.744
 20
-282.9217
 10
-446.795
 20
-282.8326
 10
-446.8219
 20
-282.7332
  0
LWPOLYLINE
  5
D8
330
1F
100
AcDbEntity
  8
Layer 1
 62
     7
370
    18
100
AcDbPolyline
 90
       33
 70
     1
 43
0.0
 10
-449.3695
 20
-284.0509
 10
-449.3697
 20
-283.9478
 10
-449.3439
 20
-283.8482
 10
-449.2945
 20
-283.7544
 10
-449.224
 20
-283.6689
 10
-449.1346
 20
-283.594
 10
-449.0287
 20
-283.5322
 10
-448.9088
 20
-283.4858
 10
-448.7773
 20
-283.4573
 10
-448.6431
 20
-283.4492
 10
-448.5154
 20
-283.4616
 10
-448.3972
 20
-283.4926
 10
-448.2914
 20
-283.5406
 10
-448.2009
 20
-283.6039
 10
-448.1287
 20
-283.681
 10
-448.0777
 20
-283.77
 10
-448.0508
 20
-283.8694
 10
-448.0506
 20
-283.9726
 10
-448.0764
 20
-284.0723
 10
-448.1258
 20
-284.1661
 10
-448.1963
 20
-284.2516
 10
-448.2857
 20
-284.3264
 10
-448.3916
 20
-284.3882
 10
-448.5115
 20
-284.4345
 10
-448.643
 20
-284.463
 10
-448.7772
 20
-284.4711
 10
-448.9049
 20
-284.4588
 10
-449.0231
 20
-284.4279
 10
-449.129
 20
-284.3799
 10
-449.2194
 20
-284.3166
 10
-449.2916
 20
-284.2395
 10
-449.3426
 20
-284.1504
 10
-449.3695
 20
-284.0509
  0
LWPOLYLINE
  5
D9
330
1F
100
AcDbEntity
  8
Layer 1
 62
     7
370
    18
100
AcDbPolyline
 90
       33
 70
     1
 43
0.0
 10
-455.8071
 20
-285.7284
 10
-455.8072
 20
-285.666
 10
-455.7916
 20
-285.6056
 10
-455.7616
 20
-285.5488
 10
-455.7188
 20
-285.497
 10
-455.6646
 20
-285.4516
 10
-455.6004
 20
-285.4141
 10
-455.5276
 20
-285.3859
 10
-455.4478
 20
-285.3685
 10
-455.3664
 20
-285.3637
 10
-455.289
 20
-285.3712
 10
-455.2174
 20
-285.39
 10
-455.1533
 20
-285.4191
 10
-455.0984
 20
-285.4575
 10
-455.0547
 20
-285.5043
 10
-455.0237
 20
-285.5583
 10
-455.0074
 20
-285.6187
 10
-455.0073
 20
-285.6811
 10
-455.0229
 20
-285.7415
 10
-455.0528
 20
-285.7983
 10
-455.0956
 20
-285.8501
 10
-455.1498
 20
-285.8955
 10
-455.2139
 20
-285.933
 10
-455.2866
 20
-285.9612
 10
-455.3663
 20
-285.9786
 10
-455.4478
 20
-285.9834
 10
-455.5253
 20
-285.9759
 10
-455.597
 20
-285.9571
 10
-455.6612
 20
-285.928
 10
-455.716
 20
-285.8896
 10
-455.7598
 20
-285.8428
 10
-455.7908
 20
-285.7888
 10
-455.8071
 20
-285.7284
  0
LWPOLYLINE
  5
DA
330
1F
100
AcDbEntity
  8
Layer 1
 62
     7
370
    18
100
AcDbPolyline
 90
       33
 70
     1
 43
0.0
 10
-456.1275
 20
-284.867
 10
-456.1276
 20
-284.8045
 10
-456.1119
 20
-284.7441
 10
-456.082
 20
-284.6872
 10
-456.0392
 20
-284.6353
 10
-455.985
 20
-284.5899
 10
-455.9209
 20
-284.5524
 10
-455.8483
 20
-284.5243
 10
-455.7686
 20
-284.5071
 10
-455.6871
 20
-284.5022
 10
-455.6096
 20
-284.5097
 10
-455.5379
 20
-284.5285
 10
-455.4737
 20
-284.5576
 10
-455.4188
 20
-284.596
 10
-455.375
 20
-284.6428
 10
-455.3441
 20
-284.6968
 10
-455.3277
 20
-284.7572
 10
-455.3276
 20
-284.8197
 10
-455.3433
 20
-284.88
 10
-455.3732
 20
-284.9369
 10
-455.4161
 20
-284.9887
 10
-455.4703
 20
-285.0341
 10
-455.5345
 20
-285.0716
 10
-455.6073
 20
-285.0997
 10
-455.6871
 20
-285.1171
 10
-455.7684
 20
-285.1219
 10
-455.8458
 20
-285.1145
 10
-455.9174
 20
-285.0957
 10
-455.9816
 20
-285.0666
 10
-456.0364
 20
-285.0281
 10
-456.0802
 20
-284.9814
 10
-456.1111
 20
-284.9274
 10
-456.1275
 20
-284.867
  0
LWPOLYLINE
  5
DB
330
1F
100
AcDbEntity
  8
Layer 1
 62
     7
370
    18
100
AcDbPolyline
 90
       33
 70
     1
 43
0.0
 10
-456.1474
 20
-283.926
 10
-456.1475
 20
-283.8636
 10
-456.1319
 20
-283.8032
 10
-456.1019
 20
-283.7464
 10
-456.0591
 20
-283.6946
 10
-456.0049
 20
-283.6492
 10
-455.9407
 20
-283.6117
 10
-455.8679
 20
-283.5835
 10
-455.7881
 20
-283.5661
 10
-455.7067
 20
-283.5613
 10
-455.6293
 20
-283.5688
 10
-455.5577
 20
-283.5876
 10
-455.4936
 20
-283.6167
 10
-455.4387
 20
-283.6551
 10
-455.3949
 20
-283.7019
 10
-455.364
 20
-283.7559
 10
-455.3476
 20
-283.8163
 10
-455.3475
 20
-283.8788
 10
-455.3632
 20
-283.9391
 10
-455.3931
 20
-283.996
 10
-455.4359
 20
-284.0479
 10
-455.4901
 20
-284.0933
 10
-455.5542
 20
-284.1308
 10
-455.6269
 20
-284.1589
 10
-455.7066
 20
-284.1762
 10
-455.7881
 20
-284.181
 10
-455.8656
 20
-284.1735
 10
-455.9373
 20
-284.1547
 10
-456.0015
 20
-284.1256
 10
-456.0563
 20
-284.0872
 10
-456.1001
 20
-284.0404
 10
-456.1311
 20
-283.9864
 10
-456.1474
 20
-283.926
  0
LWPOLYLINE
  5
DC
330
1F
100
AcDbEntity
  8
Layer 1
 62
     7
370
    18
100
AcDbPolyline
 90
       33
 70
     1
 43
0.0
 10
-455.8375
 20
-282.8926
 10
-455.8376
 20
-282.8301
 10
-455.8219
 20
-282.7698
 10
-455.792
 20
-282.7129
 10
-455.7492
 20
-282.661
 10
-455.695
 20
-282.6156
 10
-455.6309
 20
-282.5781
 10
-455.5583
 20
-282.55
 10
-455.4786
 20
-282.5327
 10
-455.3972
 20
-282.5279
 10
-455.3198
 20
-282.5354
 10
-455.248
 20
-282.5541
 10
-455.1838
 20
-282.5832
 10
-455.1289
 20
-282.6216
 10
-455.085
 20
-282.6683
 10
-455.0541
 20
-282.7222
 10
-455.0377
 20
-282.7824
 10
-455.0377
 20
-282.845
 10
-455.0535
 20
-282.9055
 10
-455.0835
 20
-282.9624
 10
-455.1264
 20
-283.0143
 10
-455.1806
 20
-283.0597
 10
-455.2447
 20
-283.0972
 10
-455.3174
 20
-283.1254
 10
-455.3971
 20
-283.1428
 10
-455.4785
 20
-283.1476
 10
-455.5559
 20
-283.1401
 10
-455.6276
 20
-283.1213
 10
-455.6917
 20
-283.0922
 10
-455.7466
 20
-283.0538
 10
-455.7904
 20
-283.007
 10
-455.8213
 20
-282.953
 10
-455.8375
 20
-282.8926
  0
LWPOLYLINE
  5
DD
330
1F
100
AcDbEntity
  8
Layer 1
 62
     7
370
    18
100
AcDbPolyline
 90
       33
 70
     1
 43
0.0
 10
-455.1534
 20
-281.7318
 10
-455.1535
 20
-281.6692
 10
-455.1379
 20
-281.6087
 10
-455.1079
 20
-281.5518
 10
-455.0651
 20
-281.5
 10
-455.0109
 20
-281.4546
 10
-454.9467
 20
-281.4172
 10
-454.8739
 20
-281.3891
 10
-454.7941
 20
-281.3719
 10
-454.7127
 20
-281.367
 10
-454.6353
 20
-281.3745
 10
-454.5637
 20
-281.3933
 10
-454.4996
 20
-281.4224
 10
-454.4447
 20
-281.4607
 10
-454.401
 20
-281.5074
 10
-454.37
 20
-281.5614
 10
-454.3537
 20
-281.6216
 10
-454.3536
 20
-281.6842
 10
-454.3692
 20
-281.7447
 10
-454.3992
 20
-281.8015
 10
-454.442
 20
-281.8534
 10
-454.4961
 20
-281.8987
 10
-454.5603
 20
-281.9362
 10
-454.6329
 20
-281.9642
 10
-454.7126
 20
-281.9815
 10
-454.7941
 20
-281.9865
 10
-454.8716
 20
-281.9791
 10
-454.9433
 20
-281.9604
 10
-455.0075
 20
-281.9313
 10
-455.0623
 20
-281.8929
 10
-455.1061
 20
-281.8462
 10
-455.1371
 20
-281.7922
 10
-455.1534
 20
-281.7318
  0
LWPOLYLINE
  5
DE
330
1F
100
AcDbEntity
  8
Layer 1
 62
     7
370
    18
100
AcDbPolyline
 90
       33
 70
     1
 43
0.0
 10
-454.1599
 20
-280.6042
 10
-454.16
 20
-280.5416
 10
-454.1443
 20
-280.4811
 10
-454.1144
 20
-280.4242
 10
-454.0716
 20
-280.3724
 10
-454.0174
 20
-280.327
 10
-453.9533
 20
-280.2896
 10
-453.8807
 20
-280.2615
 10
-453.801
 20
-280.2443
 10
-453.7196
 20
-280.2395
 10
-453.6422
 20
-280.247
 10
-453.5705
 20
-280.2657
 10
-453.5063
 20
-280.2948
 10
-453.4513
 20
-280.3332
 10
-453.4075
 20
-280.3799
 10
-453.3765
 20
-280.4338
 10
-453.3601
 20
-280.494
 10
-453.36
 20
-280.5566
 10
-453.3757
 20
-280.6171
 10
-453.4057
 20
-280.6739
 10
-453.4486
 20
-280.7258
 10
-453.5029
 20
-280.7711
 10
-453.5671
 20
-280.8086
 10
-453.6398
 20
-280.8366
 10
-453.7195
 20
-280.8539
 10
-453.8008
 20
-280.8589
 10
-453.8782
 20
-280.8515
 10
-453.9499
 20
-280.8328
 10
-454.014
 20
-280.8038
 10
-454.0688
 20
-280.7653
 10
-454.1126
 20
-280.7186
 10
-454.1436
 20
-280.6646
 10
-454.1599
 20
-280.6042
  0
LWPOLYLINE
  5
DF
330
1F
100
AcDbEntity
  8
Layer 1
 62
     7
370
    18
100
AcDbPolyline
 90
       33
 70
     1
 43
0.0
 10
-453.0216
 20
-279.6321
 10
-453.0217
 20
-279.5695
 10
-453.006
 20
-279.509
 10
-452.976
 20
-279.4522
 10
-452.9331
 20
-279.4003
 10
-452.8788
 20
-279.355
 10
-452.8146
 20
-279.3175
 10
-452.7419
 20
-279.2895
 10
-452.6622
 20
-279.2722
 10
-452.5809
 20
-279.2673
 10
-452.5035
 20
-279.2747
 10
-452.4318
 20
-279.2935
 10
-452.3677
 20
-279.3226
 10
-452.3129
 20
-279.361
 10
-452.2691
 20
-279.4077
 10
-452.2381
 20
-279.4617
 10
-452.2218
 20
-279.522
 10
-452.2217
 20
-279.5846
 10
-452.2374
 20
-279.645
 10
-452.2673
 20
-279.7019
 10
-452.3101
 20
-279.7537
 10
-452.3643
 20
-279.7991
 10
-452.4284
 20
-279.8365
 10
-452.501
 20
-279.8646
 10
-452.5807
 20
-279.8818
 10
-452.6621
 20
-279.8868
 10
-452.7395
 20
-279.8794
 10
-452.8112
 20
-279.8606
 10
-452.8754
 20
-279.8315
 10
-452.9304
 20
-279.7931
 10
-452.9742
 20
-279.7464
 10
-453.0052
 20
-279.6924
 10
-453.0216
 20
-279.6321
  0
LWPOLYLINE
  5
E0
330
1F
100
AcDbEntity
  8
Layer 1
 62
     7
370
    18
100
AcDbPolyline
 90
       33
 70
     1
 43
0.0
 10
-451.66
 20
-278.7002
 10
-451.6601
 20
-278.6377
 10
-451.6444
 20
-278.5774
 10
-451.6145
 20
-278.5205
 10
-451.5717
 20
-278.4686
 10
-451.5174
 20
-278.4232
 10
-451.4532
 20
-278.3857
 10
-451.3804
 20
-278.3576
 10
-451.3006
 20
-278.3404
 10
-451.2193
 20
-278.3355
 10
-451.1419
 20
-278.343
 10
-451.0703
 20
-278.3618
 10
-451.0062
 20
-278.3909
 10
-450.9513
 20
-278.4293
 10
-450.9075
 20
-278.4761
 10
-450.8766
 20
-278.5301
 10
-450.8602
 20
-278.5905
 10
-450.8601
 20
-278.653
 10
-450.8758
 20
-278.7133
 10
-450.9057
 20
-278.7702
 10
-450.9485
 20
-278.822
 10
-451.0027
 20
-278.8674
 10
-451.0668
 20
-278.9049
 10
-451.1394
 20
-278.933
 10
-451.2191
 20
-278.9504
 10
-451.3006
 20
-278.9552
 10
-451.3781
 20
-278.9477
 10
-451.4498
 20
-278.9289
 10
-451.514
 20
-278.8998
 10
-451.5689
 20
-278.8614
 10
-451.6127
 20
-278.8146
 10
-451.6437
 20
-278.7606
 10
-451.66
 20
-278.7002
  0
LWPOLYLINE
  5
E1
330
1F
100
AcDbEntity
  8
Layer 1
 62
     7
370
    18
100
AcDbPolyline
 90
       33
 70
     1
 43
0.0
 10
-450.1567
 20
-277.8962
 10
-450.1568
 20
-277.8336
 10
-450.1411
 20
-277.7732
 10
-450.1112
 20
-277.7163
 10
-450.0684
 20
-277.6645
 10
-450.0142
 20
-277.6191
 10
-449.9501
 20
-277.5817
 10
-449.8775
 20
-277.5536
 10
-449.7978
 20
-277.5364
 10
-449.7164
 20
-277.5314
 10
-449.639
 20
-277.5388
 10
-449.5673
 20
-277.5576
 10
-449.5031
 20
-277.5867
 10
-449.4482
 20
-277.6251
 10
-449.4044
 20
-277.6719
 10
-449.3735
 20
-277.7258
 10
-449.3573
 20
-277.7861
 10
-449.3572
 20
-277.8487
 10
-449.3729
 20
-277.9092
 10
-449.4028
 20
-277.966
 10
-449.4456
 20
-278.0179
 10
-449.4998
 20
-278.0632
 10
-449.5639
 20
-278.1007
 10
-449.6366
 20
-278.1287
 10
-449.7163
 20
-278.146
 10
-449.7977
 20
-278.1509
 10
-449.8751
 20
-278.1435
 10
-449.9468
 20
-278.1247
 10
-450.0109
 20
-278.0956
 10
-450.0658
 20
-278.0572
 10
-450.1096
 20
-278.0105
 10
-450.1405
 20
-277.9565
 10
-450.1567
 20
-277.8962
  0
LWPOLYLINE
  5
E2
330
1F
100
AcDbEntity
  8
Layer 1
 62
     7
370
    18
100
AcDbPolyline
 90
       33
 70
     1
 43
0.0
 10
-448.4925
 20
-277.2309
 10
-448.4926
 20
-277.1684
 10
-448.4769
 20
-277.1081
 10
-448.4469
 20
-277.0512
 10
-448.4041
 20
-276.9993
 10
-448.3498
 20
-276.9539
 10
-448.2856
 20
-276.9164
 10
-448.2129
 20
-276.8883
 10
-448.1332
 20
-276.8711
 10
-448.0518
 20
-276.8662
 10
-447.9744
 20
-276.8737
 10
-447.9028
 20
-276.8925
 10
-447.8387
 20
-276.9216
 10
-447.7838
 20
-276.96
 10
-447.7401
 20
-277.0068
 10
-447.7091
 20
-277.0608
 10
-447.6928
 20
-277.1212
 10
-447.6927
 20
-277.1837
 10
-447.7083
 20
-277.244
 10
-447.7382
 20
-277.3009
 10
-447.781
 20
-277.3527
 10
-447.8352
 20
-277.3981
 10
-447.8993
 20
-277.4356
 10
-447.972
 20
-277.4637
 10
-448.0517
 20
-277.4811
 10
-448.1331
 20
-277.4859
 10
-448.2105
 20
-277.4784
 10
-448.2822
 20
-277.4596
 10
-448.3464
 20
-277.4305
 10
-448.4013
 20
-277.3921
 10
-448.4452
 20
-277.3453
 10
-448.4761
 20
-277.2913
 10
-448.4925
 20
-277.2309
  0
LWPOLYLINE
  5
E3
330
1F
100
AcDbEntity
  8
Layer 1
 62
     7
370
    18
100
AcDbPolyline
 90
       33
 70
     1
 43
0.0
 10
-446.9554
 20
-276.773
 10
-446.9555
 20
-276.7104
 10
-446.9398
 20
-276.6499
 10
-446.9099
 20
-276.5931
 10
-446.8671
 20
-276.5412
 10
-446.8129
 20
-276.4959
 10
-446.7488
 20
-276.4584
 10
-446.6762
 20
-276.4304
 10
-446.5965
 20
-276.4131
 10
-446.5151
 20
-276.4083
 10
-446.4377
 20
-276.4158
 10
-446.366
 20
-276.4345
 10
-446.3018
 20
-276.4636
 10
-446.2468
 20
-276.502
 10
-446.203
 20
-276.5487
 10
-446.172
 20
-276.6026
 10
-446.1556
 20
-276.6628
 10
-446.1556
 20
-276.7254
 10
-446.1714
 20
-276.7859
 10
-446.2014
 20
-276.8428
 10
-446.2443
 20
-276.8946
 10
-446.2985
 20
-276.94
 10
-446.3626
 20
-276.9774
 10
-446.4353
 20
-277.0055
 10
-446.515
 20
-277.0227
 10
-446.5963
 20
-277.0277
 10
-446.6737
 20
-277.0203
 10
-446.7454
 20
-277.0016
 10
-446.8095
 20
-276.9726
 10
-446.8643
 20
-276.9341
 10
-446.9081
 20
-276.8874
 10
-446.9391
 20
-276.8334
 10
-446.9554
 20
-276.773
  0
LWPOLYLINE
  5
E4
330
1F
100
AcDbEntity
  8
Layer 1
 62
     7
370
    18
100
AcDbPolyline
 90
       33
 70
     1
 43
0.0
 10
-445.4924
 20
-276.5743
 10
-445.4925
 20
-276.5117
 10
-445.4768
 20
-276.4512
 10
-445.4469
 20
-276.3943
 10
-445.4041
 20
-276.3424
 10
-445.3498
 20
-276.297
 10
-445.2856
 20
-276.2595
 10
-445.2128
 20
-276.2313
 10
-445.133
 20
-276.2139
 10
-445.0517
 20
-276.2091
 10
-444.9743
 20
-276.2166
 10
-444.9027
 20
-276.2354
 10
-444.8386
 20
-276.2645
 10
-444.7837
 20
-276.3029
 10
-444.7399
 20
-276.3497
 10
-444.709
 20
-276.4037
 10
-444.6926
 20
-276.4641
 10
-444.6925
 20
-276.5266
 10
-444.7082
 20
-276.5869
 10
-444.7381
 20
-276.6438
 10
-444.7809
 20
-276.6957
 10
-444.8351
 20
-276.7411
 10
-444.8992
 20
-276.7786
 10
-444.9718
 20
-276.8067
 10
-445.0515
 20
-276.824
 10
-445.133
 20
-276.8288
 10
-445.2105
 20
-276.8214
 10
-445.2822
 20
-276.8026
 10
-445.3464
 20
-276.7735
 10
-445.4013
 20
-276.7351
 10
-445.4451
 20
-276.6884
 10
-445.476
 20
-276.6345
 10
-445.4924
 20
-276.5743
  0
LWPOLYLINE
  5
E5
330
1F
100
AcDbEntity
  8
Layer 1
 62
     7
370
    18
100
AcDbPolyline
 90
       33
 70
     1
 43
0.0
 10
-444.0428
 20
-276.5786
 10
-444.0429
 20
-276.5161
 10
-444.0273
 20
-276.4557
 10
-443.9973
 20
-276.3988
 10
-443.9546
 20
-276.3469
 10
-443.9004
 20
-276.3015
 10
-443.8362
 20
-276.264
 10
-443.7636
 20
-276.2359
 10
-443.6839
 20
-276.2187
 10
-443.6025
 20
-276.2139
 10
-443.5251
 20
-276.2214
 10
-443.4534
 20
-276.2401
 10
-443.3892
 20
-276.2692
 10
-443.3343
 20
-276.3076
 10
-443.2904
 20
-276.3543
 10
-443.2594
 20
-276.4082
 10
-443.243
 20
-276.4684
 10
-443.2429
 20
-276.531
 10
-443.2586
 20
-276.5915
 10
-443.2887
 20
-276.6484
 10
-443.3315
 20
-276.7002
 10
-443.3858
 20
-276.7456
 10
-443.45
 20
-276.7831
 10
-443.5227
 20
-276.8113
 10
-443.6024
 20
-276.8287
 10
-443.6837
 20
-276.8336
 10
-443.7611
 20
-276.8261
 10
-443.8328
 20
-276.8073
 10
-443.8969
 20
-276.7782
 10
-443.9517
 20
-276.7398
 10
-443.9955
 20
-276.693
 10
-444.0265
 20
-276.639
 10
-444.0428
 20
-276.5786
  0
LWPOLYLINE
  5
E6
330
1F
100
AcDbEntity
  8
Layer 1
 62
     7
370
    18
100
AcDbPolyline
 90
       33
 70
     1
 43
0.0
 10
-442.8559
 20
-276.8991
 10
-442.856
 20
-276.8365
 10
-442.8404
 20
-276.776
 10
-442.8104
 20
-276.7192
 10
-442.7676
 20
-276.6673
 10
-442.7134
 20
-276.622
 10
-442.6492
 20
-276.5846
 10
-442.5764
 20
-276.5565
 10
-442.4966
 20
-276.5393
 10
-442.4152
 20
-276.5343
 10
-442.3378
 20
-276.5417
 10
-442.2662
 20
-276.5604
 10
-442.2021
 20
-276.5895
 10
-442.1472
 20
-276.6279
 10
-442.1035
 20
-276.6746
 10
-442.0725
 20
-276.7286
 10
-442.0562
 20
-276.789
 10
-442.0561
 20
-276.8516
 10
-442.0717
 20
-276.9121
 10
-442.1016
 20
-276.9689
 10
-442.1444
 20
-277.0208
 10
-442.1986
 20
-277.0661
 10
-442.2627
 20
-277.1035
 10
-442.3354
 20
-277.1316
 10
-442.4151
 20
-277.1488
 10
-442.4966
 20
-277.1537
 10
-442.5741
 20
-277.1462
 10
-442.6458
 20
-277.1274
 10
-442.71
 20
-277.0984
 10
-442.7648
 20
-277.06
 10
-442.8086
 20
-277.0133
 10
-442.8396
 20
-276.9593
 10
-442.8559
 20
-276.8991
  0
LWPOLYLINE
  5
E7
330
1F
100
AcDbEntity
  8
Layer 1
 62
     7
370
    18
100
AcDbPolyline
 90
       33
 70
     1
 43
0.0
 10
-441.8815
 20
-277.4431
 10
-441.8816
 20
-277.3805
 10
-441.8659
 20
-277.32
 10
-441.836
 20
-277.2631
 10
-441.7932
 20
-277.2113
 10
-441.739
 20
-277.1659
 10
-441.6749
 20
-277.1285
 10
-441.6022
 20
-277.1004
 10
-441.5225
 20
-277.0832
 10
-441.441
 20
-277.0782
 10
-441.3636
 20
-277.0856
 10
-441.2918
 20
-277.1044
 10
-441.2277
 20
-277.1335
 10
-441.1728
 20
-277.1719
 10
-441.129
 20
-277.2187
 10
-441.098
 20
-277.2726
 10
-441.0817
 20
-277.3329
 10
-441.0816
 20
-277.3955
 10
-441.0972
 20
-277.456
 10
-441.1272
 20
-277.5128
 10
-441.17
 20
-277.5647
 10
-441.2242
 20
-277.61
 10
-441.2884
 20
-277.6475
 10
-441.3612
 20
-277.6755
 10
-441.441
 20
-277.6928
 10
-441.5224
 20
-277.6977
 10
-441.5998
 20
-277.6903
 10
-441.6714
 20
-277.6715
 10
-441.7355
 20
-277.6424
 10
-441.7904
 20
-277.604
 10
-441.8342
 20
-277.5573
 10
-441.8651
 20
-277.5033
 10
-441.8815
 20
-277.4431
  0
LWPOLYLINE
  5
E8
330
1F
100
AcDbEntity
  8
Layer 1
 62
     7
370
    18
100
AcDbPolyline
 90
       33
 70
     1
 43
0.0
 10
-441.0873
 20
-278.2203
 10
-441.0874
 20
-278.1578
 10
-441.0718
 20
-278.0975
 10
-441.0418
 20
-278.0406
 10
-440.9991
 20
-277.9888
 10
-440.9449
 20
-277.9434
 10
-440.8807
 20
-277.9059
 10
-440.8081
 20
-277.8778
 10
-440.7284
 20
-277.8604
 10
-440.647
 20
-277.8555
 10
-440.5696
 20
-277.863
 10
-440.4979
 20
-277.8818
 10
-440.4337
 20
-277.9109
 10
-440.3788
 20
-277.9493
 10
-440.3349
 20
-277.9961
 10
-440.3039
 20
-278.0501
 10
-440.2875
 20
-278.1105
 10
-440.2874
 20
-278.173
 10
-440.3031
 20
-278.2333
 10
-440.333
 20
-278.2902
 10
-440.3759
 20
-278.342
 10
-440.4301
 20
-278.3874
 10
-440.4943
 20
-278.4249
 10
-440.5671
 20
-278.453
 10
-440.6469
 20
-278.4704
 10
-440.7282
 20
-278.4753
 10
-440.8056
 20
-278.4678
 10
-440.8773
 20
-278.449
 10
-440.9414
 20
-278.4199
 10
-440.9962
 20
-278.3815
 10
-441.04
 20
-278.3347
 10
-441.071
 20
-278.2807
 10
-441.0873
 20
-278.2203
  0
LWPOLYLINE
  5
E9
330
1F
100
AcDbEntity
  8
Layer 1
 62
     7
370
    18
100
AcDbPolyline
 90
       33
 70
     1
 43
0.0
 10
-440.7098
 20
-279.0459
 10
-440.7099
 20
-278.9833
 10
-440.6942
 20
-278.9228
 10
-440.6643
 20
-278.8659
 10
-440.6215
 20
-278.814
 10
-440.5673
 20
-278.7686
 10
-440.5032
 20
-278.7311
 10
-440.4305
 20
-278.703
 10
-440.3508
 20
-278.6856
 10
-440.2693
 20
-278.6807
 10
-440.1919
 20
-278.6882
 10
-440.1201
 20
-278.707
 10
-440.056
 20
-278.7361
 10
-440.0011
 20
-278.7745
 10
-439.9573
 20
-278.8213
 10
-439.9263
 20
-278.8753
 10
-439.91
 20
-278.9357
 10
-439.9099
 20
-278.9982
 10
-439.9255
 20
-279.0586
 10
-439.9555
 20
-279.1155
 10
-439.9983
 20
-279.1673
 10
-440.0525
 20
-279.2127
 10
-440.1167
 20
-279.2502
 10
-440.1895
 20
-279.2783
 10
-440.2693
 20
-279.2956
 10
-440.3507
 20
-279.3004
 10
-440.4281
 20
-279.293
 10
-440.4997
 20
-279.2742
 10
-440.5638
 20
-279.2451
 10
-440.6187
 20
-279.2067
 10
-440.6625
 20
-279.16
 10
-440.6934
 20
-279.1061
 10
-440.7098
 20
-279.0459
  0
LWPOLYLINE
  5
EA
330
1F
100
AcDbEntity
  8
Layer 1
 62
     7
370
    18
100
AcDbPolyline
 90
       33
 70
     1
 43
0.0
 10
-440.6625
 20
-280.0965
 10
-440.6626
 20
-280.0339
 10
-440.647
 20
-279.9735
 10
-440.617
 20
-279.9166
 10
-440.5743
 20
-279.8648
 10
-440.5201
 20
-279.8194
 10
-440.4559
 20
-279.782
 10
-440.3833
 20
-279.7539
 10
-440.3036
 20
-279.7367
 10
-440.2221
 20
-279.7317
 10
-440.1446
 20
-279.7391
 10
-440.0729
 20
-279.7578
 10
-440.0087
 20
-279.7869
 10
-439.9538
 20
-279.8253
 10
-439.91
 20
-279.872
 10
-439.8791
 20
-279.926
 10
-439.8627
 20
-279.9864
 10
-439.8626
 20
-280.049
 10
-439.8783
 20
-280.1095
 10
-439.9082
 20
-280.1663
 10
-439.9511
 20
-280.2182
 10
-440.0053
 20
-280.2635
 10
-440.0695
 20
-280.301
 10
-440.1423
 20
-280.329
 10
-440.2221
 20
-280.3463
 10
-440.3034
 20
-280.3512
 10
-440.3808
 20
-280.3438
 10
-440.4525
 20
-280.325
 10
-440.5166
 20
-280.2959
 10
-440.5714
 20
-280.2575
 10
-440.6152
 20
-280.2108
 10
-440.6462
 20
-280.1568
 10
-440.6625
 20
-280.0965
  0
LWPOLYLINE
  5
EB
330
1F
100
AcDbEntity
  8
Layer 1
 62
     7
370
    18
100
AcDbPolyline
 90
       33
 70
     1
 43
0.0
 10
-441.0761
 20
-281.1917
 10
-441.0762
 20
-281.1291
 10
-441.0605
 20
-281.0686
 10
-441.0304
 20
-281.0118
 10
-440.9876
 20
-280.9599
 10
-440.9333
 20
-280.9146
 10
-440.8691
 20
-280.8772
 10
-440.7964
 20
-280.8491
 10
-440.7167
 20
-280.8319
 10
-440.6354
 20
-280.8269
 10
-440.558
 20
-280.8343
 10
-440.4863
 20
-280.8531
 10
-440.4222
 20
-280.8822
 10
-440.3674
 20
-280.9206
 10
-440.3236
 20
-280.9674
 10
-440.2926
 20
-281.0213
 10
-440.2763
 20
-281.0816
 10
-440.2762
 20
-281.1442
 10
-440.2918
 20
-281.2047
 10
-440.3218
 20
-281.2615
 10
-440.3646
 20
-281.3134
 10
-440.4187
 20
-281.3587
 10
-440.4829
 20
-281.3961
 10
-440.5555
 20
-281.4242
 10
-440.6352
 20
-281.4414
 10
-440.7166
 20
-281.4464
 10
-440.794
 20
-281.439
 10
-440.8657
 20
-281.4203
 10
-440.9299
 20
-281.3913
 10
-440.9848
 20
-281.3528
 10
-441.0287
 20
-281.3061
 10
-441.0597
 20
-281.2521
 10
-441.0761
 20
-281.1917
  0
LWPOLYLINE
  5
EC
330
1F
100
AcDbEntity
  8
Layer 1
 62
     7
370
    18
100
AcDbPolyline
 90
       33
 70
     1
 43
0.0
 10
-441.8581
 20
-282.3185
 10
-441.8582
 20
-282.256
 10
-441.8425
 20
-282.1957
 10
-441.8126
 20
-282.1388
 10
-441.7698
 20
-282.087
 10
-441.7156
 20
-282.0416
 10
-441.6515
 20
-282.0041
 10
-441.5788
 20
-281.976
 10
-441.4991
 20
-281.9586
 10
-441.4176
 20
-281.9537
 10
-441.3402
 20
-281.9612
 10
-441.2684
 20
-281.98
 10
-441.2043
 20
-282.0091
 10
-441.1494
 20
-282.0475
 10
-441.1056
 20
-282.0943
 10
-441.0746
 20
-282.1483
 10
-441.0583
 20
-282.2087
 10
-441.0582
 20
-282.2712
 10
-441.0738
 20
-282.3315
 10
-441.1038
 20
-282.3884
 10
-441.1466
 20
-282.4402
 10
-441.2007
 20
-282.4856
 10
-441.2649
 20
-282.5231
 10
-441.3375
 20
-282.5512
 10
-441.4172
 20
-282.5686
 10
-441.4987
 20
-282.5734
 10
-441.5762
 20
-282.5659
 10
-441.6479
 20
-282.5471
 10
-441.7121
 20
-282.518
 10
-441.767
 20
-282.4796
 10
-441.8108
 20
-282.4329
 10
-441.8417
 20
-282.3788
 10
-441.8581
 20
-282.3185
  0
LWPOLYLINE
  5
ED
330
1F
100
AcDbEntity
  8
Layer 1
 62
     7
370
    18
100
AcDbPolyline
 90
       33
 70
     1
 43
0.0
 10
-442.6877
 20
-283.2292
 10
-442.6878
 20
-283.1667
 10
-442.6722
 20
-283.1063
 10
-442.6422
 20
-283.0494
 10
-442.5994
 20
-282.9975
 10
-442.5452
 20
-282.9521
 10
-442.481
 20
-282.9146
 10
-442.4082
 20
-282.8865
 10
-442.3284
 20
-282.8693
 10
-442.247
 20
-282.8644
 10
-442.1696
 20
-282.8719
 10
-442.098
 20
-282.8907
 10
-442.0339
 20
-282.9198
 10
-441.979
 20
-282.9582
 10
-441.9353
 20
-283.005
 10
-441.9043
 20
-283.059
 10
-441.888
 20
-283.1194
 10
-441.8879
 20
-283.1819
 10
-441.9035
 20
-283.2422
 10
-441.9335
 20
-283.2991
 10
-441.9763
 20
-283.3509
 10
-442.0304
 20
-283.3963
 10
-442.0946
 20
-283.4338
 10
-442.1672
 20
-283.4619
 10
-442.2469
 20
-283.4793
 10
-442.3284
 20
-283.4841
 10
-442.4059
 20
-283.4766
 10
-442.4776
 20
-283.4578
 10
-442.5418
 20
-283.4287
 10
-442.5966
 20
-283.3903
 10
-442.6404
 20
-283.3436
 10
-442.6714
 20
-283.2895
 10
-442.6877
 20
-283.2292
  0
LWPOLYLINE
  5
EE
330
1F
100
AcDbEntity
  8
Layer 1
 62
     7
370
    18
100
AcDbPolyline
 90
       33
 70
     1
 43
0.0
 10
-443.856
 20
-284.266
 10
-443.8561
 20
-284.2034
 10
-443.8404
 20
-284.1429
 10
-443.8105
 20
-284.086
 10
-443.7677
 20
-284.0342
 10
-443.7135
 20
-283.9888
 10
-443.6494
 20
-283.9513
 10
-443.5768
 20
-283.9231
 10
-443.4971
 20
-283.9057
 10
-443.4156
 20
-283.9009
 10
-443.3381
 20
-283.9084
 10
-443.2664
 20
-283.9272
 10
-443.2022
 20
-283.9563
 10
-443.1473
 20
-283.9947
 10
-443.1035
 20
-284.0415
 10
-443.0726
 20
-284.0955
 10
-443.0562
 20
-284.1559
 10
-443.0561
 20
-284.2184
 10
-443.0718
 20
-284.2787
 10
-443.1017
 20
-284.3356
 10
-443.1446
 20
-284.3875
 10
-443.1988
 20
-284.4329
 10
-443.263
 20
-284.4704
 10
-443.3358
 20
-284.4985
 10
-443.4156
 20
-284.5157
 10
-443.4969
 20
-284.5206
 10
-443.5743
 20
-284.5131
 10
-443.6459
 20
-284.4943
 10
-443.7101
 20
-284.4653
 10
-443.7649
 20
-284.4269
 10
-443.8087
 20
-284.3802
 10
-443.8396
 20
-284.3262
 10
-443.856
 20
-284.266
  0
LWPOLYLINE
  5
EF
330
1F
100
AcDbEntity
  8
Layer 1
 62
     7
370
    18
100
AcDbPolyline
 90
       33
 70
     1
 43
0.0
 10
-445.2657
 20
-285.2562
 10
-445.2658
 20
-285.1937
 10
-445.2501
 20
-285.1334
 10
-445.2202
 20
-285.0765
 10
-445.1774
 20
-285.0246
 10
-445.1232
 20
-284.9792
 10
-445.0591
 20
-284.9417
 10
-444.9865
 20
-284.9136
 10
-444.9068
 20
-284.8963
 10
-444.8253
 20
-284.8915
 10
-444.7478
 20
-284.899
 10
-444.6761
 20
-284.9178
 10
-444.6119
 20
-284.9469
 10
-444.557
 20
-284.9853
 10
-444.5132
 20
-285.0321
 10
-444.4822
 20
-285.0861
 10
-444.4659
 20
-285.1465
 10
-444.4658
 20
-285.2089
 10
-444.4815
 20
-285.2693
 10
-444.5114
 20
-285.3261
 10
-444.5543
 20
-285.3779
 10
-444.6085
 20
-285.4233
 10
-444.6727
 20
-285.4608
 10
-444.7455
 20
-285.489
 10
-444.8253
 20
-285.5064
 10
-444.9066
 20
-285.5112
 10
-444.984
 20
-285.5037
 10
-445.0556
 20
-285.4849
 10
-445.1198
 20
-285.4558
 10
-445.1746
 20
-285.4174
 10
-445.2184
 20
-285.3706
 10
-445.2493
 20
-285.3166
 10
-445.2657
 20
-285.2562
  0
LWPOLYLINE
  5
F0
330
1F
100
AcDbEntity
  8
Layer 1
 62
     7
370
    18
100
AcDbPolyline
 90
       33
 70
     1
 43
0.0
 10
-446.7638
 20
-286.0503
 10
-446.7639
 20
-285.9878
 10
-446.7482
 20
-285.9274
 10
-446.7183
 20
-285.8705
 10
-446.6755
 20
-285.8186
 10
-446.6213
 20
-285.7732
 10
-446.5572
 20
-285.7357
 10
-446.4846
 20
-285.7076
 10
-446.4049
 20
-285.6904
 10
-446.3234
 20
-285.6856
 10
-446.2459
 20
-285.6931
 10
-446.1742
 20
-285.7119
 10
-446.11
 20
-285.741
 10
-446.0551
 20
-285.7794
 10
-446.0113
 20
-285.8261
 10
-445.9804
 20
-285.8802
 10
-445.964
 20
-285.9405
 10
-445.9639
 20
-286.003
 10
-445.9796
 20
-286.0633
 10
-446.0095
 20
-286.1202
 10
-446.0524
 20
-286.172
 10
-446.1066
 20
-286.2174
 10
-446.1708
 20
-286.2549
 10
-446.2436
 20
-286.283
 10
-446.3234
 20
-286.3004
 10
-446.4047
 20
-286.3053
 10
-446.4821
 20
-286.2978
 10
-446.5538
 20
-286.279
 10
-446.6179
 20
-286.2499
 10
-446.6727
 20
-286.2115
 10
-446.7165
 20
-286.1647
 10
-446.7475
 20
-286.1107
 10
-446.7638
 20
-286.0503
  0
LWPOLYLINE
  5
F1
330
1F
100
AcDbEntity
  8
Layer 1
 62
     7
370
    18
100
AcDbPolyline
 90
       33
 70
     1
 43
0.0
 10
-448.3733
 20
-286.7082
 10
-448.3734
 20
-286.6456
 10
-448.3578
 20
-286.5852
 10
-448.3278
 20
-286.5283
 10
-448.2851
 20
-286.4765
 10
-448.2309
 20
-286.4311
 10
-448.1667
 20
-286.3937
 10
-448.0941
 20
-286.3656
 10
-448.0144
 20
-286.3484
 10
-447.933
 20
-286.3434
 10
-447.8556
 20
-286.3508
 10
-447.7839
 20
-286.3695
 10
-447.7197
 20
-286.3986
 10
-447.6648
 20
-286.437
 10
-447.6209
 20
-286.4837
 10
-447.5899
 20
-286.5377
 10
-447.5735
 20
-286.5981
 10
-447.5735
 20
-286.6607
 10
-447.5893
 20
-286.7212
 10
-447.6193
 20
-286.778
 10
-447.6622
 20
-286.8299
 10
-447.7164
 20
-286.8752
 10
-447.7806
 20
-286.9127
 10
-447.8532
 20
-286.9407
 10
-447.9329
 20
-286.958
 10
-448.0142
 20
-286.9628
 10
-448.0916
 20
-286.9553
 10
-448.1633
 20
-286.9366
 10
-448.2274
 20
-286.9075
 10
-448.2822
 20
-286.8691
 10
-448.326
 20
-286.8224
 10
-448.357
 20
-286.7684
 10
-448.3733
 20
-286.7082
  0
LWPOLYLINE
  5
F2
330
1F
100
AcDbEntity
  8
Layer 1
 62
     7
370
    18
100
AcDbPolyline
 90
       33
 70
     1
 43
0.0
 10
-450.0422
 20
-287.1558
 10
-450.0423
 20
-287.0932
 10
-450.0267
 20
-287.0327
 10
-449.9967
 20
-286.9759
 10
-449.9539
 20
-286.924
 10
-449.8997
 20
-286.8787
 10
-449.8355
 20
-286.8413
 10
-449.7627
 20
-286.8132
 10
-449.6829
 20
-286.796
 10
-449.6015
 20
-286.7911
 10
-449.5241
 20
-286.7986
 10
-449.4525
 20
-286.8174
 10
-449.3884
 20
-286.8465
 10
-449.3335
 20
-286.8848
 10
-449.2898
 20
-286.9315
 10
-449.2588
 20
-286.9855
 10
-449.2425
 20
-287.0457
 10
-449.2424
 20
-287.1083
 10
-449.258
 20
-287.1688
 10
-449.2879
 20
-287.2256
 10
-449.3307
 20
-287.2775
 10
-449.3849
 20
-287.3228
 10
-449.449
 20
-287.3602
 10
-449.5217
 20
-287.3883
 10
-449.6014
 20
-287.4055
 10
-449.6829
 20
-287.4105
 10
-449.7604
 20
-287.4031
 10
-449.8321
 20
-287.3844
 10
-449.8963
 20
-287.3554
 10
-449.9511
 20
-287.3169
 10
-449.9949
 20
-287.2702
 10
-450.0259
 20
-287.2162
 10
-450.0422
 20
-287.1558
  0
LWPOLYLINE
  5
F3
330
1F
100
AcDbEntity
  8
Layer 1
 62
     7
370
    18
100
AcDbPolyline
 90
       33
 70
     1
 43
0.0
 10
-451.5837
 20
-287.3442
 10
-451.5838
 20
-287.2817
 10
-451.5681
 20
-287.2213
 10
-451.5382
 20
-287.1644
 10
-451.4954
 20
-287.1126
 10
-451.4412
 20
-287.0672
 10
-451.3771
 20
-287.0297
 10
-451.3045
 20
-287.0016
 10
-451.2248
 20
-286.9843
 10
-451.1434
 20
-286.9795
 10
-451.066
 20
-286.987
 10
-450.9943
 20
-287.0058
 10
-450.9301
 20
-287.0349
 10
-450.8751
 20
-287.0733
 10
-450.8313
 20
-287.1201
 10
-450.8003
 20
-287.1741
 10
-450.7839
 20
-287.2345
 10
-450.7839
 20
-287.2969
 10
-450.7997
 20
-287.3573
 10
-450.8297
 20
-287.4141
 10
-450.8726
 20
-287.4659
 10
-450.9268
 20
-287.5113
 10
-450.9909
 20
-287.5488
 10
-451.0636
 20
-287.5769
 10
-451.1433
 20
-287.5943
 10
-451.2247
 20
-287.5992
 10
-451.3021
 20
-287.5917
 10
-451.3738
 20
-287.5729
 10
-451.4379
 20
-287.5438
 10
-451.4928
 20
-287.5054
 10
-451.5366
 20
-287.4586
 10
-451.5675
 20
-287.4046
 10
-451.5837
 20
-287.3442
  0
LWPOLYLINE
  5
F4
330
1F
100
AcDbEntity
  8
Layer 1
 62
     7
370
    18
100
AcDbPolyline
 90
       33
 70
     1
 43
0.0
 10
-452.9748
 20
-287.218
 10
-452.9749
 20
-287.1554
 10
-452.9592
 20
-287.0949
 10
-452.9293
 20
-287.0381
 10
-452.8865
 20
-286.9862
 10
-452.8323
 20
-286.9409
 10
-452.7682
 20
-286.9035
 10
-452.6955
 20
-286.8754
 10
-452.6158
 20
-286.8582
 10
-452.5344
 20
-286.8533
 10
-452.457
 20
-286.8608
 10
-452.3853
 20
-286.8796
 10
-452.3211
 20
-286.9087
 10
-452.2662
 20
-286.947
 10
-452.2223
 20
-286.9937
 10
-452.1914
 20
-287.0477
 10
-452.175
 20
-287.1079
 10
-452.175
 20
-287.1705
 10
-452.1908
 20
-287.231
 10
-452.2208
 20
-287.2878
 10
-452.2636
 20
-287.3397
 10
-452.3178
 20
-287.385
 10
-452.382
 20
-287.4224
 10
-452.4546
 20
-287.4505
 10
-452.5343
 20
-287.4677
 10
-452.6157
 20
-287.4727
 10
-452.6931
 20
-287.4653
 10
-452.7647
 20
-287.4466
 10
-452.8288
 20
-287.4176
 10
-452.8837
 20
-287.3791
 10
-452.9275
 20
-287.3324
 10
-452.9584
 20
-287.2784
 10
-452.9748
 20
-287.218
  0
LWPOLYLINE
  5
F5
330
1F
100
AcDbEntity
  8
Layer 1
 62
     7
370
    18
100
AcDbPolyline
 90
       33
 70
     1
 43
0.0
 10
-454.309
 20
-286.9351
 10
-454.3091
 20
-286.8726
 10
-454.2934
 20
-286.8123
 10
-454.2634
 20
-286.7554
 10
-454.2206
 20
-286.7036
 10
-454.1663
 20
-286.6582
 10
-454.1021
 20
-286.6207
 10
-454.0294
 20
-286.5926
 10
-453.9497
 20
-286.5752
 10
-453.8683
 20
-286.5703
 10
-453.7909
 20
-286.5778
 10
-453.7193
 20
-286.5966
 10
-453.6552
 20
-286.6257
 10
-453.6003
 20
-286.6641
 10
-453.5565
 20
-286.7109
 10
-453.5256
 20
-286.7649
 10
-453.5092
 20
-286.8253
 10
-453.5091
 20
-286.8878
 10
-453.5248
 20
-286.9481
 10
-453.5547
 20
-287.005
 10
-453.5975
 20
-287.0568
 10
-453.6517
 20
-287.1022
 10
-453.7158
 20
-287.1397
 10
-453.7885
 20
-287.1678
 10
-453.8682
 20
-287.1852
 10
-453.9496
 20
-287.19
 10
-454.027
 20
-287.1826
 10
-454.0987
 20
-287.1638
 10
-454.1629
 20
-287.1347
 10
-454.2178
 20
-287.0962
 10
-454.2617
 20
-287.0495
 10
-454.2926
 20
-286.9955
 10
-454.309
 20
-286.9351
  0
LWPOLYLINE
  5
F6
330
1F
100
AcDbEntity
  8
Layer 1
 62
     7
370
    18
100
AcDbPolyline
 90
       33
 70
     1
 43
0.0
 10
-455.1877
 20
-286.4542
 10
-455.1878
 20
-286.3916
 10
-455.1721
 20
-286.3311
 10
-455.1422
 20
-286.2743
 10
-455.0994
 20
-286.2224
 10
-455.0452
 20
-286.1771
 10
-454.9811
 20
-286.1396
 10
-454.9085
 20
-286.1116
 10
-454.8288
 20
-286.0943
 10
-454.7474
 20
-286.0893
 10
-454.67
 20
-286.0967
 10
-454.5983
 20
-286.1155
 10
-454.5341
 20
-286.1445
 10
-454.4791
 20
-286.1829
 10
-454.4353
 20
-286.2297
 10
-454.4043
 20
-286.2837
 10
-454.3879
 20
-286.3441
 10
-454.3878
 20
-286.4067
 10
-454.4035
 20
-286.4671
 10
-454.4335
 20
-286.524
 10
-454.4764
 20
-286.5758
 10
-454.5307
 20
-286.6212
 10
-454.5949
 20
-286.6586
 10
-454.6676
 20
-286.6867
 10
-454.7473
 20
-286.7039
 10
-454.8286
 20
-286.7088
 10
-454.906
 20
-286.7013
 10
-454.9777
 20
-286.6825
 10
-455.0418
 20
-286.6535
 10
-455.0966
 20
-286.6151
 10
-455.1404
 20
-286.5684
 10
-455.1714
 20
-286.5144
 10
-455.1877
 20
-286.4542
  0
LWPOLYLINE
  5
F7
330
1F
100
AcDbEntity
  8
Layer 1
 62
     7
370
    25
100
AcDbPolyline
 90
        2
 70
     0
 43
0.0
 10
-366.9199
 20
-182.3615
 10
-261.6722
 20
-182.3615
  0
LWPOLYLINE
  5
F8
330
1F
100
AcDbEntity
  8
Layer 1
 62
     7
370
    80
100
AcDbPolyline
 90
        2
 70
     0
 43
0.0
 10
-348.8447
 20
-195.5717
 10
-279.7807
 20
-195.472
  0
LWPOLYLINE
  5
F9
330
1F
100
AcDbEntity
  8
Layer 1
 62
     7
370
   140
100
AcDbPolyline
 90
        3
 70
     0
 43
0.0
 10
-343.5981
 20
-189.9186
 10
-349.8051
 20
-195.2645
 10
-342.8449
 20
-200.9253
  0
LWPOLYLINE
  5
FA
330
1F
100
AcDbEntity
  8
Layer 1
 62
     7
370
   140
100
AcDbPolyline
 90
        3
 70
     0
 43
0.0
 10
-284.9947
 20
-200.7862
 10
-278.7877
 20
-195.4403
 10
-285.7479
 20
-189.7795
  0
LWPOLYLINE
  5
FB
330
1F
100
AcDbEntity
  8
Layer 1
  6
New Line1
 62
     7
370
    25
100
AcDbPolyline
 90
        2
 70
     0
 43
0.0
 10
-273.4034
 20
-183.2184
 10
-251.296
 20
-414.6526
  0
LWPOLYLINE
  5
FD
330
1F
100
AcDbEntity
  8
Layer 1
  6
New Line2
 62
     7
370
    25
100
AcDbPolyline
 90
        2
 70
     0
 43
0.0
 10
-354.6504
 20
-183.2184
 10
-377.2962
 20
-414.6526
  0
LWPOLYLINE
  5
FF
330
1F
100
AcDbEntity
  8
Layer 1
 62
     7
370
    60
100
AcDbPolyline
 90
        2
 70
     0
 43
0.0
 10
-366.1466
 20
-407.4361
 10
-262.5005
 20
-407.3365
  0
LWPOLYLINE
  5
100
330
1F
100
AcDbEntity
  8
Layer 1
 62
     7
370
   100
100
AcDbPolyline
 90
        3
 70
     0
 43
0.0
 10
-356.5769
 20
-401.783
 10
-367.356
 20
-407.129
 10
-355.2689
 20
-412.7898
  0
LWPOLYLINE
  5
101
330
1F
100
AcDbEntity
  8
Layer 1
 62
     7
370
   100
100
AcDbPolyline
 90
        3
 70
     0
 43
0.0
 10
-272.0133
 20
-412.6507
 10
-261.2342
 20
-407.3047
 10
-273.3213
 20
-401.644
  0
LWPOLYLINE
  5
102
330
1F
100
AcDbEntity
  8
Layer 1
 62
     7
370
    60
100
AcDbPolyline
 90
        2
 70
     0
 43
0.0
 10
-362.4194
 20
-168.8641
 10
-266.2241
 20
-168.7303
  0
LWPOLYLINE
  5
103
330
1F
100
AcDbEntity
  8
Layer 1
 62
     7
370
   100
100
AcDbPolyline
 90
        3
 70
     0
 43
0.0
 10
-353.5377
 20
-161.2744
 10
-363.5419
 20
-168.4518
 10
-352.3237
 20
-176.0518
  0
LWPOLYLINE
  5
104
330
1F
100
AcDbEntity
  8
Layer 1
 62
     7
370
   100
100
AcDbPolyline
 90
        3
 70
     0
 43
0.0
 10
-275.0531
 20
-175.8651
 10
-265.0488
 20
-168.6877
 10
-276.2671
 20
-161.0877
  0
LWPOLYLINE
  5
105
330
1F
100
AcDbEntity
  8
Layer 1
 62
     7
370
    60
100
AcDbPolyline
 90
        2
 70
     0
 43
0.0
 10
-306.0467
 20
-244.3926
 10
-305.9032
 20
-380.3022
  0
LWPOLYLINE
  5
106
330
1F
100
AcDbEntity
  8
Layer 1
 62
     7
370
    90
100
AcDbPolyline
 90
        3
 70
     0
 43
0.0
 10
-297.9057
 20
-256.9411
 10
-305.6045
 20
-242.8066
 10
-313.7565
 20
-258.6563
  0
LWPOLYLINE
  5
107
330
1F
100
AcDbEntity
  8
Layer 1
 62
     7
370
    90
100
AcDbPolyline
 90
        3
 70
     0
 43
0.0
 10
-313.5563
 20
-367.8282
 10
-305.8575
 20
-381.9627
 10
-297.7055
 20
-366.113
  0
LWPOLYLINE
  5
108
330
1F
100
AcDbEntity
  8
Layer 1
 62
     7
370
     9
100
AcDbPolyline
 90
        7
 70
     1
 43
0.0
 10
-352.6885
 20
-158.7573
 10
-350.6242
 20
-158.7465
 10
-350.7449
 20
-140.3264
 10
-355.6977
 20
-140.8349
 10
-355.687
 20
-142.4677
 10
-352.796
 20
-142.4526
 10
-352.6885
 20
-158.7573
  0
LWPOLYLINE
  5
109
330
1F
100
AcDbEntity
  8
Layer 1
 62
     7
370
     9
100
AcDbPolyline
 90
      125
 70
     1
 43
0.0
 10
-338.8275
 20
-142.5913
 10
-338.4854
 20
-142.7992
 10
-338.1661
 20
-143.0357
 10
-337.8696
 20
-143.3009
 10
-337.596
 20
-143.5947
 10
-337.3453
 20
-143.9171
 10
-337.1175
 20
-144.2681
 10
-336.9127
 20
-144.6476
 10
-336.7309
 20
-145.0558
 10
-336.527
 20
-145.5974
 10
-336.3497
 20
-146.1473
 10
-336.199
 20
-146.7052
 10
-336.0751
 20
-147.2713
 10
-335.9778
 20
-147.8455
 10
-335.9071
 20
-148.4277
 10
-335.8631
 20
-149.0179
 10
-335.8457
 20
-149.6161
 10
-335.8491
 20
-149.9101
 10
-335.8633
 20
-150.2291
 10
-335.8887
 20
-150.5732
 10
-335.9258
 20
-150.9422
 10
-336.0232
 20
-151.6624
 10
-336.1522
 20
-152.3431
 10
-336.3129
 20
-152.9842
 10
-336.5053
 20
-153.5858
 10
-336.7293
 20
-154.1479
 10
-336.985
 20
-154.6704
 10
-337.2722
 20
-155.1534
 10
-337.5911
 20
-155.5968
 10
-337.8826
 20
-155.9309
 10
-338.19
 20
-156.2207
 10
-338.5133
 20
-156.4663
 10
-338.8526
 20
-156.6677
 10
-339.2077
 20
-156.8249
 10
-339.5787
 20
-156.9379
 10
-339.9657
 20
-157.0067
 10
-340.3685
 20
-157.0312
 10
-340.8188
 20
-157.0116
 10
-341.2477
 20
-156.9481
 10
-341.6553
 20
-156.8405
 10
-342.0415
 20
-156.6889
 10
-342.4063
 20
-156.4933
 10
-342.7498
 20
-156.2536
 10
-343.0721
 20
-155.97
 10
-343.373
 20
-155.6423
 10
-343.5002
 20
-155.4829
 10
-343.622
 20
-155.3185
 10
-343.7383
 20
-155.1491
 10
-343.8492
 20
-154.9747
 10
-343.9545
 20
-154.7954
 10
-344.0542
 20
-154.611
 10
-344.1483
 20
-154.4217
 10
-344.2367
 20
-154.2274
 10
-344.3202
 20
-154.0296
 10
-344.3986
 20
-153.8305
 10
-344.472
 20
-153.6303
 10
-344.5404
 20
-153.4287
 10
-344.6037
 20
-153.2259
 10
-344.662
 20
-153.0218
 10
-344.7153
 20
-152.8164
 10
-344.7635
 20
-152.6097
 10
-344.8076
 20
-152.4032
 10
-344.8484
 20
-152.1986
 10
-344.8859
 20
-151.9956
 10
-344.9203
 20
-151.7943
 10
-344.9513
 20
-151.5947
 10
-344.9792
 20
-151.3966
 10
-345.0038
 20
-151.2001
 10
-345.0251
 20
-151.005
 10
-345.0437
 20
-150.8073
 10
-345.0601
 20
-150.602
 10
-345.0742
 20
-150.3893
 10
-345.086
 20
-150.1691
 10
-345.0956
 20
-149.9416
 10
-345.103
 20
-149.7069
 10
-345.1082
 20
-149.465
 10
-345.1111
 20
-149.216
 10
-345.1079
 20
-148.9556
 10
-345.0945
 20
-148.6802
 10
-345.0711
 20
-148.3897
 10
-345.0377
 20
-148.084
 10
-344.9941
 20
-147.7629
 10
-344.9405
 20
-147.4265
 10
-344.8767
 20
-147.0746
 10
-344.8029
 20
-146.7071
 10
-344.7576
 20
-146.5028
 10
-344.7077
 20
-146.2989
 10
-344.6532
 20
-146.0954
 10
-344.5942
 20
-145.8923
 10
-344.5305
 20
-145.6896
 10
-344.4622
 20
-145.4873
 10
-344.3894
 20
-145.2855
 10
-344.3119
 20
-145.084
 10
-344.2292
 20
-144.8852
 10
-344.1405
 20
-144.6914
 10
-344.0459
 20
-144.5026
 10
-343.9452
 20
-144.3188
 10
-343.8384
 20
-144.1399
 10
-343.7256
 20
-143.9661
 10
-343.6067
 20
-143.7972
 10
-343.4817
 20
-143.6333
 10
-343.35
 20
-143.4759
 10
-343.2119
 20
-143.3264
 10
-343.0676
 20
-143.1848
 10
-342.9168
 20
-143.0512
 10
-342.7596
 20
-142.9256
 10
-342.5958
 20
-142.808
 10
-342.4256
 20
-142.6984
 10
-342.2488
 20
-142.5968
 10
-342.0646
 20
-142.5044
 10
-341.872
 20
-142.4242
 10
-341.6711
 20
-142.3561
 10
-341.4619
 20
-142.3001
 10
-341.2442
 20
-142.2563
 10
-341.0181
 20
-142.2246
 10
-340.7836
 20
-142.2051
 10
-340.5405
 20
-142.1978
 10
-340.2977
 20
-142.2029
 10
-340.063
 20
-142.2205
 10
-339.8365
 20
-142.2508
 10
-339.6182
 20
-142.2937
 10
-339.408
 20
-142.3492
 10
-339.2062
 20
-142.4173
 10
-339.0127
 20
-142.498
 10
-338.8275
 20
-142.5913
  0
LWPOLYLINE
  5
10A
330
1F
100
AcDbEntity
  8
Layer 1
 62
     7
370
     9
100
AcDbPolyline
 90
       65
 70
     1
 43
0.0
 10
-340.3267
 20
-158.9308
 10
-339.4657
 20
-158.8765
 10
-338.6602
 20
-158.7234
 10
-337.9103
 20
-158.4716
 10
-337.2159
 20
-158.1209
 10
-336.5771
 20
-157.6714
 10
-335.9939
 20
-157.1231
 10
-335.4662
 20
-156.476
 10
-334.994
 20
-155.7301
 10
-334.6626
 20
-155.0792
 10
-334.3764
 20
-154.3926
 10
-334.1352
 20
-153.6704
 10
-333.939
 20
-152.9124
 10
-333.7877
 20
-152.1186
 10
-333.6814
 20
-151.2891
 10
-333.62
 20
-150.4239
 10
-333.6034
 20
-149.5229
 10
-333.6319
 20
-148.6225
 10
-333.7047
 20
-147.7583
 10
-333.822
 20
-146.9303
 10
-333.9838
 20
-146.1386
 10
-334.1901
 20
-145.3831
 10
-334.4409
 20
-144.6638
 10
-334.7363
 20
-143.9808
 10
-335.0764
 20
-143.3341
 10
-335.5582
 20
-142.593
 10
-336.0944
 20
-141.9513
 10
-336.6848
 20
-141.409
 10
-337.3296
 20
-140.9662
 10
-338.0285
 20
-140.6229
 10
-338.7818
 20
-140.379
 10
-339.5892
 20
-140.2347
 10
-340.4509
 20
-140.1898
 10
-341.3115
 20
-140.2441
 10
-342.1167
 20
-140.3972
 10
-342.8665
 20
-140.6491
 10
-343.5608
 20
-140.9999
 10
-344.1997
 20
-141.4495
 10
-344.7831
 20
-141.9979
 10
-345.3111
 20
-142.6453
 10
-345.7837
 20
-143.3915
 10
-346.1147
 20
-144.0421
 10
-346.4007
 20
-144.7285
 10
-346.6419
 20
-145.4508
 10
-346.8381
 20
-146.2088
 10
-346.9893
 20
-147.0025
 10
-347.0955
 20
-147.8319
 10
-347.1568
 20
-148.697
 10
-347.173
 20
-149.5977
 10
-347.1449
 20
-150.4981
 10
-347.0723
 20
-151.3623
 10
-346.9551
 20
-152.1903
 10
-346.7934
 20
-152.9822
 10
-346.5873
 20
-153.7378
 10
-346.3367
 20
-154.4573
 10
-346.0418
 20
-155.1405
 10
-345.7024
 20
-155.7876
 10
-345.2198
 20
-156.5287
 10
-344.683
 20
-157.1702
 10
-344.0922
 20
-157.7123
 10
-343.4473
 20
-158.1549
 10
-342.7483
 20
-158.498
 10
-341.9952
 20
-158.7417
 10
-341.188
 20
-158.886
 10
-340.3267
 20
-158.9308
  0
LWPOLYLINE
  5
10B
330
1F
100
AcDbEntity
  8
Layer 1
 62
     7
370
     9
100
AcDbPolyline
 90
       73
 70
     1
 43
0.0
 10
-324.5376
 20
-148.6718
 10
-324.0669
 20
-148.689
 10
-323.6136
 20
-148.7454
 10
-323.1775
 20
-148.8412
 10
-322.7587
 20
-148.9763
 10
-322.357
 20
-149.1508
 10
-321.9725
 20
-149.3647
 10
-321.6051
 20
-149.6181
 10
-321.2548
 20
-149.911
 10
-320.938
 20
-150.2284
 10
-320.6632
 20
-150.561
 10
-320.4303
 20
-150.9088
 10
-320.2394
 20
-151.2718
 10
-320.0903
 20
-151.65
 10
-319.9831
 20
-152.0435
 10
-319.9177
 20
-152.4523
 10
-319.8941
 20
-152.8764
 10
-319.9122
 20
-153.2911
 10
-319.9729
 20
-153.6918
 10
-320.0762
 20
-154.0785
 10
-320.222
 20
-154.4513
 10
-320.4104
 20
-154.81
 10
-320.6413
 20
-155.1547
 10
-320.9148
 20
-155.4852
 10
-321.2309
 20
-155.8017
 10
-321.5705
 20
-156.0862
 10
-321.9297
 20
-156.333
 10
-322.3087
 20
-156.5421
 10
-322.7073
 20
-156.7137
 10
-323.1255
 20
-156.8477
 10
-323.5634
 20
-156.9442
 10
-324.021
 20
-157.0031
 10
-324.4981
 20
-157.0247
 10
-324.9657
 20
-157.0077
 10
-325.418
 20
-156.9517
 10
-325.855
 20
-156.8568
 10
-326.2766
 20
-156.7229
 10
-326.6829
 20
-156.55
 10
-327.0738
 20
-156.3382
 10
-327.4494
 20
-156.0873
 10
-327.8096
 20
-155.7974
 10
-328.1366
 20
-155.4837
 10
-328.4204
 20
-155.1542
 10
-328.661
 20
-154.8089
 10
-328.8585
 20
-154.4478
 10
-329.0127
 20
-154.0709
 10
-329.1236
 20
-153.6783
 10
-329.1913
 20
-153.27
 10
-329.2156
 20
-152.8461
 10
-329.1966
 20
-152.424
 10
-329.1343
 20
-152.0181
 10
-329.0285
 20
-151.6283
 10
-328.8794
 20
-151.2546
 10
-328.6867
 20
-150.897
 10
-328.4506
 20
-150.5555
 10
-328.171
 20
-150.2301
 10
-327.8478
 20
-149.9208
 10
-327.6833
 20
-149.7829
 10
-327.5123
 20
-149.652
 10
-327.3348
 20
-149.5283
 10
-327.1508
 20
-149.4116
 10
-326.9603
 20
-149.302
 10
-326.7633
 20
-149.1995
 10
-326.5598
 20
-149.104
 10
-326.3498
 20
-149.0155
 10
-326.1349
 20
-148.9358
 10
-325.9166
 20
-148.8667
 10
-325.695
 20
-148.808
 10
-325.4701
 20
-148.7599
 10
-325.2419
 20
-148.7222
 10
-325.0104
 20
-148.695
 10
-324.7756
 20
-148.6782
 10
-324.5376
 20
-148.6718
  0
LWPOLYLINE
  5
10C
330
1F
100
AcDbEntity
  8
Layer 1
 62
     7
370
     9
100
AcDbPolyline
 90
       69
 70
     1
 43
0.0
 10
-317.7988
 20
-152.7311
 10
-317.8355
 20
-152.0865
 10
-317.9365
 20
-151.4717
 10
-318.1019
 20
-150.8865
 10
-318.3316
 20
-150.3311
 10
-318.6256
 20
-149.8052
 10
-318.9838
 20
-149.3089
 10
-319.4062
 20
-148.8422
 10
-319.8929
 20
-148.405
 10
-320.3903
 20
-148.0372
 10
-320.9219
 20
-147.7152
 10
-321.4878
 20
-147.4391
 10
-322.088
 20
-147.2087
 10
-322.7224
 20
-147.0241
 10
-323.3912
 20
-146.8854
 10
-324.0941
 20
-146.7924
 10
-324.8314
 20
-146.7451
 10
-325.4192
 20
-147.0964
 10
-319.3267
 20
-140.3697
 10
-322.0408
 20
-140.3838
 10
-329.8309
 20
-149.0209
 10
-330.1805
 20
-149.4416
 10
-330.4831
 20
-149.879
 10
-330.7387
 20
-150.3333
 10
-330.9471
 20
-150.8045
 10
-331.1085
 20
-151.2925
 10
-331.2227
 20
-151.7974
 10
-331.2898
 20
-152.3192
 10
-331.3098
 20
-152.858
 10
-331.275
 20
-153.4786
 10
-331.1785
 20
-154.0749
 10
-331.0204
 20
-154.647
 10
-330.8007
 20
-155.195
 10
-330.5194
 20
-155.7186
 10
-330.1763
 20
-156.218
 10
-329.7716
 20
-156.6931
 10
-329.3052
 20
-157.144
 10
-328.7925
 20
-157.5585
 10
-328.255
 20
-157.9173
 10
-327.6929
 20
-158.2204
 10
-327.1061
 20
-158.4677
 10
-326.4948
 20
-158.6593
 10
-325.8589
 20
-158.7951
 10
-325.1985
 20
-158.8751
 10
-324.5137
 20
-158.8994
 10
-323.8199
 20
-158.8678
 10
-323.1541
 20
-158.7812
 10
-322.5163
 20
-158.6396
 10
-321.9065
 20
-158.443
 10
-321.3247
 20
-158.1914
 10
-320.7708
 20
-157.8847
 10
-320.245
 20
-157.5229
 10
-319.7472
 20
-157.106
 10
-319.5261
 20
-156.8929
 10
-319.3169
 20
-156.6717
 10
-319.1198
 20
-156.4423
 10
-318.9347
 20
-156.2046
 10
-318.7616
 20
-155.9587
 10
-318.6006
 20
-155.7044
 10
-318.4517
 20
-155.4417
 10
-318.3148
 20
-155.1707
 10
-318.1922
 20
-154.8917
 10
-318.0862
 20
-154.6054
 10
-317.9967
 20
-154.3115
 10
-317.9238
 20
-154.0103
 10
-317.8675
 20
-153.7016
 10
-317.8278
 20
-153.3856
 10
-317.8049
 20
-153.062
 10
-317.7988
 20
-152.7311
  0
LWPOLYLINE
  5
10D
330
1F
100
AcDbEntity
  8
Layer 1
 62
     7
370
     9
100
AcDbPolyline
 90
      165
 70
     1
 43
0.0
 10
-298.2932
 20
-158.4082
 10
-296.2277
 20
-158.3974
 10
-296.2755
 20
-151.0343
 10
-296.2958
 20
-150.5454
 10
-296.3496
 20
-150.0798
 10
-296.4368
 20
-149.6375
 10
-296.5574
 20
-149.2183
 10
-296.7114
 20
-148.8224
 10
-296.8987
 20
-148.4498
 10
-297.1194
 20
-148.1003
 10
-297.3733
 20
-147.774
 10
-297.5156
 20
-147.6179
 10
-297.6665
 20
-147.4698
 10
-297.8261
 20
-147.3298
 10
-297.9942
 20
-147.1979
 10
-298.171
 20
-147.0739
 10
-298.3564
 20
-146.9578
 10
-298.5504
 20
-146.8497
 10
-298.7531
 20
-146.7494
 10
-298.9687
 20
-146.6599
 10
-299.2007
 20
-146.5825
 10
-299.449
 20
-146.5172
 10
-299.7139
 20
-146.4641
 10
-299.9951
 20
-146.4231
 10
-300.2929
 20
-146.3943
 10
-300.6072
 20
-146.3777
 10
-300.9381
 20
-146.3732
 10
-301.2719
 20
-146.3856
 10
-301.595
 20
-146.4189
 10
-301.9075
 20
-146.4731
 10
-302.2093
 20
-146.548
 10
-302.5004
 20
-146.6438
 10
-302.7808
 20
-146.7604
 10
-303.0505
 20
-146.8979
 10
-303.3094
 20
-147.0562
 10
-303.5333
 20
-147.2138
 10
-303.747
 20
-147.383
 10
-303.9507
 20
-147.5637
 10
-304.1444
 20
-147.7557
 10
-304.3279
 20
-147.959
 10
-304.5014
 20
-148.1734
 10
-304.6648
 20
-148.3988
 10
-304.8181
 20
-148.6349
 10
-304.9388
 20
-148.4187
 10
-305.0711
 20
-148.2099
 10
-305.2146
 20
-148.0092
 10
-305.3689
 20
-147.8174
 10
-305.5108
 20
-147.6616
 10
-305.6614
 20
-147.5137
 10
-305.8207
 20
-147.3738
 10
-305.9887
 20
-147.2418
 10
-306.1654
 20
-147.1178
 10
-306.3507
 20
-147.0018
 10
-306.5448
 20
-146.8938
 10
-306.7474
 20
-146.7939
 10
-306.9627
 20
-146.704
 10
-307.1945
 20
-146.6264
 10
-307.4428
 20
-146.561
 10
-307.7078
 20
-146.5078
 10
-307.9892
 20
-146.4668
 10
-308.2871
 20
-146.4381
 10
-308.6015
 20
-146.4217
 10
-308.9324
 20
-146.4176
 10
-309.2662
 20
-146.4297
 10
-309.5893
 20
-146.4628
 10
-309.9017
 20
-146.5167
 10
-310.2034
 20
-146.5915
 10
-310.4944
 20
-146.6873
 10
-310.7746
 20
-146.8039
 10
-311.044
 20
-146.9413
 10
-311.3025
 20
-147.0996
 10
-311.5165
 20
-147.2498
 10
-311.7211
 20
-147.4099
 10
-311.9165
 20
-147.5802
 10
-312.1025
 20
-147.7606
 10
-312.2791
 20
-147.9512
 10
-312.4463
 20
-148.1521
 10
-312.6042
 20
-148.3634
 10
-312.7527
 20
-148.585
 10
-312.7659
 20
-146.706
 10
-314.8314
 20
-146.7169
 10
-314.7525
 20
-158.4982
 10
-312.687
 20
-158.4874
 10
-312.7276
 20
-152.4579
 10
-312.6821
 20
-152.1065
 10
-312.6219
 20
-151.7688
 10
-312.5468
 20
-151.4445
 10
-312.4568
 20
-151.1337
 10
-312.3519
 20
-150.836
 10
-312.2321
 20
-150.5516
 10
-312.0973
 20
-150.2801
 10
-311.9476
 20
-150.0216
 10
-311.8256
 20
-149.8376
 10
-311.6934
 20
-149.6619
 10
-311.551
 20
-149.4946
 10
-311.3985
 20
-149.3357
 10
-311.2359
 20
-149.185
 10
-311.0631
 20
-149.0426
 10
-310.8803
 20
-148.9084
 10
-310.6873
 20
-148.7823
 10
-310.487
 20
-148.6686
 10
-310.2829
 20
-148.5699
 10
-310.0752
 20
-148.4861
 10
-309.8637
 20
-148.4173
 10
-309.6485
 20
-148.3636
 10
-309.4295
 20
-148.3248
 10
-309.2067
 20
-148.301
 10
-308.9802
 20
-148.2923
 10
-308.7587
 20
-148.2951
 10
-308.5519
 20
-148.3059
 10
-308.3599
 20
-148.3247
 10
-308.1826
 20
-148.3515
 10
-308.0201
 20
-148.3863
 10
-307.8723
 20
-148.429
 10
-307.7391
 20
-148.4797
 10
-307.6207
 20
-148.5384
 10
-307.3223
 20
-148.7366
 10
-307.0632
 20
-148.9692
 10
-306.8435
 20
-149.2363
 10
-306.6631
 20
-149.5379
 10
-306.5221
 20
-149.874
 10
-306.4204
 20
-150.2447
 10
-306.3582
 20
-150.6499
 10
-306.3353
 20
-151.0896
 10
-306.2875
 20
-158.4516
 10
-304.222
 20
-158.4407
 10
-304.2698
 20
-151.0777
 10
-304.2889
 20
-150.6266
 10
-304.213
 20
-150.4558
 10
-304.1319
 20
-150.2911
 10
-304.0453
 20
-150.132
 10
-303.9532
 20
-149.9783
 10
-303.8312
 20
-149.7943
 10
-303.699
 20
-149.6186
 10
-303.5567
 20
-149.4513
 10
-303.4042
 20
-149.2924
 10
-303.2416
 20
-149.1417
 10
-303.0688
 20
-148.9993
 10
-302.8859
 20
-148.8651
 10
-302.6929
 20
-148.739
 10
-302.4926
 20
-148.6253
 10
-302.2886
 20
-148.5266
 10
-302.0808
 20
-148.4428
 10
-301.8692
 20
-148.374
 10
-301.6539
 20
-148.3202
 10
-301.4347
 20
-148.2814
 10
-301.2116
 20
-148.2577
 10
-300.9846
 20
-148.2489
 10
-300.7634
 20
-148.2517
 10
-300.5569
 20
-148.2624
 10
-300.365
 20
-148.2811
 10
-300.1878
 20
-148.3078
 10
-300.0254
 20
-148.3425
 10
-299.8779
 20
-148.3852
 10
-299.7453
 20
-148.4361
 10
-299.6276
 20
-148.495
 10
-299.3288
 20
-148.6932
 10
-299.0694
 20
-148.9258
 10
-298.8494
 20
-149.1929
 10
-298.6689
 20
-149.4944
 10
-298.5278
 20
-149.8304
 10
-298.4261
 20
-150.2009
 10
-298.3638
 20
-150.6058
 10
-298.341
 20
-151.0452
 10
-298.2932
 20
-158.4082
  0
LWPOLYLINE
  5
10E
330
1F
100
AcDbEntity
  8
Layer 1
 62
     7
370
     9
100
AcDbPolyline
 90
      165
 70
     1
 43
0.0
 10
-275.7844
 20
-158.2857
 10
-273.7189
 20
-158.2749
 10
-273.7679
 20
-150.9118
 10
-273.7878
 20
-150.4229
 10
-273.8413
 20
-149.9573
 10
-273.9283
 20
-149.515
 10
-274.0489
 20
-149.0958
 10
-274.2029
 20
-148.6999
 10
-274.3904
 20
-148.3273
 10
-274.6114
 20
-147.9778
 10
-274.8657
 20
-147.6515
 10
-275.0076
 20
-147.4954
 10
-275.1582
 20
-147.3473
 10
-275.3176
 20
-147.2074
 10
-275.4856
 20
-147.0755
 10
-275.6623
 20
-146.9516
 10
-275.8476
 20
-146.8358
 10
-276.0417
 20
-146.7279
 10
-276.2443
 20
-146.628
 10
-276.4599
 20
-146.5381
 10
-276.6921
 20
-146.4605
 10
-276.9406
 20
-146.395
 10
-277.2057
 20
-146.3417
 10
-277.4871
 20
-146.3007
 10
-277.7851
 20
-146.2718
 10
-278.0995
 20
-146.2552
 10
-278.4304
 20
-146.2507
 10
-278.7641
 20
-146.2631
 10
-279.0872
 20
-146.2964
 10
-279.3994
 20
-146.3506
 10
-279.701
 20
-146.4255
 10
-279.9919
 20
-146.5213
 10
-280.2721
 20
-146.6379
 10
-280.5416
 20
-146.7754
 10
-280.8005
 20
-146.9337
 10
-281.0248
 20
-147.0912
 10
-281.2389
 20
-147.2604
 10
-281.4428
 20
-147.4411
 10
-281.6365
 20
-147.6332
 10
-281.82
 20
-147.8365
 10
-281.9933
 20
-148.0509
 10
-282.1564
 20
-148.2762
 10
-282.3093
 20
-148.5124
 10
-282.4305
 20
-148.2962
 10
-282.5629
 20
-148.0873
 10
-282.7064
 20
-147.8866
 10
-282.8612
 20
-147.6949
 10
-283.0027
 20
-147.5391
 10
-283.153
 20
-147.3912
 10
-283.3122
 20
-147.2512
 10
-283.48
 20
-147.1193
 10
-283.6566
 20
-146.9953
 10
-283.842
 20
-146.8793
 10
-284.036
 20
-146.7713
 10
-284.2386
 20
-146.6713
 10
-284.4542
 20
-146.5815
 10
-284.6862
 20
-146.5038
 10
-284.9345
 20
-146.4384
 10
-285.1994
 20
-146.3853
 10
-285.4806
 20
-146.3443
 10
-285.7784
 20
-146.3156
 10
-286.0927
 20
-146.2992
 10
-286.4236
 20
-146.2951
 10
-286.7574
 20
-146.3072
 10
-287.0805
 20
-146.3402
 10
-287.393
 20
-146.3942
 10
-287.6948
 20
-146.4691
 10
-287.9859
 20
-146.565
 10
-288.2662
 20
-146.6818
 10
-288.5359
 20
-146.8195
 10
-288.7948
 20
-146.9782
 10
-289.0087
 20
-147.128
 10
-289.2133
 20
-147.2879
 10
-289.4085
 20
-147.4579
 10
-289.5943
 20
-147.6382
 10
-289.7709
 20
-147.8288
 10
-289.9382
 20
-148.0296
 10
-290.0962
 20
-148.2409
 10
-290.2451
 20
-148.4625
 10
-290.2571
 20
-146.5835
 10
-292.3225
 20
-146.5944
 10
-292.2449
 20
-158.3757
 10
-290.1794
 20
-158.3648
 10
-290.2188
 20
-152.3354
 10
-290.1733
 20
-151.984
 10
-290.1131
 20
-151.6463
 10
-290.038
 20
-151.322
 10
-289.9481
 20
-151.0111
 10
-289.8434
 20
-150.7135
 10
-289.7238
 20
-150.429
 10
-289.5893
 20
-150.1576
 10
-289.4399
 20
-149.8991
 10
-289.3176
 20
-149.7151
 10
-289.1852
 20
-149.5394
 10
-289.0428
 20
-149.3721
 10
-288.8903
 20
-149.2132
 10
-288.7276
 20
-149.0625
 10
-288.5548
 20
-148.9201
 10
-288.3717
 20
-148.7859
 10
-288.1784
 20
-148.6598
 10
-287.9781
 20
-148.5461
 10
-287.7741
 20
-148.4474
 10
-287.5664
 20
-148.3636
 10
-287.3549
 20
-148.2948
 10
-287.1397
 20
-148.2411
 10
-286.9207
 20
-148.2023
 10
-286.6979
 20
-148.1785
 10
-286.4713
 20
-148.1698
 10
-286.2498
 20
-148.1726
 10
-286.0432
 20
-148.1834
 10
-285.8514
 20
-148.2022
 10
-285.6744
 20
-148.229
 10
-285.5121
 20
-148.2638
 10
-285.3644
 20
-148.3065
 10
-285.2315
 20
-148.3572
 10
-285.1131
 20
-148.4159
 10
-284.8143
 20
-148.6141
 10
-284.5549
 20
-148.8467
 10
-284.335
 20
-149.1138
 10
-284.1545
 20
-149.4154
 10
-284.0136
 20
-149.7515
 10
-283.9121
 20
-150.1222
 10
-283.8501
 20
-150.5274
 10
-283.8277
 20
-150.9671
 10
-283.7787
 20
-158.3302
 10
-281.7132
 20
-158.3182
 10
-281.7622
 20
-150.9552
 10
-281.7801
 20
-150.5041
 10
-281.7043
 20
-150.3333
 10
-281.6236
 20
-150.1685
 10
-281.5375
 20
-150.0095
 10
-281.4456
 20
-149.8557
 10
-281.3232
 20
-149.6717
 10
-281.1909
 20
-149.496
 10
-281.0485
 20
-149.3288
 10
-280.8961
 20
-149.1698
 10
-280.7336
 20
-149.0191
 10
-280.561
 20
-148.8767
 10
-280.3782
 20
-148.7425
 10
-280.1853
 20
-148.6165
 10
-279.9846
 20
-148.5028
 10
-279.7803
 20
-148.4041
 10
-279.5723
 20
-148.3203
 10
-279.3606
 20
-148.2515
 10
-279.1451
 20
-148.1977
 10
-278.9259
 20
-148.1589
 10
-278.7028
 20
-148.1351
 10
-278.4758
 20
-148.1264
 10
-278.2547
 20
-148.1291
 10
-278.0482
 20
-148.1398
 10
-277.8565
 20
-148.1585
 10
-277.6795
 20
-148.1852
 10
-277.5171
 20
-148.2199
 10
-277.3696
 20
-148.2627
 10
-277.2368
 20
-148.3136
 10
-277.1187
 20
-148.3725
 10
-276.8199
 20
-148.5707
 10
-276.5606
 20
-148.8033
 10
-276.3407
 20
-149.0704
 10
-276.1602
 20
-149.372
 10
-276.0192
 20
-149.7081
 10
-275.9177
 20
-150.0788
 10
-275.8558
 20
-150.484
 10
-275.8333
 20
-150.9237
 10
-275.7844
 20
-158.2857
  0
LWPOLYLINE
  5
10F
330
1F
100
AcDbEntity
  8
Layer 1
 62
     7
370
     9
100
AcDbPolyline
 90
        7
 70
     1
 43
0.0
 10
-346.209
 20
-222.2764
 10
-337.5086
 20
-204.1024
 10
-350.1046
 20
-204.1707
 10
-350.0926
 20
-206.0453
 10
-340.7114
 20
-205.9944
 10
-348.5098
 20
-222.2883
 10
-346.209
 20
-222.2764
  0
LWPOLYLINE
  5
110
330
1F
100
AcDbEntity
  8
Layer 1
 62
     7
370
     9
100
AcDbPolyline
 90
      125
 70
     1
 43
0.0
 10
-326.566
 20
-206.0778
 10
-326.224
 20
-206.2857
 10
-325.9048
 20
-206.5222
 10
-325.6085
 20
-206.7874
 10
-325.3351
 20
-207.0812
 10
-325.0846
 20
-207.4036
 10
-324.857
 20
-207.7546
 10
-324.6524
 20
-208.1341
 10
-324.4707
 20
-208.5423
 10
-324.2667
 20
-209.0839
 10
-324.0893
 20
-209.6338
 10
-323.9384
 20
-210.1917
 10
-323.8142
 20
-210.7578
 10
-323.7167
 20
-211.332
 10
-323.6458
 20
-211.9142
 10
-323.6017
 20
-212.5044
 10
-323.5843
 20
-213.1026
 10
-323.5879
 20
-213.3966
 10
-323.6024
 20
-213.7156
 10
-323.6278
 20
-214.0597
 10
-323.6643
 20
-214.4286
 10
-323.7617
 20
-215.1488
 10
-323.8907
 20
-215.8295
 10
-324.0514
 20
-216.4707
 10
-324.2438
 20
-217.0723
 10
-324.4678
 20
-217.6344
 10
-324.7235
 20
-218.1569
 10
-325.0107
 20
-218.6399
 10
-325.3296
 20
-219.0833
 10
-325.6211
 20
-219.4174
 10
-325.9286
 20
-219.7072
 10
-326.2519
 20
-219.9528
 10
-326.5911
 20
-220.1542
 10
-326.9462
 20
-220.3114
 10
-327.3173
 20
-220.4244
 10
-327.7042
 20
-220.4932
 10
-328.107
 20
-220.5177
 10
-328.5573
 20
-220.4981
 10
-328.9864
 20
-220.4346
 10
-329.3941
 20
-220.327
 10
-329.7804
 20
-220.1754
 10
-330.1453
 20
-219.9798
 10
-330.4889
 20
-219.7401
 10
-330.8109
 20
-219.4565
 10
-331.1115
 20
-219.1288
 10
-331.2387
 20
-218.9694
 10
-331.3605
 20
-218.805
 10
-331.4769
 20
-218.6356
 10
-331.5878
 20
-218.4612
 10
-331.6933
 20
-218.2819
 10
-331.7932
 20
-218.0975
 10
-331.8876
 20
-217.9082
 10
-331.9764
 20
-217.7139
 10
-332.0599
 20
-217.5161
 10
-332.1384
 20
-217.3171
 10
-332.2118
 20
-217.1168
 10
-332.2802
 20
-216.9154
 10
-332.3435
 20
-216.7127
 10
-332.4018
 20
-216.5088
 10
-332.455
 20
-216.3036
 10
-332.5032
 20
-216.0973
 10
-332.5473
 20
-215.8905
 10
-332.5881
 20
-215.6855
 10
-332.6257
 20
-215.4824
 10
-332.66
 20
-215.281
 10
-332.6911
 20
-215.0813
 10
-332.7189
 20
-214.8831
 10
-332.7435
 20
-214.6866
 10
-332.7648
 20
-214.4915
 10
-332.7834
 20
-214.2938
 10
-332.7998
 20
-214.0885
 10
-332.8139
 20
-213.8757
 10
-332.8258
 20
-213.6555
 10
-332.8354
 20
-213.4281
 10
-332.8428
 20
-213.1933
 10
-332.8479
 20
-212.9515
 10
-332.8508
 20
-212.7025
 10
-332.8472
 20
-212.4421
 10
-332.8336
 20
-212.1667
 10
-332.81
 20
-211.8762
 10
-332.7765
 20
-211.5705
 10
-332.733
 20
-211.2494
 10
-332.6795
 20
-210.913
 10
-332.616
 20
-210.5611
 10
-332.5426
 20
-210.1936
 10
-332.4973
 20
-209.9893
 10
-332.4474
 20
-209.7854
 10
-332.3929
 20
-209.5819
 10
-332.3337
 20
-209.3788
 10
-332.2699
 20
-209.1761
 10
-332.2015
 20
-208.9738
 10
-332.1283
 20
-208.772
 10
-332.0505
 20
-208.5705
 10
-331.9678
 20
-208.3717
 10
-331.8791
 20
-208.1779
 10
-331.7844
 20
-207.9891
 10
-331.6837
 20
-207.8053
 10
-331.577
 20
-207.6264
 10
-331.4642
 20
-207.4526
 10
-331.3453
 20
-207.2837
 10
-331.2202
 20
-207.1198
 10
-331.0889
 20
-206.9624
 10
-330.9511
 20
-206.8129
 10
-330.8069
 20
-206.6713
 10
-330.6562
 20
-206.5377
 10
-330.4989
 20
-206.4121
 10
-330.3351
 20
-206.2945
 10
-330.1646
 20
-206.1849
 10
-329.9874
 20
-206.0833
 10
-329.8035
 20
-205.991
 10
-329.6111
 20
-205.9109
 10
-329.4102
 20
-205.8429
 10
-329.2009
 20
-205.787
 10
-328.9831
 20
-205.7432
 10
-328.7568
 20
-205.7116
 10
-328.5222
 20
-205.6919
 10
-328.2791
 20
-205.6843
 10
-328.0363
 20
-205.6894
 10
-327.8017
 20
-205.707
 10
-327.5753
 20
-205.7373
 10
-327.3571
 20
-205.7802
 10
-327.1471
 20
-205.8357
 10
-326.9452
 20
-205.9038
 10
-326.7515
 20
-205.9845
 10
-326.566
 20
-206.0778
  0
LWPOLYLINE
  5
111
330
1F
100
AcDbEntity
  8
Layer 1
 62
     7
370
     9
100
AcDbPolyline
 90
       65
 70
     1
 43
0.0
 10
-328.0664
 20
-222.4173
 10
-327.2054
 20
-222.3634
 10
-326.3999
 20
-222.2106
 10
-325.6499
 20
-221.9588
 10
-324.9555
 20
-221.6082
 10
-324.3165
 20
-221.1587
 10
-323.7331
 20
-220.6102
 10
-323.205
 20
-219.9629
 10
-322.7325
 20
-219.2166
 10
-322.4015
 20
-218.5658
 10
-322.1154
 20
-217.8793
 10
-321.8743
 20
-217.1572
 10
-321.6781
 20
-216.3994
 10
-321.5269
 20
-215.6058
 10
-321.4207
 20
-214.7765
 10
-321.3594
 20
-213.9114
 10
-321.3432
 20
-213.0105
 10
-321.3713
 20
-212.1101
 10
-321.444
 20
-211.2457
 10
-321.5612
 20
-210.4176
 10
-321.7229
 20
-209.6256
 10
-321.9292
 20
-208.8699
 10
-322.1799
 20
-208.1504
 10
-322.4752
 20
-207.4673
 10
-322.8149
 20
-206.8205
 10
-323.2972
 20
-206.0794
 10
-323.8336
 20
-205.4377
 10
-324.4243
 20
-204.8955
 10
-325.069
 20
-204.4527
 10
-325.768
 20
-204.1094
 10
-326.521
 20
-203.8655
 10
-327.3282
 20
-203.7211
 10
-328.1895
 20
-203.6763
 10
-329.0502
 20
-203.7306
 10
-329.8555
 20
-203.8838
 10
-330.6054
 20
-204.1359
 10
-331.3
 20
-204.4869
 10
-331.9391
 20
-204.9367
 10
-332.5227
 20
-205.4853
 10
-333.0508
 20
-206.1328
 10
-333.5234
 20
-206.8791
 10
-333.8544
 20
-207.5293
 10
-334.1403
 20
-208.2155
 10
-334.3813
 20
-208.9375
 10
-334.5774
 20
-209.6954
 10
-334.7285
 20
-210.4891
 10
-334.8348
 20
-211.3184
 10
-334.8961
 20
-212.1835
 10
-334.9127
 20
-213.0842
 10
-334.8843
 20
-213.9849
 10
-334.8114
 20
-214.8493
 10
-334.6942
 20
-215.6773
 10
-334.5325
 20
-216.4691
 10
-334.3264
 20
-217.2246
 10
-334.0758
 20
-217.9439
 10
-333.7807
 20
-218.6271
 10
-333.441
 20
-219.2741
 10
-332.9588
 20
-220.0151
 10
-332.4223
 20
-220.6567
 10
-331.8317
 20
-221.1988
 10
-331.1869
 20
-221.6414
 10
-330.488
 20
-221.9845
 10
-329.7349
 20
-222.2282
 10
-328.9277
 20
-222.3725
 10
-328.0664
 20
-222.4173
  0
LWPOLYLINE
  5
112
330
1F
100
AcDbEntity
  8
Layer 1
 62
     7
370
     9
100
AcDbPolyline
 90
      162
 70
     1
 43
0.0
 10
-301.1352
 20
-221.9771
 10
-299.0697
 20
-221.9663
 10
-299.1187
 20
-214.6032
 10
-299.1386
 20
-214.1143
 10
-299.1921
 20
-213.6487
 10
-299.2791
 20
-213.2064
 10
-299.3997
 20
-212.7872
 10
-299.5537
 20
-212.3913
 10
-299.7412
 20
-212.0187
 10
-299.9622
 20
-211.6692
 10
-300.2165
 20
-211.3429
 10
-300.3584
 20
-211.1868
 10
-300.509
 20
-211.0387
 10
-300.6684
 20
-210.8987
 10
-300.8364
 20
-210.7668
 10
-301.0131
 20
-210.6428
 10
-301.1984
 20
-210.5267
 10
-301.3925
 20
-210.4186
 10
-301.5951
 20
-210.3183
 10
-301.8107
 20
-210.2288
 10
-302.0427
 20
-210.1514
 10
-302.291
 20
-210.0861
 10
-302.5559
 20
-210.033
 10
-302.8371
 20
-209.992
 10
-303.1349
 20
-209.9632
 10
-303.4492
 20
-209.9466
 10
-303.78
 20
-209.9421
 10
-304.1138
 20
-209.9545
 10
-304.4369
 20
-209.9878
 10
-304.7494
 20
-210.042
 10
-305.0512
 20
-210.1169
 10
-305.3423
 20
-210.2127
 10
-305.6227
 20
-210.3293
 10
-305.8924
 20
-210.4668
 10
-306.1513
 20
-210.6251
 10
-306.3752
 20
-210.7827
 10
-306.5892
 20
-210.9518
 10
-306.793
 20
-211.1325
 10
-306.9868
 20
-211.3246
 10
-307.1704
 20
-211.5279
 10
-307.3439
 20
-211.7423
 10
-307.5071
 20
-211.9676
 10
-307.6601
 20
-212.2038
 10
-307.7813
 20
-211.9876
 10
-307.9137
 20
-211.7787
 10
-308.0572
 20
-211.578
 10
-308.212
 20
-211.3863
 10
-308.3535
 20
-211.2302
 10
-308.5038
 20
-211.0821
 10
-308.663
 20
-210.9422
 10
-308.8308
 20
-210.8103
 10
-309.0074
 20
-210.6864
 10
-309.1928
 20
-210.5706
 10
-309.3868
 20
-210.4627
 10
-309.5894
 20
-210.3628
 10
-309.805
 20
-210.2729
 10
-310.037
 20
-210.1953
 10
-310.2853
 20
-210.1298
 10
-310.5502
 20
-210.0765
 10
-310.8314
 20
-210.0354
 10
-311.1292
 20
-210.0066
 10
-311.4435
 20
-209.9899
 10
-311.7744
 20
-209.9854
 10
-312.1082
 20
-209.9979
 10
-312.4313
 20
-210.0312
 10
-312.7438
 20
-210.0853
 10
-313.0456
 20
-210.1603
 10
-313.3367
 20
-210.2561
 10
-313.6171
 20
-210.3727
 10
-313.8868
 20
-210.5102
 10
-314.1457
 20
-210.6685
 10
-314.3592
 20
-210.8187
 10
-314.5636
 20
-210.9788
 10
-314.7587
 20
-211.1491
 10
-314.9445
 20
-211.3295
 10
-315.1211
 20
-211.5201
 10
-315.2883
 20
-211.721
 10
-315.4462
 20
-211.9323
 10
-315.5947
 20
-212.1539
 10
-315.6079
 20
-210.2749
 10
-317.6733
 20
-210.2858
 10
-317.5957
 20
-222.0671
 10
-315.5302
 20
-222.0563
 10
-315.5696
 20
-216.0268
 10
-315.5241
 20
-215.6754
 10
-315.4639
 20
-215.3377
 10
-315.3888
 20
-215.0134
 10
-315.2988
 20
-214.7026
 10
-315.1939
 20
-214.4049
 10
-315.0741
 20
-214.1205
 10
-314.9393
 20
-213.849
 10
-314.7895
 20
-213.5905
 10
-314.6675
 20
-213.4065
 10
-314.5353
 20
-213.2308
 10
-314.393
 20
-213.0635
 10
-314.2405
 20
-212.9046
 10
-314.0778
 20
-212.7539
 10
-313.905
 20
-212.6115
 10
-313.7222
 20
-212.4773
 10
-313.5292
 20
-212.3512
 10
-313.3289
 20
-212.2375
 10
-313.1249
 20
-212.1388
 10
-312.9172
 20
-212.055
 10
-312.7057
 20
-211.9862
 10
-312.4905
 20
-211.9325
 10
-312.2715
 20
-211.8937
 10
-312.0487
 20
-211.8699
 10
-311.8221
 20
-211.8612
 10
-311.6006
 20
-211.8639
 10
-311.394
 20
-211.8746
 10
-311.2022
 20
-211.8933
 10
-311.0252
 20
-211.92
 10
-310.8629
 20
-211.9547
 10
-310.7152
 20
-211.9975
 10
-310.5823
 20
-212.0483
 10
-310.4639
 20
-212.1073
 10
-310.1651
 20
-212.3055
 10
-309.9057
 20
-212.5381
 10
-309.6857
 20
-212.8052
 10
-309.5052
 20
-213.1068
 10
-309.3641
 20
-213.4429
 10
-309.2624
 20
-213.8136
 10
-309.2001
 20
-214.2188
 10
-309.1773
 20
-214.6585
 10
-309.1295
 20
-222.0205
 10
-307.064
 20
-222.0096
 10
-307.1118
 20
-214.6466
 10
-307.1309
 20
-214.1955
 10
-306.7964
 20
-213.5472
 10
-306.674
 20
-213.3632
 10
-306.5417
 20
-213.1875
 10
-306.3992
 20
-213.0202
 10
-306.2467
 20
-212.8613
 10
-306.0841
 20
-212.7106
 10
-305.9113
 20
-212.5681
 10
-305.7282
 20
-212.4339
 10
-305.5349
 20
-212.3079
 10
-305.3346
 20
-212.1942
 10
-305.1306
 20
-212.0955
 10
-304.9228
 20
-212.0117
 10
-304.7112
 20
-211.9429
 10
-304.4959
 20
-211.8891
 10
-304.2767
 20
-211.8503
 10
-304.0536
 20
-211.8266
 10
-303.8266
 20
-211.8178
 10
-303.6055
 20
-211.8205
 10
-303.399
 20
-211.8312
 10
-303.2073
 20
-211.8499
 10
-303.0303
 20
-211.8766
 10
-302.8679
 20
-211.9113
 10
-302.7204
 20
-211.9541
 10
-302.5876
 20
-212.005
 10
-302.4695
 20
-212.0639
 10
-302.1707
 20
-212.262
 10
-301.9114
 20
-212.4945
 10
-301.6915
 20
-212.7615
 10
-301.511
 20
-213.0629
 10
-301.37
 20
-213.3988
 10
-301.2685
 20
-213.7693
 10
-301.2066
 20
-214.1743
 10
-301.1841
 20
-214.614
 10
-301.1352
 20
-221.9771
  0
LWPOLYLINE
  5
113
330
1F
100
AcDbEntity
  8
Layer 1
 62
     7
370
     9
100
AcDbPolyline
 90
      165
 70
     1
 43
0.0
 10
-278.6263
 20
-221.8546
 10
-276.5609
 20
-221.8438
 10
-276.6098
 20
-214.4807
 10
-276.6297
 20
-213.9918
 10
-276.6832
 20
-213.5262
 10
-276.7703
 20
-213.0839
 10
-276.8909
 20
-212.6647
 10
-277.0449
 20
-212.2688
 10
-277.2324
 20
-211.8962
 10
-277.4533
 20
-211.5467
 10
-277.7077
 20
-211.2204
 10
-277.8496
 20
-211.0643
 10
-278.0002
 20
-210.9162
 10
-278.1596
 20
-210.7762
 10
-278.3277
 20
-210.6442
 10
-278.5045
 20
-210.5202
 10
-278.6901
 20
-210.4042
 10
-278.8845
 20
-210.2961
 10
-279.0875
 20
-210.1958
 10
-279.3027
 20
-210.1063
 10
-279.5346
 20
-210.0289
 10
-279.7829
 20
-209.9636
 10
-280.0478
 20
-209.9105
 10
-280.3292
 20
-209.8695
 10
-280.6271
 20
-209.8407
 10
-280.9415
 20
-209.824
 10
-281.2724
 20
-209.8195
 10
-281.6062
 20
-209.832
 10
-281.9293
 20
-209.8653
 10
-282.2417
 20
-209.9194
 10
-282.5434
 20
-209.9944
 10
-282.8344
 20
-210.0902
 10
-283.1146
 20
-210.2068
 10
-283.384
 20
-210.3443
 10
-283.6425
 20
-210.5026
 10
-283.8668
 20
-210.6601
 10
-284.0808
 20
-210.8293
 10
-284.2847
 20
-211.01
 10
-284.4784
 20
-211.2021
 10
-284.6619
 20
-211.4054
 10
-284.8353
 20
-211.6198
 10
-284.9984
 20
-211.8451
 10
-285.1513
 20
-212.0813
 10
-285.2725
 20
-211.8651
 10
-285.4049
 20
-211.6562
 10
-285.5484
 20
-211.4555
 10
-285.7032
 20
-211.2638
 10
-285.8447
 20
-211.1079
 10
-285.9951
 20
-210.96
 10
-286.1542
 20
-210.8201
 10
-286.3222
 20
-210.6881
 10
-286.4989
 20
-210.5642
 10
-286.6845
 20
-210.4482
 10
-286.8788
 20
-210.3402
 10
-287.0818
 20
-210.2402
 10
-287.297
 20
-210.1504
 10
-287.5289
 20
-210.0727
 10
-287.7772
 20
-210.0073
 10
-288.0421
 20
-209.9542
 10
-288.3235
 20
-209.9132
 10
-288.6214
 20
-209.8845
 10
-288.9358
 20
-209.8681
 10
-289.2667
 20
-209.864
 10
-289.6004
 20
-209.8761
 10
-289.9235
 20
-209.9091
 10
-290.2357
 20
-209.963
 10
-290.5373
 20
-210.0379
 10
-290.8282
 20
-210.1336
 10
-291.1084
 20
-210.2502
 10
-291.3779
 20
-210.3877
 10
-291.6368
 20
-210.546
 10
-291.8507
 20
-210.6962
 10
-292.0553
 20
-210.8563
 10
-292.2505
 20
-211.0266
 10
-292.4363
 20
-211.207
 10
-292.6129
 20
-211.3976
 10
-292.7802
 20
-211.5985
 10
-292.9382
 20
-211.8098
 10
-293.0871
 20
-212.0314
 10
-293.099
 20
-210.1524
 10
-295.1645
 20
-210.1633
 10
-295.0869
 20
-221.9446
 10
-293.0214
 20
-221.9337
 10
-293.0608
 20
-215.9043
 10
-293.0157
 20
-215.5529
 10
-292.9556
 20
-215.2152
 10
-292.8805
 20
-214.8909
 10
-292.7905
 20
-214.58
 10
-292.6856
 20
-214.2824
 10
-292.5659
 20
-213.9979
 10
-292.4313
 20
-213.7265
 10
-292.2819
 20
-213.468
 10
-292.1599
 20
-213.284
 10
-292.0277
 20
-213.1083
 10
-291.8853
 20
-212.941
 10
-291.7328
 20
-212.7821
 10
-291.5702
 20
-212.6314
 10
-291.3974
 20
-212.489
 10
-291.2146
 20
-212.3548
 10
-291.0216
 20
-212.2287
 10
-290.8209
 20
-212.115
 10
-290.6166
 20
-212.0163
 10
-290.4087
 20
-211.9325
 10
-290.197
 20
-211.8637
 10
-289.9817
 20
-211.8099
 10
-289.7627
 20
-211.7711
 10
-289.5399
 20
-211.7474
 10
-289.3133
 20
-211.7386
 10
-289.0918
 20
-211.7414
 10
-288.8852
 20
-211.7521
 10
-288.6934
 20
-211.7708
 10
-288.5164
 20
-211.7975
 10
-288.354
 20
-211.8322
 10
-288.2064
 20
-211.875
 10
-288.0734
 20
-211.9258
 10
-287.955
 20
-211.9848
 10
-287.6563
 20
-212.183
 10
-287.397
 20
-212.4156
 10
-287.1773
 20
-212.6827
 10
-286.997
 20
-212.9843
 10
-286.8561
 20
-213.3204
 10
-286.7546
 20
-213.6911
 10
-286.6924
 20
-214.0963
 10
-286.6696
 20
-214.536
 10
-286.6207
 20
-221.898
 10
-284.5552
 20
-221.8871
 10
-284.6042
 20
-214.5241
 10
-284.6221
 20
-214.073
 10
-284.5468
 20
-213.9022
 10
-284.466
 20
-213.7374
 10
-284.3797
 20
-213.5784
 10
-284.2876
 20
-213.4246
 10
-284.1656
 20
-213.2406
 10
-284.0334
 20
-213.0649
 10
-283.891
 20
-212.8977
 10
-283.7385
 20
-212.7387
 10
-283.5759
 20
-212.588
 10
-283.4031
 20
-212.4456
 10
-283.2203
 20
-212.3114
 10
-283.0273
 20
-212.1854
 10
-282.8269
 20
-212.0717
 10
-282.6228
 20
-211.973
 10
-282.4148
 20
-211.8892
 10
-282.203
 20
-211.8204
 10
-281.9874
 20
-211.7666
 10
-281.768
 20
-211.7278
 10
-281.5448
 20
-211.704
 10
-281.3178
 20
-211.6953
 10
-281.0967
 20
-211.698
 10
-280.8902
 20
-211.7087
 10
-280.6985
 20
-211.7274
 10
-280.5214
 20
-211.7541
 10
-280.3591
 20
-211.7888
 10
-280.2116
 20
-211.8316
 10
-280.0787
 20
-211.8824
 10
-279.9607
 20
-211.9414
 10
-279.6619
 20
-212.1395
 10
-279.4027
 20
-212.372
 10
-279.1829
 20
-212.639
 10
-279.0026
 20
-212.9404
 10
-278.8617
 20
-213.2763
 10
-278.7602
 20
-213.6468
 10
-278.6981
 20
-214.0518
 10
-278.6753
 20
-214.4915
 10
-278.6263
 20
-221.8546
  0
LWPOLYLINE
  5
114
330
1F
100
AcDbEntity
  8
Layer 1
 62
     7
370
     9
100
AcDbPolyline
 90
        7
 70
     1
 43
0.0
 10
-350.0759
 20
-440.0543
 10
-348.1526
 20
-440.0435
 10
-348.2661
 20
-421.6233
 10
-352.8785
 20
-422.1318
 10
-352.8689
 20
-423.7647
 10
-350.1763
 20
-423.7495
 10
-350.0759
 20
-440.0543
  0
LWPOLYLINE
  5
115
330
1F
100
AcDbEntity
  8
Layer 1
 62
     7
370
     9
100
AcDbPolyline
 90
       87
 70
     1
 43
0.0
 10
-344.5246
 20
-440.0229
 10
-331.3624
 20
-439.9459
 10
-331.3731
 20
-438.0712
 10
-339.8919
 20
-438.1211
 10
-333.4183
 20
-431.7913
 10
-332.996
 20
-431.3358
 10
-332.6305
 20
-430.858
 10
-332.3219
 20
-430.358
 10
-332.07
 20
-429.8356
 10
-331.875
 20
-429.2911
 10
-331.7368
 20
-428.7242
 10
-331.6555
 20
-428.1351
 10
-331.6311
 20
-427.5238
 10
-331.664
 20
-426.899
 10
-331.7546
 20
-426.2996
 10
-331.903
 20
-425.7256
 10
-332.1092
 20
-425.1771
 10
-332.3732
 20
-424.6541
 10
-332.6951
 20
-424.1565
 10
-333.0749
 20
-423.6844
 10
-333.5127
 20
-423.2378
 10
-333.9981
 20
-422.8233
 10
-334.5047
 20
-422.4645
 10
-335.0324
 20
-422.1614
 10
-335.5813
 20
-421.914
 10
-336.1512
 20
-421.7225
 10
-336.7423
 20
-421.5867
 10
-337.3545
 20
-421.5066
 10
-337.9877
 20
-421.4824
 10
-338.6454
 20
-421.5157
 10
-339.2781
 20
-421.6074
 10
-339.8859
 20
-421.7575
 10
-340.4689
 20
-421.9661
 10
-341.0269
 20
-422.233
 10
-341.5602
 20
-422.5584
 10
-342.0686
 20
-422.942
 10
-342.5523
 20
-423.3841
 10
-342.9825
 20
-423.859
 10
-343.351
 20
-424.3581
 10
-343.658
 20
-424.8817
 10
-343.9035
 20
-425.4296
 10
-344.0874
 20
-426.0018
 10
-344.2098
 20
-426.5985
 10
-344.2707
 20
-427.2197
 10
-344.2701
 20
-427.8653
 10
-342.3193
 20
-427.8534
 10
-342.3378
 20
-427.4352
 10
-342.3101
 20
-427.0262
 10
-342.236
 20
-426.6265
 10
-342.1156
 20
-426.2361
 10
-341.9488
 20
-425.855
 10
-341.7357
 20
-425.4832
 10
-341.4761
 20
-425.1207
 10
-341.1701
 20
-424.7676
 10
-340.8423
 20
-424.4522
 10
-340.497
 20
-424.1783
 10
-340.1342
 20
-423.9461
 10
-339.7539
 20
-423.7555
 10
-339.3561
 20
-423.6066
 10
-338.9408
 20
-423.4994
 10
-338.5082
 20
-423.4339
 10
-338.0581
 20
-423.4102
 10
-337.6166
 20
-423.4266
 10
-337.1916
 20
-423.4808
 10
-336.783
 20
-423.5726
 10
-336.3909
 20
-423.7023
 10
-336.0154
 20
-423.8696
 10
-335.6564
 20
-424.0748
 10
-335.3139
 20
-424.3177
 10
-334.988
 20
-424.5985
 10
-334.6867
 20
-424.9087
 10
-334.4251
 20
-425.2342
 10
-334.2034
 20
-425.575
 10
-334.0214
 20
-425.9312
 10
-333.8793
 20
-426.3026
 10
-333.7769
 20
-426.6894
 10
-333.7144
 20
-427.0913
 10
-333.6918
 20
-427.5086
 10
-333.7085
 20
-427.9354
 10
-333.764
 20
-428.3457
 10
-333.8581
 20
-428.7396
 10
-333.9911
 20
-429.117
 10
-334.1628
 20
-429.478
 10
-334.3732
 20
-429.8225
 10
-334.6224
 20
-430.1505
 10
-334.9103
 20
-430.462
 10
-344.5246
 20
-440.0229
  0
LWPOLYLINE
  5
116
330
1F
100
AcDbEntity
  8
Layer 1
 62
     7
370
     9
100
AcDbPolyline
 90
       73
 70
     1
 43
0.0
 10
-322.3407
 20
-429.96
 10
-321.9021
 20
-429.9769
 10
-321.4796
 20
-430.0332
 10
-321.0733
 20
-430.129
 10
-320.683
 20
-430.2642
 10
-320.3088
 20
-430.4388
 10
-319.9506
 20
-430.6529
 10
-319.6086
 20
-430.9064
 10
-319.2825
 20
-431.1993
 10
-318.9875
 20
-431.5167
 10
-318.7315
 20
-431.8493
 10
-318.5144
 20
-432.1971
 10
-318.3364
 20
-432.5601
 10
-318.1973
 20
-432.9383
 10
-318.0971
 20
-433.3318
 10
-318.036
 20
-433.7406
 10
-318.0138
 20
-434.1647
 10
-318.0313
 20
-434.5794
 10
-318.0882
 20
-434.9801
 10
-318.1847
 20
-435.3668
 10
-318.3207
 20
-435.7396
 10
-318.4963
 20
-436.0983
 10
-318.7115
 20
-436.443
 10
-318.9664
 20
-436.7735
 10
-319.261
 20
-437.09
 10
-319.577
 20
-437.3745
 10
-319.9115
 20
-437.6212
 10
-320.2642
 20
-437.8304
 10
-320.6354
 20
-438.002
 10
-321.0249
 20
-438.136
 10
-321.4328
 20
-438.2324
 10
-321.859
 20
-438.2914
 10
-322.3036
 20
-438.313
 10
-322.7391
 20
-438.296
 10
-323.1604
 20
-438.24
 10
-323.5674
 20
-438.1451
 10
-323.9601
 20
-438.0112
 10
-324.3386
 20
-437.8383
 10
-324.7027
 20
-437.6265
 10
-325.0526
 20
-437.3756
 10
-325.3881
 20
-437.0857
 10
-325.6928
 20
-436.772
 10
-325.9572
 20
-436.4425
 10
-326.1815
 20
-436.0972
 10
-326.3654
 20
-435.7361
 10
-326.5092
 20
-435.3592
 10
-326.6126
 20
-434.9666
 10
-326.6757
 20
-434.5583
 10
-326.6986
 20
-434.1344
 10
-326.681
 20
-433.7123
 10
-326.6229
 20
-433.3063
 10
-326.5243
 20
-432.9165
 10
-326.3852
 20
-432.5428
 10
-326.2056
 20
-432.1853
 10
-325.9855
 20
-431.8438
 10
-325.725
 20
-431.5184
 10
-325.424
 20
-431.2091
 10
-325.2709
 20
-431.0712
 10
-325.1116
 20
-430.9403
 10
-324.9462
 20
-430.8166
 10
-324.7747
 20
-430.6999
 10
-324.5972
 20
-430.5903
 10
-324.4137
 20
-430.4878
 10
-324.2242
 20
-430.3922
 10
-324.0287
 20
-430.3037
 10
-323.8286
 20
-430.224
 10
-323.6253
 20
-430.1549
 10
-323.4189
 20
-430.0962
 10
-323.2093
 20
-430.0481
 10
-322.9967
 20
-430.0105
 10
-322.781
 20
-429.9832
 10
-322.5623
 20
-429.9664
 10
-322.3407
 20
-429.96
  0
LWPOLYLINE
  5
117
330
1F
100
AcDbEntity
  8
Layer 1
 62
     7
370
     9
100
AcDbPolyline
 90
       69
 70
     1
 43
0.0
 10
-316.063
 20
-434.0194
 10
-316.0971
 20
-433.3748
 10
-316.1911
 20
-432.76
 10
-316.3451
 20
-432.1748
 10
-316.5591
 20
-431.6193
 10
-316.8329
 20
-431.0935
 10
-317.1667
 20
-430.5972
 10
-317.5603
 20
-430.1305
 10
-318.0138
 20
-429.6933
 10
-318.4772
 20
-429.3255
 10
-318.9725
 20
-429.0035
 10
-319.4996
 20
-428.7274
 10
-320.0587
 20
-428.497
 10
-320.6496
 20
-428.3124
 10
-321.2725
 20
-428.1737
 10
-321.9273
 20
-428.0807
 10
-322.6142
 20
-428.0334
 10
-323.1614
 20
-428.3846
 10
-317.4858
 20
-421.658
 10
-320.0148
 20
-421.6721
 10
-327.272
 20
-430.3092
 10
-327.5973
 20
-430.7295
 10
-327.879
 20
-431.1669
 10
-328.1169
 20
-431.6211
 10
-328.311
 20
-432.0923
 10
-328.4614
 20
-432.5805
 10
-328.5679
 20
-433.0855
 10
-328.6306
 20
-433.6075
 10
-328.6494
 20
-434.1463
 10
-328.6167
 20
-434.7669
 10
-328.5266
 20
-435.3632
 10
-328.3793
 20
-435.9353
 10
-328.1745
 20
-436.4833
 10
-327.9125
 20
-437.0069
 10
-327.5931
 20
-437.5063
 10
-327.2163
 20
-437.9814
 10
-326.7822
 20
-438.4323
 10
-326.3044
 20
-438.8468
 10
-325.8036
 20
-439.2056
 10
-325.2799
 20
-439.5087
 10
-324.7333
 20
-439.756
 10
-324.1638
 20
-439.9476
 10
-323.5714
 20
-440.0834
 10
-322.9561
 20
-440.1634
 10
-322.318
 20
-440.1877
 10
-321.672
 20
-440.1561
 10
-321.0518
 20
-440.0694
 10
-320.4577
 20
-439.9277
 10
-319.8895
 20
-439.7309
 10
-319.3474
 20
-439.4792
 10
-318.8313
 20
-439.1725
 10
-318.3414
 20
-438.8109
 10
-317.8776
 20
-438.3943
 10
-317.6717
 20
-438.1812
 10
-317.477
 20
-437.96
 10
-317.2933
 20
-437.7306
 10
-317.1209
 20
-437.4929
 10
-316.9596
 20
-437.247
 10
-316.8095
 20
-436.9927
 10
-316.6707
 20
-436.73
 10
-316.5432
 20
-436.459
 10
-316.4291
 20
-436.18
 10
-316.3304
 20
-435.8936
 10
-316.2472
 20
-435.5998
 10
-316.1795
 20
-435.2986
 10
-316.1272
 20
-434.9899
 10
-316.0903
 20
-434.6738
 10
-316.0689
 20
-434.3503
 10
-316.063
 20
-434.0194
  0
LWPOLYLINE
  5
118
330
1F
100
AcDbEntity
  8
Layer 1
 62
     7
370
     9
100
AcDbPolyline
 90
      162
 70
     1
 43
0.0
 10
-297.8918
 20
-439.6965
 10
-295.9673
 20
-439.6857
 10
-296.0127
 20
-432.3226
 10
-296.0314
 20
-431.8337
 10
-296.0814
 20
-431.3681
 10
-296.1626
 20
-430.9258
 10
-296.2749
 20
-430.5066
 10
-296.4184
 20
-430.1107
 10
-296.5929
 20
-429.7381
 10
-296.7986
 20
-429.3886
 10
-297.0353
 20
-429.0623
 10
-297.1678
 20
-428.9062
 10
-297.3084
 20
-428.7581
 10
-297.4569
 20
-428.6181
 10
-297.6135
 20
-428.4862
 10
-297.7781
 20
-428.3622
 10
-297.9508
 20
-428.2461
 10
-298.1317
 20
-428.138
 10
-298.3207
 20
-428.0377
 10
-298.5214
 20
-427.9482
 10
-298.7375
 20
-427.8708
 10
-298.9689
 20
-427.8055
 10
-299.2157
 20
-427.7524
 10
-299.4779
 20
-427.7114
 10
-299.7553
 20
-427.6826
 10
-300.0481
 20
-427.666
 10
-300.3563
 20
-427.6615
 10
-300.6672
 20
-427.6739
 10
-300.9682
 20
-427.7072
 10
-301.2593
 20
-427.7614
 10
-301.5405
 20
-427.8363
 10
-301.8117
 20
-427.9321
 10
-302.0728
 20
-428.0487
 10
-302.324
 20
-428.1862
 10
-302.5651
 20
-428.3445
 10
-302.7737
 20
-428.5021
 10
-302.9729
 20
-428.6712
 10
-303.1628
 20
-428.8519
 10
-303.3432
 20
-429.044
 10
-303.5142
 20
-429.2473
 10
-303.6757
 20
-429.4617
 10
-303.8276
 20
-429.687
 10
-303.97
 20
-429.9232
 10
-304.0828
 20
-429.707
 10
-304.2062
 20
-429.4981
 10
-304.3399
 20
-429.2974
 10
-304.4837
 20
-429.1057
 10
-304.6158
 20
-428.9499
 10
-304.7561
 20
-428.802
 10
-304.9044
 20
-428.662
 10
-305.0608
 20
-428.5301
 10
-305.2254
 20
-428.4061
 10
-305.3981
 20
-428.2901
 10
-305.5789
 20
-428.1821
 10
-305.7679
 20
-428.0821
 10
-305.9686
 20
-427.9923
 10
-306.1847
 20
-427.9146
 10
-306.4161
 20
-427.8492
 10
-306.6629
 20
-427.7961
 10
-306.9251
 20
-427.7551
 10
-307.2025
 20
-427.7264
 10
-307.4953
 20
-427.71
 10
-307.8035
 20
-427.7059
 10
-308.1144
 20
-427.718
 10
-308.4154
 20
-427.751
 10
-308.7064
 20
-427.805
 10
-308.9875
 20
-427.8798
 10
-309.2585
 20
-427.9755
 10
-309.5195
 20
-428.0921
 10
-309.7704
 20
-428.2296
 10
-310.0111
 20
-428.3879
 10
-310.2105
 20
-428.5381
 10
-310.4011
 20
-428.6982
 10
-310.583
 20
-428.8685
 10
-310.7561
 20
-429.0489
 10
-310.9205
 20
-429.2395
 10
-311.0763
 20
-429.4404
 10
-311.2235
 20
-429.6517
 10
-311.3622
 20
-429.8733
 10
-311.3742
 20
-427.9943
 10
-313.2975
 20
-428.0052
 10
-313.2258
 20
-439.7865
 10
-311.3013
 20
-439.7757
 10
-311.3383
 20
-433.7462
 10
-311.296
 20
-433.3948
 10
-311.2399
 20
-433.0571
 10
-311.17
 20
-432.7328
 10
-311.0862
 20
-432.422
 10
-310.9886
 20
-432.1243
 10
-310.877
 20
-431.8399
 10
-310.7515
 20
-431.5684
 10
-310.612
 20
-431.3099
 10
-310.4984
 20
-431.1259
 10
-310.3753
 20
-430.9502
 10
-310.2427
 20
-430.7829
 10
-310.1006
 20
-430.624
 10
-309.949
 20
-430.4733
 10
-309.788
 20
-430.3309
 10
-309.6176
 20
-430.1967
 10
-309.4377
 20
-430.0706
 10
-309.251
 20
-429.9569
 10
-309.0609
 20
-429.8582
 10
-308.8674
 20
-429.7744
 10
-308.6705
 20
-429.7056
 10
-308.47
 20
-429.6519
 10
-308.2661
 20
-429.6131
 10
-308.0587
 20
-429.5893
 10
-307.8477
 20
-429.5806
 10
-307.6413
 20
-429.5833
 10
-307.4487
 20
-429.594
 10
-307.2699
 20
-429.6127
 10
-307.1048
 20
-429.6394
 10
-306.9534
 20
-429.6741
 10
-306.8157
 20
-429.7169
 10
-306.6917
 20
-429.7677
 10
-306.5814
 20
-429.8267
 10
-306.3032
 20
-430.0249
 10
-306.0618
 20
-430.2575
 10
-305.857
 20
-430.5246
 10
-305.6891
 20
-430.8262
 10
-305.5578
 20
-431.1623
 10
-305.4633
 20
-431.533
 10
-305.4055
 20
-431.9382
 10
-305.3844
 20
-432.3779
 10
-305.339
 20
-439.7399
 10
-303.4145
 20
-439.729
 10
-303.4599
 20
-432.366
 10
-303.4778
 20
-431.9149
 10
-303.1648
 20
-431.2666
 10
-303.0512
 20
-431.0826
 10
-302.9281
 20
-430.9069
 10
-302.7955
 20
-430.7396
 10
-302.6534
 20
-430.5807
 10
-302.5018
 20
-430.43
 10
-302.3408
 20
-430.2875
 10
-302.1704
 20
-430.1533
 10
-301.9905
 20
-430.0273
 10
-301.8041
 20
-429.9136
 10
-301.6142
 20
-429.8149
 10
-301.4207
 20
-429.7311
 10
-301.2236
 20
-429.6623
 10
-301.0229
 20
-429.6085
 10
-300.8186
 20
-429.5697
 10
-300.6107
 20
-429.5459
 10
-300.3993
 20
-429.5372
 10
-300.1933
 20
-429.5399
 10
-300.0009
 20
-429.5506
 10
-299.8221
 20
-429.5693
 10
-299.657
 20
-429.596
 10
-299.5056
 20
-429.6307
 10
-299.368
 20
-429.6735
 10
-299.2442
 20
-429.7244
 10
-299.1342
 20
-429.7833
 10
-298.856
 20
-429.9814
 10
-298.6146
 20
-430.2139
 10
-298.4098
 20
-430.4809
 10
-298.2419
 20
-430.7823
 10
-298.1106
 20
-431.1182
 10
-298.0161
 20
-431.4887
 10
-297.9583
 20
-431.8937
 10
-297.9372
 20
-432.3334
 10
-297.8918
 20
-439.6965
  0
LWPOLYLINE
  5
119
330
1F
100
AcDbEntity
  8
Layer 1
 62
     7
370
     9
100
AcDbPolyline
 90
      162
 70
     1
 43
0.0
 10
-276.924
 20
-439.574
 10
-274.9995
 20
-439.5631
 10
-275.0449
 20
-432.2001
 10
-275.0637
 20
-431.7112
 10
-275.1136
 20
-431.2456
 10
-275.1948
 20
-430.8033
 10
-275.3071
 20
-430.3841
 10
-275.4506
 20
-429.9882
 10
-275.6251
 20
-429.6156
 10
-275.8308
 20
-429.2661
 10
-276.0675
 20
-428.9398
 10
-276.2
 20
-428.7837
 10
-276.3406
 20
-428.6356
 10
-276.4891
 20
-428.4956
 10
-276.6457
 20
-428.3636
 10
-276.8103
 20
-428.2396
 10
-276.983
 20
-428.1236
 10
-277.1639
 20
-428.0155
 10
-277.3529
 20
-427.9152
 10
-277.5537
 20
-427.8257
 10
-277.7698
 20
-427.7483
 10
-278.0012
 20
-427.683
 10
-278.248
 20
-427.6299
 10
-278.5101
 20
-427.5889
 10
-278.7875
 20
-427.5601
 10
-279.0803
 20
-427.5434
 10
-279.3885
 20
-427.5389
 10
-279.6994
 20
-427.5514
 10
-280.0004
 20
-427.5847
 10
-280.2914
 20
-427.6388
 10
-280.5725
 20
-427.7138
 10
-280.8436
 20
-427.8096
 10
-281.1045
 20
-427.9262
 10
-281.3554
 20
-428.0637
 10
-281.5961
 20
-428.222
 10
-281.8051
 20
-428.3795
 10
-282.0045
 20
-428.5487
 10
-282.1944
 20
-428.7294
 10
-282.3749
 20
-428.9215
 10
-282.5459
 20
-429.1248
 10
-282.7074
 20
-429.3392
 10
-282.8595
 20
-429.5645
 10
-283.0022
 20
-429.8007
 10
-283.115
 20
-429.5845
 10
-283.2384
 20
-429.3756
 10
-283.3721
 20
-429.1749
 10
-283.5159
 20
-428.9831
 10
-283.648
 20
-428.8273
 10
-283.7883
 20
-428.6794
 10
-283.9366
 20
-428.5395
 10
-284.093
 20
-428.4075
 10
-284.2576
 20
-428.2835
 10
-284.4303
 20
-428.1676
 10
-284.6111
 20
-428.0596
 10
-284.8001
 20
-427.9596
 10
-285.0009
 20
-427.8697
 10
-285.217
 20
-427.7921
 10
-285.4484
 20
-427.7267
 10
-285.6952
 20
-427.6735
 10
-285.9573
 20
-427.6326
 10
-286.2347
 20
-427.6039
 10
-286.5275
 20
-427.5875
 10
-286.8357
 20
-427.5834
 10
-287.1465
 20
-427.5955
 10
-287.4474
 20
-427.6285
 10
-287.7383
 20
-427.6824
 10
-288.0193
 20
-427.7573
 10
-288.2902
 20
-427.853
 10
-288.5512
 20
-427.9696
 10
-288.8023
 20
-428.1071
 10
-289.0433
 20
-428.2654
 10
-289.2427
 20
-428.4156
 10
-289.4333
 20
-428.5757
 10
-289.6152
 20
-428.746
 10
-289.7883
 20
-428.9264
 10
-289.9527
 20
-429.117
 10
-290.1085
 20
-429.3179
 10
-290.2557
 20
-429.5292
 10
-290.3944
 20
-429.7508
 10
-290.4064
 20
-427.8718
 10
-292.3297
 20
-427.8826
 10
-292.258
 20
-439.664
 10
-290.3335
 20
-439.6531
 10
-290.3705
 20
-433.6237
 10
-290.3282
 20
-433.2723
 10
-290.2722
 20
-432.9346
 10
-290.2023
 20
-432.6103
 10
-290.1185
 20
-432.2994
 10
-290.0208
 20
-432.0018
 10
-289.9093
 20
-431.7173
 10
-289.7837
 20
-431.4459
 10
-289.6442
 20
-431.1874
 10
-289.5306
 20
-431.0034
 10
-289.4075
 20
-430.8277
 10
-289.2749
 20
-430.6604
 10
-289.1328
 20
-430.5015
 10
-288.9812
 20
-430.3508
 10
-288.8202
 20
-430.2084
 10
-288.6498
 20
-430.0742
 10
-288.4699
 20
-429.9481
 10
-288.2832
 20
-429.8344
 10
-288.0931
 20
-429.7357
 10
-287.8996
 20
-429.6519
 10
-287.7027
 20
-429.5831
 10
-287.5022
 20
-429.5293
 10
-287.2983
 20
-429.4905
 10
-287.0909
 20
-429.4668
 10
-286.8799
 20
-429.458
 10
-286.6736
 20
-429.4608
 10
-286.481
 20
-429.4716
 10
-286.3021
 20
-429.4905
 10
-286.137
 20
-429.5173
 10
-285.9856
 20
-429.5521
 10
-285.8479
 20
-429.5948
 10
-285.7239
 20
-429.6455
 10
-285.6136
 20
-429.7042
 10
-285.3354
 20
-429.9024
 10
-285.094
 20
-430.135
 10
-284.8892
 20
-430.4021
 10
-284.7213
 20
-430.7037
 10
-284.59
 20
-431.0398
 10
-284.4955
 20
-431.4105
 10
-284.4377
 20
-431.8157
 10
-284.4166
 20
-432.2554
 10
-284.3712
 20
-439.6174
 10
-282.4467
 20
-439.6065
 10
-282.4921
 20
-432.2435
 10
-282.51
 20
-431.7924
 10
-282.197
 20
-431.144
 10
-282.0834
 20
-430.96
 10
-281.9603
 20
-430.7843
 10
-281.8277
 20
-430.617
 10
-281.6856
 20
-430.4581
 10
-281.534
 20
-430.3074
 10
-281.373
 20
-430.165
 10
-281.2026
 20
-430.0308
 10
-281.0227
 20
-429.9047
 10
-280.8363
 20
-429.791
 10
-280.6464
 20
-429.6923
 10
-280.4529
 20
-429.6085
 10
-280.2558
 20
-429.5397
 10
-280.0551
 20
-429.486
 10
-279.8508
 20
-429.4472
 10
-279.6429
 20
-429.4234
 10
-279.4315
 20
-429.4147
 10
-279.2255
 20
-429.4174
 10
-279.0331
 20
-429.4281
 10
-278.8543
 20
-429.4468
 10
-278.6892
 20
-429.4735
 10
-278.5378
 20
-429.5082
 10
-278.4002
 20
-429.551
 10
-278.2764
 20
-429.6018
 10
-278.1664
 20
-429.6608
 10
-277.8882
 20
-429.859
 10
-277.6468
 20
-430.0916
 10
-277.442
 20
-430.3587
 10
-277.2741
 20
-430.6602
 10
-277.1428
 20
-430.9962
 10
-277.0483
 20
-431.3666
 10
-276.9905
 20
-431.7715
 10
-276.9694
 20
-432.2109
 10
-276.924
 20
-439.574
  0
LWPOLYLINE
  5
11A
330
1F
100
AcDbEntity
  8
Layer 1
 62
     7
370
     9
100
AcDbPolyline
 90
      137
 70
     1
 43
0.0
 10
-316.6328
 20
-342.603
 10
-316.7678
 20
-342.3291
 10
-316.9148
 20
-342.0638
 10
-317.0739
 20
-341.8069
 10
-317.2449
 20
-341.5584
 10
-317.428
 20
-341.3184
 10
-317.6231
 20
-341.0866
 10
-317.8303
 20
-340.8632
 10
-318.0496
 20
-340.6481
 10
-318.5446
 20
-340.2246
 10
-319.0672
 20
-339.8575
 10
-319.6175
 20
-339.5469
 10
-320.1954
 20
-339.2927
 10
-320.801
 20
-339.095
 10
-321.4343
 20
-338.9537
 10
-322.0953
 20
-338.869
 10
-322.7839
 20
-338.8407
 10
-323.4729
 20
-338.8694
 10
-324.1352
 20
-338.9554
 10
-324.7708
 20
-339.0987
 10
-325.3796
 20
-339.2993
 10
-325.9618
 20
-339.5573
 10
-326.5172
 20
-339.8726
 10
-327.0459
 20
-340.2452
 10
-327.548
 20
-340.6752
 10
-327.9813
 20
-341.1192
 10
-328.3631
 20
-341.5918
 10
-328.6932
 20
-342.0929
 10
-328.9716
 20
-342.6225
 10
-329.1985
 20
-343.1805
 10
-329.3737
 20
-343.767
 10
-329.4973
 20
-344.3819
 10
-329.5693
 20
-345.0252
 10
-329.0376
 20
-345.8286
 10
-336.4717
 20
-340.1255
 10
-336.4717
 20
-349.9248
 10
-334.4062
 20
-349.9248
 10
-334.4062
 20
-343.9279
 10
-327.327
 20
-349.4434
 10
-326.0583
 20
-348.0242
 10
-326.3901
 20
-347.6955
 10
-326.6776
 20
-347.3517
 10
-326.9209
 20
-346.9928
 10
-327.12
 20
-346.6189
 10
-327.2748
 20
-346.2298
 10
-327.3854
 20
-345.8257
 10
-327.4518
 20
-345.4064
 10
-327.4739
 20
-344.972
 10
-327.4525
 20
-344.5382
 10
-327.3881
 20
-344.1208
 10
-327.281
 20
-343.7198
 10
-327.1309
 20
-343.3351
 10
-326.938
 20
-342.9668
 10
-326.7023
 20
-342.6148
 10
-326.4238
 20
-342.2792
 10
-326.1025
 20
-341.96
 10
-325.7509
 20
-341.6681
 10
-325.3823
 20
-341.4151
 10
-324.9968
 20
-341.2012
 10
-324.5943
 20
-341.0262
 10
-324.1748
 20
-340.8902
 10
-323.7382
 20
-340.793
 10
-323.2845
 20
-340.7347
 10
-322.8137
 20
-340.7153
 10
-322.353
 20
-340.7352
 10
-321.9081
 20
-340.7948
 10
-321.4789
 20
-340.8941
 10
-321.0655
 20
-341.0332
 10
-320.6676
 20
-341.2121
 10
-320.2855
 20
-341.4307
 10
-319.9189
 20
-341.689
 10
-319.568
 20
-341.9871
 10
-319.4173
 20
-342.1341
 10
-319.2743
 20
-342.2874
 10
-319.1391
 20
-342.4469
 10
-319.0117
 20
-342.6127
 10
-318.8921
 20
-342.7848
 10
-318.7802
 20
-342.9632
 10
-318.6762
 20
-343.148
 10
-318.58
 20
-343.3392
 10
-318.4935
 20
-343.5382
 10
-318.4185
 20
-343.7472
 10
-318.3551
 20
-343.9663
 10
-318.3032
 20
-344.1954
 10
-318.2628
 20
-344.4347
 10
-318.234
 20
-344.684
 10
-318.2167
 20
-344.9433
 10
-318.2109
 20
-345.2127
 10
-318.2236
 20
-345.4872
 10
-318.2617
 20
-345.7616
 10
-318.3252
 20
-346.0361
 10
-318.414
 20
-346.3105
 10
-318.5281
 20
-346.5849
 10
-318.6675
 20
-346.8594
 10
-318.8321
 20
-347.1338
 10
-319.022
 20
-347.4083
 10
-319.2339
 20
-347.6727
 10
-319.4638
 20
-347.9171
 10
-319.7115
 20
-348.1414
 10
-319.9773
 20
-348.3456
 10
-320.261
 20
-348.5297
 10
-320.5627
 20
-348.6936
 10
-320.8824
 20
-348.8374
 10
-321.2201
 20
-348.9609
 10
-320.5416
 20
-350.7825
 10
-320.0608
 20
-350.6094
 10
-319.6031
 20
-350.405
 10
-319.1684
 20
-350.1691
 10
-318.7568
 20
-349.9019
 10
-318.3683
 20
-349.6034
 10
-318.0029
 20
-349.2735
 10
-317.6605
 20
-348.9122
 10
-317.3412
 20
-348.5197
 10
-317.2013
 20
-348.3266
 10
-317.0693
 20
-348.129
 10
-316.9451
 20
-347.9267
 10
-316.8288
 20
-347.7198
 10
-316.7202
 20
-347.5083
 10
-316.6195
 20
-347.2923
 10
-316.5267
 20
-347.0717
 10
-316.4417
 20
-346.8467
 10
-316.3657
 20
-346.6159
 10
-316.2997
 20
-346.3787
 10
-316.2439
 20
-346.1353
 10
-316.1982
 20
-345.8856
 10
-316.1626
 20
-345.6297
 10
-316.1372
 20
-345.3676
 10
-316.1219
 20
-345.0992
 10
-316.1168
 20
-344.8246
 10
-316.1249
 20
-344.5469
 10
-316.1491
 20
-344.2692
 10
-316.1894
 20
-343.9915
 10
-316.2458
 20
-343.7138
 10
-316.3184
 20
-343.4361
 10
-316.4071
 20
-343.1584
 10
-316.5119
 20
-342.8807
 10
-316.6328
 20
-342.603
  0
LWPOLYLINE
  5
11B
330
1F
100
AcDbEntity
  8
Layer 1
 62
     7
370
     9
100
AcDbPolyline
 90
      125
 70
     1
 43
0.0
 10
-334.141
 20
-329.269
 10
-333.9098
 20
-328.9598
 10
-333.6471
 20
-328.6715
 10
-333.3531
 20
-328.4041
 10
-333.0276
 20
-328.1576
 10
-332.6708
 20
-327.9321
 10
-332.2827
 20
-327.7275
 10
-331.8632
 20
-327.5439
 10
-331.4125
 20
-327.3813
 10
-330.8145
 20
-327.1995
 10
-330.2077
 20
-327.0419
 10
-329.5921
 20
-326.9084
 10
-328.9678
 20
-326.7992
 10
-328.3346
 20
-326.7143
 10
-327.6928
 20
-326.6536
 10
-327.0423
 20
-326.6171
 10
-326.3832
 20
-326.605
 10
-326.0594
 20
-326.6099
 10
-325.7078
 20
-326.6248
 10
-325.3287
 20
-326.6498
 10
-324.9222
 20
-326.6853
 10
-324.1292
 20
-326.778
 10
-323.38
 20
-326.8993
 10
-322.6746
 20
-327.0491
 10
-322.013
 20
-327.2274
 10
-321.3952
 20
-327.4341
 10
-320.8212
 20
-327.6693
 10
-320.2909
 20
-327.9329
 10
-319.8045
 20
-328.2249
 10
-319.4379
 20
-328.4914
 10
-319.1202
 20
-328.7721
 10
-318.8514
 20
-329.0671
 10
-318.6316
 20
-329.3762
 10
-318.4606
 20
-329.6995
 10
-318.3385
 20
-330.037
 10
-318.2652
 20
-330.3886
 10
-318.2408
 20
-330.7544
 10
-318.265
 20
-331.163
 10
-318.3376
 20
-331.5519
 10
-318.4585
 20
-331.9212
 10
-318.6278
 20
-332.2709
 10
-318.8455
 20
-332.6008
 10
-319.1116
 20
-332.9111
 10
-319.4261
 20
-333.2017
 10
-319.789
 20
-333.4726
 10
-319.9652
 20
-333.5872
 10
-320.1469
 20
-333.6968
 10
-320.3342
 20
-333.8014
 10
-320.5269
 20
-333.901
 10
-320.7252
 20
-333.9956
 10
-320.9289
 20
-334.0851
 10
-321.1381
 20
-334.1695
 10
-321.3527
 20
-334.2489
 10
-321.5711
 20
-334.3235
 10
-321.7908
 20
-334.3934
 10
-322.0119
 20
-334.4589
 10
-322.2343
 20
-334.5197
 10
-322.4581
 20
-334.576
 10
-322.6832
 20
-334.6277
 10
-322.9097
 20
-334.6748
 10
-323.1375
 20
-334.7173
 10
-323.3654
 20
-334.7561
 10
-323.5913
 20
-334.7919
 10
-323.8154
 20
-334.8248
 10
-324.0375
 20
-334.8547
 10
-324.2578
 20
-334.8817
 10
-324.4762
 20
-334.9057
 10
-324.6929
 20
-334.9268
 10
-324.9079
 20
-334.945
 10
-325.1258
 20
-334.9606
 10
-325.3519
 20
-334.9742
 10
-325.5864
 20
-334.9858
 10
-325.8289
 20
-334.9953
 10
-326.0795
 20
-335.0026
 10
-326.3382
 20
-335.0079
 10
-326.6047
 20
-335.0111
 10
-326.879
 20
-335.0122
 10
-327.1659
 20
-335.0076
 10
-327.4693
 20
-334.9937
 10
-327.7894
 20
-334.9706
 10
-328.1262
 20
-334.9383
 10
-328.4797
 20
-334.8968
 10
-328.8502
 20
-334.8462
 10
-329.2376
 20
-334.7863
 10
-329.6421
 20
-334.7173
 10
-329.8668
 20
-334.675
 10
-330.091
 20
-334.6285
 10
-330.3147
 20
-334.5778
 10
-330.5381
 20
-334.523
 10
-330.7609
 20
-334.464
 10
-330.9834
 20
-334.4008
 10
-331.2054
 20
-334.3334
 10
-331.4269
 20
-334.2619
 10
-331.6454
 20
-334.1856
 10
-331.8585
 20
-334.104
 10
-332.066
 20
-334.0169
 10
-332.268
 20
-333.9243
 10
-332.4645
 20
-333.8264
 10
-332.6554
 20
-333.723
 10
-332.8407
 20
-333.6141
 10
-333.0205
 20
-333.4997
 10
-333.1931
 20
-333.3794
 10
-333.3569
 20
-333.2533
 10
-333.5119
 20
-333.1214
 10
-333.6582
 20
-332.9838
 10
-333.7957
 20
-332.8403
 10
-333.9244
 20
-332.6909
 10
-334.0443
 20
-332.5356
 10
-334.1554
 20
-332.3743
 10
-334.2558
 20
-332.2067
 10
-334.3428
 20
-332.0315
 10
-334.4165
 20
-331.8488
 10
-334.4769
 20
-331.6585
 10
-334.5238
 20
-331.4607
 10
-334.5573
 20
-331.2552
 10
-334.5775
 20
-331.0422
 10
-334.5842
 20
-330.8216
 10
-334.5773
 20
-330.6013
 10
-334.5564
 20
-330.3884
 10
-334.5218
 20
-330.183
 10
-334.4733
 20
-329.9851
 10
-334.4109
 20
-329.7947
 10
-334.3347
 20
-329.6119
 10
-334.2448
 20
-329.4366
 10
-334.141
 20
-329.269
  0
LWPOLYLINE
  5
11C
330
1F
100
AcDbEntity
  8
Layer 1
 62
     7
370
     9
100
AcDbPolyline
 90
       65
 70
     1
 43
0.0
 10
-316.1466
 20
-330.7284
 10
-316.2012
 20
-329.9466
 10
-316.365
 20
-329.2147
 10
-316.6381
 20
-328.5325
 10
-317.0203
 20
-327.9002
 10
-317.5118
 20
-327.3176
 10
-318.1126
 20
-326.7849
 10
-318.8227
 20
-326.3019
 10
-319.642
 20
-325.8688
 10
-320.3571
 20
-325.5643
 10
-321.1117
 20
-325.3004
 10
-321.9059
 20
-325.0771
 10
-322.7397
 20
-324.8945
 10
-323.6131
 20
-324.7525
 10
-324.5262
 20
-324.651
 10
-325.479
 20
-324.5902
 10
-326.4716
 20
-324.5699
 10
-327.4638
 20
-324.5902
 10
-328.4165
 20
-324.651
 10
-329.3296
 20
-324.7525
 10
-330.203
 20
-324.8945
 10
-331.0368
 20
-325.0771
 10
-331.8309
 20
-325.3004
 10
-332.5853
 20
-325.5643
 10
-333.3
 20
-325.8688
 10
-334.1194
 20
-326.3019
 10
-334.8296
 20
-326.7849
 10
-335.4306
 20
-327.3176
 10
-335.9223
 20
-327.9002
 10
-336.3048
 20
-328.5325
 10
-336.578
 20
-329.2147
 10
-336.742
 20
-329.9466
 10
-336.7966
 20
-330.7284
 10
-336.742
 20
-331.5098
 10
-336.578
 20
-332.2415
 10
-336.3048
 20
-332.9235
 10
-335.9223
 20
-333.5558
 10
-335.4306
 20
-334.1384
 10
-334.8296
 20
-334.6713
 10
-334.1194
 20
-335.1544
 10
-333.3
 20
-335.5879
 10
-332.5853
 20
-335.8921
 10
-331.8309
 20
-336.1557
 10
-331.0368
 20
-336.3788
 10
-330.203
 20
-336.5613
 10
-329.3296
 20
-336.7033
 10
-328.4165
 20
-336.8047
 10
-327.4638
 20
-336.8655
 10
-326.4716
 20
-336.8858
 10
-325.479
 20
-336.8655
 10
-324.5262
 20
-336.8047
 10
-323.6131
 20
-336.7033
 10
-322.7397
 20
-336.5613
 10
-321.9059
 20
-336.3788
 10
-321.1117
 20
-336.1557
 10
-320.3571
 20
-335.8921
 10
-319.642
 20
-335.5879
 10
-318.8227
 20
-335.1544
 10
-318.1126
 20
-334.6713
 10
-317.5118
 20
-334.1384
 10
-317.0203
 20
-333.5558
 10
-316.6381
 20
-332.9235
 10
-316.365
 20
-332.2415
 10
-316.2012
 20
-331.5098
 10
-316.1466
 20
-330.7284
  0
LWPOLYLINE
  5
11D
330
1F
100
AcDbEntity
  8
Layer 1
 62
     7
370
     9
100
AcDbPolyline
 90
      125
 70
     1
 43
0.0
 10
-334.141
 20
-314.2751
 10
-333.9098
 20
-313.9659
 10
-333.6471
 20
-313.6776
 10
-333.3531
 20
-313.4102
 10
-333.0276
 20
-313.1637
 10
-332.6708
 20
-312.9382
 10
-332.2827
 20
-312.7336
 10
-331.8632
 20
-312.55
 10
-331.4125
 20
-312.3874
 10
-330.8145
 20
-312.2056
 10
-330.2077
 20
-312.0479
 10
-329.5921
 20
-311.9145
 10
-328.9678
 20
-311.8053
 10
-328.3346
 20
-311.7204
 10
-327.6928
 20
-311.6597
 10
-327.0423
 20
-311.6232
 10
-326.3832
 20
-311.6111
 10
-326.0594
 20
-311.616
 10
-325.7078
 20
-311.6309
 10
-325.3287
 20
-311.6559
 10
-324.9222
 20
-311.6913
 10
-324.1292
 20
-311.7841
 10
-323.38
 20
-311.9054
 10
-322.6746
 20
-312.0552
 10
-322.013
 20
-312.2334
 10
-321.3952
 20
-312.4402
 10
-320.8212
 20
-312.6754
 10
-320.2909
 20
-312.9389
 10
-319.8045
 20
-313.2309
 10
-319.4379
 20
-313.4974
 10
-319.1202
 20
-313.7782
 10
-318.8514
 20
-314.0731
 10
-318.6316
 20
-314.3823
 10
-318.4606
 20
-314.7056
 10
-318.3385
 20
-315.0431
 10
-318.2652
 20
-315.3947
 10
-318.2408
 20
-315.7605
 10
-318.265
 20
-316.1691
 10
-318.3376
 20
-316.558
 10
-318.4585
 20
-316.9273
 10
-318.6278
 20
-317.277
 10
-318.8455
 20
-317.6069
 10
-319.1116
 20
-317.9172
 10
-319.4261
 20
-318.2078
 10
-319.789
 20
-318.4787
 10
-319.9652
 20
-318.5933
 10
-320.1469
 20
-318.7029
 10
-320.3342
 20
-318.8075
 10
-320.5269
 20
-318.9071
 10
-320.7252
 20
-319.0016
 10
-320.9289
 20
-319.0912
 10
-321.1381
 20
-319.1756
 10
-321.3527
 20
-319.255
 10
-321.5711
 20
-319.3296
 10
-321.7908
 20
-319.3995
 10
-322.0119
 20
-319.4649
 10
-322.2343
 20
-319.5258
 10
-322.4581
 20
-319.582
 10
-322.6832
 20
-319.6337
 10
-322.9097
 20
-319.6808
 10
-323.1375
 20
-319.7234
 10
-323.3654
 20
-319.7622
 10
-323.5913
 20
-319.798
 10
-323.8154
 20
-319.8309
 10
-324.0375
 20
-319.8608
 10
-324.2578
 20
-319.8878
 10
-324.4762
 20
-319.9118
 10
-324.6929
 20
-319.9329
 10
-324.9079
 20
-319.9511
 10
-325.1258
 20
-319.9667
 10
-325.3519
 20
-319.9803
 10
-325.5864
 20
-319.9919
 10
-325.8289
 20
-320.0014
 10
-326.0795
 20
-320.0087
 10
-326.3382
 20
-320.014
 10
-326.6047
 20
-320.0172
 10
-326.879
 20
-320.0183
 10
-327.1659
 20
-320.0137
 10
-327.4693
 20
-319.9998
 10
-327.7894
 20
-319.9767
 10
-328.1262
 20
-319.9444
 10
-328.4797
 20
-319.9029
 10
-328.8502
 20
-319.8523
 10
-329.2376
 20
-319.7924
 10
-329.6421
 20
-319.7234
 10
-329.8668
 20
-319.681
 10
-330.091
 20
-319.6345
 10
-330.3147
 20
-319.5838
 10
-330.5381
 20
-319.529
 10
-330.7609
 20
-319.47
 10
-330.9834
 20
-319.4068
 10
-331.2054
 20
-319.3395
 10
-331.4269
 20
-319.268
 10
-331.6454
 20
-319.1917
 10
-331.8585
 20
-319.11
 10
-332.066
 20
-319.0229
 10
-332.268
 20
-318.9304
 10
-332.4645
 20
-318.8324
 10
-332.6554
 20
-318.729
 10
-332.8407
 20
-318.6201
 10
-333.0205
 20
-318.5058
 10
-333.1931
 20
-318.3854
 10
-333.3569
 20
-318.2593
 10
-333.5119
 20
-318.1275
 10
-333.6582
 20
-317.9898
 10
-333.7957
 20
-317.8463
 10
-333.9244
 20
-317.6969
 10
-334.0443
 20
-317.5416
 10
-334.1554
 20
-317.3803
 10
-334.2558
 20
-317.2127
 10
-334.3428
 20
-317.0376
 10
-334.4165
 20
-316.8549
 10
-334.4769
 20
-316.6646
 10
-334.5238
 20
-316.4668
 10
-334.5573
 20
-316.2613
 10
-334.5775
 20
-316.0483
 10
-334.5842
 20
-315.8277
 10
-334.5773
 20
-315.6074
 10
-334.5564
 20
-315.3945
 10
-334.5218
 20
-315.1891
 10
-334.4733
 20
-314.9912
 10
-334.4109
 20
-314.8008
 10
-334.3347
 20
-314.618
 10
-334.2448
 20
-314.4427
 10
-334.141
 20
-314.2751
  0
LWPOLYLINE
  5
11E
330
1F
100
AcDbEntity
  8
Layer 1
 62
     7
370
     9
100
AcDbPolyline
 90
       65
 70
     1
 43
0.0
 10
-316.1466
 20
-315.7345
 10
-316.2012
 20
-314.9527
 10
-316.365
 20
-314.2207
 10
-316.6381
 20
-313.5386
 10
-317.0203
 20
-312.9062
 10
-317.5118
 20
-312.3237
 10
-318.1126
 20
-311.791
 10
-318.8227
 20
-311.308
 10
-319.642
 20
-310.8749
 10
-320.3571
 20
-310.5704
 10
-321.1117
 20
-310.3065
 10
-321.9059
 20
-310.0832
 10
-322.7397
 20
-309.9006
 10
-323.6131
 20
-309.7586
 10
-324.5262
 20
-309.6571
 10
-325.479
 20
-309.5963
 10
-326.4716
 20
-309.576
 10
-327.4638
 20
-309.5963
 10
-328.4165
 20
-309.6571
 10
-329.3296
 20
-309.7586
 10
-330.203
 20
-309.9006
 10
-331.0368
 20
-310.0832
 10
-331.8309
 20
-310.3065
 10
-332.5853
 20
-310.5704
 10
-333.3
 20
-310.8749
 10
-334.1194
 20
-311.308
 10
-334.8296
 20
-311.791
 10
-335.4306
 20
-312.3237
 10
-335.9223
 20
-312.9062
 10
-336.3048
 20
-313.5386
 10
-336.578
 20
-314.2207
 10
-336.742
 20
-314.9527
 10
-336.7966
 20
-315.7345
 10
-336.742
 20
-316.5159
 10
-336.578
 20
-317.2476
 10
-336.3048
 20
-317.9296
 10
-335.9223
 20
-318.5619
 10
-335.4306
 20
-319.1444
 10
-334.8296
 20
-319.6773
 10
-334.1194
 20
-320.1605
 10
-333.3
 20
-320.594
 10
-332.5853
 20
-320.8982
 10
-331.8309
 20
-321.1618
 10
-331.0368
 20
-321.3848
 10
-330.203
 20
-321.5674
 10
-329.3296
 20
-321.7093
 10
-328.4165
 20
-321.8107
 10
-327.4638
 20
-321.8715
 10
-326.4716
 20
-321.8918
 10
-325.479
 20
-321.8715
 10
-324.5262
 20
-321.8107
 10
-323.6131
 20
-321.7093
 10
-322.7397
 20
-321.5674
 10
-321.9059
 20
-321.3848
 10
-321.1117
 20
-321.1618
 10
-320.3571
 20
-320.8982
 10
-319.642
 20
-320.594
 10
-318.8227
 20
-320.1605
 10
-318.1126
 20
-319.6773
 10
-317.5118
 20
-319.1444
 10
-317.0203
 20
-318.5619
 10
-316.6381
 20
-317.9296
 10
-316.365
 20
-317.2476
 10
-316.2012
 20
-316.5159
 10
-316.1466
 20
-315.7345
  0
LWPOLYLINE
  5
11F
330
1F
100
AcDbEntity
  8
Layer 1
 62
     7
370
     9
100
AcDbPolyline
 90
      162
 70
     1
 43
0.0
 10
-316.4704
 20
-291.2892
 10
-316.4704
 20
-289.4146
 10
-324.583
 20
-289.4146
 10
-325.1217
 20
-289.4299
 10
-325.6351
 20
-289.4758
 10
-326.123
 20
-289.5522
 10
-326.5856
 20
-289.6591
 10
-327.0228
 20
-289.7965
 10
-327.4346
 20
-289.9644
 10
-327.8211
 20
-290.1627
 10
-328.1823
 20
-290.3915
 10
-328.3549
 20
-290.5195
 10
-328.5188
 20
-290.6554
 10
-328.6739
 20
-290.7992
 10
-328.8203
 20
-290.951
 10
-328.9579
 20
-291.1106
 10
-329.0868
 20
-291.2783
 10
-329.207
 20
-291.4538
 10
-329.3184
 20
-291.6373
 10
-329.4184
 20
-291.8322
 10
-329.5052
 20
-292.0422
 10
-329.5787
 20
-292.2673
 10
-329.6389
 20
-292.5074
 10
-329.6857
 20
-292.7625
 10
-329.7193
 20
-293.0327
 10
-329.7394
 20
-293.3179
 10
-329.7461
 20
-293.6182
 10
-329.7346
 20
-293.9212
 10
-329.7
 20
-294.2146
 10
-329.6423
 20
-294.4985
 10
-329.5615
 20
-294.7727
 10
-329.4577
 20
-295.0374
 10
-329.3308
 20
-295.2924
 10
-329.1808
 20
-295.5378
 10
-329.0078
 20
-295.7736
 10
-328.8356
 20
-295.978
 10
-328.6505
 20
-296.1733
 10
-328.4527
 20
-296.3594
 10
-328.2424
 20
-296.5364
 10
-328.0196
 20
-296.7042
 10
-327.7845
 20
-296.8629
 10
-327.5372
 20
-297.0124
 10
-327.278
 20
-297.1528
 10
-327.5171
 20
-297.2613
 10
-327.7481
 20
-297.3802
 10
-327.9701
 20
-297.5093
 10
-328.1823
 20
-297.6483
 10
-328.3549
 20
-297.7759
 10
-328.5188
 20
-297.9115
 10
-328.6739
 20
-298.0552
 10
-328.8203
 20
-298.2068
 10
-328.9579
 20
-298.3664
 10
-329.0868
 20
-298.534
 10
-329.207
 20
-298.7095
 10
-329.3184
 20
-298.893
 10
-329.4184
 20
-299.0879
 10
-329.5052
 20
-299.2979
 10
-329.5787
 20
-299.523
 10
-329.6389
 20
-299.7631
 10
-329.6857
 20
-300.0182
 10
-329.7193
 20
-300.2884
 10
-329.7394
 20
-300.5736
 10
-329.7461
 20
-300.8739
 10
-329.7346
 20
-301.1769
 10
-329.7
 20
-301.4704
 10
-329.6423
 20
-301.7542
 10
-329.5615
 20
-302.0285
 10
-329.4577
 20
-302.2931
 10
-329.3308
 20
-302.5482
 10
-329.1808
 20
-302.7935
 10
-329.0078
 20
-303.0293
 10
-328.8437
 20
-303.2243
 10
-328.6686
 20
-303.4109
 10
-328.4823
 20
-303.5891
 10
-328.2847
 20
-303.7589
 10
-328.0759
 20
-303.9203
 10
-327.8557
 20
-304.0733
 10
-327.624
 20
-304.218
 10
-327.3807
 20
-304.3543
 10
-329.451
 20
-304.3543
 10
-329.451
 20
-306.2289
 10
-316.4704
 20
-306.2289
 10
-316.4704
 20
-304.3543
 10
-323.1136
 20
-304.3543
 10
-323.5003
 20
-304.311
 10
-323.8719
 20
-304.2543
 10
-324.2287
 20
-304.1841
 10
-324.5707
 20
-304.1006
 10
-324.898
 20
-304.0036
 10
-325.2108
 20
-303.8932
 10
-325.5091
 20
-303.7694
 10
-325.7931
 20
-303.6322
 10
-325.995
 20
-303.5203
 10
-326.1876
 20
-303.3992
 10
-326.371
 20
-303.269
 10
-326.5451
 20
-303.1296
 10
-326.7101
 20
-302.9811
 10
-326.8659
 20
-302.8235
 10
-327.0126
 20
-302.6567
 10
-327.1502
 20
-302.4807
 10
-327.2745
 20
-302.2981
 10
-327.3823
 20
-302.1123
 10
-327.4734
 20
-301.9232
 10
-327.548
 20
-301.7308
 10
-327.606
 20
-301.5351
 10
-327.6475
 20
-301.3361
 10
-327.6723
 20
-301.1338
 10
-327.6806
 20
-300.9281
 10
-327.6762
 20
-300.7271
 10
-327.6631
 20
-300.5395
 10
-327.6413
 20
-300.3655
 10
-327.6107
 20
-300.2049
 10
-327.5714
 20
-300.0577
 10
-327.5233
 20
-299.9239
 10
-327.4665
 20
-299.8035
 10
-327.401
 20
-299.6964
 10
-327.181
 20
-299.4265
 10
-326.9233
 20
-299.1926
 10
-326.6277
 20
-298.9947
 10
-326.2944
 20
-298.8328
 10
-325.9233
 20
-298.7068
 10
-325.5143
 20
-298.6169
 10
-325.0676
 20
-298.5629
 10
-324.583
 20
-298.5449
 10
-316.4704
 20
-298.5449
 10
-316.4704
 20
-296.6703
 10
-324.583
 20
-296.6703
 10
-325.0799
 20
-296.6844
 10
-325.7931
 20
-296.3765
 10
-325.995
 20
-296.2646
 10
-326.1876
 20
-296.1435
 10
-326.371
 20
-296.0133
 10
-326.5451
 20
-295.8739
 10
-326.7101
 20
-295.7254
 10
-326.8659
 20
-295.5678
 10
-327.0126
 20
-295.401
 10
-327.1502
 20
-295.225
 10
-327.2745
 20
-295.0424
 10
-327.3823
 20
-294.8566
 10
-327.4734
 20
-294.6674
 10
-327.548
 20
-294.475
 10
-327.606
 20
-294.2791
 10
-327.6475
 20
-294.0799
 10
-327.6723
 20
-293.8773
 10
-327.6806
 20
-293.6713
 10
-327.6762
 20
-293.4706
 10
-327.6631
 20
-293.2832
 10
-327.6413
 20
-293.1092
 10
-327.6107
 20
-292.9486
 10
-327.5714
 20
-292.8015
 10
-327.5233
 20
-292.6677
 10
-327.4665
 20
-292.5475
 10
-327.401
 20
-292.4407
 10
-327.181
 20
-292.1708
 10
-326.9233
 20
-291.9369
 10
-326.6277
 20
-291.739
 10
-326.2944
 20
-291.5771
 10
-325.9233
 20
-291.4511
 10
-325.5143
 20
-291.3612
 10
-325.0676
 20
-291.3072
 10
-324.583
 20
-291.2892
 10
-316.4704
 20
-291.2892
  0
LWPOLYLINE
  5
120
330
1F
100
AcDbEntity
  8
Layer 1
 62
     7
370
     9
100
AcDbPolyline
 90
      162
 70
     1
 43
0.0
 10
-316.4704
 20
-270.86
 10
-316.4704
 20
-268.9853
 10
-324.583
 20
-268.9853
 10
-325.1217
 20
-269.0006
 10
-325.6351
 20
-269.0465
 10
-326.123
 20
-269.1229
 10
-326.5856
 20
-269.2298
 10
-327.0228
 20
-269.3672
 10
-327.4346
 20
-269.5351
 10
-327.8211
 20
-269.7335
 10
-328.1823
 20
-269.9622
 10
-328.3549
 20
-270.0902
 10
-328.5188
 20
-270.2261
 10
-328.6739
 20
-270.3699
 10
-328.8203
 20
-270.5217
 10
-328.9579
 20
-270.6814
 10
-329.0868
 20
-270.849
 10
-329.207
 20
-271.0245
 10
-329.3184
 20
-271.208
 10
-329.4184
 20
-271.403
 10
-329.5052
 20
-271.613
 10
-329.5787
 20
-271.8381
 10
-329.6389
 20
-272.0782
 10
-329.6857
 20
-272.3333
 10
-329.7193
 20
-272.6035
 10
-329.7394
 20
-272.8887
 10
-329.7461
 20
-273.1889
 10
-329.7346
 20
-273.4919
 10
-329.7
 20
-273.7854
 10
-329.6423
 20
-274.0692
 10
-329.5615
 20
-274.3435
 10
-329.4577
 20
-274.6082
 10
-329.3308
 20
-274.8632
 10
-329.1808
 20
-275.1086
 10
-329.0078
 20
-275.3444
 10
-328.8356
 20
-275.5488
 10
-328.6505
 20
-275.7441
 10
-328.4527
 20
-275.9302
 10
-328.2424
 20
-276.1072
 10
-328.0196
 20
-276.275
 10
-327.7845
 20
-276.4337
 10
-327.5372
 20
-276.5832
 10
-327.278
 20
-276.7236
 10
-327.5171
 20
-276.8321
 10
-327.7481
 20
-276.951
 10
-327.9701
 20
-277.08
 10
-328.1823
 20
-277.2191
 10
-328.3549
 20
-277.3467
 10
-328.5188
 20
-277.4823
 10
-328.6739
 20
-277.626
 10
-328.8203
 20
-277.7776
 10
-328.9579
 20
-277.9372
 10
-329.0868
 20
-278.1048
 10
-329.207
 20
-278.2803
 10
-329.3184
 20
-278.4638
 10
-329.4184
 20
-278.6587
 10
-329.5052
 20
-278.8687
 10
-329.5787
 20
-279.0938
 10
-329.6389
 20
-279.3339
 10
-329.6857
 20
-279.589
 10
-329.7193
 20
-279.8592
 10
-329.7394
 20
-280.1444
 10
-329.7461
 20
-280.4447
 10
-329.7346
 20
-280.7477
 10
-329.7
 20
-281.0411
 10
-329.6423
 20
-281.325
 10
-329.5615
 20
-281.5992
 10
-329.4577
 20
-281.8639
 10
-329.3308
 20
-282.1189
 10
-329.1808
 20
-282.3643
 10
-329.0078
 20
-282.6001
 10
-328.8437
 20
-282.7951
 10
-328.6686
 20
-282.9817
 10
-328.4823
 20
-283.1599
 10
-328.2847
 20
-283.3297
 10
-328.0759
 20
-283.4911
 10
-327.8557
 20
-283.6441
 10
-327.624
 20
-283.7888
 10
-327.3807
 20
-283.9251
 10
-329.451
 20
-283.9251
 10
-329.451
 20
-285.7997
 10
-316.4704
 20
-285.7997
 10
-316.4704
 20
-283.9251
 10
-323.1136
 20
-283.9251
 10
-323.5003
 20
-283.8818
 10
-323.8719
 20
-283.8251
 10
-324.2287
 20
-283.7549
 10
-324.5707
 20
-283.6714
 10
-324.898
 20
-283.5744
 10
-325.2108
 20
-283.464
 10
-325.5091
 20
-283.3402
 10
-325.7931
 20
-283.203
 10
-325.995
 20
-283.0911
 10
-326.1876
 20
-282.97
 10
-326.371
 20
-282.8398
 10
-326.5451
 20
-282.7004
 10
-326.7101
 20
-282.5519
 10
-326.8659
 20
-282.3943
 10
-327.0126
 20
-282.2275
 10
-327.1502
 20
-282.0515
 10
-327.2745
 20
-281.8689
 10
-327.3823
 20
-281.6831
 10
-327.4734
 20
-281.494
 10
-327.548
 20
-281.3016
 10
-327.606
 20
-281.1059
 10
-327.6475
 20
-280.9069
 10
-327.6723
 20
-280.7046
 10
-327.6806
 20
-280.4989
 10
-327.6762
 20
-280.2979
 10
-327.6631
 20
-280.1103
 10
-327.6413
 20
-279.9363
 10
-327.6107
 20
-279.7757
 10
-327.5714
 20
-279.6285
 10
-327.5233
 20
-279.4947
 10
-327.4665
 20
-279.3743
 10
-327.401
 20
-279.2672
 10
-327.181
 20
-278.9973
 10
-326.9233
 20
-278.7634
 10
-326.6277
 20
-278.5655
 10
-326.2944
 20
-278.4036
 10
-325.9233
 20
-278.2776
 10
-325.5143
 20
-278.1877
 10
-325.0676
 20
-278.1337
 10
-324.583
 20
-278.1157
 10
-316.4704
 20
-278.1157
 10
-316.4704
 20
-276.2411
 10
-324.583
 20
-276.2411
 10
-325.0799
 20
-276.2552
 10
-325.7931
 20
-275.9472
 10
-325.995
 20
-275.8353
 10
-326.1876
 20
-275.7143
 10
-326.371
 20
-275.5841
 10
-326.5451
 20
-275.4447
 10
-326.7101
 20
-275.2962
 10
-326.8659
 20
-275.1386
 10
-327.0126
 20
-274.9718
 10
-327.1502
 20
-274.7958
 10
-327.2745
 20
-274.6132
 10
-327.3823
 20
-274.4274
 10
-327.4734
 20
-274.2382
 10
-327.548
 20
-274.0458
 10
-327.606
 20
-273.8499
 10
-327.6475
 20
-273.6507
 10
-327.6723
 20
-273.4481
 10
-327.6806
 20
-273.2421
 10
-327.6762
 20
-273.0414
 10
-327.6631
 20
-272.854
 10
-327.6413
 20
-272.68
 10
-327.6107
 20
-272.5194
 10
-327.5714
 20
-272.3723
 10
-327.5233
 20
-272.2385
 10
-327.4665
 20
-272.1183
 10
-327.401
 20
-272.0115
 10
-327.181
 20
-271.7416
 10
-326.9233
 20
-271.5077
 10
-326.6277
 20
-271.3098
 10
-326.2944
 20
-271.1479
 10
-325.9233
 20
-271.0219
 10
-325.5143
 20
-270.932
 10
-325.0676
 20
-270.878
 10
-324.583
 20
-270.86
 10
-316.4704
 20
-270.86
  0
ENDSEC
  0
SECTION
  2
OBJECTS
  0
DICTIONARY
  5
C
330
0
100
AcDbDictionary
281
     1
  3
ACAD_DETAILVIEWSTYLE
350
128
  3
ACAD_GROUP
350
D
  3
ACAD_LAYOUT
350
1A
  3
ACAD_MATERIAL
350
43
  3
ACAD_MLEADERSTYLE
350
5B
  3
ACAD_MLINESTYLE
350
17
  3
ACAD_PLOTSETTINGS
350
19
  3
ACAD_PLOTSTYLENAME
350
E
  3
ACAD_SCALELIST
350
47
  3
ACAD_SECTIONVIEWSTYLE
350
129
  3
ACAD_TABLESTYLE
350
59
  3
ACAD_VISUALSTYLE
350
2A
  3
ACDB_RECOMPOSE_DATA
350
125
  3
AcDbVariableDictionary
350
121
  0
SUN
  5
5D
330
29
100
AcDbSun
 90
        1
290
     0
 63
     7
421
 16777215
 40
1.0
291
     1
 91
  2455826
 92
 54000000
292
     0
 70
     2
 71
   256
280
     1
  0
DICTIONARY
  5
128
102
{ACAD_REACTORS
330
C
102
}
330
C
100
AcDbDictionary
281
     1
  0
DICTIONARY
  5
D
102
{ACAD_REACTORS
330
C
102
}
330
C
100
AcDbDictionary
281
     1
  0
DICTIONARY
  5
1A
102
{ACAD_REACTORS
330
C
102
}
330
C
100
AcDbDictionary
281
     1
  3
Layout1
350
1E
  3
Layout2
350
26
  3
Model
350
22
  0
DICTIONARY
  5
43
102
{ACAD_REACTORS
330
C
102
}
330
C
100
AcDbDictionary
281
     1
  3
ByBlock
350
45
  3
ByLayer
350
44
  3
Global
350
46
  0
DICTIONARY
  5
5B
102
{ACAD_REACTORS
330
C
102
}
330
C
100
AcDbDictionary
281
     1
  3
Standard
350
5C
  0
DICTIONARY
  5
17
102
{ACAD_REACTORS
330
C
102
}
330
C
100
AcDbDictionary
281
     1
  3
Standard
350
18
  0
DICTIONARY
  5
19
102
{ACAD_REACTORS
330
C
102
}
330
C
100
AcDbDictionary
281
     1
  0
ACDBDICTIONARYWDFLT
  5
E
102
{ACAD_REACTORS
330
C
102
}
330
C
100
AcDbDictionary
281
     1
  3
Normal
350
F
100
AcDbDictionaryWithDefault
340
F
  0
DICTIONARY
  5
47
102
{ACAD_REACTORS
330
C
102
}
330
C
100
AcDbDictionary
281
     1
  3
A0
350
48
  3
A1
350
49
  3
A2
350
4A
  3
A3
350
4B
  3
A4
350
4C
  3
A5
350
4D
  3
A6
350
4E
  3
A7
350
4F
  3
A8
350
50
  3
A9
350
51
  3
B1
350
52
  3
B2
350
53
  3
B3
350
54
  3
B4
350
55
  3
B5
350
56
  3
B6
350
57
  3
B7
350
58
  0
DICTIONARY
  5
129
102
{ACAD_REACTORS
330
C
102
}
330
C
100
AcDbDictionary
281
     1
  0
DICTIONARY
  5
59
102
{ACAD_REACTORS
330
C
102
}
330
C
100
AcDbDictionary
281
     1
  3
Standard
350
5A
  0
DICTIONARY
  5
2A
102
{ACAD_REACTORS
330
C
102
}
330
C
100
AcDbDictionary
281
     1
  3
2dWireframe
350
2F
  3
Basic
350
32
  3
Brighten
350
36
  3
ColorChange
350
3A
  3
Conceptual
350
34
  3
Dim
350
35
  3
EdgeColorOff
350
3D
  3
Facepattern
350
39
  3
Flat
350
2B
  3
FlatWithEdges
350
2C
  3
Gouraud
350
2D
  3
GouraudWithEdges
350
2E
  3
Hidden
350
31
  3
JitterOff
350
3B
  3
Linepattern
350
38
  3
OverhangOff
350
3C
  3
Realistic
350
33
  3
Shaded
350
42
  3
Shaded with edges
350
41
  3
Shades of Gray
350
3E
  3
Sketchy
350
3F
  3
Thicken
350
37
  3
Wireframe
350
30
  3
X-Ray
350
40
  0
XRECORD
  5
125
102
{ACAD_REACTORS
330
C
102
}
330
C
100
AcDbXrecord
280
     1
 90
        1
330
5A
  0
DICTIONARY
  5
121
102
{ACAD_REACTORS
330
C
102
}
330
C
100
AcDbDictionary
281
     1
  3
CANNOSCALE
350
122
  3
CMLEADERSTYLE
350
127
  3
CTABLESTYLE
350
126
  0
LAYOUT
  5
1E
102
{ACAD_REACTORS
330
1A
102
}
330
1A
100
AcDbPlotSettings
  1

  2
none_device
  4

  6

 40
0.0
 41
0.0
 42
0.0
 43
0.0
 44
0.0
 45
0.0
 46
0.0
 47
0.0
 48
0.0
 49
0.0
140
0.0
141
0.0
142
1.0
143
1.0
 70
   688
 72
     0
 73
     0
 74
     5
  7

 75
    16
 76
     0
 77
     2
 78
   300
147
1.0
148
0.0
149
0.0
100
AcDbLayout
  1
Layout1
 70
     1
 71
     1
 10
0.0
 20
0.0
 11
12.0
 21
9.0
 12
0.0
 22
0.0
 32
0.0
 14
1.000000000000000E+20
 24
1.000000000000000E+20
 34
1.000000000000000E+20
 15
-1.000000000000000E+20
 25
-1.000000000000000E+20
 35
-1.000000000000000E+20
146
0.0
 13
0.0
 23
0.0
 33
0.0
 16
1.0
 26
0.0
 36
0.0
 17
0.0
 27
1.0
 37
0.0
 76
     0
330
1B
  0
LAYOUT
  5
26
102
{ACAD_REACTORS
330
1A
102
}
330
1A
100
AcDbPlotSettings
  1

  2
none_device
  4

  6

 40
0.0
 41
0.0
 42
0.0
 43
0.0
 44
0.0
 45
0.0
 46
0.0
 47
0.0
 48
0.0
 49
0.0
140
0.0
141
0.0
142
1.0
143
1.0
 70
   688
 72
     0
 73
     0
 74
     5
  7

 75
    16
 76
     0
 77
     2
 78
   300
147
1.0
148
0.0
149
0.0
100
AcDbLayout
  1
Layout2
 70
     1
 71
     2
 10
0.0
 20
0.0
 11
0.0
 21
0.0
 12
0.0
 22
0.0
 32
0.0
 14
0.0
 24
0.0
 34
0.0
 15
0.0
 25
0.0
 35
0.0
146
0.0
 13
0.0
 23
0.0
 33
0.0
 16
1.0
 26
0.0
 36
0.0
 17
0.0
 27
1.0
 37
0.0
 76
     0
330
23
  0
LAYOUT
  5
22
102
{ACAD_REACTORS
330
1A
102
}
330
1A
100
AcDbPlotSettings
  1

  2
none_device
  4
Letter_(8.50_x_11.00_Inches)
  6

 40
6.35
 41
6.35
 42
6.35000508
 43
6.35000508
 44
215.9
 45
279.4
 46
0.0
 47
0.0
 48
0.0
 49
0.0
140
0.0
141
0.0
142
1.0
143
1.0
 70
  1712
 72
     0
 73
     0
 74
     0
  7

 75
     0
 76
     0
 77
     2
 78
   300
147
1.0
148
0.0
149
0.0
100
AcDbLayout
  1
Model
 70
     1
 71
     0
 10
0.0
 20
0.0
 11
12.0
 21
9.0
 12
0.0
 22
0.0
 32
0.0
 14
-560.1323
 24
-463.9576
 34
0.0
 15
-194.1474
 25
-115.0164
 35
0.0
146
0.0
 13
0.0
 23
0.0
 33
0.0
 16
1.0
 26
0.0
 36
0.0
 17
0.0
 27
1.0
 37
0.0
 76
     0
330
1F
331
29
  0
MATERIAL
  5
45
102
{ACAD_REACTORS
330
43
102
}
330
43
100
AcDbMaterial
  1
ByBlock
 72
     1
 94
      127
  0
MATERIAL
  5
44
102
{ACAD_REACTORS
330
43
102
}
330
43
100
AcDbMaterial
  1
ByLayer
 72
     1
 94
      127
  0
MATERIAL
  5
46
102
{ACAD_REACTORS
330
43
102
}
330
43
100
AcDbMaterial
  1
Global
 72
     1
 94
      127
  0
MLEADERSTYLE
  5
5C
102
{ACAD_REACTORS
330
5B
102
}
330
5B
100
AcDbMLeaderStyle
179
     2
170
     2
171
     1
172
     0
 90
        2
 40
0.0
 41
0.0
173
     1
 91
-1056964608
340
14
 92
       -2
290
     1
 42
0.09
291
     1
 43
0.36
  3
Standard
341
0
 44
0.18
300

342
11
174
     1
178
     6
175
     1
176
     0
 93
-1056964608
 45
0.18
292
     0
297
     0
 46
0.18
343
0
 94
-1056964608
 47
1.0
 49
1.0
140
1.0
293
     1
141
0.0
294
     1
177
     0
142
1.0
295
     0
296
     0
143
0.125
271
     0
272
     9
273
     9
298
     0
  0
MLINESTYLE
  5
18
102
{ACAD_REACTORS
330
17
102
}
330
17
100
AcDbMlineStyle
  2
Standard
 70
     0
  3

 62
   256
 51
90.0
 52
90.0
 71
     2
 49
0.5
 62
   256
  6
BYLAYER
 49
-0.5
 62
   256
  6
BYLAYER
  0
ACDBPLACEHOLDER
  5
F
102
{ACAD_REACTORS
330
E
102
}
330
E
  0
SCALE
  5
48
102
{ACAD_REACTORS
330
47
102
}
330
47
100
AcDbScale
 70
     0
300
1:1
140
1.0
141
1.0
290
     1
  0
SCALE
  5
49
102
{ACAD_REACTORS
330
47
102
}
330
47
100
AcDbScale
 70
     0
300
1/128" = 1'-0"
140
0.0078125
141
12.0
290
     0
  0
SCALE
  5
4A
102
{ACAD_REACTORS
330
47
102
}
330
47
100
AcDbScale
 70
     0
300
1/64" = 1'-0"
140
0.015625
141
12.0
290
     0
  0
SCALE
  5
4B
102
{ACAD_REACTORS
330
47
102
}
330
47
100
AcDbScale
 70
     0
300
1/32" = 1'-0"
140
0.03125
141
12.0
290
     0
  0
SCALE
  5
4C
102
{ACAD_REACTORS
330
47
102
}
330
47
100
AcDbScale
 70
     0
300
1/16" = 1'-0"
140
0.0625
141
12.0
290
     0
  0
SCALE
  5
4D
102
{ACAD_REACTORS
330
47
102
}
330
47
100
AcDbScale
 70
     0
300
3/32" = 1'-0"
140
0.09375
141
12.0
290
     0
  0
SCALE
  5
4E
102
{ACAD_REACTORS
330
47
102
}
330
47
100
AcDbScale
 70
     0
300
1/8" = 1'-0"
140
0.125
141
12.0
290
     0
  0
SCALE
  5
4F
102
{ACAD_REACTORS
330
47
102
}
330
47
100
AcDbScale
 70
     0
300
3/16" = 1'-0"
140
0.1875
141
12.0
290
     0
  0
SCALE
  5
50
102
{ACAD_REACTORS
330
47
102
}
330
47
100
AcDbScale
 70
     0
300
1/4" = 1'-0"
140
0.25
141
12.0
290
     0
  0
SCALE
  5
51
102
{ACAD_REACTORS
330
47
102
}
330
47
100
AcDbScale
 70
     0
300
3/8" = 1'-0"
140
0.375
141
12.0
290
     0
  0
SCALE
  5
52
102
{ACAD_REACTORS
330
47
102
}
330
47
100
AcDbScale
 70
     0
300
1/2" = 1'-0"
140
0.5
141
12.0
290
     0
  0
SCALE
  5
53
102
{ACAD_REACTORS
330
47
102
}
330
47
100
AcDbScale
 70
     0
300
3/4" = 1'-0"
140
0.75
141
12.0
290
     0
  0
SCALE
  5
54
102
{ACAD_REACTORS
330
47
102
}
330
47
100
AcDbScale
 70
     0
300
1" = 1'-0"
140
1.0
141
12.0
290
     0
  0
SCALE
  5
55
102
{ACAD_REACTORS
330
47
102
}
330
47
100
AcDbScale
 70
     0
300
1-1/2" = 1'-0"
140
1.5
141
12.0
290
     0
  0
SCALE
  5
56
102
{ACAD_REACTORS
330
47
102
}
330
47
100
AcDbScale
 70
     0
300
3" = 1'-0"
140
3.0
141
12.0
290
     0
  0
SCALE
  5
57
102
{ACAD_REACTORS
330
47
102
}
330
47
100
AcDbScale
 70
     0
300
6" = 1'-0"
140
6.0
141
12.0
290
     0
  0
SCALE
  5
58
102
{ACAD_REACTORS
330
47
102
}
330
47
100
AcDbScale
 70
     0
300
1'-0" = 1'-0"
140
12.0
141
12.0
290
     0
  0
TABLESTYLE
  5
5A
102
{ACAD_REACTORS
330
59
102
}
102
{ACAD_XDICTIONARY
360
123
102
}
330
59
100
AcDbTableStyle
  3
Standard
 70
     0
 71
     0
 40
0.06
 41
0.06
280
     0
281
     0
  7
Standard
140
0.18
170
     2
 62
     0
 63
   257
283
     0
 90
        4
 91
        0
  1

274
    -2
284
     1
 64
     0
275
    -2
285
     1
 65
     0
276
    -2
286
     1
 66
     0
277
    -2
287
     1
 67
     0
278
    -2
288
     1
 68
     0
279
    -2
289
     1
 69
     0
  7
Standard
140
0.25
170
     5
 62
     0
 63
   257
283
     0
 90
        4
 91
        0
  1

274
    -2
284
     1
 64
     0
275
    -2
285
     1
 65
     0
276
    -2
286
     1
 66
     0
277
    -2
287
     1
 67
     0
278
    -2
288
     1
 68
     0
279
    -2
289
     1
 69
     0
  7
Standard
140
0.18
170
     5
 62
     0
 63
   257
283
     0
 90
        4
 91
        0
  1

274
    -2
284
     1
 64
     0
275
    -2
285
     1
 65
     0
276
    -2
286
     1
 66
     0
277
    -2
287
     1
 67
     0
278
    -2
288
     1
 68
     0
279
    -2
289
     1
 69
     0
  0
VISUALSTYLE
  5
2F
102
{ACAD_REACTORS
330
2A
102
}
330
2A
100
AcDbVisualStyle
  2
2dWireframe
 70
     4
177
     3
291
     0
 70
    58
 90
        0
176
     1
 90
        2
176
     1
 90
        0
176
     1
 90
        0
176
     1
 40
0.6
176
     1
 40
30.0
176
     1
 62
     7
420
 16777215
176
     1
 90
        1
176
     1
 90
        4
176
     1
 62
     7
176
     1
 62
   257
176
     1
 90
        1
176
     1
 90
        1
176
     1
 40
1.0
176
     1
 90
        0
176
     1
 62
   257
176
     1
 40
1.0
176
     1
 90
        1
176
     1
 90
        6
176
     1
 90
        2
176
     1
 62
     7
176
     1
 90
        5
176
     1
 90
        0
176
     1
 90
        0
176
     1
290
     0
176
     1
 90
        1
176
     1
 40
0.0
176
     1
 90
        0
176
     1
290
     1
176
     1
290
     1
176
     1
290
     0
176
     1
290
     0
176
     1
290
     0
176
     1
290
     0
176
     1
290
     0
176
     1
290
     0
176
     1
290
     0
176
     1
 90
       50
176
     1
 40
0.0
176
     1
 40
1.0
176
     1
 90
        0
176
     1
 62
    18
420
        0
176
     1
 90
       50
176
     1
 90
        3
176
     1
 62
     5
420
      255
176
     1
290
     0
176
     1
 90
       50
176
     1
 90
       50
176
     1
 90
       50
176
     1
290
     0
176
     1
 90
       50
176
     1
 62
   256
176
     0
 40
1.0
176
     0
 90
        2
176
     1
  1
strokes_ogs.tif
176
     1
290
     0
176
     1
 40
1.0
176
     1
 40
1.0
176
     1
  0
VISUALSTYLE
  5
32
102
{ACAD_REACTORS
330
2A
102
}
330
2A
100
AcDbVisualStyle
  2
Basic
 70
     7
177
     3
291
     1
 70
    58
 90
        1
176
     1
 90
        0
176
     1
 90
        1
176
     1
 90
        0
176
     1
 40
0.6
176
     1
 40
30.0
176
     1
 62
     7
420
 16777215
176
     1
 90
        0
176
     1
 90
        4
176
     1
 62
     7
176
     1
 62
   257
176
     1
 90
        1
176
     1
 90
        1
176
     1
 40
1.0
176
     1
 90
        8
176
     1
 62
     7
176
     1
 40
1.0
176
     1
 90
        1
176
     1
 90
        6
176
     1
 90
        2
176
     1
 62
     7
176
     1
 90
        5
176
     1
 90
        0
176
     1
 90
        0
176
     1
290
     0
176
     1
 90
        1
176
     1
 40
0.0
176
     1
 90
        0
176
     1
290
     0
176
     1
290
     1
176
     1
290
     1
176
     1
290
     0
176
     1
290
     0
176
     1
290
     0
176
     1
290
     0
176
     1
290
     0
176
     1
290
     0
176
     1
 90
       50
176
     1
 40
0.0
176
     1
 40
1.0
176
     1
 90
        0
176
     1
 62
    18
420
        0
176
     1
 90
       50
176
     1
 90
        3
176
     1
 62
     5
420
      255
176
     1
290
     0
176
     1
 90
       50
176
     1
 90
       50
176
     1
 90
       50
176
     1
290
     0
176
     1
 90
       50
176
     1
 62
   256
176
     0
 40
1.0
176
     0
 90
        2
176
     1
  1
strokes_ogs.tif
176
     1
290
     0
176
     1
 40
1.0
176
     1
 40
1.0
176
     1
  0
VISUALSTYLE
  5
36
102
{ACAD_REACTORS
330
2A
102
}
330
2A
100
AcDbVisualStyle
  2
Brighten
 70
    12
177
     3
291
     1
 70
    58
 90
        2
176
     1
 90
        2
176
     1
 90
        0
176
     1
 90
        0
176
     1
 40
0.6
176
     1
 40
30.0
176
     1
 62
     7
420
 16777215
176
     1
 90
        1
176
     1
 90
        4
176
     1
 62
     7
176
     1
 62
   257
176
     1
 90
        1
176
     1
 90
        1
176
     1
 40
1.0
176
     1
 90
        8
176
     1
 62
     7
176
     1
 40
1.0
176
     1
 90
        1
176
     1
 90
        6
176
     1
 90
        2
176
     1
 62
     7
176
     1
 90
        5
176
     1
 90
        0
176
     1
 90
        0
176
     1
290
     0
176
     1
 90
        1
176
     1
 40
50.0
176
     1
 90
        0
176
     1
290
     0
176
     1
290
     1
176
     1
290
     1
176
     1
290
     0
176
     1
290
     0
176
     1
290
     0
176
     1
290
     0
176
     1
290
     0
176
     1
290
     0
176
     1
 90
       50
176
     1
 40
0.0
176
     1
 40
1.0
176
     1
 90
        0
176
     1
 62
    18
420
        0
176
     1
 90
       50
176
     1
 90
        3
176
     1
 62
     5
420
      255
176
     1
290
     0
176
     1
 90
       50
176
     1
 90
       50
176
     1
 90
       50
176
     1
290
     0
176
     1
 90
       50
176
     1
 62
   256
176
     0
 40
1.0
176
     0
 90
        2
176
     1
  1
strokes_ogs.tif
176
     1
290
     0
176
     1
 40
1.0
176
     1
 40
1.0
176
     1
  0
VISUALSTYLE
  5
3A
102
{ACAD_REACTORS
330
2A
102
}
330
2A
100
AcDbVisualStyle
  2
ColorChange
 70
    16
177
     3
291
     1
 70
    58
 90
        2
176
     1
 90
        2
176
     1
 90
        3
176
     1
 90
        0
176
     1
 40
0.6
176
     1
 40
30.0
176
     1
 62
     8
420
  8421504
176
     1
 90
        1
176
     1
 90
        4
176
     1
 62
     7
176
     1
 62
   257
176
     1
 90
        1
176
     1
 90
        1
176
     1
 40
1.0
176
     1
 90
        8
176
     1
 62
     8
420
  8421504
176
     1
 40
1.0
176
     1
 90
        1
176
     1
 90
        6
176
     1
 90
        2
176
     1
 62
     7
176
     1
 90
        5
176
     1
 90
        0
176
     1
 90
        0
176
     1
290
     0
176
     1
 90
        1
176
     1
 40
0.0
176
     1
 90
        0
176
     1
290
     0
176
     1
290
     1
176
     1
290
     1
176
     1
290
     0
176
     1
290
     0
176
     1
290
     0
176
     1
290
     0
176
     1
290
     0
176
     1
290
     0
176
     1
 90
       50
176
     1
 40
0.0
176
     1
 40
1.0
176
     1
 90
        0
176
     1
 62
    18
420
        0
176
     1
 90
       50
176
     1
 90
        3
176
     1
 62
     5
420
      255
176
     1
290
     0
176
     1
 90
       50
176
     1
 90
       50
176
     1
 90
       50
176
     1
290
     0
176
     1
 90
       50
176
     1
 62
   256
176
     0
 40
1.0
176
     0
 90
        2
176
     1
  1
strokes_ogs.tif
176
     1
290
     0
176
     1
 40
1.0
176
     1
 40
1.0
176
     1
  0
VISUALSTYLE
  5
34
102
{ACAD_REACTORS
330
2A
102
}
330
2A
100
AcDbVisualStyle
  2
Conceptual
 70
     9
177
     3
291
     0
 70
    58
 90
        3
176
     1
 90
        2
176
     1
 90
        0
176
     1
 90
        0
176
     1
 40
0.6
176
     1
 40
30.0
176
     1
 62
     7
420
 16777215
176
     1
 90
        2
176
     1
 90
        2
176
     1
 62
     7
176
     1
 62
   257
176
     1
 90
        1
176
     1
 90
        1
176
     1
 40
179.0
176
     1
 90
        8
176
     1
 62
     7
176
     1
 40
1.0
176
     1
 90
        1
176
     1
 90
        6
176
     1
 90
        2
176
     1
 62
     7
176
     1
 90
        3
176
     1
 90
        0
176
     1
 90
        0
176
     1
290
     0
176
     1
 90
        1
176
     1
 40
0.0
176
     1
 90
        0
176
     1
290
     0
176
     1
290
     1
176
     1
290
     1
176
     1
290
     0
176
     1
290
     0
176
     1
290
     0
176
     1
290
     0
176
     1
290
     0
176
     1
290
     0
176
     1
 90
       50
176
     1
 40
0.0
176
     1
 40
1.0
176
     1
 90
        0
176
     1
 62
    18
420
        0
176
     1
 90
       50
176
     1
 90
        3
176
     1
 62
     5
420
      255
176
     1
290
     0
176
     1
 90
       50
176
     1
 90
       50
176
     1
 90
       50
176
     1
290
     0
176
     1
 90
       50
176
     1
 62
   256
176
     0
 40
1.0
176
     0
 90
        2
176
     1
  1
strokes_ogs.tif
176
     1
290
     0
176
     1
 40
1.0
176
     1
 40
1.0
176
     1
  0
VISUALSTYLE
  5
35
102
{ACAD_REACTORS
330
2A
102
}
330
2A
100
AcDbVisualStyle
  2
Dim
 70
    11
177
     3
291
     1
 70
    58
 90
        2
176
     1
 90
        2
176
     1
 90
        0
176
     1
 90
        0
176
     1
 40
0.6
176
     1
 40
30.0
176
     1
 62
     7
420
 16777215
176
     1
 90
        1
176
     1
 90
        4
176
     1
 62
     7
176
     1
 62
   257
176
     1
 90
        1
176
     1
 90
        1
176
     1
 40
1.0
176
     1
 90
        8
176
     1
 62
     7
176
     1
 40
1.0
176
     1
 90
        1
176
     1
 90
        6
176
     1
 90
        2
176
     1
 62
     7
176
     1
 90
        5
176
     1
 90
        0
176
     1
 90
        0
176
     1
290
     0
176
     1
 90
        1
176
     1
 40
-50.0
176
     1
 90
        0
176
     1
290
     0
176
     1
290
     1
176
     1
290
     1
176
     1
290
     0
176
     1
290
     0
176
     1
290
     0
176
     1
290
     0
176
     1
290
     0
176
     1
290
     0
176
     1
 90
       50
176
     1
 40
0.0
176
     1
 40
1.0
176
     1
 90
        0
176
     1
 62
    18
420
        0
176
     1
 90
       50
176
     1
 90
        3
176
     1
 62
     5
420
      255
176
     1
290
     0
176
     1
 90
       50
176
     1
 90
       50
176
     1
 90
       50
176
     1
290
     0
176
     1
 90
       50
176
     1
 62
   256
176
     0
 40
1.0
176
     0
 90
        2
176
     1
  1
strokes_ogs.tif
176
     1
290
     0
176
     1
 40
1.0
176
     1
 40
1.0
176
     1
  0
VISUALSTYLE
  5
3D
102
{ACAD_REACTORS
330
2A
102
}
330
2A
100
AcDbVisualStyle
  2
EdgeColorOff
 70
    22
177
     3
291
     1
 70
    58
 90
        2
176
     0
 90
        2
176
     0
 90
        0
176
     0
 90
        0
176
     0
 40
0.6
176
     0
 40
30.0
176
     0
 62
     7
420
 16777215
176
     0
 90
        1
176
     0
 90
        4
176
     0
 62
     7
176
     0
 62
   257
176
     0
 90
        1
176
     0
 90
        1
176
     0
 40
1.0
176
     0
 90
        8
176
     2
 62
     7
176
     0
 40
1.0
176
     0
 90
        1
176
     0
 90
        6
176
     0
 90
        2
176
     0
 62
     7
176
     0
 90
        5
176
     0
 90
        0
176
     0
 90
        0
176
     0
290
     0
176
     0
 90
        1
176
     0
 40
0.0
176
     0
 90
        0
176
     0
290
     0
176
     0
290
     1
176
     0
290
     1
176
     0
290
     0
176
     0
290
     0
176
     0
290
     0
176
     0
290
     0
176
     0
290
     0
176
     0
290
     0
176
     0
 90
       50
176
     0
 40
0.0
176
     0
 40
1.0
176
     0
 90
        0
176
     0
 62
    18
420
        0
176
     0
 90
       50
176
     0
 90
        3
176
     0
 62
     5
420
      255
176
     0
290
     0
176
     0
 90
       50
176
     0
 90
       50
176
     0
 90
       50
176
     0
290
     0
176
     0
 90
       50
176
     0
 62
   256
176
     0
 40
1.0
176
     0
 90
        2
176
     0
  1
strokes_ogs.tif
176
     0
290
     0
176
     0
 40
1.0
176
     0
 40
1.0
176
     0
  0
VISUALSTYLE
  5
39
102
{ACAD_REACTORS
330
2A
102
}
330
2A
100
AcDbVisualStyle
  2
Facepattern
 70
    15
177
     3
291
     1
 70
    58
 90
        2
176
     1
 90
        2
176
     1
 90
        0
176
     1
 90
        0
176
     1
 40
0.6
176
     1
 40
30.0
176
     1
 62
     7
420
 16777215
176
     1
 90
        1
176
     1
 90
        4
176
     1
 62
     7
176
     1
 62
   257
176
     1
 90
        1
176
     1
 90
        1
176
     1
 40
1.0
176
     1
 90
        8
176
     1
 62
     7
176
     1
 40
1.0
176
     1
 90
        1
176
     1
 90
        6
176
     1
 90
        2
176
     1
 62
     7
176
     1
 90
        5
176
     1
 90
        0
176
     1
 90
        0
176
     1
290
     0
176
     1
 90
        1
176
     1
 40
0.0
176
     1
 90
        0
176
     1
290
     0
176
     1
290
     1
176
     1
290
     1
176
     1
290
     0
176
     1
290
     0
176
     1
290
     0
176
     1
290
     0
176
     1
290
     0
176
     1
290
     0
176
     1
 90
       50
176
     1
 40
0.0
176
     1
 40
1.0
176
     1
 90
        0
176
     1
 62
    18
420
        0
176
     1
 90
       50
176
     1
 90
        3
176
     1
 62
     5
420
      255
176
     1
290
     0
176
     1
 90
       50
176
     1
 90
       50
176
     1
 90
       50
176
     1
290
     0
176
     1
 90
       50
176
     1
 62
   256
176
     0
 40
1.0
176
     0
 90
        2
176
     1
  1
strokes_ogs.tif
176
     1
290
     0
176
     1
 40
1.0
176
     1
 40
1.0
176
     1
  0
VISUALSTYLE
  5
2B
102
{ACAD_REACTORS
330
2A
102
}
330
2A
100
AcDbVisualStyle
  2
Flat
 70
     0
177
     3
291
     1
 70
    58
 90
        2
176
     1
 90
        1
176
     1
 90
        1
176
     1
 90
        2
176
     1
 40
0.6
176
     1
 40
30.0
176
     1
 62
     7
420
 16777215
176
     1
 90
        0
176
     1
 90
        0
176
     1
 62
     7
176
     1
 62
   257
176
     1
 90
        1
176
     1
 90
        1
176
     1
 40
1.0
176
     1
 90
        8
176
     1
 62
     7
176
     1
 40
1.0
176
     1
 90
        1
176
     1
 90
        6
176
     1
 90
        2
176
     1
 62
     7
176
     1
 90
        5
176
     1
 90
        0
176
     1
 90
        0
176
     1
290
     0
176
     1
 90
       13
176
     1
 40
0.0
176
     1
 90
        0
176
     1
290
     0
176
     1
290
     1
176
     1
290
     1
176
     1
290
     0
176
     1
290
     0
176
     1
290
     0
176
     1
290
     0
176
     1
290
     0
176
     1
290
     0
176
     1
 90
       50
176
     1
 40
0.0
176
     1
 40
1.0
176
     1
 90
        0
176
     1
 62
    18
420
        0
176
     1
 90
       50
176
     1
 90
        3
176
     1
 62
     5
420
      255
176
     1
290
     0
176
     1
 90
       50
176
     1
 90
       50
176
     1
 90
       50
176
     1
290
     0
176
     1
 90
       50
176
     1
 62
   256
176
     0
 40
1.0
176
     0
 90
        2
176
     1
  1
strokes_ogs.tif
176
     1
290
     0
176
     1
 40
1.0
176
     1
 40
1.0
176
     1
  0
VISUALSTYLE
  5
2C
102
{ACAD_REACTORS
330
2A
102
}
330
2A
100
AcDbVisualStyle
  2
FlatWithEdges
 70
     1
177
     3
291
     1
 70
    58
 90
        2
176
     1
 90
        1
176
     1
 90
        1
176
     1
 90
        2
176
     1
 40
0.6
176
     1
 40
30.0
176
     1
 62
     7
420
 16777215
176
     1
 90
        1
176
     1
 90
        0
176
     1
 62
     7
176
     1
 62
   257
176
     1
 90
        1
176
     1
 90
        1
176
     1
 40
1.0
176
     1
 90
        0
176
     1
 62
   257
176
     1
 40
1.0
176
     1
 90
        1
176
     1
 90
        6
176
     1
 90
        2
176
     1
 62
     7
176
     1
 90
        5
176
     1
 90
        0
176
     1
 90
        0
176
     1
290
     0
176
     1
 90
       13
176
     1
 40
0.0
176
     1
 90
        0
176
     1
290
     0
176
     1
290
     1
176
     1
290
     1
176
     1
290
     0
176
     1
290
     0
176
     1
290
     0
176
     1
290
     0
176
     1
290
     0
176
     1
290
     0
176
     1
 90
       50
176
     1
 40
0.0
176
     1
 40
1.0
176
     1
 90
        0
176
     1
 62
    18
420
        0
176
     1
 90
       50
176
     1
 90
        3
176
     1
 62
     5
420
      255
176
     1
290
     0
176
     1
 90
       50
176
     1
 90
       50
176
     1
 90
       50
176
     1
290
     0
176
     1
 90
       50
176
     1
 62
   256
176
     0
 40
1.0
176
     0
 90
        2
176
     1
  1
strokes_ogs.tif
176
     1
290
     0
176
     1
 40
1.0
176
     1
 40
1.0
176
     1
  0
VISUALSTYLE
  5
2D
102
{ACAD_REACTORS
330
2A
102
}
330
2A
100
AcDbVisualStyle
  2
Gouraud
 70
     2
177
     3
291
     1
 70
    58
 90
        2
176
     1
 90
        2
176
     1
 90
        1
176
     1
 90
        2
176
     1
 40
0.6
176
     1
 40
30.0
176
     1
 62
     7
420
 16777215
176
     1
 90
        0
176
     1
 90
        0
176
     1
 62
     7
176
     1
 62
   257
176
     1
 90
        1
176
     1
 90
        1
176
     1
 40
1.0
176
     1
 90
        0
176
     1
 62
     7
176
     1
 40
1.0
176
     1
 90
        1
176
     1
 90
        6
176
     1
 90
        2
176
     1
 62
     7
176
     1
 90
        5
176
     1
 90
        0
176
     1
 90
        0
176
     1
290
     0
176
     1
 90
       13
176
     1
 40
0.0
176
     1
 90
        0
176
     1
290
     0
176
     1
290
     1
176
     1
290
     1
176
     1
290
     0
176
     1
290
     0
176
     1
290
     0
176
     1
290
     0
176
     1
290
     0
176
     1
290
     0
176
     1
 90
       50
176
     1
 40
0.0
176
     1
 40
1.0
176
     1
 90
        0
176
     1
 62
    18
420
        0
176
     1
 90
       50
176
     1
 90
        3
176
     1
 62
     5
420
      255
176
     1
290
     0
176
     1
 90
       50
176
     1
 90
       50
176
     1
 90
       50
176
     1
290
     0
176
     1
 90
       50
176
     1
 62
   256
176
     0
 40
1.0
176
     0
 90
        2
176
     1
  1
strokes_ogs.tif
176
     1
290
     0
176
     1
 40
1.0
176
     1
 40
1.0
176
     1
  0
VISUALSTYLE
  5
2E
102
{ACAD_REACTORS
330
2A
102
}
330
2A
100
AcDbVisualStyle
  2
GouraudWithEdges
 70
     3
177
     3
291
     1
 70
    58
 90
        2
176
     1
 90
        2
176
     1
 90
        1
176
     1
 90
        2
176
     1
 40
0.6
176
     1
 40
30.0
176
     1
 62
     7
420
 16777215
176
     1
 90
        1
176
     1
 90
        0
176
     1
 62
     7
176
     1
 62
   257
176
     1
 90
        1
176
     1
 90
        1
176
     1
 40
1.0
176
     1
 90
        0
176
     1
 62
   257
176
     1
 40
1.0
176
     1
 90
        1
176
     1
 90
        6
176
     1
 90
        2
176
     1
 62
     7
176
     1
 90
        5
176
     1
 90
        0
176
     1
 90
        0
176
     1
290
     0
176
     1
 90
       13
176
     1
 40
0.0
176
     1
 90
        0
176
     1
290
     0
176
     1
290
     1
176
     1
290
     1
176
     1
290
     0
176
     1
290
     0
176
     1
290
     0
176
     1
290
     0
176
     1
290
     0
176
     1
290
     0
176
     1
 90
       50
176
     1
 40
0.0
176
     1
 40
1.0
176
     1
 90
        0
176
     1
 62
    18
420
        0
176
     1
 90
       50
176
     1
 90
        3
176
     1
 62
     5
420
      255
176
     1
290
     0
176
     1
 90
       50
176
     1
 90
       50
176
     1
 90
       50
176
     1
290
     0
176
     1
 90
       50
176
     1
 62
   256
176
     0
 40
1.0
176
     0
 90
        2
176
     1
  1
strokes_ogs.tif
176
     1
290
     0
176
     1
 40
1.0
176
     1
 40
1.0
176
     1
  0
VISUALSTYLE
  5
31
102
{ACAD_REACTORS
330
2A
102
}
330
2A
100
AcDbVisualStyle
  2
Hidden
 70
     6
177
     3
291
     0
 70
    58
 90
        1
176
     1
 90
        2
176
     1
 90
        2
176
     1
 90
        0
176
     1
 40
0.6
176
     1
 40
30.0
176
     1
 62
     7
420
 16777215
176
     1
 90
        2
176
     1
 90
        2
176
     1
 62
     7
176
     1
 62
   257
176
     1
 90
        2
176
     1
 90
        1
176
     1
 40
40.0
176
     1
 90
        0
176
     1
 62
   257
176
     1
 40
1.0
176
     1
 90
        1
176
     1
 90
        6
176
     1
 90
        2
176
     1
 62
     7
176
     1
 90
        3
176
     1
 90
        0
176
     1
 90
        0
176
     1
290
     0
176
     1
 90
        1
176
     1
 40
0.0
176
     1
 90
        0
176
     1
290
     0
176
     1
290
     1
176
     1
290
     1
176
     1
290
     0
176
     1
290
     0
176
     1
290
     0
176
     1
290
     0
176
     1
290
     0
176
     1
290
     0
176
     1
 90
       50
176
     1
 40
0.0
176
     1
 40
1.0
176
     1
 90
        0
176
     1
 62
    18
420
        0
176
     1
 90
       50
176
     1
 90
        3
176
     1
 62
     5
420
      255
176
     1
290
     0
176
     1
 90
       50
176
     1
 90
       50
176
     1
 90
       50
176
     1
290
     0
176
     1
 90
       50
176
     1
 62
   256
176
     0
 40
1.0
176
     0
 90
        2
176
     1
  1
strokes_ogs.tif
176
     1
290
     0
176
     1
 40
1.0
176
     1
 40
1.0
176
     1
  0
VISUALSTYLE
  5
3B
102
{ACAD_REACTORS
330
2A
102
}
330
2A
100
AcDbVisualStyle
  2
JitterOff
 70
    20
177
     3
291
     1
 70
    58
 90
        2
176
     0
 90
        2
176
     0
 90
        0
176
     0
 90
        0
176
     0
 40
0.6
176
     0
 40
30.0
176
     0
 62
     7
420
 16777215
176
     0
 90
        1
176
     0
 90
        4
176
     0
 62
     7
176
     0
 62
   257
176
     0
 90
        1
176
     0
 90
        1
176
     0
 40
1.0
176
     0
 90
       10
176
     2
 62
     7
176
     0
 40
1.0
176
     0
 90
        1
176
     0
 90
        6
176
     0
 90
        2
176
     0
 62
     7
176
     0
 90
        5
176
     0
 90
        0
176
     0
 90
        0
176
     0
290
     0
176
     0
 90
        1
176
     0
 40
0.0
176
     0
 90
        0
176
     0
290
     0
176
     0
290
     1
176
     0
290
     1
176
     0
290
     0
176
     0
290
     0
176
     0
290
     0
176
     0
290
     0
176
     0
290
     0
176
     0
290
     0
176
     0
 90
       50
176
     0
 40
0.0
176
     0
 40
1.0
176
     0
 90
        0
176
     0
 62
    18
420
        0
176
     0
 90
       50
176
     0
 90
        3
176
     0
 62
     5
420
      255
176
     0
290
     0
176
     0
 90
       50
176
     0
 90
       50
176
     0
 90
       50
176
     0
290
     0
176
     0
 90
       50
176
     0
 62
   256
176
     0
 40
1.0
176
     0
 90
        2
176
     0
  1
strokes_ogs.tif
176
     0
290
     0
176
     0
 40
1.0
176
     0
 40
1.0
176
     0
  0
VISUALSTYLE
  5
38
102
{ACAD_REACTORS
330
2A
102
}
330
2A
100
AcDbVisualStyle
  2
Linepattern
 70
    14
177
     3
291
     1
 70
    58
 90
        2
176
     1
 90
        2
176
     1
 90
        0
176
     1
 90
        0
176
     1
 40
0.6
176
     1
 40
30.0
176
     1
 62
     7
420
 16777215
176
     1
 90
        1
176
     1
 90
        4
176
     1
 62
     7
176
     1
 62
   257
176
     1
 90
        7
176
     1
 90
        7
176
     1
 40
1.0
176
     1
 90
        8
176
     1
 62
     7
176
     1
 40
1.0
176
     1
 90
        1
176
     1
 90
        6
176
     1
 90
        2
176
     1
 62
     7
176
     1
 90
        5
176
     1
 90
        0
176
     1
 90
        0
176
     1
290
     0
176
     1
 90
        1
176
     1
 40
0.0
176
     1
 90
        0
176
     1
290
     0
176
     1
290
     1
176
     1
290
     1
176
     1
290
     0
176
     1
290
     0
176
     1
290
     0
176
     1
290
     0
176
     1
290
     0
176
     1
290
     0
176
     1
 90
       50
176
     1
 40
0.0
176
     1
 40
1.0
176
     1
 90
        0
176
     1
 62
    18
420
        0
176
     1
 90
       50
176
     1
 90
        3
176
     1
 62
     5
420
      255
176
     1
290
     0
176
     1
 90
       50
176
     1
 90
       50
176
     1
 90
       50
176
     1
290
     0
176
     1
 90
       50
176
     1
 62
   256
176
     0
 40
1.0
176
     0
 90
        2
176
     1
  1
strokes_ogs.tif
176
     1
290
     0
176
     1
 40
1.0
176
     1
 40
1.0
176
     1
  0
VISUALSTYLE
  5
3C
102
{ACAD_REACTORS
330
2A
102
}
330
2A
100
AcDbVisualStyle
  2
OverhangOff
 70
    21
177
     3
291
     1
 70
    58
 90
        2
176
     0
 90
        2
176
     0
 90
        0
176
     0
 90
        0
176
     0
 40
0.6
176
     0
 40
30.0
176
     0
 62
     7
420
 16777215
176
     0
 90
        1
176
     0
 90
        4
176
     0
 62
     7
176
     0
 62
   257
176
     0
 90
        1
176
     0
 90
        1
176
     0
 40
1.0
176
     0
 90
        9
176
     2
 62
     7
176
     0
 40
1.0
176
     0
 90
        1
176
     0
 90
        6
176
     0
 90
        2
176
     0
 62
     7
176
     0
 90
        5
176
     0
 90
        0
176
     0
 90
        0
176
     0
290
     0
176
     0
 90
        1
176
     0
 40
0.0
176
     0
 90
        0
176
     0
290
     0
176
     0
290
     1
176
     0
290
     1
176
     0
290
     0
176
     0
290
     0
176
     0
290
     0
176
     0
290
     0
176
     0
290
     0
176
     0
290
     0
176
     0
 90
       50
176
     0
 40
0.0
176
     0
 40
1.0
176
     0
 90
        0
176
     0
 62
    18
420
        0
176
     0
 90
       50
176
     0
 90
        3
176
     0
 62
     5
420
      255
176
     0
290
     0
176
     0
 90
       50
176
     0
 90
       50
176
     0
 90
       50
176
     0
290
     0
176
     0
 90
       50
176
     0
 62
   256
176
     0
 40
1.0
176
     0
 90
        2
176
     0
  1
strokes_ogs.tif
176
     0
290
     0
176
     0
 40
1.0
176
     0
 40
1.0
176
     0
  0
VISUALSTYLE
  5
33
102
{ACAD_REACTORS
330
2A
102
}
330
2A
100
AcDbVisualStyle
  2
Realistic
 70
     8
177
     3
291
     0
 70
    58
 90
        2
176
     1
 90
        3
176
     1
 90
        0
176
     1
 90
        2
176
     1
 40
0.6
176
     1
 40
30.0
176
     1
 62
     7
420
 16777215
176
     1
 90
        0
176
     1
 90
        0
176
     1
 62
     7
176
     1
 62
   257
176
     1
 90
        1
176
     1
 90
        1
176
     1
 40
1.0
176
     1
 90
        8
176
     1
 62
   257
176
     1
 40
1.0
176
     1
 90
        1
176
     1
 90
        6
176
     1
 90
        2
176
     1
 62
     7
176
     1
 90
        3
176
     1
 90
        0
176
     1
 90
        0
176
     1
290
     0
176
     1
 90
       13
176
     1
 40
0.0
176
     1
 90
        0
176
     1
290
     0
176
     1
290
     1
176
     1
290
     1
176
     1
290
     0
176
     1
290
     0
176
     1
290
     0
176
     1
290
     0
176
     1
290
     0
176
     1
290
     0
176
     1
 90
       50
176
     1
 40
0.0
176
     1
 40
1.0
176
     1
 90
        0
176
     1
 62
    18
420
        0
176
     1
 90
       50
176
     1
 90
        3
176
     1
 62
     5
420
      255
176
     1
290
     0
176
     1
 90
       50
176
     1
 90
       50
176
     1
 90
       50
176
     1
290
     0
176
     1
 90
       50
176
     1
 62
   256
176
     0
 40
1.0
176
     0
 90
        2
176
     1
  1
strokes_ogs.tif
176
     1
290
     0
176
     1
 40
1.0
176
     1
 40
1.0
176
     1
  0
VISUALSTYLE
  5
42
102
{ACAD_REACTORS
330
2A
102
}
330
2A
100
AcDbVisualStyle
  2
Shaded
 70
    27
177
     3
291
     0
 70
    58
 90
        2
176
     1
 90
        2
176
     1
 90
        1
176
     1
 90
        2
176
     1
 40
0.6
176
     1
 40
30.0
176
     1
 62
     7
420
 16777215
176
     1
 90
        0
176
     1
 90
        4
176
     1
 62
     7
176
     1
 62
   257
176
     1
 90
        1
176
     1
 90
        1
176
     1
 40
1.0
176
     1
 90
        8
176
     1
 62
   257
176
     1
 40
1.0
176
     1
 90
        1
176
     1
 90
        6
176
     1
 90
        2
176
     1
 62
     8
420
  7895160
176
     1
 90
        3
176
     1
 90
        0
176
     1
 90
        0
176
     1
290
     0
176
     1
 90
        5
176
     1
 40
0.0
176
     1
 90
        0
176
     1
290
     0
176
     1
290
     1
176
     1
290
     1
176
     1
290
     0
176
     1
290
     0
176
     1
290
     0
176
     1
290
     0
176
     1
290
     0
176
     1
290
     0
176
     1
 90
       50
176
     1
 40
0.0
176
     1
 40
1.0
176
     1
 90
        0
176
     1
 62
    18
420
        0
176
     1
 90
       50
176
     1
 90
        3
176
     1
 62
     5
420
      255
176
     1
290
     0
176
     1
 90
       50
176
     1
 90
       50
176
     1
 90
       50
176
     1
290
     0
176
     1
 90
       50
176
     1
 62
   256
176
     0
 40
1.0
176
     0
 90
        2
176
     1
  1
strokes_ogs.tif
176
     1
290
     0
176
     1
 40
1.0
176
     1
 40
1.0
176
     1
  0
VISUALSTYLE
  5
41
102
{ACAD_REACTORS
330
2A
102
}
330
2A
100
AcDbVisualStyle
  2
Shaded with edges
 70
    26
177
     3
291
     0
 70
    58
 90
        2
176
     1
 90
        2
176
     1
 90
        1
176
     1
 90
        2
176
     1
 40
0.6
176
     1
 40
30.0
176
     1
 62
     7
420
 16777215
176
     1
 90
        1
176
     1
 90
       10
176
     1
 62
     7
176
     1
 62
   257
176
     1
 90
        2
176
     1
 90
        1
176
     1
 40
1.0
176
     1
 90
        8
176
     1
 62
   257
176
     1
 40
1.0
176
     1
 90
        1
176
     1
 90
        6
176
     1
 90
        2
176
     1
 62
     7
176
     1
 90
        3
176
     1
 90
        0
176
     1
 90
        0
176
     1
290
     0
176
     1
 90
        5
176
     1
 40
0.0
176
     1
 90
        0
176
     1
290
     0
176
     1
290
     1
176
     1
290
     1
176
     1
290
     0
176
     1
290
     0
176
     1
290
     0
176
     1
290
     0
176
     1
290
     0
176
     1
290
     0
176
     1
 90
       50
176
     1
 40
0.0
176
     1
 40
1.0
176
     1
 90
        0
176
     1
 62
    18
420
        0
176
     1
 90
       50
176
     1
 90
        3
176
     1
 62
     5
420
      255
176
     1
290
     0
176
     1
 90
       50
176
     1
 90
       50
176
     1
 90
       50
176
     1
290
     0
176
     1
 90
       50
176
     1
 62
   256
176
     0
 40
1.0
176
     0
 90
        2
176
     1
  1
strokes_ogs.tif
176
     1
290
     0
176
     1
 40
1.0
176
     1
 40
1.0
176
     1
  0
VISUALSTYLE
  5
3E
102
{ACAD_REACTORS
330
2A
102
}
330
2A
100
AcDbVisualStyle
  2
Shades of Gray
 70
    23
177
     3
291
     0
 70
    58
 90
        2
176
     1
 90
        2
176
     1
 90
        3
176
     1
 90
        0
176
     1
 40
0.6
176
     1
 40
30.0
176
     1
 62
     7
420
 16777215
176
     1
 90
        2
176
     1
 90
        2
176
     1
 62
     7
176
     1
 62
     7
176
     1
 90
        1
176
     1
 90
        1
176
     1
 40
40.0
176
     1
 90
        8
176
     1
 62
     7
176
     1
 40
1.0
176
     1
 90
        1
176
     1
 90
        6
176
     1
 90
        2
176
     1
 62
     7
176
     1
 90
        3
176
     1
 90
        0
176
     1
 90
        0
176
     1
290
     0
176
     1
 90
        1
176
     1
 40
0.0
176
     1
 90
        0
176
     1
290
     0
176
     1
290
     1
176
     1
290
     1
176
     1
290
     0
176
     1
290
     0
176
     1
290
     0
176
     1
290
     0
176
     1
290
     0
176
     1
290
     0
176
     1
 90
       50
176
     1
 40
0.0
176
     1
 40
1.0
176
     1
 90
        0
176
     1
 62
    18
420
        0
176
     1
 90
       50
176
     1
 90
        3
176
     1
 62
     5
420
      255
176
     1
290
     0
176
     1
 90
       50
176
     1
 90
       50
176
     1
 90
       50
176
     1
290
     0
176
     1
 90
       50
176
     1
 62
   256
176
     0
 40
1.0
176
     0
 90
        2
176
     1
  1
strokes_ogs.tif
176
     1
290
     0
176
     1
 40
1.0
176
     1
 40
1.0
176
     1
  0
VISUALSTYLE
  5
3F
102
{ACAD_REACTORS
330
2A
102
}
330
2A
100
AcDbVisualStyle
  2
Sketchy
 70
    24
177
     3
291
     0
 70
    58
 90
        1
176
     1
 90
        2
176
     1
 90
        2
176
     1
 90
        0
176
     1
 40
0.6
176
     1
 40
30.0
176
     1
 62
     7
420
 16777215
176
     1
 90
        2
176
     1
 90
        2
176
     1
 62
     7
176
     1
 62
     7
176
     1
 90
        1
176
     1
 90
        1
176
     1
 40
40.0
176
     1
 90
       11
176
     1
 62
     7
176
     1
 40
1.0
176
     1
 90
        1
176
     1
 90
        6
176
     1
 90
        2
176
     1
 62
     7
176
     1
 90
        6
176
     1
 90
        0
176
     1
 90
        0
176
     1
290
     0
176
     1
 90
        1
176
     1
 40
0.0
176
     1
 90
        0
176
     1
290
     0
176
     1
290
     1
176
     1
290
     1
176
     1
290
     0
176
     1
290
     0
176
     1
290
     0
176
     1
290
     0
176
     1
290
     0
176
     1
290
     0
176
     1
 90
       50
176
     1
 40
0.0
176
     1
 40
1.0
176
     1
 90
        0
176
     1
 62
    18
420
        0
176
     1
 90
       50
176
     1
 90
        3
176
     1
 62
     5
420
      255
176
     1
290
     0
176
     1
 90
       50
176
     1
 90
       50
176
     1
 90
       50
176
     1
290
     0
176
     1
 90
       50
176
     1
 62
   256
176
     0
 40
1.0
176
     0
 90
        2
176
     1
  1
strokes_ogs.tif
176
     1
290
     0
176
     1
 40
1.0
176
     1
 40
1.0
176
     1
  0
VISUALSTYLE
  5
37
102
{ACAD_REACTORS
330
2A
102
}
330
2A
100
AcDbVisualStyle
  2
Thicken
 70
    13
177
     3
291
     1
 70
    58
 90
        2
176
     1
 90
        2
176
     1
 90
        0
176
     1
 90
        0
176
     1
 40
0.6
176
     1
 40
30.0
176
     1
 62
     7
420
 16777215
176
     1
 90
        1
176
     1
 90
        4
176
     1
 62
     7
176
     1
 62
   257
176
     1
 90
        1
176
     1
 90
        1
176
     1
 40
1.0
176
     1
 90
       12
176
     1
 62
     7
176
     1
 40
1.0
176
     1
 90
        1
176
     1
 90
        6
176
     1
 90
        2
176
     1
 62
     7
176
     1
 90
        5
176
     1
 90
        0
176
     1
 90
        0
176
     1
290
     0
176
     1
 90
        1
176
     1
 40
0.0
176
     1
 90
        0
176
     1
290
     0
176
     1
290
     1
176
     1
290
     1
176
     1
290
     0
176
     1
290
     0
176
     1
290
     0
176
     1
290
     0
176
     1
290
     0
176
     1
290
     0
176
     1
 90
       50
176
     1
 40
0.0
176
     1
 40
1.0
176
     1
 90
        0
176
     1
 62
    18
420
        0
176
     1
 90
       50
176
     1
 90
        3
176
     1
 62
     5
420
      255
176
     1
290
     0
176
     1
 90
       50
176
     1
 90
       50
176
     1
 90
       50
176
     1
290
     0
176
     1
 90
       50
176
     1
 62
   256
176
     0
 40
1.0
176
     0
 90
        2
176
     1
  1
strokes_ogs.tif
176
     1
290
     0
176
     1
 40
1.0
176
     1
 40
1.0
176
     1
  0
VISUALSTYLE
  5
30
102
{ACAD_REACTORS
330
2A
102
}
330
2A
100
AcDbVisualStyle
  2
Wireframe
 70
     5
177
     3
291
     0
 70
    58
 90
        0
176
     1
 90
        2
176
     1
 90
        0
176
     1
 90
        0
176
     1
 40
0.6
176
     1
 40
30.0
176
     1
 62
     7
420
 16777215
176
     1
 90
        1
176
     1
 90
        4
176
     1
 62
     7
176
     1
 62
   257
176
     1
 90
        1
176
     1
 90
        1
176
     1
 40
1.0
176
     1
 90
        0
176
     1
 62
   257
176
     1
 40
1.0
176
     1
 90
        1
176
     1
 90
        6
176
     1
 90
        2
176
     1
 62
     7
176
     1
 90
        3
176
     1
 90
        0
176
     1
 90
        0
176
     1
290
     0
176
     1
 90
        1
176
     1
 40
0.0
176
     1
 90
        0
176
     1
290
     0
176
     1
290
     1
176
     1
290
     1
176
     1
290
     0
176
     1
290
     0
176
     1
290
     0
176
     1
290
     0
176
     1
290
     0
176
     1
290
     0
176
     1
 90
       50
176
     1
 40
0.0
176
     1
 40
1.0
176
     1
 90
        0
176
     1
 62
    18
420
        0
176
     1
 90
       50
176
     1
 90
        3
176
     1
 62
     5
420
      255
176
     1
290
     0
176
     1
 90
       50
176
     1
 90
       50
176
     1
 90
       50
176
     1
290
     0
176
     1
 90
       50
176
     1
 62
   256
176
     0
 40
1.0
176
     0
 90
        2
176
     1
  1
strokes_ogs.tif
176
     1
290
     0
176
     1
 40
1.0
176
     1
 40
1.0
176
     1
  0
VISUALSTYLE
  5
40
102
{ACAD_REACTORS
330
2A
102
}
330
2A
100
AcDbVisualStyle
  2
X-Ray
 70
    25
177
     3
291
     0
 70
    58
 90
        2
176
     1
 90
        2
176
     1
 90
        1
176
     1
 90
        1
176
     1
 40
0.5
176
     1
 40
30.0
176
     1
 62
     7
420
 16777215
176
     1
 90
        1
176
     1
 90
        0
176
     1
 62
     7
176
     1
 62
   257
176
     1
 90
        1
176
     1
 90
        1
176
     1
 40
1.0
176
     1
 90
        8
176
     1
 62
     7
176
     1
 40
1.0
176
     1
 90
        1
176
     1
 90
        6
176
     1
 90
        2
176
     1
 62
     7
176
     1
 90
        3
176
     1
 90
        0
176
     1
 90
        0
176
     1
290
     0
176
     1
 90
       13
176
     1
 40
0.0
176
     1
 90
        0
176
     1
290
     0
176
     1
290
     1
176
     1
290
     1
176
     1
290
     0
176
     1
290
     0
176
     1
290
     0
176
     1
290
     0
176
     1
290
     0
176
     1
290
     0
176
     1
 90
       50
176
     1
 40
0.0
176
     1
 40
1.0
176
     1
 90
        0
176
     1
 62
    18
420
        0
176
     1
 90
       50
176
     1
 90
        3
176
     1
 62
     5
420
      255
176
     1
290
     0
176
     1
 90
       50
176
     1
 90
       50
176
     1
 90
       50
176
     1
290
     0
176
     1
 90
       50
176
     1
 62
   256
176
     0
 40
1.0
176
     0
 90
        2
176
     1
  1
strokes_ogs.tif
176
     1
290
     0
176
     1
 40
1.0
176
     1
 40
1.0
176
     1
  0
DICTIONARYVAR
  5
122
102
{ACAD_REACTORS
330
121
102
}
330
121
100
DictionaryVariables
280
     0
  1
1:1
  0
DICTIONARYVAR
  5
127
102
{ACAD_REACTORS
330
121
102
}
330
121
100
DictionaryVariables
280
     0
  1
Standard
  0
DICTIONARYVAR
  5
126
102
{ACAD_REACTORS
330
121
102
}
330
121
100
DictionaryVariables
280
     0
  1
Standard
  0
DICTIONARY
  5
123
330
5A
100
AcDbDictionary
280
     1
281
     1
  3
ACAD_ROUNDTRIP_2008_TABLESTYLE_CELLSTYLEMAP
360
124
  0
CELLSTYLEMAP
  5
124
102
{ACAD_REACTORS
330
123
102
}
330
123
100
AcDbCellStyleMap
 90
        3
300
CELLSTYLE
  1
TABLEFORMAT_BEGIN
 90
        5
170
     1
 91
        0
 92
    32768
 62
   257
 93
        1
300
CONTENTFORMAT
  1
CONTENTFORMAT_BEGIN
 90
        0
 91
        0
 92
        4
 93
        0
300

 40
0.0
140
1.0
 94
        5
 62
     0
340
11
144
0.25
309
CONTENTFORMAT_END
171
     1
301
MARGIN
  1
CELLMARGIN_BEGIN
 40
0.06
 40
0.06
 40
0.06
 40
0.06
 40
0.06
 40
0.06
309
CELLMARGIN_END
 94
        6
 95
        1
302
GRIDFORMAT
  1
GRIDFORMAT_BEGIN
 90
        0
 91
        1
 62
     0
 92
       -2
340
14
 93
        0
 40
0.045
309
GRIDFORMAT_END
 95
        2
302
GRIDFORMAT
  1
GRIDFORMAT_BEGIN
 90
        0
 91
        1
 62
     0
 92
       -2
340
14
 93
        0
 40
0.045
309
GRIDFORMAT_END
 95
        4
302
GRIDFORMAT
  1
GRIDFORMAT_BEGIN
 90
        0
 91
        1
 62
     0
 92
       -2
340
14
 93
        0
 40
0.045
309
GRIDFORMAT_END
 95
        8
302
GRIDFORMAT
  1
GRIDFORMAT_BEGIN
 90
        0
 91
        1
 62
     0
 92
       -2
340
14
 93
        0
 40
0.045
309
GRIDFORMAT_END
 95
       16
302
GRIDFORMAT
  1
GRIDFORMAT_BEGIN
 90
        0
 91
        1
 62
     0
 92
       -2
340
14
 93
        0
 40
0.045
309
GRIDFORMAT_END
 95
       32
302
GRIDFORMAT
  1
GRIDFORMAT_BEGIN
 90
        0
 91
        1
 62
     0
 92
       -2
340
14
 93
        0
 40
0.045
309
GRIDFORMAT_END
309
TABLEFORMAT_END
  1
CELLSTYLE_BEGIN
 90
        1
 91
        1
300
_TITLE
309
CELLSTYLE_END
300
CELLSTYLE
  1
TABLEFORMAT_BEGIN
 90
        5
170
     1
 91
        0
 92
        0
 62
   257
 93
        1
300
CONTENTFORMAT
  1
CONTENTFORMAT_BEGIN
 90
        0
 91
        0
 92
        4
 93
        0
300

 40
0.0
140
1.0
 94
        5
 62
     0
340
11
144
0.18
309
CONTENTFORMAT_END
171
     1
301
MARGIN
  1
CELLMARGIN_BEGIN
 40
0.06
 40
0.06
 40
0.06
 40
0.06
 40
0.06
 40
0.06
309
CELLMARGIN_END
 94
        6
 95
        1
302
GRIDFORMAT
  1
GRIDFORMAT_BEGIN
 90
        0
 91
        1
 62
     0
 92
       -2
340
14
 93
        0
 40
0.045
309
GRIDFORMAT_END
 95
        2
302
GRIDFORMAT
  1
GRIDFORMAT_BEGIN
 90
        0
 91
        1
 62
     0
 92
       -2
340
14
 93
        0
 40
0.045
309
GRIDFORMAT_END
 95
        4
302
GRIDFORMAT
  1
GRIDFORMAT_BEGIN
 90
        0
 91
        1
 62
     0
 92
       -2
340
14
 93
        0
 40
0.045
309
GRIDFORMAT_END
 95
        8
302
GRIDFORMAT
  1
GRIDFORMAT_BEGIN
 90
        0
 91
        1
 62
     0
 92
       -2
340
14
 93
        0
 40
0.045
309
GRIDFORMAT_END
 95
       16
302
GRIDFORMAT
  1
GRIDFORMAT_BEGIN
 90
        0
 91
        1
 62
     0
 92
       -2
340
14
 93
        0
 40
0.045
309
GRIDFORMAT_END
 95
       32
302
GRIDFORMAT
  1
GRIDFORMAT_BEGIN
 90
        0
 91
        1
 62
     0
 92
       -2
340
14
 93
        0
 40
0.045
309
GRIDFORMAT_END
309
TABLEFORMAT_END
  1
CELLSTYLE_BEGIN
 90
        2
 91
        1
300
_HEADER
309
CELLSTYLE_END
300
CELLSTYLE
  1
TABLEFORMAT_BEGIN
 90
        5
170
     1
 91
        0
 92
        0
 62
   257
 93
        1
300
CONTENTFORMAT
  1
CONTENTFORMAT_BEGIN
 90
        0
 91
        0
 92
        4
 93
        0
300

 40
0.0
140
1.0
 94
        2
 62
     0
340
11
144
0.18
309
CONTENTFORMAT_END
171
     1
301
MARGIN
  1
CELLMARGIN_BEGIN
 40
0.06
 40
0.06
 40
0.06
 40
0.06
 40
0.06
 40
0.06
309
CELLMARGIN_END
 94
        6
 95
        1
302
GRIDFORMAT
  1
GRIDFORMAT_BEGIN
 90
        0
 91
        1
 62
     0
 92
       -2
340
14
 93
        0
 40
0.045
309
GRIDFORMAT_END
 95
        2
302
GRIDFORMAT
  1
GRIDFORMAT_BEGIN
 90
        0
 91
        1
 62
     0
 92
       -2
340
14
 93
        0
 40
0.045
309
GRIDFORMAT_END
 95
        4
302
GRIDFORMAT
  1
GRIDFORMAT_BEGIN
 90
        0
 91
        1
 62
     0
 92
       -2
340
14
 93
        0
 40
0.045
309
GRIDFORMAT_END
 95
        8
302
GRIDFORMAT
  1
GRIDFORMAT_BEGIN
 90
        0
 91
        1
 62
     0
 92
       -2
340
14
 93
        0
 40
0.045
309
GRIDFORMAT_END
 95
       16
302
GRIDFORMAT
  1
GRIDFORMAT_BEGIN
 90
        0
 91
        1
 62
     0
 92
       -2
340
14
 93
        0
 40
0.045
309
GRIDFORMAT_END
 95
       32
302
GRIDFORMAT
  1
GRIDFORMAT_BEGIN
 90
        0
 91
        1
 62
     0
 92
       -2
340
14
 93
        0
 40
0.045
309
GRIDFORMAT_END
309
TABLEFORMAT_END
  1
CELLSTYLE_BEGIN
 90
        3
 91
        2
300
_DATA
309
CELLSTYLE_END
  0
ENDSEC
  0
EOF
