  0
SECTION
  2
HEADER
  9
$ACADVER
  1
AC1027
  9
$ACADMAINTVER
 70
   105
  9
$DWGCODEPAGE
  3
ANSI_1252
  9
$LASTSAVEDBY
  1
Office Desk
  9
$REQUIREDVERSIONS
160
                 0
  9
$INSBASE
 10
0.0
 20
0.0
 30
0.0
  9
$EXTMIN
 10
627.4705
 20
-71.9222
 30
0.0
  9
$EXTMAX
 10
1063.6816
 20
288.8447
 30
0.0
  9
$LIMMIN
 10
0.0
 20
0.0
  9
$LIMMAX
 10
12.0
 20
9.0
  9
$ORTHOMODE
 70
     0
  9
$REGENMODE
 70
     1
  9
$FILLMODE
 70
     1
  9
$QTEXTMODE
 70
     0
  9
$MIRRTEXT
 70
     1
  9
$LTSCALE
 40
1.0
  9
$ATTMODE
 70
     1
  9
$TEXTSIZE
 40
0.2
  9
$TRACEWID
 40
0.05
  9
$TEXTSTYLE
  7
Standard
  9
$CLAYER
  8
0
  9
$CELTYPE
  6
ByLayer
  9
$CECOLOR
 62
   256
  9
$CELTSCALE
 40
1.0
  9
$DISPSILH
 70
     0
  9
$DIMSCALE
 40
1.0
  9
$DIMASZ
 40
0.18
  9
$DIMEXO
 40
0.0625
  9
$DIMDLI
 40
0.38
  9
$DIMRND
 40
0.0
  9
$DIMDLE
 40
0.0
  9
$DIMEXE
 40
0.18
  9
$DIMTP
 40
0.0
  9
$DIMTM
 40
0.0
  9
$DIMTXT
 40
0.18
  9
$DIMCEN
 40
0.09
  9
$DIMTSZ
 40
0.0
  9
$DIMTOL
 70
     0
  9
$DIMLIM
 70
     0
  9
$DIMTIH
 70
     1
  9
$DIMTOH
 70
     1
  9
$DIMSE1
 70
     0
  9
$DIMSE2
 70
     0
  9
$DIMTAD
 70
     0
  9
$DIMZIN
 70
     0
  9
$DIMBLK
  1

  9
$DIMASO
 70
     1
  9
$DIMSHO
 70
     1
  9
$DIMPOST
  1

  9
$DIMAPOST
  1

  9
$DIMALT
 70
     0
  9
$DIMALTD
 70
     2
  9
$DIMALTF
 40
25.4
  9
$DIMLFAC
 40
1.0
  9
$DIMTOFL
 70
     0
  9
$DIMTVP
 40
0.0
  9
$DIMTIX
 70
     0
  9
$DIMSOXD
 70
     0
  9
$DIMSAH
 70
     0
  9
$DIMBLK1
  1

  9
$DIMBLK2
  1

  9
$DIMSTYLE
  2
Standard
  9
$DIMCLRD
 70
     0
  9
$DIMCLRE
 70
     0
  9
$DIMCLRT
 70
     0
  9
$DIMTFAC
 40
1.0
  9
$DIMGAP
 40
0.09
  9
$DIMJUST
 70
     0
  9
$DIMSD1
 70
     0
  9
$DIMSD2
 70
     0
  9
$DIMTOLJ
 70
     1
  9
$DIMTZIN
 70
     0
  9
$DIMALTZ
 70
     0
  9
$DIMALTTZ
 70
     0
  9
$DIMUPT
 70
     0
  9
$DIMDEC
 70
     4
  9
$DIMTDEC
 70
     4
  9
$DIMALTU
 70
     2
  9
$DIMALTTD
 70
     2
  9
$DIMTXSTY
  7
Standard
  9
$DIMAUNIT
 70
     0
  9
$DIMADEC
 70
     0
  9
$DIMALTRND
 40
0.0
  9
$DIMAZIN
 70
     0
  9
$DIMDSEP
 70
    46
  9
$DIMATFIT
 70
     3
  9
$DIMFRAC
 70
     0
  9
$DIMLDRBLK
  1

  9
$DIMLUNIT
 70
     2
  9
$DIMLWD
 70
    -2
  9
$DIMLWE
 70
    -2
  9
$DIMTMOVE
 70
     0
  9
$DIMFXL
 40
1.0
  9
$DIMFXLON
 70
     0
  9
$DIMJOGANG
 40
0.7853981633974483
  9
$DIMTFILL
 70
     0
  9
$DIMTFILLCLR
 70
     0
  9
$DIMARCSYM
 70
     0
  9
$DIMLTYPE
  6

  9
$DIMLTEX1
  6

  9
$DIMLTEX2
  6

  9
$DIMTXTDIRECTION
 70
     0
  9
$LUNITS
 70
     2
  9
$LUPREC
 70
     4
  9
$SKETCHINC
 40
0.1
  9
$FILLETRAD
 40
0.0
  9
$AUNITS
 70
     0
  9
$AUPREC
 70
     0
  9
$MENU
  1
.
  9
$ELEVATION
 40
0.0
  9
$PELEVATION
 40
0.0
  9
$THICKNESS
 40
0.0
  9
$LIMCHECK
 70
     0
  9
$CHAMFERA
 40
0.0
  9
$CHAMFERB
 40
0.0
  9
$CHAMFERC
 40
0.0
  9
$CHAMFERD
 40
0.0
  9
$SKPOLY
 70
     0
  9
$TDCREATE
 40
2461016.700691169
  9
$TDUCREATE
 40
2461016.471524502
  9
$TDUPDATE
 40
2461016.700691262
  9
$TDUUPDATE
 40
2461016.471524595
  9
$TDINDWG
 40
0.0000000116
  9
$TDUSRTIMER
 40
0.0000000116
  9
$USRTIMER
 70
     1
  9
$ANGBASE
 50
0.0
  9
$ANGDIR
 70
     0
  9
$PDMODE
 70
     0
  9
$PDSIZE
 40
0.0
  9
$PLINEWID
 40
0.0
  9
$SPLFRAME
 70
     0
  9
$SPLINETYPE
 70
     6
  9
$SPLINESEGS
 70
     8
  9
$HANDSEED
  5
E1
  9
$SURFTAB1
 70
     6
  9
$SURFTAB2
 70
     6
  9
$SURFTYPE
 70
     6
  9
$SURFU
 70
     6
  9
$SURFV
 70
     6
  9
$UCSBASE
  2

  9
$UCSNAME
  2

  9
$UCSORG
 10
0.0
 20
0.0
 30
0.0
  9
$UCSXDIR
 10
1.0
 20
0.0
 30
0.0
  9
$UCSYDIR
 10
0.0
 20
1.0
 30
0.0
  9
$UCSORTHOREF
  2

  9
$UCSORTHOVIEW
 70
     0
  9
$UCSORGTOP
 10
0.0
 20
0.0
 30
0.0
  9
$UCSORGBOTTOM
 10
0.0
 20
0.0
 30
0.0
  9
$UCSORGLEFT
 10
0.0
 20
0.0
 30
0.0
  9
$UCSORGRIGHT
 10
0.0
 20
0.0
 30
0.0
  9
$UCSORGFRONT
 10
0.0
 20
0.0
 30
0.0
  9
$UCSORGBACK
 10
0.0
 20
0.0
 30
0.0
  9
$PUCSBASE
  2

  9
$PUCSNAME
  2

  9
$PUCSORG
 10
0.0
 20
0.0
 30
0.0
  9
$PUCSXDIR
 10
1.0
 20
0.0
 30
0.0
  9
$PUCSYDIR
 10
0.0
 20
1.0
 30
0.0
  9
$PUCSORTHOREF
  2

  9
$PUCSORTHOVIEW
 70
     0
  9
$PUCSORGTOP
 10
0.0
 20
0.0
 30
0.0
  9
$PUCSORGBOTTOM
 10
0.0
 20
0.0
 30
0.0
  9
$PUCSORGLEFT
 10
0.0
 20
0.0
 30
0.0
  9
$PUCSORGRIGHT
 10
0.0
 20
0.0
 30
0.0
  9
$PUCSORGFRONT
 10
0.0
 20
0.0
 30
0.0
  9
$PUCSORGBACK
 10
0.0
 20
0.0
 30
0.0
  9
$USERI1
 70
     0
  9
$USERI2
 70
     0
  9
$USERI3
 70
     0
  9
$USERI4
 70
     0
  9
$USERI5
 70
     0
  9
$USERR1
 40
0.0
  9
$USERR2
 40
0.0
  9
$USERR3
 40
0.0
  9
$USERR4
 40
0.0
  9
$USERR5
 40
0.0
  9
$WORLDVIEW
 70
     1
  9
$SHADEDGE
 70
     3
  9
$SHADEDIF
 70
    70
  9
$TILEMODE
 70
     1
  9
$MAXACTVP
 70
    64
  9
$PINSBASE
 10
0.0
 20
0.0
 30
0.0
  9
$PLIMCHECK
 70
     0
  9
$PEXTMIN
 10
1.000000000000000E+20
 20
1.000000000000000E+20
 30
1.000000000000000E+20
  9
$PEXTMAX
 10
-1.000000000000000E+20
 20
-1.000000000000000E+20
 30
-1.000000000000000E+20
  9
$PLIMMIN
 10
0.0
 20
0.0
  9
$PLIMMAX
 10
12.0
 20
9.0
  9
$UNITMODE
 70
     0
  9
$VISRETAIN
 70
     1
  9
$PLINEGEN
 70
     0
  9
$PSLTSCALE
 70
     1
  9
$TREEDEPTH
 70
  3020
  9
$CMLSTYLE
  2
Standard
  9
$CMLJUST
 70
     0
  9
$CMLSCALE
 40
1.0
  9
$PROXYGRAPHICS
 70
     1
  9
$MEASUREMENT
 70
     0
  9
$CELWEIGHT
370
    -1
  9
$ENDCAPS
280
     0
  9
$JOINSTYLE
280
     0
  9
$LWDISPLAY
290
     0
  9
$INSUNITS
 70
     4
  9
$HYPERLINKBASE
  1

  9
$STYLESHEET
  1

  9
$XEDIT
290
     1
  9
$CEPSNTYPE
380
     0
  9
$PSTYLEMODE
290
     1
  9
$FINGERPRINTGUID
  2
{4b907ee4-f439-4ecc-b0fe-82bfb64f8d9f}
  9
$VERSIONGUID
  2
{FAEB1C32-E019-11D5-929B-00C0DF256EC4}
  9
$EXTNAMES
290
     1
  9
$PSVPSCALE
 40
0.0
  9
$OLESTARTUP
290
     0
  9
$SORTENTS
280
   127
  9
$INDEXCTL
280
     0
  9
$HIDETEXT
280
     1
  9
$XCLIPFRAME
280
     2
  9
$HALOGAP
280
     0
  9
$OBSCOLOR
 70
   257
  9
$OBSLTYPE
280
     0
  9
$INTERSECTIONDISPLAY
280
     0
  9
$INTERSECTIONCOLOR
 70
   257
  9
$DIMASSOC
280
     2
  9
$PROJECTNAME
  1

  9
$CAMERADISPLAY
290
     0
  9
$LENSLENGTH
 40
50.0
  9
$CAMERAHEIGHT
 40
0.0
  9
$STEPSPERSEC
 40
2.0
  9
$STEPSIZE
 40
6.0
  9
$3DDWFPREC
 40
2.0
  9
$PSOLWIDTH
 40
0.25
  9
$PSOLHEIGHT
 40
4.0
  9
$LOFTANG1
 40
1.570796326794897
  9
$LOFTANG2
 40
1.570796326794897
  9
$LOFTMAG1
 40
0.0
  9
$LOFTMAG2
 40
0.0
  9
$LOFTPARAM
 70
     7
  9
$LOFTNORMALS
280
     1
  9
$LATITUDE
 40
37.795
  9
$LONGITUDE
 40
-122.394
  9
$NORTHDIRECTION
 40
0.0
  9
$TIMEZONE
 70
 -8000
  9
$LIGHTGLYPHDISPLAY
280
     1
  9
$TILEMODELIGHTSYNCH
280
     1
  9
$CMATERIAL
347
44
  9
$SOLIDHIST
280
     0
  9
$SHOWHIST
280
     1
  9
$DWFFRAME
280
     2
  9
$DGNFRAME
280
     2
  9
$REALWORLDSCALE
290
     1
  9
$INTERFERECOLOR
 62
   256
  9
$CSHADOW
280
     0
  9
$SHADOWPLANELOCATION
 40
0.0
  0
ENDSEC
  0
SECTION
  2
CLASSES
  0
CLASS
  1
ACDBDICTIONARYWDFLT
  2
AcDbDictionaryWithDefault
  3
ObjectDBX Classes
 90
        0
 91
        3
280
     0
281
     0
  0
CLASS
  1
VISUALSTYLE
  2
AcDbVisualStyle
  3
ObjectDBX Classes
 90
     4095
 91
        3
280
     0
281
     0
  0
CLASS
  1
MATERIAL
  2
AcDbMaterial
  3
ObjectDBX Classes
 90
     1153
 91
        3
280
     0
281
     0
  0
CLASS
  1
SCALE
  2
AcDbScale
  3
ObjectDBX Classes
 90
     1153
 91
        3
280
     0
281
     0
  0
CLASS
  1
TABLESTYLE
  2
AcDbTableStyle
  3
ObjectDBX Classes
 90
     4095
 91
        3
280
     0
281
     0
  0
CLASS
  1
MLEADERSTYLE
  2
AcDbMLeaderStyle
  3
ACDB_MLEADERSTYLE_CLASS
 90
     4095
 91
        3
280
     0
281
     0
  0
CLASS
  1
SUN
  2
AcDbSun
  3
SCENEOE
 90
     1153
 91
        3
280
     0
281
     0
  0
CLASS
  1
DICTIONARYVAR
  2
AcDbDictionaryVar
  3
ObjectDBX Classes
 90
        0
 91
        3
280
     0
281
     0
  0
CLASS
  1
CELLSTYLEMAP
  2
AcDbCellStyleMap
  3
ObjectDBX Classes
 90
     1152
 91
        3
280
     0
281
     0
  0
ENDSEC
  0
SECTION
  2
TABLES
  0
TABLE
  2
VPORT
  5
8
330
0
100
AcDbSymbolTable
 70
     1
  0
VPORT
  5
29
330
8
100
AcDbSymbolTableRecord
100
AcDbViewportTableRecord
  2
*Active
 70
     0
 10
0.0
 20
0.0
 11
1.0
 21
1.0
 12
10.42990654205607
 22
4.5
 13
0.0
 23
0.0
 14
0.5
 24
0.5
 15
0.5
 25
0.5
 16
0.0
 26
0.0
 36
1.0
 17
0.0
 27
0.0
 37
0.0
 40
9.0
 41
1.972972972850329
 42
50.0
 43
0.0
 44
0.0
 50
0.0
 51
0.0
 71
     0
 72
   100
 73
     1
 74
     3
 75
     0
 76
     0
 77
     0
 78
     0
281
     0
 65
     1
110
0.0
120
0.0
130
0.0
111
1.0
121
0.0
131
0.0
112
0.0
122
1.0
132
0.0
 79
     0
146
0.0
348
2F
 60
     3
 61
     5
292
     1
282
     1
141
0.0
142
0.0
 63
   250
361
5D
  0
ENDTAB
  0
TABLE
  2
LTYPE
  5
5
330
0
100
AcDbSymbolTable
 70
     3
  0
LTYPE
  5
14
330
5
100
AcDbSymbolTableRecord
100
AcDbLinetypeTableRecord
  2
ByBlock
 70
     0
  3

 72
    65
 73
     0
 40
0.0
  0
LTYPE
  5
15
330
5
100
AcDbSymbolTableRecord
100
AcDbLinetypeTableRecord
  2
ByLayer
 70
     0
  3

 72
    65
 73
     0
 40
0.0
  0
LTYPE
  5
16
330
5
100
AcDbSymbolTableRecord
100
AcDbLinetypeTableRecord
  2
Continuous
 70
     0
  3
Solid line
 72
    65
 73
     0
 40
0.0
  0
LTYPE
  5
66
330
5
100
AcDbSymbolTableRecord
100
AcDbLinetypeTableRecord
  2
New Line1
 70
     0
  3

 72
    65
 73
     2
 40
0.3
 49
0.2
 74
     4
 75
     0
340
0
 46
1.0
 50
0.0
 44
0.0
 45
0.0
 49
-0.1
 74
     4
 75
     0
340
0
 46
1.0
 50
0.0
 44
0.0
 45
0.0
  0
LTYPE
  5
68
330
5
100
AcDbSymbolTableRecord
100
AcDbLinetypeTableRecord
  2
New Line2
 70
     0
  3

 72
    65
 73
     2
 40
0.3
 49
0.2
 74
     4
 75
     0
340
0
 46
1.0
 50
0.0
 44
0.0
 45
0.0
 49
-0.1
 74
     4
 75
     0
340
0
 46
1.0
 50
0.0
 44
0.0
 45
0.0
  0
ENDTAB
  0
TABLE
  2
LAYER
  5
2
330
0
100
AcDbSymbolTable
 70
     2
  0
LAYER
  5
10
330
2
100
AcDbSymbolTableRecord
100
AcDbLayerTableRecord
  2
0
 70
     0
 62
     7
  6
Continuous
370
    -3
390
F
347
46
348
0
  0
LAYER
  5
5F
330
2
100
AcDbSymbolTableRecord
100
AcDbLayerTableRecord
  2
Layer 1
 70
     0
 62
     7
  6
Continuous
370
    -3
390
F
347
46
348
0
  0
ENDTAB
  0
TABLE
  2
STYLE
  5
3
330
0
100
AcDbSymbolTable
 70
     1
  0
STYLE
  5
11
330
3
100
AcDbSymbolTableRecord
100
AcDbTextStyleTableRecord
  2
Standard
 70
     0
 40
0.0
 41
1.0
 50
0.0
 71
     0
 42
0.2
  3
txt
  4

  0
ENDTAB
  0
TABLE
  2
VIEW
  5
6
330
0
100
AcDbSymbolTable
 70
     0
  0
ENDTAB
  0
TABLE
  2
UCS
  5
7
330
0
100
AcDbSymbolTable
 70
     0
  0
ENDTAB
  0
TABLE
  2
APPID
  5
9
330
0
100
AcDbSymbolTable
 70
     2
  0
APPID
  5
12
330
9
100
AcDbSymbolTableRecord
100
AcDbRegAppTableRecord
  2
ACAD
 70
     0
  0
APPID
  5
5E
330
9
100
AcDbSymbolTableRecord
100
AcDbRegAppTableRecord
  2
ODA
 70
     0
  0
ENDTAB
  0
TABLE
  2
DIMSTYLE
  5
A
330
0
100
AcDbSymbolTable
 70
     1
100
AcDbDimStyleTable
  0
DIMSTYLE
105
27
330
A
100
AcDbSymbolTableRecord
100
AcDbDimStyleTableRecord
  2
Standard
 70
     0
178
     0
340
11
  0
ENDTAB
  0
TABLE
  2
BLOCK_RECORD
  5
1
330
0
100
AcDbSymbolTable
 70
     1
  0
BLOCK_RECORD
  5
1F
330
1
100
AcDbSymbolTableRecord
100
AcDbBlockTableRecord
  2
*Model_Space
340
22
 70
     0
280
     1
281
     0
  0
BLOCK_RECORD
  5
1B
330
1
100
AcDbSymbolTableRecord
100
AcDbBlockTableRecord
  2
*Paper_Space
340
1E
 70
     0
280
     1
281
     0
  0
BLOCK_RECORD
  5
23
330
1
100
AcDbSymbolTableRecord
100
AcDbBlockTableRecord
  2
*Paper_Space0
340
26
 70
     0
280
     1
281
     0
  0
ENDTAB
  0
ENDSEC
  0
SECTION
  2
BLOCKS
  0
BLOCK
  5
20
330
1F
100
AcDbEntity
  8
0
100
AcDbBlockBegin
  2
*Model_Space
 70
     0
 10
0.0
 20
0.0
 30
0.0
  3
*Model_Space
  1

  0
ENDBLK
  5
21
330
1F
100
AcDbEntity
  8
0
100
AcDbBlockEnd
  0
BLOCK
  5
1C
330
1B
100
AcDbEntity
 67
     1
  8
0
100
AcDbBlockBegin
  2
*Paper_Space
 70
     0
 10
0.0
 20
0.0
 30
0.0
  3
*Paper_Space
  1

  0
ENDBLK
  5
1D
330
1B
100
AcDbEntity
 67
     1
  8
0
100
AcDbBlockEnd
  0
BLOCK
  5
24
330
23
100
AcDbEntity
  8
0
100
AcDbBlockBegin
  2
*Paper_Space0
 70
     0
 10
0.0
 20
0.0
 30
0.0
  3
*Paper_Space0
  1

  0
ENDBLK
  5
25
330
23
100
AcDbEntity
  8
0
100
AcDbBlockEnd
  0
ENDSEC
  0
SECTION
  2
ENTITIES
  0
LWPOLYLINE
  5
60
330
1F
100
AcDbEntity
  8
Layer 1
 62
   250
370
     9
100
AcDbPolyline
 90
        5
 70
     1
 43
0.0
 10
627.5086
 20
-71.884
 10
1063.6434
 20
-71.884
 10
1063.6434
 20
288.8066
 10
627.5086
 20
288.8066
 10
627.5086
 20
-71.884
  0
LWPOLYLINE
  5
61
330
1F
100
AcDbEntity
  8
Layer 1
 62
     7
370
    25
100
AcDbPolyline
 90
        2
 70
     0
 43
0.0
 10
846.6741
 20
216.16
 10
1026.2631
 20
216.16
  0
LWPOLYLINE
  5
62
330
1F
100
AcDbEntity
  8
Layer 1
 62
     7
370
   106
100
AcDbPolyline
 90
        2
 70
     0
 43
0.0
 10
877.5166
 20
202.866
 10
995.3637
 20
202.9663
  0
LWPOLYLINE
  5
63
330
1F
100
AcDbEntity
  8
Layer 1
 62
     7
370
   140
100
AcDbPolyline
 90
        3
 70
     0
 43
0.0
 10
886.4691
 20
208.555
 10
875.8779
 20
203.1751
 10
887.7544
 20
197.4784
  0
LWPOLYLINE
  5
64
330
1F
100
AcDbEntity
  8
Layer 1
 62
     7
370
   140
100
AcDbPolyline
 90
        3
 70
     0
 43
0.0
 10
986.4669
 20
197.6183
 10
997.0581
 20
202.9982
 10
985.1817
 20
208.6949
  0
LWPOLYLINE
  5
65
330
1F
100
AcDbEntity
  8
Layer 1
  6
New Line1
 62
     7
370
    25
100
AcDbPolyline
 90
        2
 70
     0
 43
0.0
 10
1006.2456
 20
215.2977
 10
1043.9685
 20
-17.6052
  0
LWPOLYLINE
  5
67
330
1F
100
AcDbEntity
  8
Layer 1
  6
New Line2
 62
     7
370
    25
100
AcDbPolyline
 90
        2
 70
     0
 43
0.0
 10
867.6101
 20
215.2977
 10
828.9685
 20
-17.6052
  0
LWPOLYLINE
  5
69
330
1F
100
AcDbEntity
  8
Layer 1
 62
     7
370
    80
100
AcDbPolyline
 90
        2
 70
     0
 43
0.0
 10
847.9936
 20
-10.343
 10
1024.8498
 20
-10.2427
  0
LWPOLYLINE
  5
6A
330
1F
100
AcDbEntity
  8
Layer 1
 62
     7
370
   100
100
AcDbPolyline
 90
        3
 70
     0
 43
0.0
 10
864.3227
 20
-4.654
 10
845.9298
 20
-10.0339
 10
866.5546
 20
-15.7306
  0
LWPOLYLINE
  5
6B
330
1F
100
AcDbEntity
  8
Layer 1
 62
     7
370
   100
100
AcDbPolyline
 90
        3
 70
     0
 43
0.0
 10
1008.6176
 20
-15.5907
 10
1027.0105
 20
-10.2108
 10
1006.3857
 20
-4.5141
  0
LWPOLYLINE
  5
6C
330
1F
100
AcDbEntity
  8
Layer 1
 62
     7
370
    80
100
AcDbPolyline
 90
        2
 70
     0
 43
0.0
 10
854.3534
 20
229.7431
 10
1018.496
 20
229.8777
  0
LWPOLYLINE
  5
6D
330
1F
100
AcDbEntity
  8
Layer 1
 62
     7
370
   100
100
AcDbPolyline
 90
        3
 70
     0
 43
0.0
 10
869.5087
 20
237.381
 10
852.438
 20
230.158
 10
871.5802
 20
222.5097
  0
LWPOLYLINE
  5
6E
330
1F
100
AcDbEntity
  8
Layer 1
 62
     7
370
   100
100
AcDbPolyline
 90
        3
 70
     0
 43
0.0
 10
1003.4307
 20
222.6976
 10
1020.5014
 20
229.9206
 10
1001.3592
 20
237.5688
  0
LWPOLYLINE
  5
6F
330
1F
100
AcDbEntity
  8
Layer 1
 62
     7
370
    80
100
AcDbPolyline
 90
        2
 70
     0
 43
0.0
 10
950.5447
 20
153.7352
 10
950.7896
 20
16.9631
  0
LWPOLYLINE
  5
70
330
1F
100
AcDbEntity
  8
Layer 1
 62
     7
370
    90
100
AcDbPolyline
 90
        3
 70
     0
 43
0.0
 10
964.4362
 20
141.1071
 10
951.2994
 20
155.3313
 10
937.3892
 20
139.381
  0
LWPOLYLINE
  5
71
330
1F
100
AcDbEntity
  8
Layer 1
 62
     7
370
    90
100
AcDbPolyline
 90
        3
 70
     0
 43
0.0
 10
937.7309
 20
29.5163
 10
950.8676
 20
15.2921
 10
964.7779
 20
31.2423
  0
LWPOLYLINE
  5
72
330
1F
100
AcDbEntity
  8
Layer 1
 62
     7
370
     9
100
AcDbPolyline
 90
        7
 70
     1
 43
0.0
 10
876.0709
 20
244.0044
 10
879.4307
 20
244.0148
 10
879.2331
 20
261.6948
 10
871.1725
 20
261.2057
 10
871.1919
 20
259.6384
 10
875.8965
 20
259.653
 10
876.0709
 20
244.0044
  0
LWPOLYLINE
  5
73
330
1F
100
AcDbEntity
  8
Layer 1
 62
     7
370
     9
100
AcDbPolyline
 90
        7
 70
     1
 43
0.0
 10
890.328
 20
244.0501
 10
904.4882
 20
261.4929
 10
883.99
 20
261.4263
 10
884.0094
 20
259.628
 10
899.2741
 20
259.6769
 10
886.5825
 20
244.0377
 10
890.328
 20
244.0501
  0
LWPOLYLINE
  5
74
330
1F
100
AcDbEntity
  8
Layer 1
 62
     7
370
     9
100
AcDbPolyline
 90
       65
 70
     1
 43
0.0
 10
916.5364
 20
253.026
 10
917.2487
 20
253.0115
 10
917.9336
 20
252.9641
 10
918.5913
 20
252.8838
 10
919.2215
 20
252.7705
 10
919.8243
 20
252.6243
 10
920.3997
 20
252.445
 10
920.9475
 20
252.2327
 10
921.4677
 20
251.9874
 10
921.938
 20
251.7213
 10
922.3462
 20
251.4397
 10
922.6922
 20
251.1426
 10
922.9762
 20
250.8299
 10
923.198
 20
250.5018
 10
923.3576
 20
250.1581
 10
923.4552
 20
249.7989
 10
923.4906
 20
249.4242
 10
923.4641
 20
249.0529
 10
923.3759
 20
248.6939
 10
923.226
 20
248.347
 10
923.0144
 20
248.0124
 10
922.7413
 20
247.69
 10
922.4067
 20
247.3799
 10
922.0106
 20
247.0821
 10
921.553
 20
246.7965
 10
921.0505
 20
246.5362
 10
920.5154
 20
246.3103
 10
919.9475
 20
246.1187
 10
919.347
 20
245.9615
 10
918.7138
 20
245.8387
 10
918.0478
 20
245.7503
 10
917.3492
 20
245.6963
 10
916.6178
 20
245.6767
 10
915.8868
 20
245.6913
 10
915.1878
 20
245.7407
 10
914.5206
 20
245.8247
 10
913.8853
 20
245.9434
 10
913.2817
 20
246.0967
 10
912.7099
 20
246.2846
 10
912.1698
 20
246.5071
 10
911.6614
 20
246.7642
 10
911.1972
 20
247.0468
 10
910.7942
 20
247.3422
 10
910.4525
 20
247.6501
 10
910.1721
 20
247.9707
 10
909.9529
 20
248.304
 10
909.7952
 20
248.6499
 10
909.6987
 20
249.0083
 10
909.6637
 20
249.3794
 10
909.6906
 20
249.7543
 10
909.7799
 20
250.1141
 10
909.9317
 20
250.4587
 10
910.1459
 20
250.7883
 10
910.4225
 20
251.1027
 10
910.7615
 20
251.4019
 10
911.1628
 20
251.6861
 10
911.6265
 20
251.9551
 10
912.1425
 20
252.2037
 10
912.6863
 20
252.4196
 10
913.258
 20
252.6028
 10
913.8577
 20
252.7532
 10
914.4853
 20
252.8707
 10
915.1409
 20
252.9554
 10
915.8246
 20
253.0072
 10
916.5364
 20
253.026
  0
LWPOLYLINE
  5
75
330
1F
100
AcDbEntity
  8
Layer 1
 62
     7
370
     9
100
AcDbPolyline
 90
       65
 70
     1
 43
0.0
 10
916.457
 20
260.1171
 10
917.0318
 20
260.1062
 10
917.5848
 20
260.0695
 10
918.1163
 20
260.0071
 10
918.6262
 20
259.9189
 10
919.1147
 20
259.8049
 10
919.5818
 20
259.6652
 10
920.0277
 20
259.4997
 10
920.4524
 20
259.3085
 10
920.8484
 20
259.093
 10
921.1921
 20
258.865
 10
921.4834
 20
258.6244
 10
921.7223
 20
258.3711
 10
921.9088
 20
258.1053
 10
922.0429
 20
257.8269
 10
922.1245
 20
257.536
 10
922.1537
 20
257.2324
 10
922.131
 20
256.9351
 10
922.0556
 20
256.6472
 10
921.9276
 20
256.3689
 10
921.747
 20
256.1
 10
921.5138
 20
255.8407
 10
921.228
 20
255.5908
 10
920.8897
 20
255.3505
 10
920.4989
 20
255.1198
 10
920.0815
 20
254.9134
 10
919.6414
 20
254.7342
 10
919.1787
 20
254.5824
 10
918.6933
 20
254.4578
 10
918.1851
 20
254.3605
 10
917.654
 20
254.2905
 10
917.0999
 20
254.2477
 10
916.5229
 20
254.2321
 10
915.9461
 20
254.2442
 10
915.3913
 20
254.2836
 10
914.8586
 20
254.3504
 10
914.3481
 20
254.4444
 10
913.8599
 20
254.5658
 10
913.394
 20
254.7145
 10
912.9505
 20
254.8905
 10
912.5294
 20
255.0938
 10
912.1333
 20
255.3223
 10
911.7894
 20
255.5606
 10
911.4978
 20
255.8086
 10
911.2584
 20
256.0665
 10
911.0713
 20
256.3341
 10
910.9365
 20
256.6116
 10
910.8542
 20
256.8989
 10
910.8243
 20
257.196
 10
910.8471
 20
257.4998
 10
910.9227
 20
257.7913
 10
911.0511
 20
258.0706
 10
911.2322
 20
258.3376
 10
911.466
 20
258.5923
 10
911.7524
 20
258.8347
 10
912.0914
 20
259.0648
 10
912.4829
 20
259.2825
 10
912.9023
 20
259.4766
 10
913.3439
 20
259.645
 10
913.8076
 20
259.7879
 10
914.2934
 20
259.9051
 10
914.8012
 20
259.9967
 10
915.3311
 20
260.0625
 10
915.8831
 20
260.1027
 10
916.457
 20
260.1171
  0
LWPOLYLINE
  5
76
330
1F
100
AcDbEntity
  8
Layer 1
 62
     7
370
     9
100
AcDbPolyline
 90
      121
 70
     1
 43
0.0
 10
916.6391
 20
243.8774
 10
917.7388
 20
243.9032
 10
918.7938
 20
243.9734
 10
919.8042
 20
244.0881
 10
920.7699
 20
244.2473
 10
921.6909
 20
244.4508
 10
922.5669
 20
244.6988
 10
923.3981
 20
244.9913
 10
924.1843
 20
245.3281
 10
924.5386
 20
245.5038
 10
924.8734
 20
245.6883
 10
925.1887
 20
245.8816
 10
925.4844
 20
246.0836
 10
925.7605
 20
246.2944
 10
926.017
 20
246.5141
 10
926.2537
 20
246.7424
 10
926.4707
 20
246.9796
 10
926.6647
 20
247.2256
 10
926.8325
 20
247.4803
 10
926.974
 20
247.7438
 10
927.0893
 20
248.016
 10
927.1782
 20
248.297
 10
927.2407
 20
248.5867
 10
927.2768
 20
248.885
 10
927.2864
 20
249.1921
 10
927.2606
 20
249.5034
 10
927.1906
 20
249.8136
 10
927.0762
 20
250.1228
 10
926.9176
 20
250.4311
 10
926.7147
 20
250.7383
 10
926.4677
 20
251.0446
 10
926.1764
 20
251.3499
 10
925.841
 20
251.6544
 10
925.4651
 20
251.9513
 10
925.0508
 20
252.2341
 10
924.5983
 20
252.5027
 10
924.1075
 20
252.7572
 10
923.5785
 20
252.9976
 10
923.0113
 20
253.2237
 10
922.4058
 20
253.4358
 10
921.7622
 20
253.6337
 10
922.6686
 20
254.0717
 10
923.4534
 20
254.5185
 10
924.1167
 20
254.9741
 10
924.6585
 20
255.4385
 10
925.0788
 20
255.9119
 10
925.3775
 20
256.3941
 10
925.5547
 20
256.8853
 10
925.6104
 20
257.3854
 10
925.5631
 20
257.878
 10
925.4327
 20
258.3474
 10
925.2194
 20
258.7936
 10
924.923
 20
259.2167
 10
924.5436
 20
259.6167
 10
924.0812
 20
259.9935
 10
923.5358
 20
260.3473
 10
922.9074
 20
260.6781
 10
922.2443
 20
260.9651
 10
921.5395
 20
261.2133
 10
920.7932
 20
261.4229
 10
920.0053
 20
261.5938
 10
919.1758
 20
261.7259
 10
918.3046
 20
261.8194
 10
917.3919
 20
261.8743
 10
916.4376
 20
261.8905
 10
915.4837
 20
261.8682
 10
914.5724
 20
261.8075
 10
913.7034
 20
261.7084
 10
912.877
 20
261.571
 10
912.0929
 20
261.395
 10
911.3512
 20
261.1807
 10
910.6519
 20
260.9278
 10
909.995
 20
260.6364
 10
909.3735
 20
260.3018
 10
908.836
 20
259.9451
 10
908.3822
 20
259.5662
 10
908.0121
 20
259.1651
 10
907.7257
 20
258.7417
 10
907.5228
 20
258.2962
 10
907.4035
 20
257.8285
 10
907.3676
 20
257.3385
 10
907.434
 20
256.8359
 10
907.6216
 20
256.3433
 10
907.9306
 20
255.8609
 10
908.3609
 20
255.3886
 10
908.9126
 20
254.9262
 10
909.5858
 20
254.474
 10
910.3807
 20
254.0317
 10
911.2971
 20
253.5994
 10
910.6581
 20
253.3977
 10
910.0578
 20
253.182
 10
909.496
 20
252.9524
 10
908.9727
 20
252.7088
 10
908.4878
 20
252.4513
 10
908.0412
 20
252.1798
 10
907.6329
 20
251.8944
 10
907.2629
 20
251.595
 10
906.9348
 20
251.2878
 10
906.6508
 20
250.9788
 10
906.411
 20
250.6679
 10
906.2154
 20
250.3552
 10
906.064
 20
250.0406
 10
905.9569
 20
249.724
 10
905.8941
 20
249.4055
 10
905.8756
 20
249.0849
 10
905.9311
 20
248.5112
 10
906.0845
 20
247.9655
 10
906.3358
 20
247.4478
 10
906.685
 20
246.9581
 10
907.1322
 20
246.4963
 10
907.6772
 20
246.0626
 10
908.3202
 20
245.6569
 10
909.0611
 20
245.2792
 10
909.8554
 20
244.9475
 10
910.6934
 20
244.6605
 10
911.5751
 20
244.4181
 10
912.5006
 20
244.2204
 10
913.4697
 20
244.0675
 10
914.4826
 20
243.9593
 10
915.539
 20
243.8959
 10
916.6391
 20
243.8774
  0
LWPOLYLINE
  5
77
330
1F
100
AcDbEntity
  8
Layer 1
 62
     7
370
     9
100
AcDbPolyline
 90
      165
 70
     1
 43
0.0
 10
959.6508
 20
244.3228
 10
963.0106
 20
244.3342
 10
962.9312
 20
251.4015
 10
962.8989
 20
251.8704
 10
962.812
 20
252.3172
 10
962.6706
 20
252.7417
 10
962.4746
 20
253.1441
 10
962.2241
 20
253.5242
 10
961.9189
 20
253.882
 10
961.5591
 20
254.2176
 10
961.1447
 20
254.5308
 10
960.9139
 20
254.6803
 10
960.6691
 20
254.8222
 10
960.4102
 20
254.9563
 10
960.1371
 20
255.0828
 10
959.8499
 20
255.2016
 10
959.5485
 20
255.3128
 10
959.2328
 20
255.4163
 10
958.9028
 20
255.5122
 10
958.5522
 20
255.5984
 10
958.1747
 20
255.673
 10
957.7703
 20
255.7358
 10
957.3389
 20
255.7868
 10
956.8805
 20
255.8261
 10
956.3952
 20
255.8536
 10
955.8828
 20
255.8694
 10
955.3434
 20
255.8733
 10
954.8006
 20
255.8617
 10
954.2752
 20
255.83
 10
953.7673
 20
255.7782
 10
953.2767
 20
255.7064
 10
952.8034
 20
255.6145
 10
952.3475
 20
255.5026
 10
951.9089
 20
255.3707
 10
951.4875
 20
255.2187
 10
951.1223
 20
255.0675
 10
950.7737
 20
254.9053
 10
950.4417
 20
254.732
 10
950.1263
 20
254.5477
 10
949.8277
 20
254.3527
 10
949.5458
 20
254.1469
 10
949.2807
 20
253.9305
 10
949.0325
 20
253.7035
 10
948.8348
 20
253.9116
 10
948.6195
 20
254.1123
 10
948.3865
 20
254.3051
 10
948.1354
 20
254.4892
 10
947.9045
 20
254.6387
 10
947.6595
 20
254.7805
 10
947.4002
 20
254.9147
 10
947.1269
 20
255.0411
 10
946.8393
 20
255.1599
 10
946.5376
 20
255.2711
 10
946.2217
 20
255.3746
 10
945.8916
 20
255.4705
 10
945.541
 20
255.5567
 10
945.1636
 20
255.6313
 10
944.7593
 20
255.6941
 10
944.3282
 20
255.7451
 10
943.8703
 20
255.7844
 10
943.3856
 20
255.8119
 10
942.8742
 20
255.8277
 10
942.3361
 20
255.8316
 10
941.792
 20
255.82
 10
941.2657
 20
255.7883
 10
940.7571
 20
255.7366
 10
940.2662
 20
255.6647
 10
939.7929
 20
255.5729
 10
939.3371
 20
255.461
 10
938.8989
 20
255.329
 10
938.4782
 20
255.1771
 10
938.1299
 20
255.033
 10
937.7969
 20
254.8792
 10
937.4792
 20
254.7158
 10
937.1766
 20
254.5428
 10
936.8891
 20
254.3599
 10
936.6166
 20
254.1673
 10
936.3591
 20
253.9648
 10
936.1163
 20
253.7524
 10
936.0949
 20
255.5548
 10
932.737
 20
255.5444
 10
932.863
 20
244.2375
 10
936.2228
 20
244.2479
 10
936.1569
 20
250.034
 10
936.2315
 20
250.3716
 10
936.3302
 20
250.696
 10
936.453
 20
251.0074
 10
936.5999
 20
251.3059
 10
936.7709
 20
251.5915
 10
936.9659
 20
251.8644
 10
937.185
 20
252.1246
 10
937.428
 20
252.3724
 10
937.6267
 20
252.5491
 10
937.8418
 20
252.7178
 10
938.0735
 20
252.8785
 10
938.3218
 20
253.0311
 10
938.5865
 20
253.1756
 10
938.8678
 20
253.3121
 10
939.1657
 20
253.4406
 10
939.48
 20
253.5609
 10
939.8057
 20
253.6707
 10
940.1376
 20
253.766
 10
940.4756
 20
253.8468
 10
940.8199
 20
253.913
 10
941.1703
 20
253.9648
 10
941.5269
 20
254.0021
 10
941.8897
 20
254.025
 10
942.2586
 20
254.0334
 10
942.6192
 20
254.0307
 10
942.9555
 20
254.0203
 10
943.2677
 20
254.0022
 10
943.5558
 20
253.9764
 10
943.8199
 20
253.9429
 10
944.0602
 20
253.9017
 10
944.2766
 20
253.8527
 10
944.4694
 20
253.7961
 10
944.9554
 20
253.6062
 10
945.3773
 20
253.383
 10
945.7351
 20
253.1267
 10
946.0287
 20
252.8372
 10
946.2582
 20
252.5146
 10
946.4236
 20
252.1589
 10
946.5249
 20
251.7702
 10
946.562
 20
251.3484
 10
946.6415
 20
244.2812
 10
950.0013
 20
244.2926
 10
949.9219
 20
251.3588
 10
949.8928
 20
251.7917
 10
950.0153
 20
251.9561
 10
950.1471
 20
252.1142
 10
950.2884
 20
252.2666
 10
950.4392
 20
252.4141
 10
950.6372
 20
252.5908
 10
950.8519
 20
252.7594
 10
951.0833
 20
252.9201
 10
951.3313
 20
253.0727
 10
951.5959
 20
253.2172
 10
951.8772
 20
253.3537
 10
952.175
 20
253.4822
 10
952.4893
 20
253.6025
 10
952.8151
 20
253.7123
 10
953.1471
 20
253.8076
 10
953.4854
 20
253.8884
 10
953.8299
 20
253.9547
 10
954.1804
 20
254.0065
 10
954.5369
 20
254.0438
 10
954.8994
 20
254.0666
 10
955.2678
 20
254.075
 10
955.6279
 20
254.0723
 10
955.9642
 20
254.0619
 10
956.2767
 20
254.0438
 10
956.5653
 20
254.018
 10
956.83
 20
253.9845
 10
957.0708
 20
253.9433
 10
957.2877
 20
253.8943
 10
957.4806
 20
253.8377
 10
957.9666
 20
253.6478
 10
958.3885
 20
253.4246
 10
958.7462
 20
253.1683
 10
959.0397
 20
252.8788
 10
959.269
 20
252.5562
 10
959.434
 20
252.2005
 10
959.5348
 20
251.8118
 10
959.5713
 20
251.39
 10
959.6508
 20
244.3228
  0
LWPOLYLINE
  5
78
330
1F
100
AcDbEntity
  8
Layer 1
 62
     7
370
     9
100
AcDbPolyline
 90
      165
 70
     1
 43
0.0
 10
996.2818
 20
244.4404
 10
999.6397
 20
244.4518
 10
999.5622
 20
251.5191
 10
999.5292
 20
251.9877
 10
999.4419
 20
252.4344
 10
999.3001
 20
252.8589
 10
999.1039
 20
253.2613
 10
998.8532
 20
253.6415
 10
998.548
 20
253.9995
 10
998.1882
 20
254.3351
 10
997.7737
 20
254.6484
 10
997.5429
 20
254.7979
 10
997.2981
 20
254.9397
 10
997.0392
 20
255.0739
 10
996.7662
 20
255.2003
 10
996.479
 20
255.3191
 10
996.1776
 20
255.4303
 10
995.8619
 20
255.5338
 10
995.5319
 20
255.6297
 10
995.1813
 20
255.7159
 10
994.8038
 20
255.7905
 10
994.3995
 20
255.8533
 10
993.9682
 20
255.9044
 10
993.5101
 20
255.9437
 10
993.0251
 20
255.9712
 10
992.5132
 20
255.9869
 10
991.9744
 20
255.9909
 10
991.431
 20
255.9793
 10
990.9052
 20
255.9476
 10
990.3969
 20
255.8958
 10
989.9062
 20
255.824
 10
989.433
 20
255.7321
 10
988.9774
 20
255.6202
 10
988.5392
 20
255.4883
 10
988.1185
 20
255.3363
 10
987.7527
 20
255.1851
 10
987.4038
 20
255.0229
 10
987.0717
 20
254.8496
 10
986.7563
 20
254.6653
 10
986.4577
 20
254.4703
 10
986.1757
 20
254.2645
 10
985.9104
 20
254.0481
 10
985.6616
 20
253.8211
 10
985.4639
 20
254.0292
 10
985.2486
 20
254.2299
 10
985.0156
 20
254.4227
 10
984.7645
 20
254.6068
 10
984.5342
 20
254.7563
 10
984.2894
 20
254.8981
 10
984.0302
 20
255.0322
 10
983.7566
 20
255.1587
 10
983.4689
 20
255.2775
 10
983.1669
 20
255.3887
 10
982.8508
 20
255.4922
 10
982.5207
 20
255.5881
 10
982.1702
 20
255.6743
 10
981.7929
 20
255.7489
 10
981.3889
 20
255.8117
 10
980.958
 20
255.8627
 10
980.5002
 20
255.902
 10
980.0155
 20
255.9295
 10
979.5038
 20
255.9453
 10
978.9651
 20
255.9492
 10
978.4217
 20
255.9376
 10
977.8958
 20
255.9059
 10
977.3875
 20
255.8542
 10
976.8967
 20
255.7823
 10
976.4233
 20
255.6905
 10
975.9673
 20
255.5786
 10
975.5287
 20
255.4466
 10
975.1073
 20
255.2947
 10
974.7595
 20
255.1506
 10
974.4268
 20
254.9968
 10
974.1091
 20
254.8334
 10
973.8064
 20
254.6604
 10
973.5187
 20
254.4775
 10
973.246
 20
254.2849
 10
972.9882
 20
254.0824
 10
972.7453
 20
253.87
 10
972.7259
 20
255.6724
 10
969.3661
 20
255.661
 10
969.492
 20
244.3551
 10
972.8519
 20
244.3655
 10
972.7879
 20
250.1516
 10
972.8624
 20
250.4889
 10
972.9609
 20
250.8132
 10
973.0834
 20
251.1246
 10
973.23
 20
251.4231
 10
973.4006
 20
251.7088
 10
973.5953
 20
251.9818
 10
973.8141
 20
252.2422
 10
974.0571
 20
252.49
 10
974.2563
 20
252.6664
 10
974.4717
 20
252.8349
 10
974.7034
 20
252.9956
 10
974.9515
 20
253.1483
 10
975.2161
 20
253.293
 10
975.4971
 20
253.4296
 10
975.7947
 20
253.5581
 10
976.109
 20
253.6785
 10
976.4348
 20
253.7883
 10
976.7669
 20
253.8836
 10
977.1052
 20
253.9644
 10
977.4497
 20
254.0306
 10
977.8002
 20
254.0824
 10
978.1567
 20
254.1197
 10
978.5192
 20
254.1425
 10
978.8876
 20
254.1509
 10
979.2483
 20
254.1482
 10
979.5848
 20
254.1379
 10
979.8973
 20
254.1198
 10
980.1858
 20
254.094
 10
980.4503
 20
254.0605
 10
980.6909
 20
254.0193
 10
980.9076
 20
253.9703
 10
981.1004
 20
253.9137
 10
981.5864
 20
253.7238
 10
982.0083
 20
253.5006
 10
982.366
 20
253.2443
 10
982.6595
 20
252.9548
 10
982.8888
 20
252.6322
 10
983.0538
 20
252.2765
 10
983.1546
 20
251.8878
 10
983.1911
 20
251.466
 10
983.2705
 20
244.3988
 10
986.6304
 20
244.4102
 10
986.551
 20
251.4764
 10
986.5238
 20
251.9093
 10
986.6462
 20
252.0737
 10
986.7779
 20
252.2318
 10
986.9186
 20
252.3842
 10
987.0683
 20
252.5317
 10
987.2663
 20
252.7084
 10
987.481
 20
252.877
 10
987.7124
 20
253.0377
 10
987.9606
 20
253.1903
 10
988.2254
 20
253.3348
 10
988.507
 20
253.4713
 10
988.8053
 20
253.5998
 10
989.1203
 20
253.7201
 10
989.4454
 20
253.8299
 10
989.777
 20
253.9252
 10
990.1151
 20
254.006
 10
990.4594
 20
254.0723
 10
990.81
 20
254.1241
 10
991.1669
 20
254.1614
 10
991.5298
 20
254.1842
 10
991.8988
 20
254.1926
 10
992.2589
 20
254.1899
 10
992.5949
 20
254.1795
 10
992.9071
 20
254.1614
 10
993.1954
 20
254.1356
 10
993.4597
 20
254.1021
 10
993.7002
 20
254.0609
 10
993.9169
 20
254.0119
 10
994.1097
 20
253.9553
 10
994.5957
 20
253.7654
 10
995.0176
 20
253.5422
 10
995.3754
 20
253.2859
 10
995.669
 20
252.9964
 10
995.8985
 20
252.6738
 10
996.0639
 20
252.3181
 10
996.1652
 20
251.9294
 10
996.2023
 20
251.5076
 10
996.2818
 20
244.4404
  0
LWPOLYLINE
  5
79
330
1F
100
AcDbEntity
  8
Layer 1
 62
     7
370
     9
100
AcDbPolyline
 90
        7
 70
     1
 43
0.0
 10
877.5008
 20
170.5607
 10
880.8607
 20
170.5711
 10
880.6611
 20
188.2511
 10
872.6025
 20
187.762
 10
872.6199
 20
186.1948
 10
877.3245
 20
186.2093
 10
877.5008
 20
170.5607
  0
LWPOLYLINE
  5
7A
330
1F
100
AcDbEntity
  8
Layer 1
 62
     7
370
     9
100
AcDbPolyline
 90
        7
 70
     1
 43
0.0
 10
891.756
 20
170.6065
 10
905.9182
 20
188.0493
 10
885.418
 20
187.9826
 10
885.4393
 20
186.1844
 10
900.704
 20
186.2343
 10
888.0125
 20
170.594
 10
891.756
 20
170.6065
  0
LWPOLYLINE
  5
7B
330
1F
100
AcDbEntity
  8
Layer 1
 62
     7
370
     9
100
AcDbPolyline
 90
      125
 70
     1
 43
0.0
 10
923.727
 20
186.1531
 10
924.2832
 20
185.9533
 10
924.8024
 20
185.7261
 10
925.2844
 20
185.4716
 10
925.7293
 20
185.1896
 10
926.1371
 20
184.8801
 10
926.5077
 20
184.5432
 10
926.841
 20
184.1787
 10
927.1372
 20
183.7866
 10
927.4694
 20
183.2668
 10
927.7581
 20
182.7392
 10
928.0035
 20
182.2038
 10
928.2054
 20
181.6605
 10
928.3638
 20
181.1095
 10
928.4789
 20
180.5507
 10
928.5506
 20
179.984
 10
928.5788
 20
179.4096
 10
928.573
 20
179.128
 10
928.5495
 20
178.8221
 10
928.5083
 20
178.4919
 10
928.449
 20
178.1378
 10
928.2897
 20
177.4465
 10
928.0791
 20
176.7932
 10
927.8173
 20
176.1779
 10
927.5042
 20
175.6005
 10
927.1398
 20
175.0612
 10
926.724
 20
174.5599
 10
926.2568
 20
174.0966
 10
925.7383
 20
173.6713
 10
925.2639
 20
173.3503
 10
924.7635
 20
173.0719
 10
924.2372
 20
172.8359
 10
923.6849
 20
172.6426
 10
923.1066
 20
172.4917
 10
922.5023
 20
172.3834
 10
921.872
 20
172.3177
 10
921.2158
 20
172.2944
 10
920.4833
 20
172.3129
 10
919.7855
 20
172.3737
 10
919.1225
 20
172.4768
 10
918.4942
 20
172.6223
 10
917.9007
 20
172.8101
 10
917.342
 20
173.0402
 10
916.8181
 20
173.3127
 10
916.3291
 20
173.6276
 10
916.122
 20
173.7802
 10
915.9238
 20
173.9377
 10
915.7343
 20
174.0999
 10
915.5538
 20
174.2671
 10
915.3823
 20
174.4391
 10
915.2199
 20
174.616
 10
915.0665
 20
174.7978
 10
914.9224
 20
174.9846
 10
914.7863
 20
175.1745
 10
914.6586
 20
175.3655
 10
914.5391
 20
175.5577
 10
914.4278
 20
175.7512
 10
914.3247
 20
175.9458
 10
914.2297
 20
176.1417
 10
914.1429
 20
176.3389
 10
914.064
 20
176.5373
 10
913.9925
 20
176.7352
 10
913.9263
 20
176.9316
 10
913.8654
 20
177.1265
 10
913.8097
 20
177.3199
 10
913.7593
 20
177.5117
 10
913.7142
 20
177.7019
 10
913.6743
 20
177.8905
 10
913.6397
 20
178.0775
 10
913.6095
 20
178.2673
 10
913.5827
 20
178.4642
 10
913.5596
 20
178.6683
 10
913.5401
 20
178.8795
 10
913.5244
 20
179.0977
 10
913.5124
 20
179.323
 10
913.5044
 20
179.5553
 10
913.5002
 20
179.7946
 10
913.5055
 20
180.0442
 10
913.5271
 20
180.3085
 10
913.5651
 20
180.5873
 10
913.6196
 20
180.8808
 10
913.6905
 20
181.1891
 10
913.7778
 20
181.5121
 10
913.8817
 20
181.85
 10
914.002
 20
182.2027
 10
914.0754
 20
182.3988
 10
914.1562
 20
182.5945
 10
914.2444
 20
182.7899
 10
914.3401
 20
182.9848
 10
914.4435
 20
183.1793
 10
914.5546
 20
183.3735
 10
914.6735
 20
183.5672
 10
914.8003
 20
183.7606
 10
914.9352
 20
183.9514
 10
915.0797
 20
184.1373
 10
915.234
 20
184.3183
 10
915.3979
 20
184.4946
 10
915.5715
 20
184.6661
 10
915.7548
 20
184.8328
 10
915.948
 20
184.9947
 10
916.1509
 20
185.152
 10
916.3647
 20
185.3031
 10
916.589
 20
185.4467
 10
916.8239
 20
185.5826
 10
917.0693
 20
185.7109
 10
917.3252
 20
185.8315
 10
917.5917
 20
185.9446
 10
917.8687
 20
186.05
 10
918.1563
 20
186.1479
 10
918.4566
 20
186.2365
 10
918.7703
 20
186.3134
 10
919.0977
 20
186.3786
 10
919.4385
 20
186.4322
 10
919.793
 20
186.474
 10
920.1612
 20
186.5043
 10
920.5431
 20
186.5229
 10
920.9388
 20
186.5299
 10
921.3339
 20
186.525
 10
921.7156
 20
186.5081
 10
922.0839
 20
186.479
 10
922.439
 20
186.4379
 10
922.7808
 20
186.3848
 10
923.1093
 20
186.3196
 10
923.4247
 20
186.2423
 10
923.727
 20
186.1531
  0
LWPOLYLINE
  5
7C
330
1F
100
AcDbEntity
  8
Layer 1
 62
     7
370
     9
100
AcDbPolyline
 90
       65
 70
     1
 43
0.0
 10
921.2856
 20
170.4701
 10
922.6865
 20
170.5222
 10
923.9972
 20
170.6692
 10
925.2177
 20
170.911
 10
926.3479
 20
171.2477
 10
927.3877
 20
171.6792
 10
928.3371
 20
172.2057
 10
929.196
 20
172.827
 10
929.9643
 20
173.5433
 10
930.5032
 20
174.1674
 10
930.9688
 20
174.826
 10
931.3613
 20
175.519
 10
931.6805
 20
176.2464
 10
931.9266
 20
177.0082
 10
932.0994
 20
177.8043
 10
932.1991
 20
178.6346
 10
932.2255
 20
179.4991
 10
932.1793
 20
180.3636
 10
932.0609
 20
181.1932
 10
931.8703
 20
181.988
 10
931.6074
 20
182.7479
 10
931.2722
 20
183.4731
 10
930.8647
 20
184.1635
 10
930.3848
 20
184.8192
 10
929.8325
 20
185.4403
 10
929.0474
 20
186.1513
 10
928.1743
 20
186.7669
 10
927.2131
 20
187.2872
 10
926.1638
 20
187.7121
 10
925.0263
 20
188.0416
 10
923.8006
 20
188.2756
 10
922.4866
 20
188.4141
 10
921.0841
 20
188.4572
 10
919.6826
 20
188.4054
 10
918.3716
 20
188.2586
 10
917.151
 20
188.0169
 10
916.0208
 20
187.6802
 10
914.981
 20
187.2487
 10
914.0315
 20
186.7223
 10
913.1724
 20
186.1011
 10
912.4035
 20
185.3851
 10
911.8653
 20
184.7604
 10
911.4001
 20
184.1015
 10
911.0079
 20
183.4084
 10
910.6889
 20
182.6811
 10
910.443
 20
181.9194
 10
910.2702
 20
181.1234
 10
910.1706
 20
180.2931
 10
910.1442
 20
179.4283
 10
910.1899
 20
178.564
 10
910.308
 20
177.7345
 10
910.4986
 20
176.9396
 10
910.7616
 20
176.1795
 10
911.097
 20
175.4541
 10
911.5047
 20
174.7636
 10
911.9848
 20
174.1079
 10
912.5372
 20
173.4871
 10
913.3217
 20
172.7758
 10
914.1946
 20
172.16
 10
915.1557
 20
171.6397
 10
916.2051
 20
171.2149
 10
917.3428
 20
170.8855
 10
918.5688
 20
170.6516
 10
919.8831
 20
170.5132
 10
921.2856
 20
170.4701
  0
LWPOLYLINE
  5
7D
330
1F
100
AcDbEntity
  8
Layer 1
 62
     7
370
     9
100
AcDbPolyline
 90
      165
 70
     1
 43
0.0
 10
965.113
 20
170.8927
 10
968.4728
 20
170.9031
 10
968.3934
 20
177.9703
 10
968.361
 20
178.4392
 10
968.2739
 20
178.886
 10
968.1323
 20
179.3106
 10
967.9361
 20
179.713
 10
967.6854
 20
180.0933
 10
967.3803
 20
180.4513
 10
967.0208
 20
180.7871
 10
966.6069
 20
181.1007
 10
966.3754
 20
181.2502
 10
966.1301
 20
181.392
 10
965.8709
 20
181.5261
 10
965.5976
 20
181.6526
 10
965.3103
 20
181.7714
 10
965.0088
 20
181.8826
 10
964.6931
 20
181.9861
 10
964.3631
 20
182.082
 10
964.0125
 20
182.1682
 10
963.635
 20
182.2426
 10
963.2307
 20
182.3053
 10
962.7994
 20
182.3562
 10
962.3413
 20
182.3954
 10
961.8563
 20
182.423
 10
961.3444
 20
182.4389
 10
960.8056
 20
182.4431
 10
960.2622
 20
182.4312
 10
959.7364
 20
182.3992
 10
959.2281
 20
182.3473
 10
958.7374
 20
182.2754
 10
958.2642
 20
182.1836
 10
957.8086
 20
182.0718
 10
957.3704
 20
181.9401
 10
956.9497
 20
181.7885
 10
956.5839
 20
181.6373
 10
956.235
 20
181.4749
 10
955.9029
 20
181.3015
 10
955.5875
 20
181.1171
 10
955.2889
 20
180.9218
 10
955.0069
 20
180.7159
 10
954.7416
 20
180.4993
 10
954.4928
 20
180.2723
 10
954.2951
 20
180.481
 10
954.0798
 20
180.682
 10
953.8468
 20
180.8749
 10
953.5957
 20
181.059
 10
953.3654
 20
181.2085
 10
953.1209
 20
181.3502
 10
952.862
 20
181.4842
 10
952.5888
 20
181.6106
 10
952.3014
 20
181.7293
 10
951.9997
 20
181.8405
 10
951.6839
 20
181.9442
 10
951.3538
 20
182.0404
 10
951.0032
 20
182.1266
 10
950.6258
 20
182.201
 10
950.2214
 20
182.2637
 10
949.7902
 20
182.3146
 10
949.332
 20
182.3538
 10
948.847
 20
182.3814
 10
948.3351
 20
182.3973
 10
947.7963
 20
182.4015
 10
947.2529
 20
182.3896
 10
946.727
 20
182.3576
 10
946.2187
 20
182.3057
 10
945.7279
 20
182.2338
 10
945.2545
 20
182.142
 10
944.7985
 20
182.0302
 10
944.3599
 20
181.8985
 10
943.9385
 20
181.7469
 10
943.5907
 20
181.6028
 10
943.258
 20
181.4489
 10
942.9404
 20
181.2854
 10
942.6379
 20
181.1121
 10
942.3504
 20
180.9291
 10
942.078
 20
180.7362
 10
941.8207
 20
180.5336
 10
941.5784
 20
180.3212
 10
941.5571
 20
182.1236
 10
938.1973
 20
182.1132
 10
938.3252
 20
170.8063
 10
941.6831
 20
170.8177
 10
941.6191
 20
176.6039
 10
941.6936
 20
176.9411
 10
941.7921
 20
177.2653
 10
941.9147
 20
177.5766
 10
942.0614
 20
177.875
 10
942.2323
 20
178.1606
 10
942.4273
 20
178.4337
 10
942.6466
 20
178.6942
 10
942.8902
 20
178.9423
 10
943.0889
 20
179.1186
 10
943.304
 20
179.2871
 10
943.5357
 20
179.4476
 10
943.784
 20
179.6001
 10
944.0487
 20
179.7447
 10
944.33
 20
179.8814
 10
944.6279
 20
180.01
 10
944.9422
 20
180.1307
 10
945.2674
 20
180.2405
 10
945.599
 20
180.3356
 10
945.937
 20
180.4162
 10
946.2814
 20
180.4823
 10
946.632
 20
180.5339
 10
946.9888
 20
180.5711
 10
947.3517
 20
180.5938
 10
947.7207
 20
180.6022
 10
948.0808
 20
180.5996
 10
948.4168
 20
180.5893
 10
948.729
 20
180.5713
 10
949.0173
 20
180.5456
 10
949.2816
 20
180.5121
 10
949.5221
 20
180.4709
 10
949.7388
 20
180.4218
 10
949.9316
 20
180.3649
 10
950.4176
 20
180.1753
 10
950.8395
 20
179.9525
 10
951.1973
 20
179.6963
 10
951.4909
 20
179.407
 10
951.7204
 20
179.0844
 10
951.8858
 20
178.7288
 10
951.9871
 20
178.34
 10
952.0242
 20
177.9183
 10
952.1017
 20
170.851
 10
955.4616
 20
170.8614
 10
955.3822
 20
177.9287
 10
955.355
 20
178.3616
 10
955.4774
 20
178.5256
 10
955.6091
 20
178.6837
 10
955.7498
 20
178.8364
 10
955.8995
 20
178.9839
 10
956.0975
 20
179.1602
 10
956.3122
 20
179.3287
 10
956.5436
 20
179.4892
 10
956.7918
 20
179.6418
 10
957.0566
 20
179.7864
 10
957.3382
 20
179.923
 10
957.6365
 20
180.0517
 10
957.9515
 20
180.1724
 10
958.2772
 20
180.2822
 10
958.6091
 20
180.3773
 10
958.9471
 20
180.458
 10
959.2914
 20
180.5241
 10
959.6418
 20
180.5758
 10
959.9983
 20
180.6132
 10
960.3611
 20
180.6361
 10
960.73
 20
180.6448
 10
961.0901
 20
180.6421
 10
961.4264
 20
180.6318
 10
961.7388
 20
180.6136
 10
962.0273
 20
180.5878
 10
962.2917
 20
180.5541
 10
962.5322
 20
180.5127
 10
962.7486
 20
180.4635
 10
962.9409
 20
180.4065
 10
963.4269
 20
180.217
 10
963.8488
 20
179.9941
 10
964.2066
 20
179.7379
 10
964.5002
 20
179.4486
 10
964.7297
 20
179.1261
 10
964.8951
 20
178.7704
 10
964.9964
 20
178.3817
 10
965.0335
 20
177.9599
 10
965.113
 20
170.8927
  0
LWPOLYLINE
  5
7E
330
1F
100
AcDbEntity
  8
Layer 1
 62
     7
370
     9
100
AcDbPolyline
 90
      165
 70
     1
 43
0.0
 10
1001.742
 20
171.0103
 10
1005.1019
 20
171.0207
 10
1005.0224
 20
178.0879
 10
1004.9901
 20
178.5568
 10
1004.9032
 20
179.0036
 10
1004.7618
 20
179.4282
 10
1004.5659
 20
179.8306
 10
1004.3153
 20
180.2109
 10
1004.0102
 20
180.5689
 10
1003.6504
 20
180.9047
 10
1003.2359
 20
181.2183
 10
1003.005
 20
181.3678
 10
1002.76
 20
181.5096
 10
1002.5009
 20
181.6437
 10
1002.2276
 20
181.7702
 10
1001.9403
 20
181.889
 10
1001.6389
 20
182.0002
 10
1001.3235
 20
182.1037
 10
1000.9941
 20
182.1996
 10
1000.6435
 20
182.2858
 10
1000.266
 20
182.3602
 10
999.8616
 20
182.4229
 10
999.4302
 20
182.4738
 10
998.9718
 20
182.513
 10
998.4865
 20
182.5406
 10
997.9741
 20
182.5565
 10
997.4347
 20
182.5607
 10
996.8919
 20
182.5488
 10
996.3665
 20
182.5168
 10
995.8585
 20
182.4649
 10
995.3679
 20
182.393
 10
994.8947
 20
182.3012
 10
994.4387
 20
182.1894
 10
994.0001
 20
182.0577
 10
993.5788
 20
181.9061
 10
993.2136
 20
181.7549
 10
992.8649
 20
181.5925
 10
992.5329
 20
181.4191
 10
992.2176
 20
181.2347
 10
991.9189
 20
181.0394
 10
991.6371
 20
180.8335
 10
991.372
 20
180.6169
 10
991.1238
 20
180.3899
 10
990.9261
 20
180.5981
 10
990.7108
 20
180.7993
 10
990.4778
 20
180.9924
 10
990.2267
 20
181.1766
 10
989.9958
 20
181.3261
 10
989.7508
 20
181.4678
 10
989.4915
 20
181.6018
 10
989.2181
 20
181.7282
 10
988.9306
 20
181.8469
 10
988.6288
 20
181.9581
 10
988.3129
 20
182.0618
 10
987.9829
 20
182.158
 10
987.6323
 20
182.2442
 10
987.2548
 20
182.3186
 10
986.8506
 20
182.3813
 10
986.4195
 20
182.4322
 10
985.9616
 20
182.4714
 10
985.4769
 20
182.499
 10
984.9655
 20
182.5149
 10
984.4273
 20
182.5191
 10
983.8833
 20
182.5072
 10
983.357
 20
182.4752
 10
982.8484
 20
182.4233
 10
982.3574
 20
182.3514
 10
981.8841
 20
182.2596
 10
981.4284
 20
182.1478
 10
980.9902
 20
182.0161
 10
980.5695
 20
181.8645
 10
980.2211
 20
181.7204
 10
979.8882
 20
181.5665
 10
979.5704
 20
181.403
 10
979.2679
 20
181.2297
 10
978.9804
 20
181.0467
 10
978.7079
 20
180.8538
 10
978.4503
 20
180.6512
 10
978.2075
 20
180.4388
 10
978.1862
 20
182.2412
 10
974.8283
 20
182.2308
 10
974.9542
 20
170.9239
 10
978.3141
 20
170.9353
 10
978.2482
 20
176.7215
 10
978.3228
 20
177.0587
 10
978.4215
 20
177.3829
 10
978.5443
 20
177.6941
 10
978.6912
 20
177.9924
 10
978.8622
 20
178.2779
 10
979.0572
 20
178.5508
 10
979.2763
 20
178.811
 10
979.5193
 20
179.0588
 10
979.7179
 20
179.2355
 10
979.9331
 20
179.4042
 10
980.1648
 20
179.5649
 10
980.413
 20
179.7176
 10
980.6777
 20
179.8623
 10
980.959
 20
179.999
 10
981.2569
 20
180.1276
 10
981.5712
 20
180.2483
 10
981.8969
 20
180.3578
 10
982.2288
 20
180.4528
 10
982.5668
 20
180.5334
 10
982.9111
 20
180.5996
 10
983.2615
 20
180.6513
 10
983.6181
 20
180.6885
 10
983.9809
 20
180.7114
 10
984.3498
 20
180.7198
 10
984.7104
 20
180.7172
 10
985.0467
 20
180.7069
 10
985.3589
 20
180.6889
 10
985.6471
 20
180.6632
 10
985.9112
 20
180.6297
 10
986.1514
 20
180.5885
 10
986.3679
 20
180.5394
 10
986.5606
 20
180.4825
 10
987.0466
 20
180.2926
 10
987.4685
 20
180.0696
 10
987.8263
 20
179.8134
 10
988.12
 20
179.5241
 10
988.3495
 20
179.2017
 10
988.5149
 20
178.8462
 10
988.6161
 20
178.4576
 10
988.6533
 20
178.0359
 10
988.7327
 20
170.9686
 10
992.0926
 20
170.979
 10
992.0132
 20
178.0463
 10
991.9841
 20
178.4792
 10
992.1065
 20
178.6432
 10
992.2384
 20
178.8013
 10
992.3797
 20
178.9539
 10
992.5305
 20
179.1015
 10
992.7285
 20
179.2778
 10
992.9432
 20
179.4463
 10
993.1745
 20
179.6068
 10
993.4225
 20
179.7594
 10
993.6871
 20
179.904
 10
993.9684
 20
180.0406
 10
994.2662
 20
180.1693
 10
994.5805
 20
180.29
 10
994.9063
 20
180.3998
 10
995.2384
 20
180.4949
 10
995.5767
 20
180.5756
 10
995.9211
 20
180.6417
 10
996.2717
 20
180.6934
 10
996.6282
 20
180.7308
 10
996.9907
 20
180.7537
 10
997.3591
 20
180.7624
 10
997.7192
 20
180.7597
 10
998.0555
 20
180.7494
 10
998.368
 20
180.7312
 10
998.6566
 20
180.7054
 10
998.9213
 20
180.6717
 10
999.1621
 20
180.6303
 10
999.379
 20
180.5811
 10
999.5719
 20
180.5241
 10
1000.0579
 20
180.3346
 10
1000.4797
 20
180.1117
 10
1000.8374
 20
179.8555
 10
1001.1309
 20
179.5662
 10
1001.3602
 20
179.2437
 10
1001.5253
 20
178.888
 10
1001.6261
 20
178.4993
 10
1001.6626
 20
178.0775
 10
1001.742
 20
171.0103
  0
LWPOLYLINE
  5
7F
330
1F
100
AcDbEntity
  8
Layer 1
 62
     7
370
     9
100
AcDbPolyline
 90
       87
 70
     1
 43
0.0
 10
868.9811
 20
-37.9701
 10
891.9769
 20
-37.8962
 10
891.9556
 20
-36.0969
 10
877.0746
 20
-36.1447
 10
888.3826
 20
-30.0703
 10
889.1206
 20
-29.6327
 10
889.7592
 20
-29.1739
 10
890.2985
 20
-28.6937
 10
890.7385
 20
-28.1923
 10
891.0793
 20
-27.6695
 10
891.3208
 20
-27.1254
 10
891.463
 20
-26.56
 10
891.5061
 20
-25.9732
 10
891.449
 20
-25.3735
 10
891.2907
 20
-24.7982
 10
891.0313
 20
-24.2472
 10
890.6709
 20
-23.7208
 10
890.2095
 20
-23.2187
 10
889.6472
 20
-22.7412
 10
888.9839
 20
-22.288
 10
888.2198
 20
-21.8594
 10
887.371
 20
-21.4616
 10
886.4856
 20
-21.1173
 10
885.5634
 20
-20.8266
 10
884.6044
 20
-20.5894
 10
883.6084
 20
-20.4057
 10
882.5754
 20
-20.2755
 10
881.5051
 20
-20.1988
 10
880.3976
 20
-20.1756
 10
879.2495
 20
-20.2075
 10
878.1447
 20
-20.2954
 10
877.0833
 20
-20.4394
 10
876.0653
 20
-20.6395
 10
875.0906
 20
-20.8956
 10
874.1592
 20
-21.2079
 10
873.2711
 20
-21.5763
 10
872.4262
 20
-22.0009
 10
871.6749
 20
-22.4564
 10
871.0311
 20
-22.9355
 10
870.4948
 20
-23.4381
 10
870.0659
 20
-23.9641
 10
869.7445
 20
-24.5134
 10
869.5306
 20
-25.086
 10
869.424
 20
-25.6819
 10
869.4248
 20
-26.301
 10
872.8331
 20
-26.2906
 10
872.8008
 20
-25.8889
 10
872.8492
 20
-25.4962
 10
872.9786
 20
-25.1125
 10
873.1889
 20
-24.7379
 10
873.4803
 20
-24.3722
 10
873.853
 20
-24.0155
 10
874.307
 20
-23.6677
 10
874.8424
 20
-23.3288
 10
875.4143
 20
-23.026
 10
876.0169
 20
-22.7632
 10
876.6502
 20
-22.5403
 10
877.3141
 20
-22.3575
 10
878.0086
 20
-22.2147
 10
878.7337
 20
-22.112
 10
879.4893
 20
-22.0494
 10
880.2755
 20
-22.0269
 10
881.0473
 20
-22.0423
 10
881.7902
 20
-22.094
 10
882.5043
 20
-22.182
 10
883.1895
 20
-22.3062
 10
883.846
 20
-22.4667
 10
884.4736
 20
-22.6634
 10
885.0726
 20
-22.8963
 10
885.6428
 20
-23.1654
 10
886.169
 20
-23.4631
 10
886.6258
 20
-23.7756
 10
887.0131
 20
-24.1028
 10
887.3309
 20
-24.4447
 10
887.5791
 20
-24.8013
 10
887.7577
 20
-25.1727
 10
887.8667
 20
-25.5588
 10
887.9059
 20
-25.9596
 10
887.8764
 20
-26.3692
 10
887.7792
 20
-26.763
 10
887.6143
 20
-27.1409
 10
887.3818
 20
-27.503
 10
887.0818
 20
-27.8492
 10
886.7141
 20
-28.1797
 10
886.279
 20
-28.4944
 10
885.7765
 20
-28.7934
 10
868.9811
 20
-37.9701
  0
LWPOLYLINE
  5
80
330
1F
100
AcDbEntity
  8
Layer 1
 62
     7
370
     9
100
AcDbPolyline
 90
        7
 70
     1
 43
0.0
 10
902.5855
 20
-37.8619
 10
905.9453
 20
-37.8515
 10
905.7477
 20
-20.1714
 10
897.6871
 20
-20.6605
 10
897.7046
 20
-22.2278
 10
902.4111
 20
-22.2122
 10
902.5855
 20
-37.8619
  0
LWPOLYLINE
  5
81
330
1F
100
AcDbEntity
  8
Layer 1
 62
     7
370
     9
100
AcDbPolyline
 90
      136
 70
     1
 43
0.0
 10
917.7281
 20
-26.814
 10
919.8847
 20
-22.13
 10
931.6926
 20
-22.0925
 10
931.6733
 20
-20.2942
 10
917.3193
 20
-20.34
 10
913.6629
 20
-28.1898
 10
917.3212
 20
-29.0515
 10
917.8482
 20
-28.8571
 10
918.4017
 20
-28.6884
 10
918.9818
 20
-28.5452
 10
919.5885
 20
-28.4277
 10
920.2217
 20
-28.3358
 10
920.8817
 20
-28.2696
 10
921.5682
 20
-28.2288
 10
922.2815
 20
-28.2137
 10
922.9985
 20
-28.2303
 10
923.6919
 20
-28.2846
 10
924.3618
 20
-28.3767
 10
925.0083
 20
-28.5067
 10
925.6313
 20
-28.6745
 10
926.2309
 20
-28.8802
 10
926.8071
 20
-29.1238
 10
927.3601
 20
-29.4053
 10
927.8809
 20
-29.7192
 10
928.333
 20
-30.0451
 10
928.7163
 20
-30.3829
 10
929.0308
 20
-30.7327
 10
929.2765
 20
-31.0943
 10
929.4533
 20
-31.4679
 10
929.5611
 20
-31.8533
 10
929.6
 20
-32.2505
 10
929.569
 20
-32.6615
 10
929.4674
 20
-33.0564
 10
929.2951
 20
-33.435
 10
929.0521
 20
-33.7974
 10
928.7385
 20
-34.1435
 10
928.3542
 20
-34.4734
 10
927.8992
 20
-34.787
 10
927.3736
 20
-35.0843
 10
927.1063
 20
-35.2167
 10
926.8291
 20
-35.3422
 10
926.542
 20
-35.461
 10
926.245
 20
-35.5729
 10
925.9382
 20
-35.678
 10
925.6216
 20
-35.7762
 10
925.2953
 20
-35.8676
 10
924.9593
 20
-35.9522
 10
924.6086
 20
-36.0287
 10
924.2382
 20
-36.0952
 10
923.848
 20
-36.1517
 10
923.438
 20
-36.1982
 10
923.0084
 20
-36.2347
 10
922.559
 20
-36.2611
 10
922.09
 20
-36.2776
 10
921.6014
 20
-36.2842
 10
921.1038
 20
-36.2746
 10
920.6067
 20
-36.2426
 10
920.1099
 20
-36.1882
 10
919.6136
 20
-36.1113
 10
919.1177
 20
-36.012
 10
918.6224
 20
-35.8901
 10
918.1275
 20
-35.7456
 10
917.6331
 20
-35.5786
 10
917.157
 20
-35.3934
 10
916.7168
 20
-35.1944
 10
916.3125
 20
-34.9816
 10
915.944
 20
-34.755
 10
915.6113
 20
-34.5147
 10
915.3144
 20
-34.2605
 10
915.0531
 20
-33.9925
 10
914.8275
 20
-33.7106
 10
911.5703
 20
-34.2861
 10
911.8956
 20
-34.7085
 10
912.274
 20
-35.1093
 10
912.7055
 20
-35.4886
 10
913.1902
 20
-35.8464
 10
913.7279
 20
-36.1827
 10
914.3185
 20
-36.4975
 10
914.9622
 20
-36.7908
 10
915.6587
 20
-37.0626
 10
916.399
 20
-37.3101
 10
917.1552
 20
-37.5241
 10
917.9274
 20
-37.7048
 10
918.7155
 20
-37.852
 10
919.5198
 20
-37.9658
 10
920.3401
 20
-38.0464
 10
921.1767
 20
-38.0936
 10
922.0296
 20
-38.1075
 10
923.1664
 20
-38.0765
 10
924.2589
 20
-37.9905
 10
925.3071
 20
-37.8495
 10
926.3111
 20
-37.6537
 10
927.2708
 20
-37.4031
 10
928.1863
 20
-37.0977
 10
929.0576
 20
-36.7375
 10
929.8848
 20
-36.3227
 10
930.6337
 20
-35.8721
 10
931.2817
 20
-35.3999
 10
931.8289
 20
-34.9061
 10
932.2754
 20
-34.3906
 10
932.6209
 20
-33.8533
 10
932.8657
 20
-33.2944
 10
933.0097
 20
-32.7136
 10
933.0528
 20
-32.1111
 10
932.9969
 20
-31.512
 10
932.8421
 20
-30.9384
 10
932.5886
 20
-30.3904
 10
932.2364
 20
-29.8681
 10
931.7854
 20
-29.3713
 10
931.2357
 20
-28.9002
 10
930.5873
 20
-28.4547
 10
929.8403
 20
-28.0348
 10
929.4581
 20
-27.8482
 10
929.0612
 20
-27.6718
 10
928.6497
 20
-27.5055
 10
928.2235
 20
-27.3493
 10
927.7825
 20
-27.2033
 10
927.3266
 20
-27.0673
 10
926.8558
 20
-26.9413
 10
926.3699
 20
-26.8255
 10
925.8744
 20
-26.7217
 10
925.3746
 20
-26.6319
 10
924.8706
 20
-26.5562
 10
924.3625
 20
-26.4945
 10
923.8505
 20
-26.4469
 10
923.3345
 20
-26.4134
 10
922.8147
 20
-26.3939
 10
922.2912
 20
-26.3884
 10
921.7584
 20
-26.3965
 10
921.215
 20
-26.4175
 10
920.6609
 20
-26.4514
 10
920.0961
 20
-26.4982
 10
919.5205
 20
-26.5579
 10
918.934
 20
-26.6304
 10
918.3366
 20
-26.7158
 10
917.7281
 20
-26.814
  0
LWPOLYLINE
  5
82
330
1F
100
AcDbEntity
  8
Layer 1
 62
     7
370
     9
100
AcDbPolyline
 90
      165
 70
     1
 43
0.0
 10
966.0488
 20
-37.6069
 10
969.4087
 20
-37.5965
 10
969.3293
 20
-30.5293
 10
969.2969
 20
-30.0603
 10
969.2101
 20
-29.6136
 10
969.0687
 20
-29.189
 10
968.8727
 20
-28.7866
 10
968.6221
 20
-28.4065
 10
968.317
 20
-28.0487
 10
967.9572
 20
-27.7131
 10
967.5428
 20
-27.3999
 10
967.312
 20
-27.2501
 10
967.0672
 20
-27.1081
 10
966.8083
 20
-26.9739
 10
966.5352
 20
-26.8475
 10
966.248
 20
-26.7286
 10
965.9466
 20
-26.6174
 10
965.6309
 20
-26.5137
 10
965.3009
 20
-26.4175
 10
964.9503
 20
-26.3313
 10
964.5728
 20
-26.2569
 10
964.1684
 20
-26.1942
 10
963.737
 20
-26.1433
 10
963.2786
 20
-26.1041
 10
962.7933
 20
-26.0766
 10
962.2809
 20
-26.0607
 10
961.7415
 20
-26.0564
 10
961.1987
 20
-26.0684
 10
960.6733
 20
-26.1003
 10
960.1654
 20
-26.1522
 10
959.6748
 20
-26.2241
 10
959.2015
 20
-26.3159
 10
958.7456
 20
-26.4277
 10
958.307
 20
-26.5594
 10
957.8856
 20
-26.711
 10
957.5204
 20
-26.8622
 10
957.1717
 20
-27.0246
 10
956.8397
 20
-27.1981
 10
956.5244
 20
-27.3825
 10
956.2257
 20
-27.5778
 10
955.9439
 20
-27.7837
 10
955.6788
 20
-28.0003
 10
955.4306
 20
-28.2273
 10
955.2329
 20
-28.0192
 10
955.0176
 20
-27.8184
 10
954.7846
 20
-27.6257
 10
954.5335
 20
-27.4416
 10
954.3026
 20
-27.2921
 10
954.0576
 20
-27.1502
 10
953.7983
 20
-27.0161
 10
953.525
 20
-26.8896
 10
953.2374
 20
-26.7708
 10
952.9357
 20
-26.6596
 10
952.6198
 20
-26.5561
 10
952.2897
 20
-26.4602
 10
951.9391
 20
-26.3737
 10
951.5616
 20
-26.299
 10
951.1574
 20
-26.2362
 10
950.7263
 20
-26.1852
 10
950.2684
 20
-26.146
 10
949.7837
 20
-26.1187
 10
949.2723
 20
-26.103
 10
948.7341
 20
-26.0991
 10
948.1901
 20
-26.1107
 10
947.6638
 20
-26.1424
 10
947.1552
 20
-26.1941
 10
946.6642
 20
-26.2659
 10
946.1909
 20
-26.3576
 10
945.7352
 20
-26.4693
 10
945.297
 20
-26.601
 10
944.8763
 20
-26.7526
 10
944.528
 20
-26.8968
 10
944.195
 20
-27.0506
 10
943.8773
 20
-27.2142
 10
943.5747
 20
-27.3875
 10
943.2872
 20
-27.5705
 10
943.0147
 20
-27.7633
 10
942.7571
 20
-27.9659
 10
942.5143
 20
-28.1784
 10
942.4949
 20
-26.3759
 10
939.1351
 20
-26.3863
 10
939.261
 20
-37.6933
 10
942.6209
 20
-37.6829
 10
942.555
 20
-31.8967
 10
942.6296
 20
-31.5591
 10
942.7283
 20
-31.2347
 10
942.8511
 20
-30.9233
 10
942.998
 20
-30.6249
 10
943.169
 20
-30.3393
 10
943.364
 20
-30.0664
 10
943.5831
 20
-29.8061
 10
943.8261
 20
-29.5583
 10
944.0247
 20
-29.3816
 10
944.2399
 20
-29.2129
 10
944.4716
 20
-29.0523
 10
944.7198
 20
-28.8996
 10
944.9846
 20
-28.7549
 10
945.2659
 20
-28.6182
 10
945.5637
 20
-28.4895
 10
945.8781
 20
-28.3688
 10
946.2038
 20
-28.2593
 10
946.5357
 20
-28.1643
 10
946.8737
 20
-28.0837
 10
947.218
 20
-28.0176
 10
947.5684
 20
-27.9659
 10
947.9249
 20
-27.9286
 10
948.2877
 20
-27.9058
 10
948.6566
 20
-27.8974
 10
949.0173
 20
-27.9
 10
949.3538
 20
-27.9103
 10
949.6662
 20
-27.9283
 10
949.9546
 20
-27.954
 10
950.2188
 20
-27.9874
 10
950.4591
 20
-28.0287
 10
950.6753
 20
-28.0777
 10
950.8675
 20
-28.1347
 10
951.3535
 20
-28.3246
 10
951.7754
 20
-28.5477
 10
952.1331
 20
-28.804
 10
952.4268
 20
-29.0935
 10
952.6563
 20
-29.4161
 10
952.8217
 20
-29.7718
 10
952.9229
 20
-30.1605
 10
952.9601
 20
-30.5823
 10
953.0396
 20
-37.6485
 10
956.3994
 20
-37.6381
 10
956.32
 20
-30.5709
 10
956.2909
 20
-30.138
 10
956.4134
 20
-29.974
 10
956.5452
 20
-29.816
 10
956.6865
 20
-29.6637
 10
956.8373
 20
-29.5167
 10
957.0353
 20
-29.34
 10
957.25
 20
-29.1713
 10
957.4813
 20
-29.0106
 10
957.7293
 20
-28.8579
 10
957.9939
 20
-28.7132
 10
958.2752
 20
-28.5765
 10
958.573
 20
-28.4479
 10
958.8873
 20
-28.3272
 10
959.2131
 20
-28.2177
 10
959.5452
 20
-28.1227
 10
959.8836
 20
-28.0421
 10
960.2282
 20
-27.976
 10
960.5789
 20
-27.9243
 10
960.9358
 20
-27.887
 10
961.2988
 20
-27.8642
 10
961.6678
 20
-27.8558
 10
962.0273
 20
-27.8584
 10
962.3631
 20
-27.8687
 10
962.6753
 20
-27.8867
 10
962.9636
 20
-27.9123
 10
963.2282
 20
-27.9458
 10
963.4689
 20
-27.987
 10
963.6858
 20
-28.0361
 10
963.8787
 20
-28.093
 10
964.3647
 20
-28.2829
 10
964.7866
 20
-28.5059
 10
965.1444
 20
-28.7621
 10
965.438
 20
-29.0514
 10
965.6675
 20
-29.3738
 10
965.8329
 20
-29.7293
 10
965.9342
 20
-30.118
 10
965.9713
 20
-30.5397
 10
966.0488
 20
-37.6069
  0
LWPOLYLINE
  5
83
330
1F
100
AcDbEntity
  8
Layer 1
 62
     7
370
     9
100
AcDbPolyline
 90
      165
 70
     1
 43
0.0
 10
1002.6798
 20
-37.4893
 10
1006.0397
 20
-37.4789
 10
1005.9602
 20
-30.4117
 10
1005.9272
 20
-29.9427
 10
1005.8399
 20
-29.496
 10
1005.6983
 20
-29.0714
 10
1005.5022
 20
-28.669
 10
1005.2518
 20
-28.2889
 10
1004.9469
 20
-27.9311
 10
1004.5875
 20
-27.5955
 10
1004.1737
 20
-27.2823
 10
1003.9423
 20
-27.1325
 10
1003.697
 20
-26.9905
 10
1003.4377
 20
-26.8564
 10
1003.1645
 20
-26.73
 10
1002.8771
 20
-26.6113
 10
1002.5757
 20
-26.5003
 10
1002.26
 20
-26.3969
 10
1001.93
 20
-26.301
 10
1001.5794
 20
-26.2144
 10
1001.2019
 20
-26.1398
 10
1000.7976
 20
-26.0769
 10
1000.3663
 20
-26.0259
 10
999.9082
 20
-25.9866
 10
999.4232
 20
-25.959
 10
998.9113
 20
-25.9431
 10
998.3725
 20
-25.9388
 10
997.8291
 20
-25.9508
 10
997.3033
 20
-25.9827
 10
996.795
 20
-26.0346
 10
996.3043
 20
-26.1065
 10
995.8311
 20
-26.1983
 10
995.3755
 20
-26.3101
 10
994.9373
 20
-26.4418
 10
994.5166
 20
-26.5934
 10
994.1508
 20
-26.7446
 10
993.8019
 20
-26.907
 10
993.4698
 20
-27.0805
 10
993.1544
 20
-27.2649
 10
992.8558
 20
-27.4602
 10
992.5738
 20
-27.6661
 10
992.3085
 20
-27.8827
 10
992.0597
 20
-28.1097
 10
991.862
 20
-27.9016
 10
991.6467
 20
-27.7008
 10
991.4136
 20
-27.5081
 10
991.1625
 20
-27.324
 10
990.9322
 20
-27.1745
 10
990.6874
 20
-27.0326
 10
990.4282
 20
-26.8985
 10
990.1547
 20
-26.772
 10
989.8669
 20
-26.6532
 10
989.565
 20
-26.542
 10
989.2489
 20
-26.4385
 10
988.9187
 20
-26.3426
 10
988.5682
 20
-26.2561
 10
988.191
 20
-26.1814
 10
987.7869
 20
-26.1186
 10
987.3561
 20
-26.0676
 10
986.8983
 20
-26.0284
 10
986.4136
 20
-26.0011
 10
985.9019
 20
-25.9854
 10
985.3632
 20
-25.9815
 10
984.8198
 20
-25.9931
 10
984.2939
 20
-26.0248
 10
983.7856
 20
-26.0766
 10
983.2948
 20
-26.1484
 10
982.8214
 20
-26.2403
 10
982.3654
 20
-26.3522
 10
981.9267
 20
-26.4841
 10
981.5054
 20
-26.6361
 10
981.1576
 20
-26.7799
 10
980.8249
 20
-26.9335
 10
980.5072
 20
-27.0969
 10
980.2045
 20
-27.27
 10
979.9168
 20
-27.453
 10
979.6441
 20
-27.6457
 10
979.3863
 20
-27.8483
 10
979.1434
 20
-28.0608
 10
979.124
 20
-26.2583
 10
975.7641
 20
-26.2687
 10
975.8901
 20
-37.5757
 10
979.2499
 20
-37.5653
 10
979.186
 20
-31.7791
 10
979.2605
 20
-31.4415
 10
979.359
 20
-31.1171
 10
979.4815
 20
-30.8057
 10
979.6282
 20
-30.5073
 10
979.7991
 20
-30.2217
 10
979.9942
 20
-29.9488
 10
980.2135
 20
-29.6885
 10
980.4571
 20
-29.4407
 10
980.6557
 20
-29.264
 10
980.8709
 20
-29.0953
 10
981.1025
 20
-28.9347
 10
981.3506
 20
-28.782
 10
981.6151
 20
-28.6373
 10
981.896
 20
-28.5006
 10
982.1934
 20
-28.3719
 10
982.5071
 20
-28.2512
 10
982.8329
 20
-28.1417
 10
983.1649
 20
-28.0467
 10
983.5032
 20
-27.9661
 10
983.8477
 20
-27.9
 10
984.1982
 20
-27.8483
 10
984.5548
 20
-27.811
 10
984.9173
 20
-27.7882
 10
985.2857
 20
-27.7798
 10
985.6464
 20
-27.7825
 10
985.9829
 20
-27.7929
 10
986.2954
 20
-27.811
 10
986.5839
 20
-27.8368
 10
986.8484
 20
-27.8703
 10
987.089
 20
-27.9115
 10
987.3057
 20
-27.9605
 10
987.4985
 20
-28.0171
 10
987.9845
 20
-28.207
 10
988.4063
 20
-28.4301
 10
988.764
 20
-28.6864
 10
989.0575
 20
-28.9759
 10
989.2868
 20
-29.2985
 10
989.4519
 20
-29.6542
 10
989.5527
 20
-30.043
 10
989.5892
 20
-30.4647
 10
989.6686
 20
-37.532
 10
993.0285
 20
-37.5205
 10
992.949
 20
-30.4533
 10
992.9219
 20
-30.0204
 10
993.0443
 20
-29.8564
 10
993.176
 20
-29.6984
 10
993.3167
 20
-29.5461
 10
993.4664
 20
-29.3991
 10
993.6644
 20
-29.2224
 10
993.8791
 20
-29.0537
 10
994.1105
 20
-28.893
 10
994.3587
 20
-28.7403
 10
994.6235
 20
-28.5956
 10
994.9051
 20
-28.4589
 10
995.2033
 20
-28.3303
 10
995.5183
 20
-28.2096
 10
995.8435
 20
-28.1001
 10
996.1751
 20
-28.0051
 10
996.5131
 20
-27.9245
 10
996.8575
 20
-27.8584
 10
997.2081
 20
-27.8067
 10
997.5649
 20
-27.7694
 10
997.9279
 20
-27.7466
 10
998.2969
 20
-27.7382
 10
998.657
 20
-27.7408
 10
998.993
 20
-27.7511
 10
999.3052
 20
-27.7691
 10
999.5934
 20
-27.7947
 10
999.8578
 20
-27.8282
 10
1000.0983
 20
-27.8694
 10
1000.3149
 20
-27.9185
 10
1000.5077
 20
-27.9754
 10
1000.9937
 20
-28.1653
 10
1001.4156
 20
-28.3885
 10
1001.7734
 20
-28.6448
 10
1002.0671
 20
-28.9343
 10
1002.2966
 20
-29.2569
 10
1002.462
 20
-29.6126
 10
1002.5632
 20
-30.0013
 10
1002.6004
 20
-30.4231
 10
1002.6798
 20
-37.4893
  0
LWPOLYLINE
  5
84
330
1F
100
AcDbEntity
  8
Layer 1
 62
     7
370
     9
100
AcDbPolyline
 90
      137
 70
     1
 43
0.0
 10
934.2406
 20
53.5741
 10
934.0209
 20
53.8366
 10
933.7817
 20
54.0911
 10
933.523
 20
54.3377
 10
933.2449
 20
54.5762
 10
932.9472
 20
54.8068
 10
932.63
 20
55.0293
 10
932.2932
 20
55.2439
 10
931.9368
 20
55.4504
 10
931.1304
 20
55.8569
 10
930.2793
 20
56.2091
 10
929.3835
 20
56.5071
 10
928.4428
 20
56.7509
 10
927.4572
 20
56.9405
 10
926.4267
 20
57.0759
 10
925.3512
 20
57.1571
 10
924.2308
 20
57.1842
 10
923.109
 20
57.1567
 10
922.0309
 20
57.0743
 10
920.9964
 20
56.9369
 10
920.0056
 20
56.7445
 10
919.0582
 20
56.4971
 10
918.1542
 20
56.1946
 10
917.2937
 20
55.8371
 10
916.4764
 20
55.4244
 10
915.772
 20
54.9979
 10
915.1514
 20
54.5442
 10
914.6146
 20
54.0632
 10
914.1616
 20
53.5549
 10
913.7924
 20
53.0192
 10
913.5071
 20
52.4563
 10
913.3057
 20
51.8659
 10
913.1882
 20
51.2482
 10
914.0524
 20
50.4781
 10
901.9557
 20
55.951
 10
901.9557
 20
46.5464
 10
905.3156
 20
46.5464
 10
905.3156
 20
52.3024
 10
916.8387
 20
47.0084
 10
918.9004
 20
48.3707
 10
918.3608
 20
48.6862
 10
917.893
 20
49.0162
 10
917.497
 20
49.3606
 10
917.173
 20
49.7195
 10
916.9208
 20
50.0929
 10
916.7407
 20
50.4808
 10
916.6326
 20
50.8833
 10
916.5965
 20
51.3002
 10
916.6315
 20
51.7162
 10
916.7363
 20
52.1166
 10
916.9109
 20
52.5014
 10
917.1553
 20
52.8706
 10
917.4693
 20
53.2241
 10
917.8529
 20
53.5621
 10
918.3061
 20
53.8844
 10
918.8287
 20
54.1912
 10
919.4013
 20
54.4711
 10
920.0015
 20
54.7137
 10
920.6293
 20
54.9191
 10
921.2849
 20
55.0871
 10
921.9681
 20
55.2178
 10
922.6791
 20
55.3112
 10
923.4178
 20
55.3672
 10
924.1843
 20
55.3859
 10
924.9331
 20
55.3668
 10
925.6564
 20
55.3096
 10
926.3544
 20
55.2142
 10
927.027
 20
55.0807
 10
927.6743
 20
54.9091
 10
928.2963
 20
54.6993
 10
928.8929
 20
54.4513
 10
929.4643
 20
54.1652
 10
929.71
 20
54.024
 10
929.9429
 20
53.8768
 10
930.1629
 20
53.7236
 10
930.3702
 20
53.5643
 10
930.5648
 20
53.399
 10
930.7466
 20
53.2278
 10
930.9159
 20
53.0506
 10
931.0726
 20
52.8674
 10
931.213
 20
52.6764
 10
931.3348
 20
52.4756
 10
931.4381
 20
52.2652
 10
931.5226
 20
52.045
 10
931.5885
 20
51.8152
 10
931.6356
 20
51.5758
 10
931.6639
 20
51.3267
 10
931.6733
 20
51.0681
 10
931.6526
 20
50.805
 10
931.5905
 20
50.5419
 10
931.4871
 20
50.2786
 10
931.3424
 20
50.0153
 10
931.1565
 20
49.752
 10
930.9294
 20
49.4886
 10
930.6612
 20
49.2252
 10
930.3518
 20
48.9618
 10
930.0073
 20
48.708
 10
929.6335
 20
48.4734
 10
929.2304
 20
48.2581
 10
928.7981
 20
48.062
 10
928.3363
 20
47.8852
 10
927.8453
 20
47.7277
 10
927.3248
 20
47.5894
 10
926.7749
 20
47.4705
 10
927.8794
 20
45.7232
 10
928.662
 20
45.8893
 10
929.4071
 20
46.0855
 10
930.1145
 20
46.3119
 10
930.7844
 20
46.5684
 10
931.4166
 20
46.8549
 10
932.0112
 20
47.1716
 10
932.5683
 20
47.5183
 10
933.0877
 20
47.8951
 10
933.3153
 20
48.0804
 10
933.5302
 20
48.2701
 10
933.7324
 20
48.4643
 10
933.9219
 20
48.6629
 10
934.0986
 20
48.8658
 10
934.2627
 20
49.0732
 10
934.414
 20
49.2849
 10
934.5526
 20
49.5009
 10
934.676
 20
49.7224
 10
934.7832
 20
49.9499
 10
934.8741
 20
50.1834
 10
934.9486
 20
50.4229
 10
935.0067
 20
50.6685
 10
935.0483
 20
50.9201
 10
935.0733
 20
51.1778
 10
935.0816
 20
51.4417
 10
935.0684
 20
51.7083
 10
935.0289
 20
51.9748
 10
934.9632
 20
52.2414
 10
934.8711
 20
52.5079
 10
934.7528
 20
52.7745
 10
934.6083
 20
53.041
 10
934.4375
 20
53.3076
 10
934.2406
 20
53.5741
  0
LWPOLYLINE
  5
85
330
1F
100
AcDbEntity
  8
Layer 1
 62
     7
370
     9
100
AcDbPolyline
 90
      129
 70
     1
 43
0.0
 10
905.7496
 20
66.3713
 10
906.1255
 20
66.668
 10
906.5525
 20
66.9446
 10
907.0307
 20
67.2011
 10
907.5601
 20
67.4376
 10
908.1406
 20
67.654
 10
908.7723
 20
67.8504
 10
909.455
 20
68.0267
 10
910.1888
 20
68.1831
 10
911.1623
 20
68.3576
 10
912.1499
 20
68.5089
 10
913.1518
 20
68.637
 10
914.1679
 20
68.7418
 10
915.1983
 20
68.8233
 10
916.243
 20
68.8816
 10
917.302
 20
68.9165
 10
918.3753
 20
68.9282
 10
918.6324
 20
68.927
 10
918.901
 20
68.9233
 10
919.1809
 20
68.9173
 10
919.4722
 20
68.9088
 10
919.7749
 20
68.898
 10
920.0889
 20
68.8847
 10
920.4142
 20
68.8692
 10
920.7508
 20
68.8512
 10
922.0413
 20
68.7619
 10
923.2605
 20
68.6453
 10
924.4085
 20
68.5015
 10
925.4852
 20
68.3305
 10
926.4906
 20
68.1321
 10
927.4247
 20
67.9065
 10
928.2874
 20
67.6536
 10
929.0788
 20
67.3734
 10
929.6755
 20
67.1176
 10
930.1927
 20
66.8481
 10
930.6303
 20
66.565
 10
930.9883
 20
66.2682
 10
931.2668
 20
65.9578
 10
931.4657
 20
65.6337
 10
931.585
 20
65.2959
 10
931.6248
 20
64.9445
 10
931.5854
 20
64.5524
 10
931.4672
 20
64.1792
 10
931.2701
 20
63.8249
 10
930.9944
 20
63.4895
 10
930.6398
 20
63.173
 10
930.2065
 20
62.8753
 10
929.6946
 20
62.5966
 10
929.1039
 20
62.3366
 10
928.8174
 20
62.2266
 10
928.5219
 20
62.1213
 10
928.2174
 20
62.0209
 10
927.9038
 20
61.9253
 10
927.5813
 20
61.8346
 10
927.2497
 20
61.7487
 10
926.9092
 20
61.6676
 10
926.5598
 20
61.5914
 10
926.2041
 20
61.5199
 10
925.8463
 20
61.4527
 10
925.4864
 20
61.3899
 10
925.1243
 20
61.3316
 10
924.7601
 20
61.2776
 10
924.3939
 20
61.2279
 10
924.0256
 20
61.1827
 10
923.6553
 20
61.1419
 10
923.2847
 20
61.1047
 10
922.9171
 20
61.0703
 10
922.5524
 20
61.0387
 10
922.1907
 20
61.01
 10
921.832
 20
60.984
 10
921.4763
 20
60.961
 10
921.1237
 20
60.9407
 10
920.7741
 20
60.9233
 10
920.4193
 20
60.9083
 10
920.0512
 20
60.8953
 10
919.6697
 20
60.8842
 10
919.275
 20
60.8751
 10
918.8672
 20
60.868
 10
918.4462
 20
60.8629
 10
918.0123
 20
60.8598
 10
917.5653
 20
60.8588
 10
917.099
 20
60.8632
 10
916.6054
 20
60.8765
 10
916.0845
 20
60.8987
 10
915.5362
 20
60.9297
 10
914.9604
 20
60.9695
 10
914.3572
 20
61.0182
 10
913.7264
 20
61.0756
 10
913.0681
 20
61.1419
 10
912.7029
 20
61.1825
 10
912.3382
 20
61.227
 10
911.9742
 20
61.2755
 10
911.6107
 20
61.328
 10
911.2479
 20
61.3846
 10
910.8858
 20
61.4452
 10
910.5243
 20
61.51
 10
910.1636
 20
61.579
 10
909.8084
 20
61.6522
 10
909.4621
 20
61.7306
 10
909.1247
 20
61.8142
 10
908.7963
 20
61.903
 10
908.4769
 20
61.997
 10
908.1666
 20
62.0962
 10
907.8652
 20
62.2007
 10
907.5729
 20
62.3105
 10
907.2916
 20
62.4257
 10
907.0247
 20
62.5466
 10
906.7721
 20
62.6731
 10
906.5339
 20
62.8053
 10
906.31
 20
62.943
 10
906.1004
 20
63.0863
 10
905.9052
 20
63.2352
 10
905.7244
 20
63.3897
 10
905.5609
 20
63.5509
 10
905.4192
 20
63.7193
 10
905.2994
 20
63.8949
 10
905.2013
 20
64.0776
 10
905.125
 20
64.2676
 10
905.0705
 20
64.4648
 10
905.0378
 20
64.6693
 10
905.0269
 20
64.881
 10
905.0382
 20
65.0924
 10
905.0723
 20
65.2966
 10
905.1289
 20
65.4936
 10
905.2081
 20
65.6835
 10
905.3098
 20
65.8662
 10
905.434
 20
66.0417
 10
905.5806
 20
66.2101
 10
905.7496
 20
66.3713
  0
LWPOLYLINE
  5
86
330
1F
100
AcDbEntity
  8
Layer 1
 62
     7
370
     9
100
AcDbPolyline
 90
       65
 70
     1
 43
0.0
 10
935.0312
 20
64.9705
 10
934.9424
 20
65.7209
 10
934.6759
 20
66.4234
 10
934.2316
 20
67.0782
 10
933.6097
 20
67.6851
 10
932.81
 20
68.2442
 10
931.8325
 20
68.7556
 10
930.6773
 20
69.2191
 10
929.3442
 20
69.6348
 10
928.1806
 20
69.9268
 10
926.9526
 20
70.1798
 10
925.66
 20
70.3939
 10
924.303
 20
70.5691
 10
922.8814
 20
70.7053
 10
921.3954
 20
70.8026
 10
919.8449
 20
70.861
 10
918.2299
 20
70.8805
 10
916.6149
 20
70.861
 10
915.0644
 20
70.8026
 10
913.5784
 20
70.7053
 10
912.1569
 20
70.5691
 10
910.7999
 20
70.3939
 10
909.5073
 20
70.1798
 10
908.2793
 20
69.9268
 10
907.1157
 20
69.6348
 10
905.7825
 20
69.2191
 10
904.6271
 20
68.7556
 10
903.6493
 20
68.2442
 10
902.8493
 20
67.6851
 10
902.227
 20
67.0782
 10
901.7824
 20
66.4234
 10
901.5157
 20
65.7209
 10
901.4268
 20
64.9705
 10
901.5157
 20
64.2201
 10
901.7824
 20
63.5176
 10
902.227
 20
62.8628
 10
902.8493
 20
62.2559
 10
903.6493
 20
61.6968
 10
904.6271
 20
61.1854
 10
905.7825
 20
60.7219
 10
907.1157
 20
60.3062
 10
908.2793
 20
60.0142
 10
909.5073
 20
59.7612
 10
910.7999
 20
59.5471
 10
912.1569
 20
59.3719
 10
913.5784
 20
59.2357
 10
915.0644
 20
59.1384
 10
916.6149
 20
59.08
 10
918.2299
 20
59.0605
 10
919.8449
 20
59.08
 10
921.3954
 20
59.1384
 10
922.8814
 20
59.2357
 10
924.303
 20
59.3719
 10
925.66
 20
59.5471
 10
926.9526
 20
59.7612
 10
928.1806
 20
60.0142
 10
929.3442
 20
60.3062
 10
930.6773
 20
60.7219
 10
931.8325
 20
61.1854
 10
932.81
 20
61.6968
 10
933.6097
 20
62.2559
 10
934.2316
 20
62.8628
 10
934.6759
 20
63.5176
 10
934.9424
 20
64.2201
 10
935.0312
 20
64.9705
  0
LWPOLYLINE
  5
87
330
1F
100
AcDbEntity
  8
Layer 1
 62
     7
370
     9
100
AcDbPolyline
 90
      129
 70
     1
 43
0.0
 10
905.7496
 20
80.7617
 10
906.1255
 20
81.0584
 10
906.5525
 20
81.335
 10
907.0307
 20
81.5916
 10
907.5601
 20
81.828
 10
908.1406
 20
82.0445
 10
908.7723
 20
82.2409
 10
909.455
 20
82.4172
 10
910.1888
 20
82.5736
 10
911.1623
 20
82.7481
 10
912.1499
 20
82.8994
 10
913.1518
 20
83.0275
 10
914.1679
 20
83.1323
 10
915.1983
 20
83.2138
 10
916.243
 20
83.2721
 10
917.302
 20
83.307
 10
918.3753
 20
83.3187
 10
918.6324
 20
83.3175
 10
918.901
 20
83.3138
 10
919.1809
 20
83.3078
 10
919.4722
 20
83.2993
 10
919.7749
 20
83.2885
 10
920.0889
 20
83.2752
 10
920.4142
 20
83.2597
 10
920.7508
 20
83.2417
 10
922.0413
 20
83.1524
 10
923.2605
 20
83.0358
 10
924.4085
 20
82.892
 10
925.4852
 20
82.7209
 10
926.4906
 20
82.5226
 10
927.4247
 20
82.297
 10
928.2874
 20
82.0441
 10
929.0788
 20
81.7639
 10
929.6755
 20
81.5081
 10
930.1927
 20
81.2386
 10
930.6303
 20
80.9555
 10
930.9883
 20
80.6587
 10
931.2668
 20
80.3483
 10
931.4657
 20
80.0242
 10
931.585
 20
79.6864
 10
931.6248
 20
79.335
 10
931.5854
 20
78.9429
 10
931.4672
 20
78.5697
 10
931.2701
 20
78.2154
 10
930.9944
 20
77.88
 10
930.6398
 20
77.5635
 10
930.2065
 20
77.2658
 10
929.6946
 20
76.987
 10
929.1039
 20
76.727
 10
928.8174
 20
76.617
 10
928.5219
 20
76.5118
 10
928.2174
 20
76.4114
 10
927.9038
 20
76.3158
 10
927.5813
 20
76.2251
 10
927.2497
 20
76.1392
 10
926.9092
 20
76.0581
 10
926.5598
 20
75.9819
 10
926.2041
 20
75.9103
 10
925.8463
 20
75.8432
 10
925.4864
 20
75.7804
 10
925.1243
 20
75.722
 10
924.7601
 20
75.668
 10
924.3939
 20
75.6184
 10
924.0256
 20
75.5732
 10
923.6553
 20
75.5323
 10
923.2847
 20
75.4951
 10
922.9171
 20
75.4607
 10
922.5524
 20
75.4292
 10
922.1907
 20
75.4004
 10
921.832
 20
75.3745
 10
921.4763
 20
75.3515
 10
921.1237
 20
75.3312
 10
920.7741
 20
75.3138
 10
920.4193
 20
75.2988
 10
920.0512
 20
75.2857
 10
919.6697
 20
75.2746
 10
919.275
 20
75.2655
 10
918.8672
 20
75.2584
 10
918.4462
 20
75.2534
 10
918.0123
 20
75.2503
 10
917.5653
 20
75.2493
 10
917.099
 20
75.2537
 10
916.6054
 20
75.267
 10
916.0845
 20
75.2892
 10
915.5362
 20
75.3202
 10
914.9604
 20
75.36
 10
914.3572
 20
75.4086
 10
913.7264
 20
75.4661
 10
913.0681
 20
75.5323
 10
912.7029
 20
75.5729
 10
912.3382
 20
75.6175
 10
911.9742
 20
75.666
 10
911.6107
 20
75.7185
 10
911.2479
 20
75.7751
 10
910.8858
 20
75.8357
 10
910.5243
 20
75.9005
 10
910.1636
 20
75.9694
 10
909.8084
 20
76.0426
 10
909.4621
 20
76.121
 10
909.1247
 20
76.2047
 10
908.7963
 20
76.2935
 10
908.4769
 20
76.3875
 10
908.1666
 20
76.4867
 10
907.8652
 20
76.5912
 10
907.5729
 20
76.701
 10
907.2916
 20
76.8162
 10
907.0247
 20
76.9371
 10
906.7721
 20
77.0636
 10
906.5339
 20
77.1957
 10
906.31
 20
77.3335
 10
906.1004
 20
77.4768
 10
905.9052
 20
77.6257
 10
905.7244
 20
77.7802
 10
905.5609
 20
77.9414
 10
905.4192
 20
78.1098
 10
905.2994
 20
78.2853
 10
905.2013
 20
78.4681
 10
905.125
 20
78.658
 10
905.0705
 20
78.8552
 10
905.0378
 20
79.0597
 10
905.0269
 20
79.2715
 10
905.0382
 20
79.4829
 10
905.0723
 20
79.6871
 10
905.1289
 20
79.8841
 10
905.2081
 20
80.074
 10
905.3098
 20
80.2566
 10
905.434
 20
80.4321
 10
905.5806
 20
80.6005
 10
905.7496
 20
80.7617
  0
LWPOLYLINE
  5
88
330
1F
100
AcDbEntity
  8
Layer 1
 62
     7
370
     9
100
AcDbPolyline
 90
       65
 70
     1
 43
0.0
 10
935.0312
 20
79.361
 10
934.9424
 20
80.1114
 10
934.6759
 20
80.8139
 10
934.2316
 20
81.4687
 10
933.6097
 20
82.0756
 10
932.81
 20
82.6347
 10
931.8325
 20
83.1461
 10
930.6773
 20
83.6096
 10
929.3442
 20
84.0253
 10
928.1806
 20
84.3173
 10
926.9526
 20
84.5703
 10
925.66
 20
84.7844
 10
924.303
 20
84.9596
 10
922.8814
 20
85.0958
 10
921.3954
 20
85.1931
 10
919.8449
 20
85.2515
 10
918.2299
 20
85.271
 10
916.6149
 20
85.2515
 10
915.0644
 20
85.1931
 10
913.5784
 20
85.0958
 10
912.1569
 20
84.9596
 10
910.7999
 20
84.7844
 10
909.5073
 20
84.5703
 10
908.2793
 20
84.3173
 10
907.1157
 20
84.0253
 10
905.7825
 20
83.6096
 10
904.6271
 20
83.1461
 10
903.6493
 20
82.6347
 10
902.8493
 20
82.0756
 10
902.227
 20
81.4687
 10
901.7824
 20
80.8139
 10
901.5157
 20
80.1114
 10
901.4268
 20
79.361
 10
901.5157
 20
78.6106
 10
901.7824
 20
77.9081
 10
902.227
 20
77.2533
 10
902.8493
 20
76.6464
 10
903.6493
 20
76.0873
 10
904.6271
 20
75.5759
 10
905.7825
 20
75.1124
 10
907.1157
 20
74.6967
 10
908.2793
 20
74.4047
 10
909.5073
 20
74.1517
 10
910.7999
 20
73.9376
 10
912.1569
 20
73.7624
 10
913.5784
 20
73.6262
 10
915.0644
 20
73.5289
 10
916.6149
 20
73.4705
 10
918.2299
 20
73.451
 10
919.8449
 20
73.4705
 10
921.3954
 20
73.5289
 10
922.8814
 20
73.6262
 10
924.303
 20
73.7624
 10
925.66
 20
73.9376
 10
926.9526
 20
74.1517
 10
928.1806
 20
74.4047
 10
929.3442
 20
74.6967
 10
930.6773
 20
75.1124
 10
931.8325
 20
75.5759
 10
932.81
 20
76.0873
 10
933.6097
 20
76.6464
 10
934.2316
 20
77.2533
 10
934.6759
 20
77.9081
 10
934.9424
 20
78.6106
 10
935.0312
 20
79.361
  0
LWPOLYLINE
  5
89
330
1F
100
AcDbEntity
  8
Layer 1
 62
     7
370
     9
100
AcDbPolyline
 90
      165
 70
     1
 43
0.0
 10
934.5061
 20
102.823
 10
934.5061
 20
104.6213
 10
921.303
 20
104.6213
 10
920.4262
 20
104.6067
 10
919.5907
 20
104.5627
 10
918.7965
 20
104.4895
 10
918.0434
 20
104.387
 10
917.3316
 20
104.2552
 10
916.661
 20
104.094
 10
916.0317
 20
103.9035
 10
915.4436
 20
103.6837
 10
915.163
 20
103.5609
 10
914.8968
 20
103.4306
 10
914.6448
 20
103.2927
 10
914.407
 20
103.1472
 10
914.1834
 20
102.9941
 10
913.9739
 20
102.8334
 10
913.7785
 20
102.665
 10
913.5971
 20
102.489
 10
913.4337
 20
102.3019
 10
913.2922
 20
102.1003
 10
913.1726
 20
101.8842
 10
913.0748
 20
101.6537
 10
912.9989
 20
101.4087
 10
912.9447
 20
101.1492
 10
912.9122
 20
100.8752
 10
912.9014
 20
100.5866
 10
912.9202
 20
100.2958
 10
912.9765
 20
100.0143
 10
913.0704
 20
99.742
 10
913.2017
 20
99.4789
 10
913.3705
 20
99.2251
 10
913.5766
 20
98.9805
 10
913.8201
 20
98.745
 10
914.1008
 20
98.5188
 10
914.381
 20
98.3223
 10
914.6822
 20
98.1346
 10
915.0042
 20
97.9558
 10
915.3468
 20
97.7859
 10
915.7097
 20
97.6249
 10
916.0927
 20
97.4727
 10
916.4956
 20
97.3295
 10
916.9182
 20
97.1951
 10
916.5278
 20
97.0905
 10
916.1511
 20
96.9764
 10
915.7893
 20
96.8528
 10
915.4436
 20
96.7195
 10
915.163
 20
96.597
 10
914.8968
 20
96.4668
 10
914.6448
 20
96.3289
 10
914.407
 20
96.1834
 10
914.1834
 20
96.0302
 10
913.9739
 20
95.8694
 10
913.7785
 20
95.7009
 10
913.5971
 20
95.5248
 10
913.4337
 20
95.3377
 10
913.2922
 20
95.1361
 10
913.1726
 20
94.9201
 10
913.0748
 20
94.6897
 10
912.9989
 20
94.4448
 10
912.9447
 20
94.1855
 10
912.9122
 20
93.9117
 10
912.9014
 20
93.6235
 10
912.9202
 20
93.3323
 10
912.9765
 20
93.0505
 10
913.0704
 20
92.7781
 10
913.2017
 20
92.5149
 10
913.3705
 20
92.261
 10
913.5766
 20
92.0163
 10
913.8201
 20
91.7809
 10
914.1008
 20
91.5546
 10
914.3679
 20
91.3674
 10
914.6531
 20
91.1883
 10
914.9566
 20
91.0173
 10
915.2784
 20
90.8542
 10
915.6186
 20
90.6992
 10
915.9771
 20
90.5522
 10
916.3541
 20
90.4131
 10
916.7496
 20
90.2819
 10
913.382
 20
90.2819
 10
913.382
 20
88.4836
 10
934.5061
 20
88.4836
 10
934.5061
 20
90.2819
 10
923.696
 20
90.2819
 10
923.066
 20
90.3238
 10
922.4605
 20
90.3785
 10
921.8795
 20
90.446
 10
921.3226
 20
90.5263
 10
920.7899
 20
90.6195
 10
920.281
 20
90.7254
 10
919.7959
 20
90.8443
 10
919.3344
 20
90.976
 10
919.0061
 20
91.0834
 10
918.6925
 20
91.1996
 10
918.3938
 20
91.3246
 10
918.1101
 20
91.4583
 10
917.8413
 20
91.6009
 10
917.5875
 20
91.7522
 10
917.3489
 20
91.9123
 10
917.1255
 20
92.0812
 10
916.9226
 20
92.2561
 10
916.7469
 20
92.4343
 10
916.5983
 20
92.6158
 10
916.4769
 20
92.8005
 10
916.3825
 20
92.9885
 10
916.3151
 20
93.1796
 10
916.2748
 20
93.3739
 10
916.2613
 20
93.5714
 10
916.2684
 20
93.7643
 10
916.2897
 20
93.9443
 10
916.3253
 20
94.1114
 10
916.3751
 20
94.2656
 10
916.4393
 20
94.4068
 10
916.518
 20
94.5352
 10
916.611
 20
94.6508
 10
916.7186
 20
94.7536
 10
917.0758
 20
95.0126
 10
917.4949
 20
95.2371
 10
917.9757
 20
95.4271
 10
918.5182
 20
95.5825
 10
919.1222
 20
95.7034
 10
919.7878
 20
95.7897
 10
920.5147
 20
95.8415
 10
921.303
 20
95.8588
 10
934.5061
 20
95.8588
 10
934.5061
 20
97.6571
 10
921.303
 20
97.6571
 10
920.4931
 20
97.6446
 10
920.187
 20
97.7112
 10
919.8927
 20
97.7827
 10
919.6089
 20
97.859
 10
919.3344
 20
97.9402
 10
919.0061
 20
98.0473
 10
918.6925
 20
98.1632
 10
918.3938
 20
98.2881
 10
918.1101
 20
98.4218
 10
917.8413
 20
98.5644
 10
917.5875
 20
98.7158
 10
917.3489
 20
98.8762
 10
917.1255
 20
99.0454
 10
916.9226
 20
99.2203
 10
916.7469
 20
99.3985
 10
916.5983
 20
99.58
 10
916.4769
 20
99.7647
 10
916.3825
 20
99.9527
 10
916.3151
 20
100.1438
 10
916.2748
 20
100.3381
 10
916.2613
 20
100.5356
 10
916.2684
 20
100.7283
 10
916.2897
 20
100.9081
 10
916.3253
 20
101.0752
 10
916.3751
 20
101.2294
 10
916.4393
 20
101.3708
 10
916.518
 20
101.4993
 10
916.611
 20
101.615
 10
916.7186
 20
101.7178
 10
917.0758
 20
101.9768
 10
917.4949
 20
102.2013
 10
917.9757
 20
102.3913
 10
918.5182
 20
102.5467
 10
919.1222
 20
102.6676
 10
919.7878
 20
102.7539
 10
920.5147
 20
102.8057
 10
921.303
 20
102.823
 10
934.5061
 20
102.823
  0
LWPOLYLINE
  5
8A
330
1F
100
AcDbEntity
  8
Layer 1
 62
     7
370
     9
100
AcDbPolyline
 90
      165
 70
     1
 43
0.0
 10
934.5061
 20
122.4304
 10
934.5061
 20
124.2287
 10
921.303
 20
124.2287
 10
920.4262
 20
124.2141
 10
919.5907
 20
124.1701
 10
918.7965
 20
124.0969
 10
918.0434
 20
123.9944
 10
917.3316
 20
123.8626
 10
916.661
 20
123.7014
 10
916.0317
 20
123.5109
 10
915.4436
 20
123.2911
 10
915.163
 20
123.1683
 10
914.8968
 20
123.038
 10
914.6448
 20
122.9001
 10
914.407
 20
122.7546
 10
914.1834
 20
122.6015
 10
913.9739
 20
122.4408
 10
913.7785
 20
122.2724
 10
913.5971
 20
122.0964
 10
913.4337
 20
121.9093
 10
913.2922
 20
121.7077
 10
913.1726
 20
121.4916
 10
913.0748
 20
121.2611
 10
912.9989
 20
121.0161
 10
912.9447
 20
120.7566
 10
912.9122
 20
120.4826
 10
912.9014
 20
120.194
 10
912.9202
 20
119.9032
 10
912.9765
 20
119.6217
 10
913.0704
 20
119.3494
 10
913.2017
 20
119.0863
 10
913.3705
 20
118.8325
 10
913.5766
 20
118.5879
 10
913.8201
 20
118.3524
 10
914.1008
 20
118.1262
 10
914.381
 20
117.9296
 10
914.6822
 20
117.742
 10
915.0042
 20
117.5632
 10
915.3468
 20
117.3933
 10
915.7097
 20
117.2323
 10
916.0927
 20
117.0801
 10
916.4956
 20
116.9369
 10
916.9182
 20
116.8025
 10
916.5278
 20
116.6979
 10
916.1511
 20
116.5838
 10
915.7893
 20
116.4602
 10
915.4436
 20
116.3269
 10
915.163
 20
116.2044
 10
914.8968
 20
116.0742
 10
914.6448
 20
115.9363
 10
914.407
 20
115.7908
 10
914.1834
 20
115.6376
 10
913.9739
 20
115.4768
 10
913.7785
 20
115.3083
 10
913.5971
 20
115.1322
 10
913.4337
 20
114.9451
 10
913.2922
 20
114.7435
 10
913.1726
 20
114.5275
 10
913.0748
 20
114.297
 10
912.9989
 20
114.0521
 10
912.9447
 20
113.7928
 10
912.9122
 20
113.5191
 10
912.9014
 20
113.2309
 10
912.9202
 20
112.9397
 10
912.9765
 20
112.6579
 10
913.0704
 20
112.3855
 10
913.2017
 20
112.1223
 10
913.3705
 20
111.8684
 10
913.5766
 20
111.6237
 10
913.8201
 20
111.3883
 10
914.1008
 20
111.162
 10
914.3679
 20
110.9748
 10
914.6531
 20
110.7957
 10
914.9566
 20
110.6247
 10
915.2784
 20
110.4616
 10
915.6186
 20
110.3066
 10
915.9771
 20
110.1595
 10
916.3541
 20
110.0204
 10
916.7496
 20
109.8892
 10
913.382
 20
109.8892
 10
913.382
 20
108.0909
 10
934.5061
 20
108.0909
 10
934.5061
 20
109.8892
 10
923.696
 20
109.8892
 10
923.066
 20
109.9311
 10
922.4605
 20
109.9858
 10
921.8795
 20
110.0533
 10
921.3226
 20
110.1337
 10
920.7899
 20
110.2268
 10
920.281
 20
110.3328
 10
919.7959
 20
110.4517
 10
919.3344
 20
110.5834
 10
919.0061
 20
110.6908
 10
918.6925
 20
110.807
 10
918.3938
 20
110.932
 10
918.1101
 20
111.0657
 10
917.8413
 20
111.2083
 10
917.5875
 20
111.3596
 10
917.3489
 20
111.5197
 10
917.1255
 20
111.6886
 10
916.9226
 20
111.8635
 10
916.7469
 20
112.0417
 10
916.5983
 20
112.2232
 10
916.4769
 20
112.4079
 10
916.3825
 20
112.5959
 10
916.3151
 20
112.787
 10
916.2748
 20
112.9813
 10
916.2613
 20
113.1788
 10
916.2684
 20
113.3717
 10
916.2897
 20
113.5517
 10
916.3253
 20
113.7188
 10
916.3751
 20
113.873
 10
916.4393
 20
114.0142
 10
916.518
 20
114.1426
 10
916.611
 20
114.2582
 10
916.7186
 20
114.361
 10
917.0758
 20
114.62
 10
917.4949
 20
114.8445
 10
917.9757
 20
115.0345
 10
918.5182
 20
115.1899
 10
919.1222
 20
115.3108
 10
919.7878
 20
115.3971
 10
920.5147
 20
115.4489
 10
921.303
 20
115.4662
 10
934.5061
 20
115.4662
 10
934.5061
 20
117.2645
 10
921.303
 20
117.2645
 10
920.4931
 20
117.252
 10
920.187
 20
117.3186
 10
919.8927
 20
117.3901
 10
919.6089
 20
117.4664
 10
919.3344
 20
117.5476
 10
919.0061
 20
117.6547
 10
918.6925
 20
117.7706
 10
918.3938
 20
117.8955
 10
918.1101
 20
118.0292
 10
917.8413
 20
118.1718
 10
917.5875
 20
118.3232
 10
917.3489
 20
118.4836
 10
917.1255
 20
118.6528
 10
916.9226
 20
118.8277
 10
916.7469
 20
119.0059
 10
916.5983
 20
119.1874
 10
916.4769
 20
119.3721
 10
916.3825
 20
119.5601
 10
916.3151
 20
119.7512
 10
916.2748
 20
119.9455
 10
916.2613
 20
120.143
 10
916.2684
 20
120.3357
 10
916.2897
 20
120.5155
 10
916.3253
 20
120.6826
 10
916.3751
 20
120.8368
 10
916.4393
 20
120.9782
 10
916.518
 20
121.1067
 10
916.611
 20
121.2224
 10
916.7186
 20
121.3252
 10
917.0758
 20
121.5842
 10
917.4949
 20
121.8087
 10
917.9757
 20
121.9987
 10
918.5182
 20
122.1541
 10
919.1222
 20
122.275
 10
919.7878
 20
122.3613
 10
920.5147
 20
122.4131
 10
921.303
 20
122.4304
 10
934.5061
 20
122.4304
  0
LWPOLYLINE
  5
8B
330
1F
100
AcDbEntity
  8
Layer 1
 62
     7
370
    20
100
AcDbPolyline
 90
      138
 70
     1
 43
0.0
 10
723.3976
 20
147.165
 10
718.171
 20
144.3073
 10
712.7992
 20
140.9872
 10
707.5331
 20
137.2117
 10
702.6235
 20
132.9879
 10
698.3214
 20
128.3228
 10
694.8776
 20
123.2234
 10
692.543
 20
117.6969
 10
691.5686
 20
111.7503
 10
691.7272
 20
108.9323
 10
692.1969
 20
106.0541
 10
692.9681
 20
103.1805
 10
694.0315
 20
100.3765
 10
695.3777
 20
97.7068
 10
696.9973
 20
95.2363
 10
698.881
 20
93.0299
 10
701.0192
 20
91.1525
 10
705.0577
 20
88.6058
 10
709.3864
 20
86.7086
 10
713.9392
 20
85.3892
 10
718.65
 20
84.576
 10
723.4527
 20
84.1972
 10
728.2813
 20
84.1812
 10
733.0697
 20
84.4563
 10
737.7518
 20
84.9508
 10
745.9631
 20
86.5693
 10
754.4931
 20
89.202
 10
762.9653
 20
92.8218
 10
771.0036
 20
97.4013
 10
778.2315
 20
102.9132
 10
784.2729
 20
109.3304
 10
788.7514
 20
116.6255
 10
791.2907
 20
124.7712
 10
791.4754
 20
127.0844
 10
791.3555
 20
129.3857
 10
790.9734
 20
131.6633
 10
790.3713
 20
133.9055
 10
789.5916
 20
136.1003
 10
788.6766
 20
138.2359
 10
787.6686
 20
140.3005
 10
786.6099
 20
142.2822
 10
784.8483
 20
144.9683
 10
782.7235
 20
147.2479
 10
780.2934
 20
149.155
 10
777.6162
 20
150.7235
 10
774.7499
 20
151.9875
 10
771.7527
 20
152.9807
 10
768.6826
 20
153.7373
 10
765.5976
 20
154.291
 10
761.6635
 20
154.7331
 10
757.8364
 20
154.8764
 10
754.075
 20
154.7571
 10
750.3381
 20
154.4113
 10
746.5843
 20
153.8751
 10
742.7725
 20
153.1848
 10
738.8614
 20
152.3766
 10
734.8097
 20
151.4865
 10
733.9466
 20
153.639
 10
733.1675
 20
155.6127
 10
732.4324
 20
157.4464
 10
731.7012
 20
159.1791
 10
730.9339
 20
160.8494
 10
730.0904
 20
162.4963
 10
729.1308
 20
164.1585
 10
728.015
 20
165.875
 10
725.7662
 20
168.6231
 10
723.2392
 20
170.7979
 10
720.4701
 20
172.4535
 10
717.4952
 20
173.6442
 10
714.3507
 20
174.4242
 10
711.0729
 20
174.8478
 10
707.6979
 20
174.969
 10
704.2619
 20
174.8423
 10
698.9253
 20
174.4732
 10
693.5883
 20
174.0865
 10
688.251
 20
173.6863
 10
682.9136
 20
173.2771
 10
677.5763
 20
172.863
 10
672.2394
 20
172.4485
 10
666.903
 20
172.0379
 10
661.5673
 20
171.6354
 10
661.1321
 20
172.907
 10
660.3942
 20
174.2652
 10
659.4186
 20
175.654
 10
658.2708
 20
177.0172
 10
657.0159
 20
178.2989
 10
655.7193
 20
179.4429
 10
654.446
 20
180.3932
 10
653.2615
 20
181.0937
 10
650.8665
 20
182.0442
 10
648.3811
 20
182.5683
 10
645.8801
 20
182.648
 10
643.4388
 20
182.2654
 10
641.1319
 20
181.4027
 10
639.0347
 20
180.042
 10
637.2221
 20
178.1653
 10
635.7691
 20
175.7549
 10
634.717
 20
172.6927
 10
634.23
 20
169.3839
 10
634.2623
 20
165.9395
 10
634.7681
 20
162.4705
 10
635.7017
 20
159.0882
 10
637.0172
 20
155.9035
 10
638.669
 20
153.0277
 10
640.6111
 20
150.5717
 10
641.4795
 20
149.7046
 10
642.3917
 20
148.9118
 10
643.3456
 20
148.201
 10
644.3395
 20
147.5794
 10
645.3714
 20
147.0547
 10
646.4395
 20
146.6343
 10
647.5418
 20
146.3257
 10
648.6766
 20
146.1363
 10
651.5975
 20
146.1828
 10
654.2632
 20
146.9262
 10
656.6422
 20
148.2634
 10
658.7028
 20
150.091
 10
660.4132
 20
152.3059
 10
661.742
 20
154.8049
 10
662.6573
 20
157.4847
 10
663.1275
 20
160.2421
 10
709.1668
 20
163.1723
 10
710.0926
 20
163.2306
 10
711.1009
 20
163.275
 10
712.1551
 20
163.2766
 10
713.2182
 20
163.2061
 10
714.2534
 20
163.0345
 10
715.2241
 20
162.7328
 10
716.0933
 20
162.2718
 10
716.8242
 20
161.6226
 10
717.8847
 20
160.1856
 10
718.9725
 20
158.3594
 10
720.0397
 20
156.2857
 10
721.0388
 20
154.1062
 10
721.9218
 20
151.9626
 10
722.6411
 20
149.9968
 10
723.149
 20
148.3503
 10
723.3976
 20
147.165
  0
LWPOLYLINE
  5
8C
330
1F
100
AcDbEntity
  8
Layer 1
 62
     7
370
    20
100
AcDbPolyline
 90
       41
 70
     1
 43
0.0
 10
789.9076
 20
135.2689
 10
790.3426
 20
133.9966
 10
790.719
 20
132.7083
 10
791.0286
 20
131.4064
 10
791.2634
 20
130.093
 10
791.4151
 20
128.7705
 10
791.4757
 20
127.4412
 10
791.4369
 20
126.1073
 10
791.2907
 20
124.7712
 10
788.7514
 20
116.6255
 10
784.2729
 20
109.3304
 10
778.2315
 20
102.9132
 10
771.0036
 20
97.4013
 10
762.9653
 20
92.8218
 10
754.4931
 20
89.202
 10
745.9631
 20
86.5693
 10
737.7518
 20
84.9508
 10
733.0697
 20
84.4563
 10
728.2813
 20
84.1812
 10
723.4527
 20
84.1972
 10
718.65
 20
84.576
 10
713.9392
 20
85.3892
 10
709.3864
 20
86.7086
 10
705.0577
 20
88.6058
 10
701.0192
 20
91.1525
 10
699.9174
 20
92.0473
 10
698.8783
 20
93.0327
 10
697.903
 20
94.1005
 10
696.9927
 20
95.2426
 10
696.1485
 20
96.4509
 10
695.3718
 20
97.7172
 10
694.6636
 20
99.0333
 10
694.0252
 20
100.3911
 10
695.111
 20
114.3564
 10
703.2982
 20
126.6802
 10
716.5932
 20
136.811
 10
733.0024
 20
144.1975
 10
750.5321
 20
148.2879
 10
767.1886
 20
148.531
 10
780.9783
 20
144.3751
 10
789.9076
 20
135.2689
  0
LWPOLYLINE
  5
8D
330
1F
100
AcDbEntity
  8
Layer 1
 62
     7
370
    20
100
AcDbPolyline
 90
       57
 70
     1
 43
0.0
 10
713.5496
 20
115.4624
 10
714.3007
 20
116.2399
 10
716.5106
 20
118.2956
 10
720.1145
 20
121.2137
 10
725.0472
 20
124.579
 10
731.2439
 20
127.9757
 10
738.6396
 20
130.9883
 10
747.1694
 20
133.2015
 10
756.7682
 20
134.1995
 10
765.556
 20
133.7092
 10
771.9475
 20
131.9985
 10
776.3202
 20
129.4638
 10
779.0515
 20
126.5013
 10
780.5188
 20
123.5072
 10
781.0996
 20
120.878
 10
781.1713
 20
119.0099
 10
781.1113
 20
118.2991
 10
781.0688
 20
117.9235
 10
780.8587
 20
116.8591
 10
780.3573
 20
115.2001
 10
779.4409
 20
113.0404
 10
777.9857
 20
110.4738
 10
775.868
 20
107.5944
 10
772.964
 20
104.496
 10
769.1501
 20
101.2728
 10
765.3358
 20
98.617
 10
761.3112
 20
96.2415
 10
757.1078
 20
94.1565
 10
752.7572
 20
92.3723
 10
748.2908
 20
90.8989
 10
743.7401
 20
89.7466
 10
739.1367
 20
88.9256
 10
734.5119
 20
88.446
 10
730.3379
 20
88.353
 10
725.9839
 20
88.6384
 10
721.6649
 20
89.3543
 10
717.5957
 20
90.5524
 10
713.9913
 20
92.2848
 10
711.0666
 20
94.6034
 10
709.0366
 20
97.5601
 10
708.1162
 20
101.2069
 10
708.0853
 20
101.9142
 10
708.0955
 20
102.6442
 10
708.1478
 20
103.3972
 10
708.2435
 20
104.1733
 10
708.3835
 20
104.9729
 10
708.5692
 20
105.7962
 10
708.8015
 20
106.6435
 10
709.0817
 20
107.5151
 10
709.41
 20
108.4041
 10
709.7962
 20
109.3251
 10
710.2443
 20
110.2769
 10
710.7583
 20
111.2586
 10
711.3418
 20
112.2691
 10
711.999
 20
113.3072
 10
712.7336
 20
114.372
 10
713.5496
 20
115.4624
  0
LWPOLYLINE
  5
8E
330
1F
100
AcDbEntity
  8
Layer 1
 62
     7
370
    20
100
AcDbPolyline
 90
       57
 70
     1
 43
0.0
 10
708.1162
 20
101.2069
 10
708.3169
 20
100.7426
 10
708.9839
 20
99.5222
 10
710.2145
 20
97.8048
 10
712.1062
 20
95.8495
 10
714.7563
 20
93.9151
 10
718.2621
 20
92.2607
 10
722.721
 20
91.1453
 10
728.2304
 20
90.8279
 10
733.823
 20
91.1753
 10
739.389
 20
91.9168
 10
744.8853
 20
93.0654
 10
750.2688
 20
94.6341
 10
755.4963
 20
96.636
 10
760.5248
 20
99.0841
 10
765.3112
 20
101.9914
 10
769.8123
 20
105.371
 10
772.2157
 20
107.5384
 10
774.4099
 20
109.9078
 10
776.3009
 20
112.4719
 10
777.7946
 20
115.2234
 10
778.7969
 20
118.1551
 10
779.2139
 20
121.2597
 10
778.9513
 20
124.5299
 10
777.9153
 20
127.9585
 10
779.2065
 20
126.2638
 10
780.1101
 20
124.569
 10
780.6926
 20
122.9436
 10
781.0204
 20
121.4575
 10
781.1597
 20
120.1802
 10
781.1771
 20
119.1816
 10
781.1388
 20
118.5313
 10
781.1113
 20
118.2991
 10
781.0688
 20
117.9235
 10
780.8587
 20
116.8591
 10
780.3573
 20
115.2001
 10
779.4409
 20
113.0404
 10
777.9857
 20
110.4738
 10
775.868
 20
107.5944
 10
772.964
 20
104.496
 10
769.1501
 20
101.2728
 10
765.3358
 20
98.617
 10
761.3112
 20
96.2415
 10
757.1078
 20
94.1565
 10
752.7572
 20
92.3723
 10
748.2908
 20
90.8989
 10
743.7401
 20
89.7466
 10
739.1367
 20
88.9256
 10
734.5119
 20
88.446
 10
730.3379
 20
88.353
 10
725.9839
 20
88.6384
 10
721.6649
 20
89.3543
 10
717.5957
 20
90.5524
 10
713.9913
 20
92.2848
 10
711.0666
 20
94.6034
 10
709.0366
 20
97.5601
 10
708.1162
 20
101.2069
  0
LWPOLYLINE
  5
8F
330
1F
100
AcDbEntity
  8
Layer 1
 62
     7
370
    20
100
AcDbPolyline
 90
       41
 70
     1
 43
0.0
 10
780.9578
 20
117.2986
 10
780.6775
 20
116.1841
 10
780.179
 20
114.7218
 10
779.4007
 20
112.9588
 10
778.2807
 20
110.9418
 10
776.7574
 20
108.7178
 10
774.769
 20
106.3337
 10
772.2539
 20
103.8364
 10
769.1501
 20
101.2728
 10
765.3358
 20
98.617
 10
761.3113
 20
96.2415
 10
757.1079
 20
94.1565
 10
752.7573
 20
92.3723
 10
748.2909
 20
90.8989
 10
743.7402
 20
89.7466
 10
739.1367
 20
88.9256
 10
734.5119
 20
88.446
 10
731.2054
 20
88.3429
 10
727.7569
 20
88.4737
 10
724.2751
 20
88.8648
 10
720.8691
 20
89.5423
 10
717.6478
 20
90.5328
 10
714.7201
 20
91.8624
 10
712.1951
 20
93.5575
 10
710.1815
 20
95.6444
 10
713.4984
 20
92.9745
 10
717.5409
 20
91.1053
 10
722.1242
 20
89.9462
 10
727.0639
 20
89.407
 10
732.1754
 20
89.397
 10
737.2739
 20
89.826
 10
742.175
 20
90.6035
 10
746.694
 20
91.6391
 10
751.525
 20
93.173
 10
756.6003
 20
95.2759
 10
761.7195
 20
97.9024
 10
766.6821
 20
101.007
 10
771.2877
 20
104.5444
 10
775.3358
 20
108.469
 10
778.626
 20
112.7356
 10
780.9578
 20
117.2986
  0
LWPOLYLINE
  5
90
330
1F
100
AcDbEntity
  8
Layer 1
 62
     7
370
    20
100
AcDbPolyline
 90
       33
 70
     1
 43
0.0
 10
742.8566
 20
115.5962
 10
743.6604
 20
115.8901
 10
744.4356
 20
116.0717
 10
745.1635
 20
116.1435
 10
745.8258
 20
116.1084
 10
746.404
 20
115.9687
 10
746.8797
 20
115.7272
 10
747.2343
 20
115.3864
 10
747.4494
 20
114.949
 10
747.5052
 20
114.4428
 10
747.4027
 20
113.9045
 10
747.1552
 20
113.3505
 10
746.7757
 20
112.7971
 10
746.2773
 20
112.2603
 10
745.6731
 20
111.7566
 10
744.9762
 20
111.3021
 10
744.1996
 20
110.9131
 10
743.3958
 20
110.6192
 10
742.6207
 20
110.4377
 10
741.8927
 20
110.3658
 10
741.2304
 20
110.401
 10
740.6522
 20
110.5407
 10
740.1765
 20
110.7824
 10
739.8219
 20
111.1233
 10
739.6068
 20
111.5609
 10
739.5513
 20
112.0672
 10
739.6538
 20
112.6053
 10
739.9013
 20
113.1592
 10
740.2808
 20
113.7126
 10
740.7791
 20
114.2492
 10
741.3832
 20
114.7528
 10
742.0801
 20
115.2072
 10
742.8566
 20
115.5962
  0
LWPOLYLINE
  5
91
330
1F
100
AcDbEntity
  8
Layer 1
 62
     7
370
    20
100
AcDbPolyline
 90
        3
 70
     0
 43
0.0
 10
651.8304
 20
170.8527
 10
660.6609
 20
171.5472
 10
666.898
 20
172.0376
  0
LWPOLYLINE
  5
92
330
1F
100
AcDbEntity
  8
Layer 1
 62
     7
370
    20
100
AcDbPolyline
 90
        2
 70
     0
 43
0.0
 10
653.2536
 20
159.4312
 10
666.8808
 20
160.4809
  0
LWPOLYLINE
  5
93
330
1F
100
AcDbEntity
  8
Layer 1
 62
     7
370
    20
100
AcDbPolyline
 90
       17
 70
     0
 43
0.0
 10
653.6069
 20
170.9921
 10
652.8247
 20
171.647
 10
651.9949
 20
172.0932
 10
651.1332
 20
172.3408
 10
650.2557
 20
172.4
 10
649.3781
 20
172.2806
 10
648.5164
 20
171.9928
 10
647.6866
 20
171.5468
 10
646.9044
 20
170.9524
 10
645.3731
 20
168.7969
 10
644.8289
 20
166.2029
 10
645.1378
 20
163.494
 10
646.1658
 20
160.9936
 10
647.7786
 20
159.0253
 10
649.8425
 20
157.9128
 10
652.2232
 20
157.9796
 10
654.7868
 20
159.5492
  0
LWPOLYLINE
  5
94
330
1F
100
AcDbEntity
  8
Layer 1
 62
     7
370
    20
100
AcDbPolyline
 90
       33
 70
     1
 43
0.0
 10
752.5072
 20
120.3885
 10
752.8109
 20
120.3688
 10
753.0937
 20
120.3122
 10
753.3497
 20
120.2228
 10
753.5728
 20
120.1043
 10
753.7568
 20
119.9606
 10
753.8958
 20
119.7958
 10
753.9837
 20
119.6137
 10
754.0143
 20
119.4181
 10
753.9837
 20
119.2225
 10
753.8958
 20
119.0404
 10
753.7568
 20
118.8755
 10
753.5728
 20
118.7319
 10
753.3497
 20
118.6134
 10
753.0937
 20
118.524
 10
752.8109
 20
118.4674
 10
752.5072
 20
118.4477
 10
752.2033
 20
118.4674
 10
751.9203
 20
118.524
 10
751.6642
 20
118.6134
 10
751.4411
 20
118.7319
 10
751.257
 20
118.8755
 10
751.118
 20
119.0404
 10
751.0301
 20
119.2225
 10
750.9995
 20
119.4181
 10
751.0301
 20
119.6137
 10
751.118
 20
119.7958
 10
751.257
 20
119.9606
 10
751.4411
 20
120.1043
 10
751.6642
 20
120.2228
 10
751.9203
 20
120.3122
 10
752.2033
 20
120.3688
 10
752.5072
 20
120.3885
  0
LWPOLYLINE
  5
95
330
1F
100
AcDbEntity
  8
Layer 1
 62
     7
370
    20
100
AcDbPolyline
 90
       33
 70
     1
 43
0.0
 10
742.3387
 20
120.426
 10
742.6426
 20
120.4063
 10
742.9256
 20
120.3497
 10
743.1818
 20
120.2603
 10
743.4049
 20
120.1417
 10
743.589
 20
119.998
 10
743.728
 20
119.8331
 10
743.8159
 20
119.6507
 10
743.8465
 20
119.4549
 10
743.8159
 20
119.2593
 10
743.728
 20
119.0772
 10
743.589
 20
118.9124
 10
743.4049
 20
118.7687
 10
743.1818
 20
118.6502
 10
742.9256
 20
118.5608
 10
742.6426
 20
118.5042
 10
742.3387
 20
118.4845
 10
742.0351
 20
118.5042
 10
741.7522
 20
118.5608
 10
741.4963
 20
118.6502
 10
741.2732
 20
118.7687
 10
741.0891
 20
118.9124
 10
740.9502
 20
119.0772
 10
740.8623
 20
119.2593
 10
740.8317
 20
119.4549
 10
740.8623
 20
119.6507
 10
740.9502
 20
119.8331
 10
741.0891
 20
119.998
 10
741.2732
 20
120.1417
 10
741.4963
 20
120.2603
 10
741.7522
 20
120.3497
 10
742.0351
 20
120.4063
 10
742.3387
 20
120.426
  0
LWPOLYLINE
  5
96
330
1F
100
AcDbEntity
  8
Layer 1
 62
     7
370
    20
100
AcDbPolyline
 90
       33
 70
     1
 43
0.0
 10
733.4625
 20
114.4909
 10
733.7664
 20
114.4712
 10
734.0494
 20
114.4147
 10
734.3056
 20
114.3252
 10
734.5287
 20
114.2067
 10
734.7128
 20
114.0631
 10
734.8518
 20
113.8983
 10
734.9397
 20
113.7161
 10
734.9703
 20
113.5205
 10
734.9397
 20
113.3249
 10
734.8518
 20
113.1428
 10
734.7128
 20
112.978
 10
734.5287
 20
112.8343
 10
734.3056
 20
112.7158
 10
734.0494
 20
112.6264
 10
733.7664
 20
112.5698
 10
733.4625
 20
112.5501
 10
733.1588
 20
112.5698
 10
732.876
 20
112.6264
 10
732.62
 20
112.7158
 10
732.397
 20
112.8343
 10
732.2129
 20
112.978
 10
732.074
 20
113.1428
 10
731.9861
 20
113.3249
 10
731.9555
 20
113.5205
 10
731.9861
 20
113.7161
 10
732.074
 20
113.8983
 10
732.2129
 20
114.0631
 10
732.397
 20
114.2067
 10
732.62
 20
114.3252
 10
732.876
 20
114.4147
 10
733.1588
 20
114.4712
 10
733.4625
 20
114.4909
  0
LWPOLYLINE
  5
97
330
1F
100
AcDbEntity
  8
Layer 1
 62
     7
370
    20
100
AcDbPolyline
 90
       33
 70
     1
 43
0.0
 10
730.4102
 20
121.4708
 10
730.7141
 20
121.4511
 10
730.9971
 20
121.3946
 10
731.2532
 20
121.3051
 10
731.4763
 20
121.1866
 10
731.6604
 20
121.043
 10
731.7994
 20
120.8782
 10
731.8873
 20
120.696
 10
731.9179
 20
120.5004
 10
731.8873
 20
120.3048
 10
731.7994
 20
120.1227
 10
731.6604
 20
119.9579
 10
731.4763
 20
119.8142
 10
731.2532
 20
119.6957
 10
730.9971
 20
119.6063
 10
730.7141
 20
119.5497
 10
730.4102
 20
119.53
 10
730.1065
 20
119.5497
 10
729.8237
 20
119.6063
 10
729.5677
 20
119.6957
 10
729.3446
 20
119.8142
 10
729.1606
 20
119.9579
 10
729.0216
 20
120.1227
 10
728.9337
 20
120.3048
 10
728.9031
 20
120.5004
 10
728.9337
 20
120.696
 10
729.0216
 20
120.8782
 10
729.1606
 20
121.043
 10
729.3446
 20
121.1866
 10
729.5677
 20
121.3051
 10
729.8237
 20
121.3946
 10
730.1065
 20
121.4511
 10
730.4102
 20
121.4708
  0
LWPOLYLINE
  5
98
330
1F
100
AcDbEntity
  8
Layer 1
 62
     7
370
    20
100
AcDbPolyline
 90
       33
 70
     1
 43
0.0
 10
723.5192
 20
114.6779
 10
723.8231
 20
114.6582
 10
724.1061
 20
114.6017
 10
724.3623
 20
114.5122
 10
724.5854
 20
114.3937
 10
724.7695
 20
114.2501
 10
724.9085
 20
114.0853
 10
724.9964
 20
113.9031
 10
725.027
 20
113.7075
 10
724.9964
 20
113.5119
 10
724.9085
 20
113.3298
 10
724.7695
 20
113.165
 10
724.5854
 20
113.0213
 10
724.3623
 20
112.9028
 10
724.1061
 20
112.8134
 10
723.8231
 20
112.7568
 10
723.5192
 20
112.7371
 10
723.2156
 20
112.7568
 10
722.9327
 20
112.8134
 10
722.6768
 20
112.9028
 10
722.4537
 20
113.0213
 10
722.2696
 20
113.165
 10
722.1307
 20
113.3298
 10
722.0428
 20
113.5119
 10
722.0122
 20
113.7075
 10
722.0428
 20
113.9031
 10
722.1307
 20
114.0853
 10
722.2696
 20
114.2501
 10
722.4537
 20
114.3937
 10
722.6768
 20
114.5122
 10
722.9327
 20
114.6017
 10
723.2156
 20
114.6582
 10
723.5192
 20
114.6779
  0
LWPOLYLINE
  5
99
330
1F
100
AcDbEntity
  8
Layer 1
 62
     7
370
    20
100
AcDbPolyline
 90
       33
 70
     1
 43
0.0
 10
722.106
 20
107.6605
 10
722.4099
 20
107.6408
 10
722.6929
 20
107.5842
 10
722.9491
 20
107.4948
 10
723.1722
 20
107.3763
 10
723.3563
 20
107.2326
 10
723.4953
 20
107.0678
 10
723.5832
 20
106.8857
 10
723.6138
 20
106.6901
 10
723.5832
 20
106.4945
 10
723.4953
 20
106.3122
 10
723.3563
 20
106.1473
 10
723.1722
 20
106.0036
 10
722.9491
 20
105.8849
 10
722.6929
 20
105.7954
 10
722.4099
 20
105.7387
 10
722.106
 20
105.719
 10
721.8021
 20
105.7387
 10
721.5191
 20
105.7954
 10
721.263
 20
105.8849
 10
721.0399
 20
106.0036
 10
720.8558
 20
106.1473
 10
720.7168
 20
106.3122
 10
720.6289
 20
106.4945
 10
720.5983
 20
106.6901
 10
720.6289
 20
106.8857
 10
720.7168
 20
107.0678
 10
720.8558
 20
107.2326
 10
721.0399
 20
107.3763
 10
721.263
 20
107.4948
 10
721.5191
 20
107.5842
 10
721.8021
 20
107.6408
 10
722.106
 20
107.6605
  0
LWPOLYLINE
  5
9A
330
1F
100
AcDbEntity
  8
Layer 1
 62
     7
370
    20
100
AcDbPolyline
 90
       33
 70
     1
 43
0.0
 10
734.9147
 20
107.9963
 10
735.2183
 20
107.9766
 10
735.5012
 20
107.92
 10
735.7571
 20
107.8306
 10
735.9802
 20
107.7121
 10
736.1643
 20
107.5684
 10
736.3032
 20
107.4036
 10
736.3911
 20
107.2214
 10
736.4217
 20
107.0258
 10
736.3911
 20
106.8302
 10
736.3032
 20
106.6481
 10
736.1643
 20
106.4833
 10
735.9802
 20
106.3396
 10
735.7571
 20
106.2211
 10
735.5012
 20
106.1317
 10
735.2183
 20
106.0751
 10
734.9147
 20
106.0554
 10
734.6108
 20
106.0751
 10
734.3278
 20
106.1317
 10
734.0716
 20
106.2211
 10
733.8485
 20
106.3396
 10
733.6644
 20
106.4833
 10
733.5254
 20
106.6481
 10
733.4375
 20
106.8302
 10
733.4069
 20
107.0258
 10
733.4375
 20
107.2214
 10
733.5254
 20
107.4036
 10
733.6644
 20
107.5684
 10
733.8485
 20
107.7121
 10
734.0716
 20
107.8306
 10
734.3278
 20
107.92
 10
734.6108
 20
107.9766
 10
734.9147
 20
107.9963
  0
LWPOLYLINE
  5
9B
330
1F
100
AcDbEntity
  8
Layer 1
 62
     7
370
    20
100
AcDbPolyline
 90
       33
 70
     1
 43
0.0
 10
726.3005
 20
102.6958
 10
726.6044
 20
102.6761
 10
726.8874
 20
102.6196
 10
727.1436
 20
102.5301
 10
727.3667
 20
102.4116
 10
727.5508
 20
102.268
 10
727.6898
 20
102.1032
 10
727.7777
 20
101.921
 10
727.8083
 20
101.7254
 10
727.7777
 20
101.5298
 10
727.6898
 20
101.3477
 10
727.5508
 20
101.1829
 10
727.3667
 20
101.0392
 10
727.1436
 20
100.9207
 10
726.8874
 20
100.8313
 10
726.6044
 20
100.7747
 10
726.3005
 20
100.755
 10
725.9966
 20
100.7747
 10
725.7137
 20
100.8313
 10
725.4577
 20
100.9207
 10
725.2347
 20
101.0392
 10
725.0507
 20
101.1829
 10
724.9118
 20
101.3477
 10
724.824
 20
101.5298
 10
724.7934
 20
101.7254
 10
724.824
 20
101.921
 10
724.9118
 20
102.1032
 10
725.0507
 20
102.268
 10
725.2347
 20
102.4116
 10
725.4577
 20
102.5301
 10
725.7137
 20
102.6196
 10
725.9966
 20
102.6761
 10
726.3005
 20
102.6958
  0
LWPOLYLINE
  5
9C
330
1F
100
AcDbEntity
  8
Layer 1
 62
     7
370
    20
100
AcDbPolyline
 90
       33
 70
     1
 43
0.0
 10
735.2886
 20
101.0539
 10
735.5925
 20
101.0342
 10
735.8755
 20
100.9776
 10
736.1317
 20
100.8882
 10
736.3548
 20
100.7697
 10
736.5389
 20
100.626
 10
736.6779
 20
100.4612
 10
736.7658
 20
100.2791
 10
736.7964
 20
100.0835
 10
736.7658
 20
99.8879
 10
736.6779
 20
99.7056
 10
736.5389
 20
99.5407
 10
736.3548
 20
99.397
 10
736.1317
 20
99.2783
 10
735.8755
 20
99.1888
 10
735.5925
 20
99.1321
 10
735.2886
 20
99.1124
 10
734.985
 20
99.1321
 10
734.7021
 20
99.1888
 10
734.4462
 20
99.2783
 10
734.2231
 20
99.397
 10
734.039
 20
99.5407
 10
733.9001
 20
99.7056
 10
733.8122
 20
99.8879
 10
733.7816
 20
100.0835
 10
733.8122
 20
100.2791
 10
733.9001
 20
100.4612
 10
734.039
 20
100.626
 10
734.2231
 20
100.7697
 10
734.4462
 20
100.8882
 10
734.7021
 20
100.9776
 10
734.985
 20
101.0342
 10
735.2886
 20
101.0539
  0
LWPOLYLINE
  5
9D
330
1F
100
AcDbEntity
  8
Layer 1
 62
     7
370
    20
100
AcDbPolyline
 90
       33
 70
     1
 43
0.0
 10
746.0751
 20
102.659
 10
746.3788
 20
102.6393
 10
746.6616
 20
102.5827
 10
746.9176
 20
102.4933
 10
747.1407
 20
102.3748
 10
747.3247
 20
102.2311
 10
747.4637
 20
102.0663
 10
747.5516
 20
101.8842
 10
747.5822
 20
101.6886
 10
747.5516
 20
101.4928
 10
747.4637
 20
101.3104
 10
747.3247
 20
101.1455
 10
747.1407
 20
101.0018
 10
746.9176
 20
100.8832
 10
746.6616
 20
100.7938
 10
746.3788
 20
100.7372
 10
746.0751
 20
100.7175
 10
745.7712
 20
100.7372
 10
745.4882
 20
100.7938
 10
745.2321
 20
100.8832
 10
745.009
 20
101.0018
 10
744.8249
 20
101.1455
 10
744.6859
 20
101.3104
 10
744.598
 20
101.4928
 10
744.5674
 20
101.6886
 10
744.598
 20
101.8842
 10
744.6859
 20
102.0663
 10
744.8249
 20
102.2311
 10
745.009
 20
102.3748
 10
745.2321
 20
102.4933
 10
745.4882
 20
102.5827
 10
745.7712
 20
102.6393
 10
746.0751
 20
102.659
  0
LWPOLYLINE
  5
9E
330
1F
100
AcDbEntity
  8
Layer 1
 62
     7
370
    20
100
AcDbPolyline
 90
       33
 70
     1
 43
0.0
 10
744.9518
 20
108.2576
 10
745.2554
 20
108.2379
 10
745.5383
 20
108.1814
 10
745.7942
 20
108.0919
 10
746.0173
 20
107.9734
 10
746.2014
 20
107.8298
 10
746.3403
 20
107.665
 10
746.4282
 20
107.4828
 10
746.4588
 20
107.2872
 10
746.4282
 20
107.0916
 10
746.3403
 20
106.9095
 10
746.2014
 20
106.7447
 10
746.0173
 20
106.601
 10
745.7942
 20
106.4825
 10
745.5383
 20
106.3931
 10
745.2554
 20
106.3365
 10
744.9518
 20
106.3168
 10
744.6479
 20
106.3365
 10
744.3649
 20
106.3931
 10
744.1087
 20
106.4825
 10
743.8856
 20
106.601
 10
743.7015
 20
106.7447
 10
743.5625
 20
106.9095
 10
743.4746
 20
107.0916
 10
743.444
 20
107.2872
 10
743.4746
 20
107.4828
 10
743.5625
 20
107.665
 10
743.7015
 20
107.8298
 10
743.8856
 20
107.9734
 10
744.1087
 20
108.0919
 10
744.3649
 20
108.1814
 10
744.6479
 20
108.2379
 10
744.9518
 20
108.2576
  0
LWPOLYLINE
  5
9F
330
1F
100
AcDbEntity
  8
Layer 1
 62
     7
370
    20
100
AcDbPolyline
 90
       33
 70
     1
 43
0.0
 10
756.2617
 20
107.5486
 10
756.5655
 20
107.5289
 10
756.8485
 20
107.4723
 10
757.1045
 20
107.3829
 10
757.3275
 20
107.2644
 10
757.5114
 20
107.1207
 10
757.6503
 20
106.9559
 10
757.7381
 20
106.7738
 10
757.7687
 20
106.5782
 10
757.7381
 20
106.3824
 10
757.6503
 20
106.2
 10
757.5114
 20
106.0351
 10
757.3275
 20
105.8914
 10
757.1045
 20
105.7728
 10
756.8485
 20
105.6834
 10
756.5655
 20
105.6268
 10
756.2617
 20
105.6071
 10
755.9578
 20
105.6268
 10
755.6748
 20
105.6834
 10
755.4186
 20
105.7728
 10
755.1955
 20
105.8914
 10
755.0114
 20
106.0351
 10
754.8724
 20
106.2
 10
754.7845
 20
106.3824
 10
754.7539
 20
106.5782
 10
754.7845
 20
106.7738
 10
754.8724
 20
106.9559
 10
755.0114
 20
107.1207
 10
755.1955
 20
107.2644
 10
755.4186
 20
107.3829
 10
755.6748
 20
107.4723
 10
755.9578
 20
107.5289
 10
756.2617
 20
107.5486
  0
LWPOLYLINE
  5
A0
330
1F
100
AcDbEntity
  8
Layer 1
 62
     7
370
    20
100
AcDbPolyline
 90
       33
 70
     1
 43
0.0
 10
753.7154
 20
113.9307
 10
754.0191
 20
113.911
 10
754.3019
 20
113.8544
 10
754.5579
 20
113.765
 10
754.7809
 20
113.6465
 10
754.965
 20
113.5028
 10
755.1039
 20
113.338
 10
755.1918
 20
113.1558
 10
755.2224
 20
112.9602
 10
755.1918
 20
112.7646
 10
755.1039
 20
112.5825
 10
754.965
 20
112.4177
 10
754.7809
 20
112.274
 10
754.5579
 20
112.1555
 10
754.3019
 20
112.0661
 10
754.0191
 20
112.0095
 10
753.7154
 20
111.9898
 10
753.4115
 20
112.0095
 10
753.1285
 20
112.0661
 10
752.8723
 20
112.1555
 10
752.6492
 20
112.274
 10
752.4651
 20
112.4177
 10
752.3261
 20
112.5825
 10
752.2382
 20
112.7646
 10
752.2076
 20
112.9602
 10
752.2382
 20
113.1558
 10
752.3261
 20
113.338
 10
752.4651
 20
113.5028
 10
752.6492
 20
113.6465
 10
752.8723
 20
113.765
 10
753.1285
 20
113.8544
 10
753.4115
 20
113.911
 10
753.7154
 20
113.9307
  0
LWPOLYLINE
  5
A1
330
1F
100
AcDbEntity
  8
Layer 1
 62
     7
370
    20
100
AcDbPolyline
 90
       33
 70
     1
 43
0.0
 10
763.0407
 20
114.3415
 10
763.3443
 20
114.3218
 10
763.6272
 20
114.2652
 10
763.8831
 20
114.1758
 10
764.1062
 20
114.0573
 10
764.2903
 20
113.9136
 10
764.4292
 20
113.7488
 10
764.5171
 20
113.5667
 10
764.5477
 20
113.3711
 10
764.5171
 20
113.1755
 10
764.4292
 20
112.9934
 10
764.2903
 20
112.8285
 10
764.1062
 20
112.6849
 10
763.8831
 20
112.5664
 10
763.6272
 20
112.477
 10
763.3443
 20
112.4204
 10
763.0407
 20
112.4007
 10
762.7368
 20
112.4204
 10
762.4538
 20
112.477
 10
762.1976
 20
112.5664
 10
761.9745
 20
112.6849
 10
761.7904
 20
112.8285
 10
761.6514
 20
112.9934
 10
761.5635
 20
113.1755
 10
761.5329
 20
113.3711
 10
761.5635
 20
113.5667
 10
761.6514
 20
113.7488
 10
761.7904
 20
113.9136
 10
761.9745
 20
114.0573
 10
762.1976
 20
114.1758
 10
762.4538
 20
114.2652
 10
762.7368
 20
114.3218
 10
763.0407
 20
114.3415
  0
LWPOLYLINE
  5
A2
330
1F
100
AcDbEntity
  8
Layer 1
 62
     7
370
    20
100
AcDbPolyline
 90
       33
 70
     1
 43
0.0
 10
764.9134
 20
121.0975
 10
765.217
 20
121.0778
 10
765.4999
 20
121.0212
 10
765.7558
 20
120.9318
 10
765.9789
 20
120.8132
 10
766.163
 20
120.6695
 10
766.3019
 20
120.5046
 10
766.3898
 20
120.3222
 10
766.4204
 20
120.1264
 10
766.3898
 20
119.9308
 10
766.3019
 20
119.7487
 10
766.163
 20
119.5839
 10
765.9789
 20
119.4402
 10
765.7558
 20
119.3217
 10
765.4999
 20
119.2323
 10
765.217
 20
119.1757
 10
764.9134
 20
119.156
 10
764.6095
 20
119.1757
 10
764.3265
 20
119.2323
 10
764.0703
 20
119.3217
 10
763.8472
 20
119.4402
 10
763.6631
 20
119.5839
 10
763.5241
 20
119.7487
 10
763.4362
 20
119.9308
 10
763.4056
 20
120.1264
 10
763.4362
 20
120.3222
 10
763.5241
 20
120.5046
 10
763.6631
 20
120.6695
 10
763.8472
 20
120.8132
 10
764.0703
 20
120.9318
 10
764.3265
 20
121.0212
 10
764.6095
 20
121.0778
 10
764.9134
 20
121.0975
  0
LWPOLYLINE
  5
A3
330
1F
100
AcDbEntity
  8
Layer 1
 62
     7
370
    20
100
AcDbPolyline
 90
       33
 70
     1
 43
0.0
 10
760.8308
 20
126.3973
 10
761.1347
 20
126.3776
 10
761.4177
 20
126.321
 10
761.6739
 20
126.2316
 10
761.897
 20
126.1131
 10
762.0811
 20
125.9694
 10
762.2201
 20
125.8046
 10
762.308
 20
125.6225
 10
762.3386
 20
125.4269
 10
762.308
 20
125.2313
 10
762.2201
 20
125.0492
 10
762.0811
 20
124.8843
 10
761.897
 20
124.7407
 10
761.6739
 20
124.6222
 10
761.4177
 20
124.5328
 10
761.1347
 20
124.4762
 10
760.8308
 20
124.4565
 10
760.5271
 20
124.4762
 10
760.2443
 20
124.5328
 10
759.9883
 20
124.6222
 10
759.7653
 20
124.7407
 10
759.5812
 20
124.8843
 10
759.4423
 20
125.0492
 10
759.3544
 20
125.2313
 10
759.3238
 20
125.4269
 10
759.3544
 20
125.6225
 10
759.4423
 20
125.8046
 10
759.5812
 20
125.9694
 10
759.7653
 20
126.1131
 10
759.9883
 20
126.2316
 10
760.2443
 20
126.321
 10
760.5271
 20
126.3776
 10
760.8308
 20
126.3973
  0
LWPOLYLINE
  5
A4
330
1F
100
AcDbEntity
  8
Layer 1
 62
     7
370
    20
100
AcDbPolyline
 90
       33
 70
     1
 43
0.0
 10
751.9177
 20
128.3013
 10
752.2214
 20
128.2816
 10
752.5042
 20
128.225
 10
752.7602
 20
128.1356
 10
752.9833
 20
128.0171
 10
753.1673
 20
127.8734
 10
753.3063
 20
127.7086
 10
753.3942
 20
127.5264
 10
753.4248
 20
127.3308
 10
753.3942
 20
127.135
 10
753.3063
 20
126.9527
 10
753.1673
 20
126.7877
 10
752.9833
 20
126.644
 10
752.7602
 20
126.5255
 10
752.5042
 20
126.436
 10
752.2214
 20
126.3794
 10
751.9177
 20
126.3597
 10
751.6138
 20
126.3794
 10
751.3308
 20
126.436
 10
751.0747
 20
126.5255
 10
750.8516
 20
126.644
 10
750.6675
 20
126.7877
 10
750.5285
 20
126.9527
 10
750.4406
 20
127.135
 10
750.41
 20
127.3308
 10
750.4406
 20
127.5264
 10
750.5285
 20
127.7086
 10
750.6675
 20
127.8734
 10
750.8516
 20
128.0171
 10
751.0747
 20
128.1356
 10
751.3308
 20
128.225
 10
751.6138
 20
128.2816
 10
751.9177
 20
128.3013
  0
LWPOLYLINE
  5
A5
330
1F
100
AcDbEntity
  8
Layer 1
 62
     7
370
    20
100
AcDbPolyline
 90
       33
 70
     1
 43
0.0
 10
740.8317
 20
126.4348
 10
741.1356
 20
126.4151
 10
741.4186
 20
126.3586
 10
741.6747
 20
126.2691
 10
741.8979
 20
126.1506
 10
742.0819
 20
126.007
 10
742.2209
 20
125.8422
 10
742.3088
 20
125.66
 10
742.3394
 20
125.4644
 10
742.3088
 20
125.2688
 10
742.2209
 20
125.0867
 10
742.0819
 20
124.9218
 10
741.8979
 20
124.7782
 10
741.6747
 20
124.6597
 10
741.4186
 20
124.5703
 10
741.1356
 20
124.5137
 10
740.8317
 20
124.494
 10
740.528
 20
124.5137
 10
740.2452
 20
124.5703
 10
739.9892
 20
124.6597
 10
739.7661
 20
124.7782
 10
739.5821
 20
124.9218
 10
739.4431
 20
125.0867
 10
739.3552
 20
125.2688
 10
739.3246
 20
125.4644
 10
739.3552
 20
125.66
 10
739.4431
 20
125.8422
 10
739.5821
 20
126.007
 10
739.7661
 20
126.1506
 10
739.9892
 20
126.2691
 10
740.2452
 20
126.3586
 10
740.528
 20
126.4151
 10
740.8317
 20
126.4348
  0
LWPOLYLINE
  5
A6
330
1F
100
AcDbEntity
  8
Layer 1
 62
     7
370
    20
100
AcDbPolyline
 90
       33
 70
     1
 43
0.0
 10
745.6476
 20
132.8002
 10
745.8241
 20
132.7888
 10
745.9886
 20
132.7559
 10
746.1373
 20
132.7039
 10
746.267
 20
132.6351
 10
746.3739
 20
132.5517
 10
746.4547
 20
132.4559
 10
746.5057
 20
132.3501
 10
746.5235
 20
132.2364
 10
746.5057
 20
132.1227
 10
746.4547
 20
132.0168
 10
746.3739
 20
131.921
 10
746.267
 20
131.8374
 10
746.1373
 20
131.7685
 10
745.9886
 20
131.7164
 10
745.8241
 20
131.6835
 10
745.6476
 20
131.672
 10
745.4711
 20
131.6835
 10
745.3066
 20
131.7164
 10
745.1579
 20
131.7685
 10
745.0282
 20
131.8374
 10
744.9213
 20
131.921
 10
744.8405
 20
132.0168
 10
744.7895
 20
132.1227
 10
744.7717
 20
132.2364
 10
744.7895
 20
132.3501
 10
744.8405
 20
132.4559
 10
744.9213
 20
132.5517
 10
745.0282
 20
132.6351
 10
745.1579
 20
132.7039
 10
745.3066
 20
132.7559
 10
745.4711
 20
132.7888
 10
745.6476
 20
132.8002
  0
LWPOLYLINE
  5
A7
330
1F
100
AcDbEntity
  8
Layer 1
 62
     7
370
    20
100
AcDbPolyline
 90
       33
 70
     1
 43
0.0
 10
750.9439
 20
133.7268
 10
751.1202
 20
133.7153
 10
751.2846
 20
133.6824
 10
751.4333
 20
133.6303
 10
751.563
 20
133.5614
 10
751.67
 20
133.4778
 10
751.7508
 20
133.382
 10
751.8019
 20
133.2761
 10
751.8197
 20
133.1624
 10
751.8019
 20
133.0487
 10
751.7508
 20
132.9429
 10
751.67
 20
132.8471
 10
751.563
 20
132.7637
 10
751.4333
 20
132.6949
 10
751.2846
 20
132.6429
 10
751.1202
 20
132.61
 10
750.9439
 20
132.5986
 10
750.7673
 20
132.61
 10
750.6028
 20
132.6429
 10
750.4539
 20
132.6949
 10
750.3241
 20
132.7637
 10
750.2171
 20
132.8471
 10
750.1362
 20
132.9429
 10
750.0851
 20
133.0487
 10
750.0673
 20
133.1624
 10
750.0851
 20
133.2761
 10
750.1362
 20
133.382
 10
750.2171
 20
133.4778
 10
750.3241
 20
133.5614
 10
750.4539
 20
133.6303
 10
750.6028
 20
133.6824
 10
750.7673
 20
133.7153
 10
750.9439
 20
133.7268
  0
LWPOLYLINE
  5
A8
330
1F
100
AcDbEntity
  8
Layer 1
 62
     7
370
    20
100
AcDbPolyline
 90
       33
 70
     1
 43
0.0
 10
756.2429
 20
134.1182
 10
756.4194
 20
134.1068
 10
756.5839
 20
134.0739
 10
756.7326
 20
134.0219
 10
756.8623
 20
133.9531
 10
756.9692
 20
133.8697
 10
757.05
 20
133.7739
 10
757.101
 20
133.6681
 10
757.1188
 20
133.5544
 10
757.101
 20
133.4408
 10
757.05
 20
133.335
 10
756.9692
 20
133.2392
 10
756.8623
 20
133.1558
 10
756.7326
 20
133.087
 10
756.5839
 20
133.035
 10
756.4194
 20
133.0021
 10
756.2429
 20
132.9907
 10
756.0664
 20
133.0021
 10
755.9019
 20
133.035
 10
755.7532
 20
133.087
 10
755.6235
 20
133.1558
 10
755.5166
 20
133.2392
 10
755.4358
 20
133.335
 10
755.3848
 20
133.4408
 10
755.367
 20
133.5544
 10
755.3848
 20
133.6681
 10
755.4358
 20
133.7739
 10
755.5166
 20
133.8697
 10
755.6235
 20
133.9531
 10
755.7532
 20
134.0219
 10
755.9019
 20
134.0739
 10
756.0664
 20
134.1068
 10
756.2429
 20
134.1182
  0
LWPOLYLINE
  5
A9
330
1F
100
AcDbEntity
  8
Layer 1
 62
     7
370
    20
100
AcDbPolyline
 90
       33
 70
     1
 43
0.0
 10
760.999
 20
134.0813
 10
761.1756
 20
134.0698
 10
761.34
 20
134.0369
 10
761.4888
 20
133.9848
 10
761.6184
 20
133.9159
 10
761.7254
 20
133.8323
 10
761.8061
 20
133.7365
 10
761.8571
 20
133.6306
 10
761.8749
 20
133.5169
 10
761.8571
 20
133.4033
 10
761.8061
 20
133.2974
 10
761.7254
 20
133.2017
 10
761.6184
 20
133.1182
 10
761.4888
 20
133.0494
 10
761.34
 20
132.9974
 10
761.1756
 20
132.9646
 10
760.999
 20
132.9531
 10
760.8225
 20
132.9646
 10
760.6581
 20
132.9974
 10
760.5093
 20
133.0494
 10
760.3797
 20
133.1182
 10
760.2727
 20
133.2017
 10
760.192
 20
133.2974
 10
760.141
 20
133.4033
 10
760.1232
 20
133.5169
 10
760.141
 20
133.6306
 10
760.192
 20
133.7365
 10
760.2727
 20
133.8323
 10
760.3797
 20
133.9159
 10
760.5093
 20
133.9848
 10
760.6581
 20
134.0369
 10
760.8225
 20
134.0698
 10
760.999
 20
134.0813
  0
LWPOLYLINE
  5
AA
330
1F
100
AcDbEntity
  8
Layer 1
 62
     7
370
    20
100
AcDbPolyline
 90
       33
 70
     1
 43
0.0
 10
765.6996
 20
133.6893
 10
765.8761
 20
133.6778
 10
766.0405
 20
133.6449
 10
766.1893
 20
133.5928
 10
766.3189
 20
133.5239
 10
766.4259
 20
133.4403
 10
766.5066
 20
133.3444
 10
766.5576
 20
133.2385
 10
766.5754
 20
133.1248
 10
766.5576
 20
133.0112
 10
766.5066
 20
132.9054
 10
766.4259
 20
132.8096
 10
766.3189
 20
132.7262
 10
766.1893
 20
132.6574
 10
766.0405
 20
132.6054
 10
765.8761
 20
132.5725
 10
765.6996
 20
132.5611
 10
765.523
 20
132.5725
 10
765.3585
 20
132.6054
 10
765.2096
 20
132.6574
 10
765.0799
 20
132.7262
 10
764.9728
 20
132.8096
 10
764.8919
 20
132.9054
 10
764.8408
 20
133.0112
 10
764.823
 20
133.1248
 10
764.8408
 20
133.2385
 10
764.8919
 20
133.3444
 10
764.9728
 20
133.4403
 10
765.0799
 20
133.5239
 10
765.2096
 20
133.5928
 10
765.3585
 20
133.6449
 10
765.523
 20
133.6778
 10
765.6996
 20
133.6893
  0
LWPOLYLINE
  5
AB
330
1F
100
AcDbEntity
  8
Layer 1
 62
     7
370
    20
100
AcDbPolyline
 90
       33
 70
     1
 43
0.0
 10
769.0383
 20
132.0001
 10
769.2149
 20
131.9887
 10
769.3794
 20
131.9558
 10
769.5283
 20
131.9038
 10
769.658
 20
131.835
 10
769.7651
 20
131.7516
 10
769.846
 20
131.6558
 10
769.8971
 20
131.55
 10
769.9149
 20
131.4363
 10
769.8971
 20
131.3224
 10
769.846
 20
131.2164
 10
769.7651
 20
131.1206
 10
769.658
 20
131.0371
 10
769.5283
 20
130.9682
 10
769.3794
 20
130.9162
 10
769.2149
 20
130.8834
 10
769.0383
 20
130.8719
 10
768.8618
 20
130.8834
 10
768.6973
 20
130.9162
 10
768.5486
 20
130.9682
 10
768.4189
 20
131.0371
 10
768.312
 20
131.1206
 10
768.2312
 20
131.2164
 10
768.1802
 20
131.3224
 10
768.1624
 20
131.4363
 10
768.1802
 20
131.55
 10
768.2312
 20
131.6558
 10
768.312
 20
131.7516
 10
768.4189
 20
131.835
 10
768.5486
 20
131.9038
 10
768.6973
 20
131.9558
 10
768.8618
 20
131.9887
 10
769.0383
 20
132.0001
  0
LWPOLYLINE
  5
AC
330
1F
100
AcDbEntity
  8
Layer 1
 62
     7
370
    20
100
AcDbPolyline
 90
       33
 70
     1
 43
0.0
 10
772.1129
 20
129.7631
 10
772.2894
 20
129.7517
 10
772.4539
 20
129.7188
 10
772.6026
 20
129.6668
 10
772.7323
 20
129.598
 10
772.8392
 20
129.5146
 10
772.92
 20
129.4189
 10
772.971
 20
129.313
 10
772.9888
 20
129.1994
 10
772.971
 20
129.0857
 10
772.92
 20
128.9798
 10
772.8392
 20
128.8839
 10
772.7323
 20
128.8004
 10
772.6026
 20
128.7314
 10
772.4539
 20
128.6793
 10
772.2894
 20
128.6464
 10
772.1129
 20
128.6349
 10
771.9364
 20
128.6464
 10
771.7719
 20
128.6793
 10
771.6232
 20
128.7314
 10
771.4935
 20
128.8004
 10
771.3866
 20
128.8839
 10
771.3058
 20
128.9798
 10
771.2548
 20
129.0857
 10
771.237
 20
129.1994
 10
771.2548
 20
129.313
 10
771.3058
 20
129.4189
 10
771.3866
 20
129.5146
 10
771.4935
 20
129.598
 10
771.6232
 20
129.6668
 10
771.7719
 20
129.7188
 10
771.9364
 20
129.7517
 10
772.1129
 20
129.7631
  0
LWPOLYLINE
  5
AD
330
1F
100
AcDbEntity
  8
Layer 1
 62
     7
370
    20
100
AcDbPolyline
 90
       33
 70
     1
 43
0.0
 10
774.3513
 20
127.2231
 10
774.5278
 20
127.2116
 10
774.6922
 20
127.1787
 10
774.841
 20
127.1266
 10
774.9706
 20
127.0577
 10
775.0776
 20
126.9741
 10
775.1583
 20
126.8783
 10
775.2093
 20
126.7724
 10
775.2271
 20
126.6587
 10
775.2093
 20
126.545
 10
775.1583
 20
126.4392
 10
775.0776
 20
126.3434
 10
774.9706
 20
126.26
 10
774.841
 20
126.1912
 10
774.6922
 20
126.1392
 10
774.5278
 20
126.1063
 10
774.3513
 20
126.0949
 10
774.1747
 20
126.1063
 10
774.0103
 20
126.1392
 10
773.8615
 20
126.1912
 10
773.7319
 20
126.26
 10
773.6249
 20
126.3434
 10
773.5442
 20
126.4392
 10
773.4932
 20
126.545
 10
773.4754
 20
126.6587
 10
773.4932
 20
126.7724
 10
773.5442
 20
126.8783
 10
773.6249
 20
126.9741
 10
773.7319
 20
127.0577
 10
773.8615
 20
127.1266
 10
774.0103
 20
127.1787
 10
774.1747
 20
127.2116
 10
774.3513
 20
127.2231
  0
LWPOLYLINE
  5
AE
330
1F
100
AcDbEntity
  8
Layer 1
 62
     7
370
    20
100
AcDbPolyline
 90
       33
 70
     1
 43
0.0
 10
775.0812
 20
124.0873
 10
775.2578
 20
124.0759
 10
775.4223
 20
124.043
 10
775.5711
 20
123.991
 10
775.7009
 20
123.9222
 10
775.8079
 20
123.8388
 10
775.8888
 20
123.7431
 10
775.9399
 20
123.6372
 10
775.9577
 20
123.5236
 10
775.9399
 20
123.4099
 10
775.8888
 20
123.304
 10
775.8079
 20
123.2081
 10
775.7009
 20
123.1246
 10
775.5711
 20
123.0556
 10
775.4223
 20
123.0035
 10
775.2578
 20
122.9706
 10
775.0812
 20
122.9591
 10
774.9046
 20
122.9706
 10
774.7402
 20
123.0035
 10
774.5914
 20
123.0556
 10
774.4618
 20
123.1246
 10
774.3548
 20
123.2081
 10
774.2741
 20
123.304
 10
774.2231
 20
123.4099
 10
774.2053
 20
123.5236
 10
774.2231
 20
123.6372
 10
774.2741
 20
123.7431
 10
774.3548
 20
123.8388
 10
774.4618
 20
123.9222
 10
774.5914
 20
123.991
 10
774.7402
 20
124.043
 10
774.9046
 20
124.0759
 10
775.0812
 20
124.0873
  0
LWPOLYLINE
  5
AF
330
1F
100
AcDbEntity
  8
Layer 1
 62
     7
370
    20
100
AcDbPolyline
 90
       33
 70
     1
 43
0.0
 10
775.1187
 20
120.6909
 10
775.2952
 20
120.6794
 10
775.4597
 20
120.6466
 10
775.6084
 20
120.5946
 10
775.7381
 20
120.5257
 10
775.845
 20
120.4422
 10
775.9258
 20
120.3463
 10
775.9768
 20
120.2403
 10
775.9946
 20
120.1264
 10
775.9768
 20
120.0128
 10
775.9258
 20
119.907
 10
775.845
 20
119.8112
 10
775.7381
 20
119.7278
 10
775.6084
 20
119.659
 10
775.4597
 20
119.607
 10
775.2952
 20
119.5741
 10
775.1187
 20
119.5627
 10
774.9422
 20
119.5741
 10
774.7777
 20
119.607
 10
774.629
 20
119.659
 10
774.4993
 20
119.7278
 10
774.3924
 20
119.8112
 10
774.3116
 20
119.907
 10
774.2606
 20
120.0128
 10
774.2428
 20
120.1264
 10
774.2606
 20
120.2403
 10
774.3116
 20
120.3463
 10
774.3924
 20
120.4422
 10
774.4993
 20
120.5257
 10
774.629
 20
120.5946
 10
774.7777
 20
120.6466
 10
774.9422
 20
120.6794
 10
775.1187
 20
120.6909
  0
LWPOLYLINE
  5
B0
330
1F
100
AcDbEntity
  8
Layer 1
 62
     7
370
    20
100
AcDbPolyline
 90
       33
 70
     1
 43
0.0
 10
774.4256
 20
117.5363
 10
774.6022
 20
117.5249
 10
774.7666
 20
117.492
 10
774.9154
 20
117.44
 10
775.045
 20
117.3712
 10
775.152
 20
117.2878
 10
775.2327
 20
117.1921
 10
775.2837
 20
117.0862
 10
775.3015
 20
116.9726
 10
775.2837
 20
116.859
 10
775.2327
 20
116.7531
 10
775.152
 20
116.6574
 10
775.045
 20
116.5739
 10
774.9154
 20
116.5051
 10
774.7666
 20
116.4531
 10
774.6022
 20
116.4203
 10
774.4256
 20
116.4088
 10
774.2491
 20
116.4203
 10
774.0847
 20
116.4531
 10
773.9359
 20
116.5051
 10
773.8063
 20
116.5739
 10
773.6993
 20
116.6574
 10
773.6186
 20
116.7531
 10
773.5676
 20
116.859
 10
773.5498
 20
116.9726
 10
773.5676
 20
117.0862
 10
773.6186
 20
117.1921
 10
773.6993
 20
117.2878
 10
773.8063
 20
117.3712
 10
773.9359
 20
117.44
 10
774.0847
 20
117.492
 10
774.2491
 20
117.5249
 10
774.4256
 20
117.5363
  0
LWPOLYLINE
  5
B1
330
1F
100
AcDbEntity
  8
Layer 1
 62
     7
370
    20
100
AcDbPolyline
 90
       33
 70
     1
 43
0.0
 10
772.6843
 20
114.1774
 10
772.8608
 20
114.166
 10
773.0253
 20
114.1331
 10
773.174
 20
114.0811
 10
773.3037
 20
114.0123
 10
773.4106
 20
113.9289
 10
773.4914
 20
113.8332
 10
773.5424
 20
113.7273
 10
773.5602
 20
113.6137
 10
773.5424
 20
113.4998
 10
773.4914
 20
113.3938
 10
773.4106
 20
113.2979
 10
773.3037
 20
113.2144
 10
773.174
 20
113.1455
 10
773.0253
 20
113.0935
 10
772.8608
 20
113.0607
 10
772.6843
 20
113.0492
 10
772.5078
 20
113.0607
 10
772.3433
 20
113.0935
 10
772.1946
 20
113.1455
 10
772.0649
 20
113.2144
 10
771.958
 20
113.2979
 10
771.8772
 20
113.3938
 10
771.8262
 20
113.4998
 10
771.8084
 20
113.6137
 10
771.8262
 20
113.7273
 10
771.8772
 20
113.8332
 10
771.958
 20
113.9289
 10
772.0649
 20
114.0123
 10
772.1946
 20
114.0811
 10
772.3433
 20
114.1331
 10
772.5078
 20
114.166
 10
772.6843
 20
114.1774
  0
LWPOLYLINE
  5
B2
330
1F
100
AcDbEntity
  8
Layer 1
 62
     7
370
    20
100
AcDbPolyline
 90
       33
 70
     1
 43
0.0
 10
769.8565
 20
110.5008
 10
770.033
 20
110.4893
 10
770.1975
 20
110.4565
 10
770.3462
 20
110.4045
 10
770.4759
 20
110.3356
 10
770.5828
 20
110.2521
 10
770.6636
 20
110.1563
 10
770.7146
 20
110.0503
 10
770.7324
 20
109.9364
 10
770.7146
 20
109.8228
 10
770.6636
 20
109.7169
 10
770.5828
 20
109.6212
 10
770.4759
 20
109.5377
 10
770.3462
 20
109.4689
 10
770.1975
 20
109.4169
 10
770.033
 20
109.3841
 10
769.8565
 20
109.3726
 10
769.68
 20
109.3841
 10
769.5155
 20
109.4169
 10
769.3668
 20
109.4689
 10
769.2371
 20
109.5377
 10
769.1302
 20
109.6212
 10
769.0494
 20
109.7169
 10
768.9984
 20
109.8228
 10
768.9806
 20
109.9364
 10
768.9984
 20
110.0503
 10
769.0494
 20
110.1563
 10
769.1302
 20
110.2521
 10
769.2371
 20
110.3356
 10
769.3668
 20
110.4045
 10
769.5155
 20
110.4565
 10
769.68
 20
110.4893
 10
769.8565
 20
110.5008
  0
LWPOLYLINE
  5
B3
330
1F
100
AcDbEntity
  8
Layer 1
 62
     7
370
    20
100
AcDbPolyline
 90
       33
 70
     1
 43
0.0
 10
766.4114
 20
107.4401
 10
766.5879
 20
107.4287
 10
766.7524
 20
107.3958
 10
766.9011
 20
107.3438
 10
767.0308
 20
107.275
 10
767.1377
 20
107.1916
 10
767.2185
 20
107.0959
 10
767.2695
 20
106.99
 10
767.2873
 20
106.8764
 10
767.2695
 20
106.7625
 10
767.2185
 20
106.6565
 10
767.1377
 20
106.5606
 10
767.0308
 20
106.4771
 10
766.9011
 20
106.4082
 10
766.7524
 20
106.3562
 10
766.5879
 20
106.3234
 10
766.4114
 20
106.3119
 10
766.2348
 20
106.3234
 10
766.0703
 20
106.3562
 10
765.9214
 20
106.4082
 10
765.7917
 20
106.4771
 10
765.6846
 20
106.5606
 10
765.6037
 20
106.6565
 10
765.5526
 20
106.7625
 10
765.5348
 20
106.8764
 10
765.5526
 20
106.99
 10
765.6037
 20
107.0959
 10
765.6846
 20
107.1916
 10
765.7917
 20
107.275
 10
765.9214
 20
107.3438
 10
766.0703
 20
107.3958
 10
766.2348
 20
107.4287
 10
766.4114
 20
107.4401
  0
LWPOLYLINE
  5
B4
330
1F
100
AcDbEntity
  8
Layer 1
 62
     7
370
    20
100
AcDbPolyline
 90
       33
 70
     1
 43
0.0
 10
762.4415
 20
104.2112
 10
762.618
 20
104.1998
 10
762.7824
 20
104.1669
 10
762.9312
 20
104.1149
 10
763.0608
 20
104.0461
 10
763.1678
 20
103.9627
 10
763.2485
 20
103.867
 10
763.2995
 20
103.7611
 10
763.3173
 20
103.6475
 10
763.2995
 20
103.5338
 10
763.2485
 20
103.428
 10
763.1678
 20
103.3322
 10
763.0608
 20
103.2488
 10
762.9312
 20
103.18
 10
762.7824
 20
103.128
 10
762.618
 20
103.0951
 10
762.4415
 20
103.0837
 10
762.2649
 20
103.0951
 10
762.1004
 20
103.128
 10
761.9515
 20
103.18
 10
761.8217
 20
103.2488
 10
761.7147
 20
103.3322
 10
761.6338
 20
103.428
 10
761.5827
 20
103.5338
 10
761.5649
 20
103.6475
 10
761.5827
 20
103.7611
 10
761.6338
 20
103.867
 10
761.7147
 20
103.9627
 10
761.8217
 20
104.0461
 10
761.9515
 20
104.1149
 10
762.1004
 20
104.1669
 10
762.2649
 20
104.1998
 10
762.4415
 20
104.2112
  0
LWPOLYLINE
  5
B5
330
1F
100
AcDbEntity
  8
Layer 1
 62
     7
370
    20
100
AcDbPolyline
 90
       33
 70
     1
 43
0.0
 10
757.6471
 20
101.3938
 10
757.8237
 20
101.3823
 10
757.9882
 20
101.3494
 10
758.1371
 20
101.2973
 10
758.2668
 20
101.2284
 10
758.3739
 20
101.1448
 10
758.4548
 20
101.049
 10
758.5059
 20
100.9431
 10
758.5237
 20
100.8294
 10
758.5059
 20
100.7158
 10
758.4548
 20
100.6099
 10
758.3739
 20
100.5142
 10
758.2668
 20
100.4307
 10
758.1371
 20
100.3619
 10
757.9882
 20
100.3099
 10
757.8237
 20
100.2771
 10
757.6471
 20
100.2656
 10
757.4706
 20
100.2771
 10
757.3061
 20
100.3099
 10
757.1574
 20
100.3619
 10
757.0277
 20
100.4307
 10
756.9208
 20
100.5142
 10
756.84
 20
100.6099
 10
756.789
 20
100.7158
 10
756.7712
 20
100.8294
 10
756.789
 20
100.9431
 10
756.84
 20
101.049
 10
756.9208
 20
101.1448
 10
757.0277
 20
101.2284
 10
757.1574
 20
101.2973
 10
757.3061
 20
101.3494
 10
757.4706
 20
101.3823
 10
757.6471
 20
101.3938
  0
LWPOLYLINE
  5
B6
330
1F
100
AcDbEntity
  8
Layer 1
 62
     7
370
    20
100
AcDbPolyline
 90
       33
 70
     1
 43
0.0
 10
752.5726
 20
98.8927
 10
752.7491
 20
98.8813
 10
752.9135
 20
98.8484
 10
753.0623
 20
98.7964
 10
753.1919
 20
98.7276
 10
753.2989
 20
98.6442
 10
753.3796
 20
98.5485
 10
753.4306
 20
98.4426
 10
753.4484
 20
98.329
 10
753.4306
 20
98.2153
 10
753.3796
 20
98.1094
 10
753.2989
 20
98.0135
 10
753.1919
 20
97.9299
 10
753.0623
 20
97.861
 10
752.9135
 20
97.8089
 10
752.7491
 20
97.776
 10
752.5726
 20
97.7645
 10
752.3961
 20
97.776
 10
752.2316
 20
97.8089
 10
752.0829
 20
97.861
 10
751.9532
 20
97.9299
 10
751.8463
 20
98.0135
 10
751.7655
 20
98.1094
 10
751.7145
 20
98.2153
 10
751.6967
 20
98.329
 10
751.7145
 20
98.4426
 10
751.7655
 20
98.5485
 10
751.8463
 20
98.6442
 10
751.9532
 20
98.7276
 10
752.0829
 20
98.7964
 10
752.2316
 20
98.8484
 10
752.3961
 20
98.8813
 10
752.5726
 20
98.8927
  0
LWPOLYLINE
  5
B7
330
1F
100
AcDbEntity
  8
Layer 1
 62
     7
370
    20
100
AcDbPolyline
 90
       33
 70
     1
 43
0.0
 10
747.293
 20
97.0172
 10
747.4695
 20
97.0058
 10
747.634
 20
96.9729
 10
747.7827
 20
96.9209
 10
747.9124
 20
96.8521
 10
748.0193
 20
96.7687
 10
748.1001
 20
96.673
 10
748.1511
 20
96.5671
 10
748.1689
 20
96.4535
 10
748.1511
 20
96.3396
 10
748.1001
 20
96.2336
 10
748.0193
 20
96.1377
 10
747.9124
 20
96.0542
 10
747.7827
 20
95.9853
 10
747.634
 20
95.9333
 10
747.4695
 20
95.9005
 10
747.293
 20
95.889
 10
747.1164
 20
95.9005
 10
746.9519
 20
95.9333
 10
746.803
 20
95.9853
 10
746.6733
 20
96.0542
 10
746.5662
 20
96.1377
 10
746.4853
 20
96.2336
 10
746.4342
 20
96.3396
 10
746.4164
 20
96.4535
 10
746.4342
 20
96.5671
 10
746.4853
 20
96.673
 10
746.5662
 20
96.7687
 10
746.6733
 20
96.8521
 10
746.803
 20
96.9209
 10
746.9519
 20
96.9729
 10
747.1164
 20
97.0058
 10
747.293
 20
97.0172
  0
LWPOLYLINE
  5
B8
330
1F
100
AcDbEntity
  8
Layer 1
 62
     7
370
    20
100
AcDbPolyline
 90
       33
 70
     1
 43
0.0
 10
741.8153
 20
95.6082
 10
741.9918
 20
95.5967
 10
742.1563
 20
95.5639
 10
742.305
 20
95.5119
 10
742.4347
 20
95.443
 10
742.5416
 20
95.3595
 10
742.6224
 20
95.2636
 10
742.6734
 20
95.1576
 10
742.6912
 20
95.0437
 10
742.6734
 20
94.9301
 10
742.6224
 20
94.8243
 10
742.5416
 20
94.7285
 10
742.4347
 20
94.6451
 10
742.305
 20
94.5763
 10
742.1563
 20
94.5243
 10
741.9918
 20
94.4914
 10
741.8153
 20
94.48
 10
741.6388
 20
94.4914
 10
741.4743
 20
94.5243
 10
741.3256
 20
94.5763
 10
741.1959
 20
94.6451
 10
741.089
 20
94.7285
 10
741.0082
 20
94.8243
 10
740.9572
 20
94.9301
 10
740.9394
 20
95.0437
 10
740.9572
 20
95.1576
 10
741.0082
 20
95.2636
 10
741.089
 20
95.3595
 10
741.1959
 20
95.443
 10
741.3256
 20
95.5119
 10
741.4743
 20
95.5639
 10
741.6388
 20
95.5967
 10
741.8153
 20
95.6082
  0
LWPOLYLINE
  5
B9
330
1F
100
AcDbEntity
  8
Layer 1
 62
     7
370
    20
100
AcDbPolyline
 90
       33
 70
     1
 43
0.0
 10
736.3376
 20
94.7497
 10
736.5142
 20
94.7383
 10
736.6787
 20
94.7054
 10
736.8276
 20
94.6534
 10
736.9573
 20
94.5846
 10
737.0644
 20
94.5012
 10
737.1453
 20
94.4054
 10
737.1964
 20
94.2996
 10
737.2142
 20
94.1859
 10
737.1964
 20
94.072
 10
737.1453
 20
93.966
 10
737.0644
 20
93.8702
 10
736.9573
 20
93.7867
 10
736.8276
 20
93.7178
 10
736.6787
 20
93.6658
 10
736.5142
 20
93.633
 10
736.3376
 20
93.6215
 10
736.1611
 20
93.633
 10
735.9966
 20
93.6658
 10
735.8479
 20
93.7178
 10
735.7182
 20
93.7867
 10
735.6113
 20
93.8702
 10
735.5305
 20
93.966
 10
735.4795
 20
94.072
 10
735.4617
 20
94.1859
 10
735.4795
 20
94.2996
 10
735.5305
 20
94.4054
 10
735.6113
 20
94.5012
 10
735.7182
 20
94.5846
 10
735.8479
 20
94.6534
 10
735.9966
 20
94.7054
 10
736.1611
 20
94.7383
 10
736.3376
 20
94.7497
  0
LWPOLYLINE
  5
BA
330
1F
100
AcDbEntity
  8
Layer 1
 62
     7
370
    20
100
AcDbPolyline
 90
       33
 70
     1
 43
0.0
 10
731.1977
 20
94.4883
 10
731.3743
 20
94.4769
 10
731.5387
 20
94.444
 10
731.6875
 20
94.392
 10
731.8171
 20
94.3232
 10
731.9241
 20
94.2398
 10
732.0048
 20
94.1441
 10
732.0558
 20
94.0382
 10
732.0736
 20
93.9246
 10
732.0558
 20
93.8107
 10
732.0048
 20
93.7047
 10
731.9241
 20
93.6088
 10
731.8171
 20
93.5253
 10
731.6875
 20
93.4564
 10
731.5387
 20
93.4044
 10
731.3743
 20
93.3716
 10
731.1977
 20
93.3601
 10
731.0212
 20
93.3716
 10
730.8568
 20
93.4044
 10
730.708
 20
93.4564
 10
730.5784
 20
93.5253
 10
730.4714
 20
93.6088
 10
730.3907
 20
93.7047
 10
730.3397
 20
93.8107
 10
730.3219
 20
93.9246
 10
730.3397
 20
94.0382
 10
730.3907
 20
94.1441
 10
730.4714
 20
94.2398
 10
730.5784
 20
94.3232
 10
730.708
 20
94.392
 10
730.8568
 20
94.444
 10
731.0212
 20
94.4769
 10
731.1977
 20
94.4883
  0
LWPOLYLINE
  5
BB
330
1F
100
AcDbEntity
  8
Layer 1
 62
     7
370
    20
100
AcDbPolyline
 90
       33
 70
     1
 43
0.0
 10
726.3102
 20
94.6656
 10
726.4867
 20
94.6541
 10
726.6512
 20
94.6213
 10
726.7999
 20
94.5693
 10
726.9296
 20
94.5004
 10
727.0365
 20
94.4169
 10
727.1173
 20
94.321
 10
727.1683
 20
94.215
 10
727.1861
 20
94.1011
 10
727.1683
 20
93.9875
 10
727.1173
 20
93.8817
 10
727.0365
 20
93.7859
 10
726.9296
 20
93.7025
 10
726.7999
 20
93.6337
 10
726.6512
 20
93.5817
 10
726.4867
 20
93.5488
 10
726.3102
 20
93.5374
 10
726.1337
 20
93.5488
 10
725.9693
 20
93.5817
 10
725.8205
 20
93.6337
 10
725.6909
 20
93.7025
 10
725.5839
 20
93.7859
 10
725.5032
 20
93.8817
 10
725.4522
 20
93.9875
 10
725.4344
 20
94.1011
 10
725.4522
 20
94.215
 10
725.5032
 20
94.321
 10
725.5839
 20
94.4169
 10
725.6909
 20
94.5004
 10
725.8205
 20
94.5693
 10
725.9693
 20
94.6213
 10
726.1337
 20
94.6541
 10
726.3102
 20
94.6656
  0
LWPOLYLINE
  5
BC
330
1F
100
AcDbEntity
  8
Layer 1
 62
     7
370
    20
100
AcDbPolyline
 90
       33
 70
     1
 43
0.0
 10
722.0031
 20
95.645
 10
722.1797
 20
95.6336
 10
722.3441
 20
95.6007
 10
722.4929
 20
95.5487
 10
722.6225
 20
95.4799
 10
722.7295
 20
95.3965
 10
722.8102
 20
95.3008
 10
722.8612
 20
95.1949
 10
722.879
 20
95.0813
 10
722.8612
 20
94.9676
 10
722.8102
 20
94.8618
 10
722.7295
 20
94.766
 10
722.6225
 20
94.6826
 10
722.4929
 20
94.6138
 10
722.3441
 20
94.5618
 10
722.1797
 20
94.5289
 10
722.0031
 20
94.5175
 10
721.8266
 20
94.5289
 10
721.6622
 20
94.5618
 10
721.5134
 20
94.6138
 10
721.3838
 20
94.6826
 10
721.2768
 20
94.766
 10
721.1961
 20
94.8618
 10
721.1451
 20
94.9676
 10
721.1273
 20
95.0813
 10
721.1451
 20
95.1949
 10
721.1961
 20
95.3008
 10
721.2768
 20
95.3965
 10
721.3838
 20
95.4799
 10
721.5134
 20
95.5487
 10
721.6622
 20
95.6007
 10
721.8266
 20
95.6336
 10
722.0031
 20
95.645
  0
LWPOLYLINE
  5
BD
330
1F
100
AcDbEntity
  8
Layer 1
 62
     7
370
    20
100
AcDbPolyline
 90
       33
 70
     1
 43
0.0
 10
718.2299
 20
97.0638
 10
718.4065
 20
97.0523
 10
718.5709
 20
97.0195
 10
718.7197
 20
96.9675
 10
718.8493
 20
96.8986
 10
718.9563
 20
96.8151
 10
719.037
 20
96.7193
 10
719.088
 20
96.6133
 10
719.1058
 20
96.4994
 10
719.088
 20
96.3857
 10
719.037
 20
96.2799
 10
718.9563
 20
96.1841
 10
718.8493
 20
96.1007
 10
718.7197
 20
96.0319
 10
718.5709
 20
95.9799
 10
718.4065
 20
95.947
 10
718.2299
 20
95.9356
 10
718.0534
 20
95.947
 10
717.889
 20
95.9799
 10
717.7402
 20
96.0319
 10
717.6106
 20
96.1007
 10
717.5036
 20
96.1841
 10
717.4229
 20
96.2799
 10
717.3719
 20
96.3857
 10
717.3541
 20
96.4994
 10
717.3719
 20
96.6133
 10
717.4229
 20
96.7193
 10
717.5036
 20
96.8151
 10
717.6106
 20
96.8986
 10
717.7402
 20
96.9675
 10
717.889
 20
97.0195
 10
718.0534
 20
97.0523
 10
718.2299
 20
97.0638
  0
LWPOLYLINE
  5
BE
330
1F
100
AcDbEntity
  8
Layer 1
 62
     7
370
    20
100
AcDbPolyline
 90
       33
 70
     1
 43
0.0
 10
715.1491
 20
99.1263
 10
715.3257
 20
99.1148
 10
715.4902
 20
99.0819
 10
715.6391
 20
99.0298
 10
715.7688
 20
98.9609
 10
715.8759
 20
98.8773
 10
715.9568
 20
98.7814
 10
716.0079
 20
98.6755
 10
716.0257
 20
98.5618
 10
716.0079
 20
98.4482
 10
715.9568
 20
98.3424
 10
715.8759
 20
98.2466
 10
715.7688
 20
98.1632
 10
715.6391
 20
98.0944
 10
715.4902
 20
98.0424
 10
715.3257
 20
98.0095
 10
715.1491
 20
97.9981
 10
714.9726
 20
98.0095
 10
714.8081
 20
98.0424
 10
714.6594
 20
98.0944
 10
714.5297
 20
98.1632
 10
714.4228
 20
98.2466
 10
714.342
 20
98.3424
 10
714.291
 20
98.4482
 10
714.2732
 20
98.5618
 10
714.291
 20
98.6755
 10
714.342
 20
98.7814
 10
714.4228
 20
98.8773
 10
714.5297
 20
98.9609
 10
714.6594
 20
99.0298
 10
714.8081
 20
99.0819
 10
714.9726
 20
99.1148
 10
715.1491
 20
99.1263
  0
LWPOLYLINE
  5
BF
330
1F
100
AcDbEntity
  8
Layer 1
 62
     7
370
    20
100
AcDbPolyline
 90
       33
 70
     1
 43
0.0
 10
713.024
 20
101.5989
 10
713.2006
 20
101.5875
 10
713.365
 20
101.5546
 10
713.5138
 20
101.5026
 10
713.6434
 20
101.4338
 10
713.7504
 20
101.3504
 10
713.8311
 20
101.2546
 10
713.8821
 20
101.1488
 10
713.8999
 20
101.0351
 10
713.8821
 20
100.9212
 10
713.8311
 20
100.8152
 10
713.7504
 20
100.7194
 10
713.6434
 20
100.6359
 10
713.5138
 20
100.567
 10
713.365
 20
100.515
 10
713.2006
 20
100.4822
 10
713.024
 20
100.4707
 10
712.8475
 20
100.4822
 10
712.6831
 20
100.515
 10
712.5343
 20
100.567
 10
712.4047
 20
100.6359
 10
712.2977
 20
100.7194
 10
712.217
 20
100.8152
 10
712.166
 20
100.9212
 10
712.1482
 20
101.0351
 10
712.166
 20
101.1488
 10
712.217
 20
101.2546
 10
712.2977
 20
101.3504
 10
712.4047
 20
101.4338
 10
712.5343
 20
101.5026
 10
712.6831
 20
101.5546
 10
712.8475
 20
101.5875
 10
713.024
 20
101.5989
  0
LWPOLYLINE
  5
C0
330
1F
100
AcDbEntity
  8
Layer 1
 62
     7
370
    20
100
AcDbPolyline
 90
       33
 70
     1
 43
0.0
 10
711.7505
 20
104.4267
 10
711.9271
 20
104.4152
 10
712.0915
 20
104.3823
 10
712.2403
 20
104.3302
 10
712.3699
 20
104.2613
 10
712.4769
 20
104.1777
 10
712.5576
 20
104.0819
 10
712.6086
 20
103.976
 10
712.6264
 20
103.8623
 10
712.6086
 20
103.7486
 10
712.5576
 20
103.6428
 10
712.4769
 20
103.547
 10
712.3699
 20
103.4636
 10
712.2403
 20
103.3948
 10
712.0915
 20
103.3428
 10
711.9271
 20
103.3099
 10
711.7505
 20
103.2985
 10
711.574
 20
103.3099
 10
711.4096
 20
103.3428
 10
711.2608
 20
103.3948
 10
711.1312
 20
103.4636
 10
711.0242
 20
103.547
 10
710.9435
 20
103.6428
 10
710.8925
 20
103.7486
 10
710.8747
 20
103.8623
 10
710.8925
 20
103.976
 10
710.9435
 20
104.0819
 10
711.0242
 20
104.1777
 10
711.1312
 20
104.2613
 10
711.2608
 20
104.3302
 10
711.4096
 20
104.3823
 10
711.574
 20
104.4152
 10
711.7505
 20
104.4267
  0
LWPOLYLINE
  5
C1
330
1F
100
AcDbEntity
  8
Layer 1
 62
     7
370
    20
100
AcDbPolyline
 90
       33
 70
     1
 43
0.0
 10
711.526
 20
107.7481
 10
711.7025
 20
107.7367
 10
711.867
 20
107.7038
 10
712.0157
 20
107.6518
 10
712.1454
 20
107.583
 10
712.2523
 20
107.4996
 10
712.3331
 20
107.4038
 10
712.3841
 20
107.298
 10
712.4019
 20
107.1843
 10
712.3841
 20
107.0706
 10
712.3331
 20
106.9647
 10
712.2523
 20
106.8689
 10
712.1454
 20
106.7853
 10
712.0157
 20
106.7164
 10
711.867
 20
106.6643
 10
711.7025
 20
106.6314
 10
711.526
 20
106.6199
 10
711.3495
 20
106.6314
 10
711.185
 20
106.6643
 10
711.0363
 20
106.7164
 10
710.9066
 20
106.7853
 10
710.7997
 20
106.8689
 10
710.7189
 20
106.9647
 10
710.6679
 20
107.0706
 10
710.6501
 20
107.1843
 10
710.6679
 20
107.298
 10
710.7189
 20
107.4038
 10
710.7997
 20
107.4996
 10
710.9066
 20
107.583
 10
711.0363
 20
107.6518
 10
711.185
 20
107.7038
 10
711.3495
 20
107.7367
 10
711.526
 20
107.7481
  0
LWPOLYLINE
  5
C2
330
1F
100
AcDbEntity
  8
Layer 1
 62
     7
370
    20
100
AcDbPolyline
 90
       33
 70
     1
 43
0.0
 10
712.1739
 20
111.0097
 10
712.3504
 20
110.9982
 10
712.5149
 20
110.9654
 10
712.6636
 20
110.9134
 10
712.7933
 20
110.8446
 10
712.9002
 20
110.7611
 10
712.981
 20
110.6654
 10
713.032
 20
110.5595
 10
713.0498
 20
110.4459
 10
713.032
 20
110.3323
 10
712.981
 20
110.2265
 10
712.9002
 20
110.1307
 10
712.7933
 20
110.0473
 10
712.6636
 20
109.9785
 10
712.5149
 20
109.9265
 10
712.3504
 20
109.8936
 10
712.1739
 20
109.8822
 10
711.9974
 20
109.8936
 10
711.8329
 20
109.9265
 10
711.6842
 20
109.9785
 10
711.5545
 20
110.0473
 10
711.4476
 20
110.1307
 10
711.3668
 20
110.2265
 10
711.3158
 20
110.3323
 10
711.298
 20
110.4459
 10
711.3158
 20
110.5595
 10
711.3668
 20
110.6654
 10
711.4476
 20
110.7611
 10
711.5545
 20
110.8446
 10
711.6842
 20
110.9134
 10
711.8329
 20
110.9654
 10
711.9974
 20
110.9982
 10
712.1739
 20
111.0097
  0
LWPOLYLINE
  5
C3
330
1F
100
AcDbEntity
  8
Layer 1
 62
     7
370
    20
100
AcDbPolyline
 90
       33
 70
     1
 43
0.0
 10
713.6087
 20
114.3971
 10
713.7853
 20
114.3856
 10
713.9498
 20
114.3528
 10
714.0986
 20
114.3008
 10
714.2284
 20
114.2319
 10
714.3354
 20
114.1484
 10
714.4163
 20
114.0525
 10
714.4674
 20
113.9465
 10
714.4852
 20
113.8326
 10
714.4674
 20
113.719
 10
714.4163
 20
113.6132
 10
714.3354
 20
113.5174
 10
714.2284
 20
113.434
 10
714.0986
 20
113.3652
 10
713.9498
 20
113.3132
 10
713.7853
 20
113.2803
 10
713.6087
 20
113.2689
 10
713.4321
 20
113.2803
 10
713.2677
 20
113.3132
 10
713.1189
 20
113.3652
 10
712.9893
 20
113.434
 10
712.8823
 20
113.5174
 10
712.8016
 20
113.6132
 10
712.7506
 20
113.719
 10
712.7328
 20
113.8326
 10
712.7506
 20
113.9465
 10
712.8016
 20
114.0525
 10
712.8823
 20
114.1484
 10
712.9893
 20
114.2319
 10
713.1189
 20
114.3008
 10
713.2677
 20
114.3528
 10
713.4321
 20
114.3856
 10
713.6087
 20
114.3971
  0
LWPOLYLINE
  5
C4
330
1F
100
AcDbEntity
  8
Layer 1
 62
     7
370
    20
100
AcDbPolyline
 90
       33
 70
     1
 43
0.0
 10
716.5644
 20
117.8373
 10
716.7409
 20
117.8259
 10
716.9054
 20
117.793
 10
717.0541
 20
117.741
 10
717.1838
 20
117.6722
 10
717.2907
 20
117.5888
 10
717.3715
 20
117.4931
 10
717.4225
 20
117.3872
 10
717.4403
 20
117.2736
 10
717.4225
 20
117.16
 10
717.3715
 20
117.0541
 10
717.2907
 20
116.9584
 10
717.1838
 20
116.8749
 10
717.0541
 20
116.8061
 10
716.9054
 20
116.7541
 10
716.7409
 20
116.7213
 10
716.5644
 20
116.7098
 10
716.3879
 20
116.7213
 10
716.2234
 20
116.7541
 10
716.0747
 20
116.8061
 10
715.945
 20
116.8749
 10
715.8381
 20
116.9584
 10
715.7573
 20
117.0541
 10
715.7063
 20
117.16
 10
715.6885
 20
117.2736
 10
715.7063
 20
117.3872
 10
715.7573
 20
117.4931
 10
715.8381
 20
117.5888
 10
715.945
 20
117.6722
 10
716.0747
 20
117.741
 10
716.2234
 20
117.793
 10
716.3879
 20
117.8259
 10
716.5644
 20
117.8373
  0
LWPOLYLINE
  5
C5
330
1F
100
AcDbEntity
  8
Layer 1
 62
     7
370
    20
100
AcDbPolyline
 90
       33
 70
     1
 43
0.0
 10
720.2055
 20
120.9432
 10
720.382
 20
120.9317
 10
720.5465
 20
120.8988
 10
720.6952
 20
120.8467
 10
720.8249
 20
120.7778
 10
720.9318
 20
120.6942
 10
721.0126
 20
120.5984
 10
721.0636
 20
120.4925
 10
721.0814
 20
120.3788
 10
721.0636
 20
120.2651
 10
721.0126
 20
120.1593
 10
720.9318
 20
120.0635
 10
720.8249
 20
119.9801
 10
720.6952
 20
119.9113
 10
720.5465
 20
119.8593
 10
720.382
 20
119.8264
 10
720.2055
 20
119.815
 10
720.0289
 20
119.8264
 10
719.8644
 20
119.8593
 10
719.7156
 20
119.9113
 10
719.5858
 20
119.9801
 10
719.4788
 20
120.0635
 10
719.3979
 20
120.1593
 10
719.3468
 20
120.2651
 10
719.329
 20
120.3788
 10
719.3468
 20
120.4925
 10
719.3979
 20
120.5984
 10
719.4788
 20
120.6942
 10
719.5858
 20
120.7778
 10
719.7156
 20
120.8467
 10
719.8644
 20
120.8988
 10
720.0289
 20
120.9317
 10
720.2055
 20
120.9432
  0
LWPOLYLINE
  5
C6
330
1F
100
AcDbEntity
  8
Layer 1
 62
     7
370
    20
100
AcDbPolyline
 90
       33
 70
     1
 43
0.0
 10
724.3812
 20
123.9664
 10
724.5577
 20
123.9549
 10
724.7222
 20
123.9221
 10
724.8709
 20
123.8701
 10
725.0006
 20
123.8013
 10
725.1075
 20
123.7178
 10
725.1883
 20
123.6221
 10
725.2393
 20
123.5162
 10
725.2571
 20
123.4026
 10
725.2393
 20
123.2887
 10
725.1883
 20
123.1827
 10
725.1075
 20
123.0869
 10
725.0006
 20
123.0034
 10
724.8709
 20
122.9345
 10
724.7222
 20
122.8825
 10
724.5577
 20
122.8497
 10
724.3812
 20
122.8382
 10
724.2046
 20
122.8497
 10
724.0401
 20
122.8825
 10
723.8912
 20
122.9345
 10
723.7615
 20
123.0034
 10
723.6544
 20
123.0869
 10
723.5735
 20
123.1827
 10
723.5224
 20
123.2887
 10
723.5046
 20
123.4026
 10
723.5224
 20
123.5162
 10
723.5735
 20
123.6221
 10
723.6544
 20
123.7178
 10
723.7615
 20
123.8013
 10
723.8912
 20
123.8701
 10
724.0401
 20
123.9221
 10
724.2046
 20
123.9549
 10
724.3812
 20
123.9664
  0
LWPOLYLINE
  5
C7
330
1F
100
AcDbEntity
  8
Layer 1
 62
     7
370
    20
100
AcDbPolyline
 90
       33
 70
     1
 43
0.0
 10
729.3244
 20
126.8401
 10
729.5009
 20
126.8286
 10
729.6653
 20
126.7958
 10
729.8141
 20
126.7438
 10
729.9437
 20
126.675
 10
730.0507
 20
126.5915
 10
730.1314
 20
126.4958
 10
730.1824
 20
126.3899
 10
730.2002
 20
126.2763
 10
730.1824
 20
126.1627
 10
730.1314
 20
126.0569
 10
730.0507
 20
125.9611
 10
729.9437
 20
125.8777
 10
729.8141
 20
125.8089
 10
729.6653
 20
125.7569
 10
729.5009
 20
125.724
 10
729.3244
 20
125.7126
 10
729.1478
 20
125.724
 10
728.9834
 20
125.7569
 10
728.8346
 20
125.8089
 10
728.705
 20
125.8777
 10
728.598
 20
125.9611
 10
728.5173
 20
126.0569
 10
728.4663
 20
126.1627
 10
728.4485
 20
126.2763
 10
728.4663
 20
126.3899
 10
728.5173
 20
126.4958
 10
728.598
 20
126.5915
 10
728.705
 20
126.675
 10
728.8346
 20
126.7438
 10
728.9834
 20
126.7958
 10
729.1478
 20
126.8286
 10
729.3244
 20
126.8401
  0
LWPOLYLINE
  5
C8
330
1F
100
AcDbEntity
  8
Layer 1
 62
     7
370
    20
100
AcDbPolyline
 90
       33
 70
     1
 43
0.0
 10
734.3238
 20
129.1827
 10
734.5004
 20
129.1712
 10
734.6649
 20
129.1383
 10
734.8138
 20
129.0862
 10
734.9435
 20
129.0173
 10
735.0506
 20
128.9337
 10
735.1315
 20
128.8378
 10
735.1826
 20
128.7319
 10
735.2004
 20
128.6182
 10
735.1826
 20
128.5046
 10
735.1315
 20
128.3988
 10
735.0506
 20
128.303
 10
734.9435
 20
128.2196
 10
734.8138
 20
128.1508
 10
734.6649
 20
128.0988
 10
734.5004
 20
128.0659
 10
734.3238
 20
128.0545
 10
734.1475
 20
128.0659
 10
733.9831
 20
128.0988
 10
733.8344
 20
128.1508
 10
733.7047
 20
128.2196
 10
733.5977
 20
128.303
 10
733.5168
 20
128.3988
 10
733.4657
 20
128.5046
 10
733.4479
 20
128.6182
 10
733.4657
 20
128.7319
 10
733.5168
 20
128.8378
 10
733.5977
 20
128.9337
 10
733.7047
 20
129.0173
 10
733.8344
 20
129.0862
 10
733.9831
 20
129.1383
 10
734.1475
 20
129.1712
 10
734.3238
 20
129.1827
  0
LWPOLYLINE
  5
C9
330
1F
100
AcDbEntity
  8
Layer 1
 62
     7
370
    20
100
AcDbPolyline
 90
       33
 70
     1
 43
0.0
 10
739.8668
 20
131.3196
 10
740.0433
 20
131.3081
 10
740.2078
 20
131.2752
 10
740.3565
 20
131.2231
 10
740.4862
 20
131.1541
 10
740.5931
 20
131.0706
 10
740.6739
 20
130.9747
 10
740.7249
 20
130.8688
 10
740.7427
 20
130.7551
 10
740.7249
 20
130.6415
 10
740.6739
 20
130.5356
 10
740.5931
 20
130.4399
 10
740.4862
 20
130.3564
 10
740.3565
 20
130.2876
 10
740.2078
 20
130.2356
 10
740.0433
 20
130.2028
 10
739.8668
 20
130.1913
 10
739.6903
 20
130.2028
 10
739.5258
 20
130.2356
 10
739.3771
 20
130.2876
 10
739.2474
 20
130.3564
 10
739.1405
 20
130.4399
 10
739.0597
 20
130.5356
 10
739.0087
 20
130.6415
 10
738.9909
 20
130.7551
 10
739.0087
 20
130.8688
 10
739.0597
 20
130.9747
 10
739.1405
 20
131.0706
 10
739.2474
 20
131.1541
 10
739.3771
 20
131.2231
 10
739.5258
 20
131.2752
 10
739.6903
 20
131.3081
 10
739.8668
 20
131.3196
  0
LWPOLYLINE
  5
CA
330
1F
100
AcDbEntity
  8
Layer 1
 62
     7
370
    20
100
AcDbPolyline
 90
       33
 70
     0
 43
0.0
 10
661.1078
 20
171.5822
 10
660.9919
 20
171.8577
 10
660.6282
 20
172.6069
 10
659.9925
 20
173.7143
 10
659.0607
 20
175.064
 10
657.8087
 20
176.5402
 10
656.2124
 20
178.0274
 10
654.2477
 20
179.4097
 10
651.8905
 20
180.5714
 10
648.9781
 20
181.3294
 10
646.2747
 20
181.2924
 10
643.8218
 20
180.5552
 10
641.6608
 20
179.2128
 10
639.8333
 20
177.3599
 10
638.3808
 20
175.0917
 10
637.3447
 20
172.5028
 10
636.7667
 20
169.6882
 10
636.6259
 20
166.8617
 10
636.8109
 20
164.2143
 10
637.227
 20
161.807
 10
637.7797
 20
159.7008
 10
638.3742
 20
157.9565
 10
638.9161
 20
156.6351
 10
639.3106
 20
155.7976
 10
639.4631
 20
155.5049
 10
639.8191
 20
154.8864
 10
640.8601
 20
153.3416
 10
642.5462
 20
151.3363
 10
644.837
 20
149.3364
 10
647.6925
 20
147.8078
 10
651.0724
 20
147.2163
 10
654.9365
 20
148.0278
 10
659.2448
 20
150.7081
  0
LWPOLYLINE
  5
CB
330
1F
100
AcDbEntity
  8
Layer 1
 62
     7
370
    20
100
AcDbPolyline
 90
        9
 70
     0
 43
0.0
 10
657.8712
 20
171.3276
 10
655.912
 20
169.7402
 10
655.1101
 20
167.9296
 10
655.2487
 20
166.0344
 10
656.1114
 20
164.1931
 10
657.4813
 20
162.5445
 10
659.142
 20
161.2272
 10
660.8767
 20
160.3798
 10
662.4689
 20
160.141
  0
LWPOLYLINE
  5
CC
330
1F
100
AcDbEntity
  8
Layer 1
 62
     7
370
    20
100
AcDbPolyline
 90
       40
 70
     1
 43
0.0
 10
725.3757
 20
148.3383
 10
725.1854
 20
148.7279
 10
724.6536
 20
149.8033
 10
723.8391
 20
151.4247
 10
722.8009
 20
153.4519
 10
721.5976
 20
155.7451
 10
720.2881
 20
158.1642
 10
718.9312
 20
160.5694
 10
717.5858
 20
162.8205
 10
716.1309
 20
164.6033
 10
714.4856
 20
165.7738
 10
712.7683
 20
166.4474
 10
711.0974
 20
166.7397
 10
709.5916
 20
166.766
 10
708.3693
 20
166.6418
 10
707.5491
 20
166.4826
 10
707.2493
 20
166.4039
 10
658.4129
 20
162.746
 10
657.2572
 20
162.7688
 10
658.0544
 20
162.0271
 10
706.0512
 20
165.6757
 10
707.5867
 20
165.3958
 10
707.6556
 20
165.446
 10
707.8568
 20
165.5737
 10
708.1822
 20
165.7442
 10
708.6237
 20
165.923
 10
709.1732
 20
166.0755
 10
709.8225
 20
166.1673
 10
710.5635
 20
166.1638
 10
711.3881
 20
166.0303
 10
712.257
 20
165.7774
 10
713.1147
 20
165.4588
 10
713.9289
 20
165.1053
 10
714.6674
 20
164.7473
 10
715.298
 20
164.4156
 10
715.7883
 20
164.1408
 10
716.1062
 20
163.9535
 10
716.2193
 20
163.8842
 10
723.3351
 20
152.6304
 10
725.3757
 20
148.3383
  0
LWPOLYLINE
  5
CD
330
1F
100
AcDbEntity
  8
Layer 1
 62
     7
370
    20
100
AcDbPolyline
 90
        2
 70
     0
 43
0.0
 10
723.3976
 20
147.165
 10
734.8097
 20
151.4865
  0
LWPOLYLINE
  5
CE
330
1F
100
AcDbEntity
  8
Layer 1
 62
     7
370
     9
100
AcDbPolyline
 90
        2
 70
     0
 43
0.0
 10
793.0274
 20
127.1364
 10
812.1825
 20
78.369
  0
LWPOLYLINE
  5
CF
330
1F
100
AcDbEntity
  8
Layer 1
 62
     7
370
     9
100
AcDbPolyline
 90
        2
 70
     0
 43
0.0
 10
698.459
 20
90.2412
 10
717.6141
 20
41.4738
  0
LWPOLYLINE
  5
D0
330
1F
100
AcDbEntity
  8
Layer 1
 62
     7
370
     9
100
AcDbPolyline
 90
        2
 70
     0
 43
0.0
 10
714.9679
 20
48.2102
 10
809.5366
 20
85.1053
  0
LWPOLYLINE
  5
D1
330
1F
100
AcDbEntity
  8
Layer 1
 62
     7
370
     9
100
AcDbPolyline
 90
        7
 70
     1
 43
0.0
 10
748.5074
 20
40.7158
 10
749.6829
 20
41.1746
 10
745.1617
 20
52.6854
 10
742.4597
 20
51.2833
 10
742.8601
 20
50.2629
 10
744.5055
 20
50.9052
 10
748.5074
 20
40.7158
  0
LWPOLYLINE
  5
D2
330
1F
100
AcDbEntity
  8
Layer 1
 62
     7
370
     9
100
AcDbPolyline
 90
        7
 70
     1
 43
0.0
 10
753.4936
 20
42.6608
 10
754.0643
 20
55.9456
 10
746.8954
 20
53.1491
 10
747.3556
 20
51.9778
 10
752.6942
 20
54.0611
 10
752.1847
 20
42.1499
 10
753.4936
 20
42.6608
  0
LWPOLYLINE
  5
D3
330
1F
100
AcDbEntity
  8
Layer 1
 62
     7
370
     9
100
AcDbPolyline
 90
       65
 70
     1
 43
0.0
 10
760.42
 20
52.039
 10
760.6733
 20
52.1254
 10
760.9252
 20
52.1867
 10
761.1759
 20
52.2227
 10
761.4253
 20
52.2335
 10
761.6734
 20
52.219
 10
761.9202
 20
52.1794
 10
762.1658
 20
52.1145
 10
762.4102
 20
52.0244
 10
762.6419
 20
51.9138
 10
762.8558
 20
51.7847
 10
763.0519
 20
51.6372
 10
763.2301
 20
51.4713
 10
763.3905
 20
51.287
 10
763.533
 20
51.0843
 10
763.6576
 20
50.8632
 10
763.7643
 20
50.6237
 10
763.8484
 20
50.3777
 10
763.9078
 20
50.1314
 10
763.9425
 20
49.8848
 10
763.9526
 20
49.638
 10
763.938
 20
49.3909
 10
763.8987
 20
49.1435
 10
763.8348
 20
48.8959
 10
763.7462
 20
48.6481
 10
763.6358
 20
48.4106
 10
763.5051
 20
48.1911
 10
763.3544
 20
47.9898
 10
763.1835
 20
47.8065
 10
762.9926
 20
47.6414
 10
762.7816
 20
47.4943
 10
762.5506
 20
47.3653
 10
762.2996
 20
47.2543
 10
762.0394
 20
47.1658
 10
761.7818
 20
47.1042
 10
761.5266
 20
47.0694
 10
761.274
 20
47.0615
 10
761.0238
 20
47.0805
 10
760.776
 20
47.1263
 10
760.5308
 20
47.1991
 10
760.2879
 20
47.2988
 10
760.0539
 20
47.4207
 10
759.8382
 20
47.5592
 10
759.6409
 20
47.7142
 10
759.4619
 20
47.8858
 10
759.3012
 20
48.0738
 10
759.1588
 20
48.2784
 10
759.0347
 20
48.4995
 10
758.9289
 20
48.7371
 10
758.8442
 20
48.9853
 10
758.785
 20
49.232
 10
758.7515
 20
49.4772
 10
758.7435
 20
49.721
 10
758.7612
 20
49.9632
 10
758.8046
 20
50.2041
 10
758.8737
 20
50.4435
 10
758.9685
 20
50.6814
 10
759.0865
 20
50.9131
 10
759.2227
 20
51.127
 10
759.3769
 20
51.3232
 10
759.5493
 20
51.5017
 10
759.7398
 20
51.6625
 10
759.9484
 20
51.8056
 10
760.1751
 20
51.9311
 10
760.42
 20
52.039
  0
LWPOLYLINE
  5
D4
330
1F
100
AcDbEntity
  8
Layer 1
 62
     7
370
     9
100
AcDbPolyline
 90
       65
 70
     1
 43
0.0
 10
758.6064
 20
56.6568
 10
758.8105
 20
56.7269
 10
759.0136
 20
56.7773
 10
759.2156
 20
56.8078
 10
759.4166
 20
56.8187
 10
759.6165
 20
56.8098
 10
759.8154
 20
56.7812
 10
760.0133
 20
56.733
 10
760.2101
 20
56.6651
 10
760.4032
 20
56.5777
 10
760.5811
 20
56.4752
 10
760.7439
 20
56.3574
 10
760.8915
 20
56.2243
 10
761.0238
 20
56.076
 10
761.1411
 20
55.9123
 10
761.2431
 20
55.7333
 10
761.3299
 20
55.539
 10
761.3966
 20
55.342
 10
761.4425
 20
55.1441
 10
761.4676
 20
54.9453
 10
761.4718
 20
54.7456
 10
761.4552
 20
54.545
 10
761.4178
 20
54.3436
 10
761.3596
 20
54.1413
 10
761.2806
 20
53.9381
 10
761.1864
 20
53.7476
 10
761.0773
 20
53.5717
 10
760.9533
 20
53.4106
 10
760.8146
 20
53.2642
 10
760.661
 20
53.1325
 10
760.4926
 20
53.0155
 10
760.3093
 20
52.9133
 10
760.1113
 20
52.8259
 10
759.9059
 20
52.756
 10
759.7014
 20
52.707
 10
759.4979
 20
52.6789
 10
759.2953
 20
52.6716
 10
759.0936
 20
52.6851
 10
758.8928
 20
52.7195
 10
758.6929
 20
52.7748
 10
758.4938
 20
52.8509
 10
758.2974
 20
52.9467
 10
758.117
 20
53.0559
 10
757.9524
 20
53.1786
 10
757.8039
 20
53.3146
 10
757.6712
 20
53.4642
 10
757.5543
 20
53.6272
 10
757.4534
 20
53.8037
 10
757.3683
 20
53.9937
 10
757.2996
 20
54.195
 10
757.2525
 20
54.3953
 10
757.2271
 20
54.5946
 10
757.2231
 20
54.7931
 10
757.2408
 20
54.9906
 10
757.2799
 20
55.1872
 10
757.3405
 20
55.383
 10
757.4226
 20
55.5779
 10
757.5211
 20
55.761
 10
757.6337
 20
55.9304
 10
757.7605
 20
56.0859
 10
757.9013
 20
56.2276
 10
758.0563
 20
56.3556
 10
758.2255
 20
56.4698
 10
758.4089
 20
56.5702
 10
758.6064
 20
56.6568
  0
LWPOLYLINE
  5
D5
330
1F
100
AcDbEntity
  8
Layer 1
 62
     7
370
     9
100
AcDbPolyline
 90
      121
 70
     1
 43
0.0
 10
762.7598
 20
46.083
 10
763.1387
 20
46.2477
 10
763.4908
 20
46.4354
 10
763.816
 20
46.6459
 10
764.1143
 20
46.8794
 10
764.3858
 20
47.1359
 10
764.6305
 20
47.4153
 10
764.8483
 20
47.7178
 10
765.0392
 20
48.0433
 10
765.1189
 20
48.2057
 10
765.1896
 20
48.3711
 10
765.2512
 20
48.5396
 10
765.3039
 20
48.7112
 10
765.3474
 20
48.8858
 10
765.3819
 20
49.0635
 10
765.4073
 20
49.2442
 10
765.4236
 20
49.428
 10
765.4299
 20
49.6147
 10
765.4247
 20
49.8035
 10
765.408
 20
49.9945
 10
765.3799
 20
50.1876
 10
765.3404
 20
50.3829
 10
765.2894
 20
50.5804
 10
765.227
 20
50.7799
 10
765.1532
 20
50.9817
 10
765.0658
 20
51.1814
 10
764.9631
 20
51.3745
 10
764.8451
 20
51.561
 10
764.7118
 20
51.7409
 10
764.5633
 20
51.9141
 10
764.3995
 20
52.0807
 10
764.2206
 20
52.2408
 10
764.0264
 20
52.3942
 10
763.8197
 20
52.5376
 10
763.6032
 20
52.6666
 10
763.3769
 20
52.7812
 10
763.1408
 20
52.8813
 10
762.8949
 20
52.967
 10
762.6392
 20
53.0384
 10
762.3739
 20
53.0954
 10
762.0988
 20
53.138
 10
762.3063
 20
53.5456
 10
762.4688
 20
53.9427
 10
762.5865
 20
54.3292
 10
762.6594
 20
54.7051
 10
762.6874
 20
55.0704
 10
762.6706
 20
55.4251
 10
762.609
 20
55.7692
 10
762.5026
 20
56.1027
 10
762.3619
 20
56.418
 10
762.198
 20
56.707
 10
762.0108
 20
56.9697
 10
761.8004
 20
57.2061
 10
761.5666
 20
57.4163
 10
761.3097
 20
57.6002
 10
761.0294
 20
57.7578
 10
760.7259
 20
57.8893
 10
760.4213
 20
57.9875
 10
760.1119
 20
58.0548
 10
759.7975
 20
58.0913
 10
759.4784
 20
58.0969
 10
759.1543
 20
58.0717
 10
758.8254
 20
58.0157
 10
758.4917
 20
57.929
 10
758.1531
 20
57.8114
 10
757.8244
 20
57.6686
 10
757.5202
 20
57.5064
 10
757.2405
 20
57.3249
 10
756.9854
 20
57.1242
 10
756.7548
 20
56.9041
 10
756.5487
 20
56.6647
 10
756.3672
 20
56.4059
 10
756.2102
 20
56.1278
 10
756.0769
 20
55.8259
 10
755.9785
 20
55.5208
 10
755.9149
 20
55.2125
 10
755.8861
 20
54.901
 10
755.8922
 20
54.5862
 10
755.9332
 20
54.2682
 10
756.0091
 20
53.947
 10
756.1199
 20
53.6225
 10
756.2697
 20
53.3034
 10
756.4595
 20
53.0072
 10
756.6894
 20
52.7338
 10
756.9592
 20
52.4834
 10
757.2691
 20
52.2557
 10
757.619
 20
52.051
 10
758.0089
 20
51.8692
 10
758.4388
 20
51.7102
 10
758.2658
 20
51.4929
 10
758.1098
 20
51.2715
 10
757.9708
 20
51.0461
 10
757.8486
 20
50.8168
 10
757.7435
 20
50.5834
 10
757.6552
 20
50.3461
 10
757.5839
 20
50.1049
 10
757.5296
 20
49.8597
 10
757.4919
 20
49.6152
 10
757.4702
 20
49.3754
 10
757.4644
 20
49.1403
 10
757.4746
 20
48.9099
 10
757.5008
 20
48.6842
 10
757.543
 20
48.4633
 10
757.6013
 20
48.2471
 10
757.6756
 20
48.0357
 10
757.8394
 20
47.6687
 10
758.0305
 20
47.3332
 10
758.2489
 20
47.029
 10
758.4946
 20
46.7564
 10
758.7676
 20
46.5151
 10
759.068
 20
46.3053
 10
759.3956
 20
46.127
 10
759.7506
 20
45.9801
 10
760.1126
 20
45.8704
 10
760.4786
 20
45.7957
 10
760.8486
 20
45.756
 10
761.2226
 20
45.7514
 10
761.6007
 20
45.7817
 10
761.983
 20
45.8471
 10
762.3693
 20
45.9475
 10
762.7598
 20
46.083
  0
LWPOLYLINE
  5
D6
330
1F
100
AcDbEntity
  8
Layer 1
 62
     7
370
     9
100
AcDbPolyline
 90
      162
 70
     1
 43
0.0
 10
782.255
 20
53.9207
 10
783.4298
 20
54.3795
 10
781.6231
 20
58.9806
 10
781.4936
 20
59.2822
 10
781.3506
 20
59.5621
 10
781.194
 20
59.82
 10
781.024
 20
60.0562
 10
780.8404
 20
60.2705
 10
780.6433
 20
60.463
 10
780.4327
 20
60.6336
 10
780.2085
 20
60.7824
 10
780.09
 20
60.849
 10
779.9684
 20
60.9087
 10
779.8438
 20
60.9615
 10
779.7162
 20
61.0073
 10
779.5855
 20
61.0462
 10
779.4517
 20
61.0782
 10
779.3148
 20
61.1033
 10
779.1748
 20
61.1216
 10
779.0305
 20
61.1308
 10
778.8796
 20
61.1288
 10
778.7222
 20
61.1155
 10
778.5583
 20
61.0909
 10
778.3878
 20
61.055
 10
778.2108
 20
61.0078
 10
778.0273
 20
60.9494
 10
777.8374
 20
60.8797
 10
777.65
 20
60.799
 10
777.4738
 20
60.7076
 10
777.3087
 20
60.6054
 10
777.1547
 20
60.4926
 10
777.0119
 20
60.369
 10
776.8803
 20
60.2348
 10
776.7599
 20
60.0899
 10
776.6508
 20
59.9344
 10
776.5608
 20
59.7867
 10
776.4795
 20
59.6339
 10
776.4068
 20
59.4762
 10
776.3428
 20
59.3136
 10
776.2873
 20
59.1462
 10
776.2403
 20
58.974
 10
776.2018
 20
58.7972
 10
776.1718
 20
58.6157
 10
776.0498
 20
58.7249
 10
775.9237
 20
58.827
 10
775.7933
 20
58.9212
 10
775.6588
 20
59.007
 10
775.5405
 20
59.0739
 10
775.419
 20
59.1337
 10
775.2945
 20
59.1866
 10
775.1668
 20
59.2325
 10
775.0361
 20
59.2715
 10
774.9024
 20
59.3035
 10
774.7656
 20
59.3287
 10
774.6258
 20
59.347
 10
774.4813
 20
59.3562
 10
774.3303
 20
59.3541
 10
774.1729
 20
59.3408
 10
774.009
 20
59.3162
 10
773.8386
 20
59.2803
 10
773.6617
 20
59.2332
 10
773.4783
 20
59.1748
 10
773.2884
 20
59.1051
 10
773.1008
 20
59.0244
 10
772.9245
 20
58.9329
 10
772.7593
 20
58.8308
 10
772.6054
 20
58.7179
 10
772.4625
 20
58.5943
 10
772.3309
 20
58.4601
 10
772.2104
 20
58.3152
 10
772.1011
 20
58.1597
 10
772.0155
 20
58.0189
 10
771.9376
 20
57.8738
 10
771.8673
 20
57.7245
 10
771.8048
 20
57.5708
 10
771.7501
 20
57.4128
 10
771.7031
 20
57.2505
 10
771.6639
 20
57.0837
 10
771.6326
 20
56.9126
 10
771.1717
 20
58.086
 10
769.9969
 20
57.6279
 10
772.888
 20
50.2664
 10
774.0628
 20
50.7245
 10
772.5835
 20
54.4921
 10
772.5247
 20
54.722
 10
772.4775
 20
54.9467
 10
772.4421
 20
55.1662
 10
772.4183
 20
55.3806
 10
772.4061
 20
55.5899
 10
772.4056
 20
55.7943
 10
772.4168
 20
55.9937
 10
772.4396
 20
56.1882
 10
772.4647
 20
56.3301
 10
772.4976
 20
56.469
 10
772.5384
 20
56.6049
 10
772.587
 20
56.7378
 10
772.6434
 20
56.8676
 10
772.7077
 20
56.9945
 10
772.7797
 20
57.1184
 10
772.8595
 20
57.2393
 10
772.9461
 20
57.3545
 10
773.0384
 20
57.4611
 10
773.1366
 20
57.5592
 10
773.2406
 20
57.6488
 10
773.3504
 20
57.7297
 10
773.4659
 20
57.802
 10
773.5873
 20
57.8656
 10
773.7145
 20
57.9205
 10
773.8414
 20
57.9672
 10
773.9619
 20
58.0057
 10
774.0759
 20
58.0358
 10
774.1836
 20
58.0578
 10
774.2847
 20
58.0714
 10
774.3794
 20
58.0768
 10
774.4677
 20
58.074
 10
774.5494
 20
58.063
 10
774.7676
 20
58.0042
 10
774.9716
 20
57.9152
 10
775.1614
 20
57.7961
 10
775.3371
 20
57.6467
 10
775.4987
 20
57.4672
 10
775.6461
 20
57.2574
 10
775.7794
 20
57.0174
 10
775.8986
 20
56.7471
 10
777.706
 20
52.146
 10
778.8808
 20
52.6041
 10
777.0741
 20
57.2052
 10
776.9546
 20
57.484
 10
776.9893
 20
57.9629
 10
777.0143
 20
58.1048
 10
777.0472
 20
58.2437
 10
777.0879
 20
58.3796
 10
777.1364
 20
58.5125
 10
777.1928
 20
58.6425
 10
777.2571
 20
58.7695
 10
777.3292
 20
58.8936
 10
777.4092
 20
59.0147
 10
777.4958
 20
59.1298
 10
777.5881
 20
59.2364
 10
777.6863
 20
59.3344
 10
777.7903
 20
59.4239
 10
777.9001
 20
59.5048
 10
778.0156
 20
59.5771
 10
778.137
 20
59.6408
 10
778.2642
 20
59.6959
 10
778.3911
 20
59.7426
 10
778.5115
 20
59.781
 10
778.6254
 20
59.8112
 10
778.733
 20
59.833
 10
778.8341
 20
59.8466
 10
778.9288
 20
59.8519
 10
779.0172
 20
59.8489
 10
779.0991
 20
59.8377
 10
779.3172
 20
59.779
 10
779.5211
 20
59.6902
 10
779.7109
 20
59.571
 10
779.8865
 20
59.4217
 10
780.0479
 20
59.2421
 10
780.1953
 20
59.0322
 10
780.3285
 20
58.7921
 10
780.4476
 20
58.5218
 10
782.255
 20
53.9207
  0
LWPOLYLINE
  5
D7
330
1F
100
AcDbEntity
  8
Layer 1
 62
     7
370
     9
100
AcDbPolyline
 90
      162
 70
     1
 43
0.0
 10
795.0636
 20
58.9181
 10
796.2391
 20
59.3762
 10
794.4317
 20
63.9773
 10
794.3022
 20
64.2791
 10
794.1592
 20
64.5591
 10
794.0026
 20
64.8172
 10
793.8326
 20
65.0534
 10
793.649
 20
65.2678
 10
793.4519
 20
65.4603
 10
793.2413
 20
65.631
 10
793.0171
 20
65.7798
 10
792.8986
 20
65.8464
 10
792.777
 20
65.9061
 10
792.6524
 20
65.9589
 10
792.5248
 20
66.0047
 10
792.3941
 20
66.0436
 10
792.2603
 20
66.0756
 10
792.1235
 20
66.1007
 10
791.9835
 20
66.119
 10
791.8392
 20
66.1282
 10
791.6883
 20
66.1262
 10
791.5308
 20
66.1128
 10
791.3669
 20
66.0882
 10
791.1964
 20
66.0524
 10
791.0194
 20
66.0052
 10
790.8359
 20
65.9468
 10
790.646
 20
65.8771
 10
790.4586
 20
65.7964
 10
790.2824
 20
65.7049
 10
790.1173
 20
65.6028
 10
789.9633
 20
65.4899
 10
789.8205
 20
65.3663
 10
789.6889
 20
65.2321
 10
789.5685
 20
65.0872
 10
789.4594
 20
64.9317
 10
789.3694
 20
64.7838
 10
789.2881
 20
64.6309
 10
789.2154
 20
64.4732
 10
789.1514
 20
64.3106
 10
789.0959
 20
64.1432
 10
789.049
 20
63.971
 10
789.0105
 20
63.794
 10
788.9805
 20
63.6123
 10
788.8588
 20
63.722
 10
788.7326
 20
63.8243
 10
788.6021
 20
63.9186
 10
788.4674
 20
64.0044
 10
788.3491
 20
64.0713
 10
788.2276
 20
64.1311
 10
788.1031
 20
64.184
 10
787.9754
 20
64.2299
 10
787.8448
 20
64.2688
 10
787.711
 20
64.3009
 10
787.5743
 20
64.326
 10
787.4345
 20
64.3443
 10
787.29
 20
64.3535
 10
787.139
 20
64.3515
 10
786.9815
 20
64.3381
 10
786.8176
 20
64.3135
 10
786.6472
 20
64.2777
 10
786.4703
 20
64.2305
 10
786.2869
 20
64.1721
 10
786.097
 20
64.1024
 10
785.9094
 20
64.0217
 10
785.7331
 20
63.9302
 10
785.5679
 20
63.8281
 10
785.414
 20
63.7152
 10
785.2711
 20
63.5916
 10
785.1395
 20
63.4574
 10
785.019
 20
63.3125
 10
784.9097
 20
63.157
 10
784.8241
 20
63.0162
 10
784.7462
 20
62.871
 10
784.6759
 20
62.7216
 10
784.6134
 20
62.5679
 10
784.5587
 20
62.4098
 10
784.5117
 20
62.2475
 10
784.4725
 20
62.0808
 10
784.4412
 20
61.9099
 10
783.9803
 20
63.0833
 10
782.8055
 20
62.6245
 10
785.6966
 20
55.2637
 10
786.8721
 20
55.7218
 10
785.3922
 20
59.4895
 10
785.3334
 20
59.7194
 10
785.2862
 20
59.944
 10
785.2508
 20
60.1635
 10
785.227
 20
60.3779
 10
785.2149
 20
60.5873
 10
785.2146
 20
60.7916
 10
785.2259
 20
60.9911
 10
785.249
 20
61.1856
 10
785.2738
 20
61.3275
 10
785.3066
 20
61.4663
 10
785.3472
 20
61.6022
 10
785.3957
 20
61.7351
 10
785.4521
 20
61.865
 10
785.5163
 20
61.9919
 10
785.5883
 20
62.1158
 10
785.6681
 20
62.2367
 10
785.7547
 20
62.3518
 10
785.8471
 20
62.4585
 10
785.9453
 20
62.5565
 10
786.0493
 20
62.6461
 10
786.159
 20
62.727
 10
786.2746
 20
62.7993
 10
786.3959
 20
62.863
 10
786.5231
 20
62.9179
 10
786.65
 20
62.9646
 10
786.7705
 20
63.003
 10
786.8846
 20
63.0332
 10
786.9922
 20
63.0551
 10
787.0934
 20
63.0687
 10
787.1881
 20
63.0742
 10
787.2763
 20
63.0714
 10
787.358
 20
63.0604
 10
787.5762
 20
63.0015
 10
787.7802
 20
62.9126
 10
787.9701
 20
62.7934
 10
788.1458
 20
62.6441
 10
788.3074
 20
62.4646
 10
788.4548
 20
62.2548
 10
788.5881
 20
62.0148
 10
788.7073
 20
61.7445
 10
790.5146
 20
57.1434
 10
791.6894
 20
57.6015
 10
789.8828
 20
62.2026
 10
789.7632
 20
62.4813
 10
789.7979
 20
62.9603
 10
789.8229
 20
63.1022
 10
789.8558
 20
63.241
 10
789.8965
 20
63.3769
 10
789.945
 20
63.5098
 10
790.0014
 20
63.6397
 10
790.0657
 20
63.7666
 10
790.1378
 20
63.8904
 10
790.2178
 20
64.0113
 10
790.3044
 20
64.1267
 10
790.3967
 20
64.2334
 10
790.4949
 20
64.3316
 10
790.5989
 20
64.4211
 10
790.7087
 20
64.5021
 10
790.8243
 20
64.5744
 10
790.9456
 20
64.6382
 10
791.0728
 20
64.6933
 10
791.1997
 20
64.7397
 10
791.3201
 20
64.778
 10
791.4341
 20
64.808
 10
791.5416
 20
64.8299
 10
791.6428
 20
64.8435
 10
791.7375
 20
64.8489
 10
791.8258
 20
64.8461
 10
791.9077
 20
64.8351
 10
792.1258
 20
64.7764
 10
792.3298
 20
64.6876
 10
792.5195
 20
64.5684
 10
792.6952
 20
64.4191
 10
792.8567
 20
64.2395
 10
793.0042
 20
64.0296
 10
793.1376
 20
63.7895
 10
793.257
 20
63.5192
 10
795.0636
 20
58.9181
  0
ENDSEC
  0
SECTION
  2
OBJECTS
  0
DICTIONARY
  5
C
330
0
100
AcDbDictionary
281
     1
  3
ACAD_DETAILVIEWSTYLE
350
DF
  3
ACAD_GROUP
350
D
  3
ACAD_LAYOUT
350
1A
  3
ACAD_MATERIAL
350
43
  3
ACAD_MLEADERSTYLE
350
5B
  3
ACAD_MLINESTYLE
350
17
  3
ACAD_PLOTSETTINGS
350
19
  3
ACAD_PLOTSTYLENAME
350
E
  3
ACAD_SCALELIST
350
47
  3
ACAD_SECTIONVIEWSTYLE
350
E0
  3
ACAD_TABLESTYLE
350
59
  3
ACAD_VISUALSTYLE
350
2A
  3
ACDB_RECOMPOSE_DATA
350
DC
  3
AcDbVariableDictionary
350
D8
  0
SUN
  5
5D
330
29
100
AcDbSun
 90
        1
290
     0
 63
     7
421
 16777215
 40
1.0
291
     1
 91
  2455826
 92
 54000000
292
     0
 70
     2
 71
   256
280
     1
  0
DICTIONARY
  5
DF
102
{ACAD_REACTORS
330
C
102
}
330
C
100
AcDbDictionary
281
     1
  0
DICTIONARY
  5
D
102
{ACAD_REACTORS
330
C
102
}
330
C
100
AcDbDictionary
281
     1
  0
DICTIONARY
  5
1A
102
{ACAD_REACTORS
330
C
102
}
330
C
100
AcDbDictionary
281
     1
  3
Layout1
350
1E
  3
Layout2
350
26
  3
Model
350
22
  0
DICTIONARY
  5
43
102
{ACAD_REACTORS
330
C
102
}
330
C
100
AcDbDictionary
281
     1
  3
ByBlock
350
45
  3
ByLayer
350
44
  3
Global
350
46
  0
DICTIONARY
  5
5B
102
{ACAD_REACTORS
330
C
102
}
330
C
100
AcDbDictionary
281
     1
  3
Standard
350
5C
  0
DICTIONARY
  5
17
102
{ACAD_REACTORS
330
C
102
}
330
C
100
AcDbDictionary
281
     1
  3
Standard
350
18
  0
DICTIONARY
  5
19
102
{ACAD_REACTORS
330
C
102
}
330
C
100
AcDbDictionary
281
     1
  0
ACDBDICTIONARYWDFLT
  5
E
102
{ACAD_REACTORS
330
C
102
}
330
C
100
AcDbDictionary
281
     1
  3
Normal
350
F
100
AcDbDictionaryWithDefault
340
F
  0
DICTIONARY
  5
47
102
{ACAD_REACTORS
330
C
102
}
330
C
100
AcDbDictionary
281
     1
  3
A0
350
48
  3
A1
350
49
  3
A2
350
4A
  3
A3
350
4B
  3
A4
350
4C
  3
A5
350
4D
  3
A6
350
4E
  3
A7
350
4F
  3
A8
350
50
  3
A9
350
51
  3
B1
350
52
  3
B2
350
53
  3
B3
350
54
  3
B4
350
55
  3
B5
350
56
  3
B6
350
57
  3
B7
350
58
  0
DICTIONARY
  5
E0
102
{ACAD_REACTORS
330
C
102
}
330
C
100
AcDbDictionary
281
     1
  0
DICTIONARY
  5
59
102
{ACAD_REACTORS
330
C
102
}
330
C
100
AcDbDictionary
281
     1
  3
Standard
350
5A
  0
DICTIONARY
  5
2A
102
{ACAD_REACTORS
330
C
102
}
330
C
100
AcDbDictionary
281
     1
  3
2dWireframe
350
2F
  3
Basic
350
32
  3
Brighten
350
36
  3
ColorChange
350
3A
  3
Conceptual
350
34
  3
Dim
350
35
  3
EdgeColorOff
350
3D
  3
Facepattern
350
39
  3
Flat
350
2B
  3
FlatWithEdges
350
2C
  3
Gouraud
350
2D
  3
GouraudWithEdges
350
2E
  3
Hidden
350
31
  3
JitterOff
350
3B
  3
Linepattern
350
38
  3
OverhangOff
350
3C
  3
Realistic
350
33
  3
Shaded
350
42
  3
Shaded with edges
350
41
  3
Shades of Gray
350
3E
  3
Sketchy
350
3F
  3
Thicken
350
37
  3
Wireframe
350
30
  3
X-Ray
350
40
  0
XRECORD
  5
DC
102
{ACAD_REACTORS
330
C
102
}
330
C
100
AcDbXrecord
280
     1
 90
        1
330
5A
  0
DICTIONARY
  5
D8
102
{ACAD_REACTORS
330
C
102
}
330
C
100
AcDbDictionary
281
     1
  3
CANNOSCALE
350
D9
  3
CMLEADERSTYLE
350
DE
  3
CTABLESTYLE
350
DD
  0
LAYOUT
  5
1E
102
{ACAD_REACTORS
330
1A
102
}
330
1A
100
AcDbPlotSettings
  1

  2
none_device
  4

  6

 40
0.0
 41
0.0
 42
0.0
 43
0.0
 44
0.0
 45
0.0
 46
0.0
 47
0.0
 48
0.0
 49
0.0
140
0.0
141
0.0
142
1.0
143
1.0
 70
   688
 72
     0
 73
     0
 74
     5
  7

 75
    16
 76
     0
 77
     2
 78
   300
147
1.0
148
0.0
149
0.0
100
AcDbLayout
  1
Layout1
 70
     1
 71
     1
 10
0.0
 20
0.0
 11
12.0
 21
9.0
 12
0.0
 22
0.0
 32
0.0
 14
1.000000000000000E+20
 24
1.000000000000000E+20
 34
1.000000000000000E+20
 15
-1.000000000000000E+20
 25
-1.000000000000000E+20
 35
-1.000000000000000E+20
146
0.0
 13
0.0
 23
0.0
 33
0.0
 16
1.0
 26
0.0
 36
0.0
 17
0.0
 27
1.0
 37
0.0
 76
     0
330
1B
  0
LAYOUT
  5
26
102
{ACAD_REACTORS
330
1A
102
}
330
1A
100
AcDbPlotSettings
  1

  2
none_device
  4

  6

 40
0.0
 41
0.0
 42
0.0
 43
0.0
 44
0.0
 45
0.0
 46
0.0
 47
0.0
 48
0.0
 49
0.0
140
0.0
141
0.0
142
1.0
143
1.0
 70
   688
 72
     0
 73
     0
 74
     5
  7

 75
    16
 76
     0
 77
     2
 78
   300
147
1.0
148
0.0
149
0.0
100
AcDbLayout
  1
Layout2
 70
     1
 71
     2
 10
0.0
 20
0.0
 11
0.0
 21
0.0
 12
0.0
 22
0.0
 32
0.0
 14
0.0
 24
0.0
 34
0.0
 15
0.0
 25
0.0
 35
0.0
146
0.0
 13
0.0
 23
0.0
 33
0.0
 16
1.0
 26
0.0
 36
0.0
 17
0.0
 27
1.0
 37
0.0
 76
     0
330
23
  0
LAYOUT
  5
22
102
{ACAD_REACTORS
330
1A
102
}
330
1A
100
AcDbPlotSettings
  1

  2
none_device
  4
Letter_(8.50_x_11.00_Inches)
  6

 40
6.35
 41
6.35
 42
6.35000508
 43
6.35000508
 44
215.9
 45
279.4
 46
0.0
 47
0.0
 48
0.0
 49
0.0
140
0.0
141
0.0
142
1.0
143
1.0
 70
  1712
 72
     0
 73
     0
 74
     0
  7

 75
     0
 76
     0
 77
     2
 78
   300
147
1.0
148
0.0
149
0.0
100
AcDbLayout
  1
Model
 70
     1
 71
     0
 10
0.0
 20
0.0
 11
12.0
 21
9.0
 12
0.0
 22
0.0
 32
0.0
 14
627.4705
 24
-71.9222
 34
0.0
 15
1063.6816
 25
288.8447
 35
0.0
146
0.0
 13
0.0
 23
0.0
 33
0.0
 16
1.0
 26
0.0
 36
0.0
 17
0.0
 27
1.0
 37
0.0
 76
     0
330
1F
331
29
  0
MATERIAL
  5
45
102
{ACAD_REACTORS
330
43
102
}
330
43
100
AcDbMaterial
  1
ByBlock
 72
     1
 94
      127
  0
MATERIAL
  5
44
102
{ACAD_REACTORS
330
43
102
}
330
43
100
AcDbMaterial
  1
ByLayer
 72
     1
 94
      127
  0
MATERIAL
  5
46
102
{ACAD_REACTORS
330
43
102
}
330
43
100
AcDbMaterial
  1
Global
 72
     1
 94
      127
  0
MLEADERSTYLE
  5
5C
102
{ACAD_REACTORS
330
5B
102
}
330
5B
100
AcDbMLeaderStyle
179
     2
170
     2
171
     1
172
     0
 90
        2
 40
0.0
 41
0.0
173
     1
 91
-1056964608
340
14
 92
       -2
290
     1
 42
0.09
291
     1
 43
0.36
  3
Standard
341
0
 44
0.18
300

342
11
174
     1
178
     6
175
     1
176
     0
 93
-1056964608
 45
0.18
292
     0
297
     0
 46
0.18
343
0
 94
-1056964608
 47
1.0
 49
1.0
140
1.0
293
     1
141
0.0
294
     1
177
     0
142
1.0
295
     0
296
     0
143
0.125
271
     0
272
     9
273
     9
298
     0
  0
MLINESTYLE
  5
18
102
{ACAD_REACTORS
330
17
102
}
330
17
100
AcDbMlineStyle
  2
Standard
 70
     0
  3

 62
   256
 51
90.0
 52
90.0
 71
     2
 49
0.5
 62
   256
  6
BYLAYER
 49
-0.5
 62
   256
  6
BYLAYER
  0
ACDBPLACEHOLDER
  5
F
102
{ACAD_REACTORS
330
E
102
}
330
E
  0
SCALE
  5
48
102
{ACAD_REACTORS
330
47
102
}
330
47
100
AcDbScale
 70
     0
300
1:1
140
1.0
141
1.0
290
     1
  0
SCALE
  5
49
102
{ACAD_REACTORS
330
47
102
}
330
47
100
AcDbScale
 70
     0
300
1/128" = 1'-0"
140
0.0078125
141
12.0
290
     0
  0
SCALE
  5
4A
102
{ACAD_REACTORS
330
47
102
}
330
47
100
AcDbScale
 70
     0
300
1/64" = 1'-0"
140
0.015625
141
12.0
290
     0
  0
SCALE
  5
4B
102
{ACAD_REACTORS
330
47
102
}
330
47
100
AcDbScale
 70
     0
300
1/32" = 1'-0"
140
0.03125
141
12.0
290
     0
  0
SCALE
  5
4C
102
{ACAD_REACTORS
330
47
102
}
330
47
100
AcDbScale
 70
     0
300
1/16" = 1'-0"
140
0.0625
141
12.0
290
     0
  0
SCALE
  5
4D
102
{ACAD_REACTORS
330
47
102
}
330
47
100
AcDbScale
 70
     0
300
3/32" = 1'-0"
140
0.09375
141
12.0
290
     0
  0
SCALE
  5
4E
102
{ACAD_REACTORS
330
47
102
}
330
47
100
AcDbScale
 70
     0
300
1/8" = 1'-0"
140
0.125
141
12.0
290
     0
  0
SCALE
  5
4F
102
{ACAD_REACTORS
330
47
102
}
330
47
100
AcDbScale
 70
     0
300
3/16" = 1'-0"
140
0.1875
141
12.0
290
     0
  0
SCALE
  5
50
102
{ACAD_REACTORS
330
47
102
}
330
47
100
AcDbScale
 70
     0
300
1/4" = 1'-0"
140
0.25
141
12.0
290
     0
  0
SCALE
  5
51
102
{ACAD_REACTORS
330
47
102
}
330
47
100
AcDbScale
 70
     0
300
3/8" = 1'-0"
140
0.375
141
12.0
290
     0
  0
SCALE
  5
52
102
{ACAD_REACTORS
330
47
102
}
330
47
100
AcDbScale
 70
     0
300
1/2" = 1'-0"
140
0.5
141
12.0
290
     0
  0
SCALE
  5
53
102
{ACAD_REACTORS
330
47
102
}
330
47
100
AcDbScale
 70
     0
300
3/4" = 1'-0"
140
0.75
141
12.0
290
     0
  0
SCALE
  5
54
102
{ACAD_REACTORS
330
47
102
}
330
47
100
AcDbScale
 70
     0
300
1" = 1'-0"
140
1.0
141
12.0
290
     0
  0
SCALE
  5
55
102
{ACAD_REACTORS
330
47
102
}
330
47
100
AcDbScale
 70
     0
300
1-1/2" = 1'-0"
140
1.5
141
12.0
290
     0
  0
SCALE
  5
56
102
{ACAD_REACTORS
330
47
102
}
330
47
100
AcDbScale
 70
     0
300
3" = 1'-0"
140
3.0
141
12.0
290
     0
  0
SCALE
  5
57
102
{ACAD_REACTORS
330
47
102
}
330
47
100
AcDbScale
 70
     0
300
6" = 1'-0"
140
6.0
141
12.0
290
     0
  0
SCALE
  5
58
102
{ACAD_REACTORS
330
47
102
}
330
47
100
AcDbScale
 70
     0
300
1'-0" = 1'-0"
140
12.0
141
12.0
290
     0
  0
TABLESTYLE
  5
5A
102
{ACAD_REACTORS
330
59
102
}
102
{ACAD_XDICTIONARY
360
DA
102
}
330
59
100
AcDbTableStyle
  3
Standard
 70
     0
 71
     0
 40
0.06
 41
0.06
280
     0
281
     0
  7
Standard
140
0.18
170
     2
 62
     0
 63
   257
283
     0
 90
        4
 91
        0
  1

274
    -2
284
     1
 64
     0
275
    -2
285
     1
 65
     0
276
    -2
286
     1
 66
     0
277
    -2
287
     1
 67
     0
278
    -2
288
     1
 68
     0
279
    -2
289
     1
 69
     0
  7
Standard
140
0.25
170
     5
 62
     0
 63
   257
283
     0
 90
        4
 91
        0
  1

274
    -2
284
     1
 64
     0
275
    -2
285
     1
 65
     0
276
    -2
286
     1
 66
     0
277
    -2
287
     1
 67
     0
278
    -2
288
     1
 68
     0
279
    -2
289
     1
 69
     0
  7
Standard
140
0.18
170
     5
 62
     0
 63
   257
283
     0
 90
        4
 91
        0
  1

274
    -2
284
     1
 64
     0
275
    -2
285
     1
 65
     0
276
    -2
286
     1
 66
     0
277
    -2
287
     1
 67
     0
278
    -2
288
     1
 68
     0
279
    -2
289
     1
 69
     0
  0
VISUALSTYLE
  5
2F
102
{ACAD_REACTORS
330
2A
102
}
330
2A
100
AcDbVisualStyle
  2
2dWireframe
 70
     4
177
     3
291
     0
 70
    58
 90
        0
176
     1
 90
        2
176
     1
 90
        0
176
     1
 90
        0
176
     1
 40
0.6
176
     1
 40
30.0
176
     1
 62
     7
420
 16777215
176
     1
 90
        1
176
     1
 90
        4
176
     1
 62
     7
176
     1
 62
   257
176
     1
 90
        1
176
     1
 90
        1
176
     1
 40
1.0
176
     1
 90
        0
176
     1
 62
   257
176
     1
 40
1.0
176
     1
 90
        1
176
     1
 90
        6
176
     1
 90
        2
176
     1
 62
     7
176
     1
 90
        5
176
     1
 90
        0
176
     1
 90
        0
176
     1
290
     0
176
     1
 90
        1
176
     1
 40
0.0
176
     1
 90
        0
176
     1
290
     1
176
     1
290
     1
176
     1
290
     0
176
     1
290
     0
176
     1
290
     0
176
     1
290
     0
176
     1
290
     0
176
     1
290
     0
176
     1
290
     0
176
     1
 90
       50
176
     1
 40
0.0
176
     1
 40
1.0
176
     1
 90
        0
176
     1
 62
    18
420
        0
176
     1
 90
       50
176
     1
 90
        3
176
     1
 62
     5
420
      255
176
     1
290
     0
176
     1
 90
       50
176
     1
 90
       50
176
     1
 90
       50
176
     1
290
     0
176
     1
 90
       50
176
     1
 62
   256
176
     0
 40
1.0
176
     0
 90
        2
176
     1
  1
strokes_ogs.tif
176
     1
290
     0
176
     1
 40
1.0
176
     1
 40
1.0
176
     1
  0
VISUALSTYLE
  5
32
102
{ACAD_REACTORS
330
2A
102
}
330
2A
100
AcDbVisualStyle
  2
Basic
 70
     7
177
     3
291
     1
 70
    58
 90
        1
176
     1
 90
        0
176
     1
 90
        1
176
     1
 90
        0
176
     1
 40
0.6
176
     1
 40
30.0
176
     1
 62
     7
420
 16777215
176
     1
 90
        0
176
     1
 90
        4
176
     1
 62
     7
176
     1
 62
   257
176
     1
 90
        1
176
     1
 90
        1
176
     1
 40
1.0
176
     1
 90
        8
176
     1
 62
     7
176
     1
 40
1.0
176
     1
 90
        1
176
     1
 90
        6
176
     1
 90
        2
176
     1
 62
     7
176
     1
 90
        5
176
     1
 90
        0
176
     1
 90
        0
176
     1
290
     0
176
     1
 90
        1
176
     1
 40
0.0
176
     1
 90
        0
176
     1
290
     0
176
     1
290
     1
176
     1
290
     1
176
     1
290
     0
176
     1
290
     0
176
     1
290
     0
176
     1
290
     0
176
     1
290
     0
176
     1
290
     0
176
     1
 90
       50
176
     1
 40
0.0
176
     1
 40
1.0
176
     1
 90
        0
176
     1
 62
    18
420
        0
176
     1
 90
       50
176
     1
 90
        3
176
     1
 62
     5
420
      255
176
     1
290
     0
176
     1
 90
       50
176
     1
 90
       50
176
     1
 90
       50
176
     1
290
     0
176
     1
 90
       50
176
     1
 62
   256
176
     0
 40
1.0
176
     0
 90
        2
176
     1
  1
strokes_ogs.tif
176
     1
290
     0
176
     1
 40
1.0
176
     1
 40
1.0
176
     1
  0
VISUALSTYLE
  5
36
102
{ACAD_REACTORS
330
2A
102
}
330
2A
100
AcDbVisualStyle
  2
Brighten
 70
    12
177
     3
291
     1
 70
    58
 90
        2
176
     1
 90
        2
176
     1
 90
        0
176
     1
 90
        0
176
     1
 40
0.6
176
     1
 40
30.0
176
     1
 62
     7
420
 16777215
176
     1
 90
        1
176
     1
 90
        4
176
     1
 62
     7
176
     1
 62
   257
176
     1
 90
        1
176
     1
 90
        1
176
     1
 40
1.0
176
     1
 90
        8
176
     1
 62
     7
176
     1
 40
1.0
176
     1
 90
        1
176
     1
 90
        6
176
     1
 90
        2
176
     1
 62
     7
176
     1
 90
        5
176
     1
 90
        0
176
     1
 90
        0
176
     1
290
     0
176
     1
 90
        1
176
     1
 40
50.0
176
     1
 90
        0
176
     1
290
     0
176
     1
290
     1
176
     1
290
     1
176
     1
290
     0
176
     1
290
     0
176
     1
290
     0
176
     1
290
     0
176
     1
290
     0
176
     1
290
     0
176
     1
 90
       50
176
     1
 40
0.0
176
     1
 40
1.0
176
     1
 90
        0
176
     1
 62
    18
420
        0
176
     1
 90
       50
176
     1
 90
        3
176
     1
 62
     5
420
      255
176
     1
290
     0
176
     1
 90
       50
176
     1
 90
       50
176
     1
 90
       50
176
     1
290
     0
176
     1
 90
       50
176
     1
 62
   256
176
     0
 40
1.0
176
     0
 90
        2
176
     1
  1
strokes_ogs.tif
176
     1
290
     0
176
     1
 40
1.0
176
     1
 40
1.0
176
     1
  0
VISUALSTYLE
  5
3A
102
{ACAD_REACTORS
330
2A
102
}
330
2A
100
AcDbVisualStyle
  2
ColorChange
 70
    16
177
     3
291
     1
 70
    58
 90
        2
176
     1
 90
        2
176
     1
 90
        3
176
     1
 90
        0
176
     1
 40
0.6
176
     1
 40
30.0
176
     1
 62
     8
420
  8421504
176
     1
 90
        1
176
     1
 90
        4
176
     1
 62
     7
176
     1
 62
   257
176
     1
 90
        1
176
     1
 90
        1
176
     1
 40
1.0
176
     1
 90
        8
176
     1
 62
     8
420
  8421504
176
     1
 40
1.0
176
     1
 90
        1
176
     1
 90
        6
176
     1
 90
        2
176
     1
 62
     7
176
     1
 90
        5
176
     1
 90
        0
176
     1
 90
        0
176
     1
290
     0
176
     1
 90
        1
176
     1
 40
0.0
176
     1
 90
        0
176
     1
290
     0
176
     1
290
     1
176
     1
290
     1
176
     1
290
     0
176
     1
290
     0
176
     1
290
     0
176
     1
290
     0
176
     1
290
     0
176
     1
290
     0
176
     1
 90
       50
176
     1
 40
0.0
176
     1
 40
1.0
176
     1
 90
        0
176
     1
 62
    18
420
        0
176
     1
 90
       50
176
     1
 90
        3
176
     1
 62
     5
420
      255
176
     1
290
     0
176
     1
 90
       50
176
     1
 90
       50
176
     1
 90
       50
176
     1
290
     0
176
     1
 90
       50
176
     1
 62
   256
176
     0
 40
1.0
176
     0
 90
        2
176
     1
  1
strokes_ogs.tif
176
     1
290
     0
176
     1
 40
1.0
176
     1
 40
1.0
176
     1
  0
VISUALSTYLE
  5
34
102
{ACAD_REACTORS
330
2A
102
}
330
2A
100
AcDbVisualStyle
  2
Conceptual
 70
     9
177
     3
291
     0
 70
    58
 90
        3
176
     1
 90
        2
176
     1
 90
        0
176
     1
 90
        0
176
     1
 40
0.6
176
     1
 40
30.0
176
     1
 62
     7
420
 16777215
176
     1
 90
        2
176
     1
 90
        2
176
     1
 62
     7
176
     1
 62
   257
176
     1
 90
        1
176
     1
 90
        1
176
     1
 40
179.0
176
     1
 90
        8
176
     1
 62
     7
176
     1
 40
1.0
176
     1
 90
        1
176
     1
 90
        6
176
     1
 90
        2
176
     1
 62
     7
176
     1
 90
        3
176
     1
 90
        0
176
     1
 90
        0
176
     1
290
     0
176
     1
 90
        1
176
     1
 40
0.0
176
     1
 90
        0
176
     1
290
     0
176
     1
290
     1
176
     1
290
     1
176
     1
290
     0
176
     1
290
     0
176
     1
290
     0
176
     1
290
     0
176
     1
290
     0
176
     1
290
     0
176
     1
 90
       50
176
     1
 40
0.0
176
     1
 40
1.0
176
     1
 90
        0
176
     1
 62
    18
420
        0
176
     1
 90
       50
176
     1
 90
        3
176
     1
 62
     5
420
      255
176
     1
290
     0
176
     1
 90
       50
176
     1
 90
       50
176
     1
 90
       50
176
     1
290
     0
176
     1
 90
       50
176
     1
 62
   256
176
     0
 40
1.0
176
     0
 90
        2
176
     1
  1
strokes_ogs.tif
176
     1
290
     0
176
     1
 40
1.0
176
     1
 40
1.0
176
     1
  0
VISUALSTYLE
  5
35
102
{ACAD_REACTORS
330
2A
102
}
330
2A
100
AcDbVisualStyle
  2
Dim
 70
    11
177
     3
291
     1
 70
    58
 90
        2
176
     1
 90
        2
176
     1
 90
        0
176
     1
 90
        0
176
     1
 40
0.6
176
     1
 40
30.0
176
     1
 62
     7
420
 16777215
176
     1
 90
        1
176
     1
 90
        4
176
     1
 62
     7
176
     1
 62
   257
176
     1
 90
        1
176
     1
 90
        1
176
     1
 40
1.0
176
     1
 90
        8
176
     1
 62
     7
176
     1
 40
1.0
176
     1
 90
        1
176
     1
 90
        6
176
     1
 90
        2
176
     1
 62
     7
176
     1
 90
        5
176
     1
 90
        0
176
     1
 90
        0
176
     1
290
     0
176
     1
 90
        1
176
     1
 40
-50.0
176
     1
 90
        0
176
     1
290
     0
176
     1
290
     1
176
     1
290
     1
176
     1
290
     0
176
     1
290
     0
176
     1
290
     0
176
     1
290
     0
176
     1
290
     0
176
     1
290
     0
176
     1
 90
       50
176
     1
 40
0.0
176
     1
 40
1.0
176
     1
 90
        0
176
     1
 62
    18
420
        0
176
     1
 90
       50
176
     1
 90
        3
176
     1
 62
     5
420
      255
176
     1
290
     0
176
     1
 90
       50
176
     1
 90
       50
176
     1
 90
       50
176
     1
290
     0
176
     1
 90
       50
176
     1
 62
   256
176
     0
 40
1.0
176
     0
 90
        2
176
     1
  1
strokes_ogs.tif
176
     1
290
     0
176
     1
 40
1.0
176
     1
 40
1.0
176
     1
  0
VISUALSTYLE
  5
3D
102
{ACAD_REACTORS
330
2A
102
}
330
2A
100
AcDbVisualStyle
  2
EdgeColorOff
 70
    22
177
     3
291
     1
 70
    58
 90
        2
176
     0
 90
        2
176
     0
 90
        0
176
     0
 90
        0
176
     0
 40
0.6
176
     0
 40
30.0
176
     0
 62
     7
420
 16777215
176
     0
 90
        1
176
     0
 90
        4
176
     0
 62
     7
176
     0
 62
   257
176
     0
 90
        1
176
     0
 90
        1
176
     0
 40
1.0
176
     0
 90
        8
176
     2
 62
     7
176
     0
 40
1.0
176
     0
 90
        1
176
     0
 90
        6
176
     0
 90
        2
176
     0
 62
     7
176
     0
 90
        5
176
     0
 90
        0
176
     0
 90
        0
176
     0
290
     0
176
     0
 90
        1
176
     0
 40
0.0
176
     0
 90
        0
176
     0
290
     0
176
     0
290
     1
176
     0
290
     1
176
     0
290
     0
176
     0
290
     0
176
     0
290
     0
176
     0
290
     0
176
     0
290
     0
176
     0
290
     0
176
     0
 90
       50
176
     0
 40
0.0
176
     0
 40
1.0
176
     0
 90
        0
176
     0
 62
    18
420
        0
176
     0
 90
       50
176
     0
 90
        3
176
     0
 62
     5
420
      255
176
     0
290
     0
176
     0
 90
       50
176
     0
 90
       50
176
     0
 90
       50
176
     0
290
     0
176
     0
 90
       50
176
     0
 62
   256
176
     0
 40
1.0
176
     0
 90
        2
176
     0
  1
strokes_ogs.tif
176
     0
290
     0
176
     0
 40
1.0
176
     0
 40
1.0
176
     0
  0
VISUALSTYLE
  5
39
102
{ACAD_REACTORS
330
2A
102
}
330
2A
100
AcDbVisualStyle
  2
Facepattern
 70
    15
177
     3
291
     1
 70
    58
 90
        2
176
     1
 90
        2
176
     1
 90
        0
176
     1
 90
        0
176
     1
 40
0.6
176
     1
 40
30.0
176
     1
 62
     7
420
 16777215
176
     1
 90
        1
176
     1
 90
        4
176
     1
 62
     7
176
     1
 62
   257
176
     1
 90
        1
176
     1
 90
        1
176
     1
 40
1.0
176
     1
 90
        8
176
     1
 62
     7
176
     1
 40
1.0
176
     1
 90
        1
176
     1
 90
        6
176
     1
 90
        2
176
     1
 62
     7
176
     1
 90
        5
176
     1
 90
        0
176
     1
 90
        0
176
     1
290
     0
176
     1
 90
        1
176
     1
 40
0.0
176
     1
 90
        0
176
     1
290
     0
176
     1
290
     1
176
     1
290
     1
176
     1
290
     0
176
     1
290
     0
176
     1
290
     0
176
     1
290
     0
176
     1
290
     0
176
     1
290
     0
176
     1
 90
       50
176
     1
 40
0.0
176
     1
 40
1.0
176
     1
 90
        0
176
     1
 62
    18
420
        0
176
     1
 90
       50
176
     1
 90
        3
176
     1
 62
     5
420
      255
176
     1
290
     0
176
     1
 90
       50
176
     1
 90
       50
176
     1
 90
       50
176
     1
290
     0
176
     1
 90
       50
176
     1
 62
   256
176
     0
 40
1.0
176
     0
 90
        2
176
     1
  1
strokes_ogs.tif
176
     1
290
     0
176
     1
 40
1.0
176
     1
 40
1.0
176
     1
  0
VISUALSTYLE
  5
2B
102
{ACAD_REACTORS
330
2A
102
}
330
2A
100
AcDbVisualStyle
  2
Flat
 70
     0
177
     3
291
     1
 70
    58
 90
        2
176
     1
 90
        1
176
     1
 90
        1
176
     1
 90
        2
176
     1
 40
0.6
176
     1
 40
30.0
176
     1
 62
     7
420
 16777215
176
     1
 90
        0
176
     1
 90
        0
176
     1
 62
     7
176
     1
 62
   257
176
     1
 90
        1
176
     1
 90
        1
176
     1
 40
1.0
176
     1
 90
        8
176
     1
 62
     7
176
     1
 40
1.0
176
     1
 90
        1
176
     1
 90
        6
176
     1
 90
        2
176
     1
 62
     7
176
     1
 90
        5
176
     1
 90
        0
176
     1
 90
        0
176
     1
290
     0
176
     1
 90
       13
176
     1
 40
0.0
176
     1
 90
        0
176
     1
290
     0
176
     1
290
     1
176
     1
290
     1
176
     1
290
     0
176
     1
290
     0
176
     1
290
     0
176
     1
290
     0
176
     1
290
     0
176
     1
290
     0
176
     1
 90
       50
176
     1
 40
0.0
176
     1
 40
1.0
176
     1
 90
        0
176
     1
 62
    18
420
        0
176
     1
 90
       50
176
     1
 90
        3
176
     1
 62
     5
420
      255
176
     1
290
     0
176
     1
 90
       50
176
     1
 90
       50
176
     1
 90
       50
176
     1
290
     0
176
     1
 90
       50
176
     1
 62
   256
176
     0
 40
1.0
176
     0
 90
        2
176
     1
  1
strokes_ogs.tif
176
     1
290
     0
176
     1
 40
1.0
176
     1
 40
1.0
176
     1
  0
VISUALSTYLE
  5
2C
102
{ACAD_REACTORS
330
2A
102
}
330
2A
100
AcDbVisualStyle
  2
FlatWithEdges
 70
     1
177
     3
291
     1
 70
    58
 90
        2
176
     1
 90
        1
176
     1
 90
        1
176
     1
 90
        2
176
     1
 40
0.6
176
     1
 40
30.0
176
     1
 62
     7
420
 16777215
176
     1
 90
        1
176
     1
 90
        0
176
     1
 62
     7
176
     1
 62
   257
176
     1
 90
        1
176
     1
 90
        1
176
     1
 40
1.0
176
     1
 90
        0
176
     1
 62
   257
176
     1
 40
1.0
176
     1
 90
        1
176
     1
 90
        6
176
     1
 90
        2
176
     1
 62
     7
176
     1
 90
        5
176
     1
 90
        0
176
     1
 90
        0
176
     1
290
     0
176
     1
 90
       13
176
     1
 40
0.0
176
     1
 90
        0
176
     1
290
     0
176
     1
290
     1
176
     1
290
     1
176
     1
290
     0
176
     1
290
     0
176
     1
290
     0
176
     1
290
     0
176
     1
290
     0
176
     1
290
     0
176
     1
 90
       50
176
     1
 40
0.0
176
     1
 40
1.0
176
     1
 90
        0
176
     1
 62
    18
420
        0
176
     1
 90
       50
176
     1
 90
        3
176
     1
 62
     5
420
      255
176
     1
290
     0
176
     1
 90
       50
176
     1
 90
       50
176
     1
 90
       50
176
     1
290
     0
176
     1
 90
       50
176
     1
 62
   256
176
     0
 40
1.0
176
     0
 90
        2
176
     1
  1
strokes_ogs.tif
176
     1
290
     0
176
     1
 40
1.0
176
     1
 40
1.0
176
     1
  0
VISUALSTYLE
  5
2D
102
{ACAD_REACTORS
330
2A
102
}
330
2A
100
AcDbVisualStyle
  2
Gouraud
 70
     2
177
     3
291
     1
 70
    58
 90
        2
176
     1
 90
        2
176
     1
 90
        1
176
     1
 90
        2
176
     1
 40
0.6
176
     1
 40
30.0
176
     1
 62
     7
420
 16777215
176
     1
 90
        0
176
     1
 90
        0
176
     1
 62
     7
176
     1
 62
   257
176
     1
 90
        1
176
     1
 90
        1
176
     1
 40
1.0
176
     1
 90
        0
176
     1
 62
     7
176
     1
 40
1.0
176
     1
 90
        1
176
     1
 90
        6
176
     1
 90
        2
176
     1
 62
     7
176
     1
 90
        5
176
     1
 90
        0
176
     1
 90
        0
176
     1
290
     0
176
     1
 90
       13
176
     1
 40
0.0
176
     1
 90
        0
176
     1
290
     0
176
     1
290
     1
176
     1
290
     1
176
     1
290
     0
176
     1
290
     0
176
     1
290
     0
176
     1
290
     0
176
     1
290
     0
176
     1
290
     0
176
     1
 90
       50
176
     1
 40
0.0
176
     1
 40
1.0
176
     1
 90
        0
176
     1
 62
    18
420
        0
176
     1
 90
       50
176
     1
 90
        3
176
     1
 62
     5
420
      255
176
     1
290
     0
176
     1
 90
       50
176
     1
 90
       50
176
     1
 90
       50
176
     1
290
     0
176
     1
 90
       50
176
     1
 62
   256
176
     0
 40
1.0
176
     0
 90
        2
176
     1
  1
strokes_ogs.tif
176
     1
290
     0
176
     1
 40
1.0
176
     1
 40
1.0
176
     1
  0
VISUALSTYLE
  5
2E
102
{ACAD_REACTORS
330
2A
102
}
330
2A
100
AcDbVisualStyle
  2
GouraudWithEdges
 70
     3
177
     3
291
     1
 70
    58
 90
        2
176
     1
 90
        2
176
     1
 90
        1
176
     1
 90
        2
176
     1
 40
0.6
176
     1
 40
30.0
176
     1
 62
     7
420
 16777215
176
     1
 90
        1
176
     1
 90
        0
176
     1
 62
     7
176
     1
 62
   257
176
     1
 90
        1
176
     1
 90
        1
176
     1
 40
1.0
176
     1
 90
        0
176
     1
 62
   257
176
     1
 40
1.0
176
     1
 90
        1
176
     1
 90
        6
176
     1
 90
        2
176
     1
 62
     7
176
     1
 90
        5
176
     1
 90
        0
176
     1
 90
        0
176
     1
290
     0
176
     1
 90
       13
176
     1
 40
0.0
176
     1
 90
        0
176
     1
290
     0
176
     1
290
     1
176
     1
290
     1
176
     1
290
     0
176
     1
290
     0
176
     1
290
     0
176
     1
290
     0
176
     1
290
     0
176
     1
290
     0
176
     1
 90
       50
176
     1
 40
0.0
176
     1
 40
1.0
176
     1
 90
        0
176
     1
 62
    18
420
        0
176
     1
 90
       50
176
     1
 90
        3
176
     1
 62
     5
420
      255
176
     1
290
     0
176
     1
 90
       50
176
     1
 90
       50
176
     1
 90
       50
176
     1
290
     0
176
     1
 90
       50
176
     1
 62
   256
176
     0
 40
1.0
176
     0
 90
        2
176
     1
  1
strokes_ogs.tif
176
     1
290
     0
176
     1
 40
1.0
176
     1
 40
1.0
176
     1
  0
VISUALSTYLE
  5
31
102
{ACAD_REACTORS
330
2A
102
}
330
2A
100
AcDbVisualStyle
  2
Hidden
 70
     6
177
     3
291
     0
 70
    58
 90
        1
176
     1
 90
        2
176
     1
 90
        2
176
     1
 90
        0
176
     1
 40
0.6
176
     1
 40
30.0
176
     1
 62
     7
420
 16777215
176
     1
 90
        2
176
     1
 90
        2
176
     1
 62
     7
176
     1
 62
   257
176
     1
 90
        2
176
     1
 90
        1
176
     1
 40
40.0
176
     1
 90
        0
176
     1
 62
   257
176
     1
 40
1.0
176
     1
 90
        1
176
     1
 90
        6
176
     1
 90
        2
176
     1
 62
     7
176
     1
 90
        3
176
     1
 90
        0
176
     1
 90
        0
176
     1
290
     0
176
     1
 90
        1
176
     1
 40
0.0
176
     1
 90
        0
176
     1
290
     0
176
     1
290
     1
176
     1
290
     1
176
     1
290
     0
176
     1
290
     0
176
     1
290
     0
176
     1
290
     0
176
     1
290
     0
176
     1
290
     0
176
     1
 90
       50
176
     1
 40
0.0
176
     1
 40
1.0
176
     1
 90
        0
176
     1
 62
    18
420
        0
176
     1
 90
       50
176
     1
 90
        3
176
     1
 62
     5
420
      255
176
     1
290
     0
176
     1
 90
       50
176
     1
 90
       50
176
     1
 90
       50
176
     1
290
     0
176
     1
 90
       50
176
     1
 62
   256
176
     0
 40
1.0
176
     0
 90
        2
176
     1
  1
strokes_ogs.tif
176
     1
290
     0
176
     1
 40
1.0
176
     1
 40
1.0
176
     1
  0
VISUALSTYLE
  5
3B
102
{ACAD_REACTORS
330
2A
102
}
330
2A
100
AcDbVisualStyle
  2
JitterOff
 70
    20
177
     3
291
     1
 70
    58
 90
        2
176
     0
 90
        2
176
     0
 90
        0
176
     0
 90
        0
176
     0
 40
0.6
176
     0
 40
30.0
176
     0
 62
     7
420
 16777215
176
     0
 90
        1
176
     0
 90
        4
176
     0
 62
     7
176
     0
 62
   257
176
     0
 90
        1
176
     0
 90
        1
176
     0
 40
1.0
176
     0
 90
       10
176
     2
 62
     7
176
     0
 40
1.0
176
     0
 90
        1
176
     0
 90
        6
176
     0
 90
        2
176
     0
 62
     7
176
     0
 90
        5
176
     0
 90
        0
176
     0
 90
        0
176
     0
290
     0
176
     0
 90
        1
176
     0
 40
0.0
176
     0
 90
        0
176
     0
290
     0
176
     0
290
     1
176
     0
290
     1
176
     0
290
     0
176
     0
290
     0
176
     0
290
     0
176
     0
290
     0
176
     0
290
     0
176
     0
290
     0
176
     0
 90
       50
176
     0
 40
0.0
176
     0
 40
1.0
176
     0
 90
        0
176
     0
 62
    18
420
        0
176
     0
 90
       50
176
     0
 90
        3
176
     0
 62
     5
420
      255
176
     0
290
     0
176
     0
 90
       50
176
     0
 90
       50
176
     0
 90
       50
176
     0
290
     0
176
     0
 90
       50
176
     0
 62
   256
176
     0
 40
1.0
176
     0
 90
        2
176
     0
  1
strokes_ogs.tif
176
     0
290
     0
176
     0
 40
1.0
176
     0
 40
1.0
176
     0
  0
VISUALSTYLE
  5
38
102
{ACAD_REACTORS
330
2A
102
}
330
2A
100
AcDbVisualStyle
  2
Linepattern
 70
    14
177
     3
291
     1
 70
    58
 90
        2
176
     1
 90
        2
176
     1
 90
        0
176
     1
 90
        0
176
     1
 40
0.6
176
     1
 40
30.0
176
     1
 62
     7
420
 16777215
176
     1
 90
        1
176
     1
 90
        4
176
     1
 62
     7
176
     1
 62
   257
176
     1
 90
        7
176
     1
 90
        7
176
     1
 40
1.0
176
     1
 90
        8
176
     1
 62
     7
176
     1
 40
1.0
176
     1
 90
        1
176
     1
 90
        6
176
     1
 90
        2
176
     1
 62
     7
176
     1
 90
        5
176
     1
 90
        0
176
     1
 90
        0
176
     1
290
     0
176
     1
 90
        1
176
     1
 40
0.0
176
     1
 90
        0
176
     1
290
     0
176
     1
290
     1
176
     1
290
     1
176
     1
290
     0
176
     1
290
     0
176
     1
290
     0
176
     1
290
     0
176
     1
290
     0
176
     1
290
     0
176
     1
 90
       50
176
     1
 40
0.0
176
     1
 40
1.0
176
     1
 90
        0
176
     1
 62
    18
420
        0
176
     1
 90
       50
176
     1
 90
        3
176
     1
 62
     5
420
      255
176
     1
290
     0
176
     1
 90
       50
176
     1
 90
       50
176
     1
 90
       50
176
     1
290
     0
176
     1
 90
       50
176
     1
 62
   256
176
     0
 40
1.0
176
     0
 90
        2
176
     1
  1
strokes_ogs.tif
176
     1
290
     0
176
     1
 40
1.0
176
     1
 40
1.0
176
     1
  0
VISUALSTYLE
  5
3C
102
{ACAD_REACTORS
330
2A
102
}
330
2A
100
AcDbVisualStyle
  2
OverhangOff
 70
    21
177
     3
291
     1
 70
    58
 90
        2
176
     0
 90
        2
176
     0
 90
        0
176
     0
 90
        0
176
     0
 40
0.6
176
     0
 40
30.0
176
     0
 62
     7
420
 16777215
176
     0
 90
        1
176
     0
 90
        4
176
     0
 62
     7
176
     0
 62
   257
176
     0
 90
        1
176
     0
 90
        1
176
     0
 40
1.0
176
     0
 90
        9
176
     2
 62
     7
176
     0
 40
1.0
176
     0
 90
        1
176
     0
 90
        6
176
     0
 90
        2
176
     0
 62
     7
176
     0
 90
        5
176
     0
 90
        0
176
     0
 90
        0
176
     0
290
     0
176
     0
 90
        1
176
     0
 40
0.0
176
     0
 90
        0
176
     0
290
     0
176
     0
290
     1
176
     0
290
     1
176
     0
290
     0
176
     0
290
     0
176
     0
290
     0
176
     0
290
     0
176
     0
290
     0
176
     0
290
     0
176
     0
 90
       50
176
     0
 40
0.0
176
     0
 40
1.0
176
     0
 90
        0
176
     0
 62
    18
420
        0
176
     0
 90
       50
176
     0
 90
        3
176
     0
 62
     5
420
      255
176
     0
290
     0
176
     0
 90
       50
176
     0
 90
       50
176
     0
 90
       50
176
     0
290
     0
176
     0
 90
       50
176
     0
 62
   256
176
     0
 40
1.0
176
     0
 90
        2
176
     0
  1
strokes_ogs.tif
176
     0
290
     0
176
     0
 40
1.0
176
     0
 40
1.0
176
     0
  0
VISUALSTYLE
  5
33
102
{ACAD_REACTORS
330
2A
102
}
330
2A
100
AcDbVisualStyle
  2
Realistic
 70
     8
177
     3
291
     0
 70
    58
 90
        2
176
     1
 90
        3
176
     1
 90
        0
176
     1
 90
        2
176
     1
 40
0.6
176
     1
 40
30.0
176
     1
 62
     7
420
 16777215
176
     1
 90
        0
176
     1
 90
        0
176
     1
 62
     7
176
     1
 62
   257
176
     1
 90
        1
176
     1
 90
        1
176
     1
 40
1.0
176
     1
 90
        8
176
     1
 62
   257
176
     1
 40
1.0
176
     1
 90
        1
176
     1
 90
        6
176
     1
 90
        2
176
     1
 62
     7
176
     1
 90
        3
176
     1
 90
        0
176
     1
 90
        0
176
     1
290
     0
176
     1
 90
       13
176
     1
 40
0.0
176
     1
 90
        0
176
     1
290
     0
176
     1
290
     1
176
     1
290
     1
176
     1
290
     0
176
     1
290
     0
176
     1
290
     0
176
     1
290
     0
176
     1
290
     0
176
     1
290
     0
176
     1
 90
       50
176
     1
 40
0.0
176
     1
 40
1.0
176
     1
 90
        0
176
     1
 62
    18
420
        0
176
     1
 90
       50
176
     1
 90
        3
176
     1
 62
     5
420
      255
176
     1
290
     0
176
     1
 90
       50
176
     1
 90
       50
176
     1
 90
       50
176
     1
290
     0
176
     1
 90
       50
176
     1
 62
   256
176
     0
 40
1.0
176
     0
 90
        2
176
     1
  1
strokes_ogs.tif
176
     1
290
     0
176
     1
 40
1.0
176
     1
 40
1.0
176
     1
  0
VISUALSTYLE
  5
42
102
{ACAD_REACTORS
330
2A
102
}
330
2A
100
AcDbVisualStyle
  2
Shaded
 70
    27
177
     3
291
     0
 70
    58
 90
        2
176
     1
 90
        2
176
     1
 90
        1
176
     1
 90
        2
176
     1
 40
0.6
176
     1
 40
30.0
176
     1
 62
     7
420
 16777215
176
     1
 90
        0
176
     1
 90
        4
176
     1
 62
     7
176
     1
 62
   257
176
     1
 90
        1
176
     1
 90
        1
176
     1
 40
1.0
176
     1
 90
        8
176
     1
 62
   257
176
     1
 40
1.0
176
     1
 90
        1
176
     1
 90
        6
176
     1
 90
        2
176
     1
 62
     8
420
  7895160
176
     1
 90
        3
176
     1
 90
        0
176
     1
 90
        0
176
     1
290
     0
176
     1
 90
        5
176
     1
 40
0.0
176
     1
 90
        0
176
     1
290
     0
176
     1
290
     1
176
     1
290
     1
176
     1
290
     0
176
     1
290
     0
176
     1
290
     0
176
     1
290
     0
176
     1
290
     0
176
     1
290
     0
176
     1
 90
       50
176
     1
 40
0.0
176
     1
 40
1.0
176
     1
 90
        0
176
     1
 62
    18
420
        0
176
     1
 90
       50
176
     1
 90
        3
176
     1
 62
     5
420
      255
176
     1
290
     0
176
     1
 90
       50
176
     1
 90
       50
176
     1
 90
       50
176
     1
290
     0
176
     1
 90
       50
176
     1
 62
   256
176
     0
 40
1.0
176
     0
 90
        2
176
     1
  1
strokes_ogs.tif
176
     1
290
     0
176
     1
 40
1.0
176
     1
 40
1.0
176
     1
  0
VISUALSTYLE
  5
41
102
{ACAD_REACTORS
330
2A
102
}
330
2A
100
AcDbVisualStyle
  2
Shaded with edges
 70
    26
177
     3
291
     0
 70
    58
 90
        2
176
     1
 90
        2
176
     1
 90
        1
176
     1
 90
        2
176
     1
 40
0.6
176
     1
 40
30.0
176
     1
 62
     7
420
 16777215
176
     1
 90
        1
176
     1
 90
       10
176
     1
 62
     7
176
     1
 62
   257
176
     1
 90
        2
176
     1
 90
        1
176
     1
 40
1.0
176
     1
 90
        8
176
     1
 62
   257
176
     1
 40
1.0
176
     1
 90
        1
176
     1
 90
        6
176
     1
 90
        2
176
     1
 62
     7
176
     1
 90
        3
176
     1
 90
        0
176
     1
 90
        0
176
     1
290
     0
176
     1
 90
        5
176
     1
 40
0.0
176
     1
 90
        0
176
     1
290
     0
176
     1
290
     1
176
     1
290
     1
176
     1
290
     0
176
     1
290
     0
176
     1
290
     0
176
     1
290
     0
176
     1
290
     0
176
     1
290
     0
176
     1
 90
       50
176
     1
 40
0.0
176
     1
 40
1.0
176
     1
 90
        0
176
     1
 62
    18
420
        0
176
     1
 90
       50
176
     1
 90
        3
176
     1
 62
     5
420
      255
176
     1
290
     0
176
     1
 90
       50
176
     1
 90
       50
176
     1
 90
       50
176
     1
290
     0
176
     1
 90
       50
176
     1
 62
   256
176
     0
 40
1.0
176
     0
 90
        2
176
     1
  1
strokes_ogs.tif
176
     1
290
     0
176
     1
 40
1.0
176
     1
 40
1.0
176
     1
  0
VISUALSTYLE
  5
3E
102
{ACAD_REACTORS
330
2A
102
}
330
2A
100
AcDbVisualStyle
  2
Shades of Gray
 70
    23
177
     3
291
     0
 70
    58
 90
        2
176
     1
 90
        2
176
     1
 90
        3
176
     1
 90
        0
176
     1
 40
0.6
176
     1
 40
30.0
176
     1
 62
     7
420
 16777215
176
     1
 90
        2
176
     1
 90
        2
176
     1
 62
     7
176
     1
 62
     7
176
     1
 90
        1
176
     1
 90
        1
176
     1
 40
40.0
176
     1
 90
        8
176
     1
 62
     7
176
     1
 40
1.0
176
     1
 90
        1
176
     1
 90
        6
176
     1
 90
        2
176
     1
 62
     7
176
     1
 90
        3
176
     1
 90
        0
176
     1
 90
        0
176
     1
290
     0
176
     1
 90
        1
176
     1
 40
0.0
176
     1
 90
        0
176
     1
290
     0
176
     1
290
     1
176
     1
290
     1
176
     1
290
     0
176
     1
290
     0
176
     1
290
     0
176
     1
290
     0
176
     1
290
     0
176
     1
290
     0
176
     1
 90
       50
176
     1
 40
0.0
176
     1
 40
1.0
176
     1
 90
        0
176
     1
 62
    18
420
        0
176
     1
 90
       50
176
     1
 90
        3
176
     1
 62
     5
420
      255
176
     1
290
     0
176
     1
 90
       50
176
     1
 90
       50
176
     1
 90
       50
176
     1
290
     0
176
     1
 90
       50
176
     1
 62
   256
176
     0
 40
1.0
176
     0
 90
        2
176
     1
  1
strokes_ogs.tif
176
     1
290
     0
176
     1
 40
1.0
176
     1
 40
1.0
176
     1
  0
VISUALSTYLE
  5
3F
102
{ACAD_REACTORS
330
2A
102
}
330
2A
100
AcDbVisualStyle
  2
Sketchy
 70
    24
177
     3
291
     0
 70
    58
 90
        1
176
     1
 90
        2
176
     1
 90
        2
176
     1
 90
        0
176
     1
 40
0.6
176
     1
 40
30.0
176
     1
 62
     7
420
 16777215
176
     1
 90
        2
176
     1
 90
        2
176
     1
 62
     7
176
     1
 62
     7
176
     1
 90
        1
176
     1
 90
        1
176
     1
 40
40.0
176
     1
 90
       11
176
     1
 62
     7
176
     1
 40
1.0
176
     1
 90
        1
176
     1
 90
        6
176
     1
 90
        2
176
     1
 62
     7
176
     1
 90
        6
176
     1
 90
        0
176
     1
 90
        0
176
     1
290
     0
176
     1
 90
        1
176
     1
 40
0.0
176
     1
 90
        0
176
     1
290
     0
176
     1
290
     1
176
     1
290
     1
176
     1
290
     0
176
     1
290
     0
176
     1
290
     0
176
     1
290
     0
176
     1
290
     0
176
     1
290
     0
176
     1
 90
       50
176
     1
 40
0.0
176
     1
 40
1.0
176
     1
 90
        0
176
     1
 62
    18
420
        0
176
     1
 90
       50
176
     1
 90
        3
176
     1
 62
     5
420
      255
176
     1
290
     0
176
     1
 90
       50
176
     1
 90
       50
176
     1
 90
       50
176
     1
290
     0
176
     1
 90
       50
176
     1
 62
   256
176
     0
 40
1.0
176
     0
 90
        2
176
     1
  1
strokes_ogs.tif
176
     1
290
     0
176
     1
 40
1.0
176
     1
 40
1.0
176
     1
  0
VISUALSTYLE
  5
37
102
{ACAD_REACTORS
330
2A
102
}
330
2A
100
AcDbVisualStyle
  2
Thicken
 70
    13
177
     3
291
     1
 70
    58
 90
        2
176
     1
 90
        2
176
     1
 90
        0
176
     1
 90
        0
176
     1
 40
0.6
176
     1
 40
30.0
176
     1
 62
     7
420
 16777215
176
     1
 90
        1
176
     1
 90
        4
176
     1
 62
     7
176
     1
 62
   257
176
     1
 90
        1
176
     1
 90
        1
176
     1
 40
1.0
176
     1
 90
       12
176
     1
 62
     7
176
     1
 40
1.0
176
     1
 90
        1
176
     1
 90
        6
176
     1
 90
        2
176
     1
 62
     7
176
     1
 90
        5
176
     1
 90
        0
176
     1
 90
        0
176
     1
290
     0
176
     1
 90
        1
176
     1
 40
0.0
176
     1
 90
        0
176
     1
290
     0
176
     1
290
     1
176
     1
290
     1
176
     1
290
     0
176
     1
290
     0
176
     1
290
     0
176
     1
290
     0
176
     1
290
     0
176
     1
290
     0
176
     1
 90
       50
176
     1
 40
0.0
176
     1
 40
1.0
176
     1
 90
        0
176
     1
 62
    18
420
        0
176
     1
 90
       50
176
     1
 90
        3
176
     1
 62
     5
420
      255
176
     1
290
     0
176
     1
 90
       50
176
     1
 90
       50
176
     1
 90
       50
176
     1
290
     0
176
     1
 90
       50
176
     1
 62
   256
176
     0
 40
1.0
176
     0
 90
        2
176
     1
  1
strokes_ogs.tif
176
     1
290
     0
176
     1
 40
1.0
176
     1
 40
1.0
176
     1
  0
VISUALSTYLE
  5
30
102
{ACAD_REACTORS
330
2A
102
}
330
2A
100
AcDbVisualStyle
  2
Wireframe
 70
     5
177
     3
291
     0
 70
    58
 90
        0
176
     1
 90
        2
176
     1
 90
        0
176
     1
 90
        0
176
     1
 40
0.6
176
     1
 40
30.0
176
     1
 62
     7
420
 16777215
176
     1
 90
        1
176
     1
 90
        4
176
     1
 62
     7
176
     1
 62
   257
176
     1
 90
        1
176
     1
 90
        1
176
     1
 40
1.0
176
     1
 90
        0
176
     1
 62
   257
176
     1
 40
1.0
176
     1
 90
        1
176
     1
 90
        6
176
     1
 90
        2
176
     1
 62
     7
176
     1
 90
        3
176
     1
 90
        0
176
     1
 90
        0
176
     1
290
     0
176
     1
 90
        1
176
     1
 40
0.0
176
     1
 90
        0
176
     1
290
     0
176
     1
290
     1
176
     1
290
     1
176
     1
290
     0
176
     1
290
     0
176
     1
290
     0
176
     1
290
     0
176
     1
290
     0
176
     1
290
     0
176
     1
 90
       50
176
     1
 40
0.0
176
     1
 40
1.0
176
     1
 90
        0
176
     1
 62
    18
420
        0
176
     1
 90
       50
176
     1
 90
        3
176
     1
 62
     5
420
      255
176
     1
290
     0
176
     1
 90
       50
176
     1
 90
       50
176
     1
 90
       50
176
     1
290
     0
176
     1
 90
       50
176
     1
 62
   256
176
     0
 40
1.0
176
     0
 90
        2
176
     1
  1
strokes_ogs.tif
176
     1
290
     0
176
     1
 40
1.0
176
     1
 40
1.0
176
     1
  0
VISUALSTYLE
  5
40
102
{ACAD_REACTORS
330
2A
102
}
330
2A
100
AcDbVisualStyle
  2
X-Ray
 70
    25
177
     3
291
     0
 70
    58
 90
        2
176
     1
 90
        2
176
     1
 90
        1
176
     1
 90
        1
176
     1
 40
0.5
176
     1
 40
30.0
176
     1
 62
     7
420
 16777215
176
     1
 90
        1
176
     1
 90
        0
176
     1
 62
     7
176
     1
 62
   257
176
     1
 90
        1
176
     1
 90
        1
176
     1
 40
1.0
176
     1
 90
        8
176
     1
 62
     7
176
     1
 40
1.0
176
     1
 90
        1
176
     1
 90
        6
176
     1
 90
        2
176
     1
 62
     7
176
     1
 90
        3
176
     1
 90
        0
176
     1
 90
        0
176
     1
290
     0
176
     1
 90
       13
176
     1
 40
0.0
176
     1
 90
        0
176
     1
290
     0
176
     1
290
     1
176
     1
290
     1
176
     1
290
     0
176
     1
290
     0
176
     1
290
     0
176
     1
290
     0
176
     1
290
     0
176
     1
290
     0
176
     1
 90
       50
176
     1
 40
0.0
176
     1
 40
1.0
176
     1
 90
        0
176
     1
 62
    18
420
        0
176
     1
 90
       50
176
     1
 90
        3
176
     1
 62
     5
420
      255
176
     1
290
     0
176
     1
 90
       50
176
     1
 90
       50
176
     1
 90
       50
176
     1
290
     0
176
     1
 90
       50
176
     1
 62
   256
176
     0
 40
1.0
176
     0
 90
        2
176
     1
  1
strokes_ogs.tif
176
     1
290
     0
176
     1
 40
1.0
176
     1
 40
1.0
176
     1
  0
DICTIONARYVAR
  5
D9
102
{ACAD_REACTORS
330
D8
102
}
330
D8
100
DictionaryVariables
280
     0
  1
1:1
  0
DICTIONARYVAR
  5
DE
102
{ACAD_REACTORS
330
D8
102
}
330
D8
100
DictionaryVariables
280
     0
  1
Standard
  0
DICTIONARYVAR
  5
DD
102
{ACAD_REACTORS
330
D8
102
}
330
D8
100
DictionaryVariables
280
     0
  1
Standard
  0
DICTIONARY
  5
DA
330
5A
100
AcDbDictionary
280
     1
281
     1
  3
ACAD_ROUNDTRIP_2008_TABLESTYLE_CELLSTYLEMAP
360
DB
  0
CELLSTYLEMAP
  5
DB
102
{ACAD_REACTORS
330
DA
102
}
330
DA
100
AcDbCellStyleMap
 90
        3
300
CELLSTYLE
  1
TABLEFORMAT_BEGIN
 90
        5
170
     1
 91
        0
 92
    32768
 62
   257
 93
        1
300
CONTENTFORMAT
  1
CONTENTFORMAT_BEGIN
 90
        0
 91
        0
 92
        4
 93
        0
300

 40
0.0
140
1.0
 94
        5
 62
     0
340
11
144
0.25
309
CONTENTFORMAT_END
171
     1
301
MARGIN
  1
CELLMARGIN_BEGIN
 40
0.06
 40
0.06
 40
0.06
 40
0.06
 40
0.06
 40
0.06
309
CELLMARGIN_END
 94
        6
 95
        1
302
GRIDFORMAT
  1
GRIDFORMAT_BEGIN
 90
        0
 91
        1
 62
     0
 92
       -2
340
14
 93
        0
 40
0.045
309
GRIDFORMAT_END
 95
        2
302
GRIDFORMAT
  1
GRIDFORMAT_BEGIN
 90
        0
 91
        1
 62
     0
 92
       -2
340
14
 93
        0
 40
0.045
309
GRIDFORMAT_END
 95
        4
302
GRIDFORMAT
  1
GRIDFORMAT_BEGIN
 90
        0
 91
        1
 62
     0
 92
       -2
340
14
 93
        0
 40
0.045
309
GRIDFORMAT_END
 95
        8
302
GRIDFORMAT
  1
GRIDFORMAT_BEGIN
 90
        0
 91
        1
 62
     0
 92
       -2
340
14
 93
        0
 40
0.045
309
GRIDFORMAT_END
 95
       16
302
GRIDFORMAT
  1
GRIDFORMAT_BEGIN
 90
        0
 91
        1
 62
     0
 92
       -2
340
14
 93
        0
 40
0.045
309
GRIDFORMAT_END
 95
       32
302
GRIDFORMAT
  1
GRIDFORMAT_BEGIN
 90
        0
 91
        1
 62
     0
 92
       -2
340
14
 93
        0
 40
0.045
309
GRIDFORMAT_END
309
TABLEFORMAT_END
  1
CELLSTYLE_BEGIN
 90
        1
 91
        1
300
_TITLE
309
CELLSTYLE_END
300
CELLSTYLE
  1
TABLEFORMAT_BEGIN
 90
        5
170
     1
 91
        0
 92
        0
 62
   257
 93
        1
300
CONTENTFORMAT
  1
CONTENTFORMAT_BEGIN
 90
        0
 91
        0
 92
        4
 93
        0
300

 40
0.0
140
1.0
 94
        5
 62
     0
340
11
144
0.18
309
CONTENTFORMAT_END
171
     1
301
MARGIN
  1
CELLMARGIN_BEGIN
 40
0.06
 40
0.06
 40
0.06
 40
0.06
 40
0.06
 40
0.06
309
CELLMARGIN_END
 94
        6
 95
        1
302
GRIDFORMAT
  1
GRIDFORMAT_BEGIN
 90
        0
 91
        1
 62
     0
 92
       -2
340
14
 93
        0
 40
0.045
309
GRIDFORMAT_END
 95
        2
302
GRIDFORMAT
  1
GRIDFORMAT_BEGIN
 90
        0
 91
        1
 62
     0
 92
       -2
340
14
 93
        0
 40
0.045
309
GRIDFORMAT_END
 95
        4
302
GRIDFORMAT
  1
GRIDFORMAT_BEGIN
 90
        0
 91
        1
 62
     0
 92
       -2
340
14
 93
        0
 40
0.045
309
GRIDFORMAT_END
 95
        8
302
GRIDFORMAT
  1
GRIDFORMAT_BEGIN
 90
        0
 91
        1
 62
     0
 92
       -2
340
14
 93
        0
 40
0.045
309
GRIDFORMAT_END
 95
       16
302
GRIDFORMAT
  1
GRIDFORMAT_BEGIN
 90
        0
 91
        1
 62
     0
 92
       -2
340
14
 93
        0
 40
0.045
309
GRIDFORMAT_END
 95
       32
302
GRIDFORMAT
  1
GRIDFORMAT_BEGIN
 90
        0
 91
        1
 62
     0
 92
       -2
340
14
 93
        0
 40
0.045
309
GRIDFORMAT_END
309
TABLEFORMAT_END
  1
CELLSTYLE_BEGIN
 90
        2
 91
        1
300
_HEADER
309
CELLSTYLE_END
300
CELLSTYLE
  1
TABLEFORMAT_BEGIN
 90
        5
170
     1
 91
        0
 92
        0
 62
   257
 93
        1
300
CONTENTFORMAT
  1
CONTENTFORMAT_BEGIN
 90
        0
 91
        0
 92
        4
 93
        0
300

 40
0.0
140
1.0
 94
        2
 62
     0
340
11
144
0.18
309
CONTENTFORMAT_END
171
     1
301
MARGIN
  1
CELLMARGIN_BEGIN
 40
0.06
 40
0.06
 40
0.06
 40
0.06
 40
0.06
 40
0.06
309
CELLMARGIN_END
 94
        6
 95
        1
302
GRIDFORMAT
  1
GRIDFORMAT_BEGIN
 90
        0
 91
        1
 62
     0
 92
       -2
340
14
 93
        0
 40
0.045
309
GRIDFORMAT_END
 95
        2
302
GRIDFORMAT
  1
GRIDFORMAT_BEGIN
 90
        0
 91
        1
 62
     0
 92
       -2
340
14
 93
        0
 40
0.045
309
GRIDFORMAT_END
 95
        4
302
GRIDFORMAT
  1
GRIDFORMAT_BEGIN
 90
        0
 91
        1
 62
     0
 92
       -2
340
14
 93
        0
 40
0.045
309
GRIDFORMAT_END
 95
        8
302
GRIDFORMAT
  1
GRIDFORMAT_BEGIN
 90
        0
 91
        1
 62
     0
 92
       -2
340
14
 93
        0
 40
0.045
309
GRIDFORMAT_END
 95
       16
302
GRIDFORMAT
  1
GRIDFORMAT_BEGIN
 90
        0
 91
        1
 62
     0
 92
       -2
340
14
 93
        0
 40
0.045
309
GRIDFORMAT_END
 95
       32
302
GRIDFORMAT
  1
GRIDFORMAT_BEGIN
 90
        0
 91
        1
 62
     0
 92
       -2
340
14
 93
        0
 40
0.045
309
GRIDFORMAT_END
309
TABLEFORMAT_END
  1
CELLSTYLE_BEGIN
 90
        3
 91
        2
300
_DATA
309
CELLSTYLE_END
  0
ENDSEC
  0
EOF
