  0
SECTION
  2
HEADER
  9
$ACADVER
  1
AC1027
  9
$ACADMAINTVER
 70
   105
  9
$DWGCODEPAGE
  3
ANSI_1252
  9
$LASTSAVEDBY
  1
Office Desk
  9
$REQUIREDVERSIONS
160
                 0
  9
$INSBASE
 10
0.0
 20
0.0
 30
0.0
  9
$EXTMIN
 10
-872.6585
 20
-64.9053
 30
0.0
  9
$EXTMAX
 10
-444.1889
 20
284.0359
 30
0.0
  9
$LIMMIN
 10
0.0
 20
0.0
  9
$LIMMAX
 10
12.0
 20
9.0
  9
$ORTHOMODE
 70
     0
  9
$REGENMODE
 70
     1
  9
$FILLMODE
 70
     1
  9
$QTEXTMODE
 70
     0
  9
$MIRRTEXT
 70
     1
  9
$LTSCALE
 40
1.0
  9
$ATTMODE
 70
     1
  9
$TEXTSIZE
 40
0.2
  9
$TRACEWID
 40
0.05
  9
$TEXTSTYLE
  7
Standard
  9
$CLAYER
  8
0
  9
$CELTYPE
  6
ByLayer
  9
$CECOLOR
 62
   256
  9
$CELTSCALE
 40
1.0
  9
$DISPSILH
 70
     0
  9
$DIMSCALE
 40
1.0
  9
$DIMASZ
 40
0.18
  9
$DIMEXO
 40
0.0625
  9
$DIMDLI
 40
0.38
  9
$DIMRND
 40
0.0
  9
$DIMDLE
 40
0.0
  9
$DIMEXE
 40
0.18
  9
$DIMTP
 40
0.0
  9
$DIMTM
 40
0.0
  9
$DIMTXT
 40
0.18
  9
$DIMCEN
 40
0.09
  9
$DIMTSZ
 40
0.0
  9
$DIMTOL
 70
     0
  9
$DIMLIM
 70
     0
  9
$DIMTIH
 70
     1
  9
$DIMTOH
 70
     1
  9
$DIMSE1
 70
     0
  9
$DIMSE2
 70
     0
  9
$DIMTAD
 70
     0
  9
$DIMZIN
 70
     0
  9
$DIMBLK
  1

  9
$DIMASO
 70
     1
  9
$DIMSHO
 70
     1
  9
$DIMPOST
  1

  9
$DIMAPOST
  1

  9
$DIMALT
 70
     0
  9
$DIMALTD
 70
     2
  9
$DIMALTF
 40
25.4
  9
$DIMLFAC
 40
1.0
  9
$DIMTOFL
 70
     0
  9
$DIMTVP
 40
0.0
  9
$DIMTIX
 70
     0
  9
$DIMSOXD
 70
     0
  9
$DIMSAH
 70
     0
  9
$DIMBLK1
  1

  9
$DIMBLK2
  1

  9
$DIMSTYLE
  2
Standard
  9
$DIMCLRD
 70
     0
  9
$DIMCLRE
 70
     0
  9
$DIMCLRT
 70
     0
  9
$DIMTFAC
 40
1.0
  9
$DIMGAP
 40
0.09
  9
$DIMJUST
 70
     0
  9
$DIMSD1
 70
     0
  9
$DIMSD2
 70
     0
  9
$DIMTOLJ
 70
     1
  9
$DIMTZIN
 70
     0
  9
$DIMALTZ
 70
     0
  9
$DIMALTTZ
 70
     0
  9
$DIMUPT
 70
     0
  9
$DIMDEC
 70
     4
  9
$DIMTDEC
 70
     4
  9
$DIMALTU
 70
     2
  9
$DIMALTTD
 70
     2
  9
$DIMTXSTY
  7
Standard
  9
$DIMAUNIT
 70
     0
  9
$DIMADEC
 70
     0
  9
$DIMALTRND
 40
0.0
  9
$DIMAZIN
 70
     0
  9
$DIMDSEP
 70
    46
  9
$DIMATFIT
 70
     3
  9
$DIMFRAC
 70
     0
  9
$DIMLDRBLK
  1

  9
$DIMLUNIT
 70
     2
  9
$DIMLWD
 70
    -2
  9
$DIMLWE
 70
    -2
  9
$DIMTMOVE
 70
     0
  9
$DIMFXL
 40
1.0
  9
$DIMFXLON
 70
     0
  9
$DIMJOGANG
 40
0.7853981633974483
  9
$DIMTFILL
 70
     0
  9
$DIMTFILLCLR
 70
     0
  9
$DIMARCSYM
 70
     0
  9
$DIMLTYPE
  6

  9
$DIMLTEX1
  6

  9
$DIMLTEX2
  6

  9
$DIMTXTDIRECTION
 70
     0
  9
$LUNITS
 70
     2
  9
$LUPREC
 70
     4
  9
$SKETCHINC
 40
0.1
  9
$FILLETRAD
 40
0.0
  9
$AUNITS
 70
     0
  9
$AUPREC
 70
     0
  9
$MENU
  1
.
  9
$ELEVATION
 40
0.0
  9
$PELEVATION
 40
0.0
  9
$THICKNESS
 40
0.0
  9
$LIMCHECK
 70
     0
  9
$CHAMFERA
 40
0.0
  9
$CHAMFERB
 40
0.0
  9
$CHAMFERC
 40
0.0
  9
$CHAMFERD
 40
0.0
  9
$SKPOLY
 70
     0
  9
$TDCREATE
 40
2461016.694344699
  9
$TDUCREATE
 40
2461016.465178033
  9
$TDUPDATE
 40
2461016.694344792
  9
$TDUUPDATE
 40
2461016.465178125
  9
$TDINDWG
 40
0.0000000116
  9
$TDUSRTIMER
 40
0.0000000116
  9
$USRTIMER
 70
     1
  9
$ANGBASE
 50
0.0
  9
$ANGDIR
 70
     0
  9
$PDMODE
 70
     0
  9
$PDSIZE
 40
0.0
  9
$PLINEWID
 40
0.0
  9
$SPLFRAME
 70
     0
  9
$SPLINETYPE
 70
     6
  9
$SPLINESEGS
 70
     8
  9
$HANDSEED
  5
114
  9
$SURFTAB1
 70
     6
  9
$SURFTAB2
 70
     6
  9
$SURFTYPE
 70
     6
  9
$SURFU
 70
     6
  9
$SURFV
 70
     6
  9
$UCSBASE
  2

  9
$UCSNAME
  2

  9
$UCSORG
 10
0.0
 20
0.0
 30
0.0
  9
$UCSXDIR
 10
1.0
 20
0.0
 30
0.0
  9
$UCSYDIR
 10
0.0
 20
1.0
 30
0.0
  9
$UCSORTHOREF
  2

  9
$UCSORTHOVIEW
 70
     0
  9
$UCSORGTOP
 10
0.0
 20
0.0
 30
0.0
  9
$UCSORGBOTTOM
 10
0.0
 20
0.0
 30
0.0
  9
$UCSORGLEFT
 10
0.0
 20
0.0
 30
0.0
  9
$UCSORGRIGHT
 10
0.0
 20
0.0
 30
0.0
  9
$UCSORGFRONT
 10
0.0
 20
0.0
 30
0.0
  9
$UCSORGBACK
 10
0.0
 20
0.0
 30
0.0
  9
$PUCSBASE
  2

  9
$PUCSNAME
  2

  9
$PUCSORG
 10
0.0
 20
0.0
 30
0.0
  9
$PUCSXDIR
 10
1.0
 20
0.0
 30
0.0
  9
$PUCSYDIR
 10
0.0
 20
1.0
 30
0.0
  9
$PUCSORTHOREF
  2

  9
$PUCSORTHOVIEW
 70
     0
  9
$PUCSORGTOP
 10
0.0
 20
0.0
 30
0.0
  9
$PUCSORGBOTTOM
 10
0.0
 20
0.0
 30
0.0
  9
$PUCSORGLEFT
 10
0.0
 20
0.0
 30
0.0
  9
$PUCSORGRIGHT
 10
0.0
 20
0.0
 30
0.0
  9
$PUCSORGFRONT
 10
0.0
 20
0.0
 30
0.0
  9
$PUCSORGBACK
 10
0.0
 20
0.0
 30
0.0
  9
$USERI1
 70
     0
  9
$USERI2
 70
     0
  9
$USERI3
 70
     0
  9
$USERI4
 70
     0
  9
$USERI5
 70
     0
  9
$USERR1
 40
0.0
  9
$USERR2
 40
0.0
  9
$USERR3
 40
0.0
  9
$USERR4
 40
0.0
  9
$USERR5
 40
0.0
  9
$WORLDVIEW
 70
     1
  9
$SHADEDGE
 70
     3
  9
$SHADEDIF
 70
    70
  9
$TILEMODE
 70
     1
  9
$MAXACTVP
 70
    64
  9
$PINSBASE
 10
0.0
 20
0.0
 30
0.0
  9
$PLIMCHECK
 70
     0
  9
$PEXTMIN
 10
1.000000000000000E+20
 20
1.000000000000000E+20
 30
1.000000000000000E+20
  9
$PEXTMAX
 10
-1.000000000000000E+20
 20
-1.000000000000000E+20
 30
-1.000000000000000E+20
  9
$PLIMMIN
 10
0.0
 20
0.0
  9
$PLIMMAX
 10
12.0
 20
9.0
  9
$UNITMODE
 70
     0
  9
$VISRETAIN
 70
     1
  9
$PLINEGEN
 70
     0
  9
$PSLTSCALE
 70
     1
  9
$TREEDEPTH
 70
  3020
  9
$CMLSTYLE
  2
Standard
  9
$CMLJUST
 70
     0
  9
$CMLSCALE
 40
1.0
  9
$PROXYGRAPHICS
 70
     1
  9
$MEASUREMENT
 70
     0
  9
$CELWEIGHT
370
    -1
  9
$ENDCAPS
280
     0
  9
$JOINSTYLE
280
     0
  9
$LWDISPLAY
290
     0
  9
$INSUNITS
 70
     4
  9
$HYPERLINKBASE
  1

  9
$STYLESHEET
  1

  9
$XEDIT
290
     1
  9
$CEPSNTYPE
380
     0
  9
$PSTYLEMODE
290
     1
  9
$FINGERPRINTGUID
  2
{2561ec20-565b-41df-922e-7a641b504b56}
  9
$VERSIONGUID
  2
{FAEB1C32-E019-11D5-929B-00C0DF256EC4}
  9
$EXTNAMES
290
     1
  9
$PSVPSCALE
 40
0.0
  9
$OLESTARTUP
290
     0
  9
$SORTENTS
280
   127
  9
$INDEXCTL
280
     0
  9
$HIDETEXT
280
     1
  9
$XCLIPFRAME
280
     2
  9
$HALOGAP
280
     0
  9
$OBSCOLOR
 70
   257
  9
$OBSLTYPE
280
     0
  9
$INTERSECTIONDISPLAY
280
     0
  9
$INTERSECTIONCOLOR
 70
   257
  9
$DIMASSOC
280
     2
  9
$PROJECTNAME
  1

  9
$CAMERADISPLAY
290
     0
  9
$LENSLENGTH
 40
50.0
  9
$CAMERAHEIGHT
 40
0.0
  9
$STEPSPERSEC
 40
2.0
  9
$STEPSIZE
 40
6.0
  9
$3DDWFPREC
 40
2.0
  9
$PSOLWIDTH
 40
0.25
  9
$PSOLHEIGHT
 40
4.0
  9
$LOFTANG1
 40
1.570796326794897
  9
$LOFTANG2
 40
1.570796326794897
  9
$LOFTMAG1
 40
0.0
  9
$LOFTMAG2
 40
0.0
  9
$LOFTPARAM
 70
     7
  9
$LOFTNORMALS
280
     1
  9
$LATITUDE
 40
37.795
  9
$LONGITUDE
 40
-122.394
  9
$NORTHDIRECTION
 40
0.0
  9
$TIMEZONE
 70
 -8000
  9
$LIGHTGLYPHDISPLAY
280
     1
  9
$TILEMODELIGHTSYNCH
280
     1
  9
$CMATERIAL
347
44
  9
$SOLIDHIST
280
     0
  9
$SHOWHIST
280
     1
  9
$DWFFRAME
280
     2
  9
$DGNFRAME
280
     2
  9
$REALWORLDSCALE
290
     1
  9
$INTERFERECOLOR
 62
   256
  9
$CSHADOW
280
     0
  9
$SHADOWPLANELOCATION
 40
0.0
  0
ENDSEC
  0
SECTION
  2
CLASSES
  0
CLASS
  1
ACDBDICTIONARYWDFLT
  2
AcDbDictionaryWithDefault
  3
ObjectDBX Classes
 90
        0
 91
        3
280
     0
281
     0
  0
CLASS
  1
VISUALSTYLE
  2
AcDbVisualStyle
  3
ObjectDBX Classes
 90
     4095
 91
        3
280
     0
281
     0
  0
CLASS
  1
MATERIAL
  2
AcDbMaterial
  3
ObjectDBX Classes
 90
     1153
 91
        3
280
     0
281
     0
  0
CLASS
  1
SCALE
  2
AcDbScale
  3
ObjectDBX Classes
 90
     1153
 91
        3
280
     0
281
     0
  0
CLASS
  1
TABLESTYLE
  2
AcDbTableStyle
  3
ObjectDBX Classes
 90
     4095
 91
        3
280
     0
281
     0
  0
CLASS
  1
MLEADERSTYLE
  2
AcDbMLeaderStyle
  3
ACDB_MLEADERSTYLE_CLASS
 90
     4095
 91
        3
280
     0
281
     0
  0
CLASS
  1
SUN
  2
AcDbSun
  3
SCENEOE
 90
     1153
 91
        3
280
     0
281
     0
  0
CLASS
  1
DICTIONARYVAR
  2
AcDbDictionaryVar
  3
ObjectDBX Classes
 90
        0
 91
        3
280
     0
281
     0
  0
CLASS
  1
CELLSTYLEMAP
  2
AcDbCellStyleMap
  3
ObjectDBX Classes
 90
     1152
 91
        3
280
     0
281
     0
  0
ENDSEC
  0
SECTION
  2
TABLES
  0
TABLE
  2
VPORT
  5
8
330
0
100
AcDbSymbolTable
 70
     1
  0
VPORT
  5
29
330
8
100
AcDbSymbolTableRecord
100
AcDbViewportTableRecord
  2
*Active
 70
     0
 10
0.0
 20
0.0
 11
1.0
 21
1.0
 12
10.42990654205607
 22
4.5
 13
0.0
 23
0.0
 14
0.5
 24
0.5
 15
0.5
 25
0.5
 16
0.0
 26
0.0
 36
1.0
 17
0.0
 27
0.0
 37
0.0
 40
9.0
 41
1.972972972850329
 42
50.0
 43
0.0
 44
0.0
 50
0.0
 51
0.0
 71
     0
 72
   100
 73
     1
 74
     3
 75
     0
 76
     0
 77
     0
 78
     0
281
     0
 65
     1
110
0.0
120
0.0
130
0.0
111
1.0
121
0.0
131
0.0
112
0.0
122
1.0
132
0.0
 79
     0
146
0.0
348
2F
 60
     3
 61
     5
292
     1
282
     1
141
0.0
142
0.0
 63
   250
361
5D
  0
ENDTAB
  0
TABLE
  2
LTYPE
  5
5
330
0
100
AcDbSymbolTable
 70
     3
  0
LTYPE
  5
14
330
5
100
AcDbSymbolTableRecord
100
AcDbLinetypeTableRecord
  2
ByBlock
 70
     0
  3

 72
    65
 73
     0
 40
0.0
  0
LTYPE
  5
15
330
5
100
AcDbSymbolTableRecord
100
AcDbLinetypeTableRecord
  2
ByLayer
 70
     0
  3

 72
    65
 73
     0
 40
0.0
  0
LTYPE
  5
16
330
5
100
AcDbSymbolTableRecord
100
AcDbLinetypeTableRecord
  2
Continuous
 70
     0
  3
Solid line
 72
    65
 73
     0
 40
0.0
  0
LTYPE
  5
66
330
5
100
AcDbSymbolTableRecord
100
AcDbLinetypeTableRecord
  2
New Line1
 70
     0
  3

 72
    65
 73
     2
 40
0.3
 49
0.2
 74
     4
 75
     0
340
0
 46
1.0
 50
0.0
 44
0.0
 45
0.0
 49
-0.1
 74
     4
 75
     0
340
0
 46
1.0
 50
0.0
 44
0.0
 45
0.0
  0
LTYPE
  5
68
330
5
100
AcDbSymbolTableRecord
100
AcDbLinetypeTableRecord
  2
New Line2
 70
     0
  3

 72
    65
 73
     2
 40
0.3
 49
0.2
 74
     4
 75
     0
340
0
 46
1.0
 50
0.0
 44
0.0
 45
0.0
 49
-0.1
 74
     4
 75
     0
340
0
 46
1.0
 50
0.0
 44
0.0
 45
0.0
  0
ENDTAB
  0
TABLE
  2
LAYER
  5
2
330
0
100
AcDbSymbolTable
 70
     2
  0
LAYER
  5
10
330
2
100
AcDbSymbolTableRecord
100
AcDbLayerTableRecord
  2
0
 70
     0
 62
     7
  6
Continuous
370
    -3
390
F
347
46
348
0
  0
LAYER
  5
5F
330
2
100
AcDbSymbolTableRecord
100
AcDbLayerTableRecord
  2
Layer 1
 70
     0
 62
     7
  6
Continuous
370
    -3
390
F
347
46
348
0
  0
ENDTAB
  0
TABLE
  2
STYLE
  5
3
330
0
100
AcDbSymbolTable
 70
     1
  0
STYLE
  5
11
330
3
100
AcDbSymbolTableRecord
100
AcDbTextStyleTableRecord
  2
Standard
 70
     0
 40
0.0
 41
1.0
 50
0.0
 71
     0
 42
0.2
  3
txt
  4

  0
ENDTAB
  0
TABLE
  2
VIEW
  5
6
330
0
100
AcDbSymbolTable
 70
     0
  0
ENDTAB
  0
TABLE
  2
UCS
  5
7
330
0
100
AcDbSymbolTable
 70
     0
  0
ENDTAB
  0
TABLE
  2
APPID
  5
9
330
0
100
AcDbSymbolTable
 70
     2
  0
APPID
  5
12
330
9
100
AcDbSymbolTableRecord
100
AcDbRegAppTableRecord
  2
ACAD
 70
     0
  0
APPID
  5
5E
330
9
100
AcDbSymbolTableRecord
100
AcDbRegAppTableRecord
  2
ODA
 70
     0
  0
ENDTAB
  0
TABLE
  2
DIMSTYLE
  5
A
330
0
100
AcDbSymbolTable
 70
     1
100
AcDbDimStyleTable
  0
DIMSTYLE
105
27
330
A
100
AcDbSymbolTableRecord
100
AcDbDimStyleTableRecord
  2
Standard
 70
     0
178
     0
340
11
  0
ENDTAB
  0
TABLE
  2
BLOCK_RECORD
  5
1
330
0
100
AcDbSymbolTable
 70
     1
  0
BLOCK_RECORD
  5
1F
330
1
100
AcDbSymbolTableRecord
100
AcDbBlockTableRecord
  2
*Model_Space
340
22
 70
     0
280
     1
281
     0
  0
BLOCK_RECORD
  5
1B
330
1
100
AcDbSymbolTableRecord
100
AcDbBlockTableRecord
  2
*Paper_Space
340
1E
 70
     0
280
     1
281
     0
  0
BLOCK_RECORD
  5
23
330
1
100
AcDbSymbolTableRecord
100
AcDbBlockTableRecord
  2
*Paper_Space0
340
26
 70
     0
280
     1
281
     0
  0
ENDTAB
  0
ENDSEC
  0
SECTION
  2
BLOCKS
  0
BLOCK
  5
20
330
1F
100
AcDbEntity
  8
0
100
AcDbBlockBegin
  2
*Model_Space
 70
     0
 10
0.0
 20
0.0
 30
0.0
  3
*Model_Space
  1

  0
ENDBLK
  5
21
330
1F
100
AcDbEntity
  8
0
100
AcDbBlockEnd
  0
BLOCK
  5
1C
330
1B
100
AcDbEntity
 67
     1
  8
0
100
AcDbBlockBegin
  2
*Paper_Space
 70
     0
 10
0.0
 20
0.0
 30
0.0
  3
*Paper_Space
  1

  0
ENDBLK
  5
1D
330
1B
100
AcDbEntity
 67
     1
  8
0
100
AcDbBlockEnd
  0
BLOCK
  5
24
330
23
100
AcDbEntity
  8
0
100
AcDbBlockBegin
  2
*Paper_Space0
 70
     0
 10
0.0
 20
0.0
 30
0.0
  3
*Paper_Space0
  1

  0
ENDBLK
  5
25
330
23
100
AcDbEntity
  8
0
100
AcDbBlockEnd
  0
ENDSEC
  0
SECTION
  2
ENTITIES
  0
LWPOLYLINE
  5
60
330
1F
100
AcDbEntity
  8
Layer 1
 62
   250
370
     9
100
AcDbPolyline
 90
        5
 70
     1
 43
0.0
 10
-872.6204
 20
-64.8672
 10
-444.227
 20
-64.8672
 10
-444.227
 20
283.9978
 10
-872.6204
 20
283.9978
 10
-872.6204
 20
-64.8672
  0
LWPOLYLINE
  5
61
330
1F
100
AcDbEntity
  8
Layer 1
 62
     7
370
    25
100
AcDbPolyline
 90
        2
 70
     0
 43
0.0
 10
-660.8076
 20
214.4627
 10
-481.2195
 20
214.4627
  0
LWPOLYLINE
  5
62
330
1F
100
AcDbEntity
  8
Layer 1
 62
     7
370
   106
100
AcDbPolyline
 90
        2
 70
     0
 43
0.0
 10
-629.9652
 20
201.0099
 10
-512.1188
 20
201.1114
  0
LWPOLYLINE
  5
63
330
1F
100
AcDbEntity
  8
Layer 1
 62
     7
370
   140
100
AcDbPolyline
 90
        3
 70
     0
 43
0.0
 10
-621.0127
 20
206.7669
 10
-631.6039
 20
201.3227
 10
-619.7275
 20
195.5579
  0
LWPOLYLINE
  5
64
330
1F
100
AcDbEntity
  8
Layer 1
 62
     7
370
   140
100
AcDbPolyline
 90
        3
 70
     0
 43
0.0
 10
-521.0155
 20
195.6995
 10
-510.4243
 20
201.1437
 10
-522.3007
 20
206.9085
  0
LWPOLYLINE
  5
65
330
1F
100
AcDbEntity
  8
Layer 1
  6
New Line1
 62
     7
370
    25
100
AcDbPolyline
 90
        2
 70
     0
 43
0.0
 10
-501.2369
 20
213.5901
 10
-463.5142
 20
-22.0956
  0
LWPOLYLINE
  5
67
330
1F
100
AcDbEntity
  8
Layer 1
  6
New Line2
 62
     7
370
    25
100
AcDbPolyline
 90
        2
 70
     0
 43
0.0
 10
-639.8717
 20
213.5901
 10
-678.5131
 20
-22.0956
  0
LWPOLYLINE
  5
69
330
1F
100
AcDbEntity
  8
Layer 1
 62
     7
370
    80
100
AcDbPolyline
 90
        2
 70
     0
 43
0.0
 10
-659.4881
 20
-14.7466
 10
-482.6328
 20
-14.6451
  0
LWPOLYLINE
  5
6A
330
1F
100
AcDbEntity
  8
Layer 1
 62
     7
370
   100
100
AcDbPolyline
 90
        3
 70
     0
 43
0.0
 10
-643.159
 20
-8.9896
 10
-661.5518
 20
-14.4338
 10
-640.9271
 20
-20.1985
  0
LWPOLYLINE
  5
6B
330
1F
100
AcDbEntity
  8
Layer 1
 62
     7
370
   100
100
AcDbPolyline
 90
        3
 70
     0
 43
0.0
 10
-498.8649
 20
-20.0569
 10
-480.4721
 20
-14.6127
 10
-501.0968
 20
-8.848
  0
LWPOLYLINE
  5
6C
330
1F
100
AcDbEntity
  8
Layer 1
 62
     7
370
    80
100
AcDbPolyline
 90
        2
 70
     0
 43
0.0
 10
-653.1283
 20
228.2081
 10
-488.9865
 20
228.3443
  0
LWPOLYLINE
  5
6D
330
1F
100
AcDbEntity
  8
Layer 1
 62
     7
370
   100
100
AcDbPolyline
 90
        3
 70
     0
 43
0.0
 10
-637.9731
 20
235.9373
 10
-655.0437
 20
228.628
 10
-635.9016
 20
220.8884
  0
LWPOLYLINE
  5
6E
330
1F
100
AcDbEntity
  8
Layer 1
 62
     7
370
   100
100
AcDbPolyline
 90
        3
 70
     0
 43
0.0
 10
-504.0518
 20
221.0785
 10
-486.9812
 20
228.3877
 10
-506.1232
 20
236.1274
  0
LWPOLYLINE
  5
6F
330
1F
100
AcDbEntity
  8
Layer 1
 62
     7
370
    80
100
AcDbPolyline
 90
        2
 70
     0
 43
0.0
 10
-556.9375
 20
151.2921
 10
-556.6926
 20
12.8858
  0
LWPOLYLINE
  5
70
330
1F
100
AcDbEntity
  8
Layer 1
 62
     7
370
    90
100
AcDbPolyline
 90
        3
 70
     0
 43
0.0
 10
-543.0461
 20
138.5131
 10
-556.1828
 20
152.9072
 10
-570.093
 20
136.7664
  0
LWPOLYLINE
  5
71
330
1F
100
AcDbEntity
  8
Layer 1
 62
     7
370
    90
100
AcDbPolyline
 90
        3
 70
     0
 43
0.0
 10
-569.7513
 20
25.589
 10
-556.6146
 20
11.1948
 10
-542.7044
 20
27.3356
  0
LWPOLYLINE
  5
72
330
1F
100
AcDbEntity
  8
Layer 1
 62
     7
370
     9
100
AcDbPolyline
 90
        7
 70
     1
 43
0.0
 10
-637.7119
 20
239.667
 10
-634.2244
 20
239.6779
 10
-634.4295
 20
258.249
 10
-642.7963
 20
257.7352
 10
-642.7782
 20
256.0889
 10
-637.8929
 20
256.1042
 10
-637.7119
 20
239.667
  0
LWPOLYLINE
  5
73
330
1F
100
AcDbEntity
  8
Layer 1
 62
     7
370
     9
100
AcDbPolyline
 90
        7
 70
     1
 43
0.0
 10
-622.9132
 20
239.715
 10
-608.215
 20
258.0369
 10
-629.4919
 20
257.9669
 10
-629.4718
 20
256.0791
 10
-613.6272
 20
256.1305
 10
-626.8009
 20
239.7019
 10
-622.9132
 20
239.715
  0
LWPOLYLINE
  5
74
330
1F
100
AcDbEntity
  8
Layer 1
 62
     7
370
     9
100
AcDbPolyline
 90
       65
 70
     1
 43
0.0
 10
-595.7091
 20
249.1432
 10
-594.9698
 20
249.1283
 10
-594.2588
 20
249.0787
 10
-593.5762
 20
248.9943
 10
-592.922
 20
248.8753
 10
-592.2963
 20
248.7215
 10
-591.6991
 20
248.5331
 10
-591.1305
 20
248.31
 10
-590.5905
 20
248.0523
 10
-590.1023
 20
247.7728
 10
-589.6786
 20
247.477
 10
-589.3194
 20
247.1649
 10
-589.0247
 20
246.8365
 10
-588.7945
 20
246.4918
 10
-588.6287
 20
246.1308
 10
-588.5275
 20
245.7535
 10
-588.4907
 20
245.3599
 10
-588.5188
 20
244.9699
 10
-588.6107
 20
244.5928
 10
-588.7664
 20
244.2285
 10
-588.986
 20
243.877
 10
-589.2695
 20
243.5384
 10
-589.617
 20
243.2126
 10
-590.0284
 20
242.8998
 10
-590.504
 20
242.5998
 10
-591.0254
 20
242.3264
 10
-591.5807
 20
242.0891
 10
-592.1698
 20
241.8878
 10
-592.7928
 20
241.7227
 10
-593.4497
 20
241.5937
 10
-594.1406
 20
241.5009
 10
-594.8656
 20
241.4442
 10
-595.6246
 20
241.4236
 10
-596.3834
 20
241.4393
 10
-597.109
 20
241.4914
 10
-597.8015
 20
241.5798
 10
-598.461
 20
241.7046
 10
-599.0874
 20
241.8658
 10
-599.681
 20
242.0632
 10
-600.2416
 20
242.297
 10
-600.7694
 20
242.567
 10
-601.2512
 20
242.8638
 10
-601.6695
 20
243.1739
 10
-602.0242
 20
243.4972
 10
-602.3153
 20
243.8338
 10
-602.5427
 20
244.1836
 10
-602.7065
 20
244.5468
 10
-602.8066
 20
244.9232
 10
-602.843
 20
245.3129
 10
-602.8151
 20
245.7067
 10
-602.7223
 20
246.0846
 10
-602.5648
 20
246.4467
 10
-602.3424
 20
246.7929
 10
-602.0553
 20
247.1232
 10
-601.7034
 20
247.4378
 10
-601.2869
 20
247.7365
 10
-600.8056
 20
248.0195
 10
-600.2701
 20
248.2806
 10
-599.7058
 20
248.5073
 10
-599.1126
 20
248.6995
 10
-598.4904
 20
248.8572
 10
-597.839
 20
248.9805
 10
-597.1585
 20
249.0693
 10
-596.4485
 20
249.1235
 10
-595.7091
 20
249.1432
  0
LWPOLYLINE
  5
75
330
1F
100
AcDbEntity
  8
Layer 1
 62
     7
370
     9
100
AcDbPolyline
 90
       65
 70
     1
 43
0.0
 10
-595.7915
 20
256.5929
 10
-595.1955
 20
256.581
 10
-594.6217
 20
256.5422
 10
-594.0702
 20
256.4764
 10
-593.541
 20
256.3837
 10
-593.034
 20
256.2639
 10
-592.5492
 20
256.1171
 10
-592.0867
 20
255.9433
 10
-591.6464
 20
255.7424
 10
-591.2347
 20
255.5161
 10
-590.8774
 20
255.2765
 10
-590.5747
 20
255.0238
 10
-590.3265
 20
254.7578
 10
-590.1327
 20
254.4786
 10
-589.9935
 20
254.1861
 10
-589.9087
 20
253.8805
 10
-589.8785
 20
253.5616
 10
-589.9021
 20
253.2493
 10
-589.9803
 20
252.947
 10
-590.1131
 20
252.6546
 10
-590.3006
 20
252.3722
 10
-590.5426
 20
252.0998
 10
-590.8393
 20
251.8374
 10
-591.1904
 20
251.585
 10
-591.5961
 20
251.3426
 10
-592.0294
 20
251.1261
 10
-592.4862
 20
250.9382
 10
-592.9664
 20
250.7789
 10
-593.4703
 20
250.6482
 10
-593.9978
 20
250.5461
 10
-594.5491
 20
250.4726
 10
-595.1242
 20
250.4276
 10
-595.7231
 20
250.4113
 10
-596.3218
 20
250.4236
 10
-596.8977
 20
250.4648
 10
-597.4506
 20
250.5347
 10
-597.9805
 20
250.6333
 10
-598.4873
 20
250.7607
 10
-598.9709
 20
250.9169
 10
-599.4313
 20
251.1017
 10
-599.8683
 20
251.3153
 10
-600.2801
 20
251.5553
 10
-600.6376
 20
251.8056
 10
-600.9406
 20
252.0661
 10
-601.1892
 20
252.3369
 10
-601.3833
 20
252.6181
 10
-601.5229
 20
252.9095
 10
-601.6079
 20
253.2113
 10
-601.6382
 20
253.5234
 10
-601.6146
 20
253.8425
 10
-601.5361
 20
254.1487
 10
-601.4029
 20
254.442
 10
-601.2149
 20
254.7225
 10
-600.9722
 20
254.9901
 10
-600.6749
 20
255.2447
 10
-600.323
 20
255.4864
 10
-599.9166
 20
255.7151
 10
-599.4812
 20
255.9192
 10
-599.0229
 20
256.0963
 10
-598.5416
 20
256.2464
 10
-598.0374
 20
256.3696
 10
-597.5102
 20
256.4658
 10
-596.9602
 20
256.535
 10
-596.3872
 20
256.5774
 10
-595.7915
 20
256.5929
  0
LWPOLYLINE
  5
76
330
1F
100
AcDbEntity
  8
Layer 1
 62
     7
370
     9
100
AcDbPolyline
 90
      121
 70
     1
 43
0.0
 10
-595.6025
 20
239.5336
 10
-594.4612
 20
239.5606
 10
-593.3663
 20
239.6344
 10
-592.3178
 20
239.7549
 10
-591.3158
 20
239.922
 10
-590.3602
 20
240.1359
 10
-589.4512
 20
240.3964
 10
-588.5887
 20
240.7036
 10
-587.7727
 20
241.0574
 10
-587.4043
 20
241.242
 10
-587.0562
 20
241.4359
 10
-586.7286
 20
241.6391
 10
-586.4214
 20
241.8514
 10
-586.1347
 20
242.0729
 10
-585.8684
 20
242.3036
 10
-585.6226
 20
242.5434
 10
-585.3974
 20
242.7922
 10
-585.1961
 20
243.0505
 10
-585.0221
 20
243.3181
 10
-584.8755
 20
243.5949
 10
-584.7561
 20
243.8808
 10
-584.6639
 20
244.1759
 10
-584.599
 20
244.4802
 10
-584.5612
 20
244.7936
 10
-584.5507
 20
245.1162
 10
-584.5775
 20
245.4432
 10
-584.6502
 20
245.769
 10
-584.7689
 20
246.0938
 10
-584.9336
 20
246.4176
 10
-585.1441
 20
246.7403
 10
-585.4006
 20
247.062
 10
-585.7029
 20
247.3827
 10
-586.0511
 20
247.7025
 10
-586.4414
 20
248.0144
 10
-586.8715
 20
248.3114
 10
-587.3415
 20
248.5936
 10
-587.8511
 20
248.8609
 10
-588.4004
 20
249.1134
 10
-588.9891
 20
249.351
 10
-589.6172
 20
249.5737
 10
-590.2847
 20
249.7816
 10
-589.3439
 20
250.2416
 10
-588.5293
 20
250.7109
 10
-587.8408
 20
251.1895
 10
-587.2784
 20
251.6774
 10
-586.8422
 20
252.1745
 10
-586.5321
 20
252.6811
 10
-586.3482
 20
253.197
 10
-586.2904
 20
253.7223
 10
-586.3395
 20
254.2397
 10
-586.4748
 20
254.7328
 10
-586.6963
 20
255.2015
 10
-587.0039
 20
255.6459
 10
-587.3977
 20
256.0661
 10
-587.8776
 20
256.4619
 10
-588.4438
 20
256.8336
 10
-589.0961
 20
257.181
 10
-589.7844
 20
257.4825
 10
-590.5159
 20
257.7434
 10
-591.2906
 20
257.9637
 10
-592.1084
 20
258.1434
 10
-592.9695
 20
258.2824
 10
-593.8737
 20
258.3808
 10
-594.8211
 20
258.4385
 10
-595.8116
 20
258.4556
 10
-596.8017
 20
258.4321
 10
-597.7477
 20
258.3683
 10
-598.6498
 20
258.2641
 10
-599.5078
 20
258.1196
 10
-600.3219
 20
257.9347
 10
-601.0921
 20
257.7095
 10
-601.8184
 20
257.4441
 10
-602.501
 20
257.1383
 10
-603.1454
 20
256.7865
 10
-603.7029
 20
256.4115
 10
-604.1736
 20
256.0133
 10
-604.5576
 20
255.592
 10
-604.8547
 20
255.1474
 10
-605.0652
 20
254.6796
 10
-605.1891
 20
254.1885
 10
-605.2263
 20
253.6742
 10
-605.1574
 20
253.1462
 10
-604.9626
 20
252.6289
 10
-604.6419
 20
252.1222
 10
-604.1953
 20
251.626
 10
-603.6226
 20
251.1404
 10
-602.9238
 20
250.6653
 10
-602.0988
 20
250.2007
 10
-601.1475
 20
249.7466
 10
-601.8108
 20
249.5344
 10
-602.4339
 20
249.3076
 10
-603.0171
 20
249.0662
 10
-603.5603
 20
248.8103
 10
-604.0636
 20
248.5397
 10
-604.5271
 20
248.2545
 10
-604.9508
 20
247.9547
 10
-605.3349
 20
247.6402
 10
-605.6755
 20
247.3175
 10
-605.9703
 20
246.9929
 10
-606.2192
 20
246.6664
 10
-606.4222
 20
246.3379
 10
-606.5793
 20
246.0074
 10
-606.6905
 20
245.6749
 10
-606.7557
 20
245.3403
 10
-606.7749
 20
245.0036
 10
-606.7173
 20
244.4009
 10
-606.5581
 20
243.8277
 10
-606.2972
 20
243.2839
 10
-605.9347
 20
242.7696
 10
-605.4706
 20
242.2848
 10
-604.9048
 20
241.8294
 10
-604.2374
 20
241.4035
 10
-603.4684
 20
241.0071
 10
-602.644
 20
240.6584
 10
-601.7744
 20
240.3568
 10
-600.8594
 20
240.1021
 10
-599.899
 20
239.8945
 10
-598.8931
 20
239.7338
 10
-597.8418
 20
239.6201
 10
-596.7449
 20
239.5534
 10
-595.6025
 20
239.5336
  0
LWPOLYLINE
  5
77
330
1F
100
AcDbEntity
  8
Layer 1
 62
     7
370
     9
100
AcDbPolyline
 90
      165
 70
     1
 43
0.0
 10
-550.9569
 20
240.0025
 10
-547.4694
 20
240.0135
 10
-547.5518
 20
247.4369
 10
-547.5854
 20
247.9295
 10
-547.6755
 20
248.3987
 10
-547.8223
 20
248.8447
 10
-548.0257
 20
249.2673
 10
-548.2858
 20
249.6666
 10
-548.6026
 20
250.0424
 10
-548.976
 20
250.3949
 10
-549.4062
 20
250.7239
 10
-549.6459
 20
250.881
 10
-549.9002
 20
251.0299
 10
-550.1693
 20
251.1708
 10
-550.4531
 20
251.3037
 10
-550.7515
 20
251.4284
 10
-551.0647
 20
251.5452
 10
-551.3926
 20
251.654
 10
-551.7352
 20
251.7547
 10
-552.099
 20
251.8456
 10
-552.4906
 20
251.924
 10
-552.9101
 20
251.99
 10
-553.3575
 20
252.0436
 10
-553.8329
 20
252.0847
 10
-554.3364
 20
252.1135
 10
-554.8681
 20
252.1299
 10
-555.4279
 20
252.134
 10
-555.9913
 20
252.1218
 10
-556.5366
 20
252.0885
 10
-557.0639
 20
252.0342
 10
-557.5731
 20
251.9588
 10
-558.0644
 20
251.8624
 10
-558.5376
 20
251.7451
 10
-558.9929
 20
251.6068
 10
-559.4302
 20
251.4475
 10
-559.8093
 20
251.2884
 10
-560.1712
 20
251.1177
 10
-560.5158
 20
250.9354
 10
-560.8431
 20
250.7418
 10
-561.1531
 20
250.5368
 10
-561.4457
 20
250.3206
 10
-561.7209
 20
250.0933
 10
-561.9785
 20
249.8549
 10
-562.1837
 20
250.0735
 10
-562.4072
 20
250.2844
 10
-562.6491
 20
250.4868
 10
-562.9097
 20
250.6802
 10
-563.1494
 20
250.8373
 10
-563.4037
 20
250.9862
 10
-563.6728
 20
251.1271
 10
-563.9566
 20
251.26
 10
-564.255
 20
251.3847
 10
-564.5682
 20
251.5015
 10
-564.8961
 20
251.6103
 10
-565.2387
 20
251.711
 10
-565.6026
 20
251.8016
 10
-565.9944
 20
251.8799
 10
-566.414
 20
251.9458
 10
-566.8615
 20
251.9995
 10
-567.3368
 20
252.0407
 10
-567.8399
 20
252.0696
 10
-568.3708
 20
252.0862
 10
-568.9294
 20
252.0903
 10
-569.4941
 20
252.0781
 10
-570.0404
 20
252.0448
 10
-570.5683
 20
251.9904
 10
-571.0779
 20
251.915
 10
-571.5692
 20
251.8185
 10
-572.0422
 20
251.7009
 10
-572.497
 20
251.5623
 10
-572.9337
 20
251.4027
 10
-573.2953
 20
251.2513
 10
-573.6409
 20
251.0899
 10
-573.9707
 20
250.9183
 10
-574.2848
 20
250.7365
 10
-574.5832
 20
250.5444
 10
-574.866
 20
250.342
 10
-575.1334
 20
250.1293
 10
-575.3854
 20
249.9062
 10
-575.4076
 20
251.7995
 10
-578.8931
 20
251.7886
 10
-578.7623
 20
239.9118
 10
-575.2748
 20
239.9227
 10
-575.3432
 20
246.0005
 10
-575.2658
 20
246.3551
 10
-575.1633
 20
246.6959
 10
-575.0359
 20
247.0229
 10
-574.8834
 20
247.3364
 10
-574.7059
 20
247.6364
 10
-574.5035
 20
247.9231
 10
-574.2761
 20
248.1965
 10
-574.0238
 20
248.4568
 10
-573.8176
 20
248.6424
 10
-573.5943
 20
248.8196
 10
-573.3538
 20
248.9883
 10
-573.0961
 20
249.1486
 10
-572.8213
 20
249.3004
 10
-572.5293
 20
249.4438
 10
-572.2202
 20
249.5787
 10
-571.8939
 20
249.7051
 10
-571.5564
 20
249.8204
 10
-571.2122
 20
249.9205
 10
-570.8613
 20
250.0054
 10
-570.5039
 20
250.075
 10
-570.14
 20
250.1294
 10
-569.7696
 20
250.1686
 10
-569.3928
 20
250.1926
 10
-569.0098
 20
250.2014
 10
-568.6355
 20
250.1986
 10
-568.2864
 20
250.1877
 10
-567.9623
 20
250.1687
 10
-567.6633
 20
250.1416
 10
-567.3891
 20
250.1063
 10
-567.1397
 20
250.063
 10
-566.9151
 20
250.0116
 10
-566.715
 20
249.9521
 10
-566.2105
 20
249.7526
 10
-565.7726
 20
249.5183
 10
-565.4012
 20
249.249
 10
-565.0964
 20
248.945
 10
-564.8582
 20
248.6061
 10
-564.6865
 20
248.2325
 10
-564.5814
 20
247.8241
 10
-564.5428
 20
247.3811
 10
-564.4604
 20
239.9577
 10
-560.9729
 20
239.9697
 10
-561.0553
 20
247.3931
 10
-561.0855
 20
247.8479
 10
-560.9584
 20
248.0201
 10
-560.8215
 20
248.1861
 10
-560.6748
 20
248.3461
 10
-560.5183
 20
248.5005
 10
-560.3128
 20
248.6861
 10
-560.09
 20
248.8633
 10
-559.8498
 20
249.0321
 10
-559.5924
 20
249.1924
 10
-559.3177
 20
249.3444
 10
-559.0258
 20
249.488
 10
-558.7167
 20
249.6231
 10
-558.3904
 20
249.7499
 10
-558.0522
 20
249.8649
 10
-557.7076
 20
249.9647
 10
-557.3564
 20
250.0494
 10
-556.9989
 20
250.1189
 10
-556.6351
 20
250.1732
 10
-556.265
 20
250.2123
 10
-555.8887
 20
250.2363
 10
-555.5063
 20
250.2451
 10
-555.1325
 20
250.2423
 10
-554.7834
 20
250.2314
 10
-554.4591
 20
250.2124
 10
-554.1595
 20
250.1853
 10
-553.8848
 20
250.1501
 10
-553.6348
 20
250.1068
 10
-553.4097
 20
250.0554
 10
-553.2095
 20
249.9959
 10
-552.705
 20
249.7964
 10
-552.2671
 20
249.562
 10
-551.8958
 20
249.2928
 10
-551.5912
 20
248.9887
 10
-551.3532
 20
248.6498
 10
-551.1818
 20
248.2762
 10
-551.0772
 20
247.8678
 10
-551.0393
 20
247.4248
 10
-550.9569
 20
240.0025
  0
LWPOLYLINE
  5
78
330
1F
100
AcDbEntity
  8
Layer 1
 62
     7
370
     9
100
AcDbPolyline
 90
      165
 70
     1
 43
0.0
 10
-512.9343
 20
240.125
 10
-509.4488
 20
240.137
 10
-509.5313
 20
247.5604
 10
-509.5649
 20
248.053
 10
-509.655
 20
248.5222
 10
-509.8018
 20
248.9682
 10
-510.0052
 20
249.3908
 10
-510.2652
 20
249.7901
 10
-510.582
 20
250.1659
 10
-510.9554
 20
250.5184
 10
-511.3856
 20
250.8474
 10
-511.6252
 20
251.0045
 10
-511.8793
 20
251.1534
 10
-512.1481
 20
251.2943
 10
-512.4315
 20
251.4272
 10
-512.7296
 20
251.552
 10
-513.0425
 20
251.6687
 10
-513.3702
 20
251.7775
 10
-513.7127
 20
251.8782
 10
-514.0766
 20
251.9691
 10
-514.4684
 20
252.0475
 10
-514.8882
 20
252.1135
 10
-515.336
 20
252.1671
 10
-515.8117
 20
252.2082
 10
-516.3155
 20
252.237
 10
-516.8474
 20
252.2534
 10
-517.4073
 20
252.2575
 10
-517.9707
 20
252.2453
 10
-518.516
 20
252.2121
 10
-519.0432
 20
252.1577
 10
-519.5523
 20
252.0822
 10
-520.0433
 20
251.9857
 10
-520.5162
 20
251.8682
 10
-520.971
 20
251.7296
 10
-521.4077
 20
251.57
 10
-521.7874
 20
251.4112
 10
-522.1495
 20
251.2407
 10
-522.4943
 20
251.0587
 10
-522.8216
 20
250.8652
 10
-523.1316
 20
250.6603
 10
-523.4242
 20
250.4441
 10
-523.6997
 20
250.2168
 10
-523.9579
 20
249.9784
 10
-524.1631
 20
250.197
 10
-524.3866
 20
250.4079
 10
-524.6285
 20
250.6103
 10
-524.8891
 20
250.8037
 10
-525.1288
 20
250.9608
 10
-525.3831
 20
251.1097
 10
-525.6522
 20
251.2506
 10
-525.936
 20
251.3835
 10
-526.2345
 20
251.5082
 10
-526.5477
 20
251.625
 10
-526.8756
 20
251.7338
 10
-527.2182
 20
251.8345
 10
-527.582
 20
251.9251
 10
-527.9736
 20
252.0034
 10
-528.393
 20
252.0693
 10
-528.8402
 20
252.123
 10
-529.3154
 20
252.1642
 10
-529.8185
 20
252.1931
 10
-530.3496
 20
252.2097
 10
-530.9088
 20
252.2138
 10
-531.4735
 20
252.2016
 10
-532.0198
 20
252.1683
 10
-532.5477
 20
252.1139
 10
-533.0573
 20
252.0385
 10
-533.5486
 20
251.942
 10
-534.0216
 20
251.8244
 10
-534.4765
 20
251.6858
 10
-534.9132
 20
251.5262
 10
-535.2742
 20
251.3748
 10
-535.6195
 20
251.2134
 10
-535.9493
 20
251.0418
 10
-536.2635
 20
250.86
 10
-536.5621
 20
250.6679
 10
-536.8452
 20
250.4656
 10
-537.1128
 20
250.2529
 10
-537.3649
 20
250.0298
 10
-537.385
 20
251.923
 10
-540.8725
 20
251.9121
 10
-540.7418
 20
240.0353
 10
-537.2543
 20
240.0463
 10
-537.3206
 20
246.124
 10
-537.2433
 20
246.4786
 10
-537.1411
 20
246.8194
 10
-537.0139
 20
247.1465
 10
-536.8618
 20
247.46
 10
-536.6847
 20
247.76
 10
-536.4826
 20
248.0466
 10
-536.2555
 20
248.32
 10
-536.0033
 20
248.5803
 10
-535.7971
 20
248.7659
 10
-535.5738
 20
248.9431
 10
-535.3333
 20
249.1118
 10
-535.0756
 20
249.2721
 10
-534.8008
 20
249.4239
 10
-534.5088
 20
249.5673
 10
-534.1997
 20
249.7022
 10
-533.8734
 20
249.8286
 10
-533.5352
 20
249.944
 10
-533.1905
 20
250.0441
 10
-532.8394
 20
250.1289
 10
-532.4819
 20
250.1985
 10
-532.118
 20
250.2529
 10
-531.7479
 20
250.2921
 10
-531.3716
 20
250.3161
 10
-530.9892
 20
250.3249
 10
-530.6148
 20
250.3221
 10
-530.2655
 20
250.3112
 10
-529.9412
 20
250.2922
 10
-529.642
 20
250.2651
 10
-529.3677
 20
250.2299
 10
-529.1183
 20
250.1866
 10
-528.8939
 20
250.1352
 10
-528.6944
 20
250.0757
 10
-528.1894
 20
249.8762
 10
-527.7512
 20
249.6418
 10
-527.3798
 20
249.3726
 10
-527.0751
 20
249.0685
 10
-526.8371
 20
248.7296
 10
-526.6657
 20
248.356
 10
-526.5608
 20
247.9476
 10
-526.5223
 20
247.5046
 10
-526.4398
 20
240.0812
 10
-522.9523
 20
240.0933
 10
-523.0348
 20
247.5167
 10
-523.0649
 20
247.9703
 10
-522.9375
 20
248.1431
 10
-522.8002
 20
248.3095
 10
-522.6534
 20
248.4696
 10
-522.4978
 20
248.624
 10
-522.2923
 20
248.8096
 10
-522.0694
 20
248.9868
 10
-521.8292
 20
249.1556
 10
-521.5716
 20
249.3159
 10
-521.2967
 20
249.4679
 10
-521.0044
 20
249.6115
 10
-520.6948
 20
249.7466
 10
-520.3679
 20
249.8734
 10
-520.0304
 20
249.9884
 10
-519.6862
 20
250.0882
 10
-519.3353
 20
250.1729
 10
-518.9779
 20
250.2424
 10
-518.6139
 20
250.2967
 10
-518.2435
 20
250.3358
 10
-517.8668
 20
250.3598
 10
-517.4837
 20
250.3686
 10
-517.1106
 20
250.3658
 10
-516.762
 20
250.3549
 10
-516.438
 20
250.3359
 10
-516.1387
 20
250.3088
 10
-515.8641
 20
250.2736
 10
-515.6142
 20
250.2303
 10
-515.3891
 20
250.1789
 10
-515.1889
 20
250.1194
 10
-514.6844
 20
249.9199
 10
-514.2465
 20
249.6855
 10
-513.8751
 20
249.4163
 10
-513.5704
 20
249.1122
 10
-513.3321
 20
248.7733
 10
-513.1604
 20
248.3997
 10
-513.0553
 20
247.9914
 10
-513.0168
 20
247.5484
 10
-512.9343
 20
240.125
  0
LWPOLYLINE
  5
79
330
1F
100
AcDbEntity
  8
Layer 1
 62
     7
370
     9
100
AcDbPolyline
 90
        7
 70
     1
 43
0.0
 10
-635.4392
 20
169.9957
 10
-631.9517
 20
170.0066
 10
-632.1568
 20
188.5777
 10
-640.5216
 20
188.0639
 10
-640.5035
 20
186.4176
 10
-635.6202
 20
186.434
 10
-635.4392
 20
169.9957
  0
LWPOLYLINE
  5
7A
330
1F
100
AcDbEntity
  8
Layer 1
 62
     7
370
     9
100
AcDbPolyline
 90
        7
 70
     1
 43
0.0
 10
-620.6405
 20
170.0438
 10
-605.9423
 20
188.3656
 10
-627.2192
 20
188.2967
 10
-627.1991
 20
186.4078
 10
-611.3525
 20
186.4592
 10
-624.5282
 20
170.0306
 10
-620.6405
 20
170.0438
  0
LWPOLYLINE
  5
7B
330
1F
100
AcDbEntity
  8
Layer 1
 62
     7
370
     9
100
AcDbPolyline
 90
      125
 70
     1
 43
0.0
 10
-587.4569
 20
186.3739
 10
-586.879
 20
186.164
 10
-586.3398
 20
185.9254
 10
-585.8394
 20
185.658
 10
-585.3775
 20
185.3618
 10
-584.9543
 20
185.0368
 10
-584.5695
 20
184.6829
 10
-584.2231
 20
184.3
 10
-583.9151
 20
183.8882
 10
-583.5709
 20
183.3422
 10
-583.2715
 20
182.7879
 10
-583.0169
 20
182.2256
 10
-582.8072
 20
181.655
 10
-582.6425
 20
181.0764
 10
-582.5228
 20
180.4896
 10
-582.4482
 20
179.8946
 10
-582.4188
 20
179.2916
 10
-582.4251
 20
178.9957
 10
-582.4499
 20
178.674
 10
-582.4929
 20
178.3268
 10
-582.5535
 20
177.9547
 10
-582.7189
 20
177.2286
 10
-582.9374
 20
176.5423
 10
-583.2092
 20
175.896
 10
-583.5343
 20
175.2895
 10
-583.9125
 20
174.723
 10
-584.3441
 20
174.1964
 10
-584.829
 20
173.7097
 10
-585.3673
 20
173.263
 10
-585.8597
 20
172.9258
 10
-586.3791
 20
172.6334
 10
-586.9254
 20
172.3856
 10
-587.4987
 20
172.1825
 10
-588.0989
 20
172.024
 10
-588.7261
 20
171.9103
 10
-589.3803
 20
171.8412
 10
-590.0615
 20
171.8168
 10
-590.8224
 20
171.8365
 10
-591.547
 20
171.9006
 10
-592.2354
 20
172.0091
 10
-592.8876
 20
172.1619
 10
-593.5036
 20
172.3592
 10
-594.0837
 20
172.6008
 10
-594.6277
 20
172.8867
 10
-595.1359
 20
173.2171
 10
-595.3507
 20
173.3774
 10
-595.5563
 20
173.5428
 10
-595.7527
 20
173.7133
 10
-595.9399
 20
173.8888
 10
-596.1178
 20
174.0695
 10
-596.2864
 20
174.2553
 10
-596.4458
 20
174.4463
 10
-596.596
 20
174.6425
 10
-596.7367
 20
174.8419
 10
-596.869
 20
175.0426
 10
-596.9929
 20
175.2446
 10
-597.1084
 20
175.4478
 10
-597.2154
 20
175.6522
 10
-597.3139
 20
175.858
 10
-597.4038
 20
176.0651
 10
-597.485
 20
176.2735
 10
-597.5599
 20
176.4814
 10
-597.6291
 20
176.6877
 10
-597.6927
 20
176.8924
 10
-597.7508
 20
177.0955
 10
-597.8032
 20
177.297
 10
-597.8502
 20
177.4968
 10
-597.8916
 20
177.6949
 10
-597.9275
 20
177.8913
 10
-597.9588
 20
178.0906
 10
-597.9863
 20
178.2975
 10
-598.0101
 20
178.5118
 10
-598.0301
 20
178.7337
 10
-598.0463
 20
178.9629
 10
-598.0587
 20
179.1996
 10
-598.0674
 20
179.4436
 10
-598.0723
 20
179.6949
 10
-598.0667
 20
179.9572
 10
-598.0441
 20
180.2348
 10
-598.0043
 20
180.5279
 10
-597.9476
 20
180.8365
 10
-597.8738
 20
181.1604
 10
-597.7832
 20
181.4999
 10
-597.6757
 20
181.8549
 10
-597.5514
 20
182.2255
 10
-597.4751
 20
182.4311
 10
-597.3911
 20
182.6364
 10
-597.2993
 20
182.8414
 10
-597.1996
 20
183.046
 10
-597.0922
 20
183.2503
 10
-596.9769
 20
183.4542
 10
-596.8537
 20
183.6577
 10
-596.7227
 20
183.8608
 10
-596.5827
 20
184.0612
 10
-596.4327
 20
184.2566
 10
-596.2725
 20
184.4469
 10
-596.1023
 20
184.6322
 10
-595.9218
 20
184.8123
 10
-595.7311
 20
184.9874
 10
-595.5302
 20
185.1574
 10
-595.3189
 20
185.3223
 10
-595.0976
 20
185.4811
 10
-594.865
 20
185.6318
 10
-594.6212
 20
185.7746
 10
-594.3663
 20
185.9093
 10
-594.1004
 20
186.0361
 10
-593.8236
 20
186.1549
 10
-593.5358
 20
186.2657
 10
-593.2372
 20
186.3685
 10
-592.9262
 20
186.4615
 10
-592.601
 20
186.5423
 10
-592.2616
 20
186.6108
 10
-591.908
 20
186.667
 10
-591.5402
 20
186.711
 10
-591.1581
 20
186.7428
 10
-590.7618
 20
186.7623
 10
-590.3511
 20
186.7696
 10
-589.941
 20
186.7645
 10
-589.5448
 20
186.7467
 10
-589.1624
 20
186.7162
 10
-588.7939
 20
186.673
 10
-588.4391
 20
186.6172
 10
-588.0981
 20
186.5487
 10
-587.7707
 20
186.4676
 10
-587.4569
 20
186.3739
  0
LWPOLYLINE
  5
7C
330
1F
100
AcDbEntity
  8
Layer 1
 62
     7
370
     9
100
AcDbPolyline
 90
       65
 70
     1
 43
0.0
 10
-589.9911
 20
169.9006
 10
-588.5364
 20
169.9553
 10
-587.1756
 20
170.1097
 10
-585.9086
 20
170.3636
 10
-584.7355
 20
170.7173
 10
-583.6561
 20
171.1705
 10
-582.6706
 20
171.7235
 10
-581.7788
 20
172.3762
 10
-580.9807
 20
173.1285
 10
-580.422
 20
173.7841
 10
-579.9392
 20
174.4759
 10
-579.5322
 20
175.2039
 10
-579.201
 20
175.9679
 10
-578.9458
 20
176.7681
 10
-578.7664
 20
177.6043
 10
-578.663
 20
178.4764
 10
-578.6356
 20
179.3845
 10
-578.683
 20
180.2926
 10
-578.8057
 20
181.164
 10
-579.0035
 20
181.9988
 10
-579.2765
 20
182.7971
 10
-579.6246
 20
183.5588
 10
-580.0478
 20
184.284
 10
-580.5461
 20
184.9728
 10
-581.1195
 20
185.6251
 10
-581.9339
 20
186.3719
 10
-582.8399
 20
187.0186
 10
-583.8375
 20
187.5652
 10
-584.9268
 20
188.0116
 10
-586.1077
 20
188.3578
 10
-587.3803
 20
188.6038
 10
-588.7445
 20
188.7496
 10
-590.2003
 20
188.7952
 10
-591.6543
 20
188.7404
 10
-593.0146
 20
188.586
 10
-594.2812
 20
188.3318
 10
-595.4541
 20
187.9781
 10
-596.5333
 20
187.5247
 10
-597.5188
 20
186.9717
 10
-598.4105
 20
186.3192
 10
-599.2086
 20
185.5672
 10
-599.7673
 20
184.911
 10
-600.2502
 20
184.2189
 10
-600.6573
 20
183.4909
 10
-600.9886
 20
182.7269
 10
-601.2441
 20
181.9268
 10
-601.4238
 20
181.0907
 10
-601.5277
 20
180.2185
 10
-601.5558
 20
179.3102
 10
-601.5077
 20
178.4024
 10
-601.3846
 20
177.531
 10
-601.1864
 20
176.696
 10
-600.9132
 20
175.8976
 10
-600.5649
 20
175.1357
 10
-600.1416
 20
174.4103
 10
-599.6433
 20
173.7216
 10
-599.0699
 20
173.0695
 10
-598.2555
 20
172.3224
 10
-597.3495
 20
171.6756
 10
-596.352
 20
171.129
 10
-595.2628
 20
170.6828
 10
-594.0822
 20
170.3369
 10
-592.81
 20
170.0912
 10
-591.4463
 20
169.9458
 10
-589.9911
 20
169.9006
  0
LWPOLYLINE
  5
7D
330
1F
100
AcDbEntity
  8
Layer 1
 62
     7
370
     9
100
AcDbPolyline
 90
      165
 70
     1
 43
0.0
 10
-544.4988
 20
170.3444
 10
-541.0113
 20
170.3553
 10
-541.0937
 20
177.7787
 10
-541.1273
 20
178.2713
 10
-541.2174
 20
178.7405
 10
-541.3642
 20
179.1865
 10
-541.5676
 20
179.6092
 10
-541.8277
 20
180.0086
 10
-542.1445
 20
180.3847
 10
-542.5179
 20
180.7374
 10
-542.9481
 20
181.0668
 10
-543.1877
 20
181.2239
 10
-543.4418
 20
181.3728
 10
-543.7106
 20
181.5137
 10
-543.994
 20
181.6466
 10
-544.2921
 20
181.7713
 10
-544.6049
 20
181.8881
 10
-544.9326
 20
181.9969
 10
-545.2751
 20
182.0976
 10
-545.639
 20
182.1882
 10
-546.0309
 20
182.2663
 10
-546.4506
 20
182.3322
 10
-546.8984
 20
182.3857
 10
-547.3742
 20
182.4268
 10
-547.878
 20
182.4558
 10
-548.4099
 20
182.4724
 10
-548.9698
 20
182.4769
 10
-549.5332
 20
182.4644
 10
-550.0785
 20
182.4308
 10
-550.6058
 20
182.3763
 10
-551.115
 20
182.3008
 10
-551.6063
 20
182.2044
 10
-552.0795
 20
182.087
 10
-552.5348
 20
181.9486
 10
-552.9721
 20
181.7894
 10
-553.3512
 20
181.6306
 10
-553.7131
 20
181.46
 10
-554.0577
 20
181.2777
 10
-554.385
 20
181.084
 10
-554.695
 20
180.8789
 10
-554.9876
 20
180.6626
 10
-555.2628
 20
180.4351
 10
-555.5204
 20
180.1967
 10
-555.7256
 20
180.4159
 10
-555.949
 20
180.6271
 10
-556.191
 20
180.8297
 10
-556.4516
 20
181.0231
 10
-556.6913
 20
181.1802
 10
-556.9456
 20
181.3291
 10
-557.2147
 20
181.47
 10
-557.4985
 20
181.6029
 10
-557.7969
 20
181.7276
 10
-558.1101
 20
181.8444
 10
-558.438
 20
181.9532
 10
-558.7806
 20
182.0539
 10
-559.1445
 20
182.1445
 10
-559.5363
 20
182.2226
 10
-559.9559
 20
182.2885
 10
-560.4034
 20
182.342
 10
-560.8787
 20
182.3831
 10
-561.3818
 20
182.4121
 10
-561.9126
 20
182.4287
 10
-562.4712
 20
182.4332
 10
-563.0359
 20
182.4206
 10
-563.5823
 20
182.3871
 10
-564.1102
 20
182.3326
 10
-564.6198
 20
182.2571
 10
-565.1111
 20
182.1606
 10
-565.5841
 20
182.0432
 10
-566.0389
 20
181.9049
 10
-566.4756
 20
181.7456
 10
-566.8372
 20
181.5942
 10
-567.1828
 20
181.4328
 10
-567.5126
 20
181.2612
 10
-567.8267
 20
181.0794
 10
-568.1251
 20
180.8873
 10
-568.4079
 20
180.6849
 10
-568.6753
 20
180.4722
 10
-568.9273
 20
180.2491
 10
-568.9475
 20
182.1424
 10
-572.4349
 20
182.1304
 10
-572.3042
 20
170.2536
 10
-568.8167
 20
170.2657
 10
-568.8831
 20
176.3434
 10
-568.8058
 20
176.6977
 10
-568.7036
 20
177.0383
 10
-568.5764
 20
177.3654
 10
-568.4243
 20
177.679
 10
-568.2472
 20
177.9791
 10
-568.0451
 20
178.2659
 10
-567.8179
 20
178.5394
 10
-567.5657
 20
178.7997
 10
-567.3595
 20
178.9849
 10
-567.1362
 20
179.1618
 10
-566.8957
 20
179.3304
 10
-566.638
 20
179.4907
 10
-566.3632
 20
179.6426
 10
-566.0712
 20
179.7861
 10
-565.7621
 20
179.9212
 10
-565.4358
 20
180.048
 10
-565.0977
 20
180.1634
 10
-564.7532
 20
180.2635
 10
-564.4024
 20
180.3483
 10
-564.0451
 20
180.4179
 10
-563.6813
 20
180.4723
 10
-563.3112
 20
180.5115
 10
-562.9347
 20
180.5355
 10
-562.5517
 20
180.5443
 10
-562.1773
 20
180.5415
 10
-561.828
 20
180.5306
 10
-561.5037
 20
180.5115
 10
-561.2044
 20
180.4843
 10
-560.9301
 20
180.449
 10
-560.6808
 20
180.4055
 10
-560.4564
 20
180.3538
 10
-560.2569
 20
180.294
 10
-559.7524
 20
180.0949
 10
-559.3145
 20
179.8608
 10
-558.9431
 20
179.5917
 10
-558.6383
 20
179.2877
 10
-558.4001
 20
178.9489
 10
-558.2284
 20
178.5754
 10
-558.1233
 20
178.167
 10
-558.0847
 20
177.724
 10
-558.0023
 20
170.3006
 10
-554.5148
 20
170.3116
 10
-554.5972
 20
177.735
 10
-554.6274
 20
178.1897
 10
-554.5
 20
178.3624
 10
-554.3627
 20
178.5284
 10
-554.2159
 20
178.6885
 10
-554.0602
 20
178.8434
 10
-553.8547
 20
179.0286
 10
-553.6319
 20
179.2055
 10
-553.3917
 20
179.3741
 10
-553.1343
 20
179.5344
 10
-552.8596
 20
179.6863
 10
-552.5677
 20
179.8298
 10
-552.2586
 20
179.9649
 10
-551.9323
 20
180.0917
 10
-551.5941
 20
180.2071
 10
-551.2494
 20
180.3072
 10
-550.8982
 20
180.392
 10
-550.5405
 20
180.4616
 10
-550.1764
 20
180.516
 10
-549.806
 20
180.5552
 10
-549.4292
 20
180.5792
 10
-549.0462
 20
180.588
 10
-548.673
 20
180.5852
 10
-548.3245
 20
180.5743
 10
-548.0005
 20
180.5552
 10
-547.7012
 20
180.528
 10
-547.4266
 20
180.4927
 10
-547.1767
 20
180.4492
 10
-546.9516
 20
180.3975
 10
-546.7514
 20
180.3377
 10
-546.2469
 20
180.1386
 10
-545.809
 20
179.9045
 10
-545.4376
 20
179.6354
 10
-545.1328
 20
179.3315
 10
-544.8946
 20
178.9927
 10
-544.7229
 20
178.6191
 10
-544.6178
 20
178.2108
 10
-544.5792
 20
177.7678
 10
-544.4988
 20
170.3444
  0
LWPOLYLINE
  5
7E
330
1F
100
AcDbEntity
  8
Layer 1
 62
     7
370
     9
100
AcDbPolyline
 90
      165
 70
     1
 43
0.0
 10
-506.4762
 20
170.4679
 10
-502.9887
 20
170.4788
 10
-503.0712
 20
177.9022
 10
-503.1054
 20
178.3948
 10
-503.196
 20
178.8641
 10
-503.3431
 20
179.3101
 10
-503.5466
 20
179.7328
 10
-503.8065
 20
180.1322
 10
-504.123
 20
180.5082
 10
-504.496
 20
180.861
 10
-504.9255
 20
181.1903
 10
-505.1657
 20
181.3474
 10
-505.4204
 20
181.4963
 10
-505.6895
 20
181.6372
 10
-505.9731
 20
181.7701
 10
-506.2714
 20
181.8949
 10
-506.5843
 20
182.0116
 10
-506.912
 20
182.1204
 10
-507.2545
 20
182.2211
 10
-507.6184
 20
182.3117
 10
-508.0103
 20
182.3898
 10
-508.43
 20
182.4557
 10
-508.8776
 20
182.5092
 10
-509.3531
 20
182.5504
 10
-509.8566
 20
182.5793
 10
-510.3879
 20
182.596
 10
-510.9472
 20
182.6005
 10
-511.5113
 20
182.5879
 10
-512.057
 20
182.5544
 10
-512.5846
 20
182.4998
 10
-513.0939
 20
182.4243
 10
-513.5851
 20
182.3279
 10
-514.0581
 20
182.2105
 10
-514.5129
 20
182.0721
 10
-514.9496
 20
181.9129
 10
-515.3293
 20
181.7541
 10
-515.6914
 20
181.5835
 10
-516.0362
 20
181.4012
 10
-516.3635
 20
181.2075
 10
-516.6735
 20
181.0024
 10
-516.9661
 20
180.7861
 10
-517.2416
 20
180.5586
 10
-517.4998
 20
180.3202
 10
-517.705
 20
180.5394
 10
-517.9285
 20
180.7506
 10
-518.1704
 20
180.9532
 10
-518.431
 20
181.1466
 10
-518.67
 20
181.3037
 10
-518.9239
 20
181.4526
 10
-519.1926
 20
181.5935
 10
-519.4761
 20
181.7264
 10
-519.7744
 20
181.8511
 10
-520.0875
 20
181.9679
 10
-520.4154
 20
182.0767
 10
-520.758
 20
182.1774
 10
-521.1219
 20
182.268
 10
-521.5138
 20
182.3461
 10
-521.9335
 20
182.412
 10
-522.3811
 20
182.4655
 10
-522.8566
 20
182.5066
 10
-523.3601
 20
182.5356
 10
-523.8914
 20
182.5522
 10
-524.4507
 20
182.5567
 10
-525.0148
 20
182.5442
 10
-525.5606
 20
182.5106
 10
-526.0882
 20
182.4561
 10
-526.5977
 20
182.3806
 10
-527.0891
 20
182.2842
 10
-527.5624
 20
182.1668
 10
-528.0177
 20
182.0284
 10
-528.4551
 20
181.8692
 10
-528.8161
 20
181.7178
 10
-529.1614
 20
181.5563
 10
-529.4912
 20
181.3847
 10
-529.8054
 20
181.2029
 10
-530.104
 20
181.0108
 10
-530.3871
 20
180.8085
 10
-530.6547
 20
180.5958
 10
-530.9068
 20
180.3727
 10
-530.9269
 20
182.266
 10
-534.4144
 20
182.2539
 10
-534.2837
 20
170.3772
 10
-530.7962
 20
170.3892
 10
-530.8625
 20
176.4669
 10
-530.7852
 20
176.8212
 10
-530.683
 20
177.1617
 10
-530.5557
 20
177.4886
 10
-530.4035
 20
177.8021
 10
-530.2261
 20
178.1021
 10
-530.0237
 20
178.3889
 10
-529.796
 20
178.6626
 10
-529.5432
 20
178.9232
 10
-529.337
 20
179.1084
 10
-529.1137
 20
179.2853
 10
-528.8732
 20
179.4539
 10
-528.6157
 20
179.6142
 10
-528.3411
 20
179.7661
 10
-528.0495
 20
179.9096
 10
-527.7409
 20
180.0447
 10
-527.4153
 20
180.1715
 10
-527.0771
 20
180.2868
 10
-526.7324
 20
180.3868
 10
-526.3813
 20
180.4715
 10
-526.0238
 20
180.541
 10
-525.6599
 20
180.5953
 10
-525.2898
 20
180.6345
 10
-524.9135
 20
180.6587
 10
-524.5311
 20
180.6678
 10
-524.1567
 20
180.665
 10
-523.8074
 20
180.6541
 10
-523.483
 20
180.635
 10
-523.1836
 20
180.6078
 10
-522.9091
 20
180.5725
 10
-522.6594
 20
180.529
 10
-522.4345
 20
180.4773
 10
-522.2343
 20
180.4175
 10
-521.7298
 20
180.2184
 10
-521.2919
 20
179.9843
 10
-520.9207
 20
179.7152
 10
-520.616
 20
179.4113
 10
-520.378
 20
179.0725
 10
-520.2067
 20
178.6989
 10
-520.1021
 20
178.2906
 10
-520.0642
 20
177.8476
 10
-519.9817
 20
170.4242
 10
-516.4942
 20
170.4351
 10
-516.5767
 20
177.8585
 10
-516.6048
 20
178.3132
 10
-516.4778
 20
178.4859
 10
-516.3411
 20
178.652
 10
-516.195
 20
178.8121
 10
-516.0397
 20
178.9669
 10
-515.8342
 20
179.1521
 10
-515.6113
 20
179.329
 10
-515.3711
 20
179.4976
 10
-515.1135
 20
179.6579
 10
-514.8386
 20
179.8098
 10
-514.5463
 20
179.9533
 10
-514.2367
 20
180.0885
 10
-513.9098
 20
180.2153
 10
-513.5717
 20
180.3306
 10
-513.2272
 20
180.4307
 10
-512.8763
 20
180.5156
 10
-512.519
 20
180.5852
 10
-512.1553
 20
180.6396
 10
-511.7851
 20
180.6787
 10
-511.4086
 20
180.7027
 10
-511.0256
 20
180.7115
 10
-510.6519
 20
180.7087
 10
-510.3031
 20
180.6978
 10
-509.9791
 20
180.6787
 10
-509.6799
 20
180.6515
 10
-509.4055
 20
180.6162
 10
-509.1558
 20
180.5727
 10
-508.931
 20
180.521
 10
-508.7308
 20
180.4612
 10
-508.2263
 20
180.2621
 10
-507.7884
 20
180.028
 10
-507.417
 20
179.759
 10
-507.1123
 20
179.455
 10
-506.874
 20
179.1162
 10
-506.7023
 20
178.7427
 10
-506.5972
 20
178.3343
 10
-506.5587
 20
177.8913
 10
-506.4762
 20
170.4679
  0
LWPOLYLINE
  5
7F
330
1F
100
AcDbEntity
  8
Layer 1
 62
     7
370
     9
100
AcDbPolyline
 90
       87
 70
     1
 43
0.0
 10
-645.596
 20
-41.398
 10
-621.7265
 20
-41.3204
 10
-621.7466
 20
-39.4303
 10
-637.195
 20
-39.4806
 10
-625.4554
 20
-33.1001
 10
-624.6894
 20
-32.6405
 10
-624.0265
 20
-32.1585
 10
-623.4667
 20
-31.6541
 10
-623.0099
 20
-31.1274
 10
-622.6562
 20
-30.5783
 10
-622.4056
 20
-30.0067
 10
-622.2579
 20
-29.4128
 10
-622.2132
 20
-28.7964
 10
-622.2732
 20
-28.1665
 10
-622.438
 20
-27.5622
 10
-622.7075
 20
-26.9835
 10
-623.0819
 20
-26.4305
 10
-623.5609
 20
-25.9032
 10
-624.1447
 20
-25.4015
 10
-624.8332
 20
-24.9256
 10
-625.6263
 20
-24.4753
 10
-626.5068
 20
-24.0574
 10
-627.4255
 20
-23.6958
 10
-628.3826
 20
-23.3905
 10
-629.3781
 20
-23.1413
 10
-630.4119
 20
-22.9484
 10
-631.484
 20
-22.8116
 10
-632.5947
 20
-22.7311
 10
-633.7437
 20
-22.7067
 10
-634.9361
 20
-22.7402
 10
-636.0833
 20
-22.8326
 10
-637.1854
 20
-22.9838
 10
-638.2423
 20
-23.1939
 10
-639.2542
 20
-23.463
 10
-640.2211
 20
-23.791
 10
-641.143
 20
-24.178
 10
-642.02
 20
-24.624
 10
-642.7998
 20
-25.1024
 10
-643.4681
 20
-25.6055
 10
-644.0247
 20
-26.1333
 10
-644.4697
 20
-26.6856
 10
-644.803
 20
-27.2626
 10
-645.0248
 20
-27.8641
 10
-645.1349
 20
-28.4902
 10
-645.1334
 20
-29.1408
 10
-641.5956
 20
-29.1298
 10
-641.6297
 20
-28.7078
 10
-641.5797
 20
-28.2954
 10
-641.4456
 20
-27.8924
 10
-641.2273
 20
-27.4989
 10
-640.9248
 20
-27.1148
 10
-640.5381
 20
-26.7401
 10
-640.0672
 20
-26.3748
 10
-639.512
 20
-26.0188
 10
-638.9177
 20
-25.7008
 10
-638.2917
 20
-25.4247
 10
-637.6341
 20
-25.1905
 10
-636.9448
 20
-24.9984
 10
-636.224
 20
-24.8483
 10
-635.4717
 20
-24.7402
 10
-634.6878
 20
-24.6741
 10
-633.8724
 20
-24.6502
 10
-633.0708
 20
-24.6668
 10
-632.2994
 20
-24.7214
 10
-631.5582
 20
-24.814
 10
-630.847
 20
-24.9446
 10
-630.1659
 20
-25.1132
 10
-629.5146
 20
-25.3199
 10
-628.8931
 20
-25.5645
 10
-628.3013
 20
-25.8472
 10
-627.7551
 20
-26.1599
 10
-627.2809
 20
-26.4881
 10
-626.8789
 20
-26.8318
 10
-626.549
 20
-27.1909
 10
-626.2913
 20
-27.5655
 10
-626.1059
 20
-27.9556
 10
-625.9928
 20
-28.3612
 10
-625.9521
 20
-28.7822
 10
-625.9821
 20
-29.2125
 10
-626.0825
 20
-29.6261
 10
-626.2533
 20
-30.023
 10
-626.4944
 20
-30.4033
 10
-626.8058
 20
-30.767
 10
-627.1873
 20
-31.1142
 10
-627.6389
 20
-31.4447
 10
-628.1605
 20
-31.7588
 10
-645.596
 20
-41.398
  0
LWPOLYLINE
  5
80
330
1F
100
AcDbEntity
  8
Layer 1
 62
     7
370
     9
100
AcDbPolyline
 90
        7
 70
     1
 43
0.0
 10
-610.715
 20
-41.2843
 10
-607.2275
 20
-41.2734
 10
-607.4326
 20
-22.7023
 10
-615.7974
 20
-23.2161
 10
-615.7793
 20
-24.8623
 10
-610.896
 20
-24.8459
 10
-610.715
 20
-41.2843
  0
LWPOLYLINE
  5
81
330
1F
100
AcDbEntity
  8
Layer 1
 62
     7
370
     9
100
AcDbPolyline
 90
      136
 70
     1
 43
0.0
 10
-594.9971
 20
-29.6797
 10
-592.7586
 20
-24.7595
 10
-580.5021
 20
-24.7202
 10
-580.5222
 20
-22.8313
 10
-595.4215
 20
-22.8794
 10
-599.2167
 20
-31.1248
 10
-595.4194
 20
-32.0299
 10
-594.8718
 20
-31.8257
 10
-594.2968
 20
-31.6485
 10
-593.6944
 20
-31.4981
 10
-593.0645
 20
-31.3747
 10
-592.4073
 20
-31.2782
 10
-591.7226
 20
-31.2086
 10
-591.0104
 20
-31.1658
 10
-590.2707
 20
-31.1499
 10
-589.5258
 20
-31.1673
 10
-588.8056
 20
-31.2244
 10
-588.1099
 20
-31.3211
 10
-587.4389
 20
-31.4575
 10
-586.7923
 20
-31.6337
 10
-586.1702
 20
-31.8496
 10
-585.5725
 20
-32.1052
 10
-584.9992
 20
-32.4005
 10
-584.4586
 20
-32.7306
 10
-583.9894
 20
-33.0731
 10
-583.5915
 20
-33.4282
 10
-583.265
 20
-33.7957
 10
-583.01
 20
-34.1757
 10
-582.8265
 20
-34.5681
 10
-582.7146
 20
-34.9729
 10
-582.6742
 20
-35.3902
 10
-582.7057
 20
-35.8219
 10
-582.8107
 20
-36.2366
 10
-582.9892
 20
-36.6343
 10
-583.2411
 20
-37.0148
 10
-583.5665
 20
-37.3782
 10
-583.9653
 20
-37.7245
 10
-584.4375
 20
-38.0537
 10
-584.9831
 20
-38.3656
 10
-585.2606
 20
-38.505
 10
-585.5483
 20
-38.6372
 10
-585.8464
 20
-38.7621
 10
-586.1547
 20
-38.8798
 10
-586.4731
 20
-38.9902
 10
-586.8017
 20
-39.0935
 10
-587.1404
 20
-39.1895
 10
-587.4891
 20
-39.2784
 10
-587.8537
 20
-39.3588
 10
-588.2385
 20
-39.4287
 10
-588.6436
 20
-39.488
 10
-589.069
 20
-39.5368
 10
-589.5147
 20
-39.5751
 10
-589.9809
 20
-39.6029
 10
-590.4675
 20
-39.6202
 10
-590.9746
 20
-39.6271
 10
-591.4916
 20
-39.617
 10
-592.0079
 20
-39.5832
 10
-592.5236
 20
-39.526
 10
-593.0386
 20
-39.4451
 10
-593.5531
 20
-39.3407
 10
-594.0671
 20
-39.2127
 10
-594.5806
 20
-39.0611
 10
-595.0936
 20
-38.886
 10
-595.5879
 20
-38.6914
 10
-596.045
 20
-38.4822
 10
-596.465
 20
-38.2586
 10
-596.8477
 20
-38.0205
 10
-597.1932
 20
-37.7679
 10
-597.5014
 20
-37.5009
 10
-597.7723
 20
-37.2195
 10
-598.0059
 20
-36.9238
 10
-601.3868
 20
-37.5283
 10
-601.0493
 20
-37.972
 10
-600.6567
 20
-38.3931
 10
-600.209
 20
-38.7915
 10
-599.7062
 20
-39.1673
 10
-599.1482
 20
-39.5206
 10
-598.535
 20
-39.8512
 10
-597.8667
 20
-40.1593
 10
-597.1431
 20
-40.4448
 10
-596.3752
 20
-40.7047
 10
-595.5905
 20
-40.9295
 10
-594.7891
 20
-41.1193
 10
-593.9709
 20
-41.2739
 10
-593.1358
 20
-41.3935
 10
-592.284
 20
-41.4781
 10
-591.4155
 20
-41.5277
 10
-590.5301
 20
-41.5423
 10
-589.3508
 20
-41.5094
 10
-588.2173
 20
-41.4189
 10
-587.1296
 20
-41.2709
 10
-586.0878
 20
-41.0653
 10
-585.0917
 20
-40.8021
 10
-584.1415
 20
-40.4815
 10
-583.2371
 20
-40.1033
 10
-582.3785
 20
-39.6676
 10
-581.6012
 20
-39.1943
 10
-580.9285
 20
-38.6983
 10
-580.3604
 20
-38.1795
 10
-579.8969
 20
-37.6381
 10
-579.5379
 20
-37.0738
 10
-579.2835
 20
-36.4866
 10
-579.1335
 20
-35.8766
 10
-579.0881
 20
-35.2437
 10
-579.1469
 20
-34.6144
 10
-579.308
 20
-34.0119
 10
-579.5715
 20
-33.4363
 10
-579.9374
 20
-32.8876
 10
-580.4057
 20
-32.3658
 10
-580.9763
 20
-31.8709
 10
-581.6494
 20
-31.4029
 10
-582.4248
 20
-30.9619
 10
-582.821
 20
-30.766
 10
-583.2326
 20
-30.5807
 10
-583.6596
 20
-30.406
 10
-584.1022
 20
-30.2418
 10
-584.5602
 20
-30.0883
 10
-585.0336
 20
-29.9452
 10
-585.5225
 20
-29.8127
 10
-586.0269
 20
-29.6906
 10
-586.5413
 20
-29.5816
 10
-587.0601
 20
-29.4875
 10
-587.5831
 20
-29.4081
 10
-588.1104
 20
-29.3436
 10
-588.6416
 20
-29.2937
 10
-589.1768
 20
-29.2587
 10
-589.7159
 20
-29.2383
 10
-590.2586
 20
-29.2326
 10
-590.8122
 20
-29.2411
 10
-591.3766
 20
-29.2631
 10
-591.9518
 20
-29.2987
 10
-592.5381
 20
-29.3479
 10
-593.1356
 20
-29.4106
 10
-593.7445
 20
-29.4869
 10
-594.3649
 20
-29.5765
 10
-594.9971
 20
-29.6797
  0
LWPOLYLINE
  5
82
330
1F
100
AcDbEntity
  8
Layer 1
 62
     7
370
     9
100
AcDbPolyline
 90
      165
 70
     1
 43
0.0
 10
-544.8387
 20
-41.0165
 10
-541.3512
 20
-41.0055
 10
-541.4336
 20
-33.5821
 10
-541.4678
 20
-33.0895
 10
-541.5585
 20
-32.6203
 10
-541.7055
 20
-32.1743
 10
-541.909
 20
-31.7516
 10
-542.169
 20
-31.3522
 10
-542.4855
 20
-30.9761
 10
-542.8585
 20
-30.6234
 10
-543.288
 20
-30.294
 10
-543.5282
 20
-30.137
 10
-543.7829
 20
-29.9881
 10
-544.052
 20
-29.8474
 10
-544.3356
 20
-29.7147
 10
-544.6339
 20
-29.5899
 10
-544.9468
 20
-29.4732
 10
-545.2745
 20
-29.3643
 10
-545.617
 20
-29.2632
 10
-545.9809
 20
-29.1726
 10
-546.3727
 20
-29.0945
 10
-546.7924
 20
-29.0286
 10
-547.2401
 20
-28.9752
 10
-547.7156
 20
-28.934
 10
-548.2191
 20
-28.905
 10
-548.7504
 20
-28.8884
 10
-549.3097
 20
-28.8839
 10
-549.8738
 20
-28.8965
 10
-550.4195
 20
-28.93
 10
-550.9471
 20
-28.9845
 10
-551.4564
 20
-29.06
 10
-551.9476
 20
-29.1565
 10
-552.4205
 20
-29.2739
 10
-552.8753
 20
-29.4122
 10
-553.312
 20
-29.5715
 10
-553.6917
 20
-29.7303
 10
-554.0538
 20
-29.9009
 10
-554.3986
 20
-30.0831
 10
-554.7259
 20
-30.2768
 10
-555.0359
 20
-30.4819
 10
-555.3286
 20
-30.6982
 10
-555.6041
 20
-30.9257
 10
-555.8623
 20
-31.1641
 10
-556.0675
 20
-30.9456
 10
-556.291
 20
-30.7347
 10
-556.5329
 20
-30.5322
 10
-556.7935
 20
-30.3388
 10
-557.0325
 20
-30.1815
 10
-557.2864
 20
-30.0323
 10
-557.5551
 20
-29.8914
 10
-557.8386
 20
-29.7585
 10
-558.1369
 20
-29.6337
 10
-558.45
 20
-29.5169
 10
-558.7779
 20
-29.408
 10
-559.1205
 20
-29.3069
 10
-559.4844
 20
-29.2164
 10
-559.8762
 20
-29.1382
 10
-560.2959
 20
-29.0724
 10
-560.7436
 20
-29.0189
 10
-561.2191
 20
-28.9777
 10
-561.7226
 20
-28.9487
 10
-562.2539
 20
-28.9321
 10
-562.8132
 20
-28.9276
 10
-563.3773
 20
-28.9402
 10
-563.9231
 20
-28.9737
 10
-564.4507
 20
-29.0282
 10
-564.9602
 20
-29.1037
 10
-565.4515
 20
-29.2002
 10
-565.9249
 20
-29.3176
 10
-566.3802
 20
-29.4559
 10
-566.8175
 20
-29.6152
 10
-567.1785
 20
-29.7666
 10
-567.5239
 20
-29.9282
 10
-567.8536
 20
-30.1
 10
-568.1678
 20
-30.282
 10
-568.4665
 20
-30.4743
 10
-568.7496
 20
-30.6768
 10
-569.0172
 20
-30.8896
 10
-569.2693
 20
-31.1128
 10
-569.2894
 20
-29.2195
 10
-572.7769
 20
-29.2304
 10
-572.6441
 20
-41.1072
 10
-569.1586
 20
-41.0963
 10
-569.225
 20
-35.0185
 10
-569.1477
 20
-34.6639
 10
-569.0454
 20
-34.3231
 10
-568.9182
 20
-33.9961
 10
-568.7659
 20
-33.6826
 10
-568.5886
 20
-33.3826
 10
-568.3861
 20
-33.0959
 10
-568.1585
 20
-32.8226
 10
-567.9056
 20
-32.5623
 10
-567.6994
 20
-32.3767
 10
-567.4761
 20
-32.1995
 10
-567.2357
 20
-32.0307
 10
-566.9782
 20
-31.8703
 10
-566.7036
 20
-31.7183
 10
-566.412
 20
-31.5748
 10
-566.1033
 20
-31.4396
 10
-565.7777
 20
-31.3128
 10
-565.4395
 20
-31.1978
 10
-565.0948
 20
-31.098
 10
-564.7436
 20
-31.0134
 10
-564.386
 20
-30.9439
 10
-564.0219
 20
-30.8896
 10
-563.6514
 20
-30.8504
 10
-563.2747
 20
-30.8264
 10
-562.8916
 20
-30.8176
 10
-562.5179
 20
-30.8204
 10
-562.169
 20
-30.8312
 10
-561.845
 20
-30.85
 10
-561.5458
 20
-30.877
 10
-561.2714
 20
-30.9122
 10
-561.0218
 20
-30.9555
 10
-560.797
 20
-31.0071
 10
-560.5968
 20
-31.0669
 10
-560.0923
 20
-31.2664
 10
-559.6544
 20
-31.5007
 10
-559.283
 20
-31.7699
 10
-558.9782
 20
-32.0739
 10
-558.74
 20
-32.4126
 10
-558.5683
 20
-32.7861
 10
-558.4632
 20
-33.1941
 10
-558.4246
 20
-33.6368
 10
-558.3442
 20
-41.0602
 10
-554.8567
 20
-41.0493
 10
-554.9391
 20
-33.6259
 10
-554.9673
 20
-33.1711
 10
-554.8402
 20
-32.9989
 10
-554.7036
 20
-32.833
 10
-554.5574
 20
-32.6729
 10
-554.4021
 20
-32.5185
 10
-554.1966
 20
-32.3329
 10
-553.9737
 20
-32.1557
 10
-553.7335
 20
-31.9869
 10
-553.4759
 20
-31.8266
 10
-553.201
 20
-31.6746
 10
-552.9088
 20
-31.531
 10
-552.5992
 20
-31.3959
 10
-552.2722
 20
-31.2691
 10
-551.9341
 20
-31.1541
 10
-551.5896
 20
-31.0543
 10
-551.2388
 20
-30.9696
 10
-550.8815
 20
-30.9002
 10
-550.5177
 20
-30.8458
 10
-550.1476
 20
-30.8067
 10
-549.7711
 20
-30.7827
 10
-549.3881
 20
-30.7739
 10
-549.0144
 20
-30.7767
 10
-548.6655
 20
-30.7875
 10
-548.3415
 20
-30.8063
 10
-548.0423
 20
-30.8333
 10
-547.7679
 20
-30.8685
 10
-547.5183
 20
-30.9118
 10
-547.2935
 20
-30.9633
 10
-547.0933
 20
-31.0231
 10
-546.5888
 20
-31.2225
 10
-546.1509
 20
-31.4568
 10
-545.7795
 20
-31.7259
 10
-545.4747
 20
-32.0298
 10
-545.2365
 20
-32.3684
 10
-545.0648
 20
-32.7419
 10
-544.9597
 20
-33.1501
 10
-544.9211
 20
-33.5931
 10
-544.8387
 20
-41.0165
  0
LWPOLYLINE
  5
83
330
1F
100
AcDbEntity
  8
Layer 1
 62
     7
370
     9
100
AcDbPolyline
 90
      165
 70
     1
 43
0.0
 10
-506.8181
 20
-40.8929
 10
-503.3306
 20
-40.882
 10
-503.4131
 20
-33.4586
 10
-503.4466
 20
-32.966
 10
-503.5368
 20
-32.4968
 10
-503.6835
 20
-32.0508
 10
-503.887
 20
-31.6282
 10
-504.147
 20
-31.2289
 10
-504.4638
 20
-30.8531
 10
-504.8372
 20
-30.5006
 10
-505.2674
 20
-30.1716
 10
-505.5071
 20
-30.0142
 10
-505.7614
 20
-29.8651
 10
-506.0305
 20
-29.7241
 10
-506.3143
 20
-29.5913
 10
-506.6128
 20
-29.4665
 10
-506.926
 20
-29.3497
 10
-507.2539
 20
-29.2408
 10
-507.5965
 20
-29.1397
 10
-507.9603
 20
-29.0491
 10
-508.3519
 20
-28.971
 10
-508.7714
 20
-28.9051
 10
-509.2188
 20
-28.8517
 10
-509.6942
 20
-28.8105
 10
-510.1976
 20
-28.7815
 10
-510.7293
 20
-28.7649
 10
-511.2891
 20
-28.7604
 10
-511.8525
 20
-28.7729
 10
-512.3978
 20
-28.8065
 10
-512.9251
 20
-28.861
 10
-513.4343
 20
-28.9365
 10
-513.9256
 20
-29.0329
 10
-514.3988
 20
-29.1503
 10
-514.8541
 20
-29.2887
 10
-515.2915
 20
-29.4479
 10
-515.6706
 20
-29.6067
 10
-516.0325
 20
-29.7773
 10
-516.3771
 20
-29.9596
 10
-516.7044
 20
-30.1533
 10
-517.0144
 20
-30.3584
 10
-517.3069
 20
-30.5747
 10
-517.5821
 20
-30.8022
 10
-517.8397
 20
-31.0406
 10
-518.0452
 20
-30.822
 10
-518.2691
 20
-30.6112
 10
-518.5111
 20
-30.4087
 10
-518.7709
 20
-30.2153
 10
-519.0106
 20
-30.0579
 10
-519.2649
 20
-29.9088
 10
-519.534
 20
-29.7679
 10
-519.8178
 20
-29.6351
 10
-520.1163
 20
-29.5105
 10
-520.4295
 20
-29.3938
 10
-520.7574
 20
-29.2852
 10
-521.1
 20
-29.1845
 10
-521.4639
 20
-29.0936
 10
-521.8557
 20
-29.0151
 10
-522.2753
 20
-28.9491
 10
-522.7228
 20
-28.8955
 10
-523.1981
 20
-28.8542
 10
-523.7012
 20
-28.8252
 10
-524.232
 20
-28.8086
 10
-524.7906
 20
-28.8041
 10
-525.3553
 20
-28.8167
 10
-525.9016
 20
-28.8502
 10
-526.4295
 20
-28.9047
 10
-526.9391
 20
-28.9802
 10
-527.4304
 20
-29.0767
 10
-527.9034
 20
-29.1941
 10
-528.3583
 20
-29.3324
 10
-528.795
 20
-29.4917
 10
-529.1566
 20
-29.6431
 10
-529.5022
 20
-29.8047
 10
-529.832
 20
-29.9765
 10
-530.146
 20
-30.1585
 10
-530.4444
 20
-30.3507
 10
-530.7273
 20
-30.5533
 10
-530.9947
 20
-30.7661
 10
-531.2467
 20
-30.9892
 10
-531.2688
 20
-29.096
 10
-534.7543
 20
-29.1069
 10
-534.6236
 20
-40.9837
 10
-531.1361
 20
-40.9727
 10
-531.2044
 20
-34.895
 10
-531.127
 20
-34.5404
 10
-531.0246
 20
-34.1996
 10
-530.8971
 20
-33.8725
 10
-530.7446
 20
-33.559
 10
-530.5672
 20
-33.259
 10
-530.3647
 20
-32.9724
 10
-530.1374
 20
-32.699
 10
-529.8851
 20
-32.4387
 10
-529.6789
 20
-32.2531
 10
-529.4556
 20
-32.0759
 10
-529.2151
 20
-31.9071
 10
-528.9574
 20
-31.7468
 10
-528.6826
 20
-31.5948
 10
-528.3906
 20
-31.4512
 10
-528.0815
 20
-31.3161
 10
-527.7552
 20
-31.1893
 10
-527.4177
 20
-31.0743
 10
-527.0735
 20
-30.9745
 10
-526.7226
 20
-30.8898
 10
-526.3652
 20
-30.8204
 10
-526.0012
 20
-30.766
 10
-525.6308
 20
-30.7269
 10
-525.2541
 20
-30.7029
 10
-524.871
 20
-30.6941
 10
-524.4967
 20
-30.6969
 10
-524.1476
 20
-30.7077
 10
-523.8236
 20
-30.7265
 10
-523.5245
 20
-30.7535
 10
-523.2503
 20
-30.7887
 10
-523.001
 20
-30.832
 10
-522.7763
 20
-30.8835
 10
-522.5762
 20
-30.9433
 10
-522.0717
 20
-31.1428
 10
-521.6338
 20
-31.3772
 10
-521.2624
 20
-31.6464
 10
-520.9577
 20
-31.9505
 10
-520.7194
 20
-32.2894
 10
-520.5477
 20
-32.663
 10
-520.4426
 20
-33.0714
 10
-520.4041
 20
-33.5144
 10
-520.3216
 20
-40.9367
 10
-516.8341
 20
-40.9257
 10
-516.9166
 20
-33.5023
 10
-516.9467
 20
-33.0476
 10
-516.8197
 20
-32.8754
 10
-516.683
 20
-32.7094
 10
-516.5369
 20
-32.5494
 10
-516.3816
 20
-32.395
 10
-516.1754
 20
-32.2094
 10
-515.9521
 20
-32.0322
 10
-515.7116
 20
-31.8634
 10
-515.4539
 20
-31.7031
 10
-515.1791
 20
-31.5511
 10
-514.8871
 20
-31.4075
 10
-514.578
 20
-31.2724
 10
-514.2517
 20
-31.1456
 10
-513.9135
 20
-31.0306
 10
-513.5688
 20
-30.9308
 10
-513.2177
 20
-30.8461
 10
-512.8602
 20
-30.7767
 10
-512.4963
 20
-30.7223
 10
-512.1262
 20
-30.6832
 10
-511.7499
 20
-30.6592
 10
-511.3675
 20
-30.6504
 10
-510.9937
 20
-30.6532
 10
-510.6446
 20
-30.664
 10
-510.3203
 20
-30.6828
 10
-510.0208
 20
-30.7098
 10
-509.746
 20
-30.745
 10
-509.496
 20
-30.7883
 10
-509.2709
 20
-30.8398
 10
-509.0707
 20
-30.8996
 10
-508.5662
 20
-31.099
 10
-508.1283
 20
-31.3333
 10
-507.7571
 20
-31.6024
 10
-507.4524
 20
-31.9063
 10
-507.2144
 20
-32.2449
 10
-507.0431
 20
-32.6184
 10
-506.9385
 20
-33.0266
 10
-506.9006
 20
-33.4695
 10
-506.8181
 20
-40.8929
  0
LWPOLYLINE
  5
84
330
1F
100
AcDbEntity
  8
Layer 1
 62
     7
370
     9
100
AcDbPolyline
 90
      137
 70
     1
 43
0.0
 10
-573.7664
 20
51.0956
 10
-573.9945
 20
51.3714
 10
-574.243
 20
51.6387
 10
-574.5118
 20
51.8977
 10
-574.8009
 20
52.1483
 10
-575.1103
 20
52.3904
 10
-575.4399
 20
52.6242
 10
-575.7898
 20
52.8495
 10
-576.1598
 20
53.0665
 10
-576.9962
 20
53.4934
 10
-577.8794
 20
53.8634
 10
-578.8092
 20
54.1764
 10
-579.7858
 20
54.4325
 10
-580.809
 20
54.6316
 10
-581.8789
 20
54.7738
 10
-582.9954
 20
54.8592
 10
-584.1585
 20
54.8876
 10
-585.3224
 20
54.8587
 10
-586.4411
 20
54.7722
 10
-587.5148
 20
54.6279
 10
-588.5433
 20
54.4258
 10
-589.5266
 20
54.1659
 10
-590.4648
 20
53.8481
 10
-591.3578
 20
53.4726
 10
-592.2055
 20
53.0391
 10
-592.9373
 20
52.5911
 10
-593.5819
 20
52.1145
 10
-594.1394
 20
51.6092
 10
-594.6097
 20
51.0753
 10
-594.9928
 20
50.5127
 10
-595.2886
 20
49.9214
 10
-595.4973
 20
49.3013
 10
-595.6186
 20
48.6524
 10
-594.7236
 20
47.8435
 10
-607.2798
 20
53.5922
 10
-607.2798
 20
43.7137
 10
-603.7923
 20
43.7137
 10
-603.7923
 20
49.7598
 10
-591.8314
 20
44.199
 10
-589.6894
 20
45.6299
 10
-590.2501
 20
45.9613
 10
-590.7359
 20
46.308
 10
-591.1469
 20
46.6698
 10
-591.4832
 20
47.0468
 10
-591.7447
 20
47.439
 10
-591.9314
 20
47.8465
 10
-592.0435
 20
48.2692
 10
-592.0808
 20
48.7071
 10
-592.0446
 20
49.1441
 10
-591.936
 20
49.5646
 10
-591.755
 20
49.9688
 10
-591.5016
 20
50.3566
 10
-591.1757
 20
50.728
 10
-590.7775
 20
51.083
 10
-590.3069
 20
51.4216
 10
-589.7638
 20
51.7438
 10
-589.1701
 20
52.0378
 10
-588.5476
 20
52.2927
 10
-587.8963
 20
52.5083
 10
-587.2161
 20
52.6848
 10
-586.507
 20
52.8221
 10
-585.7691
 20
52.9202
 10
-585.0024
 20
52.9791
 10
-584.2068
 20
52.9987
 10
-583.4289
 20
52.9787
 10
-582.6776
 20
52.9186
 10
-581.9528
 20
52.8184
 10
-581.2545
 20
52.6781
 10
-580.5828
 20
52.4978
 10
-579.9374
 20
52.2774
 10
-579.3186
 20
52.0169
 10
-578.7261
 20
51.7164
 10
-578.4711
 20
51.5681
 10
-578.2294
 20
51.4135
 10
-578.001
 20
51.2526
 10
-577.7859
 20
51.0853
 10
-577.5839
 20
50.9117
 10
-577.3951
 20
50.7318
 10
-577.2194
 20
50.5457
 10
-577.0568
 20
50.3533
 10
-576.9105
 20
50.1527
 10
-576.7838
 20
49.9418
 10
-576.6766
 20
49.7207
 10
-576.5889
 20
49.4895
 10
-576.5208
 20
49.2481
 10
-576.4722
 20
48.9966
 10
-576.443
 20
48.735
 10
-576.4333
 20
48.4633
 10
-576.4548
 20
48.187
 10
-576.5192
 20
47.9105
 10
-576.6265
 20
47.634
 10
-576.7765
 20
47.3575
 10
-576.9692
 20
47.0808
 10
-577.2046
 20
46.8042
 10
-577.4826
 20
46.5275
 10
-577.803
 20
46.2508
 10
-578.1613
 20
45.9842
 10
-578.5497
 20
45.7378
 10
-578.9684
 20
45.5117
 10
-579.4173
 20
45.3057
 10
-579.8964
 20
45.12
 10
-580.4059
 20
44.9545
 10
-580.9456
 20
44.8093
 10
-581.5157
 20
44.6844
 10
-580.3713
 20
42.849
 10
-579.5589
 20
43.0235
 10
-578.7856
 20
43.2296
 10
-578.0512
 20
43.4674
 10
-577.3559
 20
43.7368
 10
-576.6997
 20
44.0378
 10
-576.0824
 20
44.3704
 10
-575.5043
 20
44.7346
 10
-574.9651
 20
45.1304
 10
-574.7283
 20
45.325
 10
-574.5049
 20
45.5243
 10
-574.295
 20
45.7283
 10
-574.0985
 20
45.9369
 10
-573.9153
 20
46.1501
 10
-573.7452
 20
46.3678
 10
-573.5884
 20
46.5902
 10
-573.4446
 20
46.8171
 10
-573.3159
 20
47.0498
 10
-573.2044
 20
47.2887
 10
-573.11
 20
47.534
 10
-573.0328
 20
47.7856
 10
-572.9727
 20
48.0435
 10
-572.9298
 20
48.3078
 10
-572.9041
 20
48.5785
 10
-572.8955
 20
48.8557
 10
-572.9092
 20
49.1357
 10
-572.9501
 20
49.4157
 10
-573.0183
 20
49.6957
 10
-573.1138
 20
49.9757
 10
-573.2363
 20
50.2556
 10
-573.386
 20
50.5356
 10
-573.5627
 20
50.8156
 10
-573.7664
 20
51.0956
  0
LWPOLYLINE
  5
85
330
1F
100
AcDbEntity
  8
Layer 1
 62
     7
370
     9
100
AcDbPolyline
 90
      129
 70
     1
 43
0.0
 10
-603.3417
 20
64.5377
 10
-602.951
 20
64.8493
 10
-602.5075
 20
65.1399
 10
-602.011
 20
65.4094
 10
-601.4615
 20
65.6577
 10
-600.8589
 20
65.8851
 10
-600.2032
 20
66.0913
 10
-599.4942
 20
66.2766
 10
-598.732
 20
66.4408
 10
-597.7222
 20
66.6241
 10
-596.6975
 20
66.7831
 10
-595.6579
 20
66.9176
 10
-594.6034
 20
67.0277
 10
-593.534
 20
67.1133
 10
-592.4497
 20
67.1745
 10
-591.3506
 20
67.2113
 10
-590.2365
 20
67.2235
 10
-589.9696
 20
67.2222
 10
-589.6909
 20
67.2184
 10
-589.4003
 20
67.212
 10
-589.0979
 20
67.2032
 10
-588.7837
 20
67.1918
 10
-588.4578
 20
67.1779
 10
-588.1201
 20
67.1615
 10
-587.7707
 20
67.1426
 10
-586.4312
 20
67.0488
 10
-585.1656
 20
66.9263
 10
-583.974
 20
66.7753
 10
-582.8562
 20
66.5956
 10
-581.8124
 20
66.3873
 10
-580.8425
 20
66.1504
 10
-579.9464
 20
65.8847
 10
-579.1243
 20
65.5904
 10
-578.5056
 20
65.3217
 10
-577.9693
 20
65.0386
 10
-577.5154
 20
64.7412
 10
-577.144
 20
64.4295
 10
-576.8551
 20
64.1034
 10
-576.6487
 20
63.7629
 10
-576.5249
 20
63.4081
 10
-576.4836
 20
63.039
 10
-576.5245
 20
62.6271
 10
-576.6472
 20
62.2351
 10
-576.8516
 20
61.863
 10
-577.1378
 20
61.5107
 10
-577.5055
 20
61.1782
 10
-577.9549
 20
60.8656
 10
-578.4858
 20
60.5727
 10
-579.0982
 20
60.2997
 10
-579.3961
 20
60.1841
 10
-579.7032
 20
60.0736
 10
-580.0194
 20
59.9681
 10
-580.3449
 20
59.8677
 10
-580.6798
 20
59.7724
 10
-581.024
 20
59.6822
 10
-581.3777
 20
59.597
 10
-581.741
 20
59.517
 10
-582.1095
 20
59.4418
 10
-582.4805
 20
59.3713
 10
-582.8538
 20
59.3053
 10
-583.2296
 20
59.244
 10
-583.6077
 20
59.1873
 10
-583.9881
 20
59.1351
 10
-584.3708
 20
59.0876
 10
-584.7558
 20
59.0447
 10
-585.1404
 20
59.0056
 10
-585.5218
 20
58.9695
 10
-585.9001
 20
58.9363
 10
-586.2754
 20
58.9062
 10
-586.6476
 20
58.879
 10
-587.0168
 20
58.8547
 10
-587.3832
 20
58.8335
 10
-587.7466
 20
58.8152
 10
-588.1147
 20
58.7994
 10
-588.4966
 20
58.7857
 10
-588.8922
 20
58.7741
 10
-589.3015
 20
58.7645
 10
-589.7244
 20
58.757
 10
-590.1611
 20
58.7517
 10
-590.6113
 20
58.7485
 10
-591.0752
 20
58.7474
 10
-591.5598
 20
58.7521
 10
-592.0724
 20
58.766
 10
-592.6132
 20
58.7893
 10
-593.1822
 20
58.8219
 10
-593.7796
 20
58.8637
 10
-594.4055
 20
58.9148
 10
-595.0601
 20
58.9751
 10
-595.7433
 20
59.0447
 10
-596.123
 20
59.0874
 10
-596.502
 20
59.1342
 10
-596.8801
 20
59.1851
 10
-597.2575
 20
59.2403
 10
-597.6339
 20
59.2997
 10
-598.0096
 20
59.3634
 10
-598.3843
 20
59.4315
 10
-598.7581
 20
59.5039
 10
-599.1275
 20
59.5808
 10
-599.4874
 20
59.6631
 10
-599.838
 20
59.7509
 10
-600.1791
 20
59.8442
 10
-600.5107
 20
59.943
 10
-600.833
 20
60.0472
 10
-601.1458
 20
60.157
 10
-601.4492
 20
60.2723
 10
-601.7405
 20
60.3933
 10
-602.0171
 20
60.5203
 10
-602.279
 20
60.6532
 10
-602.5262
 20
60.792
 10
-602.7587
 20
60.9366
 10
-602.9765
 20
61.0872
 10
-603.1795
 20
61.2436
 10
-603.3679
 20
61.4059
 10
-603.5375
 20
61.5752
 10
-603.6844
 20
61.7521
 10
-603.8085
 20
61.9365
 10
-603.9099
 20
62.1284
 10
-603.9887
 20
62.328
 10
-604.045
 20
62.5351
 10
-604.0787
 20
62.7499
 10
-604.0899
 20
62.9723
 10
-604.0782
 20
63.1944
 10
-604.0431
 20
63.4089
 10
-603.9847
 20
63.6158
 10
-603.9029
 20
63.8153
 10
-603.7976
 20
64.0071
 10
-603.669
 20
64.1915
 10
-603.5171
 20
64.3684
 10
-603.3417
 20
64.5377
  0
LWPOLYLINE
  5
86
330
1F
100
AcDbEntity
  8
Layer 1
 62
     7
370
     9
100
AcDbPolyline
 90
       65
 70
     1
 43
0.0
 10
-572.9458
 20
63.0663
 10
-573.038
 20
63.8545
 10
-573.3147
 20
64.5925
 10
-573.7758
 20
65.2802
 10
-574.4216
 20
65.9177
 10
-575.2519
 20
66.5051
 10
-576.2668
 20
67.0421
 10
-577.4664
 20
67.529
 10
-578.8508
 20
67.9657
 10
-580.058
 20
68.2724
 10
-581.3324
 20
68.5382
 10
-582.674
 20
68.7631
 10
-584.0826
 20
68.9471
 10
-585.5581
 20
69.0902
 10
-587.1004
 20
69.1924
 10
-588.7095
 20
69.2538
 10
-590.3853
 20
69.2742
 10
-592.0622
 20
69.2538
 10
-593.6719
 20
69.1924
 10
-595.2145
 20
69.0902
 10
-596.6901
 20
68.9471
 10
-598.0987
 20
68.7631
 10
-599.4404
 20
68.5382
 10
-600.7154
 20
68.2724
 10
-601.9238
 20
67.9657
 10
-603.307
 20
67.529
 10
-604.5061
 20
67.0421
 10
-605.521
 20
66.5051
 10
-606.3516
 20
65.9177
 10
-606.9977
 20
65.2802
 10
-607.4594
 20
64.5925
 10
-607.7364
 20
63.8545
 10
-607.8288
 20
63.0663
 10
-607.7364
 20
62.2781
 10
-607.4594
 20
61.5402
 10
-606.9977
 20
60.8525
 10
-606.3516
 20
60.215
 10
-605.521
 20
59.6276
 10
-604.5061
 20
59.0906
 10
-603.307
 20
58.6037
 10
-601.9238
 20
58.167
 10
-600.7154
 20
57.8603
 10
-599.4404
 20
57.5945
 10
-598.0987
 20
57.3696
 10
-596.6901
 20
57.1856
 10
-595.2145
 20
57.0425
 10
-593.6719
 20
56.9403
 10
-592.0622
 20
56.8789
 10
-590.3853
 20
56.8585
 10
-588.7095
 20
56.8789
 10
-587.1004
 20
56.9403
 10
-585.5581
 20
57.0425
 10
-584.0826
 20
57.1856
 10
-582.674
 20
57.3696
 10
-581.3324
 20
57.5945
 10
-580.058
 20
57.8603
 10
-578.8508
 20
58.167
 10
-577.4664
 20
58.6037
 10
-576.2668
 20
59.0906
 10
-575.2519
 20
59.6276
 10
-574.4216
 20
60.215
 10
-573.7758
 20
60.8525
 10
-573.3147
 20
61.5402
 10
-573.038
 20
62.2781
 10
-572.9458
 20
63.0663
  0
LWPOLYLINE
  5
87
330
1F
100
AcDbEntity
  8
Layer 1
 62
     7
370
     9
100
AcDbPolyline
 90
      129
 70
     1
 43
0.0
 10
-603.3417
 20
79.6534
 10
-602.951
 20
79.965
 10
-602.5075
 20
80.2556
 10
-602.011
 20
80.5251
 10
-601.4615
 20
80.7734
 10
-600.8589
 20
81.0008
 10
-600.2032
 20
81.207
 10
-599.4942
 20
81.3923
 10
-598.732
 20
81.5565
 10
-597.7222
 20
81.7398
 10
-596.6975
 20
81.8988
 10
-595.6579
 20
82.0333
 10
-594.6034
 20
82.1434
 10
-593.534
 20
82.229
 10
-592.4497
 20
82.2902
 10
-591.3506
 20
82.327
 10
-590.2365
 20
82.3392
 10
-589.9696
 20
82.3379
 10
-589.6909
 20
82.3341
 10
-589.4003
 20
82.3277
 10
-589.0979
 20
82.3189
 10
-588.7837
 20
82.3075
 10
-588.4578
 20
82.2936
 10
-588.1201
 20
82.2772
 10
-587.7707
 20
82.2583
 10
-586.4312
 20
82.1645
 10
-585.1656
 20
82.042
 10
-583.974
 20
81.891
 10
-582.8562
 20
81.7113
 10
-581.8124
 20
81.503
 10
-580.8425
 20
81.2661
 10
-579.9464
 20
81.0004
 10
-579.1243
 20
80.7061
 10
-578.5056
 20
80.4374
 10
-577.9693
 20
80.1543
 10
-577.5154
 20
79.8569
 10
-577.144
 20
79.5452
 10
-576.8551
 20
79.2191
 10
-576.6487
 20
78.8786
 10
-576.5249
 20
78.5238
 10
-576.4836
 20
78.1547
 10
-576.5245
 20
77.7428
 10
-576.6472
 20
77.3508
 10
-576.8516
 20
76.9787
 10
-577.1378
 20
76.6264
 10
-577.5055
 20
76.2939
 10
-577.9549
 20
75.9813
 10
-578.4858
 20
75.6884
 10
-579.0982
 20
75.4154
 10
-579.3961
 20
75.2998
 10
-579.7032
 20
75.1893
 10
-580.0194
 20
75.0838
 10
-580.3449
 20
74.9834
 10
-580.6798
 20
74.8881
 10
-581.024
 20
74.7979
 10
-581.3777
 20
74.7127
 10
-581.741
 20
74.6327
 10
-582.1095
 20
74.5575
 10
-582.4805
 20
74.487
 10
-582.8538
 20
74.421
 10
-583.2296
 20
74.3597
 10
-583.6077
 20
74.303
 10
-583.9881
 20
74.2509
 10
-584.3708
 20
74.2034
 10
-584.7558
 20
74.1605
 10
-585.1404
 20
74.1214
 10
-585.5218
 20
74.0852
 10
-585.9001
 20
74.0521
 10
-586.2754
 20
74.0219
 10
-586.6476
 20
73.9947
 10
-587.0168
 20
73.9704
 10
-587.3832
 20
73.9492
 10
-587.7466
 20
73.9309
 10
-588.1147
 20
73.9151
 10
-588.4966
 20
73.9014
 10
-588.8922
 20
73.8898
 10
-589.3015
 20
73.8802
 10
-589.7244
 20
73.8727
 10
-590.1611
 20
73.8674
 10
-590.6113
 20
73.8642
 10
-591.0752
 20
73.8631
 10
-591.5598
 20
73.8678
 10
-592.0724
 20
73.8817
 10
-592.6132
 20
73.905
 10
-593.1822
 20
73.9376
 10
-593.7796
 20
73.9794
 10
-594.4055
 20
74.0305
 10
-595.0601
 20
74.0909
 10
-595.7433
 20
74.1605
 10
-596.123
 20
74.2031
 10
-596.502
 20
74.2499
 10
-596.8801
 20
74.3008
 10
-597.2575
 20
74.356
 10
-597.6339
 20
74.4154
 10
-598.0096
 20
74.4791
 10
-598.3843
 20
74.5472
 10
-598.7581
 20
74.6196
 10
-599.1275
 20
74.6965
 10
-599.4874
 20
74.7788
 10
-599.838
 20
74.8666
 10
-600.1791
 20
74.9599
 10
-600.5107
 20
75.0587
 10
-600.833
 20
75.1629
 10
-601.1458
 20
75.2727
 10
-601.4492
 20
75.388
 10
-601.7405
 20
75.5091
 10
-602.0171
 20
75.636
 10
-602.279
 20
75.7689
 10
-602.5262
 20
75.9077
 10
-602.7587
 20
76.0524
 10
-602.9765
 20
76.2029
 10
-603.1795
 20
76.3593
 10
-603.3679
 20
76.5216
 10
-603.5375
 20
76.6909
 10
-603.6844
 20
76.8678
 10
-603.8085
 20
77.0522
 10
-603.9099
 20
77.2441
 10
-603.9887
 20
77.4437
 10
-604.045
 20
77.6508
 10
-604.0787
 20
77.8656
 10
-604.0899
 20
78.088
 10
-604.0782
 20
78.3101
 10
-604.0431
 20
78.5246
 10
-603.9847
 20
78.7316
 10
-603.9029
 20
78.931
 10
-603.7976
 20
79.1229
 10
-603.669
 20
79.3072
 10
-603.5171
 20
79.4841
 10
-603.3417
 20
79.6534
  0
LWPOLYLINE
  5
88
330
1F
100
AcDbEntity
  8
Layer 1
 62
     7
370
     9
100
AcDbPolyline
 90
       65
 70
     1
 43
0.0
 10
-572.9458
 20
78.1821
 10
-573.038
 20
78.9703
 10
-573.3147
 20
79.7082
 10
-573.7758
 20
80.3959
 10
-574.4216
 20
81.0335
 10
-575.2519
 20
81.6208
 10
-576.2668
 20
82.1579
 10
-577.4664
 20
82.6447
 10
-578.8508
 20
83.0814
 10
-580.058
 20
83.3881
 10
-581.3324
 20
83.6539
 10
-582.674
 20
83.8788
 10
-584.0826
 20
84.0628
 10
-585.5581
 20
84.2059
 10
-587.1004
 20
84.3081
 10
-588.7095
 20
84.3695
 10
-590.3853
 20
84.3899
 10
-592.0622
 20
84.3695
 10
-593.6719
 20
84.3081
 10
-595.2145
 20
84.2059
 10
-596.6901
 20
84.0628
 10
-598.0987
 20
83.8788
 10
-599.4404
 20
83.6539
 10
-600.7154
 20
83.3881
 10
-601.9238
 20
83.0814
 10
-603.307
 20
82.6447
 10
-604.5061
 20
82.1579
 10
-605.521
 20
81.6208
 10
-606.3516
 20
81.0335
 10
-606.9977
 20
80.3959
 10
-607.4594
 20
79.7082
 10
-607.7364
 20
78.9703
 10
-607.8288
 20
78.1821
 10
-607.7364
 20
77.3939
 10
-607.4594
 20
76.6559
 10
-606.9977
 20
75.9682
 10
-606.3516
 20
75.3307
 10
-605.521
 20
74.7433
 10
-604.5061
 20
74.2063
 10
-603.307
 20
73.7194
 10
-601.9238
 20
73.2827
 10
-600.7154
 20
72.976
 10
-599.4404
 20
72.7102
 10
-598.0987
 20
72.4853
 10
-596.6901
 20
72.3013
 10
-595.2145
 20
72.1582
 10
-593.6719
 20
72.056
 10
-592.0622
 20
71.9946
 10
-590.3853
 20
71.9742
 10
-588.7095
 20
71.9946
 10
-587.1004
 20
72.056
 10
-585.5581
 20
72.1582
 10
-584.0826
 20
72.3013
 10
-582.674
 20
72.4853
 10
-581.3324
 20
72.7102
 10
-580.058
 20
72.976
 10
-578.8508
 20
73.2827
 10
-577.4664
 20
73.7194
 10
-576.2668
 20
74.2063
 10
-575.2519
 20
74.7433
 10
-574.4216
 20
75.3307
 10
-573.7758
 20
75.9682
 10
-573.3147
 20
76.6559
 10
-573.038
 20
77.3939
 10
-572.9458
 20
78.1821
  0
LWPOLYLINE
  5
89
330
1F
100
AcDbEntity
  8
Layer 1
 62
     7
370
     9
100
AcDbPolyline
 90
      169
 70
     1
 43
0.0
 10
-573.4929
 20
102.8265
 10
-573.4929
 20
104.7154
 10
-587.1975
 20
104.7154
 10
-588.107
 20
104.7
 10
-588.9739
 20
104.6539
 10
-589.7983
 20
104.577
 10
-590.5799
 20
104.4693
 10
-591.3187
 20
104.3308
 10
-592.0147
 20
104.1616
 10
-592.6676
 20
103.9615
 10
-593.2775
 20
103.7305
 10
-593.5688
 20
103.6015
 10
-593.8454
 20
103.4646
 10
-594.1072
 20
103.3198
 10
-594.3542
 20
103.167
 10
-594.5865
 20
103.0062
 10
-594.8039
 20
102.8374
 10
-595.0065
 20
102.6606
 10
-595.1942
 20
102.4756
 10
-595.3639
 20
102.2791
 10
-595.511
 20
102.0673
 10
-595.6354
 20
101.8404
 10
-595.7372
 20
101.5983
 10
-595.8164
 20
101.3409
 10
-595.873
 20
101.0683
 10
-595.9069
 20
100.7805
 10
-595.9182
 20
100.4774
 10
-595.8987
 20
100.172
 10
-595.8402
 20
99.8762
 10
-595.7427
 20
99.5902
 10
-595.6062
 20
99.3139
 10
-595.4308
 20
99.0473
 10
-595.2165
 20
98.7904
 10
-594.9634
 20
98.5431
 10
-594.6713
 20
98.3054
 10
-594.3806
 20
98.0989
 10
-594.0682
 20
97.9018
 10
-593.7343
 20
97.714
 10
-593.379
 20
97.5355
 10
-593.0027
 20
97.3664
 10
-592.6054
 20
97.2066
 10
-592.1874
 20
97.0561
 10
-591.7489
 20
96.9149
 10
-591.9531
 20
96.8612
 10
-592.1538
 20
96.805
 10
-592.3508
 20
96.7464
 10
-592.5441
 20
96.6852
 10
-592.7336
 20
96.6215
 10
-592.919
 20
96.5553
 10
-593.1004
 20
96.4866
 10
-593.2775
 20
96.4153
 10
-593.5688
 20
96.2866
 10
-593.8454
 20
96.1499
 10
-594.1072
 20
96.0051
 10
-594.3542
 20
95.8522
 10
-594.5865
 20
95.6913
 10
-594.8039
 20
95.5224
 10
-595.0065
 20
95.3454
 10
-595.1942
 20
95.1604
 10
-595.3639
 20
94.9639
 10
-595.511
 20
94.7521
 10
-595.6354
 20
94.5253
 10
-595.7372
 20
94.2832
 10
-595.8164
 20
94.026
 10
-595.873
 20
93.7536
 10
-595.9069
 20
93.466
 10
-595.9182
 20
93.1633
 10
-595.8987
 20
92.8575
 10
-595.8402
 20
92.5615
 10
-595.7427
 20
92.2753
 10
-595.6062
 20
91.9989
 10
-595.4308
 20
91.7322
 10
-595.2165
 20
91.4752
 10
-594.9634
 20
91.2279
 10
-594.6713
 20
90.9902
 10
-594.3942
 20
90.7936
 10
-594.0983
 20
90.6054
 10
-593.7836
 20
90.4257
 10
-593.45
 20
90.2545
 10
-593.0973
 20
90.0916
 10
-592.7254
 20
89.9372
 10
-592.3343
 20
89.7911
 10
-591.9239
 20
89.6533
 10
-595.4194
 20
89.6533
 10
-595.4194
 20
87.7644
 10
-573.4929
 20
87.7644
 10
-573.4929
 20
89.6533
 10
-584.7136
 20
89.6533
 10
-585.3674
 20
89.6973
 10
-585.9957
 20
89.7548
 10
-586.5985
 20
89.8257
 10
-587.1761
 20
89.91
 10
-587.7287
 20
90.0079
 10
-588.2566
 20
90.1192
 10
-588.7599
 20
90.244
 10
-589.2389
 20
90.3824
 10
-589.5803
 20
90.4952
 10
-589.906
 20
90.6173
 10
-590.2161
 20
90.7486
 10
-590.5105
 20
90.8891
 10
-590.7893
 20
91.0388
 10
-591.0524
 20
91.1978
 10
-591.2999
 20
91.3659
 10
-591.5317
 20
91.5433
 10
-591.7424
 20
91.727
 10
-591.925
 20
91.9142
 10
-592.0796
 20
92.1049
 10
-592.206
 20
92.2989
 10
-592.3043
 20
92.4964
 10
-592.3745
 20
92.6972
 10
-592.4167
 20
92.9013
 10
-592.4307
 20
93.1087
 10
-592.4233
 20
93.3113
 10
-592.401
 20
93.5004
 10
-592.3638
 20
93.6758
 10
-592.3118
 20
93.8377
 10
-592.245
 20
93.9861
 10
-592.1635
 20
94.121
 10
-592.0672
 20
94.2424
 10
-591.9561
 20
94.3504
 10
-591.5847
 20
94.6225
 10
-591.1495
 20
94.8583
 10
-590.6504
 20
95.0579
 10
-590.0874
 20
95.2211
 10
-589.4606
 20
95.3481
 10
-588.77
 20
95.4388
 10
-588.0156
 20
95.4932
 10
-587.1975
 20
95.5113
 10
-573.4929
 20
95.5113
 10
-573.4929
 20
97.4003
 10
-587.1975
 20
97.4003
 10
-588.0362
 20
97.3871
 10
-588.3542
 20
97.457
 10
-588.6602
 20
97.5321
 10
-588.9548
 20
97.6123
 10
-589.2389
 20
97.6976
 10
-589.5803
 20
97.8101
 10
-589.906
 20
97.9319
 10
-590.2161
 20
98.063
 10
-590.5105
 20
98.2034
 10
-590.7893
 20
98.3532
 10
-591.0524
 20
98.5123
 10
-591.2999
 20
98.6807
 10
-591.5317
 20
98.8585
 10
-591.7424
 20
99.0422
 10
-591.925
 20
99.2294
 10
-592.0796
 20
99.42
 10
-592.206
 20
99.6141
 10
-592.3043
 20
99.8115
 10
-592.3745
 20
100.0123
 10
-592.4167
 20
100.2164
 10
-592.4307
 20
100.4238
 10
-592.4233
 20
100.6261
 10
-592.401
 20
100.8151
 10
-592.3638
 20
100.9905
 10
-592.3118
 20
101.1525
 10
-592.245
 20
101.301
 10
-592.1635
 20
101.4361
 10
-592.0672
 20
101.5576
 10
-591.9561
 20
101.6656
 10
-591.5847
 20
101.9377
 10
-591.1495
 20
102.1735
 10
-590.6504
 20
102.3731
 10
-590.0874
 20
102.5363
 10
-589.4606
 20
102.6633
 10
-588.77
 20
102.754
 10
-588.0156
 20
102.8084
 10
-587.1975
 20
102.8265
 10
-573.4929
 20
102.8265
  0
LWPOLYLINE
  5
8A
330
1F
100
AcDbEntity
  8
Layer 1
 62
     7
370
     9
100
AcDbPolyline
 90
      169
 70
     1
 43
0.0
 10
-573.4929
 20
123.422
 10
-573.4929
 20
125.311
 10
-587.1975
 20
125.311
 10
-588.107
 20
125.2956
 10
-588.9739
 20
125.2495
 10
-589.7983
 20
125.1726
 10
-590.5799
 20
125.0649
 10
-591.3187
 20
124.9264
 10
-592.0147
 20
124.7571
 10
-592.6676
 20
124.557
 10
-593.2775
 20
124.3261
 10
-593.5688
 20
124.1971
 10
-593.8454
 20
124.0602
 10
-594.1072
 20
123.9154
 10
-594.3542
 20
123.7626
 10
-594.5865
 20
123.6018
 10
-594.8039
 20
123.433
 10
-595.0065
 20
123.2561
 10
-595.1942
 20
123.0712
 10
-595.3639
 20
122.8746
 10
-595.511
 20
122.6629
 10
-595.6354
 20
122.4359
 10
-595.7372
 20
122.1938
 10
-595.8164
 20
121.9364
 10
-595.873
 20
121.6638
 10
-595.9069
 20
121.376
 10
-595.9182
 20
121.0729
 10
-595.8987
 20
120.7675
 10
-595.8402
 20
120.4717
 10
-595.7427
 20
120.1857
 10
-595.6062
 20
119.9094
 10
-595.4308
 20
119.6428
 10
-595.2165
 20
119.3859
 10
-594.9634
 20
119.1386
 10
-594.6713
 20
118.9009
 10
-594.3806
 20
118.6944
 10
-594.0682
 20
118.4973
 10
-593.7343
 20
118.3095
 10
-593.379
 20
118.131
 10
-593.0027
 20
117.9619
 10
-592.6054
 20
117.8021
 10
-592.1874
 20
117.6516
 10
-591.7489
 20
117.5104
 10
-591.9531
 20
117.4567
 10
-592.1538
 20
117.4005
 10
-592.3508
 20
117.3419
 10
-592.5441
 20
117.2808
 10
-592.7336
 20
117.2171
 10
-592.919
 20
117.1509
 10
-593.1004
 20
117.0822
 10
-593.2775
 20
117.0109
 10
-593.5688
 20
116.8822
 10
-593.8454
 20
116.7455
 10
-594.1072
 20
116.6007
 10
-594.3542
 20
116.4478
 10
-594.5865
 20
116.2869
 10
-594.8039
 20
116.1179
 10
-595.0065
 20
115.941
 10
-595.1942
 20
115.756
 10
-595.3639
 20
115.5594
 10
-595.511
 20
115.3477
 10
-595.6354
 20
115.1208
 10
-595.7372
 20
114.8787
 10
-595.8164
 20
114.6215
 10
-595.873
 20
114.3491
 10
-595.9069
 20
114.0615
 10
-595.9182
 20
113.7588
 10
-595.8987
 20
113.453
 10
-595.8402
 20
113.157
 10
-595.7427
 20
112.8708
 10
-595.6062
 20
112.5944
 10
-595.4308
 20
112.3277
 10
-595.2165
 20
112.0707
 10
-594.9634
 20
111.8234
 10
-594.6713
 20
111.5857
 10
-594.3942
 20
111.3891
 10
-594.0983
 20
111.201
 10
-593.7836
 20
111.0213
 10
-593.45
 20
110.8501
 10
-593.0973
 20
110.6872
 10
-592.7254
 20
110.5327
 10
-592.3343
 20
110.3866
 10
-591.9239
 20
110.2488
 10
-595.4194
 20
110.2488
 10
-595.4194
 20
108.3599
 10
-573.4929
 20
108.3599
 10
-573.4929
 20
110.2488
 10
-584.7136
 20
110.2488
 10
-585.3674
 20
110.2928
 10
-585.9957
 20
110.3503
 10
-586.5985
 20
110.4212
 10
-587.1761
 20
110.5056
 10
-587.7287
 20
110.6034
 10
-588.2566
 20
110.7147
 10
-588.7599
 20
110.8396
 10
-589.2389
 20
110.9779
 10
-589.5803
 20
111.0907
 10
-589.906
 20
111.2128
 10
-590.2161
 20
111.3441
 10
-590.5105
 20
111.4846
 10
-590.7893
 20
111.6343
 10
-591.0524
 20
111.7933
 10
-591.2999
 20
111.9614
 10
-591.5317
 20
112.1388
 10
-591.7424
 20
112.3226
 10
-591.925
 20
112.5098
 10
-592.0796
 20
112.7004
 10
-592.206
 20
112.8945
 10
-592.3043
 20
113.0919
 10
-592.3745
 20
113.2927
 10
-592.4167
 20
113.4968
 10
-592.4307
 20
113.7042
 10
-592.4233
 20
113.9069
 10
-592.401
 20
114.0959
 10
-592.3638
 20
114.2714
 10
-592.3118
 20
114.4333
 10
-592.245
 20
114.5817
 10
-592.1635
 20
114.7166
 10
-592.0672
 20
114.838
 10
-591.9561
 20
114.946
 10
-591.5847
 20
115.2181
 10
-591.1495
 20
115.4539
 10
-590.6504
 20
115.6534
 10
-590.0874
 20
115.8167
 10
-589.4606
 20
115.9436
 10
-588.77
 20
116.0343
 10
-588.0156
 20
116.0888
 10
-587.1975
 20
116.1069
 10
-573.4929
 20
116.1069
 10
-573.4929
 20
117.9958
 10
-587.1975
 20
117.9958
 10
-588.0362
 20
117.9827
 10
-588.3542
 20
118.0526
 10
-588.6602
 20
118.1277
 10
-588.9548
 20
118.2079
 10
-589.2389
 20
118.2931
 10
-589.5803
 20
118.4056
 10
-589.906
 20
118.5274
 10
-590.2161
 20
118.6585
 10
-590.5105
 20
118.799
 10
-590.7893
 20
118.9487
 10
-591.0524
 20
119.1078
 10
-591.2999
 20
119.2763
 10
-591.5317
 20
119.454
 10
-591.7424
 20
119.6378
 10
-591.925
 20
119.825
 10
-592.0796
 20
120.0156
 10
-592.206
 20
120.2097
 10
-592.3043
 20
120.4071
 10
-592.3745
 20
120.6079
 10
-592.4167
 20
120.812
 10
-592.4307
 20
121.0194
 10
-592.4233
 20
121.2217
 10
-592.401
 20
121.4107
 10
-592.3638
 20
121.5861
 10
-592.3118
 20
121.7481
 10
-592.245
 20
121.8966
 10
-592.1635
 20
122.0317
 10
-592.0672
 20
122.1532
 10
-591.9561
 20
122.2612
 10
-591.5847
 20
122.5333
 10
-591.1495
 20
122.7691
 10
-590.6504
 20
122.9686
 10
-590.0874
 20
123.1318
 10
-589.4606
 20
123.2588
 10
-588.77
 20
123.3495
 10
-588.0156
 20
123.4039
 10
-587.1975
 20
123.422
 10
-573.4929
 20
123.422
  0
LWPOLYLINE
  5
8B
330
1F
100
AcDbEntity
  8
Layer 1
 62
     7
370
    20
100
AcDbPolyline
 90
       42
 70
     1
 43
0.0
 10
-807.1509
 20
70.5302
 10
-806.6376
 20
70.1406
 10
-801.7479
 20
68.0042
 10
-795.0962
 20
67.1114
 10
-787.0368
 20
67.3448
 10
-777.9239
 20
68.587
 10
-768.1115
 20
70.7206
 10
-757.9539
 20
73.6284
 10
-747.8052
 20
77.1928
 10
-738.0196
 20
81.2967
 10
-734.3961
 20
83.0065
 10
-729.8399
 20
85.3279
 10
-724.7793
 20
88.1812
 10
-719.6422
 20
91.4868
 10
-714.8569
 20
95.1648
 10
-710.8512
 20
99.1357
 10
-708.0534
 20
103.3196
 10
-706.8916
 20
107.637
 10
-708.7295
 20
110.7705
 10
-712.1222
 20
112.8058
 10
-716.5151
 20
113.9525
 10
-721.3534
 20
114.4203
 10
-726.0822
 20
114.4191
 10
-730.1468
 20
114.1586
 10
-732.9924
 20
113.8485
 10
-734.0642
 20
113.6985
 10
-735.3633
 20
113.4803
 10
-739.0098
 20
112.7772
 10
-744.6277
 20
111.5162
 10
-751.8408
 20
109.6247
 10
-760.2732
 20
107.0296
 10
-769.5486
 20
103.6583
 10
-779.291
 20
99.4378
 10
-789.1243
 20
94.2953
 10
-797.3664
 20
88.9654
 10
-802.9136
 20
84.2508
 10
-806.2579
 20
80.1809
 10
-807.8911
 20
76.7851
 10
-808.3051
 20
74.0926
 10
-807.9918
 20
72.1331
 10
-807.4431
 20
70.9358
 10
-807.1509
 20
70.5302
  0
LWPOLYLINE
  5
8C
330
1F
100
AcDbEntity
  8
Layer 1
 62
     7
370
    20
100
AcDbPolyline
 90
      817
 70
     1
 43
0.0
 10
-777.6502
 20
127.2937
 10
-777.5463
 20
127.2579
 10
-777.4372
 20
127.2362
 10
-777.3247
 20
127.2261
 10
-777.2107
 20
127.2247
 10
-776.9856
 20
127.2374
 10
-776.7766
 20
127.2527
 10
-776.7332
 20
127.2506
 10
-776.9391
 20
126.9862
 10
-777.0816
 20
126.7818
 10
-777.1225
 20
126.6695
 10
-777.1397
 20
126.533
 10
-777.1305
 20
126.3592
 10
-777.0923
 20
126.135
 10
-777.0239
 20
125.8151
 10
-776.9511
 20
125.4905
 10
-776.8745
 20
125.1733
 10
-776.7948
 20
124.8757
 10
-775.5763
 20
119.7561
 10
-775.4717
 20
119.4123
 10
-775.3213
 20
119.1426
 10
-775.1261
 20
118.9384
 10
-774.8869
 20
118.7908
 10
-774.6049
 20
118.6913
 10
-774.281
 20
118.631
 10
-773.9163
 20
118.6012
 10
-773.5116
 20
118.5932
 10
-773.4251
 20
118.432
 10
-773.3325
 20
118.2361
 10
-773.2913
 20
118.1314
 10
-773.2576
 20
118.0256
 10
-773.2342
 20
117.9212
 10
-773.2242
 20
117.8207
 10
-773.4299
 20
117.7349
 10
-773.705
 20
117.5745
 10
-774.0273
 20
117.3593
 10
-774.3745
 20
117.109
 10
-774.7244
 20
116.8434
 10
-775.0546
 20
116.5823
 10
-775.343
 20
116.3455
 10
-775.5673
 20
116.1528
 10
-775.9203
 20
115.8375
 10
-776.2751
 20
115.5071
 10
-776.4476
 20
115.3363
 10
-776.614
 20
115.1619
 10
-776.7721
 20
114.984
 10
-776.9196
 20
114.8025
 10
-777.1408
 20
114.4983
 10
-777.3333
 20
114.1881
 10
-777.4895
 20
113.871
 10
-777.602
 20
113.5461
 10
-777.6634
 20
113.2124
 10
-777.6663
 20
112.8689
 10
-777.6033
 20
112.5149
 10
-777.4669
 20
112.1492
 10
-777.4293
 20
112.0776
 10
-777.4076
 20
112.0441
 10
-777.3895
 20
112.0054
 10
-777.3627
 20
111.9179
 10
-777.4473
 20
111.8956
 10
-777.5249
 20
111.869
 10
-777.5973
 20
111.8387
 10
-777.6668
 20
111.8057
 10
-777.8051
 20
111.7341
 10
-777.9565
 20
111.6604
 10
-778.5509
 20
111.4032
 10
-789.0122
 20
106.2175
 10
-789.2917
 20
106.0687
 10
-789.5602
 20
105.9177
 10
-789.8281
 20
105.7653
 10
-790.1059
 20
105.6121
 10
-790.5934
 20
105.346
 10
-791.0777
 20
105.074
 10
-791.5596
 20
104.7976
 10
-792.0398
 20
104.5184
 10
-792.5188
 20
104.238
 10
-792.9975
 20
103.9578
 10
-793.4765
 20
103.6795
 10
-793.9565
 20
103.4047
 10
-795.6073
 20
102.3963
 10
-795.8722
 20
102.2298
 10
-796.1308
 20
102.0702
 10
-796.3866
 20
101.9086
 10
-796.6434
 20
101.7359
 10
-797.1594
 20
101.4033
 10
-798.9417
 20
100.1901
 10
-799.197
 20
99.9939
 10
-801.6903
 20
98.139
 10
-802.1612
 20
97.7634
 10
-803.6165
 20
96.5671
 10
-803.7354
 20
96.4642
 10
-803.8445
 20
96.3798
 10
-803.9547
 20
96.2927
 10
-804.0771
 20
96.1819
 10
-804.2002
 20
96.0691
 10
-804.3091
 20
95.9812
 10
-804.4171
 20
95.8972
 10
-804.5375
 20
95.7962
 10
-804.9677
 20
95.3816
 10
-805.2004
 20
95.1635
 10
-805.4573
 20
94.9687
 10
-806.9864
 20
93.4573
 10
-807.2092
 20
93.2299
 10
-807.8403
 20
92.6013
 10
-808.4793
 20
91.9125
 10
-809.1112
 20
91.178
 10
-809.721
 20
90.4123
 10
-810.2936
 20
89.6301
 10
-810.8139
 20
88.8458
 10
-811.2669
 20
88.074
 10
-811.6375
 20
87.3292
 10
-812.0307
 20
86.3626
 10
-812.3078
 20
85.4768
 10
-812.4758
 20
84.6446
 10
-812.5421
 20
83.8389
 10
-812.5137
 20
83.0326
 10
-812.398
 20
82.1986
 10
-812.2022
 20
81.3097
 10
-811.9334
 20
80.3388
 10
-811.8359
 20
79.9971
 10
-811.7444
 20
79.6659
 10
-811.6497
 20
79.3373
 10
-811.5428
 20
79.0037
 10
-811.4349
 20
78.6802
 10
-811.3313
 20
78.3562
 10
-811.2302
 20
78.0323
 10
-811.1299
 20
77.7095
 10
-811.0286
 20
77.3886
 10
-810.9246
 20
77.0705
 10
-810.8162
 20
76.756
 10
-810.7016
 20
76.4459
 10
-810.5614
 20
76.0593
 10
-810.4301
 20
75.664
 10
-810.3024
 20
75.2636
 10
-810.173
 20
74.862
 10
-810.0367
 20
74.4629
 10
-809.8881
 20
74.0703
 10
-809.722
 20
73.6878
 10
-809.533
 20
73.3193
 10
-809.2988
 20
72.9245
 10
-809.0456
 20
72.541
 10
-808.7738
 20
72.1698
 10
-808.4838
 20
71.8117
 10
-808.1761
 20
71.4679
 10
-807.8511
 20
71.139
 10
-807.5092
 20
70.8262
 10
-807.151
 20
70.5303
 10
-806.6376
 20
70.1405
 10
-805.7136
 20
69.5485
 10
-804.7184
 20
69.0386
 10
-803.6676
 20
68.6052
 10
-802.5766
 20
68.2427
 10
-801.4612
 20
67.9453
 10
-800.3368
 20
67.7076
 10
-799.2191
 20
67.5239
 10
-798.1236
 20
67.3886
 10
-797.9352
 20
67.3645
 10
-797.7229
 20
67.3337
 10
-797.5071
 20
67.3052
 10
-797.3087
 20
67.2882
 10
-795.6453
 20
67.1778
 10
-792.0291
 20
67.1778
 10
-791.8415
 20
67.1898
 10
-791.6854
 20
67.2084
 10
-791.5271
 20
67.226
 10
-791.3329
 20
67.2351
 10
-787.9807
 20
67.4381
 10
-787.473
 20
67.496
 10
-786.97
 20
67.5447
 10
-786.4706
 20
67.5879
 10
-785.9738
 20
67.6296
 10
-785.4784
 20
67.6735
 10
-784.9835
 20
67.7234
 10
-784.4878
 20
67.7831
 10
-783.9905
 20
67.8566
 10
-780.9182
 20
68.273
 10
-779.3837
 20
68.5106
 10
-778.3764
 20
68.6564
 10
-777.3716
 20
68.8233
 10
-776.369
 20
69.0083
 10
-775.3686
 20
69.2084
 10
-774.3701
 20
69.4207
 10
-773.3733
 20
69.6422
 10
-772.3782
 20
69.87
 10
-771.3844
 20
70.1011
 10
-762.2829
 20
72.3994
 10
-760.6111
 20
72.8706
 10
-758.9431
 20
73.3572
 10
-757.28
 20
73.8603
 10
-755.6232
 20
74.3811
 10
-753.9737
 20
74.9208
 10
-752.3329
 20
75.4807
 10
-750.7018
 20
76.062
 10
-749.0818
 20
76.6659
 10
-742.8502
 20
79.1256
 10
-742.4655
 20
79.2793
 10
-742.0798
 20
79.4346
 10
-741.6938
 20
79.5921
 10
-741.3085
 20
79.7526
 10
-740.9246
 20
79.9167
 10
-740.543
 20
80.0849
 10
-740.1646
 20
80.258
 10
-739.7901
 20
80.4365
 10
-739.6267
 20
80.5111
 10
-739.4735
 20
80.5745
 10
-739.3204
 20
80.6377
 10
-739.1571
 20
80.7117
 10
-732.1056
 20
84.0395
 10
-731.9562
 20
84.1167
 10
-731.8258
 20
84.1897
 10
-731.6967
 20
84.2614
 10
-731.5512
 20
84.3349
 10
-730.9293
 20
84.6421
 10
-730.2859
 20
84.9809
 10
-729.6297
 20
85.3412
 10
-728.9692
 20
85.7129
 10
-728.3129
 20
86.086
 10
-727.6693
 20
86.4502
 10
-727.0471
 20
86.7955
 10
-726.4547
 20
87.1118
 10
-725.9627
 20
87.3795
 10
-725.4269
 20
87.6917
 10
-724.8631
 20
88.0358
 10
-724.2873
 20
88.3994
 10
-723.7154
 20
88.7698
 10
-723.1631
 20
89.1344
 10
-722.6465
 20
89.4807
 10
-722.1814
 20
89.796
 10
-721.1388
 20
90.5056
 10
-713.3151
 20
96.5128
 10
-712.8686
 20
96.9116
 10
-712.3992
 20
97.3609
 10
-711.9435
 20
97.8241
 10
-711.5012
 20
98.2999
 10
-711.0715
 20
98.787
 10
-710.6541
 20
99.284
 10
-710.2483
 20
99.7896
 10
-709.8537
 20
100.3025
 10
-709.4697
 20
100.8212
 10
-708.627
 20
102.164
 10
-708.5029
 20
102.3664
 10
-708.3832
 20
102.573
 10
-708.268
 20
102.7835
 10
-708.1579
 20
102.9977
 10
-708.0532
 20
103.2151
 10
-707.9542
 20
103.4355
 10
-707.8614
 20
103.6586
 10
-707.775
 20
103.8841
 10
-707.5239
 20
104.4708
 10
-707.5
 20
104.5895
 10
-707.4744
 20
104.6753
 10
-707.4449
 20
104.7562
 10
-707.4092
 20
104.8599
 10
-707.3043
 20
105.2068
 10
-707.2104
 20
105.5531
 10
-707.1276
 20
105.8992
 10
-707.0563
 20
106.2453
 10
-706.9968
 20
106.5918
 10
-706.9493
 20
106.9391
 10
-706.9141
 20
107.2874
 10
-706.8916
 20
107.637
 10
-706.8916
 20
108.5026
 10
-706.9099
 20
108.7981
 10
-706.9376
 20
109.0954
 10
-706.9749
 20
109.3948
 10
-707.0222
 20
109.6964
 10
-707.0844
 20
110.0233
 10
-707.1527
 20
110.3212
 10
-707.2277
 20
110.5979
 10
-707.3102
 20
110.8614
 10
-707.4009
 20
111.1196
 10
-707.5004
 20
111.3805
 10
-707.6095
 20
111.652
 10
-707.7288
 20
111.942
 10
-707.8339
 20
112.1833
 10
-707.9538
 20
112.4389
 10
-708.0836
 20
112.7037
 10
-708.2183
 20
112.9725
 10
-708.353
 20
113.24
 10
-708.4826
 20
113.5009
 10
-708.6022
 20
113.7501
 10
-708.7068
 20
113.9823
 10
-709.9949
 20
116.7182
 10
-710.186
 20
117.1031
 10
-710.3438
 20
117.4454
 10
-710.4829
 20
117.757
 10
-710.6182
 20
118.0498
 10
-710.7642
 20
118.3358
 10
-710.9358
 20
118.627
 10
-711.1476
 20
118.9352
 10
-711.4144
 20
119.2725
 10
-712.259
 20
120.142
 10
-713.2185
 20
120.8974
 10
-714.2747
 20
121.5464
 10
-715.4096
 20
122.097
 10
-716.6052
 20
122.5569
 10
-717.8434
 20
122.9339
 10
-719.1062
 20
123.2359
 10
-720.3756
 20
123.4707
 10
-720.8731
 20
123.546
 10
-721.4495
 20
123.6246
 10
-722.0778
 20
123.7026
 10
-722.7311
 20
123.7759
 10
-723.3827
 20
123.8405
 10
-724.0055
 20
123.8925
 10
-724.5727
 20
123.9279
 10
-725.0575
 20
123.9426
 10
-725.2974
 20
123.9526
 10
-725.5189
 20
123.9725
 10
-725.7534
 20
123.9916
 10
-726.0325
 20
123.9996
 10
-726.4472
 20
124.0024
 10
-726.8159
 20
124.012
 10
-727.1557
 20
124.0256
 10
-727.4839
 20
124.0405
 10
-727.8176
 20
124.0538
 10
-728.174
 20
124.0627
 10
-728.5703
 20
124.0645
 10
-729.0236
 20
124.0564
 10
-729.2574
 20
124.0433
 10
-729.4805
 20
124.024
 10
-729.7189
 20
124.0066
 10
-729.9988
 20
123.9994
 10
-732.0023
 20
123.9361
 10
-732.2234
 20
123.9199
 10
-732.4739
 20
123.9091
 10
-732.7311
 20
123.8962
 10
-732.9722
 20
123.874
 10
-733.1936
 20
123.8483
 10
-733.4243
 20
123.8268
 10
-733.662
 20
123.8081
 10
-733.9045
 20
123.791
 10
-734.1492
 20
123.7743
 10
-734.394
 20
123.7566
 10
-734.6365
 20
123.7368
 10
-734.8743
 20
123.7136
 10
-736.8801
 20
123.485
 10
-738.5459
 20
123.2689
 10
-739.9731
 20
123.0547
 10
-741.2634
 20
122.8318
 10
-742.5182
 20
122.5897
 10
-743.839
 20
122.3175
 10
-745.3274
 20
122.0049
 10
-747.0849
 20
121.641
 10
-748.7375
 20
121.2475
 10
-748.9152
 20
121.2254
 10
-749.1801
 20
121.1752
 10
-749.5049
 20
121.1049
 10
-749.8625
 20
121.0224
 10
-750.2259
 20
120.9357
 10
-750.5679
 20
120.8528
 10
-750.8613
 20
120.7815
 10
-751.0791
 20
120.73
 10
-751.8039
 20
120.5579
 10
-752.5752
 20
120.3636
 10
-753.3778
 20
120.1529
 10
-754.1964
 20
119.9317
 10
-755.0159
 20
119.7057
 10
-755.8209
 20
119.4808
 10
-756.5962
 20
119.2628
 10
-757.3267
 20
119.0575
 10
-757.6017
 20
118.9808
 10
-757.7014
 20
118.9452
 10
-757.7448
 20
118.9222
 10
-757.7576
 20
118.9206
 10
-757.771
 20
118.9282
 10
-757.7901
 20
118.9471
 10
-757.8197
 20
118.9794
 10
-757.9015
 20
119.15
 10
-757.9633
 20
119.2943
 10
-758.0274
 20
119.4306
 10
-758.1161
 20
119.5773
 10
-758.5133
 20
120.0367
 10
-758.9844
 20
120.3867
 10
-759.5167
 20
120.6422
 10
-760.0973
 20
120.8179
 10
-760.7135
 20
120.9288
 10
-761.3526
 20
120.9896
 10
-762.0016
 20
121.0152
 10
-762.6478
 20
121.0204
 10
-762.5483
 20
121.0905
 10
-762.3256
 20
121.2352
 10
-762.084
 20
121.4097
 10
-761.9705
 20
121.5048
 10
-761.8695
 20
121.6036
 10
-761.7868
 20
121.7048
 10
-761.7281
 20
121.8071
 10
-761.6119
 20
122.0471
 10
-761.5497
 20
122.2774
 10
-761.5331
 20
122.5068
 10
-761.5541
 20
122.7438
 10
-761.6042
 20
122.997
 10
-761.6753
 20
123.2751
 10
-761.7591
 20
123.5865
 10
-761.8474
 20
123.94
 10
-761.9098
 20
124.2029
 10
-761.9748
 20
124.4689
 10
-762.0414
 20
124.7372
 10
-762.1086
 20
125.0072
 10
-762.1756
 20
125.2783
 10
-762.2413
 20
125.5498
 10
-762.3048
 20
125.821
 10
-762.3652
 20
126.0913
 10
-763.1454
 20
129.3143
 10
-763.1856
 20
129.3949
 10
-763.2337
 20
129.4732
 10
-763.2887
 20
129.5483
 10
-763.3494
 20
129.6194
 10
-763.4148
 20
129.6855
 10
-763.4837
 20
129.7456
 10
-763.5551
 20
129.7989
 10
-763.6279
 20
129.8444
 10
-763.8548
 20
129.9574
 10
-763.6917
 20
130.018
 10
-763.5068
 20
130.119
 10
-763.3109
 20
130.2534
 10
-763.1147
 20
130.4142
 10
-762.929
 20
130.5944
 10
-762.7643
 20
130.7871
 10
-762.6316
 20
130.9853
 10
-762.5414
 20
131.1821
 10
-762.5143
 20
131.2956
 10
-762.5045
 20
131.4164
 10
-762.5091
 20
131.5433
 10
-762.5252
 20
131.6748
 10
-762.5805
 20
131.9464
 10
-762.6472
 20
132.22
 10
-762.6933
 20
132.4036
 10
-762.7437
 20
132.5645
 10
-762.8062
 20
132.7052
 10
-762.8889
 20
132.8285
 10
-762.9996
 20
132.937
 10
-763.1463
 20
133.0334
 10
-763.337
 20
133.1203
 10
-763.5796
 20
133.2006
 10
-763.8821
 20
133.2861
 10
-764.0724
 20
133.3509
 10
-764.1879
 20
133.4269
 10
-764.2658
 20
133.5458
 10
-764.3434
 20
133.7395
 10
-764.458
 20
134.0399
 10
-764.6468
 20
134.4788
 10
-764.9471
 20
135.0881
 10
-765.2203
 20
135.5954
 10
-765.5083
 20
136.1001
 10
-765.8102
 20
136.6007
 10
-766.1254
 20
137.0954
 10
-766.4528
 20
137.5825
 10
-766.7916
 20
138.0603
 10
-767.1411
 20
138.5272
 10
-767.5004
 20
138.9815
 10
-767.752
 20
139.2831
 10
-768.0542
 20
139.6317
 10
-768.3912
 20
140.0079
 10
-768.7469
 20
140.3922
 10
-769.1054
 20
140.7652
 10
-769.4508
 20
141.1072
 10
-769.7672
 20
141.3989
 10
-770.0385
 20
141.6208
 10
-771.4417
 20
142.7568
 10
-771.9022
 20
143.087
 10
-772.3098
 20
143.3631
 10
-772.6834
 20
143.5999
 10
-773.0418
 20
143.8119
 10
-773.4039
 20
144.0137
 10
-773.7884
 20
144.22
 10
-774.2143
 20
144.4454
 10
-774.7004
 20
144.7045
 10
-780.2451
 20
146.996
 10
-782.1914
 20
147.6384
 10
-784.0824
 20
148.1564
 10
-785.9415
 20
148.5739
 10
-787.7922
 20
148.9147
 10
-789.658
 20
149.2025
 10
-791.5624
 20
149.4612
 10
-793.5289
 20
149.7145
 10
-795.5809
 20
149.9863
 10
-802.6128
 20
150.8502
 10
-803.764
 20
151.0214
 10
-804.9047
 20
151.1949
 10
-806.0381
 20
151.3706
 10
-807.1671
 20
151.5484
 10
-808.295
 20
151.728
 10
-809.425
 20
151.9094
 10
-810.5601
 20
152.0922
 10
-811.7035
 20
152.2764
 10
-816.2346
 20
153.0031
 10
-816.8
 20
153.1042
 10
-817.3702
 20
153.1965
 10
-817.9421
 20
153.2838
 10
-818.5125
 20
153.3699
 10
-819.0782
 20
153.4586
 10
-819.6359
 20
153.5538
 10
-820.1825
 20
153.659
 10
-820.7148
 20
153.7783
 10
-820.9804
 20
153.8418
 10
-821.2418
 20
153.903
 10
-821.5
 20
153.963
 10
-821.7555
 20
154.0233
 10
-822.009
 20
154.0851
 10
-822.2613
 20
154.1498
 10
-822.5132
 20
154.2186
 10
-822.7652
 20
154.2928
 10
-823.3142
 20
154.4616
 10
-823.8178
 20
154.6181
 10
-824.29
 20
154.7678
 10
-824.745
 20
154.9167
 10
-825.1967
 20
155.0702
 10
-825.6594
 20
155.2343
 10
-826.1471
 20
155.4147
 10
-826.6739
 20
155.617
 10
-830.2205
 20
157.2883
 10
-830.9313
 20
157.6993
 10
-831.5383
 20
158.0662
 10
-832.0754
 20
158.408
 10
-832.5765
 20
158.7439
 10
-833.0756
 20
159.0928
 10
-833.6067
 20
159.474
 10
-834.2038
 20
159.9065
 10
-834.9008
 20
160.4094
 10
-841.0507
 20
164.6028
 10
-841.4442
 20
164.8452
 10
-841.8553
 20
165.0811
 10
-842.2832
 20
165.308
 10
-842.7273
 20
165.5235
 10
-843.1869
 20
165.725
 10
-843.6613
 20
165.9102
 10
-844.1499
 20
166.0767
 10
-844.6519
 20
166.2219
 10
-845.0124
 20
166.3123
 10
-845.3497
 20
166.3877
 10
-845.6667
 20
166.4494
 10
-845.9662
 20
166.4982
 10
-846.2512
 20
166.5354
 10
-846.5245
 20
166.5621
 10
-846.789
 20
166.5793
 10
-847.0475
 20
166.5881
 10
-847.4257
 20
166.5881
 10
-847.6533
 20
166.5819
 10
-847.8839
 20
166.5721
 10
-848.1195
 20
166.5592
 10
-848.3622
 20
166.5442
 10
-848.6138
 20
166.5277
 10
-848.8766
 20
166.5106
 10
-849.1524
 20
166.4936
 10
-849.4433
 20
166.4774
 10
-850.0761
 20
166.4781
 10
-851.2339
 20
166.3754
 10
-851.4029
 20
166.3661
 10
-851.5727
 20
166.3677
 10
-851.7427
 20
166.3704
 10
-851.9122
 20
166.3647
 10
-854.3248
 20
166.1424
 10
-855.1201
 20
166.0305
 10
-855.8765
 20
165.8675
 10
-856.5976
 20
165.6531
 10
-857.2872
 20
165.3865
 10
-857.9491
 20
165.0674
 10
-858.5868
 20
164.6951
 10
-859.2042
 20
164.2691
 10
-859.8049
 20
163.7888
 10
-859.8991
 20
163.7127
 10
-859.9791
 20
163.6535
 10
-860.0584
 20
163.5932
 10
-860.1505
 20
163.5138
 10
-860.7688
 20
162.9264
 10
-861.3126
 20
162.3731
 10
-861.7969
 20
161.8365
 10
-862.2368
 20
161.2991
 10
-862.6472
 20
160.7433
 10
-863.0433
 20
160.1518
 10
-863.44
 20
159.507
 10
-863.8524
 20
158.7915
 10
-863.967
 20
158.5715
 10
-864.0684
 20
158.3552
 10
-864.1671
 20
158.1409
 10
-864.2736
 20
157.927
 10
-864.5859
 20
157.2875
 10
-864.8788
 20
156.5893
 10
-865.1497
 20
155.8481
 10
-865.3963
 20
155.0799
 10
-865.6159
 20
154.3008
 10
-865.8063
 20
153.5265
 10
-865.9649
 20
152.7732
 10
-866.0893
 20
152.0566
 10
-866.1562
 20
151.5733
 10
-866.2104
 20
151.084
 10
-866.2533
 20
150.5888
 10
-866.286
 20
150.088
 10
-866.3101
 20
149.5818
 10
-866.3267
 20
149.0704
 10
-866.3372
 20
148.5542
 10
-866.3429
 20
148.0333
 10
-866.3429
 20
146.5902
 10
-866.2125
 20
144.812
 10
-866.0734
 20
143.6767
 10
-866.0406
 20
143.4048
 10
-866.0065
 20
143.0935
 10
-865.985
 20
142.94
 10
-865.9583
 20
142.797
 10
-865.9248
 20
142.6713
 10
-865.883
 20
142.5696
 10
-865.8421
 20
142.0611
 10
-865.7304
 20
141.4644
 10
-865.5642
 20
140.8104
 10
-865.3598
 20
140.1295
 10
-865.1336
 20
139.4526
 10
-864.9018
 20
138.8101
 10
-864.6809
 20
138.2329
 10
-864.4872
 20
137.7515
 10
-864.3691
 20
137.4762
 10
-864.2449
 20
137.2057
 10
-864.1165
 20
136.9421
 10
-863.986
 20
136.6879
 10
-863.7287
 20
136.1626
 10
-863.6144
 20
135.951
 10
-863.4448
 20
135.6478
 10
-863.2371
 20
135.2853
 10
-863.0086
 20
134.8956
 10
-862.7766
 20
134.5109
 10
-862.5584
 20
134.1634
 10
-862.3715
 20
133.8853
 10
-862.2329
 20
133.7089
 10
-861.5065
 20
132.7232
 10
-861.2477
 20
132.4048
 10
-860.9389
 20
132.0212
 10
-860.7799
 20
131.8276
 10
-860.6253
 20
131.6451
 10
-860.4807
 20
131.4827
 10
-860.3517
 20
131.3494
 10
-860.0169
 20
131.0128
 10
-859.7379
 20
130.7245
 10
-859.5962
 20
130.5846
 10
-859.4406
 20
130.44
 10
-859.262
 20
130.2854
 10
-859.0509
 20
130.115
 10
-858.429
 20
129.6727
 10
-857.7197
 20
129.2471
 10
-856.9445
 20
128.8508
 10
-856.125
 20
128.4964
 10
-855.2827
 20
128.1967
 10
-854.4391
 20
127.9641
 10
-853.6159
 20
127.8114
 10
-852.8345
 20
127.7511
 10
-852.6197
 20
127.7404
 10
-852.4446
 20
127.7209
 10
-852.2634
 20
127.7022
 10
-852.0306
 20
127.6936
 10
-851.7932
 20
127.7013
 10
-851.6054
 20
127.7195
 10
-851.4293
 20
127.7395
 10
-851.2272
 20
127.7525
 10
-850.8451
 20
127.7631
 10
-850.4112
 20
127.7737
 10
-849.9435
 20
127.7824
 10
-849.4602
 20
127.7874
 10
-848.9793
 20
127.7869
 10
-848.5191
 20
127.779
 10
-848.0976
 20
127.762
 10
-847.733
 20
127.734
 10
-847.1903
 20
127.7063
 10
-846.5666
 20
127.7227
 10
-845.8886
 20
127.7795
 10
-845.1832
 20
127.8731
 10
-844.4771
 20
127.9998
 10
-843.7972
 20
128.156
 10
-843.1702
 20
128.3379
 10
-842.6229
 20
128.542
 10
-842.1939
 20
128.7362
 10
-841.7746
 20
128.9472
 10
-841.3659
 20
129.1752
 10
-840.9687
 20
129.4205
 10
-840.584
 20
129.6832
 10
-840.2127
 20
129.9636
 10
-839.8557
 20
130.2619
 10
-839.514
 20
130.5784
 10
-839.3926
 20
130.6873
 10
-839.2825
 20
130.7734
 10
-839.1728
 20
130.8581
 10
-839.0527
 20
130.9632
 10
-838.7128
 20
131.2896
 10
-838.4324
 20
131.5612
 10
-838.1875
 20
131.7926
 10
-837.9543
 20
131.9985
 10
-837.7088
 20
132.1933
 10
-837.427
 20
132.3919
 10
-837.085
 20
132.6086
 10
-836.6588
 20
132.8582
 10
-836.5127
 20
132.936
 10
-836.3749
 20
133.0029
 10
-836.2386
 20
133.0695
 10
-836.0968
 20
133.1465
 10
-835.7829
 20
133.3125
 10
-835.367
 20
133.5079
 10
-834.8798
 20
133.7213
 10
-834.352
 20
133.9416
 10
-833.8145
 20
134.1576
 10
-833.298
 20
134.358
 10
-832.8331
 20
134.5317
 10
-832.4508
 20
134.6673
 10
-831.9853
 20
134.8292
 10
-831.5111
 20
134.9989
 10
-831.0308
 20
135.1735
 10
-830.547
 20
135.3501
 10
-830.0623
 20
135.5259
 10
-829.5793
 20
135.698
 10
-829.1007
 20
135.8634
 10
-828.6289
 20
136.0194
 10
-827.349
 20
136.4459
 10
-823.3923
 20
137.669
 10
-822.7713
 20
137.8242
 10
-822.063
 20
137.9789
 10
-821.2945
 20
138.1293
 10
-820.4925
 20
138.2713
 10
-819.6841
 20
138.4012
 10
-818.8962
 20
138.515
 10
-818.1557
 20
138.6089
 10
-817.4896
 20
138.6789
 10
-817.1006
 20
138.716
 10
-816.6139
 20
138.7638
 10
-816.063
 20
138.8176
 10
-815.4815
 20
138.8725
 10
-814.9029
 20
138.9236
 10
-814.3608
 20
138.9663
 10
-813.8887
 20
138.9956
 10
-813.5201
 20
139.0067
 10
-812.6545
 20
139.0035
 10
-812.4208
 20
139.0115
 10
-812.2405
 20
139.0308
 10
-812.0669
 20
139.0511
 10
-811.8534
 20
139.0621
 10
-811.591
 20
139.065
 10
-811.2568
 20
139.0679
 10
-810.8776
 20
139.0697
 10
-810.48
 20
139.0695
 10
-810.0908
 20
139.0663
 10
-809.7367
 20
139.0589
 10
-809.4443
 20
139.0465
 10
-809.2403
 20
139.028
 10
-809.0357
 20
139.0068
 10
-808.8269
 20
138.9987
 10
-808.6154
 20
138.9995
 10
-808.4024
 20
139.0047
 10
-808.1894
 20
139.0099
 10
-807.9779
 20
139.0107
 10
-807.7691
 20
139.0027
 10
-807.5645
 20
138.9815
 10
-802.6701
 20
138.6585
 10
-802.2022
 20
138.6051
 10
-801.7211
 20
138.5597
 10
-801.2299
 20
138.5194
 10
-800.7316
 20
138.4818
 10
-800.2293
 20
138.4439
 10
-799.7261
 20
138.4033
 10
-799.2253
 20
138.3572
 10
-798.7297
 20
138.3029
 10
-798.2483
 20
138.2477
 10
-797.7674
 20
138.1971
 10
-797.2854
 20
138.1492
 10
-796.8008
 20
138.1019
 10
-796.3119
 20
138.0531
 10
-795.8171
 20
138.001
 10
-795.3149
 20
137.9433
 10
-794.8036
 20
137.8782
 10
-791.7362
 20
137.4572
 10
-791.1318
 20
137.3728
 10
-790.3998
 20
137.2597
 10
-789.5869
 20
137.1247
 10
-788.7396
 20
136.9742
 10
-787.9042
 20
136.8149
 10
-787.1272
 20
136.6534
 10
-786.4552
 20
136.4962
 10
-785.9347
 20
136.3499
 10
-784.9815
 20
136.0159
 10
-784.0983
 20
135.6481
 10
-783.2769
 20
135.2378
 10
-782.5092
 20
134.7762
 10
-781.7867
 20
134.2546
 10
-781.1015
 20
133.6645
 10
-780.4451
 20
132.9969
 10
-779.8094
 20
132.2434
 10
-779.6246
 20
132.0044
 10
-779.4374
 20
131.7515
 10
-779.2534
 20
131.4869
 10
-779.0779
 20
131.213
 10
-778.9164
 20
130.9319
 10
-778.7743
 20
130.6459
 10
-778.657
 20
130.3571
 10
-778.57
 20
130.0678
 10
-778.7825
 20
129.8957
 10
-778.9192
 20
129.7084
 10
-778.9927
 20
129.5086
 10
-779.0155
 20
129.299
 10
-779.0004
 20
129.0823
 10
-778.96
 20
128.8612
 10
-778.9068
 20
128.6385
 10
-778.8535
 20
128.4167
 10
-778.8131
 20
128.2368
 10
-778.7659
 20
128.0867
 10
-778.7335
 20
128.0216
 10
-778.6917
 20
127.9627
 10
-778.6381
 20
127.9093
 10
-778.5702
 20
127.8611
 10
-778.5754
 20
127.8031
 10
-778.5787
 20
127.784
 10
-778.5542
 20
127.758
 10
-778.4764
 20
127.6792
 10
-778.4209
 20
127.6239
 10
-778.3719
 20
127.5848
 10
-778.3174
 20
127.5507
 10
-778.2453
 20
127.5107
 10
-778.1082
 20
127.4376
 10
-777.9721
 20
127.3757
 10
-777.9003
 20
127.3496
 10
-777.8238
 20
127.327
 10
-777.741
 20
127.3083
 10
-777.6502
 20
127.2937
  0
LWPOLYLINE
  5
8D
330
1F
100
AcDbEntity
  8
Layer 1
 62
     7
370
    20
100
AcDbPolyline
 90
       25
 70
     0
 43
0.0
 10
-845.8389
 20
166.4786
 10
-846.2666
 20
166.4555
 10
-847.4174
 20
166.3133
 10
-849.0931
 20
165.9424
 10
-851.0954
 20
165.2334
 10
-853.2261
 20
164.0767
 10
-855.2867
 20
162.3628
 10
-857.0792
 20
159.9823
 10
-858.4052
 20
156.8256
 10
-859.2435
 20
153.4584
 10
-859.7503
 20
150.5229
 10
-859.9932
 20
148.0243
 10
-860.0401
 20
145.9681
 10
-859.9587
 20
144.3595
 10
-859.8167
 20
143.2039
 10
-859.6818
 20
142.5066
 10
-859.6218
 20
142.273
 10
-859.3907
 20
141.498
 10
-858.6629
 20
139.501
 10
-857.3868
 20
136.7741
 10
-855.5107
 20
133.8096
 10
-852.983
 20
131.0995
 10
-849.752
 20
129.1359
 10
-845.7661
 20
128.4111
 10
-840.9737
 20
129.4172
  0
LWPOLYLINE
  5
8E
330
1F
100
AcDbEntity
  8
Layer 1
 62
     7
370
    20
100
AcDbPolyline
 90
       17
 70
     0
 43
0.0
 10
-841.0507
 20
164.6028
 10
-841.5947
 20
164.7231
 10
-843.0613
 20
164.9201
 10
-845.2023
 20
164.9479
 10
-847.7697
 20
164.5607
 10
-850.5154
 20
163.5127
 10
-853.1911
 20
161.5581
 10
-855.5489
 20
158.4509
 10
-857.3405
 20
153.9454
 10
-858.1558
 20
149.3144
 10
-858.1079
 20
144.8247
 10
-857.2198
 20
140.6292
 10
-855.5143
 20
136.8809
 10
-853.014
 20
133.7326
 10
-849.742
 20
131.3372
 10
-845.7209
 20
129.8478
 10
-840.9737
 20
129.4172
  0
LWPOLYLINE
  5
8F
330
1F
100
AcDbEntity
  8
Layer 1
 62
     7
370
    20
100
AcDbPolyline
 90
        9
 70
     0
 43
0.0
 10
-778.57
 20
130.0678
 10
-778.3473
 20
130.2375
 10
-777.6727
 20
130.6777
 10
-776.5363
 20
131.2848
 10
-774.928
 20
131.9554
 10
-772.8382
 20
132.5857
 10
-770.2567
 20
133.0724
 10
-767.1739
 20
133.3119
 10
-763.5796
 20
133.2006
  0
LWPOLYLINE
  5
90
330
1F
100
AcDbEntity
  8
Layer 1
 62
     7
370
    20
100
AcDbPolyline
 90
        9
 70
     0
 43
0.0
 10
-776.7332
 20
127.2506
 10
-776.5065
 20
127.4151
 10
-775.841
 20
127.8388
 10
-774.7585
 20
128.417
 10
-773.2808
 20
129.0448
 10
-771.4298
 20
129.6175
 10
-769.2272
 20
130.0303
 10
-766.695
 20
130.1786
 10
-763.8548
 20
129.9574
  0
LWPOLYLINE
  5
91
330
1F
100
AcDbEntity
  8
Layer 1
 62
     7
370
    20
100
AcDbPolyline
 90
        9
 70
     0
 43
0.0
 10
-778.773
 20
128.1043
 10
-778.5199
 20
128.3319
 10
-777.7604
 20
128.9121
 10
-776.4939
 20
129.691
 10
-774.72
 20
130.5149
 10
-772.4383
 20
131.2298
 10
-769.6482
 20
131.6818
 10
-766.3494
 20
131.7172
 10
-762.5414
 20
131.1821
  0
LWPOLYLINE
  5
92
330
1F
100
AcDbEntity
  8
Layer 1
 62
     7
370
    20
100
AcDbPolyline
 90
        9
 70
     0
 43
0.0
 10
-773.2242
 20
117.8207
 10
-773.0656
 20
117.9041
 10
-772.5861
 20
118.1352
 10
-771.7799
 20
118.4853
 10
-770.6413
 20
118.9259
 10
-769.1645
 20
119.4283
 10
-767.3438
 20
119.964
 10
-765.1735
 20
120.5042
 10
-762.6478
 20
121.0204
  0
LWPOLYLINE
  5
93
330
1F
100
AcDbEntity
  8
Layer 1
 62
     7
370
    20
100
AcDbPolyline
 90
        9
 70
     0
 43
0.0
 10
-775.5763
 20
119.7561
 10
-775.3016
 20
119.9428
 10
-774.5093
 20
120.424
 10
-773.2476
 20
121.0814
 10
-771.5644
 20
121.7967
 10
-769.5077
 20
122.4516
 10
-767.1255
 20
122.9277
 10
-764.4658
 20
123.1068
 10
-761.5765
 20
122.8705
  0
LWPOLYLINE
  5
94
330
1F
100
AcDbEntity
  8
Layer 1
 62
     7
370
    20
100
AcDbPolyline
 90
        9
 70
     0
 43
0.0
 10
-777.3627
 20
111.9179
 10
-776.8536
 20
112.1325
 10
-775.4409
 20
112.7168
 10
-773.2961
 20
113.5813
 10
-770.5911
 20
114.6368
 10
-767.4974
 20
115.7938
 10
-764.1869
 20
116.9631
 10
-760.8311
 20
118.0552
 10
-757.6017
 20
118.9808
  0
LWPOLYLINE
  5
95
330
1F
100
AcDbEntity
  8
Layer 1
 62
     7
370
    20
100
AcDbPolyline
 90
       18
 70
     1
 43
0.0
 10
-779.4162
 20
141.6731
 10
-778.1112
 20
140.719
 10
-776.9298
 20
139.732
 10
-775.8786
 20
138.7104
 10
-774.9641
 20
137.6525
 10
-774.1925
 20
136.5565
 10
-773.5705
 20
135.4208
 10
-773.1045
 20
134.2435
 10
-772.8009
 20
133.023
 10
-770.2294
 20
133.0762
 10
-770.2746
 20
133.3535
 10
-770.4665
 20
134.1037
 10
-770.8893
 20
135.2043
 10
-771.6273
 20
136.5327
 10
-772.7647
 20
137.9663
 10
-774.3858
 20
139.3826
 10
-776.5749
 20
140.6591
 10
-779.4162
 20
141.6731
  0
LWPOLYLINE
  5
96
330
1F
100
AcDbEntity
  8
Layer 1
 62
     7
370
    20
100
AcDbPolyline
 90
       35
 70
     1
 43
0.0
 10
-851.7892
 20
134.1629
 10
-850.9196
 20
134.6796
 10
-848.376
 20
135.9981
 10
-844.2557
 20
137.7709
 10
-838.6566
 20
139.6505
 10
-831.676
 20
141.2895
 10
-823.4116
 20
142.3403
 10
-813.9609
 20
142.4555
 10
-803.4215
 20
141.2876
 10
-793.8756
 20
139.4879
 10
-787.0439
 20
137.9374
 10
-782.4822
 20
136.6332
 10
-779.7461
 20
135.5726
 10
-778.3915
 20
134.7527
 10
-777.974
 20
134.1705
 10
-778.0493
 20
133.8233
 10
-778.1731
 20
133.7082
 10
-779.0292
 20
134.2257
 10
-781.5145
 20
135.5746
 10
-785.5041
 20
137.4494
 10
-790.8734
 20
139.5444
 10
-797.4974
 20
141.5541
 10
-805.2515
 20
143.173
 10
-814.0109
 20
144.0955
 10
-823.6508
 20
144.0161
 10
-832.5653
 20
143.1747
 10
-839.4121
 20
142.0881
 10
-844.4623
 20
140.8665
 10
-847.9868
 20
139.62
 10
-850.2564
 20
138.4588
 10
-851.5421
 20
137.493
 10
-852.1149
 20
136.8328
 10
-852.2456
 20
136.5882
 10
-851.0862
 20
134.5846
 10
-851.7892
 20
134.1629
  0
LWPOLYLINE
  5
97
330
1F
100
AcDbEntity
  8
Layer 1
 62
     7
370
    20
100
AcDbPolyline
 90
       17
 70
     0
 43
0.0
 10
-810.1727
 20
74.8607
 10
-810.1562
 20
75.4675
 10
-809.7666
 20
77.2081
 10
-808.4937
 20
79.9628
 10
-805.8274
 20
83.6117
 10
-801.2575
 20
88.0352
 10
-794.2738
 20
93.1134
 10
-784.3661
 20
98.7266
 10
-771.0243
 20
104.755
 10
-756.6367
 20
109.9495
 10
-743.9699
 20
113.3248
 10
-733.0809
 20
115.1572
 10
-724.0269
 20
115.7228
 10
-716.8651
 20
115.2978
 10
-711.6525
 20
114.1584
 10
-708.4463
 20
112.5809
 10
-707.3037
 20
110.8413
  0
LWPOLYLINE
  5
98
330
1F
100
AcDbEntity
  8
Layer 1
 62
     7
370
    20
100
AcDbPolyline
 90
       33
 70
     1
 43
0.0
 10
-764.1793
 20
100.0565
 10
-764.0491
 20
100.043
 10
-763.9277
 20
100.0043
 10
-763.818
 20
99.9431
 10
-763.7223
 20
99.862
 10
-763.6434
 20
99.7638
 10
-763.5838
 20
99.6512
 10
-763.5461
 20
99.5267
 10
-763.533
 20
99.3932
 10
-763.5461
 20
99.2595
 10
-763.5838
 20
99.135
 10
-763.6434
 20
99.0223
 10
-763.7223
 20
98.9242
 10
-763.818
 20
98.8432
 10
-763.9277
 20
98.782
 10
-764.0491
 20
98.7434
 10
-764.1793
 20
98.7299
 10
-764.3096
 20
98.7434
 10
-764.4309
 20
98.782
 10
-764.5408
 20
98.8432
 10
-764.6366
 20
98.9242
 10
-764.7156
 20
99.0223
 10
-764.7753
 20
99.135
 10
-764.813
 20
99.2595
 10
-764.8262
 20
99.3932
 10
-764.813
 20
99.5267
 10
-764.7753
 20
99.6512
 10
-764.7156
 20
99.7638
 10
-764.6366
 20
99.862
 10
-764.5408
 20
99.9431
 10
-764.4309
 20
100.0043
 10
-764.3096
 20
100.043
 10
-764.1793
 20
100.0565
  0
LWPOLYLINE
  5
99
330
1F
100
AcDbEntity
  8
Layer 1
 62
     7
370
    20
100
AcDbPolyline
 90
       33
 70
     1
 43
0.0
 10
-763.0062
 20
97.8584
 10
-762.876
 20
97.8449
 10
-762.7546
 20
97.8063
 10
-762.6449
 20
97.7452
 10
-762.5492
 20
97.6642
 10
-762.4703
 20
97.566
 10
-762.4107
 20
97.4534
 10
-762.373
 20
97.3288
 10
-762.3599
 20
97.1951
 10
-762.373
 20
97.0616
 10
-762.4107
 20
96.9371
 10
-762.4703
 20
96.8245
 10
-762.5492
 20
96.7263
 10
-762.6449
 20
96.6452
 10
-762.7546
 20
96.584
 10
-762.876
 20
96.5453
 10
-763.0062
 20
96.5318
 10
-763.1364
 20
96.5453
 10
-763.2577
 20
96.584
 10
-763.3675
 20
96.6452
 10
-763.4631
 20
96.7263
 10
-763.542
 20
96.8245
 10
-763.6016
 20
96.9371
 10
-763.6393
 20
97.0616
 10
-763.6524
 20
97.1951
 10
-763.6393
 20
97.3288
 10
-763.6016
 20
97.4534
 10
-763.542
 20
97.566
 10
-763.4631
 20
97.6642
 10
-763.3675
 20
97.7452
 10
-763.2577
 20
97.8063
 10
-763.1364
 20
97.8449
 10
-763.0062
 20
97.8584
  0
LWPOLYLINE
  5
9A
330
1F
100
AcDbEntity
  8
Layer 1
 62
     7
370
    20
100
AcDbPolyline
 90
       33
 70
     1
 43
0.0
 10
-761.9737
 20
95.5655
 10
-761.8434
 20
95.552
 10
-761.7221
 20
95.5134
 10
-761.6123
 20
95.4522
 10
-761.5167
 20
95.3712
 10
-761.4378
 20
95.2731
 10
-761.3782
 20
95.1604
 10
-761.3405
 20
95.0358
 10
-761.3274
 20
94.9021
 10
-761.3405
 20
94.7684
 10
-761.3782
 20
94.6439
 10
-761.4378
 20
94.5312
 10
-761.5167
 20
94.4331
 10
-761.6123
 20
94.3521
 10
-761.7221
 20
94.2909
 10
-761.8434
 20
94.2523
 10
-761.9737
 20
94.2388
 10
-762.1039
 20
94.2523
 10
-762.2252
 20
94.2909
 10
-762.335
 20
94.3521
 10
-762.4306
 20
94.4331
 10
-762.5095
 20
94.5312
 10
-762.5691
 20
94.6439
 10
-762.6068
 20
94.7684
 10
-762.6199
 20
94.9021
 10
-762.6068
 20
95.0358
 10
-762.5691
 20
95.1604
 10
-762.5095
 20
95.2731
 10
-762.4306
 20
95.3712
 10
-762.335
 20
95.4522
 10
-762.2252
 20
95.5134
 10
-762.1039
 20
95.552
 10
-761.9737
 20
95.5655
  0
LWPOLYLINE
  5
9B
330
1F
100
AcDbEntity
  8
Layer 1
 62
     7
370
    20
100
AcDbPolyline
 90
       33
 70
     1
 43
0.0
 10
-760.8333
 20
93.7468
 10
-760.7031
 20
93.7333
 10
-760.5818
 20
93.6946
 10
-760.472
 20
93.6334
 10
-760.3764
 20
93.5523
 10
-760.2975
 20
93.4541
 10
-760.2379
 20
93.3414
 10
-760.2002
 20
93.217
 10
-760.1871
 20
93.0835
 10
-760.2002
 20
92.9498
 10
-760.2379
 20
92.8252
 10
-760.2975
 20
92.7125
 10
-760.3764
 20
92.6144
 10
-760.472
 20
92.5334
 10
-760.5818
 20
92.4722
 10
-760.7031
 20
92.4336
 10
-760.8333
 20
92.4201
 10
-760.9635
 20
92.4336
 10
-761.0849
 20
92.4722
 10
-761.1946
 20
92.5334
 10
-761.2903
 20
92.6144
 10
-761.3692
 20
92.7125
 10
-761.4288
 20
92.8252
 10
-761.4665
 20
92.9498
 10
-761.4796
 20
93.0835
 10
-761.4665
 20
93.217
 10
-761.4288
 20
93.3414
 10
-761.3692
 20
93.4541
 10
-761.2903
 20
93.5523
 10
-761.1946
 20
93.6334
 10
-761.0849
 20
93.6946
 10
-760.9635
 20
93.7333
 10
-760.8333
 20
93.7468
  0
LWPOLYLINE
  5
9C
330
1F
100
AcDbEntity
  8
Layer 1
 62
     7
370
    20
100
AcDbPolyline
 90
       33
 70
     1
 43
0.0
 10
-759.3504
 20
91.3214
 10
-759.2202
 20
91.3079
 10
-759.0988
 20
91.2692
 10
-758.9891
 20
91.208
 10
-758.8934
 20
91.1269
 10
-758.8145
 20
91.0287
 10
-758.7549
 20
90.9161
 10
-758.7172
 20
90.7916
 10
-758.7041
 20
90.6581
 10
-758.7172
 20
90.5244
 10
-758.7549
 20
90.3998
 10
-758.8145
 20
90.2872
 10
-758.8934
 20
90.189
 10
-758.9891
 20
90.108
 10
-759.0988
 20
90.0469
 10
-759.2202
 20
90.0083
 10
-759.3504
 20
89.9948
 10
-759.4806
 20
90.0083
 10
-759.602
 20
90.0469
 10
-759.7117
 20
90.108
 10
-759.8074
 20
90.189
 10
-759.8863
 20
90.2872
 10
-759.9459
 20
90.3998
 10
-759.9836
 20
90.5244
 10
-759.9967
 20
90.6581
 10
-759.9836
 20
90.7916
 10
-759.9459
 20
90.9161
 10
-759.8863
 20
91.0287
 10
-759.8074
 20
91.1269
 10
-759.7117
 20
91.208
 10
-759.602
 20
91.2692
 10
-759.4806
 20
91.3079
 10
-759.3504
 20
91.3214
  0
LWPOLYLINE
  5
9D
330
1F
100
AcDbEntity
  8
Layer 1
 62
     7
370
    20
100
AcDbPolyline
 90
       33
 70
     1
 43
0.0
 10
-758.2476
 20
89.5778
 10
-758.1174
 20
89.5643
 10
-757.996
 20
89.5257
 10
-757.8863
 20
89.4646
 10
-757.7906
 20
89.3836
 10
-757.7117
 20
89.2854
 10
-757.6521
 20
89.1728
 10
-757.6144
 20
89.0482
 10
-757.6013
 20
88.9145
 10
-757.6144
 20
88.781
 10
-757.6521
 20
88.6565
 10
-757.7117
 20
88.5439
 10
-757.7906
 20
88.4457
 10
-757.8863
 20
88.3646
 10
-757.996
 20
88.3034
 10
-758.1174
 20
88.2647
 10
-758.2476
 20
88.2512
 10
-758.3778
 20
88.2647
 10
-758.4991
 20
88.3034
 10
-758.6089
 20
88.3646
 10
-758.7045
 20
88.4457
 10
-758.7834
 20
88.5439
 10
-758.843
 20
88.6565
 10
-758.8807
 20
88.781
 10
-758.8938
 20
88.9145
 10
-758.8807
 20
89.0482
 10
-758.843
 20
89.1728
 10
-758.7834
 20
89.2854
 10
-758.7045
 20
89.3836
 10
-758.6089
 20
89.4646
 10
-758.4991
 20
89.5257
 10
-758.3778
 20
89.5643
 10
-758.2476
 20
89.5778
  0
LWPOLYLINE
  5
9E
330
1F
100
AcDbEntity
  8
Layer 1
 62
     7
370
    20
100
AcDbPolyline
 90
       33
 70
     1
 43
0.0
 10
-757.3727
 20
88.1945
 10
-757.2425
 20
88.181
 10
-757.1211
 20
88.1424
 10
-757.0114
 20
88.0813
 10
-756.9157
 20
88.0004
 10
-756.8368
 20
87.9023
 10
-756.7772
 20
87.7898
 10
-756.7395
 20
87.6654
 10
-756.7264
 20
87.5319
 10
-756.7395
 20
87.3982
 10
-756.7772
 20
87.2736
 10
-756.8368
 20
87.161
 10
-756.9157
 20
87.0628
 10
-757.0114
 20
86.9818
 10
-757.1211
 20
86.9207
 10
-757.2425
 20
86.8821
 10
-757.3727
 20
86.8686
 10
-757.5029
 20
86.8821
 10
-757.6243
 20
86.9207
 10
-757.734
 20
86.9818
 10
-757.8297
 20
87.0628
 10
-757.9086
 20
87.161
 10
-757.9682
 20
87.2736
 10
-758.0059
 20
87.3982
 10
-758.019
 20
87.5319
 10
-758.0059
 20
87.6654
 10
-757.9682
 20
87.7898
 10
-757.9086
 20
87.9023
 10
-757.8297
 20
88.0004
 10
-757.734
 20
88.0813
 10
-757.6243
 20
88.1424
 10
-757.5029
 20
88.181
 10
-757.3727
 20
88.1945
  0
LWPOLYLINE
  5
9F
330
1F
100
AcDbEntity
  8
Layer 1
 62
     7
370
    20
100
AcDbPolyline
 90
       33
 70
     1
 43
0.0
 10
-754.5781
 20
83.4953
 10
-754.4478
 20
83.4818
 10
-754.3265
 20
83.4431
 10
-754.2166
 20
83.3819
 10
-754.1208
 20
83.3008
 10
-754.0418
 20
83.2026
 10
-753.9821
 20
83.09
 10
-753.9444
 20
82.9655
 10
-753.9312
 20
82.832
 10
-753.9444
 20
82.6983
 10
-753.9821
 20
82.5737
 10
-754.0418
 20
82.4611
 10
-754.1208
 20
82.3629
 10
-754.2166
 20
82.2819
 10
-754.3265
 20
82.2208
 10
-754.4478
 20
82.1822
 10
-754.5781
 20
82.1687
 10
-754.7084
 20
82.1822
 10
-754.8297
 20
82.2208
 10
-754.9395
 20
82.2819
 10
-755.0351
 20
82.3629
 10
-755.114
 20
82.4611
 10
-755.1736
 20
82.5737
 10
-755.2113
 20
82.6983
 10
-755.2244
 20
82.832
 10
-755.2113
 20
82.9655
 10
-755.1736
 20
83.09
 10
-755.114
 20
83.2026
 10
-755.0351
 20
83.3008
 10
-754.9395
 20
83.3819
 10
-754.8297
 20
83.4431
 10
-754.7084
 20
83.4818
 10
-754.5781
 20
83.4953
  0
LWPOLYLINE
  5
A0
330
1F
100
AcDbEntity
  8
Layer 1
 62
     7
370
    20
100
AcDbPolyline
 90
       33
 70
     1
 43
0.0
 10
-756.3272
 20
86.3752
 10
-756.197
 20
86.3617
 10
-756.0757
 20
86.3231
 10
-755.9659
 20
86.2619
 10
-755.8703
 20
86.1809
 10
-755.7914
 20
86.0828
 10
-755.7318
 20
85.9701
 10
-755.6941
 20
85.8455
 10
-755.681
 20
85.7118
 10
-755.6941
 20
85.5783
 10
-755.7318
 20
85.4539
 10
-755.7914
 20
85.3412
 10
-755.8703
 20
85.243
 10
-755.9659
 20
85.1619
 10
-756.0757
 20
85.1007
 10
-756.197
 20
85.062
 10
-756.3272
 20
85.0485
 10
-756.4574
 20
85.062
 10
-756.5788
 20
85.1007
 10
-756.6885
 20
85.1619
 10
-756.7842
 20
85.243
 10
-756.8631
 20
85.3412
 10
-756.9227
 20
85.4539
 10
-756.9604
 20
85.5783
 10
-756.9735
 20
85.7118
 10
-756.9604
 20
85.8455
 10
-756.9227
 20
85.9701
 10
-756.8631
 20
86.0828
 10
-756.7842
 20
86.1809
 10
-756.6885
 20
86.2619
 10
-756.5788
 20
86.3231
 10
-756.4574
 20
86.3617
 10
-756.3272
 20
86.3752
  0
LWPOLYLINE
  5
A1
330
1F
100
AcDbEntity
  8
Layer 1
 62
     7
370
    20
100
AcDbPolyline
 90
       33
 70
     1
 43
0.0
 10
-753.5893
 20
82.1687
 10
-753.4591
 20
82.1552
 10
-753.3377
 20
82.1166
 10
-753.228
 20
82.0554
 10
-753.1323
 20
81.9744
 10
-753.0534
 20
81.8763
 10
-752.9938
 20
81.7636
 10
-752.9561
 20
81.639
 10
-752.943
 20
81.5053
 10
-752.9561
 20
81.3716
 10
-752.9938
 20
81.2471
 10
-753.0534
 20
81.1344
 10
-753.1323
 20
81.0363
 10
-753.228
 20
80.9553
 10
-753.3377
 20
80.8941
 10
-753.4591
 20
80.8555
 10
-753.5893
 20
80.842
 10
-753.7195
 20
80.8555
 10
-753.8409
 20
80.8941
 10
-753.9506
 20
80.9553
 10
-754.0463
 20
81.0363
 10
-754.1252
 20
81.1344
 10
-754.1848
 20
81.2471
 10
-754.2225
 20
81.3716
 10
-754.2356
 20
81.5053
 10
-754.2225
 20
81.639
 10
-754.1848
 20
81.7636
 10
-754.1252
 20
81.8763
 10
-754.0463
 20
81.9744
 10
-753.9506
 20
82.0554
 10
-753.8409
 20
82.1166
 10
-753.7195
 20
82.1552
 10
-753.5893
 20
82.1687
  0
LWPOLYLINE
  5
A2
330
1F
100
AcDbEntity
  8
Layer 1
 62
     7
370
    20
100
AcDbPolyline
 90
       33
 70
     1
 43
0.0
 10
-752.7144
 20
80.9935
 10
-752.5842
 20
80.98
 10
-752.4629
 20
80.9414
 10
-752.3531
 20
80.8802
 10
-752.2575
 20
80.7993
 10
-752.1786
 20
80.7011
 10
-752.119
 20
80.5884
 10
-752.0813
 20
80.4639
 10
-752.0682
 20
80.3302
 10
-752.0813
 20
80.1967
 10
-752.119
 20
80.0722
 10
-752.1786
 20
79.9596
 10
-752.2575
 20
79.8614
 10
-752.3531
 20
79.7803
 10
-752.4629
 20
79.7191
 10
-752.5842
 20
79.6804
 10
-752.7144
 20
79.6669
 10
-752.8447
 20
79.6804
 10
-752.9661
 20
79.7191
 10
-753.076
 20
79.7803
 10
-753.1717
 20
79.8614
 10
-753.2508
 20
79.9596
 10
-753.3105
 20
80.0722
 10
-753.3482
 20
80.1967
 10
-753.3614
 20
80.3302
 10
-753.3482
 20
80.4639
 10
-753.3105
 20
80.5884
 10
-753.2508
 20
80.7011
 10
-753.1717
 20
80.7993
 10
-753.076
 20
80.8802
 10
-752.9661
 20
80.9414
 10
-752.8447
 20
80.98
 10
-752.7144
 20
80.9935
  0
LWPOLYLINE
  5
A3
330
1F
100
AcDbEntity
  8
Layer 1
 62
     7
370
    20
100
AcDbPolyline
 90
       33
 70
     1
 43
0.0
 10
-751.6498
 20
79.8566
 10
-751.5196
 20
79.8431
 10
-751.3983
 20
79.8045
 10
-751.2885
 20
79.7433
 10
-751.1929
 20
79.6623
 10
-751.114
 20
79.5642
 10
-751.0544
 20
79.4515
 10
-751.0167
 20
79.3269
 10
-751.0036
 20
79.1932
 10
-751.0167
 20
79.0597
 10
-751.0544
 20
78.9353
 10
-751.114
 20
78.8226
 10
-751.1929
 20
78.7244
 10
-751.2885
 20
78.6433
 10
-751.3983
 20
78.5821
 10
-751.5196
 20
78.5434
 10
-751.6498
 20
78.5299
 10
-751.78
 20
78.5434
 10
-751.9014
 20
78.5821
 10
-752.0111
 20
78.6433
 10
-752.1068
 20
78.7244
 10
-752.1857
 20
78.8226
 10
-752.2453
 20
78.9353
 10
-752.283
 20
79.0597
 10
-752.2961
 20
79.1932
 10
-752.283
 20
79.3269
 10
-752.2453
 20
79.4515
 10
-752.1857
 20
79.5642
 10
-752.1068
 20
79.6623
 10
-752.0111
 20
79.7433
 10
-751.9014
 20
79.8045
 10
-751.78
 20
79.8431
 10
-751.6498
 20
79.8566
  0
LWPOLYLINE
  5
A4
330
1F
100
AcDbEntity
  8
Layer 1
 62
     7
370
    20
100
AcDbPolyline
 90
       33
 70
     1
 43
0.0
 10
-750.5095
 20
78.2269
 10
-750.3792
 20
78.2134
 10
-750.2578
 20
78.1748
 10
-750.1479
 20
78.1137
 10
-750.0522
 20
78.0328
 10
-749.9731
 20
77.9347
 10
-749.9134
 20
77.8222
 10
-749.8757
 20
77.6978
 10
-749.8625
 20
77.5643
 10
-749.8757
 20
77.4306
 10
-749.9134
 20
77.306
 10
-749.9731
 20
77.1934
 10
-750.0522
 20
77.0952
 10
-750.1479
 20
77.0142
 10
-750.2578
 20
76.9531
 10
-750.3792
 20
76.9145
 10
-750.5095
 20
76.901
 10
-750.6397
 20
76.9145
 10
-750.7611
 20
76.9531
 10
-750.8708
 20
77.0142
 10
-750.9665
 20
77.0952
 10
-751.0454
 20
77.1934
 10
-751.105
 20
77.306
 10
-751.1427
 20
77.4306
 10
-751.1558
 20
77.5643
 10
-751.1427
 20
77.6978
 10
-751.105
 20
77.8222
 10
-751.0454
 20
77.9347
 10
-750.9665
 20
78.0328
 10
-750.8708
 20
78.1137
 10
-750.7611
 20
78.1748
 10
-750.6397
 20
78.2134
 10
-750.5095
 20
78.2269
  0
LWPOLYLINE
  5
A5
330
1F
100
AcDbEntity
  8
Layer 1
 62
     7
370
    20
100
AcDbPolyline
 90
       33
 70
     1
 43
0.0
 10
-758.7226
 20
84.0255
 10
-758.5923
 20
84.012
 10
-758.471
 20
83.9734
 10
-758.3612
 20
83.9123
 10
-758.2656
 20
83.8313
 10
-758.1867
 20
83.7331
 10
-758.1271
 20
83.6205
 10
-758.0894
 20
83.4959
 10
-758.0763
 20
83.3622
 10
-758.0894
 20
83.2285
 10
-758.1271
 20
83.104
 10
-758.1867
 20
82.9913
 10
-758.2656
 20
82.8932
 10
-758.3612
 20
82.8122
 10
-758.471
 20
82.751
 10
-758.5923
 20
82.7124
 10
-758.7226
 20
82.6989
 10
-758.8528
 20
82.7124
 10
-758.9741
 20
82.751
 10
-759.0839
 20
82.8122
 10
-759.1795
 20
82.8932
 10
-759.2584
 20
82.9913
 10
-759.318
 20
83.104
 10
-759.3557
 20
83.2285
 10
-759.3688
 20
83.3622
 10
-759.3557
 20
83.4959
 10
-759.318
 20
83.6205
 10
-759.2584
 20
83.7331
 10
-759.1795
 20
83.8313
 10
-759.0839
 20
83.9123
 10
-758.9741
 20
83.9734
 10
-758.8528
 20
84.012
 10
-758.7226
 20
84.0255
  0
LWPOLYLINE
  5
A6
330
1F
100
AcDbEntity
  8
Layer 1
 62
     7
370
    20
100
AcDbPolyline
 90
       33
 70
     1
 43
0.0
 10
-761.6509
 20
85.0485
 10
-761.5206
 20
85.035
 10
-761.3992
 20
84.9964
 10
-761.2893
 20
84.9353
 10
-761.1936
 20
84.8544
 10
-761.1145
 20
84.7563
 10
-761.0548
 20
84.6438
 10
-761.0171
 20
84.5194
 10
-761.0039
 20
84.3859
 10
-761.0171
 20
84.2522
 10
-761.0548
 20
84.1276
 10
-761.1145
 20
84.0149
 10
-761.1936
 20
83.9168
 10
-761.2893
 20
83.8358
 10
-761.3992
 20
83.7746
 10
-761.5206
 20
83.736
 10
-761.6509
 20
83.7225
 10
-761.7811
 20
83.736
 10
-761.9024
 20
83.7746
 10
-762.0122
 20
83.8358
 10
-762.1078
 20
83.9168
 10
-762.1867
 20
84.0149
 10
-762.2463
 20
84.1276
 10
-762.284
 20
84.2522
 10
-762.2971
 20
84.3859
 10
-762.284
 20
84.5194
 10
-762.2463
 20
84.6438
 10
-762.1867
 20
84.7563
 10
-762.1078
 20
84.8544
 10
-762.0122
 20
84.9353
 10
-761.9024
 20
84.9964
 10
-761.7811
 20
85.035
 10
-761.6509
 20
85.0485
  0
LWPOLYLINE
  5
A7
330
1F
100
AcDbEntity
  8
Layer 1
 62
     7
370
    20
100
AcDbPolyline
 90
       33
 70
     1
 43
0.0
 10
-764.5403
 20
86.6782
 10
-764.4101
 20
86.6647
 10
-764.2887
 20
86.6261
 10
-764.179
 20
86.565
 10
-764.0833
 20
86.484
 10
-764.0044
 20
86.3859
 10
-763.9448
 20
86.2734
 10
-763.9071
 20
86.149
 10
-763.894
 20
86.0155
 10
-763.9071
 20
85.8818
 10
-763.9448
 20
85.7573
 10
-764.0044
 20
85.6446
 10
-764.0833
 20
85.5465
 10
-764.179
 20
85.4655
 10
-764.2887
 20
85.4043
 10
-764.4101
 20
85.3657
 10
-764.5403
 20
85.3522
 10
-764.6706
 20
85.3657
 10
-764.7919
 20
85.4043
 10
-764.9018
 20
85.4655
 10
-764.9976
 20
85.5465
 10
-765.0766
 20
85.6446
 10
-765.1363
 20
85.7573
 10
-765.174
 20
85.8818
 10
-765.1872
 20
86.0155
 10
-765.174
 20
86.149
 10
-765.1363
 20
86.2734
 10
-765.0766
 20
86.3859
 10
-764.9976
 20
86.484
 10
-764.9018
 20
86.565
 10
-764.7919
 20
86.6261
 10
-764.6706
 20
86.6647
 10
-764.5403
 20
86.6782
  0
LWPOLYLINE
  5
A8
330
1F
100
AcDbEntity
  8
Layer 1
 62
     7
370
    20
100
AcDbPolyline
 90
       33
 70
     1
 43
0.0
 10
-768.7993
 20
86.7921
 10
-768.6691
 20
86.7786
 10
-768.5478
 20
86.74
 10
-768.438
 20
86.6789
 10
-768.3424
 20
86.5979
 10
-768.2635
 20
86.4997
 10
-768.2039
 20
86.3871
 10
-768.1662
 20
86.2625
 10
-768.1531
 20
86.1288
 10
-768.1662
 20
85.9951
 10
-768.2039
 20
85.8705
 10
-768.2635
 20
85.7579
 10
-768.3424
 20
85.6597
 10
-768.438
 20
85.5787
 10
-768.5478
 20
85.5176
 10
-768.6691
 20
85.479
 10
-768.7993
 20
85.4655
 10
-768.9296
 20
85.479
 10
-769.0509
 20
85.5176
 10
-769.1607
 20
85.5787
 10
-769.2563
 20
85.6597
 10
-769.3352
 20
85.7579
 10
-769.3948
 20
85.8705
 10
-769.4325
 20
85.9951
 10
-769.4456
 20
86.1288
 10
-769.4325
 20
86.2625
 10
-769.3948
 20
86.3871
 10
-769.3352
 20
86.4997
 10
-769.2563
 20
86.5979
 10
-769.1607
 20
86.6789
 10
-769.0509
 20
86.74
 10
-768.9296
 20
86.7786
 10
-768.7993
 20
86.7921
  0
LWPOLYLINE
  5
A9
330
1F
100
AcDbEntity
  8
Layer 1
 62
     7
370
    20
100
AcDbPolyline
 90
       33
 70
     1
 43
0.0
 10
-773.4767
 20
87.1709
 10
-773.3464
 20
87.1574
 10
-773.2251
 20
87.1188
 10
-773.1152
 20
87.0576
 10
-773.0194
 20
86.9766
 10
-772.9404
 20
86.8785
 10
-772.8807
 20
86.7658
 10
-772.843
 20
86.6412
 10
-772.8298
 20
86.5075
 10
-772.843
 20
86.374
 10
-772.8807
 20
86.2496
 10
-772.9404
 20
86.1369
 10
-773.0194
 20
86.0387
 10
-773.1152
 20
85.9576
 10
-773.2251
 20
85.8964
 10
-773.3464
 20
85.8577
 10
-773.4767
 20
85.8442
 10
-773.6069
 20
85.8577
 10
-773.7283
 20
85.8964
 10
-773.838
 20
85.9576
 10
-773.9337
 20
86.0387
 10
-774.0126
 20
86.1369
 10
-774.0722
 20
86.2496
 10
-774.1099
 20
86.374
 10
-774.123
 20
86.5075
 10
-774.1099
 20
86.6412
 10
-774.0722
 20
86.7658
 10
-774.0126
 20
86.8785
 10
-773.9337
 20
86.9766
 10
-773.838
 20
87.0576
 10
-773.7283
 20
87.1188
 10
-773.6069
 20
87.1574
 10
-773.4767
 20
87.1709
  0
LWPOLYLINE
  5
AA
330
1F
100
AcDbEntity
  8
Layer 1
 62
     7
370
    20
100
AcDbPolyline
 90
       33
 70
     1
 43
0.0
 10
-777.9992
 20
87.7544
 10
-777.869
 20
87.7409
 10
-777.7476
 20
87.7022
 10
-777.6379
 20
87.6409
 10
-777.5422
 20
87.5599
 10
-777.4633
 20
87.4617
 10
-777.4037
 20
87.349
 10
-777.366
 20
87.2245
 10
-777.3529
 20
87.091
 10
-777.366
 20
86.9573
 10
-777.4037
 20
86.8328
 10
-777.4633
 20
86.7201
 10
-777.5422
 20
86.622
 10
-777.6379
 20
86.541
 10
-777.7476
 20
86.4798
 10
-777.869
 20
86.4412
 10
-777.9992
 20
86.4277
 10
-778.1294
 20
86.4412
 10
-778.2508
 20
86.4798
 10
-778.3605
 20
86.541
 10
-778.4562
 20
86.622
 10
-778.5351
 20
86.7201
 10
-778.5947
 20
86.8328
 10
-778.6324
 20
86.9573
 10
-778.6455
 20
87.091
 10
-778.6324
 20
87.2245
 10
-778.5947
 20
87.349
 10
-778.5351
 20
87.4617
 10
-778.4562
 20
87.5599
 10
-778.3605
 20
87.6409
 10
-778.2508
 20
87.7022
 10
-778.1294
 20
87.7409
 10
-777.9992
 20
87.7544
  0
LWPOLYLINE
  5
AB
330
1F
100
AcDbEntity
  8
Layer 1
 62
     7
370
    20
100
AcDbPolyline
 90
       33
 70
     1
 43
0.0
 10
-782.2774
 20
88.2675
 10
-782.1472
 20
88.254
 10
-782.0258
 20
88.2153
 10
-781.9161
 20
88.1541
 10
-781.8204
 20
88.073
 10
-781.7415
 20
87.9748
 10
-781.6819
 20
87.8622
 10
-781.6442
 20
87.7377
 10
-781.6311
 20
87.6042
 10
-781.6442
 20
87.4705
 10
-781.6819
 20
87.346
 10
-781.7415
 20
87.2333
 10
-781.8204
 20
87.1352
 10
-781.9161
 20
87.0542
 10
-782.0258
 20
86.993
 10
-782.1472
 20
86.9544
 10
-782.2774
 20
86.9409
 10
-782.4076
 20
86.9544
 10
-782.5289
 20
86.993
 10
-782.6387
 20
87.0542
 10
-782.7343
 20
87.1352
 10
-782.8132
 20
87.2333
 10
-782.8728
 20
87.346
 10
-782.9105
 20
87.4705
 10
-782.9236
 20
87.6042
 10
-782.9105
 20
87.7377
 10
-782.8728
 20
87.8622
 10
-782.8132
 20
87.9748
 10
-782.7343
 20
88.073
 10
-782.6387
 20
88.1541
 10
-782.5289
 20
88.2153
 10
-782.4076
 20
88.254
 10
-782.2774
 20
88.2675
  0
LWPOLYLINE
  5
AC
330
1F
100
AcDbEntity
  8
Layer 1
 62
     7
370
    20
100
AcDbPolyline
 90
       33
 70
     1
 43
0.0
 10
-786.8026
 20
88.9493
 10
-786.6724
 20
88.9358
 10
-786.551
 20
88.8972
 10
-786.4413
 20
88.836
 10
-786.3456
 20
88.7551
 10
-786.2667
 20
88.6569
 10
-786.2071
 20
88.5442
 10
-786.1694
 20
88.4197
 10
-786.1563
 20
88.286
 10
-786.1694
 20
88.1525
 10
-786.2071
 20
88.0281
 10
-786.2667
 20
87.9156
 10
-786.3456
 20
87.8175
 10
-786.4413
 20
87.7365
 10
-786.551
 20
87.6754
 10
-786.6724
 20
87.6368
 10
-786.8026
 20
87.6233
 10
-786.9328
 20
87.6368
 10
-787.0541
 20
87.6754
 10
-787.1639
 20
87.7365
 10
-787.2595
 20
87.8175
 10
-787.3384
 20
87.9156
 10
-787.398
 20
88.0281
 10
-787.4357
 20
88.1525
 10
-787.4488
 20
88.286
 10
-787.4357
 20
88.4197
 10
-787.398
 20
88.5442
 10
-787.3384
 20
88.6569
 10
-787.2595
 20
88.7551
 10
-787.1639
 20
88.836
 10
-787.0541
 20
88.8972
 10
-786.9328
 20
88.9358
 10
-786.8026
 20
88.9493
  0
LWPOLYLINE
  5
AD
330
1F
100
AcDbEntity
  8
Layer 1
 62
     7
370
    20
100
AcDbPolyline
 90
       33
 70
     1
 43
0.0
 10
-776.7449
 20
94.9567
 10
-776.6147
 20
94.9432
 10
-776.4933
 20
94.9045
 10
-776.3836
 20
94.8433
 10
-776.2879
 20
94.7622
 10
-776.209
 20
94.664
 10
-776.1494
 20
94.5514
 10
-776.1117
 20
94.4269
 10
-776.0986
 20
94.2934
 10
-776.1117
 20
94.1597
 10
-776.1494
 20
94.0351
 10
-776.209
 20
93.9225
 10
-776.2879
 20
93.8243
 10
-776.3836
 20
93.7433
 10
-776.4933
 20
93.6822
 10
-776.6147
 20
93.6436
 10
-776.7449
 20
93.6301
 10
-776.8751
 20
93.6436
 10
-776.9965
 20
93.6822
 10
-777.1062
 20
93.7433
 10
-777.2019
 20
93.8243
 10
-777.2808
 20
93.9225
 10
-777.3404
 20
94.0351
 10
-777.3781
 20
94.1597
 10
-777.3912
 20
94.2934
 10
-777.3781
 20
94.4269
 10
-777.3404
 20
94.5514
 10
-777.2808
 20
94.664
 10
-777.2019
 20
94.7622
 10
-777.1062
 20
94.8433
 10
-776.9965
 20
94.9045
 10
-776.8751
 20
94.9432
 10
-776.7449
 20
94.9567
  0
LWPOLYLINE
  5
AE
330
1F
100
AcDbEntity
  8
Layer 1
 62
     7
370
    20
100
AcDbPolyline
 90
       33
 70
     1
 43
0.0
 10
-773.6269
 20
93.3271
 10
-773.4966
 20
93.3136
 10
-773.3752
 20
93.275
 10
-773.2653
 20
93.2138
 10
-773.1695
 20
93.1329
 10
-773.0905
 20
93.0347
 10
-773.0308
 20
92.922
 10
-772.9931
 20
92.7975
 10
-772.9799
 20
92.6638
 10
-772.9931
 20
92.5303
 10
-773.0308
 20
92.4058
 10
-773.0905
 20
92.2931
 10
-773.1695
 20
92.1949
 10
-773.2653
 20
92.1139
 10
-773.3752
 20
92.0526
 10
-773.4966
 20
92.0139
 10
-773.6269
 20
92.0004
 10
-773.7571
 20
92.0139
 10
-773.8784
 20
92.0526
 10
-773.9882
 20
92.1139
 10
-774.0838
 20
92.1949
 10
-774.1627
 20
92.2931
 10
-774.2223
 20
92.4058
 10
-774.26
 20
92.5303
 10
-774.2731
 20
92.6638
 10
-774.26
 20
92.7975
 10
-774.2223
 20
92.922
 10
-774.1627
 20
93.0347
 10
-774.0838
 20
93.1329
 10
-773.9882
 20
93.2138
 10
-773.8784
 20
93.275
 10
-773.7571
 20
93.3136
 10
-773.6269
 20
93.3271
  0
LWPOLYLINE
  5
AF
330
1F
100
AcDbEntity
  8
Layer 1
 62
     7
370
    20
100
AcDbPolyline
 90
       33
 70
     1
 43
0.0
 10
-770.6603
 20
91.7732
 10
-770.5301
 20
91.7597
 10
-770.4088
 20
91.7211
 10
-770.299
 20
91.6599
 10
-770.2034
 20
91.579
 10
-770.1245
 20
91.4808
 10
-770.0649
 20
91.3681
 10
-770.0272
 20
91.2436
 10
-770.0141
 20
91.1099
 10
-770.0272
 20
90.9764
 10
-770.0649
 20
90.852
 10
-770.1245
 20
90.7395
 10
-770.2034
 20
90.6414
 10
-770.299
 20
90.5604
 10
-770.4088
 20
90.4993
 10
-770.5301
 20
90.4607
 10
-770.6603
 20
90.4472
 10
-770.7905
 20
90.4607
 10
-770.9119
 20
90.4993
 10
-771.0216
 20
90.5604
 10
-771.1173
 20
90.6414
 10
-771.1962
 20
90.7395
 10
-771.2558
 20
90.852
 10
-771.2935
 20
90.9764
 10
-771.3066
 20
91.1099
 10
-771.2935
 20
91.2436
 10
-771.2558
 20
91.3681
 10
-771.1962
 20
91.4808
 10
-771.1173
 20
91.579
 10
-771.0216
 20
91.6599
 10
-770.9119
 20
91.7211
 10
-770.7905
 20
91.7597
 10
-770.6603
 20
91.7732
  0
LWPOLYLINE
  5
B0
330
1F
100
AcDbEntity
  8
Layer 1
 62
     7
370
    20
100
AcDbPolyline
 90
       33
 70
     1
 43
0.0
 10
-767.8255
 20
90.5052
 10
-767.6953
 20
90.4917
 10
-767.5739
 20
90.4531
 10
-767.4642
 20
90.392
 10
-767.3685
 20
90.3111
 10
-767.2896
 20
90.213
 10
-767.23
 20
90.1005
 10
-767.1923
 20
89.9761
 10
-767.1792
 20
89.8426
 10
-767.1923
 20
89.7089
 10
-767.23
 20
89.5843
 10
-767.2896
 20
89.4717
 10
-767.3685
 20
89.3735
 10
-767.4642
 20
89.2925
 10
-767.5739
 20
89.2314
 10
-767.6953
 20
89.1928
 10
-767.8255
 20
89.1793
 10
-767.9557
 20
89.1928
 10
-768.0771
 20
89.2314
 10
-768.1868
 20
89.2925
 10
-768.2825
 20
89.3735
 10
-768.3614
 20
89.4717
 10
-768.421
 20
89.5843
 10
-768.4587
 20
89.7089
 10
-768.4718
 20
89.8426
 10
-768.4587
 20
89.9761
 10
-768.421
 20
90.1005
 10
-768.3614
 20
90.213
 10
-768.2825
 20
90.3111
 10
-768.1868
 20
90.392
 10
-768.0771
 20
90.4531
 10
-767.9557
 20
90.4917
 10
-767.8255
 20
90.5052
  0
LWPOLYLINE
  5
B1
330
1F
100
AcDbEntity
  8
Layer 1
 62
     7
370
    20
100
AcDbPolyline
 90
       33
 70
     1
 43
0.0
 10
-788.5346
 20
83.0401
 10
-788.4044
 20
83.0266
 10
-788.283
 20
82.988
 10
-788.1733
 20
82.9269
 10
-788.0776
 20
82.8459
 10
-787.9987
 20
82.7477
 10
-787.9391
 20
82.6351
 10
-787.9014
 20
82.5105
 10
-787.8883
 20
82.3768
 10
-787.9014
 20
82.2431
 10
-787.9391
 20
82.1185
 10
-787.9987
 20
82.0059
 10
-788.0776
 20
81.9077
 10
-788.1733
 20
81.8267
 10
-788.283
 20
81.7656
 10
-788.4044
 20
81.727
 10
-788.5346
 20
81.7135
 10
-788.6648
 20
81.727
 10
-788.7861
 20
81.7656
 10
-788.8959
 20
81.8267
 10
-788.9915
 20
81.9077
 10
-789.0704
 20
82.0059
 10
-789.13
 20
82.1185
 10
-789.1677
 20
82.2431
 10
-789.1808
 20
82.3768
 10
-789.1677
 20
82.5105
 10
-789.13
 20
82.6351
 10
-789.0704
 20
82.7477
 10
-788.9915
 20
82.8459
 10
-788.8959
 20
82.9269
 10
-788.7861
 20
82.988
 10
-788.6648
 20
83.0266
 10
-788.5346
 20
83.0401
  0
LWPOLYLINE
  5
B2
330
1F
100
AcDbEntity
  8
Layer 1
 62
     7
370
    20
100
AcDbPolyline
 90
       33
 70
     1
 43
0.0
 10
-794.1619
 20
82.8886
 10
-794.0317
 20
82.8751
 10
-793.9103
 20
82.8365
 10
-793.8006
 20
82.7754
 10
-793.7049
 20
82.6944
 10
-793.626
 20
82.5962
 10
-793.5664
 20
82.4836
 10
-793.5287
 20
82.359
 10
-793.5156
 20
82.2253
 10
-793.5287
 20
82.0916
 10
-793.5664
 20
81.967
 10
-793.626
 20
81.8544
 10
-793.7049
 20
81.7562
 10
-793.8006
 20
81.6752
 10
-793.9103
 20
81.6141
 10
-794.0317
 20
81.5755
 10
-794.1619
 20
81.562
 10
-794.2921
 20
81.5755
 10
-794.4135
 20
81.6141
 10
-794.5232
 20
81.6752
 10
-794.6189
 20
81.7562
 10
-794.6978
 20
81.8544
 10
-794.7574
 20
81.967
 10
-794.7951
 20
82.0916
 10
-794.8082
 20
82.2253
 10
-794.7951
 20
82.359
 10
-794.7574
 20
82.4836
 10
-794.6978
 20
82.5962
 10
-794.6189
 20
82.6944
 10
-794.5232
 20
82.7754
 10
-794.4135
 20
82.8365
 10
-794.2921
 20
82.8751
 10
-794.1619
 20
82.8886
  0
LWPOLYLINE
  5
B3
330
1F
100
AcDbEntity
  8
Layer 1
 62
     7
370
    20
100
AcDbPolyline
 90
       33
 70
     1
 43
0.0
 10
-782.7926
 20
83.6086
 10
-782.6624
 20
83.5951
 10
-782.541
 20
83.5565
 10
-782.4313
 20
83.4953
 10
-782.3356
 20
83.4144
 10
-782.2567
 20
83.3162
 10
-782.1971
 20
83.2035
 10
-782.1594
 20
83.079
 10
-782.1463
 20
82.9453
 10
-782.1594
 20
82.8118
 10
-782.1971
 20
82.6873
 10
-782.2567
 20
82.5746
 10
-782.3356
 20
82.4764
 10
-782.4313
 20
82.3954
 10
-782.541
 20
82.3341
 10
-782.6624
 20
82.2954
 10
-782.7926
 20
82.2819
 10
-782.9228
 20
82.2954
 10
-783.0442
 20
82.3341
 10
-783.1539
 20
82.3954
 10
-783.2496
 20
82.4764
 10
-783.3285
 20
82.5746
 10
-783.3881
 20
82.6873
 10
-783.4258
 20
82.8118
 10
-783.4389
 20
82.9453
 10
-783.4258
 20
83.079
 10
-783.3881
 20
83.2035
 10
-783.3285
 20
83.3162
 10
-783.2496
 20
83.4144
 10
-783.1539
 20
83.4953
 10
-783.0442
 20
83.5565
 10
-782.9228
 20
83.5951
 10
-782.7926
 20
83.6086
  0
LWPOLYLINE
  5
B4
330
1F
100
AcDbEntity
  8
Layer 1
 62
     7
370
    20
100
AcDbPolyline
 90
       33
 70
     1
 43
0.0
 10
-777.3168
 20
83.988
 10
-777.1866
 20
83.9745
 10
-777.0652
 20
83.9358
 10
-776.9555
 20
83.8746
 10
-776.8598
 20
83.7935
 10
-776.7809
 20
83.6953
 10
-776.7213
 20
83.5827
 10
-776.6836
 20
83.4582
 10
-776.6705
 20
83.3247
 10
-776.6836
 20
83.191
 10
-776.7213
 20
83.0664
 10
-776.7809
 20
82.9538
 10
-776.8598
 20
82.8556
 10
-776.9555
 20
82.7746
 10
-777.0652
 20
82.7135
 10
-777.1866
 20
82.6749
 10
-777.3168
 20
82.6614
 10
-777.447
 20
82.6749
 10
-777.5683
 20
82.7135
 10
-777.6781
 20
82.7746
 10
-777.7737
 20
82.8556
 10
-777.8526
 20
82.9538
 10
-777.9122
 20
83.0664
 10
-777.9499
 20
83.191
 10
-777.963
 20
83.3247
 10
-777.9499
 20
83.4582
 10
-777.9122
 20
83.5827
 10
-777.8526
 20
83.6953
 10
-777.7737
 20
83.7935
 10
-777.6781
 20
83.8746
 10
-777.5683
 20
83.9358
 10
-777.447
 20
83.9745
 10
-777.3168
 20
83.988
  0
LWPOLYLINE
  5
B5
330
1F
100
AcDbEntity
  8
Layer 1
 62
     7
370
    20
100
AcDbPolyline
 90
       33
 70
     1
 43
0.0
 10
-768.1531
 20
83.6843
 10
-768.0228
 20
83.6708
 10
-767.9014
 20
83.6322
 10
-767.7915
 20
83.5711
 10
-767.6958
 20
83.4901
 10
-767.6167
 20
83.3919
 10
-767.557
 20
83.2793
 10
-767.5193
 20
83.1547
 10
-767.5061
 20
83.021
 10
-767.5193
 20
82.8875
 10
-767.557
 20
82.7631
 10
-767.6167
 20
82.6506
 10
-767.6958
 20
82.5525
 10
-767.7915
 20
82.4716
 10
-767.9014
 20
82.4105
 10
-768.0228
 20
82.3719
 10
-768.1531
 20
82.3584
 10
-768.2831
 20
82.3719
 10
-768.4043
 20
82.4105
 10
-768.5141
 20
82.4716
 10
-768.6098
 20
82.5525
 10
-768.6888
 20
82.6506
 10
-768.7484
 20
82.7631
 10
-768.7861
 20
82.8875
 10
-768.7993
 20
83.021
 10
-768.7861
 20
83.1547
 10
-768.7484
 20
83.2793
 10
-768.6888
 20
83.3919
 10
-768.6098
 20
83.4901
 10
-768.5141
 20
83.5711
 10
-768.4043
 20
83.6322
 10
-768.2831
 20
83.6708
 10
-768.1531
 20
83.6843
  0
LWPOLYLINE
  5
B6
330
1F
100
AcDbEntity
  8
Layer 1
 62
     7
370
    20
100
AcDbPolyline
 90
       33
 70
     1
 43
0.0
 10
-761.3465
 20
82.0547
 10
-761.2163
 20
82.0412
 10
-761.0949
 20
82.0026
 10
-760.9852
 20
81.9414
 10
-760.8895
 20
81.8605
 10
-760.8106
 20
81.7623
 10
-760.751
 20
81.6496
 10
-760.7133
 20
81.5251
 10
-760.7002
 20
81.3914
 10
-760.7133
 20
81.2579
 10
-760.751
 20
81.1335
 10
-760.8106
 20
81.021
 10
-760.8895
 20
80.9229
 10
-760.9852
 20
80.8419
 10
-761.0949
 20
80.7808
 10
-761.2163
 20
80.7422
 10
-761.3465
 20
80.7287
 10
-761.4767
 20
80.7422
 10
-761.5981
 20
80.7808
 10
-761.7078
 20
80.8419
 10
-761.8035
 20
80.9229
 10
-761.8824
 20
81.021
 10
-761.942
 20
81.1335
 10
-761.9797
 20
81.2579
 10
-761.9928
 20
81.3914
 10
-761.9797
 20
81.5251
 10
-761.942
 20
81.6496
 10
-761.8824
 20
81.7623
 10
-761.8035
 20
81.8605
 10
-761.7078
 20
81.9414
 10
-761.5981
 20
82.0026
 10
-761.4767
 20
82.0412
 10
-761.3465
 20
82.0547
  0
LWPOLYLINE
  5
B7
330
1F
100
AcDbEntity
  8
Layer 1
 62
     7
370
    20
100
AcDbPolyline
 90
       33
 70
     1
 43
0.0
 10
-766.2136
 20
81.8274
 10
-766.0834
 20
81.8139
 10
-765.962
 20
81.7753
 10
-765.8523
 20
81.7142
 10
-765.7566
 20
81.6332
 10
-765.6777
 20
81.535
 10
-765.6181
 20
81.4224
 10
-765.5804
 20
81.2978
 10
-765.5673
 20
81.1641
 10
-765.5804
 20
81.0306
 10
-765.6181
 20
80.9061
 10
-765.6777
 20
80.7935
 10
-765.7566
 20
80.6953
 10
-765.8523
 20
80.6142
 10
-765.962
 20
80.553
 10
-766.0834
 20
80.5143
 10
-766.2136
 20
80.5008
 10
-766.3438
 20
80.5143
 10
-766.4652
 20
80.553
 10
-766.5749
 20
80.6142
 10
-766.6706
 20
80.6953
 10
-766.7495
 20
80.7935
 10
-766.8091
 20
80.9061
 10
-766.8468
 20
81.0306
 10
-766.8599
 20
81.1641
 10
-766.8468
 20
81.2978
 10
-766.8091
 20
81.4224
 10
-766.7495
 20
81.535
 10
-766.6706
 20
81.6332
 10
-766.5749
 20
81.7142
 10
-766.4652
 20
81.7753
 10
-766.3438
 20
81.8139
 10
-766.2136
 20
81.8274
  0
LWPOLYLINE
  5
B8
330
1F
100
AcDbEntity
  8
Layer 1
 62
     7
370
    20
100
AcDbPolyline
 90
       33
 70
     1
 43
0.0
 10
-773.7047
 20
82.2819
 10
-773.5744
 20
82.2684
 10
-773.4531
 20
82.2298
 10
-773.3433
 20
82.1687
 10
-773.2477
 20
82.0878
 10
-773.1688
 20
81.9897
 10
-773.1092
 20
81.8772
 10
-773.0715
 20
81.7528
 10
-773.0584
 20
81.6193
 10
-773.0715
 20
81.4856
 10
-773.1092
 20
81.361
 10
-773.1688
 20
81.2484
 10
-773.2477
 20
81.1502
 10
-773.3433
 20
81.0692
 10
-773.4531
 20
81.0081
 10
-773.5744
 20
80.9695
 10
-773.7047
 20
80.956
 10
-773.8349
 20
80.9695
 10
-773.9562
 20
81.0081
 10
-774.066
 20
81.0692
 10
-774.1616
 20
81.1502
 10
-774.2405
 20
81.2484
 10
-774.3001
 20
81.361
 10
-774.3378
 20
81.4856
 10
-774.3509
 20
81.6193
 10
-774.3378
 20
81.7528
 10
-774.3001
 20
81.8772
 10
-774.2405
 20
81.9897
 10
-774.1616
 20
82.0878
 10
-774.066
 20
82.1687
 10
-773.9562
 20
82.2298
 10
-773.8349
 20
82.2684
 10
-773.7047
 20
82.2819
  0
LWPOLYLINE
  5
B9
330
1F
100
AcDbEntity
  8
Layer 1
 62
     7
370
    20
100
AcDbPolyline
 90
       33
 70
     1
 43
0.0
 10
-779.4084
 20
81.0317
 10
-779.2782
 20
81.0182
 10
-779.1569
 20
80.9796
 10
-779.0471
 20
80.9185
 10
-778.9515
 20
80.8375
 10
-778.8726
 20
80.7393
 10
-778.813
 20
80.6267
 10
-778.7753
 20
80.5021
 10
-778.7622
 20
80.3684
 10
-778.7753
 20
80.2347
 10
-778.813
 20
80.1101
 10
-778.8726
 20
79.9975
 10
-778.9515
 20
79.8993
 10
-779.0471
 20
79.8183
 10
-779.1569
 20
79.7572
 10
-779.2782
 20
79.7186
 10
-779.4084
 20
79.7051
 10
-779.5386
 20
79.7186
 10
-779.66
 20
79.7572
 10
-779.7697
 20
79.8183
 10
-779.8654
 20
79.8993
 10
-779.9443
 20
79.9975
 10
-780.0039
 20
80.1101
 10
-780.0416
 20
80.2347
 10
-780.0547
 20
80.3684
 10
-780.0416
 20
80.5021
 10
-780.0039
 20
80.6267
 10
-779.9443
 20
80.7393
 10
-779.8654
 20
80.8375
 10
-779.7697
 20
80.9185
 10
-779.66
 20
80.9796
 10
-779.5386
 20
81.0182
 10
-779.4084
 20
81.0317
  0
LWPOLYLINE
  5
BA
330
1F
100
AcDbEntity
  8
Layer 1
 62
     7
370
    20
100
AcDbPolyline
 90
       33
 70
     1
 43
0.0
 10
-785.4473
 20
79.7194
 10
-785.317
 20
79.7059
 10
-785.1957
 20
79.6672
 10
-785.0859
 20
79.606
 10
-784.9903
 20
79.5249
 10
-784.9114
 20
79.4267
 10
-784.8518
 20
79.3141
 10
-784.8141
 20
79.1896
 10
-784.801
 20
79.0561
 10
-784.8141
 20
78.9224
 10
-784.8518
 20
78.7978
 10
-784.9114
 20
78.6852
 10
-784.9903
 20
78.587
 10
-785.0859
 20
78.506
 10
-785.1957
 20
78.4449
 10
-785.317
 20
78.4063
 10
-785.4473
 20
78.3928
 10
-785.5775
 20
78.4063
 10
-785.6988
 20
78.4449
 10
-785.8086
 20
78.506
 10
-785.9042
 20
78.587
 10
-785.9831
 20
78.6852
 10
-786.0427
 20
78.7978
 10
-786.0804
 20
78.9224
 10
-786.0935
 20
79.0561
 10
-786.0804
 20
79.1896
 10
-786.0427
 20
79.3141
 10
-785.9831
 20
79.4267
 10
-785.9042
 20
79.5249
 10
-785.8086
 20
79.606
 10
-785.6988
 20
79.6672
 10
-785.5775
 20
79.7059
 10
-785.4473
 20
79.7194
  0
LWPOLYLINE
  5
BB
330
1F
100
AcDbEntity
  8
Layer 1
 62
     7
370
    20
100
AcDbPolyline
 90
       33
 70
     1
 43
0.0
 10
-791.31
 20
78.6821
 10
-791.1798
 20
78.6686
 10
-791.0585
 20
78.63
 10
-790.9487
 20
78.5689
 10
-790.8531
 20
78.4879
 10
-790.7742
 20
78.3897
 10
-790.7146
 20
78.2771
 10
-790.6769
 20
78.1525
 10
-790.6638
 20
78.0188
 10
-790.6769
 20
77.8851
 10
-790.7146
 20
77.7605
 10
-790.7742
 20
77.6479
 10
-790.8531
 20
77.5497
 10
-790.9487
 20
77.4687
 10
-791.0585
 20
77.4076
 10
-791.1798
 20
77.369
 10
-791.31
 20
77.3555
 10
-791.4402
 20
77.369
 10
-791.5616
 20
77.4076
 10
-791.6713
 20
77.4687
 10
-791.767
 20
77.5497
 10
-791.8459
 20
77.6479
 10
-791.9055
 20
77.7605
 10
-791.9432
 20
77.8851
 10
-791.9563
 20
78.0188
 10
-791.9432
 20
78.1525
 10
-791.9055
 20
78.2771
 10
-791.8459
 20
78.3897
 10
-791.767
 20
78.4879
 10
-791.6713
 20
78.5689
 10
-791.5616
 20
78.63
 10
-791.4402
 20
78.6686
 10
-791.31
 20
78.6821
  0
LWPOLYLINE
  5
BC
330
1F
100
AcDbEntity
  8
Layer 1
 62
     7
370
    20
100
AcDbPolyline
 90
       33
 70
     1
 43
0.0
 10
-797.4703
 20
77.6967
 10
-797.3401
 20
77.6832
 10
-797.2188
 20
77.6446
 10
-797.109
 20
77.5834
 10
-797.0134
 20
77.5025
 10
-796.9345
 20
77.4043
 10
-796.8749
 20
77.2916
 10
-796.8372
 20
77.1671
 10
-796.8241
 20
77.0334
 10
-796.8372
 20
76.8999
 10
-796.8749
 20
76.7754
 10
-796.9345
 20
76.6627
 10
-797.0134
 20
76.5645
 10
-797.109
 20
76.4835
 10
-797.2188
 20
76.4222
 10
-797.3401
 20
76.3835
 10
-797.4703
 20
76.37
 10
-797.6005
 20
76.3835
 10
-797.7219
 20
76.4222
 10
-797.8316
 20
76.4835
 10
-797.9273
 20
76.5645
 10
-798.0062
 20
76.6627
 10
-798.0658
 20
76.7754
 10
-798.1035
 20
76.8999
 10
-798.1166
 20
77.0334
 10
-798.1035
 20
77.1671
 10
-798.0658
 20
77.2916
 10
-798.0062
 20
77.4043
 10
-797.9273
 20
77.5025
 10
-797.8316
 20
77.5834
 10
-797.7219
 20
77.6446
 10
-797.6005
 20
77.6832
 10
-797.4703
 20
77.6967
  0
LWPOLYLINE
  5
BD
330
1F
100
AcDbEntity
  8
Layer 1
 62
     7
370
    20
100
AcDbPolyline
 90
       33
 70
     1
 43
0.0
 10
-796.938
 20
73.9447
 10
-796.8077
 20
73.9312
 10
-796.6864
 20
73.8926
 10
-796.5765
 20
73.8315
 10
-796.4807
 20
73.7505
 10
-796.4017
 20
73.6524
 10
-796.342
 20
73.5399
 10
-796.3043
 20
73.4155
 10
-796.2911
 20
73.282
 10
-796.3043
 20
73.1483
 10
-796.342
 20
73.0238
 10
-796.4017
 20
72.9111
 10
-796.4807
 20
72.813
 10
-796.5765
 20
72.732
 10
-796.6864
 20
72.6708
 10
-796.8077
 20
72.6322
 10
-796.938
 20
72.6187
 10
-797.0683
 20
72.6322
 10
-797.1896
 20
72.6708
 10
-797.2994
 20
72.732
 10
-797.395
 20
72.813
 10
-797.4739
 20
72.9111
 10
-797.5335
 20
73.0238
 10
-797.5712
 20
73.1483
 10
-797.5843
 20
73.282
 10
-797.5712
 20
73.4155
 10
-797.5335
 20
73.5399
 10
-797.4739
 20
73.6524
 10
-797.395
 20
73.7505
 10
-797.2994
 20
73.8315
 10
-797.1896
 20
73.8926
 10
-797.0683
 20
73.9312
 10
-796.938
 20
73.9447
  0
LWPOLYLINE
  5
BE
330
1F
100
AcDbEntity
  8
Layer 1
 62
     7
370
    20
100
AcDbPolyline
 90
       33
 70
     1
 43
0.0
 10
-791.1196
 20
75.2713
 10
-790.9894
 20
75.2578
 10
-790.8681
 20
75.2192
 10
-790.7583
 20
75.1581
 10
-790.6627
 20
75.0771
 10
-790.5838
 20
74.9789
 10
-790.5242
 20
74.8663
 10
-790.4865
 20
74.7417
 10
-790.4734
 20
74.608
 10
-790.4865
 20
74.4743
 10
-790.5242
 20
74.3497
 10
-790.5838
 20
74.2371
 10
-790.6627
 20
74.1389
 10
-790.7583
 20
74.0579
 10
-790.8681
 20
73.9968
 10
-790.9894
 20
73.9582
 10
-791.1196
 20
73.9447
 10
-791.2499
 20
73.9582
 10
-791.3713
 20
73.9968
 10
-791.4812
 20
74.0579
 10
-791.5769
 20
74.1389
 10
-791.656
 20
74.2371
 10
-791.7157
 20
74.3497
 10
-791.7534
 20
74.4743
 10
-791.7666
 20
74.608
 10
-791.7534
 20
74.7417
 10
-791.7157
 20
74.8663
 10
-791.656
 20
74.9789
 10
-791.5769
 20
75.0771
 10
-791.4812
 20
75.1581
 10
-791.3713
 20
75.2192
 10
-791.2499
 20
75.2578
 10
-791.1196
 20
75.2713
  0
LWPOLYLINE
  5
BF
330
1F
100
AcDbEntity
  8
Layer 1
 62
     7
370
    20
100
AcDbPolyline
 90
       33
 70
     1
 43
0.0
 10
-785.4159
 20
76.787
 10
-785.2857
 20
76.7735
 10
-785.1643
 20
76.7349
 10
-785.0546
 20
76.6737
 10
-784.9589
 20
76.5928
 10
-784.88
 20
76.4946
 10
-784.8204
 20
76.3819
 10
-784.7827
 20
76.2574
 10
-784.7696
 20
76.1237
 10
-784.7827
 20
75.9902
 10
-784.8204
 20
75.8658
 10
-784.88
 20
75.7533
 10
-784.9589
 20
75.6552
 10
-785.0546
 20
75.5742
 10
-785.1643
 20
75.5131
 10
-785.2857
 20
75.4745
 10
-785.4159
 20
75.461
 10
-785.5462
 20
75.4745
 10
-785.6675
 20
75.5131
 10
-785.7774
 20
75.5742
 10
-785.8732
 20
75.6552
 10
-785.9522
 20
75.7533
 10
-786.0119
 20
75.8658
 10
-786.0496
 20
75.9902
 10
-786.0628
 20
76.1237
 10
-786.0496
 20
76.2574
 10
-786.0119
 20
76.3819
 10
-785.9522
 20
76.4946
 10
-785.8732
 20
76.5928
 10
-785.7774
 20
76.6737
 10
-785.6675
 20
76.7349
 10
-785.5462
 20
76.7735
 10
-785.4159
 20
76.787
  0
LWPOLYLINE
  5
C0
330
1F
100
AcDbEntity
  8
Layer 1
 62
     7
370
    20
100
AcDbPolyline
 90
       33
 70
     1
 43
0.0
 10
-779.5981
 20
78.6064
 10
-779.4679
 20
78.5929
 10
-779.3466
 20
78.5543
 10
-779.2368
 20
78.4931
 10
-779.1412
 20
78.4121
 10
-779.0623
 20
78.314
 10
-779.0027
 20
78.2013
 10
-778.965
 20
78.0767
 10
-778.9519
 20
77.943
 10
-778.965
 20
77.8093
 10
-779.0027
 20
77.6848
 10
-779.0623
 20
77.5721
 10
-779.1412
 20
77.474
 10
-779.2368
 20
77.393
 10
-779.3466
 20
77.3318
 10
-779.4679
 20
77.2932
 10
-779.5981
 20
77.2797
 10
-779.7283
 20
77.2932
 10
-779.8497
 20
77.3318
 10
-779.9594
 20
77.393
 10
-780.0551
 20
77.474
 10
-780.134
 20
77.5721
 10
-780.1936
 20
77.6848
 10
-780.2313
 20
77.8093
 10
-780.2444
 20
77.943
 10
-780.2313
 20
78.0767
 10
-780.1936
 20
78.2013
 10
-780.134
 20
78.314
 10
-780.0551
 20
78.4121
 10
-779.9594
 20
78.4931
 10
-779.8497
 20
78.5543
 10
-779.7283
 20
78.5929
 10
-779.5981
 20
78.6064
  0
LWPOLYLINE
  5
C1
330
1F
100
AcDbEntity
  8
Layer 1
 62
     7
370
    20
100
AcDbPolyline
 90
       33
 70
     1
 43
0.0
 10
-772.0313
 20
79.4403
 10
-771.9011
 20
79.4268
 10
-771.7798
 20
79.3881
 10
-771.67
 20
79.3269
 10
-771.5744
 20
79.2458
 10
-771.4955
 20
79.1476
 10
-771.4359
 20
79.0349
 10
-771.3982
 20
78.9105
 10
-771.3851
 20
78.777
 10
-771.3982
 20
78.6433
 10
-771.4359
 20
78.5187
 10
-771.4955
 20
78.406
 10
-771.5744
 20
78.3079
 10
-771.67
 20
78.2269
 10
-771.7798
 20
78.1657
 10
-771.9011
 20
78.1271
 10
-772.0313
 20
78.1136
 10
-772.1615
 20
78.1271
 10
-772.2829
 20
78.1657
 10
-772.3926
 20
78.2269
 10
-772.4883
 20
78.3079
 10
-772.5672
 20
78.406
 10
-772.6268
 20
78.5187
 10
-772.6645
 20
78.6433
 10
-772.6776
 20
78.777
 10
-772.6645
 20
78.9105
 10
-772.6268
 20
79.0349
 10
-772.5672
 20
79.1476
 10
-772.4883
 20
79.2458
 10
-772.3926
 20
79.3269
 10
-772.2829
 20
79.3881
 10
-772.1615
 20
79.4268
 10
-772.0313
 20
79.4403
  0
LWPOLYLINE
  5
C2
330
1F
100
AcDbEntity
  8
Layer 1
 62
     7
370
    20
100
AcDbPolyline
 90
       33
 70
     1
 43
0.0
 10
-772.5636
 20
76.7112
 10
-772.4334
 20
76.6977
 10
-772.3121
 20
76.6591
 10
-772.2023
 20
76.598
 10
-772.1067
 20
76.517
 10
-772.0278
 20
76.4188
 10
-771.9682
 20
76.3062
 10
-771.9305
 20
76.1816
 10
-771.9174
 20
76.0479
 10
-771.9305
 20
75.9144
 10
-771.9682
 20
75.7899
 10
-772.0278
 20
75.6773
 10
-772.1067
 20
75.5791
 10
-772.2023
 20
75.498
 10
-772.3121
 20
75.4368
 10
-772.4334
 20
75.3981
 10
-772.5636
 20
75.3846
 10
-772.6938
 20
75.3981
 10
-772.8152
 20
75.4368
 10
-772.9249
 20
75.498
 10
-773.0206
 20
75.5791
 10
-773.0995
 20
75.6773
 10
-773.1591
 20
75.7899
 10
-773.1968
 20
75.9144
 10
-773.2099
 20
76.0479
 10
-773.1968
 20
76.1816
 10
-773.1591
 20
76.3062
 10
-773.0995
 20
76.4188
 10
-773.0206
 20
76.517
 10
-772.9249
 20
76.598
 10
-772.8152
 20
76.6591
 10
-772.6938
 20
76.6977
 10
-772.5636
 20
76.7112
  0
LWPOLYLINE
  5
C3
330
1F
100
AcDbEntity
  8
Layer 1
 62
     7
370
    20
100
AcDbPolyline
 90
       33
 70
     1
 43
0.0
 10
-776.7087
 20
76.901
 10
-776.5785
 20
76.8875
 10
-776.4572
 20
76.8489
 10
-776.3474
 20
76.7877
 10
-776.2518
 20
76.7067
 10
-776.1729
 20
76.6086
 10
-776.1133
 20
76.4959
 10
-776.0756
 20
76.3713
 10
-776.0625
 20
76.2376
 10
-776.0756
 20
76.1039
 10
-776.1133
 20
75.9794
 10
-776.1729
 20
75.8667
 10
-776.2518
 20
75.7686
 10
-776.3474
 20
75.6876
 10
-776.4572
 20
75.6264
 10
-776.5785
 20
75.5878
 10
-776.7087
 20
75.5743
 10
-776.8389
 20
75.5878
 10
-776.9603
 20
75.6264
 10
-777.07
 20
75.6876
 10
-777.1657
 20
75.7686
 10
-777.2446
 20
75.8667
 10
-777.3042
 20
75.9794
 10
-777.3419
 20
76.1039
 10
-777.355
 20
76.2376
 10
-777.3419
 20
76.3713
 10
-777.3042
 20
76.4959
 10
-777.2446
 20
76.6086
 10
-777.1657
 20
76.7067
 10
-777.07
 20
76.7877
 10
-776.9603
 20
76.8489
 10
-776.8389
 20
76.8875
 10
-776.7087
 20
76.901
  0
LWPOLYLINE
  5
C4
330
1F
100
AcDbEntity
  8
Layer 1
 62
     7
370
    20
100
AcDbPolyline
 90
       33
 70
     1
 43
0.0
 10
-782.0317
 20
75.0816
 10
-781.9017
 20
75.0681
 10
-781.7804
 20
75.0295
 10
-781.6707
 20
74.9684
 10
-781.575
 20
74.8874
 10
-781.496
 20
74.7894
 10
-781.4363
 20
74.6768
 10
-781.3986
 20
74.5525
 10
-781.3854
 20
74.419
 10
-781.3986
 20
74.2853
 10
-781.4363
 20
74.1607
 10
-781.496
 20
74.048
 10
-781.575
 20
73.9499
 10
-781.6707
 20
73.8689
 10
-781.7804
 20
73.8077
 10
-781.9017
 20
73.7691
 10
-782.0317
 20
73.7556
 10
-782.162
 20
73.7691
 10
-782.2833
 20
73.8077
 10
-782.3932
 20
73.8689
 10
-782.489
 20
73.9499
 10
-782.568
 20
74.048
 10
-782.6277
 20
74.1607
 10
-782.6654
 20
74.2853
 10
-782.6786
 20
74.419
 10
-782.6654
 20
74.5525
 10
-782.6277
 20
74.6768
 10
-782.568
 20
74.7894
 10
-782.489
 20
74.8874
 10
-782.3932
 20
74.9684
 10
-782.2833
 20
75.0295
 10
-782.162
 20
75.0681
 10
-782.0317
 20
75.0816
  0
LWPOLYLINE
  5
C5
330
1F
100
AcDbEntity
  8
Layer 1
 62
     7
370
    20
100
AcDbPolyline
 90
       33
 70
     1
 43
0.0
 10
-787.051
 20
73.3387
 10
-786.9208
 20
73.3252
 10
-786.7994
 20
73.2866
 10
-786.6897
 20
73.2254
 10
-786.594
 20
73.1444
 10
-786.5151
 20
73.0463
 10
-786.4555
 20
72.9336
 10
-786.4178
 20
72.809
 10
-786.4047
 20
72.6753
 10
-786.4178
 20
72.5416
 10
-786.4555
 20
72.4171
 10
-786.5151
 20
72.3044
 10
-786.594
 20
72.2063
 10
-786.6897
 20
72.1253
 10
-786.7994
 20
72.0641
 10
-786.9208
 20
72.0255
 10
-787.051
 20
72.012
 10
-787.1813
 20
72.0255
 10
-787.3026
 20
72.0641
 10
-787.4125
 20
72.1253
 10
-787.5083
 20
72.2063
 10
-787.5873
 20
72.3044
 10
-787.647
 20
72.4171
 10
-787.6847
 20
72.5416
 10
-787.6979
 20
72.6753
 10
-787.6847
 20
72.809
 10
-787.647
 20
72.9336
 10
-787.5873
 20
73.0463
 10
-787.5083
 20
73.1444
 10
-787.4125
 20
73.2254
 10
-787.3026
 20
73.2866
 10
-787.1813
 20
73.3252
 10
-787.051
 20
73.3387
  0
LWPOLYLINE
  5
C6
330
1F
100
AcDbEntity
  8
Layer 1
 62
     7
370
    20
100
AcDbPolyline
 90
       33
 70
     1
 43
0.0
 10
-792.1849
 20
71.2545
 10
-792.0547
 20
71.241
 10
-791.9333
 20
71.2023
 10
-791.8236
 20
71.1411
 10
-791.7279
 20
71.06
 10
-791.649
 20
70.9618
 10
-791.5894
 20
70.8492
 10
-791.5517
 20
70.7247
 10
-791.5386
 20
70.5912
 10
-791.5517
 20
70.4575
 10
-791.5894
 20
70.3329
 10
-791.649
 20
70.2203
 10
-791.7279
 20
70.1221
 10
-791.8236
 20
70.0411
 10
-791.9333
 20
69.98
 10
-792.0547
 20
69.9414
 10
-792.1849
 20
69.9279
 10
-792.3151
 20
69.9414
 10
-792.4365
 20
69.98
 10
-792.5462
 20
70.0411
 10
-792.6419
 20
70.1221
 10
-792.7208
 20
70.2203
 10
-792.7804
 20
70.3329
 10
-792.8181
 20
70.4575
 10
-792.8312
 20
70.5912
 10
-792.8181
 20
70.7247
 10
-792.7804
 20
70.8492
 10
-792.7208
 20
70.9618
 10
-792.6419
 20
71.06
 10
-792.5462
 20
71.1411
 10
-792.4365
 20
71.2023
 10
-792.3151
 20
71.241
 10
-792.1849
 20
71.2545
  0
LWPOLYLINE
  5
C7
330
1F
100
AcDbEntity
  8
Layer 1
 62
     7
370
    20
100
AcDbPolyline
 90
       33
 70
     1
 43
0.0
 10
-784.7321
 20
70.9133
 10
-784.6018
 20
70.8998
 10
-784.4804
 20
70.8611
 10
-784.3705
 20
70.7999
 10
-784.2748
 20
70.7188
 10
-784.1957
 20
70.6206
 10
-784.136
 20
70.508
 10
-784.0983
 20
70.3835
 10
-784.0851
 20
70.25
 10
-784.0983
 20
70.1163
 10
-784.136
 20
69.9917
 10
-784.1957
 20
69.8791
 10
-784.2748
 20
69.7809
 10
-784.3705
 20
69.6999
 10
-784.4804
 20
69.6388
 10
-784.6018
 20
69.6002
 10
-784.7321
 20
69.5867
 10
-784.8623
 20
69.6002
 10
-784.9836
 20
69.6388
 10
-785.0934
 20
69.6999
 10
-785.189
 20
69.7809
 10
-785.2679
 20
69.8791
 10
-785.3275
 20
69.9917
 10
-785.3652
 20
70.1163
 10
-785.3783
 20
70.25
 10
-785.3652
 20
70.3835
 10
-785.3275
 20
70.508
 10
-785.2679
 20
70.6206
 10
-785.189
 20
70.7188
 10
-785.0934
 20
70.7999
 10
-784.9836
 20
70.8611
 10
-784.8623
 20
70.8998
 10
-784.7321
 20
70.9133
  0
LWPOLYLINE
  5
C8
330
1F
100
AcDbEntity
  8
Layer 1
 62
     7
370
    20
100
AcDbPolyline
 90
       33
 70
     1
 43
0.0
 10
-780.7774
 20
72.9217
 10
-780.6472
 20
72.9082
 10
-780.5258
 20
72.8696
 10
-780.4161
 20
72.8084
 10
-780.3204
 20
72.7275
 10
-780.2415
 20
72.6293
 10
-780.1819
 20
72.5166
 10
-780.1442
 20
72.3921
 10
-780.1311
 20
72.2584
 10
-780.1442
 20
72.1249
 10
-780.1819
 20
72.0004
 10
-780.2415
 20
71.8878
 10
-780.3204
 20
71.7896
 10
-780.4161
 20
71.7085
 10
-780.5258
 20
71.6473
 10
-780.6472
 20
71.6086
 10
-780.7774
 20
71.5951
 10
-780.9076
 20
71.6086
 10
-781.0289
 20
71.6473
 10
-781.1387
 20
71.7085
 10
-781.2343
 20
71.7896
 10
-781.3132
 20
71.8878
 10
-781.3728
 20
72.0004
 10
-781.4105
 20
72.1249
 10
-781.4236
 20
72.2584
 10
-781.4105
 20
72.3921
 10
-781.3728
 20
72.5166
 10
-781.3132
 20
72.6293
 10
-781.2343
 20
72.7275
 10
-781.1387
 20
72.8084
 10
-781.0289
 20
72.8696
 10
-780.9076
 20
72.9082
 10
-780.7774
 20
72.9217
  0
LWPOLYLINE
  5
C9
330
1F
100
AcDbEntity
  8
Layer 1
 62
     7
370
    20
100
AcDbPolyline
 90
       33
 70
     1
 43
0.0
 10
-776.3661
 20
74.5889
 10
-776.2359
 20
74.5754
 10
-776.1146
 20
74.5368
 10
-776.0048
 20
74.4757
 10
-775.9092
 20
74.3947
 10
-775.8303
 20
74.2966
 10
-775.7707
 20
74.1841
 10
-775.733
 20
74.0597
 10
-775.7199
 20
73.9262
 10
-775.733
 20
73.7925
 10
-775.7707
 20
73.668
 10
-775.8303
 20
73.5553
 10
-775.9092
 20
73.4572
 10
-776.0048
 20
73.3762
 10
-776.1146
 20
73.315
 10
-776.2359
 20
73.2764
 10
-776.3661
 20
73.2629
 10
-776.4964
 20
73.2764
 10
-776.6177
 20
73.315
 10
-776.7275
 20
73.3762
 10
-776.8231
 20
73.4572
 10
-776.902
 20
73.5553
 10
-776.9616
 20
73.668
 10
-776.9993
 20
73.7925
 10
-777.0124
 20
73.9262
 10
-776.9993
 20
74.0597
 10
-776.9616
 20
74.1841
 10
-776.902
 20
74.2966
 10
-776.8231
 20
74.3947
 10
-776.7275
 20
74.4757
 10
-776.6177
 20
74.5368
 10
-776.4964
 20
74.5754
 10
-776.3661
 20
74.5889
  0
LWPOLYLINE
  5
CA
330
1F
100
AcDbEntity
  8
Layer 1
 62
     7
370
    20
100
AcDbPolyline
 90
       33
 70
     1
 43
0.0
 10
-769.5596
 20
75.3095
 10
-769.4294
 20
75.296
 10
-769.308
 20
75.2573
 10
-769.1983
 20
75.1961
 10
-769.1026
 20
75.115
 10
-769.0237
 20
75.0168
 10
-768.9641
 20
74.9042
 10
-768.9264
 20
74.7797
 10
-768.9133
 20
74.6462
 10
-768.9264
 20
74.5125
 10
-768.9641
 20
74.3879
 10
-769.0237
 20
74.2753
 10
-769.1026
 20
74.1771
 10
-769.1983
 20
74.0961
 10
-769.308
 20
74.035
 10
-769.4294
 20
73.9964
 10
-769.5596
 20
73.9829
 10
-769.6898
 20
73.9964
 10
-769.8111
 20
74.035
 10
-769.9209
 20
74.0961
 10
-770.0165
 20
74.1771
 10
-770.0954
 20
74.2753
 10
-770.155
 20
74.3879
 10
-770.1927
 20
74.5125
 10
-770.2058
 20
74.6462
 10
-770.1927
 20
74.7797
 10
-770.155
 20
74.9042
 10
-770.0954
 20
75.0168
 10
-770.0165
 20
75.115
 10
-769.9209
 20
75.1961
 10
-769.8111
 20
75.2573
 10
-769.6898
 20
75.296
 10
-769.5596
 20
75.3095
  0
LWPOLYLINE
  5
CB
330
1F
100
AcDbEntity
  8
Layer 1
 62
     7
370
    20
100
AcDbPolyline
 90
       33
 70
     1
 43
0.0
 10
-766.4415
 20
77.6585
 10
-766.3113
 20
77.645
 10
-766.19
 20
77.6064
 10
-766.0802
 20
77.5452
 10
-765.9846
 20
77.4642
 10
-765.9057
 20
77.3661
 10
-765.8461
 20
77.2534
 10
-765.8084
 20
77.1288
 10
-765.7953
 20
76.9951
 10
-765.8084
 20
76.8616
 10
-765.8461
 20
76.7373
 10
-765.9057
 20
76.6247
 10
-765.9846
 20
76.5267
 10
-766.0802
 20
76.4457
 10
-766.19
 20
76.3846
 10
-766.3113
 20
76.346
 10
-766.4415
 20
76.3325
 10
-766.5717
 20
76.346
 10
-766.6931
 20
76.3846
 10
-766.8028
 20
76.4457
 10
-766.8985
 20
76.5267
 10
-766.9774
 20
76.6247
 10
-767.037
 20
76.7373
 10
-767.0747
 20
76.8616
 10
-767.0878
 20
76.9951
 10
-767.0747
 20
77.1288
 10
-767.037
 20
77.2534
 10
-766.9774
 20
77.3661
 10
-766.8985
 20
77.4642
 10
-766.8028
 20
77.5452
 10
-766.6931
 20
77.6064
 10
-766.5717
 20
77.645
 10
-766.4415
 20
77.6585
  0
LWPOLYLINE
  5
CC
330
1F
100
AcDbEntity
  8
Layer 1
 62
     7
370
    20
100
AcDbPolyline
 90
       33
 70
     1
 43
0.0
 10
-764.008
 20
79.6675
 10
-763.8778
 20
79.654
 10
-763.7564
 20
79.6154
 10
-763.6467
 20
79.5543
 10
-763.551
 20
79.4733
 10
-763.4721
 20
79.3751
 10
-763.4125
 20
79.2625
 10
-763.3748
 20
79.1379
 10
-763.3617
 20
79.0042
 10
-763.3748
 20
78.8705
 10
-763.4125
 20
78.7459
 10
-763.4721
 20
78.6333
 10
-763.551
 20
78.5351
 10
-763.6467
 20
78.4541
 10
-763.7564
 20
78.393
 10
-763.8778
 20
78.3544
 10
-764.008
 20
78.3409
 10
-764.1382
 20
78.3544
 10
-764.2595
 20
78.393
 10
-764.3693
 20
78.4541
 10
-764.4649
 20
78.5351
 10
-764.5438
 20
78.6333
 10
-764.6034
 20
78.7459
 10
-764.6411
 20
78.8705
 10
-764.6542
 20
79.0042
 10
-764.6411
 20
79.1379
 10
-764.6034
 20
79.2625
 10
-764.5438
 20
79.3751
 10
-764.4649
 20
79.4733
 10
-764.3693
 20
79.5543
 10
-764.2595
 20
79.6154
 10
-764.1382
 20
79.654
 10
-764.008
 20
79.6675
  0
LWPOLYLINE
  5
CD
330
1F
100
AcDbEntity
  8
Layer 1
 62
     7
370
    20
100
AcDbPolyline
 90
       33
 70
     1
 43
0.0
 10
-760.1297
 20
79.0609
 10
-759.9994
 20
79.0474
 10
-759.8781
 20
79.0088
 10
-759.7682
 20
78.9476
 10
-759.6724
 20
78.8666
 10
-759.5934
 20
78.7685
 10
-759.5337
 20
78.6558
 10
-759.496
 20
78.5312
 10
-759.4828
 20
78.3975
 10
-759.496
 20
78.264
 10
-759.5337
 20
78.1396
 10
-759.5934
 20
78.0269
 10
-759.6724
 20
77.9287
 10
-759.7682
 20
77.8476
 10
-759.8781
 20
77.7864
 10
-759.9994
 20
77.7477
 10
-760.1297
 20
77.7342
 10
-760.2599
 20
77.7477
 10
-760.3813
 20
77.7864
 10
-760.491
 20
77.8476
 10
-760.5867
 20
77.9287
 10
-760.6656
 20
78.0269
 10
-760.7252
 20
78.1396
 10
-760.7629
 20
78.264
 10
-760.776
 20
78.3975
 10
-760.7629
 20
78.5312
 10
-760.7252
 20
78.6558
 10
-760.6656
 20
78.7685
 10
-760.5867
 20
78.8666
 10
-760.491
 20
78.9476
 10
-760.3813
 20
79.0088
 10
-760.2599
 20
79.0474
 10
-760.1297
 20
79.0609
  0
LWPOLYLINE
  5
CE
330
1F
100
AcDbEntity
  8
Layer 1
 62
     7
370
    20
100
AcDbPolyline
 90
       33
 70
     1
 43
0.0
 10
-760.9282
 20
77.2415
 10
-760.798
 20
77.228
 10
-760.6766
 20
77.1894
 10
-760.5669
 20
77.1283
 10
-760.4712
 20
77.0473
 10
-760.3923
 20
76.9493
 10
-760.3327
 20
76.8367
 10
-760.295
 20
76.7124
 10
-760.2819
 20
76.5789
 10
-760.295
 20
76.4452
 10
-760.3327
 20
76.3206
 10
-760.3923
 20
76.2079
 10
-760.4712
 20
76.1098
 10
-760.5669
 20
76.0288
 10
-760.6766
 20
75.9676
 10
-760.798
 20
75.929
 10
-760.9282
 20
75.9155
 10
-761.0584
 20
75.929
 10
-761.1797
 20
75.9676
 10
-761.2895
 20
76.0288
 10
-761.3851
 20
76.1098
 10
-761.464
 20
76.2079
 10
-761.5236
 20
76.3206
 10
-761.5613
 20
76.4452
 10
-761.5744
 20
76.5789
 10
-761.5613
 20
76.7124
 10
-761.5236
 20
76.8367
 10
-761.464
 20
76.9493
 10
-761.3851
 20
77.0473
 10
-761.2895
 20
77.1283
 10
-761.1797
 20
77.1894
 10
-761.0584
 20
77.228
 10
-760.9282
 20
77.2415
  0
LWPOLYLINE
  5
CF
330
1F
100
AcDbEntity
  8
Layer 1
 62
     7
370
    20
100
AcDbPolyline
 90
       33
 70
     1
 43
0.0
 10
-761.814
 20
75.7613
 10
-761.6838
 20
75.7478
 10
-761.5624
 20
75.7092
 10
-761.4527
 20
75.648
 10
-761.357
 20
75.5671
 10
-761.2781
 20
75.4689
 10
-761.2185
 20
75.3562
 10
-761.1808
 20
75.2317
 10
-761.1677
 20
75.098
 10
-761.1808
 20
74.9643
 10
-761.2185
 20
74.8397
 10
-761.2781
 20
74.7271
 10
-761.357
 20
74.6289
 10
-761.4527
 20
74.5479
 10
-761.5624
 20
74.4868
 10
-761.6838
 20
74.4482
 10
-761.814
 20
74.4347
 10
-761.9442
 20
74.4482
 10
-762.0655
 20
74.4868
 10
-762.1753
 20
74.5479
 10
-762.2709
 20
74.6289
 10
-762.3498
 20
74.7271
 10
-762.4094
 20
74.8397
 10
-762.4471
 20
74.9643
 10
-762.4602
 20
75.098
 10
-762.4471
 20
75.2317
 10
-762.4094
 20
75.3562
 10
-762.3498
 20
75.4689
 10
-762.2709
 20
75.5671
 10
-762.1753
 20
75.648
 10
-762.0655
 20
75.7092
 10
-761.9442
 20
75.7478
 10
-761.814
 20
75.7613
  0
LWPOLYLINE
  5
D0
330
1F
100
AcDbEntity
  8
Layer 1
 62
     7
370
    20
100
AcDbPolyline
 90
       33
 70
     1
 43
0.0
 10
-763.2095
 20
74.1344
 10
-763.0793
 20
74.1209
 10
-762.958
 20
74.0823
 10
-762.8482
 20
74.0211
 10
-762.7526
 20
73.9402
 10
-762.6737
 20
73.842
 10
-762.6141
 20
73.7293
 10
-762.5764
 20
73.6048
 10
-762.5633
 20
73.4711
 10
-762.5764
 20
73.3374
 10
-762.6141
 20
73.2128
 10
-762.6737
 20
73.1001
 10
-762.7526
 20
73.002
 10
-762.8482
 20
72.921
 10
-762.958
 20
72.8598
 10
-763.0793
 20
72.8212
 10
-763.2095
 20
72.8077
 10
-763.3398
 20
72.8212
 10
-763.4611
 20
72.8598
 10
-763.5709
 20
72.921
 10
-763.6665
 20
73.002
 10
-763.7454
 20
73.1001
 10
-763.805
 20
73.2128
 10
-763.8427
 20
73.3374
 10
-763.8558
 20
73.4711
 10
-763.8427
 20
73.6048
 10
-763.805
 20
73.7293
 10
-763.7454
 20
73.842
 10
-763.6665
 20
73.9402
 10
-763.5709
 20
74.0211
 10
-763.4611
 20
74.0823
 10
-763.3398
 20
74.1209
 10
-763.2095
 20
74.1344
  0
LWPOLYLINE
  5
D1
330
1F
100
AcDbEntity
  8
Layer 1
 62
     7
370
    20
100
AcDbPolyline
 90
       33
 70
     1
 43
0.0
 10
-771.6894
 20
73.8314
 10
-771.5592
 20
73.8179
 10
-771.4379
 20
73.7792
 10
-771.3281
 20
73.718
 10
-771.2325
 20
73.6369
 10
-771.1536
 20
73.5387
 10
-771.094
 20
73.426
 10
-771.0563
 20
73.3016
 10
-771.0432
 20
73.1681
 10
-771.0563
 20
73.0344
 10
-771.094
 20
72.9098
 10
-771.1536
 20
72.7971
 10
-771.2325
 20
72.699
 10
-771.3281
 20
72.618
 10
-771.4379
 20
72.5568
 10
-771.5592
 20
72.5182
 10
-771.6894
 20
72.5047
 10
-771.8196
 20
72.5182
 10
-771.941
 20
72.5568
 10
-772.0507
 20
72.618
 10
-772.1464
 20
72.699
 10
-772.2253
 20
72.7971
 10
-772.2849
 20
72.9098
 10
-772.3226
 20
73.0344
 10
-772.3357
 20
73.1681
 10
-772.3226
 20
73.3016
 10
-772.2849
 20
73.426
 10
-772.2253
 20
73.5387
 10
-772.1464
 20
73.6369
 10
-772.0507
 20
73.718
 10
-771.941
 20
73.7792
 10
-771.8196
 20
73.8179
 10
-771.6894
 20
73.8314
  0
LWPOLYLINE
  5
D2
330
1F
100
AcDbEntity
  8
Layer 1
 62
     7
370
    20
100
AcDbPolyline
 90
       33
 70
     1
 43
0.0
 10
-774.6928
 20
71.8987
 10
-774.5626
 20
71.8852
 10
-774.4413
 20
71.8465
 10
-774.3315
 20
71.7853
 10
-774.2359
 20
71.7042
 10
-774.157
 20
71.606
 10
-774.0974
 20
71.4934
 10
-774.0597
 20
71.3689
 10
-774.0466
 20
71.2354
 10
-774.0597
 20
71.1017
 10
-774.0974
 20
70.9772
 10
-774.157
 20
70.8645
 10
-774.2359
 20
70.7664
 10
-774.3315
 20
70.6854
 10
-774.4413
 20
70.6242
 10
-774.5626
 20
70.5856
 10
-774.6928
 20
70.5721
 10
-774.8231
 20
70.5856
 10
-774.9445
 20
70.6242
 10
-775.0544
 20
70.6854
 10
-775.1501
 20
70.7664
 10
-775.2292
 20
70.8645
 10
-775.2889
 20
70.9772
 10
-775.3266
 20
71.1017
 10
-775.3398
 20
71.2354
 10
-775.3266
 20
71.3689
 10
-775.2889
 20
71.4934
 10
-775.2292
 20
71.606
 10
-775.1501
 20
71.7042
 10
-775.0544
 20
71.7853
 10
-774.9445
 20
71.8465
 10
-774.8231
 20
71.8852
 10
-774.6928
 20
71.8987
  0
LWPOLYLINE
  5
D3
330
1F
100
AcDbEntity
  8
Layer 1
 62
     7
370
    20
100
AcDbPolyline
 90
       33
 70
     1
 43
0.0
 10
-751.2697
 20
104.68
 10
-751.1394
 20
104.6665
 10
-751.0181
 20
104.6278
 10
-750.9082
 20
104.5666
 10
-750.8124
 20
104.4855
 10
-750.7334
 20
104.3873
 10
-750.6737
 20
104.2747
 10
-750.636
 20
104.1502
 10
-750.6228
 20
104.0167
 10
-750.636
 20
103.883
 10
-750.6737
 20
103.7584
 10
-750.7334
 20
103.6458
 10
-750.8124
 20
103.5476
 10
-750.9082
 20
103.4666
 10
-751.0181
 20
103.4055
 10
-751.1394
 20
103.3669
 10
-751.2697
 20
103.3534
 10
-751.3999
 20
103.3669
 10
-751.5213
 20
103.4055
 10
-751.631
 20
103.4666
 10
-751.7267
 20
103.5476
 10
-751.8056
 20
103.6458
 10
-751.8652
 20
103.7584
 10
-751.9029
 20
103.883
 10
-751.916
 20
104.0167
 10
-751.9029
 20
104.1502
 10
-751.8652
 20
104.2747
 10
-751.8056
 20
104.3873
 10
-751.7267
 20
104.4855
 10
-751.631
 20
104.5666
 10
-751.5213
 20
104.6278
 10
-751.3999
 20
104.6665
 10
-751.2697
 20
104.68
  0
LWPOLYLINE
  5
D4
330
1F
100
AcDbEntity
  8
Layer 1
 62
     7
370
    20
100
AcDbPolyline
 90
       33
 70
     1
 43
0.0
 10
-751.916
 20
101.6104
 10
-751.7858
 20
101.5969
 10
-751.6644
 20
101.5583
 10
-751.5547
 20
101.4972
 10
-751.459
 20
101.4162
 10
-751.3801
 20
101.318
 10
-751.3205
 20
101.2054
 10
-751.2828
 20
101.0808
 10
-751.2697
 20
100.9471
 10
-751.2828
 20
100.8134
 10
-751.3205
 20
100.6889
 10
-751.3801
 20
100.5762
 10
-751.459
 20
100.4781
 10
-751.5547
 20
100.3971
 10
-751.6644
 20
100.3359
 10
-751.7858
 20
100.2973
 10
-751.916
 20
100.2838
 10
-752.0462
 20
100.2973
 10
-752.1675
 20
100.3359
 10
-752.2773
 20
100.3971
 10
-752.3729
 20
100.4781
 10
-752.4518
 20
100.5762
 10
-752.5114
 20
100.6889
 10
-752.5491
 20
100.8134
 10
-752.5622
 20
100.9471
 10
-752.5491
 20
101.0808
 10
-752.5114
 20
101.2054
 10
-752.4518
 20
101.318
 10
-752.3729
 20
101.4162
 10
-752.2773
 20
101.4972
 10
-752.1675
 20
101.5583
 10
-752.0462
 20
101.5969
 10
-751.916
 20
101.6104
  0
LWPOLYLINE
  5
D5
330
1F
100
AcDbEntity
  8
Layer 1
 62
     7
370
    20
100
AcDbPolyline
 90
       33
 70
     1
 43
0.0
 10
-752.2961
 20
98.2754
 10
-752.1659
 20
98.2619
 10
-752.0445
 20
98.2233
 10
-751.9348
 20
98.1621
 10
-751.8391
 20
98.0812
 10
-751.7602
 20
97.983
 10
-751.7006
 20
97.8703
 10
-751.6629
 20
97.7458
 10
-751.6498
 20
97.6121
 10
-751.6629
 20
97.4784
 10
-751.7006
 20
97.3538
 10
-751.7602
 20
97.2412
 10
-751.8391
 20
97.143
 10
-751.9348
 20
97.062
 10
-752.0445
 20
97.0009
 10
-752.1659
 20
96.9623
 10
-752.2961
 20
96.9488
 10
-752.4263
 20
96.9623
 10
-752.5477
 20
97.0009
 10
-752.6574
 20
97.062
 10
-752.7531
 20
97.143
 10
-752.832
 20
97.2412
 10
-752.8916
 20
97.3538
 10
-752.9293
 20
97.4784
 10
-752.9424
 20
97.6121
 10
-752.9293
 20
97.7458
 10
-752.8916
 20
97.8703
 10
-752.832
 20
97.983
 10
-752.7531
 20
98.0812
 10
-752.6574
 20
98.1621
 10
-752.5477
 20
98.2233
 10
-752.4263
 20
98.2619
 10
-752.2961
 20
98.2754
  0
LWPOLYLINE
  5
D6
330
1F
100
AcDbEntity
  8
Layer 1
 62
     7
370
    20
100
AcDbPolyline
 90
       33
 70
     1
 43
0.0
 10
-753.1328
 20
95.5846
 10
-753.0025
 20
95.5711
 10
-752.8812
 20
95.5325
 10
-752.7714
 20
95.4713
 10
-752.6758
 20
95.3903
 10
-752.5969
 20
95.2922
 10
-752.5373
 20
95.1795
 10
-752.4996
 20
95.0549
 10
-752.4865
 20
94.9212
 10
-752.4996
 20
94.7877
 10
-752.5373
 20
94.6633
 10
-752.5969
 20
94.5506
 10
-752.6758
 20
94.4524
 10
-752.7714
 20
94.3713
 10
-752.8812
 20
94.3101
 10
-753.0025
 20
94.2714
 10
-753.1328
 20
94.2579
 10
-753.263
 20
94.2714
 10
-753.3843
 20
94.3101
 10
-753.4941
 20
94.3713
 10
-753.5897
 20
94.4524
 10
-753.6686
 20
94.5506
 10
-753.7282
 20
94.6633
 10
-753.7659
 20
94.7877
 10
-753.779
 20
94.9212
 10
-753.7659
 20
95.0549
 10
-753.7282
 20
95.1795
 10
-753.6686
 20
95.2922
 10
-753.5897
 20
95.3903
 10
-753.4941
 20
95.4713
 10
-753.3843
 20
95.5325
 10
-753.263
 20
95.5711
 10
-753.1328
 20
95.5846
  0
LWPOLYLINE
  5
D7
330
1F
100
AcDbEntity
  8
Layer 1
 62
     7
370
    20
100
AcDbPolyline
 90
       33
 70
     1
 43
0.0
 10
-748.4554
 20
94.3344
 10
-748.3252
 20
94.3209
 10
-748.2038
 20
94.2822
 10
-748.0941
 20
94.2209
 10
-747.9984
 20
94.1399
 10
-747.9195
 20
94.0417
 10
-747.8599
 20
93.929
 10
-747.8222
 20
93.8045
 10
-747.8091
 20
93.671
 10
-747.8222
 20
93.5373
 10
-747.8599
 20
93.4128
 10
-747.9195
 20
93.3001
 10
-747.9984
 20
93.202
 10
-748.0941
 20
93.121
 10
-748.2038
 20
93.0598
 10
-748.3252
 20
93.0212
 10
-748.4554
 20
93.0077
 10
-748.5857
 20
93.0212
 10
-748.707
 20
93.0598
 10
-748.8169
 20
93.121
 10
-748.9127
 20
93.202
 10
-748.9917
 20
93.3001
 10
-749.0514
 20
93.4128
 10
-749.0891
 20
93.5373
 10
-749.1023
 20
93.671
 10
-749.0891
 20
93.8045
 10
-749.0514
 20
93.929
 10
-748.9917
 20
94.0417
 10
-748.9127
 20
94.1399
 10
-748.8169
 20
94.2209
 10
-748.707
 20
94.2822
 10
-748.5857
 20
94.3209
 10
-748.4554
 20
94.3344
  0
LWPOLYLINE
  5
D8
330
1F
100
AcDbEntity
  8
Layer 1
 62
     7
370
    20
100
AcDbPolyline
 90
       33
 70
     1
 43
0.0
 10
-750.775
 20
91.9465
 10
-750.6447
 20
91.933
 10
-750.5234
 20
91.8944
 10
-750.4136
 20
91.8333
 10
-750.318
 20
91.7523
 10
-750.2391
 20
91.6541
 10
-750.1795
 20
91.5415
 10
-750.1418
 20
91.4169
 10
-750.1287
 20
91.2832
 10
-750.1418
 20
91.1495
 10
-750.1795
 20
91.0249
 10
-750.2391
 20
90.9123
 10
-750.318
 20
90.8141
 10
-750.4136
 20
90.7331
 10
-750.5234
 20
90.672
 10
-750.6447
 20
90.6334
 10
-750.775
 20
90.6199
 10
-750.9052
 20
90.6334
 10
-751.0265
 20
90.672
 10
-751.1363
 20
90.7331
 10
-751.2319
 20
90.8141
 10
-751.3108
 20
90.9123
 10
-751.3704
 20
91.0249
 10
-751.4081
 20
91.1495
 10
-751.4212
 20
91.2832
 10
-751.4081
 20
91.4169
 10
-751.3704
 20
91.5415
 10
-751.3108
 20
91.6541
 10
-751.2319
 20
91.7523
 10
-751.1363
 20
91.8333
 10
-751.0265
 20
91.8944
 10
-750.9052
 20
91.933
 10
-750.775
 20
91.9465
  0
LWPOLYLINE
  5
D9
330
1F
100
AcDbEntity
  8
Layer 1
 62
     7
370
    20
100
AcDbPolyline
 90
       33
 70
     1
 43
0.0
 10
-751.4594
 20
89.18
 10
-751.3292
 20
89.1665
 10
-751.2079
 20
89.1279
 10
-751.0981
 20
89.0667
 10
-751.0025
 20
88.9857
 10
-750.9236
 20
88.8876
 10
-750.864
 20
88.7749
 10
-750.8263
 20
88.6503
 10
-750.8132
 20
88.5166
 10
-750.8263
 20
88.3831
 10
-750.864
 20
88.2586
 10
-750.9236
 20
88.146
 10
-751.0025
 20
88.0478
 10
-751.0981
 20
87.9667
 10
-751.2079
 20
87.9055
 10
-751.3292
 20
87.8668
 10
-751.4594
 20
87.8533
 10
-751.5896
 20
87.8668
 10
-751.711
 20
87.9055
 10
-751.8207
 20
87.9667
 10
-751.9164
 20
88.0478
 10
-751.9953
 20
88.146
 10
-752.0549
 20
88.2586
 10
-752.0926
 20
88.3831
 10
-752.1057
 20
88.5166
 10
-752.0926
 20
88.6503
 10
-752.0549
 20
88.7749
 10
-751.9953
 20
88.8876
 10
-751.9164
 20
88.9857
 10
-751.8207
 20
89.0667
 10
-751.711
 20
89.1279
 10
-751.5896
 20
89.1665
 10
-751.4594
 20
89.18
  0
LWPOLYLINE
  5
DA
330
1F
100
AcDbEntity
  8
Layer 1
 62
     7
370
    20
100
AcDbPolyline
 90
       33
 70
     1
 43
0.0
 10
-752.524
 20
85.9207
 10
-752.3938
 20
85.9072
 10
-752.2725
 20
85.8686
 10
-752.1627
 20
85.8074
 10
-752.0671
 20
85.7264
 10
-751.9882
 20
85.6283
 10
-751.9286
 20
85.5156
 10
-751.8909
 20
85.391
 10
-751.8778
 20
85.2573
 10
-751.8909
 20
85.1238
 10
-751.9286
 20
84.9994
 10
-751.9882
 20
84.8867
 10
-752.0671
 20
84.7885
 10
-752.1627
 20
84.7074
 10
-752.2725
 20
84.6462
 10
-752.3938
 20
84.6075
 10
-752.524
 20
84.594
 10
-752.6543
 20
84.6075
 10
-752.7757
 20
84.6462
 10
-752.8856
 20
84.7074
 10
-752.9813
 20
84.7885
 10
-753.0604
 20
84.8867
 10
-753.1201
 20
84.9994
 10
-753.1578
 20
85.1238
 10
-753.171
 20
85.2573
 10
-753.1578
 20
85.391
 10
-753.1201
 20
85.5156
 10
-753.0604
 20
85.6283
 10
-752.9813
 20
85.7264
 10
-752.8856
 20
85.8074
 10
-752.7757
 20
85.8686
 10
-752.6543
 20
85.9072
 10
-752.524
 20
85.9207
  0
LWPOLYLINE
  5
DB
330
1F
100
AcDbEntity
  8
Layer 1
 62
     7
370
    20
100
AcDbPolyline
 90
       33
 70
     1
 43
0.0
 10
-746.288
 20
91.9465
 10
-746.1578
 20
91.933
 10
-746.0364
 20
91.8944
 10
-745.9267
 20
91.8333
 10
-745.831
 20
91.7523
 10
-745.7521
 20
91.6541
 10
-745.6925
 20
91.5415
 10
-745.6548
 20
91.4169
 10
-745.6417
 20
91.2832
 10
-745.6548
 20
91.1495
 10
-745.6925
 20
91.0249
 10
-745.7521
 20
90.9123
 10
-745.831
 20
90.8141
 10
-745.9267
 20
90.7331
 10
-746.0364
 20
90.672
 10
-746.1578
 20
90.6334
 10
-746.288
 20
90.6199
 10
-746.4182
 20
90.6334
 10
-746.5395
 20
90.672
 10
-746.6493
 20
90.7331
 10
-746.7449
 20
90.8141
 10
-746.8238
 20
90.9123
 10
-746.8834
 20
91.0249
 10
-746.9211
 20
91.1495
 10
-746.9342
 20
91.2832
 10
-746.9211
 20
91.4169
 10
-746.8834
 20
91.5415
 10
-746.8238
 20
91.6541
 10
-746.7449
 20
91.7523
 10
-746.6493
 20
91.8333
 10
-746.5395
 20
91.8944
 10
-746.4182
 20
91.933
 10
-746.288
 20
91.9465
  0
LWPOLYLINE
  5
DC
330
1F
100
AcDbEntity
  8
Layer 1
 62
     7
370
    20
100
AcDbPolyline
 90
       33
 70
     1
 43
0.0
 10
-745.0337
 20
90.0139
 10
-744.9034
 20
90.0004
 10
-744.782
 20
89.9618
 10
-744.6721
 20
89.9006
 10
-744.5763
 20
89.8197
 10
-744.4973
 20
89.7215
 10
-744.4376
 20
89.6088
 10
-744.3999
 20
89.4843
 10
-744.3867
 20
89.3506
 10
-744.3999
 20
89.2169
 10
-744.4376
 20
89.0923
 10
-744.4973
 20
88.9796
 10
-744.5763
 20
88.8815
 10
-744.6721
 20
88.8005
 10
-744.782
 20
88.7393
 10
-744.9034
 20
88.7007
 10
-745.0337
 20
88.6872
 10
-745.1637
 20
88.7007
 10
-745.2849
 20
88.7393
 10
-745.3947
 20
88.8005
 10
-745.4904
 20
88.8815
 10
-745.5694
 20
88.9796
 10
-745.629
 20
89.0923
 10
-745.6667
 20
89.2169
 10
-745.6799
 20
89.3506
 10
-745.6667
 20
89.4843
 10
-745.629
 20
89.6088
 10
-745.5694
 20
89.7215
 10
-745.4904
 20
89.8197
 10
-745.3947
 20
89.9006
 10
-745.2849
 20
89.9618
 10
-745.1637
 20
90.0004
 10
-745.0337
 20
90.0139
  0
LWPOLYLINE
  5
DD
330
1F
100
AcDbEntity
  8
Layer 1
 62
     7
370
    20
100
AcDbPolyline
 90
       33
 70
     1
 43
0.0
 10
-743.9684
 20
86.9061
 10
-743.8382
 20
86.8926
 10
-743.7168
 20
86.854
 10
-743.6071
 20
86.7928
 10
-743.5114
 20
86.7119
 10
-743.4325
 20
86.6137
 10
-743.3729
 20
86.501
 10
-743.3352
 20
86.3765
 10
-743.3221
 20
86.2428
 10
-743.3352
 20
86.1093
 10
-743.3729
 20
85.9848
 10
-743.4325
 20
85.8721
 10
-743.5114
 20
85.7739
 10
-743.6071
 20
85.6929
 10
-743.7168
 20
85.6316
 10
-743.8382
 20
85.5929
 10
-743.9684
 20
85.5794
 10
-744.0986
 20
85.5929
 10
-744.2199
 20
85.6316
 10
-744.3297
 20
85.6929
 10
-744.4253
 20
85.7739
 10
-744.5042
 20
85.8721
 10
-744.5638
 20
85.9848
 10
-744.6015
 20
86.1093
 10
-744.6146
 20
86.2428
 10
-744.6015
 20
86.3765
 10
-744.5638
 20
86.501
 10
-744.5042
 20
86.6137
 10
-744.4253
 20
86.7119
 10
-744.3297
 20
86.7928
 10
-744.2199
 20
86.854
 10
-744.0986
 20
86.8926
 10
-743.9684
 20
86.9061
  0
LWPOLYLINE
  5
DE
330
1F
100
AcDbEntity
  8
Layer 1
 62
     7
370
    20
100
AcDbPolyline
 90
       33
 70
     1
 43
0.0
 10
-745.9577
 20
84.1627
 10
-745.8275
 20
84.1492
 10
-745.7061
 20
84.1106
 10
-745.5964
 20
84.0495
 10
-745.5007
 20
83.9686
 10
-745.4218
 20
83.8705
 10
-745.3622
 20
83.758
 10
-745.3245
 20
83.6336
 10
-745.3114
 20
83.5001
 10
-745.3245
 20
83.3664
 10
-745.3622
 20
83.2418
 10
-745.4218
 20
83.1292
 10
-745.5007
 20
83.031
 10
-745.5964
 20
82.95
 10
-745.7061
 20
82.8889
 10
-745.8275
 20
82.8503
 10
-745.9577
 20
82.8368
 10
-746.0879
 20
82.8503
 10
-746.2092
 20
82.8889
 10
-746.319
 20
82.95
 10
-746.4146
 20
83.031
 10
-746.4935
 20
83.1292
 10
-746.5531
 20
83.2418
 10
-746.5908
 20
83.3664
 10
-746.6039
 20
83.5001
 10
-746.5908
 20
83.6336
 10
-746.5531
 20
83.758
 10
-746.4935
 20
83.8705
 10
-746.4146
 20
83.9686
 10
-746.319
 20
84.0495
 10
-746.2092
 20
84.1106
 10
-746.0879
 20
84.1492
 10
-745.9577
 20
84.1627
  0
LWPOLYLINE
  5
DF
330
1F
100
AcDbEntity
  8
Layer 1
 62
     7
370
    20
100
AcDbPolyline
 90
       33
 70
     1
 43
0.0
 10
-748.3148
 20
86.816
 10
-748.1848
 20
86.8025
 10
-748.0635
 20
86.7639
 10
-747.9538
 20
86.7028
 10
-747.8581
 20
86.6218
 10
-747.7791
 20
86.5236
 10
-747.7194
 20
86.411
 10
-747.6817
 20
86.2864
 10
-747.6685
 20
86.1527
 10
-747.6817
 20
86.019
 10
-747.7194
 20
85.8944
 10
-747.7791
 20
85.7818
 10
-747.8581
 20
85.6836
 10
-747.9538
 20
85.6026
 10
-748.0635
 20
85.5415
 10
-748.1848
 20
85.5029
 10
-748.3148
 20
85.4894
 10
-748.4451
 20
85.5029
 10
-748.5664
 20
85.5415
 10
-748.6763
 20
85.6026
 10
-748.7721
 20
85.6836
 10
-748.8511
 20
85.7818
 10
-748.9108
 20
85.8944
 10
-748.9485
 20
86.019
 10
-748.9617
 20
86.1527
 10
-748.9485
 20
86.2864
 10
-748.9108
 20
86.411
 10
-748.8511
 20
86.5236
 10
-748.7721
 20
86.6218
 10
-748.6763
 20
86.7028
 10
-748.5664
 20
86.7639
 10
-748.4451
 20
86.8025
 10
-748.3148
 20
86.816
  0
LWPOLYLINE
  5
E0
330
1F
100
AcDbEntity
  8
Layer 1
 62
     7
370
    20
100
AcDbPolyline
 90
       33
 70
     1
 43
0.0
 10
-743.7521
 20
83.7464
 10
-743.6218
 20
83.7329
 10
-743.5005
 20
83.6942
 10
-743.3907
 20
83.633
 10
-743.2951
 20
83.5519
 10
-743.2162
 20
83.4537
 10
-743.1566
 20
83.3411
 10
-743.1189
 20
83.2166
 10
-743.1058
 20
83.0831
 10
-743.1189
 20
82.9494
 10
-743.1566
 20
82.8248
 10
-743.2162
 20
82.7122
 10
-743.2951
 20
82.614
 10
-743.3907
 20
82.533
 10
-743.5005
 20
82.4719
 10
-743.6218
 20
82.4333
 10
-743.7521
 20
82.4198
 10
-743.8823
 20
82.4333
 10
-744.0036
 20
82.4719
 10
-744.1134
 20
82.533
 10
-744.209
 20
82.614
 10
-744.2879
 20
82.7122
 10
-744.3475
 20
82.8248
 10
-744.3852
 20
82.9494
 10
-744.3983
 20
83.0831
 10
-744.3852
 20
83.2166
 10
-744.3475
 20
83.3411
 10
-744.2879
 20
83.4537
 10
-744.209
 20
83.5519
 10
-744.1134
 20
83.633
 10
-744.0036
 20
83.6942
 10
-743.8823
 20
83.7329
 10
-743.7521
 20
83.7464
  0
LWPOLYLINE
  5
E1
330
1F
100
AcDbEntity
  8
Layer 1
 62
     7
370
    20
100
AcDbPolyline
 90
       33
 70
     1
 43
0.0
 10
-741.1281
 20
83.5567
 10
-740.9979
 20
83.5432
 10
-740.8765
 20
83.5046
 10
-740.7668
 20
83.4435
 10
-740.6711
 20
83.3625
 10
-740.5922
 20
83.2643
 10
-740.5326
 20
83.1517
 10
-740.4949
 20
83.0271
 10
-740.4818
 20
82.8934
 10
-740.4949
 20
82.7599
 10
-740.5326
 20
82.6355
 10
-740.5922
 20
82.523
 10
-740.6711
 20
82.4249
 10
-740.7668
 20
82.344
 10
-740.8765
 20
82.2829
 10
-740.9979
 20
82.2443
 10
-741.1281
 20
82.2308
 10
-741.2583
 20
82.2443
 10
-741.3797
 20
82.2829
 10
-741.4894
 20
82.344
 10
-741.5851
 20
82.4249
 10
-741.664
 20
82.523
 10
-741.7236
 20
82.6355
 10
-741.7613
 20
82.7599
 10
-741.7744
 20
82.8934
 10
-741.7613
 20
83.0271
 10
-741.7236
 20
83.1517
 10
-741.664
 20
83.2643
 10
-741.5851
 20
83.3625
 10
-741.4894
 20
83.4435
 10
-741.3797
 20
83.5046
 10
-741.2583
 20
83.5432
 10
-741.1281
 20
83.5567
  0
LWPOLYLINE
  5
E2
330
1F
100
AcDbEntity
  8
Layer 1
 62
     7
370
    20
100
AcDbPolyline
 90
       33
 70
     1
 43
0.0
 10
-739.379
 20
83.5567
 10
-739.2488
 20
83.5432
 10
-739.1275
 20
83.5046
 10
-739.0177
 20
83.4435
 10
-738.9221
 20
83.3625
 10
-738.8432
 20
83.2643
 10
-738.7836
 20
83.1517
 10
-738.7459
 20
83.0271
 10
-738.7328
 20
82.8934
 10
-738.7459
 20
82.7599
 10
-738.7836
 20
82.6355
 10
-738.8432
 20
82.523
 10
-738.9221
 20
82.4249
 10
-739.0177
 20
82.344
 10
-739.1275
 20
82.2829
 10
-739.2488
 20
82.2443
 10
-739.379
 20
82.2308
 10
-739.5092
 20
82.2443
 10
-739.6306
 20
82.2829
 10
-739.7403
 20
82.344
 10
-739.836
 20
82.4249
 10
-739.9149
 20
82.523
 10
-739.9745
 20
82.6355
 10
-740.0122
 20
82.7599
 10
-740.0253
 20
82.8934
 10
-740.0122
 20
83.0271
 10
-739.9745
 20
83.1517
 10
-739.9149
 20
83.2643
 10
-739.836
 20
83.3625
 10
-739.7403
 20
83.4435
 10
-739.6306
 20
83.5046
 10
-739.5092
 20
83.5432
 10
-739.379
 20
83.5567
  0
LWPOLYLINE
  5
E3
330
1F
100
AcDbEntity
  8
Layer 1
 62
     7
370
    20
100
AcDbPolyline
 90
       33
 70
     1
 43
0.0
 10
-740.5644
 20
86.9914
 10
-740.4342
 20
86.9779
 10
-740.3129
 20
86.9393
 10
-740.2031
 20
86.8781
 10
-740.1075
 20
86.7972
 10
-740.0286
 20
86.699
 10
-739.969
 20
86.5863
 10
-739.9313
 20
86.4618
 10
-739.9182
 20
86.3281
 10
-739.9313
 20
86.1946
 10
-739.969
 20
86.0701
 10
-740.0286
 20
85.9574
 10
-740.1075
 20
85.8592
 10
-740.2031
 20
85.7782
 10
-740.3129
 20
85.7169
 10
-740.4342
 20
85.6782
 10
-740.5644
 20
85.6647
 10
-740.6946
 20
85.6782
 10
-740.816
 20
85.7169
 10
-740.9257
 20
85.7782
 10
-741.0214
 20
85.8592
 10
-741.1003
 20
85.9574
 10
-741.1599
 20
86.0701
 10
-741.1976
 20
86.1946
 10
-741.2107
 20
86.3281
 10
-741.1976
 20
86.4618
 10
-741.1599
 20
86.5863
 10
-741.1003
 20
86.699
 10
-741.0214
 20
86.7972
 10
-740.9257
 20
86.8781
 10
-740.816
 20
86.9393
 10
-740.6946
 20
86.9779
 10
-740.5644
 20
86.9914
  0
LWPOLYLINE
  5
E4
330
1F
100
AcDbEntity
  8
Layer 1
 62
     7
370
    20
100
AcDbPolyline
 90
       33
 70
     1
 43
0.0
 10
-736.2296
 20
90.5919
 10
-736.0994
 20
90.5784
 10
-735.978
 20
90.5398
 10
-735.8683
 20
90.4786
 10
-735.7726
 20
90.3977
 10
-735.6937
 20
90.2995
 10
-735.6341
 20
90.1868
 10
-735.5964
 20
90.0623
 10
-735.5833
 20
89.9286
 10
-735.5964
 20
89.7949
 10
-735.6341
 20
89.6703
 10
-735.6937
 20
89.5577
 10
-735.7726
 20
89.4595
 10
-735.8683
 20
89.3785
 10
-735.978
 20
89.3174
 10
-736.0994
 20
89.2788
 10
-736.2296
 20
89.2653
 10
-736.3598
 20
89.2788
 10
-736.4812
 20
89.3174
 10
-736.5909
 20
89.3785
 10
-736.6866
 20
89.4595
 10
-736.7655
 20
89.5577
 10
-736.8251
 20
89.6703
 10
-736.8628
 20
89.7949
 10
-736.8759
 20
89.9286
 10
-736.8628
 20
90.0623
 10
-736.8251
 20
90.1868
 10
-736.7655
 20
90.2995
 10
-736.6866
 20
90.3977
 10
-736.5909
 20
90.4786
 10
-736.4812
 20
90.5398
 10
-736.3598
 20
90.5784
 10
-736.2296
 20
90.5919
  0
LWPOLYLINE
  5
E5
330
1F
100
AcDbEntity
  8
Layer 1
 62
     7
370
    20
100
AcDbPolyline
 90
       33
 70
     1
 43
0.0
 10
-739.4056
 20
91.1883
 10
-739.2754
 20
91.1748
 10
-739.1541
 20
91.1362
 10
-739.0443
 20
91.0751
 10
-738.9487
 20
90.9941
 10
-738.8698
 20
90.8959
 10
-738.8102
 20
90.7833
 10
-738.7725
 20
90.6587
 10
-738.7594
 20
90.525
 10
-738.7725
 20
90.3915
 10
-738.8102
 20
90.2671
 10
-738.8698
 20
90.1546
 10
-738.9487
 20
90.0565
 10
-739.0443
 20
89.9756
 10
-739.1541
 20
89.9145
 10
-739.2754
 20
89.8759
 10
-739.4056
 20
89.8624
 10
-739.5359
 20
89.8759
 10
-739.6572
 20
89.9145
 10
-739.767
 20
89.9756
 10
-739.8626
 20
90.0565
 10
-739.9415
 20
90.1546
 10
-740.0011
 20
90.2671
 10
-740.0388
 20
90.3915
 10
-740.0519
 20
90.525
 10
-740.0388
 20
90.6587
 10
-740.0011
 20
90.7833
 10
-739.9415
 20
90.8959
 10
-739.8626
 20
90.9941
 10
-739.767
 20
91.0751
 10
-739.6572
 20
91.1362
 10
-739.5359
 20
91.1748
 10
-739.4056
 20
91.1883
  0
LWPOLYLINE
  5
E6
330
1F
100
AcDbEntity
  8
Layer 1
 62
     7
370
    20
100
AcDbPolyline
 90
       33
 70
     1
 43
0.0
 10
-741.0483
 20
94.4606
 10
-740.918
 20
94.4471
 10
-740.7966
 20
94.4084
 10
-740.6867
 20
94.3472
 10
-740.5909
 20
94.2661
 10
-740.5119
 20
94.1679
 10
-740.4522
 20
94.0553
 10
-740.4145
 20
93.9308
 10
-740.4013
 20
93.7973
 10
-740.4145
 20
93.6636
 10
-740.4522
 20
93.539
 10
-740.5119
 20
93.4264
 10
-740.5909
 20
93.3282
 10
-740.6867
 20
93.2472
 10
-740.7966
 20
93.1861
 10
-740.918
 20
93.1475
 10
-741.0483
 20
93.134
 10
-741.1783
 20
93.1475
 10
-741.2995
 20
93.1861
 10
-741.4093
 20
93.2472
 10
-741.505
 20
93.3282
 10
-741.584
 20
93.4264
 10
-741.6436
 20
93.539
 10
-741.6813
 20
93.6636
 10
-741.6945
 20
93.7973
 10
-741.6813
 20
93.9308
 10
-741.6436
 20
94.0553
 10
-741.584
 20
94.1679
 10
-741.505
 20
94.2661
 10
-741.4093
 20
94.3472
 10
-741.2995
 20
94.4084
 10
-741.1783
 20
94.4471
 10
-741.0483
 20
94.4606
  0
LWPOLYLINE
  5
E7
330
1F
100
AcDbEntity
  8
Layer 1
 62
     7
370
    20
100
AcDbPolyline
 90
       33
 70
     1
 43
0.0
 10
-746.1221
 20
97.4067
 10
-745.9919
 20
97.3932
 10
-745.8706
 20
97.3545
 10
-745.7608
 20
97.2932
 10
-745.6652
 20
97.2122
 10
-745.5863
 20
97.114
 10
-745.5267
 20
97.0013
 10
-745.489
 20
96.8768
 10
-745.4759
 20
96.7433
 10
-745.489
 20
96.6096
 10
-745.5267
 20
96.4851
 10
-745.5863
 20
96.3724
 10
-745.6652
 20
96.2743
 10
-745.7608
 20
96.1933
 10
-745.8706
 20
96.1321
 10
-745.9919
 20
96.0935
 10
-746.1221
 20
96.08
 10
-746.2523
 20
96.0935
 10
-746.3737
 20
96.1321
 10
-746.4834
 20
96.1933
 10
-746.5791
 20
96.2743
 10
-746.658
 20
96.3724
 10
-746.7176
 20
96.4851
 10
-746.7553
 20
96.6096
 10
-746.7684
 20
96.7433
 10
-746.7553
 20
96.8768
 10
-746.7176
 20
97.0013
 10
-746.658
 20
97.114
 10
-746.5791
 20
97.2122
 10
-746.4834
 20
97.2932
 10
-746.3737
 20
97.3545
 10
-746.2523
 20
97.3932
 10
-746.1221
 20
97.4067
  0
LWPOLYLINE
  5
E8
330
1F
100
AcDbEntity
  8
Layer 1
 62
     7
370
    20
100
AcDbPolyline
 90
       33
 70
     1
 43
0.0
 10
-743.9049
 20
100.7103
 10
-743.7749
 20
100.6968
 10
-743.6537
 20
100.6582
 10
-743.5439
 20
100.5971
 10
-743.4482
 20
100.5161
 10
-743.3692
 20
100.4179
 10
-743.3096
 20
100.3053
 10
-743.2719
 20
100.1807
 10
-743.2587
 20
100.047
 10
-743.2719
 20
99.9135
 10
-743.3096
 20
99.7891
 10
-743.3692
 20
99.6766
 10
-743.4482
 20
99.5785
 10
-743.5439
 20
99.4975
 10
-743.6537
 20
99.4364
 10
-743.7749
 20
99.3978
 10
-743.9049
 20
99.3843
 10
-744.0352
 20
99.3978
 10
-744.1566
 20
99.4364
 10
-744.2665
 20
99.4975
 10
-744.3622
 20
99.5785
 10
-744.4413
 20
99.6766
 10
-744.501
 20
99.7891
 10
-744.5387
 20
99.9135
 10
-744.5519
 20
100.047
 10
-744.5387
 20
100.1807
 10
-744.501
 20
100.3053
 10
-744.4413
 20
100.4179
 10
-744.3622
 20
100.5161
 10
-744.2665
 20
100.5971
 10
-744.1566
 20
100.6582
 10
-744.0352
 20
100.6968
 10
-743.9049
 20
100.7103
  0
LWPOLYLINE
  5
E9
330
1F
100
AcDbEntity
  8
Layer 1
 62
     7
370
    20
100
AcDbPolyline
 90
       33
 70
     1
 43
0.0
 10
-741.4338
 20
103.8556
 10
-741.3035
 20
103.8421
 10
-741.1822
 20
103.8035
 10
-741.0723
 20
103.7424
 10
-740.9765
 20
103.6615
 10
-740.8975
 20
103.5634
 10
-740.8378
 20
103.4509
 10
-740.8001
 20
103.3265
 10
-740.7869
 20
103.193
 10
-740.8001
 20
103.0593
 10
-740.8378
 20
102.9347
 10
-740.8975
 20
102.8221
 10
-740.9765
 20
102.7239
 10
-741.0723
 20
102.6429
 10
-741.1822
 20
102.5818
 10
-741.3035
 20
102.5432
 10
-741.4338
 20
102.5297
 10
-741.564
 20
102.5432
 10
-741.6854
 20
102.5818
 10
-741.7951
 20
102.6429
 10
-741.8908
 20
102.7239
 10
-741.9697
 20
102.8221
 10
-742.0293
 20
102.9347
 10
-742.067
 20
103.0593
 10
-742.0801
 20
103.193
 10
-742.067
 20
103.3265
 10
-742.0293
 20
103.4509
 10
-741.9697
 20
103.5634
 10
-741.8908
 20
103.6615
 10
-741.7951
 20
103.7424
 10
-741.6854
 20
103.8035
 10
-741.564
 20
103.8421
 10
-741.4338
 20
103.8556
  0
LWPOLYLINE
  5
EA
330
1F
100
AcDbEntity
  8
Layer 1
 62
     7
370
    20
100
AcDbPolyline
 90
       33
 70
     1
 43
0.0
 10
-738.5813
 20
107.0392
 10
-738.4511
 20
107.0257
 10
-738.3297
 20
106.9871
 10
-738.22
 20
106.9259
 10
-738.1243
 20
106.845
 10
-738.0454
 20
106.7468
 10
-737.9858
 20
106.6341
 10
-737.9481
 20
106.5096
 10
-737.935
 20
106.3759
 10
-737.9481
 20
106.2424
 10
-737.9858
 20
106.118
 10
-738.0454
 20
106.0055
 10
-738.1243
 20
105.9074
 10
-738.22
 20
105.8264
 10
-738.3297
 20
105.7653
 10
-738.4511
 20
105.7267
 10
-738.5813
 20
105.7132
 10
-738.7116
 20
105.7267
 10
-738.8329
 20
105.7653
 10
-738.9428
 20
105.8264
 10
-739.0386
 20
105.9074
 10
-739.1176
 20
106.0055
 10
-739.1773
 20
106.118
 10
-739.215
 20
106.2424
 10
-739.2282
 20
106.3759
 10
-739.215
 20
106.5096
 10
-739.1773
 20
106.6341
 10
-739.1176
 20
106.7468
 10
-739.0386
 20
106.845
 10
-738.9428
 20
106.9259
 10
-738.8329
 20
106.9871
 10
-738.7116
 20
107.0257
 10
-738.5813
 20
107.0392
  0
LWPOLYLINE
  5
EB
330
1F
100
AcDbEntity
  8
Layer 1
 62
     7
370
    20
100
AcDbPolyline
 90
       33
 70
     1
 43
0.0
 10
-740.2798
 20
97.8966
 10
-740.1496
 20
97.8831
 10
-740.0283
 20
97.8444
 10
-739.9185
 20
97.7832
 10
-739.8229
 20
97.7021
 10
-739.744
 20
97.6039
 10
-739.6844
 20
97.4913
 10
-739.6467
 20
97.3668
 10
-739.6336
 20
97.2333
 10
-739.6467
 20
97.0996
 10
-739.6844
 20
96.9751
 10
-739.744
 20
96.8624
 10
-739.8229
 20
96.7643
 10
-739.9185
 20
96.6833
 10
-740.0283
 20
96.6221
 10
-740.1496
 20
96.5835
 10
-740.2798
 20
96.57
 10
-740.4101
 20
96.5835
 10
-740.5315
 20
96.6221
 10
-740.6414
 20
96.6833
 10
-740.7372
 20
96.7643
 10
-740.8162
 20
96.8624
 10
-740.8759
 20
96.9751
 10
-740.9136
 20
97.0996
 10
-740.9268
 20
97.2333
 10
-740.9136
 20
97.3668
 10
-740.8759
 20
97.4913
 10
-740.8162
 20
97.6039
 10
-740.7372
 20
97.7021
 10
-740.6414
 20
97.7832
 10
-740.5315
 20
97.8444
 10
-740.4101
 20
97.8831
 10
-740.2798
 20
97.8966
  0
LWPOLYLINE
  5
EC
330
1F
100
AcDbEntity
  8
Layer 1
 62
     7
370
    20
100
AcDbPolyline
 90
       33
 70
     1
 43
0.0
 10
-736.2112
 20
101.3068
 10
-736.081
 20
101.2933
 10
-735.9596
 20
101.2547
 10
-735.8499
 20
101.1936
 10
-735.7542
 20
101.1126
 10
-735.6753
 20
101.0145
 10
-735.6157
 20
100.902
 10
-735.578
 20
100.7776
 10
-735.5649
 20
100.6441
 10
-735.578
 20
100.5104
 10
-735.6157
 20
100.3859
 10
-735.6753
 20
100.2732
 10
-735.7542
 20
100.1751
 10
-735.8499
 20
100.0941
 10
-735.9596
 20
100.0329
 10
-736.081
 20
99.9943
 10
-736.2112
 20
99.9808
 10
-736.3414
 20
99.9943
 10
-736.4627
 20
100.0329
 10
-736.5725
 20
100.0941
 10
-736.6681
 20
100.1751
 10
-736.747
 20
100.2732
 10
-736.8066
 20
100.3859
 10
-736.8443
 20
100.5104
 10
-736.8574
 20
100.6441
 10
-736.8443
 20
100.7776
 10
-736.8066
 20
100.902
 10
-736.747
 20
101.0145
 10
-736.6681
 20
101.1126
 10
-736.5725
 20
101.1936
 10
-736.4627
 20
101.2547
 10
-736.3414
 20
101.2933
 10
-736.2112
 20
101.3068
  0
LWPOLYLINE
  5
ED
330
1F
100
AcDbEntity
  8
Layer 1
 62
     7
370
    20
100
AcDbPolyline
 90
       33
 70
     1
 43
0.0
 10
-732.3711
 20
104.3388
 10
-732.2409
 20
104.3253
 10
-732.1196
 20
104.2867
 10
-732.0098
 20
104.2255
 10
-731.9142
 20
104.1446
 10
-731.8353
 20
104.0464
 10
-731.7757
 20
103.9337
 10
-731.738
 20
103.8092
 10
-731.7249
 20
103.6755
 10
-731.738
 20
103.542
 10
-731.7757
 20
103.4175
 10
-731.8353
 20
103.3049
 10
-731.9142
 20
103.2067
 10
-732.0098
 20
103.1256
 10
-732.1196
 20
103.0644
 10
-732.2409
 20
103.0257
 10
-732.3711
 20
103.0122
 10
-732.5014
 20
103.0257
 10
-732.6227
 20
103.0644
 10
-732.7325
 20
103.1256
 10
-732.8281
 20
103.2067
 10
-732.907
 20
103.3049
 10
-732.9666
 20
103.4175
 10
-733.0043
 20
103.542
 10
-733.0174
 20
103.6755
 10
-733.0043
 20
103.8092
 10
-732.9666
 20
103.9337
 10
-732.907
 20
104.0464
 10
-732.8281
 20
104.1446
 10
-732.7325
 20
104.2255
 10
-732.6227
 20
104.2867
 10
-732.5014
 20
104.3253
 10
-732.3711
 20
104.3388
  0
LWPOLYLINE
  5
EE
330
1F
100
AcDbEntity
  8
Layer 1
 62
     7
370
    20
100
AcDbPolyline
 90
       33
 70
     1
 43
0.0
 10
-728.1878
 20
107.6738
 10
-728.0576
 20
107.6603
 10
-727.9363
 20
107.6217
 10
-727.8265
 20
107.5606
 10
-727.7309
 20
107.4796
 10
-727.652
 20
107.3814
 10
-727.5924
 20
107.2688
 10
-727.5547
 20
107.1442
 10
-727.5416
 20
107.0105
 10
-727.5547
 20
106.8768
 10
-727.5924
 20
106.7523
 10
-727.652
 20
106.6396
 10
-727.7309
 20
106.5415
 10
-727.8265
 20
106.4605
 10
-727.9363
 20
106.3993
 10
-728.0576
 20
106.3607
 10
-728.1878
 20
106.3472
 10
-728.318
 20
106.3607
 10
-728.4394
 20
106.3993
 10
-728.5491
 20
106.4605
 10
-728.6448
 20
106.5415
 10
-728.7237
 20
106.6396
 10
-728.7833
 20
106.7523
 10
-728.821
 20
106.8768
 10
-728.8341
 20
107.0105
 10
-728.821
 20
107.1442
 10
-728.7833
 20
107.2688
 10
-728.7237
 20
107.3814
 10
-728.6448
 20
107.4796
 10
-728.5491
 20
107.5606
 10
-728.4394
 20
107.6217
 10
-728.318
 20
107.6603
 10
-728.1878
 20
107.6738
  0
LWPOLYLINE
  5
EF
330
1F
100
AcDbEntity
  8
Layer 1
 62
     7
370
    20
100
AcDbPolyline
 90
       33
 70
     1
 43
0.0
 10
-725.7925
 20
103.3916
 10
-725.6623
 20
103.3781
 10
-725.5409
 20
103.3395
 10
-725.4312
 20
103.2783
 10
-725.3355
 20
103.1974
 10
-725.2566
 20
103.0992
 10
-725.197
 20
102.9865
 10
-725.1593
 20
102.862
 10
-725.1462
 20
102.7283
 10
-725.1593
 20
102.5946
 10
-725.197
 20
102.47
 10
-725.2566
 20
102.3573
 10
-725.3355
 20
102.2592
 10
-725.4312
 20
102.1782
 10
-725.5409
 20
102.117
 10
-725.6623
 20
102.0784
 10
-725.7925
 20
102.0649
 10
-725.9227
 20
102.0784
 10
-726.0441
 20
102.117
 10
-726.1538
 20
102.1782
 10
-726.2495
 20
102.2592
 10
-726.3284
 20
102.3573
 10
-726.388
 20
102.47
 10
-726.4257
 20
102.5946
 10
-726.4388
 20
102.7283
 10
-726.4257
 20
102.862
 10
-726.388
 20
102.9865
 10
-726.3284
 20
103.0992
 10
-726.2495
 20
103.1974
 10
-726.1538
 20
103.2783
 10
-726.0441
 20
103.3395
 10
-725.9227
 20
103.3781
 10
-725.7925
 20
103.3916
  0
LWPOLYLINE
  5
F0
330
1F
100
AcDbEntity
  8
Layer 1
 62
     7
370
    20
100
AcDbPolyline
 90
       33
 70
     1
 43
0.0
 10
-720.8872
 20
106.8781
 10
-720.757
 20
106.8646
 10
-720.6356
 20
106.826
 10
-720.5259
 20
106.7649
 10
-720.4302
 20
106.6839
 10
-720.3513
 20
106.5857
 10
-720.2917
 20
106.4731
 10
-720.254
 20
106.3485
 10
-720.2409
 20
106.2148
 10
-720.254
 20
106.0811
 10
-720.2917
 20
105.9565
 10
-720.3513
 20
105.8439
 10
-720.4302
 20
105.7457
 10
-720.5259
 20
105.6647
 10
-720.6356
 20
105.6036
 10
-720.757
 20
105.565
 10
-720.8872
 20
105.5515
 10
-721.0174
 20
105.565
 10
-721.1387
 20
105.6036
 10
-721.2485
 20
105.6647
 10
-721.3441
 20
105.7457
 10
-721.423
 20
105.8439
 10
-721.4826
 20
105.9565
 10
-721.5203
 20
106.0811
 10
-721.5334
 20
106.2148
 10
-721.5203
 20
106.3485
 10
-721.4826
 20
106.4731
 10
-721.423
 20
106.5857
 10
-721.3441
 20
106.6839
 10
-721.2485
 20
106.7649
 10
-721.1387
 20
106.826
 10
-721.0174
 20
106.8646
 10
-720.8872
 20
106.8781
  0
LWPOLYLINE
  5
F1
330
1F
100
AcDbEntity
  8
Layer 1
 62
     7
370
    20
100
AcDbPolyline
 90
       33
 70
     1
 43
0.0
 10
-716.9325
 20
103.5431
 10
-716.8023
 20
103.5296
 10
-716.6809
 20
103.4909
 10
-716.5712
 20
103.4297
 10
-716.4755
 20
103.3486
 10
-716.3966
 20
103.2504
 10
-716.337
 20
103.1377
 10
-716.2993
 20
103.0133
 10
-716.2862
 20
102.8798
 10
-716.2993
 20
102.7461
 10
-716.337
 20
102.6215
 10
-716.3966
 20
102.5088
 10
-716.4755
 20
102.4107
 10
-716.5712
 20
102.3297
 10
-716.6809
 20
102.2685
 10
-716.8023
 20
102.2299
 10
-716.9325
 20
102.2164
 10
-717.0627
 20
102.2299
 10
-717.1841
 20
102.2685
 10
-717.2938
 20
102.3297
 10
-717.3895
 20
102.4107
 10
-717.4684
 20
102.5088
 10
-717.528
 20
102.6215
 10
-717.5657
 20
102.7461
 10
-717.5788
 20
102.8798
 10
-717.5657
 20
103.0133
 10
-717.528
 20
103.1377
 10
-717.4684
 20
103.2504
 10
-717.3895
 20
103.3486
 10
-717.2938
 20
103.4297
 10
-717.1841
 20
103.4909
 10
-717.0627
 20
103.5296
 10
-716.9325
 20
103.5431
  0
LWPOLYLINE
  5
F2
330
1F
100
AcDbEntity
  8
Layer 1
 62
     7
370
    20
100
AcDbPolyline
 90
       33
 70
     1
 43
0.0
 10
-717.3133
 20
100.1323
 10
-717.183
 20
100.1188
 10
-717.0616
 20
100.0802
 10
-716.9517
 20
100.019
 10
-716.856
 20
99.9381
 10
-716.7769
 20
99.8399
 10
-716.7172
 20
99.7272
 10
-716.6795
 20
99.6027
 10
-716.6663
 20
99.469
 10
-716.6795
 20
99.3355
 10
-716.7172
 20
99.211
 10
-716.7769
 20
99.0983
 10
-716.856
 20
99.0001
 10
-716.9517
 20
98.9191
 10
-717.0616
 20
98.8578
 10
-717.183
 20
98.8191
 10
-717.3133
 20
98.8056
 10
-717.4433
 20
98.8191
 10
-717.5645
 20
98.8578
 10
-717.6743
 20
98.9191
 10
-717.77
 20
99.0001
 10
-717.849
 20
99.0983
 10
-717.9086
 20
99.211
 10
-717.9463
 20
99.3355
 10
-717.9595
 20
99.469
 10
-717.9463
 20
99.6027
 10
-717.9086
 20
99.7272
 10
-717.849
 20
99.8399
 10
-717.77
 20
99.9381
 10
-717.6743
 20
100.019
 10
-717.5645
 20
100.0802
 10
-717.4433
 20
100.1188
 10
-717.3133
 20
100.1323
  0
LWPOLYLINE
  5
F3
330
1F
100
AcDbEntity
  8
Layer 1
 62
     7
370
    20
100
AcDbPolyline
 90
       33
 70
     1
 43
0.0
 10
-722.5987
 20
97.4415
 10
-722.4684
 20
97.428
 10
-722.3471
 20
97.3894
 10
-722.2372
 20
97.3282
 10
-722.1414
 20
97.2472
 10
-722.0624
 20
97.1491
 10
-722.0027
 20
97.0364
 10
-721.965
 20
96.9118
 10
-721.9518
 20
96.7781
 10
-721.965
 20
96.6446
 10
-722.0027
 20
96.5203
 10
-722.0624
 20
96.4077
 10
-722.1414
 20
96.3097
 10
-722.2372
 20
96.2287
 10
-722.3471
 20
96.1676
 10
-722.4684
 20
96.129
 10
-722.5987
 20
96.1155
 10
-722.7289
 20
96.129
 10
-722.8503
 20
96.1676
 10
-722.96
 20
96.2287
 10
-723.0557
 20
96.3097
 10
-723.1346
 20
96.4077
 10
-723.1942
 20
96.5203
 10
-723.2319
 20
96.6446
 10
-723.245
 20
96.7781
 10
-723.2319
 20
96.9118
 10
-723.1942
 20
97.0364
 10
-723.1346
 20
97.1491
 10
-723.0557
 20
97.2472
 10
-722.96
 20
97.3282
 10
-722.8503
 20
97.3894
 10
-722.7289
 20
97.428
 10
-722.5987
 20
97.4415
  0
LWPOLYLINE
  5
F4
330
1F
100
AcDbEntity
  8
Layer 1
 62
     7
370
    20
100
AcDbPolyline
 90
       33
 70
     1
 43
0.0
 10
-723.131
 20
101.042
 10
-723.0008
 20
101.0285
 10
-722.8795
 20
100.9898
 10
-722.7697
 20
100.9286
 10
-722.6741
 20
100.8475
 10
-722.5952
 20
100.7493
 10
-722.5356
 20
100.6366
 10
-722.4979
 20
100.5122
 10
-722.4848
 20
100.3787
 10
-722.4979
 20
100.245
 10
-722.5356
 20
100.1204
 10
-722.5952
 20
100.0077
 10
-722.6741
 20
99.9096
 10
-722.7697
 20
99.8286
 10
-722.8795
 20
99.7674
 10
-723.0008
 20
99.7288
 10
-723.131
 20
99.7153
 10
-723.2612
 20
99.7288
 10
-723.3826
 20
99.7674
 10
-723.4923
 20
99.8286
 10
-723.588
 20
99.9096
 10
-723.6669
 20
100.0077
 10
-723.7265
 20
100.1204
 10
-723.7642
 20
100.245
 10
-723.7773
 20
100.3787
 10
-723.7642
 20
100.5122
 10
-723.7265
 20
100.6366
 10
-723.6669
 20
100.7493
 10
-723.588
 20
100.8475
 10
-723.4923
 20
100.9286
 10
-723.3826
 20
100.9898
 10
-723.2612
 20
101.0285
 10
-723.131
 20
101.042
  0
LWPOLYLINE
  5
F5
330
1F
100
AcDbEntity
  8
Layer 1
 62
     7
370
    20
100
AcDbPolyline
 90
       33
 70
     1
 43
0.0
 10
-728.3782
 20
98.4269
 10
-728.248
 20
98.4134
 10
-728.1267
 20
98.3748
 10
-728.0169
 20
98.3136
 10
-727.9213
 20
98.2327
 10
-727.8424
 20
98.1345
 10
-727.7828
 20
98.0218
 10
-727.7451
 20
97.8973
 10
-727.732
 20
97.7636
 10
-727.7451
 20
97.6299
 10
-727.7828
 20
97.5053
 10
-727.8424
 20
97.3927
 10
-727.9213
 20
97.2945
 10
-728.0169
 20
97.2135
 10
-728.1267
 20
97.1524
 10
-728.248
 20
97.1138
 10
-728.3782
 20
97.1003
 10
-728.5084
 20
97.1138
 10
-728.6298
 20
97.1524
 10
-728.7395
 20
97.2135
 10
-728.8352
 20
97.2945
 10
-728.9141
 20
97.3927
 10
-728.9737
 20
97.5053
 10
-729.0114
 20
97.6299
 10
-729.0245
 20
97.7636
 10
-729.0114
 20
97.8973
 10
-728.9737
 20
98.0218
 10
-728.9141
 20
98.1345
 10
-728.8352
 20
98.2327
 10
-728.7395
 20
98.3136
 10
-728.6298
 20
98.3748
 10
-728.5084
 20
98.4134
 10
-728.3782
 20
98.4269
  0
LWPOLYLINE
  5
F6
330
1F
100
AcDbEntity
  8
Layer 1
 62
     7
370
    20
100
AcDbPolyline
 90
       33
 70
     1
 43
0.0
 10
-730.8118
 20
100.3595
 10
-730.6816
 20
100.346
 10
-730.5602
 20
100.3074
 10
-730.4505
 20
100.2463
 10
-730.3548
 20
100.1653
 10
-730.2759
 20
100.0671
 10
-730.2163
 20
99.9545
 10
-730.1786
 20
99.8299
 10
-730.1655
 20
99.6962
 10
-730.1786
 20
99.5627
 10
-730.2163
 20
99.4383
 10
-730.2759
 20
99.3258
 10
-730.3548
 20
99.2277
 10
-730.4505
 20
99.1468
 10
-730.5602
 20
99.0857
 10
-730.6816
 20
99.0471
 10
-730.8118
 20
99.0336
 10
-730.942
 20
99.0471
 10
-731.0633
 20
99.0857
 10
-731.1731
 20
99.1468
 10
-731.2687
 20
99.2277
 10
-731.3476
 20
99.3258
 10
-731.4072
 20
99.4383
 10
-731.4449
 20
99.5627
 10
-731.458
 20
99.6962
 10
-731.4449
 20
99.8299
 10
-731.4072
 20
99.9545
 10
-731.3476
 20
100.0671
 10
-731.2687
 20
100.1653
 10
-731.1731
 20
100.2463
 10
-731.0633
 20
100.3074
 10
-730.942
 20
100.346
 10
-730.8118
 20
100.3595
  0
LWPOLYLINE
  5
F7
330
1F
100
AcDbEntity
  8
Layer 1
 62
     7
370
    20
100
AcDbPolyline
 90
       33
 70
     1
 43
0.0
 10
-735.945
 20
97.29
 10
-735.8148
 20
97.2765
 10
-735.6935
 20
97.2379
 10
-735.5837
 20
97.1767
 10
-735.4881
 20
97.0957
 10
-735.4092
 20
96.9976
 10
-735.3496
 20
96.8849
 10
-735.3119
 20
96.7603
 10
-735.2988
 20
96.6266
 10
-735.3119
 20
96.4929
 10
-735.3496
 20
96.3684
 10
-735.4092
 20
96.2557
 10
-735.4881
 20
96.1576
 10
-735.5837
 20
96.0766
 10
-735.6935
 20
96.0154
 10
-735.8148
 20
95.9768
 10
-735.945
 20
95.9633
 10
-736.0752
 20
95.9768
 10
-736.1966
 20
96.0154
 10
-736.3063
 20
96.0766
 10
-736.402
 20
96.1576
 10
-736.4809
 20
96.2557
 10
-736.5405
 20
96.3684
 10
-736.5782
 20
96.4929
 10
-736.5913
 20
96.6266
 10
-736.5782
 20
96.7603
 10
-736.5405
 20
96.8849
 10
-736.4809
 20
96.9976
 10
-736.402
 20
97.0957
 10
-736.3063
 20
97.1767
 10
-736.1966
 20
97.2379
 10
-736.0752
 20
97.2765
 10
-735.945
 20
97.29
  0
LWPOLYLINE
  5
F8
330
1F
100
AcDbEntity
  8
Layer 1
 62
     7
370
    20
100
AcDbPolyline
 90
       33
 70
     1
 43
0.0
 10
-733.4357
 20
95.9633
 10
-733.3055
 20
95.9498
 10
-733.1842
 20
95.9112
 10
-733.0744
 20
95.8501
 10
-732.9788
 20
95.7691
 10
-732.8999
 20
95.6709
 10
-732.8403
 20
95.5583
 10
-732.8026
 20
95.4337
 10
-732.7895
 20
95.3
 10
-732.8026
 20
95.1665
 10
-732.8403
 20
95.0421
 10
-732.8999
 20
94.9296
 10
-732.9788
 20
94.8315
 10
-733.0744
 20
94.7506
 10
-733.1842
 20
94.6895
 10
-733.3055
 20
94.6509
 10
-733.4357
 20
94.6374
 10
-733.5659
 20
94.6509
 10
-733.6873
 20
94.6895
 10
-733.797
 20
94.7506
 10
-733.8927
 20
94.8315
 10
-733.9716
 20
94.9296
 10
-734.0312
 20
95.0421
 10
-734.0689
 20
95.1665
 10
-734.082
 20
95.3
 10
-734.0689
 20
95.4337
 10
-734.0312
 20
95.5583
 10
-733.9716
 20
95.6709
 10
-733.8927
 20
95.7691
 10
-733.797
 20
95.8501
 10
-733.6873
 20
95.9112
 10
-733.5659
 20
95.9498
 10
-733.4357
 20
95.9633
  0
LWPOLYLINE
  5
F9
330
1F
100
AcDbEntity
  8
Layer 1
 62
     7
370
    20
100
AcDbPolyline
 90
       33
 70
     1
 43
0.0
 10
-733.5879
 20
93.0077
 10
-733.4577
 20
92.9942
 10
-733.3364
 20
92.9556
 10
-733.2266
 20
92.8945
 10
-733.131
 20
92.8135
 10
-733.0521
 20
92.7153
 10
-732.9925
 20
92.6027
 10
-732.9548
 20
92.4781
 10
-732.9417
 20
92.3444
 10
-732.9548
 20
92.2107
 10
-732.9925
 20
92.0861
 10
-733.0521
 20
91.9735
 10
-733.131
 20
91.8753
 10
-733.2266
 20
91.7943
 10
-733.3364
 20
91.7332
 10
-733.4577
 20
91.6946
 10
-733.5879
 20
91.6811
 10
-733.7181
 20
91.6946
 10
-733.8395
 20
91.7332
 10
-733.9492
 20
91.7943
 10
-734.0449
 20
91.8753
 10
-734.1238
 20
91.9735
 10
-734.1834
 20
92.0861
 10
-734.2211
 20
92.2107
 10
-734.2342
 20
92.3444
 10
-734.2211
 20
92.4781
 10
-734.1834
 20
92.6027
 10
-734.1238
 20
92.7153
 10
-734.0449
 20
92.8135
 10
-733.9492
 20
92.8945
 10
-733.8395
 20
92.9556
 10
-733.7181
 20
92.9942
 10
-733.5879
 20
93.0077
  0
LWPOLYLINE
  5
FA
330
1F
100
AcDbEntity
  8
Layer 1
 62
     7
370
    20
100
AcDbPolyline
 90
       33
 70
     1
 43
0.0
 10
-731.0022
 20
91.5678
 10
-730.872
 20
91.5543
 10
-730.7506
 20
91.5156
 10
-730.6409
 20
91.4544
 10
-730.5452
 20
91.3733
 10
-730.4663
 20
91.2751
 10
-730.4067
 20
91.1624
 10
-730.369
 20
91.038
 10
-730.3559
 20
90.9045
 10
-730.369
 20
90.7708
 10
-730.4067
 20
90.6462
 10
-730.4663
 20
90.5335
 10
-730.5452
 20
90.4354
 10
-730.6409
 20
90.3544
 10
-730.7506
 20
90.2932
 10
-730.872
 20
90.2546
 10
-731.0022
 20
90.2411
 10
-731.1324
 20
90.2546
 10
-731.2537
 20
90.2932
 10
-731.3635
 20
90.3544
 10
-731.4591
 20
90.4354
 10
-731.538
 20
90.5335
 10
-731.5976
 20
90.6462
 10
-731.6353
 20
90.7708
 10
-731.6484
 20
90.9045
 10
-731.6353
 20
91.038
 10
-731.5976
 20
91.1624
 10
-731.538
 20
91.2751
 10
-731.4591
 20
91.3733
 10
-731.3635
 20
91.4544
 10
-731.2537
 20
91.5156
 10
-731.1324
 20
91.5543
 10
-731.0022
 20
91.5678
  0
LWPOLYLINE
  5
FB
330
1F
100
AcDbEntity
  8
Layer 1
 62
     7
370
    20
100
AcDbPolyline
 90
       33
 70
     1
 43
0.0
 10
-728.1885
 20
95.4331
 10
-728.0582
 20
95.4196
 10
-727.9369
 20
95.381
 10
-727.827
 20
95.3198
 10
-727.7312
 20
95.2388
 10
-727.6522
 20
95.1407
 10
-727.5925
 20
95.028
 10
-727.5548
 20
94.9034
 10
-727.5416
 20
94.7697
 10
-727.5548
 20
94.636
 10
-727.5925
 20
94.5115
 10
-727.6522
 20
94.3988
 10
-727.7312
 20
94.3007
 10
-727.827
 20
94.2197
 10
-727.9369
 20
94.1585
 10
-728.0582
 20
94.1199
 10
-728.1885
 20
94.1064
 10
-728.3187
 20
94.1199
 10
-728.4401
 20
94.1585
 10
-728.5498
 20
94.2197
 10
-728.6455
 20
94.3007
 10
-728.7244
 20
94.3988
 10
-728.784
 20
94.5115
 10
-728.8217
 20
94.636
 10
-728.8348
 20
94.7697
 10
-728.8217
 20
94.9034
 10
-728.784
 20
95.028
 10
-728.7244
 20
95.1407
 10
-728.6455
 20
95.2388
 10
-728.5498
 20
95.3198
 10
-728.4401
 20
95.381
 10
-728.3187
 20
95.4196
 10
-728.1885
 20
95.4331
  0
LWPOLYLINE
  5
FC
330
1F
100
AcDbEntity
  8
Layer 1
 62
     7
370
    20
100
AcDbPolyline
 90
       33
 70
     1
 43
0.0
 10
-726.1726
 20
93.1592
 10
-726.0424
 20
93.1457
 10
-725.9211
 20
93.1071
 10
-725.8113
 20
93.046
 10
-725.7157
 20
92.965
 10
-725.6368
 20
92.8668
 10
-725.5772
 20
92.7542
 10
-725.5395
 20
92.6296
 10
-725.5264
 20
92.4959
 10
-725.5395
 20
92.3622
 10
-725.5772
 20
92.2376
 10
-725.6368
 20
92.125
 10
-725.7157
 20
92.0268
 10
-725.8113
 20
91.9458
 10
-725.9211
 20
91.8847
 10
-726.0424
 20
91.8461
 10
-726.1726
 20
91.8326
 10
-726.3028
 20
91.8461
 10
-726.4242
 20
91.8847
 10
-726.5339
 20
91.9458
 10
-726.6296
 20
92.0268
 10
-726.7085
 20
92.125
 10
-726.7681
 20
92.2376
 10
-726.8058
 20
92.3622
 10
-726.8189
 20
92.4959
 10
-726.8058
 20
92.6296
 10
-726.7681
 20
92.7542
 10
-726.7085
 20
92.8668
 10
-726.6296
 20
92.965
 10
-726.5339
 20
93.046
 10
-726.4242
 20
93.1071
 10
-726.3028
 20
93.1457
 10
-726.1726
 20
93.1592
  0
LWPOLYLINE
  5
FD
330
1F
100
AcDbEntity
  8
Layer 1
 62
     7
370
    20
100
AcDbPolyline
 90
       33
 70
     1
 43
0.0
 10
-721.6099
 20
94.2579
 10
-721.4797
 20
94.2444
 10
-721.3583
 20
94.2058
 10
-721.2486
 20
94.1447
 10
-721.1529
 20
94.0638
 10
-721.074
 20
93.9657
 10
-721.0144
 20
93.8532
 10
-720.9767
 20
93.7288
 10
-720.9636
 20
93.5953
 10
-720.9767
 20
93.4616
 10
-721.0144
 20
93.337
 10
-721.074
 20
93.2244
 10
-721.1529
 20
93.1262
 10
-721.2486
 20
93.0452
 10
-721.3583
 20
92.9841
 10
-721.4797
 20
92.9455
 10
-721.6099
 20
92.932
 10
-721.7401
 20
92.9455
 10
-721.8614
 20
92.9841
 10
-721.9712
 20
93.0452
 10
-722.0668
 20
93.1262
 10
-722.1457
 20
93.2244
 10
-722.2053
 20
93.337
 10
-722.243
 20
93.4616
 10
-722.2561
 20
93.5953
 10
-722.243
 20
93.7288
 10
-722.2053
 20
93.8532
 10
-722.1457
 20
93.9657
 10
-722.0668
 20
94.0638
 10
-721.9712
 20
94.1447
 10
-721.8614
 20
94.2058
 10
-721.7401
 20
94.2444
 10
-721.6099
 20
94.2579
  0
LWPOLYLINE
  5
FE
330
1F
100
AcDbEntity
  8
Layer 1
 62
     7
370
    20
100
AcDbPolyline
 90
       33
 70
     1
 43
0.0
 10
-732.6748
 20
88.1188
 10
-732.5448
 20
88.1053
 10
-732.4236
 20
88.0667
 10
-732.3138
 20
88.0055
 10
-732.2181
 20
87.9245
 10
-732.1391
 20
87.8264
 10
-732.0795
 20
87.7137
 10
-732.0418
 20
87.5891
 10
-732.0286
 20
87.4554
 10
-732.0418
 20
87.3217
 10
-732.0795
 20
87.1972
 10
-732.1391
 20
87.0845
 10
-732.2181
 20
86.9864
 10
-732.3138
 20
86.9054
 10
-732.4236
 20
86.8442
 10
-732.5448
 20
86.8056
 10
-732.6748
 20
86.7921
 10
-732.8051
 20
86.8056
 10
-732.9265
 20
86.8442
 10
-733.0364
 20
86.9054
 10
-733.1321
 20
86.9864
 10
-733.2112
 20
87.0845
 10
-733.2709
 20
87.1972
 10
-733.3086
 20
87.3217
 10
-733.3218
 20
87.4554
 10
-733.3086
 20
87.5891
 10
-733.2709
 20
87.7137
 10
-733.2112
 20
87.8264
 10
-733.1321
 20
87.9245
 10
-733.0364
 20
88.0055
 10
-732.9265
 20
88.0667
 10
-732.8051
 20
88.1053
 10
-732.6748
 20
88.1188
  0
LWPOLYLINE
  5
FF
330
1F
100
AcDbEntity
  8
Layer 1
 62
     7
370
    20
100
AcDbPolyline
 90
       33
 70
     1
 43
0.0
 10
-729.1391
 20
88.8387
 10
-729.0088
 20
88.8252
 10
-728.8875
 20
88.7866
 10
-728.7776
 20
88.7255
 10
-728.6818
 20
88.6445
 10
-728.6028
 20
88.5463
 10
-728.5431
 20
88.4337
 10
-728.5054
 20
88.3091
 10
-728.4922
 20
88.1754
 10
-728.5054
 20
88.0419
 10
-728.5431
 20
87.9174
 10
-728.6028
 20
87.8048
 10
-728.6818
 20
87.7066
 10
-728.7776
 20
87.6255
 10
-728.8875
 20
87.5643
 10
-729.0088
 20
87.5256
 10
-729.1391
 20
87.5121
 10
-729.2692
 20
87.5256
 10
-729.3904
 20
87.5643
 10
-729.5002
 20
87.6255
 10
-729.5959
 20
87.7066
 10
-729.6749
 20
87.8048
 10
-729.7345
 20
87.9174
 10
-729.7722
 20
88.0419
 10
-729.7854
 20
88.1754
 10
-729.7722
 20
88.3091
 10
-729.7345
 20
88.4337
 10
-729.6749
 20
88.5463
 10
-729.5959
 20
88.6445
 10
-729.5002
 20
88.7255
 10
-729.3904
 20
88.7866
 10
-729.2692
 20
88.8252
 10
-729.1391
 20
88.8387
  0
LWPOLYLINE
  5
100
330
1F
100
AcDbEntity
  8
Layer 1
 62
     7
370
    20
100
AcDbPolyline
 90
       33
 70
     1
 43
0.0
 10
-736.5155
 20
87.8158
 10
-736.3853
 20
87.8023
 10
-736.264
 20
87.7637
 10
-736.1542
 20
87.7025
 10
-736.0586
 20
87.6215
 10
-735.9797
 20
87.5234
 10
-735.9201
 20
87.4107
 10
-735.8824
 20
87.2861
 10
-735.8693
 20
87.1524
 10
-735.8824
 20
87.0189
 10
-735.9201
 20
86.8945
 10
-735.9797
 20
86.7818
 10
-736.0586
 20
86.6836
 10
-736.1542
 20
86.6025
 10
-736.264
 20
86.5413
 10
-736.3853
 20
86.5026
 10
-736.5155
 20
86.4891
 10
-736.6458
 20
86.5026
 10
-736.7671
 20
86.5413
 10
-736.8769
 20
86.6025
 10
-736.9725
 20
86.6836
 10
-737.0514
 20
86.7818
 10
-737.111
 20
86.8945
 10
-737.1487
 20
87.0189
 10
-737.1618
 20
87.1524
 10
-737.1487
 20
87.2861
 10
-737.111
 20
87.4107
 10
-737.0514
 20
87.5234
 10
-736.9725
 20
87.6215
 10
-736.8769
 20
87.7025
 10
-736.7671
 20
87.7637
 10
-736.6458
 20
87.8023
 10
-736.5155
 20
87.8158
  0
LWPOLYLINE
  5
101
330
1F
100
AcDbEntity
  8
Layer 1
 62
     7
370
     9
100
AcDbPolyline
 90
        2
 70
     0
 43
0.0
 10
-707.4595
 20
109.037
 10
-691.1674
 20
61.1188
  0
LWPOLYLINE
  5
102
330
1F
100
AcDbEntity
  8
Layer 1
 62
     7
370
     9
100
AcDbPolyline
 90
        2
 70
     0
 43
0.0
 10
-791.9669
 20
26.5029
 10
-690.7301
 20
61.778
  0
LWPOLYLINE
  5
103
330
1F
100
AcDbEntity
  8
Layer 1
 62
     7
370
     9
100
AcDbPolyline
 90
        7
 70
     1
 43
0.0
 10
-764.1827
 20
43.4536
 10
-763.0621
 20
43.8317
 10
-766.795
 20
54.8127
 10
-769.3876
 20
53.6164
 10
-769.0566
 20
52.6433
 10
-767.487
 20
53.1728
 10
-764.1827
 20
43.4536
  0
LWPOLYLINE
  5
104
330
1F
100
AcDbEntity
  8
Layer 1
 62
     7
370
     9
100
AcDbPolyline
 90
        7
 70
     1
 43
0.0
 10
-759.4268
 20
45.0594
 10
-758.3117
 20
57.4817
 10
-765.1497
 20
55.1723
 10
-764.7703
 20
54.0552
 10
-759.678
 20
55.7749
 10
-760.6757
 20
44.6377
 10
-759.4268
 20
45.0594
  0
LWPOLYLINE
  5
105
330
1F
100
AcDbEntity
  8
Layer 1
 62
     7
370
     9
100
AcDbPolyline
 90
       65
 70
     1
 43
0.0
 10
-752.5288
 20
53.5454
 10
-752.2876
 20
53.6155
 10
-752.0488
 20
53.6619
 10
-751.8123
 20
53.6847
 10
-751.5782
 20
53.6839
 10
-751.3465
 20
53.6595
 10
-751.117
 20
53.6116
 10
-750.8899
 20
53.5401
 10
-750.6651
 20
53.4451
 10
-750.4528
 20
53.3314
 10
-750.2579
 20
53.2013
 10
-750.0807
 20
53.0547
 10
-749.9209
 20
52.8916
 10
-749.7787
 20
52.7119
 10
-749.654
 20
52.5157
 10
-749.5468
 20
52.3028
 10
-749.4572
 20
52.0734
 10
-749.3891
 20
51.8394
 10
-749.3442
 20
51.6062
 10
-749.3224
 20
51.3739
 10
-749.3237
 20
51.1423
 10
-749.3481
 20
50.9116
 10
-749.3957
 20
50.6816
 10
-749.4664
 20
50.4524
 10
-749.5602
 20
50.224
 10
-749.6741
 20
50.0064
 10
-749.8061
 20
49.8065
 10
-749.9562
 20
49.6244
 10
-750.1243
 20
49.4601
 10
-750.3104
 20
49.3135
 10
-750.5146
 20
49.1847
 10
-750.7368
 20
49.0737
 10
-750.977
 20
48.9806
 10
-751.2245
 20
48.9092
 10
-751.4684
 20
48.8628
 10
-751.7089
 20
48.8414
 10
-751.9459
 20
48.845
 10
-752.1794
 20
48.8736
 10
-752.4094
 20
48.9273
 10
-752.636
 20
49.0059
 10
-752.8591
 20
49.1096
 10
-753.0731
 20
49.2341
 10
-753.2692
 20
49.3733
 10
-753.4474
 20
49.5272
 10
-753.6077
 20
49.6957
 10
-753.7501
 20
49.8788
 10
-753.8746
 20
50.0766
 10
-753.9811
 20
50.289
 10
-754.0697
 20
50.5161
 10
-754.1386
 20
50.7523
 10
-754.1834
 20
50.9861
 10
-754.2041
 20
51.2173
 10
-754.2008
 20
51.4461
 10
-754.1735
 20
51.6724
 10
-754.1222
 20
51.8961
 10
-754.0469
 20
52.1174
 10
-753.9476
 20
52.3362
 10
-753.8269
 20
52.5481
 10
-753.69
 20
52.7426
 10
-753.5369
 20
52.9197
 10
-753.3677
 20
53.0795
 10
-753.1822
 20
53.2219
 10
-752.9806
 20
53.347
 10
-752.7628
 20
53.4549
 10
-752.5288
 20
53.5454
  0
LWPOLYLINE
  5
106
330
1F
100
AcDbEntity
  8
Layer 1
 62
     7
370
     9
100
AcDbPolyline
 90
       65
 70
     1
 43
0.0
 10
-754.0261
 20
57.9498
 10
-753.8318
 20
58.0066
 10
-753.6394
 20
58.045
 10
-753.4488
 20
58.065
 10
-753.2601
 20
58.0665
 10
-753.0732
 20
58.0496
 10
-752.8881
 20
58.0143
 10
-752.7048
 20
57.9606
 10
-752.5233
 20
57.8884
 10
-752.3463
 20
57.7982
 10
-752.1841
 20
57.6943
 10
-752.0368
 20
57.5768
 10
-751.9045
 20
57.4457
 10
-751.787
 20
57.3009
 10
-751.6843
 20
57.1425
 10
-751.5965
 20
56.9705
 10
-751.5236
 20
56.7849
 10
-751.4696
 20
56.5974
 10
-751.4352
 20
56.4099
 10
-751.4203
 20
56.2225
 10
-751.4249
 20
56.0352
 10
-751.4491
 20
55.848
 10
-751.4928
 20
55.6609
 10
-751.5561
 20
55.4739
 10
-751.6389
 20
55.287
 10
-751.7356
 20
55.1125
 10
-751.8455
 20
54.9525
 10
-751.9687
 20
54.807
 10
-752.1052
 20
54.6758
 10
-752.2549
 20
54.5591
 10
-752.4178
 20
54.4568
 10
-752.594
 20
54.3689
 10
-752.7834
 20
54.2954
 10
-752.9786
 20
54.2389
 10
-753.1722
 20
54.2019
 10
-753.3641
 20
54.1844
 10
-753.5543
 20
54.1864
 10
-753.7427
 20
54.208
 10
-753.9293
 20
54.249
 10
-754.1141
 20
54.3095
 10
-754.297
 20
54.3896
 10
-754.4769
 20
54.4877
 10
-754.6413
 20
54.5978
 10
-754.7903
 20
54.7198
 10
-754.9238
 20
54.8538
 10
-755.0419
 20
54.9996
 10
-755.1444
 20
55.1575
 10
-755.2314
 20
55.3272
 10
-755.3029
 20
55.5088
 10
-755.3583
 20
55.7004
 10
-755.3935
 20
55.8901
 10
-755.4085
 20
56.0781
 10
-755.4034
 20
56.2643
 10
-755.3781
 20
56.4486
 10
-755.3326
 20
56.6312
 10
-755.2671
 20
56.812
 10
-755.1814
 20
56.991
 10
-755.0814
 20
57.1583
 10
-754.9687
 20
57.312
 10
-754.8434
 20
57.4521
 10
-754.7053
 20
57.5787
 10
-754.5546
 20
57.6918
 10
-754.3912
 20
57.7913
 10
-754.215
 20
57.8773
 10
-754.0261
 20
57.9498
  0
LWPOLYLINE
  5
107
330
1F
100
AcDbEntity
  8
Layer 1
 62
     7
370
     9
100
AcDbPolyline
 90
      121
 70
     1
 43
0.0
 10
-750.5968
 20
47.8635
 10
-750.2347
 20
48.0013
 10
-749.8967
 20
48.1618
 10
-749.5828
 20
48.345
 10
-749.293
 20
48.5509
 10
-749.0275
 20
48.7795
 10
-748.7861
 20
49.0309
 10
-748.569
 20
49.3049
 10
-748.3762
 20
49.6017
 10
-748.2941
 20
49.7503
 10
-748.2205
 20
49.9021
 10
-748.1552
 20
50.0573
 10
-748.0983
 20
50.2158
 10
-748.0497
 20
50.3776
 10
-748.0096
 20
50.5426
 10
-747.9779
 20
50.711
 10
-747.9545
 20
50.8826
 10
-747.9406
 20
51.0569
 10
-747.9373
 20
51.2338
 10
-747.9447
 20
51.4133
 10
-747.9627
 20
51.5954
 10
-747.9913
 20
51.78
 10
-748.0305
 20
51.9672
 10
-748.0803
 20
52.1569
 10
-748.1408
 20
52.3491
 10
-748.2139
 20
52.54
 10
-748.3015
 20
52.7255
 10
-748.4038
 20
52.9053
 10
-748.5206
 20
53.0797
 10
-748.6521
 20
53.2485
 10
-748.7982
 20
53.4119
 10
-748.959
 20
53.5698
 10
-749.1344
 20
53.7222
 10
-749.3218
 20
53.8653
 10
-749.519
 20
53.9954
 10
-749.7261
 20
54.1124
 10
-749.9429
 20
54.2163
 10
-750.1695
 20
54.3073
 10
-750.4059
 20
54.3852
 10
-750.6521
 20
54.4502
 10
-750.908
 20
54.5022
 10
-750.6959
 20
54.8749
 10
-750.5262
 20
55.2397
 10
-750.399
 20
55.5966
 10
-750.3143
 20
55.9456
 10
-750.2721
 20
56.2867
 10
-750.2723
 20
56.6199
 10
-750.3151
 20
56.9452
 10
-750.4003
 20
57.2626
 10
-750.5182
 20
57.5638
 10
-750.6592
 20
57.8415
 10
-750.823
 20
58.0956
 10
-751.0099
 20
58.3262
 10
-751.2197
 20
58.5332
 10
-751.4525
 20
58.7167
 10
-751.7083
 20
58.8767
 10
-751.987
 20
59.0131
 10
-752.2681
 20
59.1183
 10
-752.5551
 20
59.1948
 10
-752.848
 20
59.2426
 10
-753.1468
 20
59.2617
 10
-753.4514
 20
59.2522
 10
-753.7619
 20
59.2139
 10
-754.0784
 20
59.147
 10
-754.4007
 20
59.0513
 10
-754.7149
 20
58.9319
 10
-755.007
 20
58.7933
 10
-755.2769
 20
58.6355
 10
-755.5247
 20
58.4585
 10
-755.7503
 20
58.2622
 10
-755.9538
 20
58.0468
 10
-756.1352
 20
57.8121
 10
-756.2945
 20
57.5581
 10
-756.4325
 20
57.281
 10
-756.538
 20
56.9996
 10
-756.611
 20
56.7136
 10
-756.6514
 20
56.4231
 10
-756.6593
 20
56.128
 10
-756.6348
 20
55.8284
 10
-756.5778
 20
55.5242
 10
-756.4883
 20
55.2153
 10
-756.3618
 20
54.9099
 10
-756.1969
 20
54.6242
 10
-755.9935
 20
54.3581
 10
-755.7516
 20
54.1118
 10
-755.4712
 20
53.8851
 10
-755.1523
 20
53.6781
 10
-754.7948
 20
53.4907
 10
-754.3987
 20
53.323
 10
-754.5704
 20
53.1268
 10
-754.7264
 20
52.9261
 10
-754.8666
 20
52.721
 10
-754.991
 20
52.5114
 10
-755.0997
 20
52.2974
 10
-755.1927
 20
52.079
 10
-755.27
 20
51.8563
 10
-755.3316
 20
51.6292
 10
-755.3775
 20
51.4015
 10
-755.4083
 20
51.1777
 10
-755.424
 20
50.9576
 10
-755.4245
 20
50.7413
 10
-755.4098
 20
50.5287
 10
-755.3798
 20
50.3198
 10
-755.3347
 20
50.1145
 10
-755.2742
 20
49.9128
 10
-755.1368
 20
49.562
 10
-754.9725
 20
49.2395
 10
-754.7812
 20
48.9453
 10
-754.5629
 20
48.6793
 10
-754.3176
 20
48.4415
 10
-754.0454
 20
48.232
 10
-753.7462
 20
48.0507
 10
-753.4201
 20
47.8976
 10
-753.0858
 20
47.7791
 10
-752.7462
 20
47.6932
 10
-752.4013
 20
47.6399
 10
-752.0512
 20
47.6193
 10
-751.6956
 20
47.6313
 10
-751.3348
 20
47.676
 10
-750.9685
 20
47.7534
 10
-750.5968
 20
47.8635
  0
LWPOLYLINE
  5
108
330
1F
100
AcDbEntity
  8
Layer 1
 62
     7
370
     9
100
AcDbPolyline
 90
      162
 70
     1
 43
0.0
 10
-731.989
 20
54.3609
 10
-730.8684
 20
54.739
 10
-732.3609
 20
59.1284
 10
-732.469
 20
59.4166
 10
-732.5908
 20
59.6851
 10
-732.7262
 20
59.9337
 10
-732.8753
 20
60.1625
 10
-733.0379
 20
60.3715
 10
-733.2142
 20
60.5605
 10
-733.4041
 20
60.7296
 10
-733.6077
 20
60.8788
 10
-733.7159
 20
60.9463
 10
-733.8272
 20
61.0074
 10
-733.9415
 20
61.0622
 10
-734.059
 20
61.1107
 10
-734.1795
 20
61.1528
 10
-734.3033
 20
61.1886
 10
-734.4302
 20
61.2181
 10
-734.5604
 20
61.2412
 10
-734.6954
 20
61.256
 10
-734.837
 20
61.2606
 10
-734.9852
 20
61.2549
 10
-735.1399
 20
61.239
 10
-735.3012
 20
61.2127
 10
-735.4692
 20
61.1762
 10
-735.6437
 20
61.1293
 10
-735.8249
 20
61.072
 10
-736.0039
 20
61.0045
 10
-736.173
 20
60.9266
 10
-736.332
 20
60.8381
 10
-736.4811
 20
60.7392
 10
-736.6202
 20
60.6297
 10
-736.7493
 20
60.5097
 10
-736.8684
 20
60.3791
 10
-736.9776
 20
60.238
 10
-737.0685
 20
60.1036
 10
-737.1515
 20
59.9641
 10
-737.2266
 20
59.8194
 10
-737.2938
 20
59.6698
 10
-737.3531
 20
59.5153
 10
-737.4047
 20
59.356
 10
-737.4485
 20
59.192
 10
-737.4846
 20
59.0233
 10
-737.5937
 20
59.1308
 10
-737.7073
 20
59.232
 10
-737.8251
 20
59.3262
 10
-737.9473
 20
59.413
 10
-738.0554
 20
59.4806
 10
-738.1666
 20
59.5419
 10
-738.281
 20
59.5967
 10
-738.3986
 20
59.6451
 10
-738.5194
 20
59.6871
 10
-738.6433
 20
59.7228
 10
-738.7704
 20
59.7522
 10
-738.9006
 20
59.7753
 10
-739.0357
 20
59.7904
 10
-739.1773
 20
59.7951
 10
-739.3254
 20
59.7894
 10
-739.48
 20
59.7735
 10
-739.6412
 20
59.7472
 10
-739.8089
 20
59.7107
 10
-739.9831
 20
59.6639
 10
-740.1638
 20
59.6068
 10
-740.3433
 20
59.5393
 10
-740.5126
 20
59.4613
 10
-740.6718
 20
59.3728
 10
-740.8209
 20
59.2738
 10
-740.9601
 20
59.1642
 10
-741.0892
 20
59.0442
 10
-741.2085
 20
58.9138
 10
-741.3178
 20
58.7729
 10
-741.4041
 20
58.6446
 10
-741.4834
 20
58.5119
 10
-741.5556
 20
58.375
 10
-741.6208
 20
58.2337
 10
-741.679
 20
58.088
 10
-741.7301
 20
57.9379
 10
-741.7742
 20
57.7833
 10
-741.8112
 20
57.6243
 10
-742.192
 20
58.7442
 10
-743.3126
 20
58.3654
 10
-740.9254
 20
51.3432
 10
-739.8042
 20
51.7213
 10
-741.0264
 20
55.315
 10
-741.0715
 20
55.5333
 10
-741.1058
 20
55.7462
 10
-741.1293
 20
55.9535
 10
-741.1422
 20
56.1556
 10
-741.1443
 20
56.3523
 10
-741.1357
 20
56.5437
 10
-741.1165
 20
56.73
 10
-741.0865
 20
56.9112
 10
-741.0568
 20
57.043
 10
-741.0199
 20
57.1717
 10
-740.9759
 20
57.2972
 10
-740.9247
 20
57.4197
 10
-740.8662
 20
57.5389
 10
-740.8006
 20
57.655
 10
-740.7278
 20
57.7679
 10
-740.6477
 20
57.8775
 10
-740.5617
 20
57.9819
 10
-740.4705
 20
58.0779
 10
-740.3742
 20
58.1656
 10
-740.2728
 20
58.2449
 10
-740.1662
 20
58.3159
 10
-740.0547
 20
58.3785
 10
-739.9381
 20
58.4328
 10
-739.8165
 20
58.4787
 10
-739.6956
 20
58.517
 10
-739.5811
 20
58.5478
 10
-739.4729
 20
58.5711
 10
-739.3712
 20
58.587
 10
-739.2759
 20
58.5955
 10
-739.187
 20
58.5964
 10
-739.1044
 20
58.5897
 10
-739.0283
 20
58.5756
 10
-738.8265
 20
58.5113
 10
-738.6392
 20
58.4193
 10
-738.4665
 20
58.2995
 10
-738.3083
 20
58.1519
 10
-738.1647
 20
57.9767
 10
-738.0358
 20
57.7737
 10
-737.9214
 20
57.5429
 10
-737.8217
 20
57.2845
 10
-736.3292
 20
52.8951
 10
-735.2087
 20
53.2738
 10
-736.7005
 20
57.6632
 10
-736.8001
 20
57.9294
 10
-736.7469
 20
58.3764
 10
-736.7172
 20
58.5082
 10
-736.6803
 20
58.6369
 10
-736.6363
 20
58.7625
 10
-736.585
 20
58.885
 10
-736.5265
 20
59.0043
 10
-736.4607
 20
59.1205
 10
-736.3877
 20
59.2335
 10
-736.3074
 20
59.3434
 10
-736.2214
 20
59.4477
 10
-736.1303
 20
59.5437
 10
-736.0341
 20
59.6313
 10
-735.9328
 20
59.7105
 10
-735.8265
 20
59.7815
 10
-735.715
 20
59.8441
 10
-735.5985
 20
59.8985
 10
-735.4769
 20
59.9446
 10
-735.356
 20
59.9828
 10
-735.2415
 20
60.0136
 10
-735.1333
 20
60.0369
 10
-735.0316
 20
60.0527
 10
-734.9363
 20
60.061
 10
-734.8474
 20
60.062
 10
-734.7648
 20
60.0554
 10
-734.6887
 20
60.0415
 10
-734.4869
 20
59.9772
 10
-734.2996
 20
59.8851
 10
-734.1268
 20
59.7652
 10
-733.9686
 20
59.6176
 10
-733.825
 20
59.4422
 10
-733.6959
 20
59.2392
 10
-733.5814
 20
59.0086
 10
-733.4815
 20
58.7503
 10
-731.989
 20
54.3609
  0
LWPOLYLINE
  5
109
330
1F
100
AcDbEntity
  8
Layer 1
 62
     7
370
     9
100
AcDbPolyline
 90
      162
 70
     1
 43
0.0
 10
-719.7707
 20
58.4876
 10
-718.6502
 20
58.8657
 10
-720.142
 20
63.2551
 10
-720.2501
 20
63.5433
 10
-720.3719
 20
63.8117
 10
-720.5073
 20
64.0602
 10
-720.6564
 20
64.2889
 10
-720.819
 20
64.4977
 10
-720.9953
 20
64.6866
 10
-721.1852
 20
64.8557
 10
-721.3888
 20
65.0048
 10
-721.497
 20
65.0725
 10
-721.6084
 20
65.1337
 10
-721.7228
 20
65.1886
 10
-721.8404
 20
65.2371
 10
-721.9611
 20
65.2792
 10
-722.0849
 20
65.315
 10
-722.2119
 20
65.3446
 10
-722.3421
 20
65.3679
 10
-722.4772
 20
65.3827
 10
-722.6188
 20
65.3872
 10
-722.7669
 20
65.3815
 10
-722.9216
 20
65.3654
 10
-723.0828
 20
65.3391
 10
-723.2506
 20
65.3025
 10
-723.425
 20
65.2557
 10
-723.606
 20
65.1986
 10
-723.7852
 20
65.1312
 10
-723.9543
 20
65.0532
 10
-724.1134
 20
64.9648
 10
-724.2625
 20
64.8658
 10
-724.4016
 20
64.7564
 10
-724.5307
 20
64.6363
 10
-724.65
 20
64.5058
 10
-724.7593
 20
64.3647
 10
-724.85
 20
64.2301
 10
-724.9329
 20
64.0904
 10
-725.0078
 20
63.9458
 10
-725.0749
 20
63.7962
 10
-725.1343
 20
63.6416
 10
-725.1858
 20
63.4823
 10
-725.2296
 20
63.3181
 10
-725.2657
 20
63.1493
 10
-725.3749
 20
63.2572
 10
-725.4886
 20
63.3586
 10
-725.6065
 20
63.4528
 10
-725.7284
 20
63.5396
 10
-725.8364
 20
63.6071
 10
-725.9477
 20
63.6682
 10
-726.0621
 20
63.723
 10
-726.1797
 20
63.7715
 10
-726.3005
 20
63.8136
 10
-726.4244
 20
63.8494
 10
-726.5515
 20
63.8789
 10
-726.6817
 20
63.902
 10
-726.8168
 20
63.9168
 10
-726.9584
 20
63.9214
 10
-727.1065
 20
63.9158
 10
-727.2612
 20
63.8999
 10
-727.4224
 20
63.8737
 10
-727.5902
 20
63.8372
 10
-727.7646
 20
63.7905
 10
-727.9456
 20
63.7334
 10
-728.1248
 20
63.6657
 10
-728.294
 20
63.5877
 10
-728.4532
 20
63.4991
 10
-728.6023
 20
63.4001
 10
-728.7415
 20
63.2905
 10
-728.8706
 20
63.1705
 10
-728.9897
 20
63.0399
 10
-729.0989
 20
62.8988
 10
-729.1854
 20
62.7707
 10
-729.2649
 20
62.6383
 10
-729.3372
 20
62.5015
 10
-729.4025
 20
62.3602
 10
-729.4607
 20
62.2146
 10
-729.5119
 20
62.0645
 10
-729.556
 20
61.91
 10
-729.593
 20
61.751
 10
-729.9738
 20
62.8702
 10
-731.0943
 20
62.4921
 10
-728.7065
 20
55.4692
 10
-727.5859
 20
55.848
 10
-728.8075
 20
59.4416
 10
-728.8525
 20
59.6597
 10
-728.8868
 20
59.8724
 10
-728.9104
 20
60.0797
 10
-728.9233
 20
60.2816
 10
-728.9255
 20
60.4783
 10
-728.9171
 20
60.6697
 10
-728.8979
 20
60.856
 10
-728.8682
 20
61.0372
 10
-728.8383
 20
61.1692
 10
-728.8013
 20
61.298
 10
-728.7571
 20
61.4236
 10
-728.7058
 20
61.546
 10
-728.6473
 20
61.6653
 10
-728.5816
 20
61.7814
 10
-728.5088
 20
61.8944
 10
-728.4287
 20
62.0042
 10
-728.3427
 20
62.1085
 10
-728.2516
 20
62.2045
 10
-728.1553
 20
62.2921
 10
-728.0539
 20
62.3713
 10
-727.9475
 20
62.4423
 10
-727.836
 20
62.5049
 10
-727.7196
 20
62.5593
 10
-727.5982
 20
62.6054
 10
-727.4771
 20
62.6436
 10
-727.3625
 20
62.6744
 10
-727.2543
 20
62.6977
 10
-727.1526
 20
62.7135
 10
-727.0573
 20
62.7218
 10
-726.9683
 20
62.7228
 10
-726.8856
 20
62.7162
 10
-726.8093
 20
62.7023
 10
-726.6075
 20
62.638
 10
-726.4203
 20
62.5459
 10
-726.2477
 20
62.426
 10
-726.0896
 20
62.2784
 10
-725.9461
 20
62.103
 10
-725.8171
 20
61.9
 10
-725.7027
 20
61.6694
 10
-725.6028
 20
61.4111
 10
-724.1103
 20
57.0217
 10
-722.9898
 20
57.3998
 10
-724.4822
 20
61.7892
 10
-724.5812
 20
62.0553
 10
-724.528
 20
62.503
 10
-724.4985
 20
62.6348
 10
-724.4617
 20
62.7635
 10
-724.4177
 20
62.8891
 10
-724.3664
 20
63.0116
 10
-724.3079
 20
63.131
 10
-724.2421
 20
63.2472
 10
-724.1692
 20
63.3602
 10
-724.0891
 20
63.47
 10
-724.0031
 20
63.5741
 10
-723.9119
 20
63.67
 10
-723.8156
 20
63.7576
 10
-723.7142
 20
63.8369
 10
-723.6077
 20
63.9079
 10
-723.4961
 20
63.9707
 10
-723.3795
 20
64.0251
 10
-723.2579
 20
64.0713
 10
-723.1372
 20
64.1093
 10
-723.0228
 20
64.14
 10
-722.9147
 20
64.1632
 10
-722.8129
 20
64.1791
 10
-722.7175
 20
64.1875
 10
-722.6285
 20
64.1885
 10
-722.5459
 20
64.1821
 10
-722.4697
 20
64.1682
 10
-722.2679
 20
64.1039
 10
-722.0806
 20
64.0117
 10
-721.9079
 20
63.8918
 10
-721.7498
 20
63.7441
 10
-721.6062
 20
63.5687
 10
-721.4773
 20
63.3656
 10
-721.3629
 20
63.1348
 10
-721.2632
 20
62.8763
 10
-719.7707
 20
58.4876
  0
LWPOLYLINE
  5
10A
330
1F
100
AcDbEntity
  8
Layer 1
 62
     7
370
     9
100
AcDbPolyline
 90
        2
 70
     0
 43
0.0
 10
-806.474
 20
69.2331
 10
-790.7708
 20
22.3416
  0
ENDSEC
  0
SECTION
  2
OBJECTS
  0
DICTIONARY
  5
C
330
0
100
AcDbDictionary
281
     1
  3
ACAD_DETAILVIEWSTYLE
350
112
  3
ACAD_GROUP
350
D
  3
ACAD_LAYOUT
350
1A
  3
ACAD_MATERIAL
350
43
  3
ACAD_MLEADERSTYLE
350
5B
  3
ACAD_MLINESTYLE
350
17
  3
ACAD_PLOTSETTINGS
350
19
  3
ACAD_PLOTSTYLENAME
350
E
  3
ACAD_SCALELIST
350
47
  3
ACAD_SECTIONVIEWSTYLE
350
113
  3
ACAD_TABLESTYLE
350
59
  3
ACAD_VISUALSTYLE
350
2A
  3
ACDB_RECOMPOSE_DATA
350
10F
  3
AcDbVariableDictionary
350
10B
  0
SUN
  5
5D
330
29
100
AcDbSun
 90
        1
290
     0
 63
     7
421
 16777215
 40
1.0
291
     1
 91
  2455826
 92
 54000000
292
     0
 70
     2
 71
   256
280
     1
  0
DICTIONARY
  5
112
102
{ACAD_REACTORS
330
C
102
}
330
C
100
AcDbDictionary
281
     1
  0
DICTIONARY
  5
D
102
{ACAD_REACTORS
330
C
102
}
330
C
100
AcDbDictionary
281
     1
  0
DICTIONARY
  5
1A
102
{ACAD_REACTORS
330
C
102
}
330
C
100
AcDbDictionary
281
     1
  3
Layout1
350
1E
  3
Layout2
350
26
  3
Model
350
22
  0
DICTIONARY
  5
43
102
{ACAD_REACTORS
330
C
102
}
330
C
100
AcDbDictionary
281
     1
  3
ByBlock
350
45
  3
ByLayer
350
44
  3
Global
350
46
  0
DICTIONARY
  5
5B
102
{ACAD_REACTORS
330
C
102
}
330
C
100
AcDbDictionary
281
     1
  3
Standard
350
5C
  0
DICTIONARY
  5
17
102
{ACAD_REACTORS
330
C
102
}
330
C
100
AcDbDictionary
281
     1
  3
Standard
350
18
  0
DICTIONARY
  5
19
102
{ACAD_REACTORS
330
C
102
}
330
C
100
AcDbDictionary
281
     1
  0
ACDBDICTIONARYWDFLT
  5
E
102
{ACAD_REACTORS
330
C
102
}
330
C
100
AcDbDictionary
281
     1
  3
Normal
350
F
100
AcDbDictionaryWithDefault
340
F
  0
DICTIONARY
  5
47
102
{ACAD_REACTORS
330
C
102
}
330
C
100
AcDbDictionary
281
     1
  3
A0
350
48
  3
A1
350
49
  3
A2
350
4A
  3
A3
350
4B
  3
A4
350
4C
  3
A5
350
4D
  3
A6
350
4E
  3
A7
350
4F
  3
A8
350
50
  3
A9
350
51
  3
B1
350
52
  3
B2
350
53
  3
B3
350
54
  3
B4
350
55
  3
B5
350
56
  3
B6
350
57
  3
B7
350
58
  0
DICTIONARY
  5
113
102
{ACAD_REACTORS
330
C
102
}
330
C
100
AcDbDictionary
281
     1
  0
DICTIONARY
  5
59
102
{ACAD_REACTORS
330
C
102
}
330
C
100
AcDbDictionary
281
     1
  3
Standard
350
5A
  0
DICTIONARY
  5
2A
102
{ACAD_REACTORS
330
C
102
}
330
C
100
AcDbDictionary
281
     1
  3
2dWireframe
350
2F
  3
Basic
350
32
  3
Brighten
350
36
  3
ColorChange
350
3A
  3
Conceptual
350
34
  3
Dim
350
35
  3
EdgeColorOff
350
3D
  3
Facepattern
350
39
  3
Flat
350
2B
  3
FlatWithEdges
350
2C
  3
Gouraud
350
2D
  3
GouraudWithEdges
350
2E
  3
Hidden
350
31
  3
JitterOff
350
3B
  3
Linepattern
350
38
  3
OverhangOff
350
3C
  3
Realistic
350
33
  3
Shaded
350
42
  3
Shaded with edges
350
41
  3
Shades of Gray
350
3E
  3
Sketchy
350
3F
  3
Thicken
350
37
  3
Wireframe
350
30
  3
X-Ray
350
40
  0
XRECORD
  5
10F
102
{ACAD_REACTORS
330
C
102
}
330
C
100
AcDbXrecord
280
     1
 90
        1
330
5A
  0
DICTIONARY
  5
10B
102
{ACAD_REACTORS
330
C
102
}
330
C
100
AcDbDictionary
281
     1
  3
CANNOSCALE
350
10C
  3
CMLEADERSTYLE
350
111
  3
CTABLESTYLE
350
110
  0
LAYOUT
  5
1E
102
{ACAD_REACTORS
330
1A
102
}
330
1A
100
AcDbPlotSettings
  1

  2
none_device
  4

  6

 40
0.0
 41
0.0
 42
0.0
 43
0.0
 44
0.0
 45
0.0
 46
0.0
 47
0.0
 48
0.0
 49
0.0
140
0.0
141
0.0
142
1.0
143
1.0
 70
   688
 72
     0
 73
     0
 74
     5
  7

 75
    16
 76
     0
 77
     2
 78
   300
147
1.0
148
0.0
149
0.0
100
AcDbLayout
  1
Layout1
 70
     1
 71
     1
 10
0.0
 20
0.0
 11
12.0
 21
9.0
 12
0.0
 22
0.0
 32
0.0
 14
1.000000000000000E+20
 24
1.000000000000000E+20
 34
1.000000000000000E+20
 15
-1.000000000000000E+20
 25
-1.000000000000000E+20
 35
-1.000000000000000E+20
146
0.0
 13
0.0
 23
0.0
 33
0.0
 16
1.0
 26
0.0
 36
0.0
 17
0.0
 27
1.0
 37
0.0
 76
     0
330
1B
  0
LAYOUT
  5
26
102
{ACAD_REACTORS
330
1A
102
}
330
1A
100
AcDbPlotSettings
  1

  2
none_device
  4

  6

 40
0.0
 41
0.0
 42
0.0
 43
0.0
 44
0.0
 45
0.0
 46
0.0
 47
0.0
 48
0.0
 49
0.0
140
0.0
141
0.0
142
1.0
143
1.0
 70
   688
 72
     0
 73
     0
 74
     5
  7

 75
    16
 76
     0
 77
     2
 78
   300
147
1.0
148
0.0
149
0.0
100
AcDbLayout
  1
Layout2
 70
     1
 71
     2
 10
0.0
 20
0.0
 11
0.0
 21
0.0
 12
0.0
 22
0.0
 32
0.0
 14
0.0
 24
0.0
 34
0.0
 15
0.0
 25
0.0
 35
0.0
146
0.0
 13
0.0
 23
0.0
 33
0.0
 16
1.0
 26
0.0
 36
0.0
 17
0.0
 27
1.0
 37
0.0
 76
     0
330
23
  0
LAYOUT
  5
22
102
{ACAD_REACTORS
330
1A
102
}
330
1A
100
AcDbPlotSettings
  1

  2
none_device
  4
Letter_(8.50_x_11.00_Inches)
  6

 40
6.35
 41
6.35
 42
6.35000508
 43
6.35000508
 44
215.9
 45
279.4
 46
0.0
 47
0.0
 48
0.0
 49
0.0
140
0.0
141
0.0
142
1.0
143
1.0
 70
  1712
 72
     0
 73
     0
 74
     0
  7

 75
     0
 76
     0
 77
     2
 78
   300
147
1.0
148
0.0
149
0.0
100
AcDbLayout
  1
Model
 70
     1
 71
     0
 10
0.0
 20
0.0
 11
12.0
 21
9.0
 12
0.0
 22
0.0
 32
0.0
 14
-872.6585
 24
-64.9053
 34
0.0
 15
-444.1889
 25
284.0359
 35
0.0
146
0.0
 13
0.0
 23
0.0
 33
0.0
 16
1.0
 26
0.0
 36
0.0
 17
0.0
 27
1.0
 37
0.0
 76
     0
330
1F
331
29
  0
MATERIAL
  5
45
102
{ACAD_REACTORS
330
43
102
}
330
43
100
AcDbMaterial
  1
ByBlock
 72
     1
 94
      127
  0
MATERIAL
  5
44
102
{ACAD_REACTORS
330
43
102
}
330
43
100
AcDbMaterial
  1
ByLayer
 72
     1
 94
      127
  0
MATERIAL
  5
46
102
{ACAD_REACTORS
330
43
102
}
330
43
100
AcDbMaterial
  1
Global
 72
     1
 94
      127
  0
MLEADERSTYLE
  5
5C
102
{ACAD_REACTORS
330
5B
102
}
330
5B
100
AcDbMLeaderStyle
179
     2
170
     2
171
     1
172
     0
 90
        2
 40
0.0
 41
0.0
173
     1
 91
-1056964608
340
14
 92
       -2
290
     1
 42
0.09
291
     1
 43
0.36
  3
Standard
341
0
 44
0.18
300

342
11
174
     1
178
     6
175
     1
176
     0
 93
-1056964608
 45
0.18
292
     0
297
     0
 46
0.18
343
0
 94
-1056964608
 47
1.0
 49
1.0
140
1.0
293
     1
141
0.0
294
     1
177
     0
142
1.0
295
     0
296
     0
143
0.125
271
     0
272
     9
273
     9
298
     0
  0
MLINESTYLE
  5
18
102
{ACAD_REACTORS
330
17
102
}
330
17
100
AcDbMlineStyle
  2
Standard
 70
     0
  3

 62
   256
 51
90.0
 52
90.0
 71
     2
 49
0.5
 62
   256
  6
BYLAYER
 49
-0.5
 62
   256
  6
BYLAYER
  0
ACDBPLACEHOLDER
  5
F
102
{ACAD_REACTORS
330
E
102
}
330
E
  0
SCALE
  5
48
102
{ACAD_REACTORS
330
47
102
}
330
47
100
AcDbScale
 70
     0
300
1:1
140
1.0
141
1.0
290
     1
  0
SCALE
  5
49
102
{ACAD_REACTORS
330
47
102
}
330
47
100
AcDbScale
 70
     0
300
1/128" = 1'-0"
140
0.0078125
141
12.0
290
     0
  0
SCALE
  5
4A
102
{ACAD_REACTORS
330
47
102
}
330
47
100
AcDbScale
 70
     0
300
1/64" = 1'-0"
140
0.015625
141
12.0
290
     0
  0
SCALE
  5
4B
102
{ACAD_REACTORS
330
47
102
}
330
47
100
AcDbScale
 70
     0
300
1/32" = 1'-0"
140
0.03125
141
12.0
290
     0
  0
SCALE
  5
4C
102
{ACAD_REACTORS
330
47
102
}
330
47
100
AcDbScale
 70
     0
300
1/16" = 1'-0"
140
0.0625
141
12.0
290
     0
  0
SCALE
  5
4D
102
{ACAD_REACTORS
330
47
102
}
330
47
100
AcDbScale
 70
     0
300
3/32" = 1'-0"
140
0.09375
141
12.0
290
     0
  0
SCALE
  5
4E
102
{ACAD_REACTORS
330
47
102
}
330
47
100
AcDbScale
 70
     0
300
1/8" = 1'-0"
140
0.125
141
12.0
290
     0
  0
SCALE
  5
4F
102
{ACAD_REACTORS
330
47
102
}
330
47
100
AcDbScale
 70
     0
300
3/16" = 1'-0"
140
0.1875
141
12.0
290
     0
  0
SCALE
  5
50
102
{ACAD_REACTORS
330
47
102
}
330
47
100
AcDbScale
 70
     0
300
1/4" = 1'-0"
140
0.25
141
12.0
290
     0
  0
SCALE
  5
51
102
{ACAD_REACTORS
330
47
102
}
330
47
100
AcDbScale
 70
     0
300
3/8" = 1'-0"
140
0.375
141
12.0
290
     0
  0
SCALE
  5
52
102
{ACAD_REACTORS
330
47
102
}
330
47
100
AcDbScale
 70
     0
300
1/2" = 1'-0"
140
0.5
141
12.0
290
     0
  0
SCALE
  5
53
102
{ACAD_REACTORS
330
47
102
}
330
47
100
AcDbScale
 70
     0
300
3/4" = 1'-0"
140
0.75
141
12.0
290
     0
  0
SCALE
  5
54
102
{ACAD_REACTORS
330
47
102
}
330
47
100
AcDbScale
 70
     0
300
1" = 1'-0"
140
1.0
141
12.0
290
     0
  0
SCALE
  5
55
102
{ACAD_REACTORS
330
47
102
}
330
47
100
AcDbScale
 70
     0
300
1-1/2" = 1'-0"
140
1.5
141
12.0
290
     0
  0
SCALE
  5
56
102
{ACAD_REACTORS
330
47
102
}
330
47
100
AcDbScale
 70
     0
300
3" = 1'-0"
140
3.0
141
12.0
290
     0
  0
SCALE
  5
57
102
{ACAD_REACTORS
330
47
102
}
330
47
100
AcDbScale
 70
     0
300
6" = 1'-0"
140
6.0
141
12.0
290
     0
  0
SCALE
  5
58
102
{ACAD_REACTORS
330
47
102
}
330
47
100
AcDbScale
 70
     0
300
1'-0" = 1'-0"
140
12.0
141
12.0
290
     0
  0
TABLESTYLE
  5
5A
102
{ACAD_REACTORS
330
59
102
}
102
{ACAD_XDICTIONARY
360
10D
102
}
330
59
100
AcDbTableStyle
  3
Standard
 70
     0
 71
     0
 40
0.06
 41
0.06
280
     0
281
     0
  7
Standard
140
0.18
170
     2
 62
     0
 63
   257
283
     0
 90
        4
 91
        0
  1

274
    -2
284
     1
 64
     0
275
    -2
285
     1
 65
     0
276
    -2
286
     1
 66
     0
277
    -2
287
     1
 67
     0
278
    -2
288
     1
 68
     0
279
    -2
289
     1
 69
     0
  7
Standard
140
0.25
170
     5
 62
     0
 63
   257
283
     0
 90
        4
 91
        0
  1

274
    -2
284
     1
 64
     0
275
    -2
285
     1
 65
     0
276
    -2
286
     1
 66
     0
277
    -2
287
     1
 67
     0
278
    -2
288
     1
 68
     0
279
    -2
289
     1
 69
     0
  7
Standard
140
0.18
170
     5
 62
     0
 63
   257
283
     0
 90
        4
 91
        0
  1

274
    -2
284
     1
 64
     0
275
    -2
285
     1
 65
     0
276
    -2
286
     1
 66
     0
277
    -2
287
     1
 67
     0
278
    -2
288
     1
 68
     0
279
    -2
289
     1
 69
     0
  0
VISUALSTYLE
  5
2F
102
{ACAD_REACTORS
330
2A
102
}
330
2A
100
AcDbVisualStyle
  2
2dWireframe
 70
     4
177
     3
291
     0
 70
    58
 90
        0
176
     1
 90
        2
176
     1
 90
        0
176
     1
 90
        0
176
     1
 40
0.6
176
     1
 40
30.0
176
     1
 62
     7
420
 16777215
176
     1
 90
        1
176
     1
 90
        4
176
     1
 62
     7
176
     1
 62
   257
176
     1
 90
        1
176
     1
 90
        1
176
     1
 40
1.0
176
     1
 90
        0
176
     1
 62
   257
176
     1
 40
1.0
176
     1
 90
        1
176
     1
 90
        6
176
     1
 90
        2
176
     1
 62
     7
176
     1
 90
        5
176
     1
 90
        0
176
     1
 90
        0
176
     1
290
     0
176
     1
 90
        1
176
     1
 40
0.0
176
     1
 90
        0
176
     1
290
     1
176
     1
290
     1
176
     1
290
     0
176
     1
290
     0
176
     1
290
     0
176
     1
290
     0
176
     1
290
     0
176
     1
290
     0
176
     1
290
     0
176
     1
 90
       50
176
     1
 40
0.0
176
     1
 40
1.0
176
     1
 90
        0
176
     1
 62
    18
420
        0
176
     1
 90
       50
176
     1
 90
        3
176
     1
 62
     5
420
      255
176
     1
290
     0
176
     1
 90
       50
176
     1
 90
       50
176
     1
 90
       50
176
     1
290
     0
176
     1
 90
       50
176
     1
 62
   256
176
     0
 40
1.0
176
     0
 90
        2
176
     1
  1
strokes_ogs.tif
176
     1
290
     0
176
     1
 40
1.0
176
     1
 40
1.0
176
     1
  0
VISUALSTYLE
  5
32
102
{ACAD_REACTORS
330
2A
102
}
330
2A
100
AcDbVisualStyle
  2
Basic
 70
     7
177
     3
291
     1
 70
    58
 90
        1
176
     1
 90
        0
176
     1
 90
        1
176
     1
 90
        0
176
     1
 40
0.6
176
     1
 40
30.0
176
     1
 62
     7
420
 16777215
176
     1
 90
        0
176
     1
 90
        4
176
     1
 62
     7
176
     1
 62
   257
176
     1
 90
        1
176
     1
 90
        1
176
     1
 40
1.0
176
     1
 90
        8
176
     1
 62
     7
176
     1
 40
1.0
176
     1
 90
        1
176
     1
 90
        6
176
     1
 90
        2
176
     1
 62
     7
176
     1
 90
        5
176
     1
 90
        0
176
     1
 90
        0
176
     1
290
     0
176
     1
 90
        1
176
     1
 40
0.0
176
     1
 90
        0
176
     1
290
     0
176
     1
290
     1
176
     1
290
     1
176
     1
290
     0
176
     1
290
     0
176
     1
290
     0
176
     1
290
     0
176
     1
290
     0
176
     1
290
     0
176
     1
 90
       50
176
     1
 40
0.0
176
     1
 40
1.0
176
     1
 90
        0
176
     1
 62
    18
420
        0
176
     1
 90
       50
176
     1
 90
        3
176
     1
 62
     5
420
      255
176
     1
290
     0
176
     1
 90
       50
176
     1
 90
       50
176
     1
 90
       50
176
     1
290
     0
176
     1
 90
       50
176
     1
 62
   256
176
     0
 40
1.0
176
     0
 90
        2
176
     1
  1
strokes_ogs.tif
176
     1
290
     0
176
     1
 40
1.0
176
     1
 40
1.0
176
     1
  0
VISUALSTYLE
  5
36
102
{ACAD_REACTORS
330
2A
102
}
330
2A
100
AcDbVisualStyle
  2
Brighten
 70
    12
177
     3
291
     1
 70
    58
 90
        2
176
     1
 90
        2
176
     1
 90
        0
176
     1
 90
        0
176
     1
 40
0.6
176
     1
 40
30.0
176
     1
 62
     7
420
 16777215
176
     1
 90
        1
176
     1
 90
        4
176
     1
 62
     7
176
     1
 62
   257
176
     1
 90
        1
176
     1
 90
        1
176
     1
 40
1.0
176
     1
 90
        8
176
     1
 62
     7
176
     1
 40
1.0
176
     1
 90
        1
176
     1
 90
        6
176
     1
 90
        2
176
     1
 62
     7
176
     1
 90
        5
176
     1
 90
        0
176
     1
 90
        0
176
     1
290
     0
176
     1
 90
        1
176
     1
 40
50.0
176
     1
 90
        0
176
     1
290
     0
176
     1
290
     1
176
     1
290
     1
176
     1
290
     0
176
     1
290
     0
176
     1
290
     0
176
     1
290
     0
176
     1
290
     0
176
     1
290
     0
176
     1
 90
       50
176
     1
 40
0.0
176
     1
 40
1.0
176
     1
 90
        0
176
     1
 62
    18
420
        0
176
     1
 90
       50
176
     1
 90
        3
176
     1
 62
     5
420
      255
176
     1
290
     0
176
     1
 90
       50
176
     1
 90
       50
176
     1
 90
       50
176
     1
290
     0
176
     1
 90
       50
176
     1
 62
   256
176
     0
 40
1.0
176
     0
 90
        2
176
     1
  1
strokes_ogs.tif
176
     1
290
     0
176
     1
 40
1.0
176
     1
 40
1.0
176
     1
  0
VISUALSTYLE
  5
3A
102
{ACAD_REACTORS
330
2A
102
}
330
2A
100
AcDbVisualStyle
  2
ColorChange
 70
    16
177
     3
291
     1
 70
    58
 90
        2
176
     1
 90
        2
176
     1
 90
        3
176
     1
 90
        0
176
     1
 40
0.6
176
     1
 40
30.0
176
     1
 62
     8
420
  8421504
176
     1
 90
        1
176
     1
 90
        4
176
     1
 62
     7
176
     1
 62
   257
176
     1
 90
        1
176
     1
 90
        1
176
     1
 40
1.0
176
     1
 90
        8
176
     1
 62
     8
420
  8421504
176
     1
 40
1.0
176
     1
 90
        1
176
     1
 90
        6
176
     1
 90
        2
176
     1
 62
     7
176
     1
 90
        5
176
     1
 90
        0
176
     1
 90
        0
176
     1
290
     0
176
     1
 90
        1
176
     1
 40
0.0
176
     1
 90
        0
176
     1
290
     0
176
     1
290
     1
176
     1
290
     1
176
     1
290
     0
176
     1
290
     0
176
     1
290
     0
176
     1
290
     0
176
     1
290
     0
176
     1
290
     0
176
     1
 90
       50
176
     1
 40
0.0
176
     1
 40
1.0
176
     1
 90
        0
176
     1
 62
    18
420
        0
176
     1
 90
       50
176
     1
 90
        3
176
     1
 62
     5
420
      255
176
     1
290
     0
176
     1
 90
       50
176
     1
 90
       50
176
     1
 90
       50
176
     1
290
     0
176
     1
 90
       50
176
     1
 62
   256
176
     0
 40
1.0
176
     0
 90
        2
176
     1
  1
strokes_ogs.tif
176
     1
290
     0
176
     1
 40
1.0
176
     1
 40
1.0
176
     1
  0
VISUALSTYLE
  5
34
102
{ACAD_REACTORS
330
2A
102
}
330
2A
100
AcDbVisualStyle
  2
Conceptual
 70
     9
177
     3
291
     0
 70
    58
 90
        3
176
     1
 90
        2
176
     1
 90
        0
176
     1
 90
        0
176
     1
 40
0.6
176
     1
 40
30.0
176
     1
 62
     7
420
 16777215
176
     1
 90
        2
176
     1
 90
        2
176
     1
 62
     7
176
     1
 62
   257
176
     1
 90
        1
176
     1
 90
        1
176
     1
 40
179.0
176
     1
 90
        8
176
     1
 62
     7
176
     1
 40
1.0
176
     1
 90
        1
176
     1
 90
        6
176
     1
 90
        2
176
     1
 62
     7
176
     1
 90
        3
176
     1
 90
        0
176
     1
 90
        0
176
     1
290
     0
176
     1
 90
        1
176
     1
 40
0.0
176
     1
 90
        0
176
     1
290
     0
176
     1
290
     1
176
     1
290
     1
176
     1
290
     0
176
     1
290
     0
176
     1
290
     0
176
     1
290
     0
176
     1
290
     0
176
     1
290
     0
176
     1
 90
       50
176
     1
 40
0.0
176
     1
 40
1.0
176
     1
 90
        0
176
     1
 62
    18
420
        0
176
     1
 90
       50
176
     1
 90
        3
176
     1
 62
     5
420
      255
176
     1
290
     0
176
     1
 90
       50
176
     1
 90
       50
176
     1
 90
       50
176
     1
290
     0
176
     1
 90
       50
176
     1
 62
   256
176
     0
 40
1.0
176
     0
 90
        2
176
     1
  1
strokes_ogs.tif
176
     1
290
     0
176
     1
 40
1.0
176
     1
 40
1.0
176
     1
  0
VISUALSTYLE
  5
35
102
{ACAD_REACTORS
330
2A
102
}
330
2A
100
AcDbVisualStyle
  2
Dim
 70
    11
177
     3
291
     1
 70
    58
 90
        2
176
     1
 90
        2
176
     1
 90
        0
176
     1
 90
        0
176
     1
 40
0.6
176
     1
 40
30.0
176
     1
 62
     7
420
 16777215
176
     1
 90
        1
176
     1
 90
        4
176
     1
 62
     7
176
     1
 62
   257
176
     1
 90
        1
176
     1
 90
        1
176
     1
 40
1.0
176
     1
 90
        8
176
     1
 62
     7
176
     1
 40
1.0
176
     1
 90
        1
176
     1
 90
        6
176
     1
 90
        2
176
     1
 62
     7
176
     1
 90
        5
176
     1
 90
        0
176
     1
 90
        0
176
     1
290
     0
176
     1
 90
        1
176
     1
 40
-50.0
176
     1
 90
        0
176
     1
290
     0
176
     1
290
     1
176
     1
290
     1
176
     1
290
     0
176
     1
290
     0
176
     1
290
     0
176
     1
290
     0
176
     1
290
     0
176
     1
290
     0
176
     1
 90
       50
176
     1
 40
0.0
176
     1
 40
1.0
176
     1
 90
        0
176
     1
 62
    18
420
        0
176
     1
 90
       50
176
     1
 90
        3
176
     1
 62
     5
420
      255
176
     1
290
     0
176
     1
 90
       50
176
     1
 90
       50
176
     1
 90
       50
176
     1
290
     0
176
     1
 90
       50
176
     1
 62
   256
176
     0
 40
1.0
176
     0
 90
        2
176
     1
  1
strokes_ogs.tif
176
     1
290
     0
176
     1
 40
1.0
176
     1
 40
1.0
176
     1
  0
VISUALSTYLE
  5
3D
102
{ACAD_REACTORS
330
2A
102
}
330
2A
100
AcDbVisualStyle
  2
EdgeColorOff
 70
    22
177
     3
291
     1
 70
    58
 90
        2
176
     0
 90
        2
176
     0
 90
        0
176
     0
 90
        0
176
     0
 40
0.6
176
     0
 40
30.0
176
     0
 62
     7
420
 16777215
176
     0
 90
        1
176
     0
 90
        4
176
     0
 62
     7
176
     0
 62
   257
176
     0
 90
        1
176
     0
 90
        1
176
     0
 40
1.0
176
     0
 90
        8
176
     2
 62
     7
176
     0
 40
1.0
176
     0
 90
        1
176
     0
 90
        6
176
     0
 90
        2
176
     0
 62
     7
176
     0
 90
        5
176
     0
 90
        0
176
     0
 90
        0
176
     0
290
     0
176
     0
 90
        1
176
     0
 40
0.0
176
     0
 90
        0
176
     0
290
     0
176
     0
290
     1
176
     0
290
     1
176
     0
290
     0
176
     0
290
     0
176
     0
290
     0
176
     0
290
     0
176
     0
290
     0
176
     0
290
     0
176
     0
 90
       50
176
     0
 40
0.0
176
     0
 40
1.0
176
     0
 90
        0
176
     0
 62
    18
420
        0
176
     0
 90
       50
176
     0
 90
        3
176
     0
 62
     5
420
      255
176
     0
290
     0
176
     0
 90
       50
176
     0
 90
       50
176
     0
 90
       50
176
     0
290
     0
176
     0
 90
       50
176
     0
 62
   256
176
     0
 40
1.0
176
     0
 90
        2
176
     0
  1
strokes_ogs.tif
176
     0
290
     0
176
     0
 40
1.0
176
     0
 40
1.0
176
     0
  0
VISUALSTYLE
  5
39
102
{ACAD_REACTORS
330
2A
102
}
330
2A
100
AcDbVisualStyle
  2
Facepattern
 70
    15
177
     3
291
     1
 70
    58
 90
        2
176
     1
 90
        2
176
     1
 90
        0
176
     1
 90
        0
176
     1
 40
0.6
176
     1
 40
30.0
176
     1
 62
     7
420
 16777215
176
     1
 90
        1
176
     1
 90
        4
176
     1
 62
     7
176
     1
 62
   257
176
     1
 90
        1
176
     1
 90
        1
176
     1
 40
1.0
176
     1
 90
        8
176
     1
 62
     7
176
     1
 40
1.0
176
     1
 90
        1
176
     1
 90
        6
176
     1
 90
        2
176
     1
 62
     7
176
     1
 90
        5
176
     1
 90
        0
176
     1
 90
        0
176
     1
290
     0
176
     1
 90
        1
176
     1
 40
0.0
176
     1
 90
        0
176
     1
290
     0
176
     1
290
     1
176
     1
290
     1
176
     1
290
     0
176
     1
290
     0
176
     1
290
     0
176
     1
290
     0
176
     1
290
     0
176
     1
290
     0
176
     1
 90
       50
176
     1
 40
0.0
176
     1
 40
1.0
176
     1
 90
        0
176
     1
 62
    18
420
        0
176
     1
 90
       50
176
     1
 90
        3
176
     1
 62
     5
420
      255
176
     1
290
     0
176
     1
 90
       50
176
     1
 90
       50
176
     1
 90
       50
176
     1
290
     0
176
     1
 90
       50
176
     1
 62
   256
176
     0
 40
1.0
176
     0
 90
        2
176
     1
  1
strokes_ogs.tif
176
     1
290
     0
176
     1
 40
1.0
176
     1
 40
1.0
176
     1
  0
VISUALSTYLE
  5
2B
102
{ACAD_REACTORS
330
2A
102
}
330
2A
100
AcDbVisualStyle
  2
Flat
 70
     0
177
     3
291
     1
 70
    58
 90
        2
176
     1
 90
        1
176
     1
 90
        1
176
     1
 90
        2
176
     1
 40
0.6
176
     1
 40
30.0
176
     1
 62
     7
420
 16777215
176
     1
 90
        0
176
     1
 90
        0
176
     1
 62
     7
176
     1
 62
   257
176
     1
 90
        1
176
     1
 90
        1
176
     1
 40
1.0
176
     1
 90
        8
176
     1
 62
     7
176
     1
 40
1.0
176
     1
 90
        1
176
     1
 90
        6
176
     1
 90
        2
176
     1
 62
     7
176
     1
 90
        5
176
     1
 90
        0
176
     1
 90
        0
176
     1
290
     0
176
     1
 90
       13
176
     1
 40
0.0
176
     1
 90
        0
176
     1
290
     0
176
     1
290
     1
176
     1
290
     1
176
     1
290
     0
176
     1
290
     0
176
     1
290
     0
176
     1
290
     0
176
     1
290
     0
176
     1
290
     0
176
     1
 90
       50
176
     1
 40
0.0
176
     1
 40
1.0
176
     1
 90
        0
176
     1
 62
    18
420
        0
176
     1
 90
       50
176
     1
 90
        3
176
     1
 62
     5
420
      255
176
     1
290
     0
176
     1
 90
       50
176
     1
 90
       50
176
     1
 90
       50
176
     1
290
     0
176
     1
 90
       50
176
     1
 62
   256
176
     0
 40
1.0
176
     0
 90
        2
176
     1
  1
strokes_ogs.tif
176
     1
290
     0
176
     1
 40
1.0
176
     1
 40
1.0
176
     1
  0
VISUALSTYLE
  5
2C
102
{ACAD_REACTORS
330
2A
102
}
330
2A
100
AcDbVisualStyle
  2
FlatWithEdges
 70
     1
177
     3
291
     1
 70
    58
 90
        2
176
     1
 90
        1
176
     1
 90
        1
176
     1
 90
        2
176
     1
 40
0.6
176
     1
 40
30.0
176
     1
 62
     7
420
 16777215
176
     1
 90
        1
176
     1
 90
        0
176
     1
 62
     7
176
     1
 62
   257
176
     1
 90
        1
176
     1
 90
        1
176
     1
 40
1.0
176
     1
 90
        0
176
     1
 62
   257
176
     1
 40
1.0
176
     1
 90
        1
176
     1
 90
        6
176
     1
 90
        2
176
     1
 62
     7
176
     1
 90
        5
176
     1
 90
        0
176
     1
 90
        0
176
     1
290
     0
176
     1
 90
       13
176
     1
 40
0.0
176
     1
 90
        0
176
     1
290
     0
176
     1
290
     1
176
     1
290
     1
176
     1
290
     0
176
     1
290
     0
176
     1
290
     0
176
     1
290
     0
176
     1
290
     0
176
     1
290
     0
176
     1
 90
       50
176
     1
 40
0.0
176
     1
 40
1.0
176
     1
 90
        0
176
     1
 62
    18
420
        0
176
     1
 90
       50
176
     1
 90
        3
176
     1
 62
     5
420
      255
176
     1
290
     0
176
     1
 90
       50
176
     1
 90
       50
176
     1
 90
       50
176
     1
290
     0
176
     1
 90
       50
176
     1
 62
   256
176
     0
 40
1.0
176
     0
 90
        2
176
     1
  1
strokes_ogs.tif
176
     1
290
     0
176
     1
 40
1.0
176
     1
 40
1.0
176
     1
  0
VISUALSTYLE
  5
2D
102
{ACAD_REACTORS
330
2A
102
}
330
2A
100
AcDbVisualStyle
  2
Gouraud
 70
     2
177
     3
291
     1
 70
    58
 90
        2
176
     1
 90
        2
176
     1
 90
        1
176
     1
 90
        2
176
     1
 40
0.6
176
     1
 40
30.0
176
     1
 62
     7
420
 16777215
176
     1
 90
        0
176
     1
 90
        0
176
     1
 62
     7
176
     1
 62
   257
176
     1
 90
        1
176
     1
 90
        1
176
     1
 40
1.0
176
     1
 90
        0
176
     1
 62
     7
176
     1
 40
1.0
176
     1
 90
        1
176
     1
 90
        6
176
     1
 90
        2
176
     1
 62
     7
176
     1
 90
        5
176
     1
 90
        0
176
     1
 90
        0
176
     1
290
     0
176
     1
 90
       13
176
     1
 40
0.0
176
     1
 90
        0
176
     1
290
     0
176
     1
290
     1
176
     1
290
     1
176
     1
290
     0
176
     1
290
     0
176
     1
290
     0
176
     1
290
     0
176
     1
290
     0
176
     1
290
     0
176
     1
 90
       50
176
     1
 40
0.0
176
     1
 40
1.0
176
     1
 90
        0
176
     1
 62
    18
420
        0
176
     1
 90
       50
176
     1
 90
        3
176
     1
 62
     5
420
      255
176
     1
290
     0
176
     1
 90
       50
176
     1
 90
       50
176
     1
 90
       50
176
     1
290
     0
176
     1
 90
       50
176
     1
 62
   256
176
     0
 40
1.0
176
     0
 90
        2
176
     1
  1
strokes_ogs.tif
176
     1
290
     0
176
     1
 40
1.0
176
     1
 40
1.0
176
     1
  0
VISUALSTYLE
  5
2E
102
{ACAD_REACTORS
330
2A
102
}
330
2A
100
AcDbVisualStyle
  2
GouraudWithEdges
 70
     3
177
     3
291
     1
 70
    58
 90
        2
176
     1
 90
        2
176
     1
 90
        1
176
     1
 90
        2
176
     1
 40
0.6
176
     1
 40
30.0
176
     1
 62
     7
420
 16777215
176
     1
 90
        1
176
     1
 90
        0
176
     1
 62
     7
176
     1
 62
   257
176
     1
 90
        1
176
     1
 90
        1
176
     1
 40
1.0
176
     1
 90
        0
176
     1
 62
   257
176
     1
 40
1.0
176
     1
 90
        1
176
     1
 90
        6
176
     1
 90
        2
176
     1
 62
     7
176
     1
 90
        5
176
     1
 90
        0
176
     1
 90
        0
176
     1
290
     0
176
     1
 90
       13
176
     1
 40
0.0
176
     1
 90
        0
176
     1
290
     0
176
     1
290
     1
176
     1
290
     1
176
     1
290
     0
176
     1
290
     0
176
     1
290
     0
176
     1
290
     0
176
     1
290
     0
176
     1
290
     0
176
     1
 90
       50
176
     1
 40
0.0
176
     1
 40
1.0
176
     1
 90
        0
176
     1
 62
    18
420
        0
176
     1
 90
       50
176
     1
 90
        3
176
     1
 62
     5
420
      255
176
     1
290
     0
176
     1
 90
       50
176
     1
 90
       50
176
     1
 90
       50
176
     1
290
     0
176
     1
 90
       50
176
     1
 62
   256
176
     0
 40
1.0
176
     0
 90
        2
176
     1
  1
strokes_ogs.tif
176
     1
290
     0
176
     1
 40
1.0
176
     1
 40
1.0
176
     1
  0
VISUALSTYLE
  5
31
102
{ACAD_REACTORS
330
2A
102
}
330
2A
100
AcDbVisualStyle
  2
Hidden
 70
     6
177
     3
291
     0
 70
    58
 90
        1
176
     1
 90
        2
176
     1
 90
        2
176
     1
 90
        0
176
     1
 40
0.6
176
     1
 40
30.0
176
     1
 62
     7
420
 16777215
176
     1
 90
        2
176
     1
 90
        2
176
     1
 62
     7
176
     1
 62
   257
176
     1
 90
        2
176
     1
 90
        1
176
     1
 40
40.0
176
     1
 90
        0
176
     1
 62
   257
176
     1
 40
1.0
176
     1
 90
        1
176
     1
 90
        6
176
     1
 90
        2
176
     1
 62
     7
176
     1
 90
        3
176
     1
 90
        0
176
     1
 90
        0
176
     1
290
     0
176
     1
 90
        1
176
     1
 40
0.0
176
     1
 90
        0
176
     1
290
     0
176
     1
290
     1
176
     1
290
     1
176
     1
290
     0
176
     1
290
     0
176
     1
290
     0
176
     1
290
     0
176
     1
290
     0
176
     1
290
     0
176
     1
 90
       50
176
     1
 40
0.0
176
     1
 40
1.0
176
     1
 90
        0
176
     1
 62
    18
420
        0
176
     1
 90
       50
176
     1
 90
        3
176
     1
 62
     5
420
      255
176
     1
290
     0
176
     1
 90
       50
176
     1
 90
       50
176
     1
 90
       50
176
     1
290
     0
176
     1
 90
       50
176
     1
 62
   256
176
     0
 40
1.0
176
     0
 90
        2
176
     1
  1
strokes_ogs.tif
176
     1
290
     0
176
     1
 40
1.0
176
     1
 40
1.0
176
     1
  0
VISUALSTYLE
  5
3B
102
{ACAD_REACTORS
330
2A
102
}
330
2A
100
AcDbVisualStyle
  2
JitterOff
 70
    20
177
     3
291
     1
 70
    58
 90
        2
176
     0
 90
        2
176
     0
 90
        0
176
     0
 90
        0
176
     0
 40
0.6
176
     0
 40
30.0
176
     0
 62
     7
420
 16777215
176
     0
 90
        1
176
     0
 90
        4
176
     0
 62
     7
176
     0
 62
   257
176
     0
 90
        1
176
     0
 90
        1
176
     0
 40
1.0
176
     0
 90
       10
176
     2
 62
     7
176
     0
 40
1.0
176
     0
 90
        1
176
     0
 90
        6
176
     0
 90
        2
176
     0
 62
     7
176
     0
 90
        5
176
     0
 90
        0
176
     0
 90
        0
176
     0
290
     0
176
     0
 90
        1
176
     0
 40
0.0
176
     0
 90
        0
176
     0
290
     0
176
     0
290
     1
176
     0
290
     1
176
     0
290
     0
176
     0
290
     0
176
     0
290
     0
176
     0
290
     0
176
     0
290
     0
176
     0
290
     0
176
     0
 90
       50
176
     0
 40
0.0
176
     0
 40
1.0
176
     0
 90
        0
176
     0
 62
    18
420
        0
176
     0
 90
       50
176
     0
 90
        3
176
     0
 62
     5
420
      255
176
     0
290
     0
176
     0
 90
       50
176
     0
 90
       50
176
     0
 90
       50
176
     0
290
     0
176
     0
 90
       50
176
     0
 62
   256
176
     0
 40
1.0
176
     0
 90
        2
176
     0
  1
strokes_ogs.tif
176
     0
290
     0
176
     0
 40
1.0
176
     0
 40
1.0
176
     0
  0
VISUALSTYLE
  5
38
102
{ACAD_REACTORS
330
2A
102
}
330
2A
100
AcDbVisualStyle
  2
Linepattern
 70
    14
177
     3
291
     1
 70
    58
 90
        2
176
     1
 90
        2
176
     1
 90
        0
176
     1
 90
        0
176
     1
 40
0.6
176
     1
 40
30.0
176
     1
 62
     7
420
 16777215
176
     1
 90
        1
176
     1
 90
        4
176
     1
 62
     7
176
     1
 62
   257
176
     1
 90
        7
176
     1
 90
        7
176
     1
 40
1.0
176
     1
 90
        8
176
     1
 62
     7
176
     1
 40
1.0
176
     1
 90
        1
176
     1
 90
        6
176
     1
 90
        2
176
     1
 62
     7
176
     1
 90
        5
176
     1
 90
        0
176
     1
 90
        0
176
     1
290
     0
176
     1
 90
        1
176
     1
 40
0.0
176
     1
 90
        0
176
     1
290
     0
176
     1
290
     1
176
     1
290
     1
176
     1
290
     0
176
     1
290
     0
176
     1
290
     0
176
     1
290
     0
176
     1
290
     0
176
     1
290
     0
176
     1
 90
       50
176
     1
 40
0.0
176
     1
 40
1.0
176
     1
 90
        0
176
     1
 62
    18
420
        0
176
     1
 90
       50
176
     1
 90
        3
176
     1
 62
     5
420
      255
176
     1
290
     0
176
     1
 90
       50
176
     1
 90
       50
176
     1
 90
       50
176
     1
290
     0
176
     1
 90
       50
176
     1
 62
   256
176
     0
 40
1.0
176
     0
 90
        2
176
     1
  1
strokes_ogs.tif
176
     1
290
     0
176
     1
 40
1.0
176
     1
 40
1.0
176
     1
  0
VISUALSTYLE
  5
3C
102
{ACAD_REACTORS
330
2A
102
}
330
2A
100
AcDbVisualStyle
  2
OverhangOff
 70
    21
177
     3
291
     1
 70
    58
 90
        2
176
     0
 90
        2
176
     0
 90
        0
176
     0
 90
        0
176
     0
 40
0.6
176
     0
 40
30.0
176
     0
 62
     7
420
 16777215
176
     0
 90
        1
176
     0
 90
        4
176
     0
 62
     7
176
     0
 62
   257
176
     0
 90
        1
176
     0
 90
        1
176
     0
 40
1.0
176
     0
 90
        9
176
     2
 62
     7
176
     0
 40
1.0
176
     0
 90
        1
176
     0
 90
        6
176
     0
 90
        2
176
     0
 62
     7
176
     0
 90
        5
176
     0
 90
        0
176
     0
 90
        0
176
     0
290
     0
176
     0
 90
        1
176
     0
 40
0.0
176
     0
 90
        0
176
     0
290
     0
176
     0
290
     1
176
     0
290
     1
176
     0
290
     0
176
     0
290
     0
176
     0
290
     0
176
     0
290
     0
176
     0
290
     0
176
     0
290
     0
176
     0
 90
       50
176
     0
 40
0.0
176
     0
 40
1.0
176
     0
 90
        0
176
     0
 62
    18
420
        0
176
     0
 90
       50
176
     0
 90
        3
176
     0
 62
     5
420
      255
176
     0
290
     0
176
     0
 90
       50
176
     0
 90
       50
176
     0
 90
       50
176
     0
290
     0
176
     0
 90
       50
176
     0
 62
   256
176
     0
 40
1.0
176
     0
 90
        2
176
     0
  1
strokes_ogs.tif
176
     0
290
     0
176
     0
 40
1.0
176
     0
 40
1.0
176
     0
  0
VISUALSTYLE
  5
33
102
{ACAD_REACTORS
330
2A
102
}
330
2A
100
AcDbVisualStyle
  2
Realistic
 70
     8
177
     3
291
     0
 70
    58
 90
        2
176
     1
 90
        3
176
     1
 90
        0
176
     1
 90
        2
176
     1
 40
0.6
176
     1
 40
30.0
176
     1
 62
     7
420
 16777215
176
     1
 90
        0
176
     1
 90
        0
176
     1
 62
     7
176
     1
 62
   257
176
     1
 90
        1
176
     1
 90
        1
176
     1
 40
1.0
176
     1
 90
        8
176
     1
 62
   257
176
     1
 40
1.0
176
     1
 90
        1
176
     1
 90
        6
176
     1
 90
        2
176
     1
 62
     7
176
     1
 90
        3
176
     1
 90
        0
176
     1
 90
        0
176
     1
290
     0
176
     1
 90
       13
176
     1
 40
0.0
176
     1
 90
        0
176
     1
290
     0
176
     1
290
     1
176
     1
290
     1
176
     1
290
     0
176
     1
290
     0
176
     1
290
     0
176
     1
290
     0
176
     1
290
     0
176
     1
290
     0
176
     1
 90
       50
176
     1
 40
0.0
176
     1
 40
1.0
176
     1
 90
        0
176
     1
 62
    18
420
        0
176
     1
 90
       50
176
     1
 90
        3
176
     1
 62
     5
420
      255
176
     1
290
     0
176
     1
 90
       50
176
     1
 90
       50
176
     1
 90
       50
176
     1
290
     0
176
     1
 90
       50
176
     1
 62
   256
176
     0
 40
1.0
176
     0
 90
        2
176
     1
  1
strokes_ogs.tif
176
     1
290
     0
176
     1
 40
1.0
176
     1
 40
1.0
176
     1
  0
VISUALSTYLE
  5
42
102
{ACAD_REACTORS
330
2A
102
}
330
2A
100
AcDbVisualStyle
  2
Shaded
 70
    27
177
     3
291
     0
 70
    58
 90
        2
176
     1
 90
        2
176
     1
 90
        1
176
     1
 90
        2
176
     1
 40
0.6
176
     1
 40
30.0
176
     1
 62
     7
420
 16777215
176
     1
 90
        0
176
     1
 90
        4
176
     1
 62
     7
176
     1
 62
   257
176
     1
 90
        1
176
     1
 90
        1
176
     1
 40
1.0
176
     1
 90
        8
176
     1
 62
   257
176
     1
 40
1.0
176
     1
 90
        1
176
     1
 90
        6
176
     1
 90
        2
176
     1
 62
     8
420
  7895160
176
     1
 90
        3
176
     1
 90
        0
176
     1
 90
        0
176
     1
290
     0
176
     1
 90
        5
176
     1
 40
0.0
176
     1
 90
        0
176
     1
290
     0
176
     1
290
     1
176
     1
290
     1
176
     1
290
     0
176
     1
290
     0
176
     1
290
     0
176
     1
290
     0
176
     1
290
     0
176
     1
290
     0
176
     1
 90
       50
176
     1
 40
0.0
176
     1
 40
1.0
176
     1
 90
        0
176
     1
 62
    18
420
        0
176
     1
 90
       50
176
     1
 90
        3
176
     1
 62
     5
420
      255
176
     1
290
     0
176
     1
 90
       50
176
     1
 90
       50
176
     1
 90
       50
176
     1
290
     0
176
     1
 90
       50
176
     1
 62
   256
176
     0
 40
1.0
176
     0
 90
        2
176
     1
  1
strokes_ogs.tif
176
     1
290
     0
176
     1
 40
1.0
176
     1
 40
1.0
176
     1
  0
VISUALSTYLE
  5
41
102
{ACAD_REACTORS
330
2A
102
}
330
2A
100
AcDbVisualStyle
  2
Shaded with edges
 70
    26
177
     3
291
     0
 70
    58
 90
        2
176
     1
 90
        2
176
     1
 90
        1
176
     1
 90
        2
176
     1
 40
0.6
176
     1
 40
30.0
176
     1
 62
     7
420
 16777215
176
     1
 90
        1
176
     1
 90
       10
176
     1
 62
     7
176
     1
 62
   257
176
     1
 90
        2
176
     1
 90
        1
176
     1
 40
1.0
176
     1
 90
        8
176
     1
 62
   257
176
     1
 40
1.0
176
     1
 90
        1
176
     1
 90
        6
176
     1
 90
        2
176
     1
 62
     7
176
     1
 90
        3
176
     1
 90
        0
176
     1
 90
        0
176
     1
290
     0
176
     1
 90
        5
176
     1
 40
0.0
176
     1
 90
        0
176
     1
290
     0
176
     1
290
     1
176
     1
290
     1
176
     1
290
     0
176
     1
290
     0
176
     1
290
     0
176
     1
290
     0
176
     1
290
     0
176
     1
290
     0
176
     1
 90
       50
176
     1
 40
0.0
176
     1
 40
1.0
176
     1
 90
        0
176
     1
 62
    18
420
        0
176
     1
 90
       50
176
     1
 90
        3
176
     1
 62
     5
420
      255
176
     1
290
     0
176
     1
 90
       50
176
     1
 90
       50
176
     1
 90
       50
176
     1
290
     0
176
     1
 90
       50
176
     1
 62
   256
176
     0
 40
1.0
176
     0
 90
        2
176
     1
  1
strokes_ogs.tif
176
     1
290
     0
176
     1
 40
1.0
176
     1
 40
1.0
176
     1
  0
VISUALSTYLE
  5
3E
102
{ACAD_REACTORS
330
2A
102
}
330
2A
100
AcDbVisualStyle
  2
Shades of Gray
 70
    23
177
     3
291
     0
 70
    58
 90
        2
176
     1
 90
        2
176
     1
 90
        3
176
     1
 90
        0
176
     1
 40
0.6
176
     1
 40
30.0
176
     1
 62
     7
420
 16777215
176
     1
 90
        2
176
     1
 90
        2
176
     1
 62
     7
176
     1
 62
     7
176
     1
 90
        1
176
     1
 90
        1
176
     1
 40
40.0
176
     1
 90
        8
176
     1
 62
     7
176
     1
 40
1.0
176
     1
 90
        1
176
     1
 90
        6
176
     1
 90
        2
176
     1
 62
     7
176
     1
 90
        3
176
     1
 90
        0
176
     1
 90
        0
176
     1
290
     0
176
     1
 90
        1
176
     1
 40
0.0
176
     1
 90
        0
176
     1
290
     0
176
     1
290
     1
176
     1
290
     1
176
     1
290
     0
176
     1
290
     0
176
     1
290
     0
176
     1
290
     0
176
     1
290
     0
176
     1
290
     0
176
     1
 90
       50
176
     1
 40
0.0
176
     1
 40
1.0
176
     1
 90
        0
176
     1
 62
    18
420
        0
176
     1
 90
       50
176
     1
 90
        3
176
     1
 62
     5
420
      255
176
     1
290
     0
176
     1
 90
       50
176
     1
 90
       50
176
     1
 90
       50
176
     1
290
     0
176
     1
 90
       50
176
     1
 62
   256
176
     0
 40
1.0
176
     0
 90
        2
176
     1
  1
strokes_ogs.tif
176
     1
290
     0
176
     1
 40
1.0
176
     1
 40
1.0
176
     1
  0
VISUALSTYLE
  5
3F
102
{ACAD_REACTORS
330
2A
102
}
330
2A
100
AcDbVisualStyle
  2
Sketchy
 70
    24
177
     3
291
     0
 70
    58
 90
        1
176
     1
 90
        2
176
     1
 90
        2
176
     1
 90
        0
176
     1
 40
0.6
176
     1
 40
30.0
176
     1
 62
     7
420
 16777215
176
     1
 90
        2
176
     1
 90
        2
176
     1
 62
     7
176
     1
 62
     7
176
     1
 90
        1
176
     1
 90
        1
176
     1
 40
40.0
176
     1
 90
       11
176
     1
 62
     7
176
     1
 40
1.0
176
     1
 90
        1
176
     1
 90
        6
176
     1
 90
        2
176
     1
 62
     7
176
     1
 90
        6
176
     1
 90
        0
176
     1
 90
        0
176
     1
290
     0
176
     1
 90
        1
176
     1
 40
0.0
176
     1
 90
        0
176
     1
290
     0
176
     1
290
     1
176
     1
290
     1
176
     1
290
     0
176
     1
290
     0
176
     1
290
     0
176
     1
290
     0
176
     1
290
     0
176
     1
290
     0
176
     1
 90
       50
176
     1
 40
0.0
176
     1
 40
1.0
176
     1
 90
        0
176
     1
 62
    18
420
        0
176
     1
 90
       50
176
     1
 90
        3
176
     1
 62
     5
420
      255
176
     1
290
     0
176
     1
 90
       50
176
     1
 90
       50
176
     1
 90
       50
176
     1
290
     0
176
     1
 90
       50
176
     1
 62
   256
176
     0
 40
1.0
176
     0
 90
        2
176
     1
  1
strokes_ogs.tif
176
     1
290
     0
176
     1
 40
1.0
176
     1
 40
1.0
176
     1
  0
VISUALSTYLE
  5
37
102
{ACAD_REACTORS
330
2A
102
}
330
2A
100
AcDbVisualStyle
  2
Thicken
 70
    13
177
     3
291
     1
 70
    58
 90
        2
176
     1
 90
        2
176
     1
 90
        0
176
     1
 90
        0
176
     1
 40
0.6
176
     1
 40
30.0
176
     1
 62
     7
420
 16777215
176
     1
 90
        1
176
     1
 90
        4
176
     1
 62
     7
176
     1
 62
   257
176
     1
 90
        1
176
     1
 90
        1
176
     1
 40
1.0
176
     1
 90
       12
176
     1
 62
     7
176
     1
 40
1.0
176
     1
 90
        1
176
     1
 90
        6
176
     1
 90
        2
176
     1
 62
     7
176
     1
 90
        5
176
     1
 90
        0
176
     1
 90
        0
176
     1
290
     0
176
     1
 90
        1
176
     1
 40
0.0
176
     1
 90
        0
176
     1
290
     0
176
     1
290
     1
176
     1
290
     1
176
     1
290
     0
176
     1
290
     0
176
     1
290
     0
176
     1
290
     0
176
     1
290
     0
176
     1
290
     0
176
     1
 90
       50
176
     1
 40
0.0
176
     1
 40
1.0
176
     1
 90
        0
176
     1
 62
    18
420
        0
176
     1
 90
       50
176
     1
 90
        3
176
     1
 62
     5
420
      255
176
     1
290
     0
176
     1
 90
       50
176
     1
 90
       50
176
     1
 90
       50
176
     1
290
     0
176
     1
 90
       50
176
     1
 62
   256
176
     0
 40
1.0
176
     0
 90
        2
176
     1
  1
strokes_ogs.tif
176
     1
290
     0
176
     1
 40
1.0
176
     1
 40
1.0
176
     1
  0
VISUALSTYLE
  5
30
102
{ACAD_REACTORS
330
2A
102
}
330
2A
100
AcDbVisualStyle
  2
Wireframe
 70
     5
177
     3
291
     0
 70
    58
 90
        0
176
     1
 90
        2
176
     1
 90
        0
176
     1
 90
        0
176
     1
 40
0.6
176
     1
 40
30.0
176
     1
 62
     7
420
 16777215
176
     1
 90
        1
176
     1
 90
        4
176
     1
 62
     7
176
     1
 62
   257
176
     1
 90
        1
176
     1
 90
        1
176
     1
 40
1.0
176
     1
 90
        0
176
     1
 62
   257
176
     1
 40
1.0
176
     1
 90
        1
176
     1
 90
        6
176
     1
 90
        2
176
     1
 62
     7
176
     1
 90
        3
176
     1
 90
        0
176
     1
 90
        0
176
     1
290
     0
176
     1
 90
        1
176
     1
 40
0.0
176
     1
 90
        0
176
     1
290
     0
176
     1
290
     1
176
     1
290
     1
176
     1
290
     0
176
     1
290
     0
176
     1
290
     0
176
     1
290
     0
176
     1
290
     0
176
     1
290
     0
176
     1
 90
       50
176
     1
 40
0.0
176
     1
 40
1.0
176
     1
 90
        0
176
     1
 62
    18
420
        0
176
     1
 90
       50
176
     1
 90
        3
176
     1
 62
     5
420
      255
176
     1
290
     0
176
     1
 90
       50
176
     1
 90
       50
176
     1
 90
       50
176
     1
290
     0
176
     1
 90
       50
176
     1
 62
   256
176
     0
 40
1.0
176
     0
 90
        2
176
     1
  1
strokes_ogs.tif
176
     1
290
     0
176
     1
 40
1.0
176
     1
 40
1.0
176
     1
  0
VISUALSTYLE
  5
40
102
{ACAD_REACTORS
330
2A
102
}
330
2A
100
AcDbVisualStyle
  2
X-Ray
 70
    25
177
     3
291
     0
 70
    58
 90
        2
176
     1
 90
        2
176
     1
 90
        1
176
     1
 90
        1
176
     1
 40
0.5
176
     1
 40
30.0
176
     1
 62
     7
420
 16777215
176
     1
 90
        1
176
     1
 90
        0
176
     1
 62
     7
176
     1
 62
   257
176
     1
 90
        1
176
     1
 90
        1
176
     1
 40
1.0
176
     1
 90
        8
176
     1
 62
     7
176
     1
 40
1.0
176
     1
 90
        1
176
     1
 90
        6
176
     1
 90
        2
176
     1
 62
     7
176
     1
 90
        3
176
     1
 90
        0
176
     1
 90
        0
176
     1
290
     0
176
     1
 90
       13
176
     1
 40
0.0
176
     1
 90
        0
176
     1
290
     0
176
     1
290
     1
176
     1
290
     1
176
     1
290
     0
176
     1
290
     0
176
     1
290
     0
176
     1
290
     0
176
     1
290
     0
176
     1
290
     0
176
     1
 90
       50
176
     1
 40
0.0
176
     1
 40
1.0
176
     1
 90
        0
176
     1
 62
    18
420
        0
176
     1
 90
       50
176
     1
 90
        3
176
     1
 62
     5
420
      255
176
     1
290
     0
176
     1
 90
       50
176
     1
 90
       50
176
     1
 90
       50
176
     1
290
     0
176
     1
 90
       50
176
     1
 62
   256
176
     0
 40
1.0
176
     0
 90
        2
176
     1
  1
strokes_ogs.tif
176
     1
290
     0
176
     1
 40
1.0
176
     1
 40
1.0
176
     1
  0
DICTIONARYVAR
  5
10C
102
{ACAD_REACTORS
330
10B
102
}
330
10B
100
DictionaryVariables
280
     0
  1
1:1
  0
DICTIONARYVAR
  5
111
102
{ACAD_REACTORS
330
10B
102
}
330
10B
100
DictionaryVariables
280
     0
  1
Standard
  0
DICTIONARYVAR
  5
110
102
{ACAD_REACTORS
330
10B
102
}
330
10B
100
DictionaryVariables
280
     0
  1
Standard
  0
DICTIONARY
  5
10D
330
5A
100
AcDbDictionary
280
     1
281
     1
  3
ACAD_ROUNDTRIP_2008_TABLESTYLE_CELLSTYLEMAP
360
10E
  0
CELLSTYLEMAP
  5
10E
102
{ACAD_REACTORS
330
10D
102
}
330
10D
100
AcDbCellStyleMap
 90
        3
300
CELLSTYLE
  1
TABLEFORMAT_BEGIN
 90
        5
170
     1
 91
        0
 92
    32768
 62
   257
 93
        1
300
CONTENTFORMAT
  1
CONTENTFORMAT_BEGIN
 90
        0
 91
        0
 92
        4
 93
        0
300

 40
0.0
140
1.0
 94
        5
 62
     0
340
11
144
0.25
309
CONTENTFORMAT_END
171
     1
301
MARGIN
  1
CELLMARGIN_BEGIN
 40
0.06
 40
0.06
 40
0.06
 40
0.06
 40
0.06
 40
0.06
309
CELLMARGIN_END
 94
        6
 95
        1
302
GRIDFORMAT
  1
GRIDFORMAT_BEGIN
 90
        0
 91
        1
 62
     0
 92
       -2
340
14
 93
        0
 40
0.045
309
GRIDFORMAT_END
 95
        2
302
GRIDFORMAT
  1
GRIDFORMAT_BEGIN
 90
        0
 91
        1
 62
     0
 92
       -2
340
14
 93
        0
 40
0.045
309
GRIDFORMAT_END
 95
        4
302
GRIDFORMAT
  1
GRIDFORMAT_BEGIN
 90
        0
 91
        1
 62
     0
 92
       -2
340
14
 93
        0
 40
0.045
309
GRIDFORMAT_END
 95
        8
302
GRIDFORMAT
  1
GRIDFORMAT_BEGIN
 90
        0
 91
        1
 62
     0
 92
       -2
340
14
 93
        0
 40
0.045
309
GRIDFORMAT_END
 95
       16
302
GRIDFORMAT
  1
GRIDFORMAT_BEGIN
 90
        0
 91
        1
 62
     0
 92
       -2
340
14
 93
        0
 40
0.045
309
GRIDFORMAT_END
 95
       32
302
GRIDFORMAT
  1
GRIDFORMAT_BEGIN
 90
        0
 91
        1
 62
     0
 92
       -2
340
14
 93
        0
 40
0.045
309
GRIDFORMAT_END
309
TABLEFORMAT_END
  1
CELLSTYLE_BEGIN
 90
        1
 91
        1
300
_TITLE
309
CELLSTYLE_END
300
CELLSTYLE
  1
TABLEFORMAT_BEGIN
 90
        5
170
     1
 91
        0
 92
        0
 62
   257
 93
        1
300
CONTENTFORMAT
  1
CONTENTFORMAT_BEGIN
 90
        0
 91
        0
 92
        4
 93
        0
300

 40
0.0
140
1.0
 94
        5
 62
     0
340
11
144
0.18
309
CONTENTFORMAT_END
171
     1
301
MARGIN
  1
CELLMARGIN_BEGIN
 40
0.06
 40
0.06
 40
0.06
 40
0.06
 40
0.06
 40
0.06
309
CELLMARGIN_END
 94
        6
 95
        1
302
GRIDFORMAT
  1
GRIDFORMAT_BEGIN
 90
        0
 91
        1
 62
     0
 92
       -2
340
14
 93
        0
 40
0.045
309
GRIDFORMAT_END
 95
        2
302
GRIDFORMAT
  1
GRIDFORMAT_BEGIN
 90
        0
 91
        1
 62
     0
 92
       -2
340
14
 93
        0
 40
0.045
309
GRIDFORMAT_END
 95
        4
302
GRIDFORMAT
  1
GRIDFORMAT_BEGIN
 90
        0
 91
        1
 62
     0
 92
       -2
340
14
 93
        0
 40
0.045
309
GRIDFORMAT_END
 95
        8
302
GRIDFORMAT
  1
GRIDFORMAT_BEGIN
 90
        0
 91
        1
 62
     0
 92
       -2
340
14
 93
        0
 40
0.045
309
GRIDFORMAT_END
 95
       16
302
GRIDFORMAT
  1
GRIDFORMAT_BEGIN
 90
        0
 91
        1
 62
     0
 92
       -2
340
14
 93
        0
 40
0.045
309
GRIDFORMAT_END
 95
       32
302
GRIDFORMAT
  1
GRIDFORMAT_BEGIN
 90
        0
 91
        1
 62
     0
 92
       -2
340
14
 93
        0
 40
0.045
309
GRIDFORMAT_END
309
TABLEFORMAT_END
  1
CELLSTYLE_BEGIN
 90
        2
 91
        1
300
_HEADER
309
CELLSTYLE_END
300
CELLSTYLE
  1
TABLEFORMAT_BEGIN
 90
        5
170
     1
 91
        0
 92
        0
 62
   257
 93
        1
300
CONTENTFORMAT
  1
CONTENTFORMAT_BEGIN
 90
        0
 91
        0
 92
        4
 93
        0
300

 40
0.0
140
1.0
 94
        2
 62
     0
340
11
144
0.18
309
CONTENTFORMAT_END
171
     1
301
MARGIN
  1
CELLMARGIN_BEGIN
 40
0.06
 40
0.06
 40
0.06
 40
0.06
 40
0.06
 40
0.06
309
CELLMARGIN_END
 94
        6
 95
        1
302
GRIDFORMAT
  1
GRIDFORMAT_BEGIN
 90
        0
 91
        1
 62
     0
 92
       -2
340
14
 93
        0
 40
0.045
309
GRIDFORMAT_END
 95
        2
302
GRIDFORMAT
  1
GRIDFORMAT_BEGIN
 90
        0
 91
        1
 62
     0
 92
       -2
340
14
 93
        0
 40
0.045
309
GRIDFORMAT_END
 95
        4
302
GRIDFORMAT
  1
GRIDFORMAT_BEGIN
 90
        0
 91
        1
 62
     0
 92
       -2
340
14
 93
        0
 40
0.045
309
GRIDFORMAT_END
 95
        8
302
GRIDFORMAT
  1
GRIDFORMAT_BEGIN
 90
        0
 91
        1
 62
     0
 92
       -2
340
14
 93
        0
 40
0.045
309
GRIDFORMAT_END
 95
       16
302
GRIDFORMAT
  1
GRIDFORMAT_BEGIN
 90
        0
 91
        1
 62
     0
 92
       -2
340
14
 93
        0
 40
0.045
309
GRIDFORMAT_END
 95
       32
302
GRIDFORMAT
  1
GRIDFORMAT_BEGIN
 90
        0
 91
        1
 62
     0
 92
       -2
340
14
 93
        0
 40
0.045
309
GRIDFORMAT_END
309
TABLEFORMAT_END
  1
CELLSTYLE_BEGIN
 90
        3
 91
        2
300
_DATA
309
CELLSTYLE_END
  0
ENDSEC
  0
EOF
