  0
SECTION
  2
HEADER
  9
$ACADVER
  1
AC1027
  9
$ACADMAINTVER
 70
   105
  9
$DWGCODEPAGE
  3
ANSI_1252
  9
$LASTSAVEDBY
  1
Office Desk
  9
$REQUIREDVERSIONS
160
                 0
  9
$INSBASE
 10
0.0
 20
0.0
 30
0.0
  9
$EXTMIN
 10
128.6371
 20
-76.0194
 30
0.0
  9
$EXTMAX
 10
564.8482
 20
284.7475
 30
0.0
  9
$LIMMIN
 10
0.0
 20
0.0
  9
$LIMMAX
 10
12.0
 20
9.0
  9
$ORTHOMODE
 70
     0
  9
$REGENMODE
 70
     1
  9
$FILLMODE
 70
     1
  9
$QTEXTMODE
 70
     0
  9
$MIRRTEXT
 70
     1
  9
$LTSCALE
 40
1.0
  9
$ATTMODE
 70
     1
  9
$TEXTSIZE
 40
0.2
  9
$TRACEWID
 40
0.05
  9
$TEXTSTYLE
  7
Standard
  9
$CLAYER
  8
0
  9
$CELTYPE
  6
ByLayer
  9
$CECOLOR
 62
   256
  9
$CELTSCALE
 40
1.0
  9
$DISPSILH
 70
     0
  9
$DIMSCALE
 40
1.0
  9
$DIMASZ
 40
0.18
  9
$DIMEXO
 40
0.0625
  9
$DIMDLI
 40
0.38
  9
$DIMRND
 40
0.0
  9
$DIMDLE
 40
0.0
  9
$DIMEXE
 40
0.18
  9
$DIMTP
 40
0.0
  9
$DIMTM
 40
0.0
  9
$DIMTXT
 40
0.18
  9
$DIMCEN
 40
0.09
  9
$DIMTSZ
 40
0.0
  9
$DIMTOL
 70
     0
  9
$DIMLIM
 70
     0
  9
$DIMTIH
 70
     1
  9
$DIMTOH
 70
     1
  9
$DIMSE1
 70
     0
  9
$DIMSE2
 70
     0
  9
$DIMTAD
 70
     0
  9
$DIMZIN
 70
     0
  9
$DIMBLK
  1

  9
$DIMASO
 70
     1
  9
$DIMSHO
 70
     1
  9
$DIMPOST
  1

  9
$DIMAPOST
  1

  9
$DIMALT
 70
     0
  9
$DIMALTD
 70
     2
  9
$DIMALTF
 40
25.4
  9
$DIMLFAC
 40
1.0
  9
$DIMTOFL
 70
     0
  9
$DIMTVP
 40
0.0
  9
$DIMTIX
 70
     0
  9
$DIMSOXD
 70
     0
  9
$DIMSAH
 70
     0
  9
$DIMBLK1
  1

  9
$DIMBLK2
  1

  9
$DIMSTYLE
  2
Standard
  9
$DIMCLRD
 70
     0
  9
$DIMCLRE
 70
     0
  9
$DIMCLRT
 70
     0
  9
$DIMTFAC
 40
1.0
  9
$DIMGAP
 40
0.09
  9
$DIMJUST
 70
     0
  9
$DIMSD1
 70
     0
  9
$DIMSD2
 70
     0
  9
$DIMTOLJ
 70
     1
  9
$DIMTZIN
 70
     0
  9
$DIMALTZ
 70
     0
  9
$DIMALTTZ
 70
     0
  9
$DIMUPT
 70
     0
  9
$DIMDEC
 70
     4
  9
$DIMTDEC
 70
     4
  9
$DIMALTU
 70
     2
  9
$DIMALTTD
 70
     2
  9
$DIMTXSTY
  7
Standard
  9
$DIMAUNIT
 70
     0
  9
$DIMADEC
 70
     0
  9
$DIMALTRND
 40
0.0
  9
$DIMAZIN
 70
     0
  9
$DIMDSEP
 70
    46
  9
$DIMATFIT
 70
     3
  9
$DIMFRAC
 70
     0
  9
$DIMLDRBLK
  1

  9
$DIMLUNIT
 70
     2
  9
$DIMLWD
 70
    -2
  9
$DIMLWE
 70
    -2
  9
$DIMTMOVE
 70
     0
  9
$DIMFXL
 40
1.0
  9
$DIMFXLON
 70
     0
  9
$DIMJOGANG
 40
0.7853981633974483
  9
$DIMTFILL
 70
     0
  9
$DIMTFILLCLR
 70
     0
  9
$DIMARCSYM
 70
     0
  9
$DIMLTYPE
  6

  9
$DIMLTEX1
  6

  9
$DIMLTEX2
  6

  9
$DIMTXTDIRECTION
 70
     0
  9
$LUNITS
 70
     2
  9
$LUPREC
 70
     4
  9
$SKETCHINC
 40
0.1
  9
$FILLETRAD
 40
0.0
  9
$AUNITS
 70
     0
  9
$AUPREC
 70
     0
  9
$MENU
  1
.
  9
$ELEVATION
 40
0.0
  9
$PELEVATION
 40
0.0
  9
$THICKNESS
 40
0.0
  9
$LIMCHECK
 70
     0
  9
$CHAMFERA
 40
0.0
  9
$CHAMFERB
 40
0.0
  9
$CHAMFERC
 40
0.0
  9
$CHAMFERD
 40
0.0
  9
$SKPOLY
 70
     0
  9
$TDCREATE
 40
2461016.699101945
  9
$TDUCREATE
 40
2461016.469935278
  9
$TDUPDATE
 40
2461016.699102037
  9
$TDUUPDATE
 40
2461016.46993537
  9
$TDINDWG
 40
0.0000000116
  9
$TDUSRTIMER
 40
0.0000000116
  9
$USRTIMER
 70
     1
  9
$ANGBASE
 50
0.0
  9
$ANGDIR
 70
     0
  9
$PDMODE
 70
     0
  9
$PDSIZE
 40
0.0
  9
$PLINEWID
 40
0.0
  9
$SPLFRAME
 70
     0
  9
$SPLINETYPE
 70
     6
  9
$SPLINESEGS
 70
     8
  9
$HANDSEED
  5
100
  9
$SURFTAB1
 70
     6
  9
$SURFTAB2
 70
     6
  9
$SURFTYPE
 70
     6
  9
$SURFU
 70
     6
  9
$SURFV
 70
     6
  9
$UCSBASE
  2

  9
$UCSNAME
  2

  9
$UCSORG
 10
0.0
 20
0.0
 30
0.0
  9
$UCSXDIR
 10
1.0
 20
0.0
 30
0.0
  9
$UCSYDIR
 10
0.0
 20
1.0
 30
0.0
  9
$UCSORTHOREF
  2

  9
$UCSORTHOVIEW
 70
     0
  9
$UCSORGTOP
 10
0.0
 20
0.0
 30
0.0
  9
$UCSORGBOTTOM
 10
0.0
 20
0.0
 30
0.0
  9
$UCSORGLEFT
 10
0.0
 20
0.0
 30
0.0
  9
$UCSORGRIGHT
 10
0.0
 20
0.0
 30
0.0
  9
$UCSORGFRONT
 10
0.0
 20
0.0
 30
0.0
  9
$UCSORGBACK
 10
0.0
 20
0.0
 30
0.0
  9
$PUCSBASE
  2

  9
$PUCSNAME
  2

  9
$PUCSORG
 10
0.0
 20
0.0
 30
0.0
  9
$PUCSXDIR
 10
1.0
 20
0.0
 30
0.0
  9
$PUCSYDIR
 10
0.0
 20
1.0
 30
0.0
  9
$PUCSORTHOREF
  2

  9
$PUCSORTHOVIEW
 70
     0
  9
$PUCSORGTOP
 10
0.0
 20
0.0
 30
0.0
  9
$PUCSORGBOTTOM
 10
0.0
 20
0.0
 30
0.0
  9
$PUCSORGLEFT
 10
0.0
 20
0.0
 30
0.0
  9
$PUCSORGRIGHT
 10
0.0
 20
0.0
 30
0.0
  9
$PUCSORGFRONT
 10
0.0
 20
0.0
 30
0.0
  9
$PUCSORGBACK
 10
0.0
 20
0.0
 30
0.0
  9
$USERI1
 70
     0
  9
$USERI2
 70
     0
  9
$USERI3
 70
     0
  9
$USERI4
 70
     0
  9
$USERI5
 70
     0
  9
$USERR1
 40
0.0
  9
$USERR2
 40
0.0
  9
$USERR3
 40
0.0
  9
$USERR4
 40
0.0
  9
$USERR5
 40
0.0
  9
$WORLDVIEW
 70
     1
  9
$SHADEDGE
 70
     3
  9
$SHADEDIF
 70
    70
  9
$TILEMODE
 70
     1
  9
$MAXACTVP
 70
    64
  9
$PINSBASE
 10
0.0
 20
0.0
 30
0.0
  9
$PLIMCHECK
 70
     0
  9
$PEXTMIN
 10
1.000000000000000E+20
 20
1.000000000000000E+20
 30
1.000000000000000E+20
  9
$PEXTMAX
 10
-1.000000000000000E+20
 20
-1.000000000000000E+20
 30
-1.000000000000000E+20
  9
$PLIMMIN
 10
0.0
 20
0.0
  9
$PLIMMAX
 10
12.0
 20
9.0
  9
$UNITMODE
 70
     0
  9
$VISRETAIN
 70
     1
  9
$PLINEGEN
 70
     0
  9
$PSLTSCALE
 70
     1
  9
$TREEDEPTH
 70
  3020
  9
$CMLSTYLE
  2
Standard
  9
$CMLJUST
 70
     0
  9
$CMLSCALE
 40
1.0
  9
$PROXYGRAPHICS
 70
     1
  9
$MEASUREMENT
 70
     0
  9
$CELWEIGHT
370
    -1
  9
$ENDCAPS
280
     0
  9
$JOINSTYLE
280
     0
  9
$LWDISPLAY
290
     0
  9
$INSUNITS
 70
     4
  9
$HYPERLINKBASE
  1

  9
$STYLESHEET
  1

  9
$XEDIT
290
     1
  9
$CEPSNTYPE
380
     0
  9
$PSTYLEMODE
290
     1
  9
$FINGERPRINTGUID
  2
{ddbbe62f-4eed-4e37-a14f-78623b2428f9}
  9
$VERSIONGUID
  2
{FAEB1C32-E019-11D5-929B-00C0DF256EC4}
  9
$EXTNAMES
290
     1
  9
$PSVPSCALE
 40
0.0
  9
$OLESTARTUP
290
     0
  9
$SORTENTS
280
   127
  9
$INDEXCTL
280
     0
  9
$HIDETEXT
280
     1
  9
$XCLIPFRAME
280
     2
  9
$HALOGAP
280
     0
  9
$OBSCOLOR
 70
   257
  9
$OBSLTYPE
280
     0
  9
$INTERSECTIONDISPLAY
280
     0
  9
$INTERSECTIONCOLOR
 70
   257
  9
$DIMASSOC
280
     2
  9
$PROJECTNAME
  1

  9
$CAMERADISPLAY
290
     0
  9
$LENSLENGTH
 40
50.0
  9
$CAMERAHEIGHT
 40
0.0
  9
$STEPSPERSEC
 40
2.0
  9
$STEPSIZE
 40
6.0
  9
$3DDWFPREC
 40
2.0
  9
$PSOLWIDTH
 40
0.25
  9
$PSOLHEIGHT
 40
4.0
  9
$LOFTANG1
 40
1.570796326794897
  9
$LOFTANG2
 40
1.570796326794897
  9
$LOFTMAG1
 40
0.0
  9
$LOFTMAG2
 40
0.0
  9
$LOFTPARAM
 70
     7
  9
$LOFTNORMALS
280
     1
  9
$LATITUDE
 40
37.795
  9
$LONGITUDE
 40
-122.394
  9
$NORTHDIRECTION
 40
0.0
  9
$TIMEZONE
 70
 -8000
  9
$LIGHTGLYPHDISPLAY
280
     1
  9
$TILEMODELIGHTSYNCH
280
     1
  9
$CMATERIAL
347
44
  9
$SOLIDHIST
280
     0
  9
$SHOWHIST
280
     1
  9
$DWFFRAME
280
     2
  9
$DGNFRAME
280
     2
  9
$REALWORLDSCALE
290
     1
  9
$INTERFERECOLOR
 62
   256
  9
$CSHADOW
280
     0
  9
$SHADOWPLANELOCATION
 40
0.0
  0
ENDSEC
  0
SECTION
  2
CLASSES
  0
CLASS
  1
ACDBDICTIONARYWDFLT
  2
AcDbDictionaryWithDefault
  3
ObjectDBX Classes
 90
        0
 91
        3
280
     0
281
     0
  0
CLASS
  1
VISUALSTYLE
  2
AcDbVisualStyle
  3
ObjectDBX Classes
 90
     4095
 91
        3
280
     0
281
     0
  0
CLASS
  1
MATERIAL
  2
AcDbMaterial
  3
ObjectDBX Classes
 90
     1153
 91
        3
280
     0
281
     0
  0
CLASS
  1
SCALE
  2
AcDbScale
  3
ObjectDBX Classes
 90
     1153
 91
        3
280
     0
281
     0
  0
CLASS
  1
TABLESTYLE
  2
AcDbTableStyle
  3
ObjectDBX Classes
 90
     4095
 91
        3
280
     0
281
     0
  0
CLASS
  1
MLEADERSTYLE
  2
AcDbMLeaderStyle
  3
ACDB_MLEADERSTYLE_CLASS
 90
     4095
 91
        3
280
     0
281
     0
  0
CLASS
  1
SUN
  2
AcDbSun
  3
SCENEOE
 90
     1153
 91
        3
280
     0
281
     0
  0
CLASS
  1
DICTIONARYVAR
  2
AcDbDictionaryVar
  3
ObjectDBX Classes
 90
        0
 91
        3
280
     0
281
     0
  0
CLASS
  1
CELLSTYLEMAP
  2
AcDbCellStyleMap
  3
ObjectDBX Classes
 90
     1152
 91
        3
280
     0
281
     0
  0
ENDSEC
  0
SECTION
  2
TABLES
  0
TABLE
  2
VPORT
  5
8
330
0
100
AcDbSymbolTable
 70
     1
  0
VPORT
  5
29
330
8
100
AcDbSymbolTableRecord
100
AcDbViewportTableRecord
  2
*Active
 70
     0
 10
0.0
 20
0.0
 11
1.0
 21
1.0
 12
10.42990654205607
 22
4.5
 13
0.0
 23
0.0
 14
0.5
 24
0.5
 15
0.5
 25
0.5
 16
0.0
 26
0.0
 36
1.0
 17
0.0
 27
0.0
 37
0.0
 40
9.0
 41
1.972972972850329
 42
50.0
 43
0.0
 44
0.0
 50
0.0
 51
0.0
 71
     0
 72
   100
 73
     1
 74
     3
 75
     0
 76
     0
 77
     0
 78
     0
281
     0
 65
     1
110
0.0
120
0.0
130
0.0
111
1.0
121
0.0
131
0.0
112
0.0
122
1.0
132
0.0
 79
     0
146
0.0
348
2F
 60
     3
 61
     5
292
     1
282
     1
141
0.0
142
0.0
 63
   250
361
5D
  0
ENDTAB
  0
TABLE
  2
LTYPE
  5
5
330
0
100
AcDbSymbolTable
 70
     3
  0
LTYPE
  5
14
330
5
100
AcDbSymbolTableRecord
100
AcDbLinetypeTableRecord
  2
ByBlock
 70
     0
  3

 72
    65
 73
     0
 40
0.0
  0
LTYPE
  5
15
330
5
100
AcDbSymbolTableRecord
100
AcDbLinetypeTableRecord
  2
ByLayer
 70
     0
  3

 72
    65
 73
     0
 40
0.0
  0
LTYPE
  5
16
330
5
100
AcDbSymbolTableRecord
100
AcDbLinetypeTableRecord
  2
Continuous
 70
     0
  3
Solid line
 72
    65
 73
     0
 40
0.0
  0
LTYPE
  5
63
330
5
100
AcDbSymbolTableRecord
100
AcDbLinetypeTableRecord
  2
New Line1
 70
     0
  3

 72
    65
 73
     2
 40
0.3
 49
0.2
 74
     4
 75
     0
340
0
 46
1.0
 50
0.0
 44
0.0
 45
0.0
 49
-0.1
 74
     4
 75
     0
340
0
 46
1.0
 50
0.0
 44
0.0
 45
0.0
  0
LTYPE
  5
65
330
5
100
AcDbSymbolTableRecord
100
AcDbLinetypeTableRecord
  2
New Line2
 70
     0
  3

 72
    65
 73
     2
 40
0.3
 49
0.2
 74
     4
 75
     0
340
0
 46
1.0
 50
0.0
 44
0.0
 45
0.0
 49
-0.1
 74
     4
 75
     0
340
0
 46
1.0
 50
0.0
 44
0.0
 45
0.0
  0
ENDTAB
  0
TABLE
  2
LAYER
  5
2
330
0
100
AcDbSymbolTable
 70
     2
  0
LAYER
  5
10
330
2
100
AcDbSymbolTableRecord
100
AcDbLayerTableRecord
  2
0
 70
     0
 62
     7
  6
Continuous
370
    -3
390
F
347
46
348
0
  0
LAYER
  5
5F
330
2
100
AcDbSymbolTableRecord
100
AcDbLayerTableRecord
  2
Layer 1
 70
     0
 62
     7
  6
Continuous
370
    -3
390
F
347
46
348
0
  0
ENDTAB
  0
TABLE
  2
STYLE
  5
3
330
0
100
AcDbSymbolTable
 70
     1
  0
STYLE
  5
11
330
3
100
AcDbSymbolTableRecord
100
AcDbTextStyleTableRecord
  2
Standard
 70
     0
 40
0.0
 41
1.0
 50
0.0
 71
     0
 42
0.2
  3
txt
  4

  0
ENDTAB
  0
TABLE
  2
VIEW
  5
6
330
0
100
AcDbSymbolTable
 70
     0
  0
ENDTAB
  0
TABLE
  2
UCS
  5
7
330
0
100
AcDbSymbolTable
 70
     0
  0
ENDTAB
  0
TABLE
  2
APPID
  5
9
330
0
100
AcDbSymbolTable
 70
     2
  0
APPID
  5
12
330
9
100
AcDbSymbolTableRecord
100
AcDbRegAppTableRecord
  2
ACAD
 70
     0
  0
APPID
  5
5E
330
9
100
AcDbSymbolTableRecord
100
AcDbRegAppTableRecord
  2
ODA
 70
     0
  0
ENDTAB
  0
TABLE
  2
DIMSTYLE
  5
A
330
0
100
AcDbSymbolTable
 70
     1
100
AcDbDimStyleTable
  0
DIMSTYLE
105
27
330
A
100
AcDbSymbolTableRecord
100
AcDbDimStyleTableRecord
  2
Standard
 70
     0
178
     0
340
11
  0
ENDTAB
  0
TABLE
  2
BLOCK_RECORD
  5
1
330
0
100
AcDbSymbolTable
 70
     1
  0
BLOCK_RECORD
  5
1F
330
1
100
AcDbSymbolTableRecord
100
AcDbBlockTableRecord
  2
*Model_Space
340
22
 70
     0
280
     1
281
     0
  0
BLOCK_RECORD
  5
1B
330
1
100
AcDbSymbolTableRecord
100
AcDbBlockTableRecord
  2
*Paper_Space
340
1E
 70
     0
280
     1
281
     0
  0
BLOCK_RECORD
  5
23
330
1
100
AcDbSymbolTableRecord
100
AcDbBlockTableRecord
  2
*Paper_Space0
340
26
 70
     0
280
     1
281
     0
  0
ENDTAB
  0
ENDSEC
  0
SECTION
  2
BLOCKS
  0
BLOCK
  5
20
330
1F
100
AcDbEntity
  8
0
100
AcDbBlockBegin
  2
*Model_Space
 70
     0
 10
0.0
 20
0.0
 30
0.0
  3
*Model_Space
  1

  0
ENDBLK
  5
21
330
1F
100
AcDbEntity
  8
0
100
AcDbBlockEnd
  0
BLOCK
  5
1C
330
1B
100
AcDbEntity
 67
     1
  8
0
100
AcDbBlockBegin
  2
*Paper_Space
 70
     0
 10
0.0
 20
0.0
 30
0.0
  3
*Paper_Space
  1

  0
ENDBLK
  5
1D
330
1B
100
AcDbEntity
 67
     1
  8
0
100
AcDbBlockEnd
  0
BLOCK
  5
24
330
23
100
AcDbEntity
  8
0
100
AcDbBlockBegin
  2
*Paper_Space0
 70
     0
 10
0.0
 20
0.0
 30
0.0
  3
*Paper_Space0
  1

  0
ENDBLK
  5
25
330
23
100
AcDbEntity
  8
0
100
AcDbBlockEnd
  0
ENDSEC
  0
SECTION
  2
ENTITIES
  0
LWPOLYLINE
  5
60
330
1F
100
AcDbEntity
  8
Layer 1
 62
   250
370
     9
100
AcDbPolyline
 90
        5
 70
     1
 43
0.0
 10
128.6752
 20
-75.9812
 10
564.81
 20
-75.9812
 10
564.81
 20
284.7094
 10
128.6752
 20
284.7094
 10
128.6752
 20
-75.9812
  0
LWPOLYLINE
  5
61
330
1F
100
AcDbEntity
  8
Layer 1
 62
     7
370
    25
100
AcDbPolyline
 90
        2
 70
     0
 43
0.0
 10
324.3945
 20
210.0139
 10
529.3929
 20
210.0139
  0
LWPOLYLINE
  5
62
330
1F
100
AcDbEntity
  8
Layer 1
  6
New Line1
 62
     7
370
    25
100
AcDbPolyline
 90
        2
 70
     0
 43
0.0
 10
506.5432
 20
209.1428
 10
512.7265
 20
-21.4675
  0
LWPOLYLINE
  5
64
330
1F
100
AcDbEntity
  8
Layer 1
  6
New Line2
 62
     7
370
    25
100
AcDbPolyline
 90
        2
 70
     0
 43
0.0
 10
348.2926
 20
209.1428
 10
346.233
 20
-20.8113
  0
LWPOLYLINE
  5
66
330
1F
100
AcDbEntity
  8
Layer 1
 62
     7
370
    80
100
AcDbPolyline
 90
        2
 70
     0
 43
0.0
 10
379.4468
 20
-14.302
 10
468.2806
 20
-14.2005
  0
LWPOLYLINE
  5
67
330
1F
100
AcDbEntity
  8
Layer 1
 62
     7
370
   100
100
AcDbPolyline
 90
        3
 70
     0
 43
0.0
 10
385.5928
 20
-8.5548
 10
364.5975
 20
-13.9899
 10
388.1405
 20
-19.745
  0
LWPOLYLINE
  5
68
330
1F
100
AcDbEntity
  8
Layer 1
 62
     7
370
   100
100
AcDbPolyline
 90
        3
 70
     0
 43
0.0
 10
467.6009
 20
-19.6036
 10
488.5962
 20
-14.1686
 10
465.0532
 20
-8.4134
  0
LWPOLYLINE
  5
69
330
1F
100
AcDbEntity
  8
Layer 1
 62
     7
370
    80
100
AcDbPolyline
 90
        2
 70
     0
 43
0.0
 10
333.1603
 20
223.7363
 10
520.5269
 20
223.8723
  0
LWPOLYLINE
  5
6A
330
1F
100
AcDbEntity
  8
Layer 1
 62
     7
370
   100
100
AcDbPolyline
 90
        3
 70
     0
 43
0.0
 10
350.4599
 20
231.4526
 10
330.9739
 20
224.1555
 10
352.8244
 20
216.4288
  0
LWPOLYLINE
  5
6B
330
1F
100
AcDbEntity
  8
Layer 1
 62
     7
370
   100
100
AcDbPolyline
 90
        3
 70
     0
 43
0.0
 10
503.33
 20
216.6186
 10
522.816
 20
223.9157
 10
500.9655
 20
231.6424
  0
LWPOLYLINE
  5
6C
330
1F
100
AcDbEntity
  8
Layer 1
 62
     7
370
    80
100
AcDbPolyline
 90
        2
 70
     0
 43
0.0
 10
442.9614
 20
172.0025
 10
443.2409
 20
33.8275
  0
LWPOLYLINE
  5
6D
330
1F
100
AcDbEntity
  8
Layer 1
 62
     7
370
    90
100
AcDbPolyline
 90
        3
 70
     0
 43
0.0
 10
458.8183
 20
159.2448
 10
443.8229
 20
173.6149
 10
427.9445
 20
157.5011
  0
LWPOLYLINE
  5
6E
330
1F
100
AcDbEntity
  8
Layer 1
 62
     7
370
    90
100
AcDbPolyline
 90
        3
 70
     0
 43
0.0
 10
428.3345
 20
46.5095
 10
443.33
 20
32.1394
 10
459.2084
 20
48.2532
  0
LWPOLYLINE
  5
6F
330
1F
100
AcDbEntity
  8
Layer 1
 62
     7
370
     9
100
AcDbPolyline
 90
       87
 70
     1
 43
0.0
 10
331.6004
 20
236.0062
 10
360.0705
 20
236.0872
 10
360.0465
 20
238.0588
 10
341.6206
 20
238.0063
 10
355.6229
 20
244.6623
 10
356.5365
 20
245.1414
 10
357.3272
 20
245.644
 10
357.9949
 20
246.1701
 10
358.5397
 20
246.7196
 10
358.9615
 20
247.2926
 10
359.2605
 20
247.8889
 10
359.4366
 20
248.5086
 10
359.4899
 20
249.1516
 10
359.4184
 20
249.8084
 10
359.2219
 20
250.4385
 10
358.9004
 20
251.0419
 10
358.4539
 20
251.6187
 10
357.8825
 20
252.1687
 10
357.1862
 20
252.6919
 10
356.365
 20
253.1884
 10
355.419
 20
253.6581
 10
354.3689
 20
254.0944
 10
353.273
 20
254.4719
 10
352.1315
 20
254.7906
 10
350.9442
 20
255.0506
 10
349.7111
 20
255.2518
 10
348.4323
 20
255.3943
 10
347.1076
 20
255.478
 10
345.7371
 20
255.5031
 10
344.3149
 20
255.4685
 10
342.9465
 20
255.3725
 10
341.632
 20
255.2149
 10
340.3714
 20
254.9958
 10
339.1645
 20
254.7152
 10
338.0112
 20
254.3731
 10
336.9116
 20
253.9694
 10
335.8656
 20
253.5042
 10
334.9354
 20
253.0047
 10
334.1384
 20
252.4796
 10
333.4745
 20
251.9289
 10
332.9437
 20
251.3526
 10
332.5461
 20
250.7506
 10
332.2816
 20
250.1231
 10
332.1503
 20
249.47
 10
332.1521
 20
248.7913
 10
336.3718
 20
248.8038
 10
336.3311
 20
249.2436
 10
336.3907
 20
249.6736
 10
336.5507
 20
250.0938
 10
336.8111
 20
250.5042
 10
337.1719
 20
250.9048
 10
337.6331
 20
251.2956
 10
338.1948
 20
251.6767
 10
338.857
 20
252.048
 10
339.5658
 20
252.3801
 10
340.3122
 20
252.6683
 10
341.0963
 20
252.9126
 10
341.918
 20
253.1129
 10
342.7776
 20
253.2694
 10
343.675
 20
253.382
 10
344.6103
 20
253.4508
 10
345.5835
 20
253.4757
 10
346.5397
 20
253.4585
 10
347.4597
 20
253.4016
 10
348.3438
 20
253.3052
 10
349.1921
 20
253.1691
 10
350.0045
 20
252.9932
 10
350.7813
 20
252.7776
 10
351.5226
 20
252.5222
 10
352.2285
 20
252.227
 10
352.88
 20
251.9008
 10
353.4455
 20
251.5584
 10
353.9251
 20
251.1999
 10
354.3185
 20
250.8253
 10
354.6258
 20
250.4345
 10
354.847
 20
250.0276
 10
354.9818
 20
249.6045
 10
355.0304
 20
249.1653
 10
354.9947
 20
248.7165
 10
354.8749
 20
248.285
 10
354.6712
 20
247.871
 10
354.3836
 20
247.4744
 10
354.0123
 20
247.0951
 10
353.5572
 20
246.7332
 10
353.0186
 20
246.3886
 10
352.3964
 20
246.0614
 10
331.6004
 20
236.0062
  0
LWPOLYLINE
  5
70
330
1F
100
AcDbEntity
  8
Layer 1
 62
     7
370
     9
100
AcDbPolyline
 90
      127
 70
     1
 43
0.0
 10
384.0762
 20
253.0777
 10
384.7648
 20
252.8591
 10
385.4075
 20
252.6103
 10
386.0043
 20
252.3314
 10
386.5552
 20
252.0224
 10
387.06
 20
251.6831
 10
387.5188
 20
251.3138
 10
387.9316
 20
250.9143
 10
388.2983
 20
250.4846
 10
388.7095
 20
249.9151
 10
389.067
 20
249.3371
 10
389.3707
 20
248.7506
 10
389.6207
 20
248.1556
 10
389.8169
 20
247.552
 10
389.9594
 20
246.9399
 10
390.0481
 20
246.3191
 10
390.0831
 20
245.6897
 10
390.0821
 20
245.5388
 10
390.0755
 20
245.3812
 10
390.0634
 20
245.2169
 10
390.0459
 20
245.0458
 10
389.9947
 20
244.6838
 10
389.9223
 20
244.2951
 10
389.7251
 20
243.5376
 10
389.4644
 20
242.8218
 10
389.1402
 20
242.1475
 10
388.7525
 20
241.5149
 10
388.3013
 20
240.9239
 10
387.7866
 20
240.3746
 10
387.2082
 20
239.8669
 10
386.5663
 20
239.4009
 10
385.979
 20
239.0492
 10
385.3595
 20
238.7441
 10
384.7078
 20
238.4856
 10
384.024
 20
238.2737
 10
383.3081
 20
238.1085
 10
382.5599
 20
237.9898
 10
381.7796
 20
237.9177
 10
380.9672
 20
237.8923
 10
380.0603
 20
237.9129
 10
379.1964
 20
237.9797
 10
378.3755
 20
238.0929
 10
377.5977
 20
238.2523
 10
376.8629
 20
238.458
 10
376.1712
 20
238.7101
 10
375.5226
 20
239.0084
 10
374.9172
 20
239.353
 10
374.6609
 20
239.5203
 10
374.4154
 20
239.6929
 10
374.1809
 20
239.8709
 10
373.9574
 20
240.0542
 10
373.745
 20
240.2427
 10
373.5439
 20
240.4366
 10
373.354
 20
240.6357
 10
373.1756
 20
240.84
 10
373.0071
 20
241.048
 10
372.849
 20
241.2573
 10
372.701
 20
241.468
 10
372.5633
 20
241.6799
 10
372.4357
 20
241.8932
 10
372.3181
 20
242.1079
 10
372.2105
 20
242.3239
 10
372.1129
 20
242.5413
 10
372.0244
 20
242.7581
 10
371.9424
 20
242.9734
 10
371.867
 20
243.187
 10
371.7981
 20
243.3989
 10
371.7357
 20
243.6092
 10
371.6798
 20
243.8179
 10
371.6304
 20
244.0248
 10
371.5876
 20
244.2301
 10
371.5501
 20
244.4376
 10
371.517
 20
244.6532
 10
371.4883
 20
244.8766
 10
371.464
 20
245.1079
 10
371.4442
 20
245.3469
 10
371.429
 20
245.5937
 10
371.4184
 20
245.8483
 10
371.4124
 20
246.1104
 10
371.4197
 20
246.384
 10
371.4471
 20
246.6736
 10
371.4946
 20
246.9794
 10
371.5621
 20
247.3012
 10
371.6498
 20
247.6392
 10
371.7576
 20
247.9933
 10
371.8856
 20
248.3636
 10
372.0338
 20
248.7502
 10
372.1255
 20
248.9647
 10
372.226
 20
249.1789
 10
372.3357
 20
249.3927
 10
372.4545
 20
249.6062
 10
372.5826
 20
249.8193
 10
372.7203
 20
250.032
 10
372.8675
 20
250.2442
 10
373.0245
 20
250.4561
 10
373.1908
 20
250.6652
 10
373.3694
 20
250.869
 10
373.5603
 20
251.0675
 10
373.7634
 20
251.2608
 10
373.9786
 20
251.4487
 10
374.2059
 20
251.6314
 10
374.4452
 20
251.8087
 10
374.6965
 20
251.9807
 10
374.9612
 20
252.1463
 10
375.239
 20
252.3036
 10
375.5298
 20
252.4525
 10
375.8336
 20
252.5932
 10
376.1505
 20
252.7256
 10
376.4804
 20
252.8497
 10
376.8234
 20
252.9655
 10
377.1794
 20
253.0731
 10
377.5511
 20
253.1698
 10
377.9396
 20
253.2538
 10
378.3448
 20
253.325
 10
378.7668
 20
253.3836
 10
379.2057
 20
253.4294
 10
379.6616
 20
253.4625
 10
380.1344
 20
253.4829
 10
380.6242
 20
253.4905
 10
381.1127
 20
253.4855
 10
381.5849
 20
253.467
 10
382.0409
 20
253.4352
 10
382.4807
 20
253.3901
 10
382.9041
 20
253.3318
 10
383.3112
 20
253.2602
 10
383.7019
 20
253.1755
 10
384.0762
 20
253.0777
  0
LWPOLYLINE
  5
71
330
1F
100
AcDbEntity
  8
Layer 1
 62
     7
370
     9
100
AcDbPolyline
 90
       65
 70
     1
 43
0.0
 10
381.0536
 20
235.8933
 10
382.788
 20
235.9504
 10
384.4107
 20
236.1114
 10
385.9218
 20
236.3764
 10
387.321
 20
236.7453
 10
388.6084
 20
237.2181
 10
389.7838
 20
237.795
 10
390.8471
 20
238.4758
 10
391.7983
 20
239.2606
 10
392.4654
 20
239.9448
 10
393.042
 20
240.6666
 10
393.5279
 20
241.426
 10
393.9231
 20
242.223
 10
394.2277
 20
243.0576
 10
394.4417
 20
243.9297
 10
394.5651
 20
244.8394
 10
394.5978
 20
245.7866
 10
394.5405
 20
246.7339
 10
394.3939
 20
247.6429
 10
394.1578
 20
248.5138
 10
393.8322
 20
249.3466
 10
393.417
 20
250.1413
 10
392.912
 20
250.8981
 10
392.3173
 20
251.6168
 10
391.6327
 20
252.2977
 10
390.6614
 20
253.0768
 10
389.5808
 20
253.7514
 10
388.391
 20
254.3214
 10
387.0919
 20
254.787
 10
385.6837
 20
255.148
 10
384.1663
 20
255.4044
 10
382.5397
 20
255.5563
 10
380.8041
 20
255.6035
 10
379.069
 20
255.5464
 10
377.4459
 20
255.3852
 10
375.9348
 20
255.1201
 10
374.5355
 20
254.7511
 10
373.2482
 20
254.2782
 10
372.0727
 20
253.7013
 10
371.009
 20
253.0206
 10
370.0571
 20
252.2361
 10
369.3907
 20
251.5516
 10
368.8148
 20
250.8297
 10
368.3293
 20
250.0702
 10
367.9344
 20
249.2732
 10
367.6299
 20
248.4386
 10
367.416
 20
247.5665
 10
367.2927
 20
246.6566
 10
367.26
 20
245.7091
 10
367.3165
 20
244.7621
 10
367.4628
 20
243.8531
 10
367.6987
 20
242.9821
 10
368.0243
 20
242.1492
 10
368.4395
 20
241.3544
 10
368.9443
 20
240.5978
 10
369.5387
 20
239.8793
 10
370.2226
 20
239.1991
 10
371.1939
 20
238.4197
 10
372.2746
 20
237.745
 10
373.4645
 20
237.1748
 10
374.7637
 20
236.7094
 10
376.1722
 20
236.3485
 10
377.6901
 20
236.0922
 10
379.3172
 20
235.9404
 10
381.0536
 20
235.8933
  0
LWPOLYLINE
  5
72
330
1F
100
AcDbEntity
  8
Layer 1
 62
     7
370
     9
100
AcDbPolyline
 90
      137
 70
     1
 43
0.0
 10
418.877
 20
236.4646
 10
419.483
 20
236.5952
 10
420.0702
 20
236.7372
 10
420.6388
 20
236.8906
 10
421.1886
 20
237.0555
 10
421.7197
 20
237.2317
 10
422.2319
 20
237.4192
 10
422.7253
 20
237.6181
 10
423.1998
 20
237.8284
 10
424.1344
 20
238.304
 10
424.9429
 20
238.8055
 10
425.6255
 20
239.333
 10
426.1823
 20
239.8864
 10
426.6133
 20
240.4657
 10
426.9187
 20
241.0711
 10
427.0986
 20
241.7025
 10
427.1532
 20
242.36
 10
427.0817
 20
243.0176
 10
426.8832
 20
243.6493
 10
426.5579
 20
244.2551
 10
426.1055
 20
244.835
 10
425.526
 20
245.3891
 10
424.8194
 20
245.9173
 10
423.9857
 20
246.4196
 10
423.0247
 20
246.8961
 10
422.0336
 20
247.3063
 10
420.9799
 20
247.6673
 10
419.8636
 20
247.9789
 10
418.6848
 20
248.2412
 10
417.4433
 20
248.4542
 10
416.1391
 20
248.6178
 10
414.7723
 20
248.7321
 10
413.3427
 20
248.797
 10
411.5676
 20
248.285
 10
424.1354
 20
255.4165
 10
402.3846
 20
255.3537
 10
402.4086
 20
253.3833
 10
415.7224
 20
253.4221
 10
403.5624
 20
246.6281
 10
406.729
 20
245.4274
 10
407.4548
 20
245.7462
 10
408.2147
 20
246.0229
 10
409.0084
 20
246.2573
 10
409.8362
 20
246.4497
 10
410.6979
 20
246.5999
 10
411.5935
 20
246.708
 10
412.5231
 20
246.774
 10
413.4867
 20
246.798
 10
414.4494
 20
246.7801
 10
415.3763
 20
246.7213
 10
416.2677
 20
246.6215
 10
417.1234
 20
246.4808
 10
417.9436
 20
246.2991
 10
418.7283
 20
246.0765
 10
419.4776
 20
245.8129
 10
420.1916
 20
245.5084
 10
420.8431
 20
245.1743
 10
421.4086
 20
244.8239
 10
421.8882
 20
244.4571
 10
422.2816
 20
244.0739
 10
422.5889
 20
243.6741
 10
422.8101
 20
243.2579
 10
422.9449
 20
242.8252
 10
422.9935
 20
242.3759
 10
422.9547
 20
241.9364
 10
422.8275
 20
241.5115
 10
422.612
 20
241.1013
 10
422.308
 20
240.7058
 10
421.9157
 20
240.325
 10
421.435
 20
239.9589
 10
420.8659
 20
239.6075
 10
420.2084
 20
239.2709
 10
419.8839
 20
239.1255
 10
419.5454
 20
238.9877
 10
419.1929
 20
238.8576
 10
418.8263
 20
238.735
 10
418.4457
 20
238.6198
 10
418.0511
 20
238.5121
 10
417.6423
 20
238.4117
 10
417.2194
 20
238.3187
 10
416.7789
 20
238.2348
 10
416.3158
 20
238.162
 10
415.83
 20
238.1001
 10
415.3215
 20
238.0492
 10
414.7905
 20
238.0093
 10
414.2369
 20
237.9803
 10
413.6608
 20
237.9622
 10
413.0621
 20
237.955
 10
412.4536
 20
237.9654
 10
411.8446
 20
238.0001
 10
411.2349
 20
238.0589
 10
410.6248
 20
238.142
 10
410.0142
 20
238.2492
 10
409.4032
 20
238.3806
 10
408.7919
 20
238.536
 10
408.1803
 20
238.7156
 10
407.5907
 20
238.9162
 10
407.0455
 20
239.134
 10
406.5445
 20
239.3691
 10
406.0879
 20
239.6214
 10
405.6755
 20
239.891
 10
405.3075
 20
240.1779
 10
404.9837
 20
240.482
 10
404.7043
 20
240.8035
 10
400.6718
 20
240.1444
 10
401.0619
 20
239.6864
 10
401.5214
 20
239.2507
 10
402.0502
 20
238.8372
 10
402.6485
 20
238.446
 10
403.3159
 20
238.0771
 10
404.0526
 20
237.7305
 10
404.8585
 20
237.4062
 10
405.7334
 20
237.1043
 10
406.164
 20
236.9717
 10
406.6046
 20
236.8467
 10
407.0553
 20
236.7293
 10
407.5161
 20
236.6194
 10
407.9868
 20
236.5172
 10
408.4676
 20
236.4225
 10
408.9583
 20
236.3354
 10
409.4589
 20
236.2559
 10
409.9722
 20
236.1847
 10
410.4993
 20
236.1232
 10
411.0402
 20
236.0714
 10
411.5948
 20
236.0293
 10
412.1633
 20
235.997
 10
412.7457
 20
235.9744
 10
413.3419
 20
235.9615
 10
413.9521
 20
235.9583
 10
414.5683
 20
235.9677
 10
415.1844
 20
235.9925
 10
415.8005
 20
236.0327
 10
416.4163
 20
236.0883
 10
417.032
 20
236.1593
 10
417.6473
 20
236.2457
 10
418.2624
 20
236.3474
 10
418.877
 20
236.4646
  0
LWPOLYLINE
  5
73
330
1F
100
AcDbEntity
  8
Layer 1
 62
     7
370
     9
100
AcDbPolyline
 90
      169
 70
     1
 43
0.0
 10
466.2192
 20
236.4441
 10
470.3789
 20
236.4566
 10
470.2805
 20
244.1993
 10
470.2405
 20
244.7132
 10
470.1329
 20
245.2028
 10
469.9579
 20
245.6682
 10
469.7153
 20
246.1093
 10
469.4051
 20
246.526
 10
469.0273
 20
246.9183
 10
468.5818
 20
247.286
 10
468.0687
 20
247.6293
 10
467.783
 20
247.7931
 10
467.4799
 20
247.9486
 10
467.1593
 20
248.0955
 10
466.8213
 20
248.2341
 10
466.4657
 20
248.3643
 10
466.0926
 20
248.4861
 10
465.7017
 20
248.5995
 10
465.2932
 20
248.7046
 10
464.8591
 20
248.7991
 10
464.3918
 20
248.8808
 10
463.8911
 20
248.9496
 10
463.357
 20
249.0055
 10
462.7895
 20
249.0486
 10
462.1886
 20
249.0787
 10
461.5542
 20
249.096
 10
460.8864
 20
249.1003
 10
460.2144
 20
249.0876
 10
459.564
 20
249.0529
 10
458.9351
 20
248.9962
 10
458.3277
 20
248.9175
 10
457.7418
 20
248.8168
 10
457.1773
 20
248.6942
 10
456.6343
 20
248.5496
 10
456.1126
 20
248.3831
 10
455.6605
 20
248.2175
 10
455.2289
 20
248.0396
 10
454.8178
 20
247.8497
 10
454.4274
 20
247.6479
 10
454.0577
 20
247.4341
 10
453.7087
 20
247.2086
 10
453.3805
 20
246.9715
 10
453.0732
 20
246.7228
 10
452.9536
 20
246.8378
 10
452.8285
 20
246.9508
 10
452.698
 20
247.0618
 10
452.562
 20
247.1708
 10
452.4205
 20
247.2775
 10
452.2734
 20
247.382
 10
452.1208
 20
247.4841
 10
451.9626
 20
247.5837
 10
451.6767
 20
247.7475
 10
451.3733
 20
247.9029
 10
451.0524
 20
248.0499
 10
450.7139
 20
248.1885
 10
450.3579
 20
248.3187
 10
449.9843
 20
248.4405
 10
449.5932
 20
248.5539
 10
449.1846
 20
248.659
 10
448.7506
 20
248.7535
 10
448.2833
 20
248.835
 10
447.7827
 20
248.9037
 10
447.249
 20
248.9595
 10
446.6821
 20
249.0025
 10
446.0821
 20
249.0327
 10
445.4489
 20
249.0501
 10
444.7827
 20
249.0547
 10
444.1091
 20
249.0416
 10
443.4575
 20
249.0066
 10
442.8278
 20
248.9497
 10
442.22
 20
248.871
 10
441.6341
 20
248.7703
 10
441.0698
 20
248.6478
 10
440.5273
 20
248.5035
 10
440.0065
 20
248.3374
 10
439.5752
 20
248.1795
 10
439.163
 20
248.0111
 10
438.7696
 20
247.8321
 10
438.395
 20
247.6424
 10
438.0391
 20
247.4421
 10
437.7017
 20
247.231
 10
437.3828
 20
247.0091
 10
437.0822
 20
246.7764
 10
437.0558
 20
248.7514
 10
432.8985
 20
248.7388
 10
433.0545
 20
236.3506
 10
437.2141
 20
236.362
 10
437.1326
 20
242.7021
 10
437.2249
 20
243.0717
 10
437.3471
 20
243.427
 10
437.4991
 20
243.7682
 10
437.681
 20
244.0953
 10
437.8927
 20
244.4083
 10
438.1342
 20
244.7075
 10
438.4054
 20
244.9928
 10
438.7063
 20
245.2643
 10
438.9522
 20
245.4575
 10
439.2186
 20
245.6421
 10
439.5055
 20
245.818
 10
439.8128
 20
245.9852
 10
440.1406
 20
246.1436
 10
440.4888
 20
246.2934
 10
440.8575
 20
246.4343
 10
441.2467
 20
246.5666
 10
441.6499
 20
246.6869
 10
442.0608
 20
246.7913
 10
442.4794
 20
246.8798
 10
442.9055
 20
246.9524
 10
443.3394
 20
247.0092
 10
443.7808
 20
247.05
 10
444.2299
 20
247.0751
 10
444.6867
 20
247.0843
 10
445.1331
 20
247.0814
 10
445.5495
 20
247.07
 10
445.936
 20
247.0501
 10
446.2927
 20
247.0218
 10
446.6198
 20
246.9851
 10
446.9172
 20
246.9399
 10
447.1852
 20
246.8863
 10
447.4238
 20
246.8243
 10
448.0255
 20
246.6162
 10
448.5479
 20
246.3717
 10
448.9908
 20
246.0908
 10
449.3544
 20
245.7736
 10
449.6386
 20
245.4201
 10
449.8433
 20
245.0304
 10
449.9687
 20
244.6044
 10
450.0147
 20
244.1423
 10
450.113
 20
236.3985
 10
454.2727
 20
236.4099
 10
454.1743
 20
244.1537
 10
454.1384
 20
244.628
 10
454.29
 20
244.8082
 10
454.4532
 20
244.9814
 10
454.6282
 20
245.1484
 10
454.8148
 20
245.3099
 10
455.06
 20
245.5032
 10
455.3258
 20
245.6879
 10
455.6122
 20
245.8639
 10
455.9193
 20
246.0312
 10
456.2469
 20
246.1897
 10
456.595
 20
246.3395
 10
456.9637
 20
246.4803
 10
457.3529
 20
246.6122
 10
457.7562
 20
246.7325
 10
458.1674
 20
246.8369
 10
458.5863
 20
246.9254
 10
459.0129
 20
246.998
 10
459.4472
 20
247.0548
 10
459.8891
 20
247.0956
 10
460.3384
 20
247.1207
 10
460.7953
 20
247.1299
 10
461.2403
 20
247.127
 10
461.6561
 20
247.1156
 10
462.0425
 20
247.0957
 10
462.3995
 20
247.0674
 10
462.7271
 20
247.0307
 10
463.0251
 20
246.9855
 10
463.2936
 20
246.9319
 10
463.5324
 20
246.8699
 10
464.1341
 20
246.6618
 10
464.6564
 20
246.4173
 10
465.0994
 20
246.1364
 10
465.4629
 20
245.8192
 10
465.7471
 20
245.4657
 10
465.9518
 20
245.076
 10
466.0772
 20
244.65
 10
466.1232
 20
244.1879
 10
466.2192
 20
236.4441
  0
LWPOLYLINE
  5
74
330
1F
100
AcDbEntity
  8
Layer 1
 62
     7
370
     9
100
AcDbPolyline
 90
      169
 70
     1
 43
0.0
 10
511.5703
 20
236.5729
 10
515.73
 20
236.5843
 10
515.6316
 20
244.3281
 10
515.5908
 20
244.842
 10
515.4827
 20
245.3317
 10
515.3073
 20
245.7971
 10
515.0646
 20
246.2382
 10
514.7545
 20
246.6549
 10
514.3771
 20
247.0471
 10
513.9322
 20
247.4149
 10
513.4199
 20
247.7582
 10
513.1334
 20
247.922
 10
512.8296
 20
248.0774
 10
512.5087
 20
248.2244
 10
512.1703
 20
248.363
 10
511.8146
 20
248.4932
 10
511.4413
 20
248.615
 10
511.0504
 20
248.7284
 10
510.6419
 20
248.8335
 10
510.2078
 20
248.928
 10
509.7405
 20
249.0097
 10
509.2399
 20
249.0785
 10
508.706
 20
249.1344
 10
508.1388
 20
249.1775
 10
507.5384
 20
249.2076
 10
506.9046
 20
249.2249
 10
506.2376
 20
249.2292
 10
505.5648
 20
249.2162
 10
504.9138
 20
249.1813
 10
504.2845
 20
249.1245
 10
503.677
 20
249.0459
 10
503.0912
 20
248.9453
 10
502.5271
 20
248.8228
 10
501.9846
 20
248.6783
 10
501.4638
 20
248.5119
 10
501.0109
 20
248.3463
 10
500.5789
 20
248.1685
 10
500.1678
 20
247.9786
 10
499.7773
 20
247.7767
 10
499.4076
 20
247.563
 10
499.0585
 20
247.3375
 10
498.73
 20
247.1003
 10
498.422
 20
246.8516
 10
498.3023
 20
246.9666
 10
498.1773
 20
247.0796
 10
498.0467
 20
247.1907
 10
497.9107
 20
247.2997
 10
497.7692
 20
247.4064
 10
497.6221
 20
247.5109
 10
497.4695
 20
247.613
 10
497.3113
 20
247.7126
 10
497.0262
 20
247.8764
 10
496.7234
 20
248.0318
 10
496.4029
 20
248.1788
 10
496.0647
 20
248.3174
 10
495.7089
 20
248.4476
 10
495.3354
 20
248.5694
 10
494.9444
 20
248.6828
 10
494.5358
 20
248.7879
 10
494.1017
 20
248.8823
 10
493.6344
 20
248.9639
 10
493.1338
 20
249.0325
 10
492.5999
 20
249.0884
 10
492.0327
 20
249.1313
 10
491.4322
 20
249.1615
 10
490.7984
 20
249.1789
 10
490.1314
 20
249.1836
 10
489.4586
 20
249.1705
 10
488.8076
 20
249.1355
 10
488.1782
 20
249.0786
 10
487.5706
 20
248.9999
 10
486.9845
 20
248.8992
 10
486.4199
 20
248.7767
 10
485.8769
 20
248.6324
 10
485.3552
 20
248.4663
 10
484.9246
 20
248.3084
 10
484.5127
 20
248.14
 10
484.1194
 20
247.9609
 10
483.7446
 20
247.7713
 10
483.3884
 20
247.5709
 10
483.0508
 20
247.3598
 10
482.7316
 20
247.138
 10
482.4309
 20
246.9052
 10
482.4069
 20
248.8802
 10
478.2473
 20
248.8677
 10
478.4032
 20
236.4794
 10
482.5629
 20
236.4908
 10
482.4837
 20
242.8309
 10
482.5759
 20
243.2005
 10
482.6979
 20
243.5558
 10
482.8496
 20
243.897
 10
483.0313
 20
244.2241
 10
483.2428
 20
244.5371
 10
483.4843
 20
244.8363
 10
483.7558
 20
245.1216
 10
484.0574
 20
245.3932
 10
484.3033
 20
245.5864
 10
484.5697
 20
245.771
 10
484.8564
 20
245.9468
 10
485.1636
 20
246.114
 10
485.4911
 20
246.2725
 10
485.8389
 20
246.4222
 10
486.207
 20
246.5632
 10
486.5954
 20
246.6954
 10
486.9987
 20
246.8157
 10
487.4099
 20
246.9201
 10
487.8287
 20
247.0086
 10
488.2551
 20
247.0813
 10
488.6891
 20
247.138
 10
489.1305
 20
247.1789
 10
489.5793
 20
247.2039
 10
490.0354
 20
247.2131
 10
490.482
 20
247.2102
 10
490.8987
 20
247.1988
 10
491.2855
 20
247.1789
 10
491.6427
 20
247.1505
 10
491.9701
 20
247.1137
 10
492.268
 20
247.0683
 10
492.5362
 20
247.0144
 10
492.775
 20
246.952
 10
493.3767
 20
246.7443
 10
493.899
 20
246.5001
 10
494.3418
 20
246.2194
 10
494.7052
 20
245.9023
 10
494.9891
 20
245.5489
 10
495.1934
 20
245.1592
 10
495.3182
 20
244.7332
 10
495.3634
 20
244.2711
 10
495.4617
 20
236.5273
 10
499.6214
 20
236.5387
 10
499.5231
 20
244.2825
 10
499.4895
 20
244.7569
 10
499.641
 20
244.9371
 10
499.8041
 20
245.1103
 10
499.9783
 20
245.2773
 10
500.1636
 20
245.4388
 10
500.4087
 20
245.6321
 10
500.6746
 20
245.8167
 10
500.9611
 20
245.9927
 10
501.2683
 20
246.16
 10
501.5962
 20
246.3186
 10
501.9448
 20
246.4683
 10
502.314
 20
246.6091
 10
502.704
 20
246.741
 10
503.1072
 20
246.8613
 10
503.5181
 20
246.9657
 10
503.9367
 20
247.0542
 10
504.3628
 20
247.1269
 10
504.7967
 20
247.1836
 10
505.2381
 20
247.2245
 10
505.6872
 20
247.2495
 10
506.144
 20
247.2587
 10
506.5898
 20
247.2558
 10
507.0062
 20
247.2444
 10
507.3929
 20
247.2245
 10
507.75
 20
247.1963
 10
508.0775
 20
247.1596
 10
508.3752
 20
247.1144
 10
508.6431
 20
247.0608
 10
508.8811
 20
246.9987
 10
509.4828
 20
246.7906
 10
510.0052
 20
246.5461
 10
510.4481
 20
246.2653
 10
510.8117
 20
245.9481
 10
511.0959
 20
245.5946
 10
511.3006
 20
245.2048
 10
511.426
 20
244.7788
 10
511.472
 20
244.3167
 10
511.5703
 20
236.5729
  0
LWPOLYLINE
  5
75
330
1F
100
AcDbEntity
  8
Layer 1
 62
     7
370
     9
100
AcDbPolyline
 90
       87
 70
     1
 43
0.0
 10
340.757
 20
-44.2814
 10
369.2271
 20
-44.2004
 10
369.2007
 20
-42.2288
 10
350.7772
 20
-42.2813
 10
364.7771
 20
-35.6253
 10
365.6915
 20
-35.1462
 10
366.4828
 20
-34.6437
 10
367.1508
 20
-34.1178
 10
367.6957
 20
-33.5685
 10
368.1174
 20
-32.9958
 10
368.416
 20
-32.3996
 10
368.5916
 20
-31.7801
 10
368.6441
 20
-31.1371
 10
368.5734
 20
-30.48
 10
368.3775
 20
-29.8496
 10
368.0564
 20
-29.2459
 10
367.6102
 20
-28.6691
 10
367.039
 20
-28.119
 10
366.3428
 20
-27.5957
 10
365.5216
 20
-27.0992
 10
364.5756
 20
-26.6295
 10
363.5248
 20
-26.1936
 10
362.4286
 20
-25.8164
 10
361.2869
 20
-25.4978
 10
360.0996
 20
-25.2379
 10
358.8665
 20
-25.0366
 10
357.5875
 20
-24.894
 10
356.2625
 20
-24.8099
 10
354.8913
 20
-24.7845
 10
353.4698
 20
-24.8191
 10
352.1021
 20
-24.9153
 10
350.788
 20
-25.073
 10
349.5276
 20
-25.2922
 10
348.3209
 20
-25.5728
 10
347.1677
 20
-25.915
 10
346.0682
 20
-26.3185
 10
345.0222
 20
-26.7834
 10
344.092
 20
-27.2829
 10
343.295
 20
-27.808
 10
342.6311
 20
-28.3587
 10
342.1003
 20
-28.935
 10
341.7027
 20
-29.537
 10
341.4382
 20
-30.1645
 10
341.3069
 20
-30.8176
 10
341.3087
 20
-31.4963
 10
345.526
 20
-31.4838
 10
345.486
 20
-31.044
 10
345.546
 20
-30.614
 10
345.7061
 20
-30.1938
 10
345.9665
 20
-29.7834
 10
346.3273
 20
-29.3828
 10
346.7886
 20
-28.992
 10
347.3507
 20
-28.6109
 10
348.0136
 20
-28.2396
 10
348.7224
 20
-27.9075
 10
349.4688
 20
-27.6193
 10
350.2528
 20
-27.375
 10
351.0746
 20
-27.1747
 10
351.9342
 20
-27.0182
 10
352.8316
 20
-26.9056
 10
353.7668
 20
-26.8368
 10
354.7401
 20
-26.8119
 10
355.6963
 20
-26.8291
 10
356.6163
 20
-26.886
 10
357.5004
 20
-26.9824
 10
358.3487
 20
-27.1186
 10
359.1611
 20
-27.2944
 10
359.9379
 20
-27.51
 10
360.6792
 20
-27.7654
 10
361.3851
 20
-28.0606
 10
362.0366
 20
-28.3868
 10
362.6021
 20
-28.7291
 10
363.0817
 20
-29.0876
 10
363.4751
 20
-29.4623
 10
363.7824
 20
-29.8531
 10
364.0036
 20
-30.26
 10
364.1384
 20
-30.6831
 10
364.187
 20
-31.1223
 10
364.1506
 20
-31.5711
 10
364.0305
 20
-32.0026
 10
363.8267
 20
-32.4166
 10
363.5393
 20
-32.8132
 10
363.1682
 20
-33.1925
 10
362.7135
 20
-33.5544
 10
362.1751
 20
-33.899
 10
361.553
 20
-34.2262
 10
340.757
 20
-44.2814
  0
LWPOLYLINE
  5
76
330
1F
100
AcDbEntity
  8
Layer 1
 62
     7
370
     9
100
AcDbPolyline
 90
      127
 70
     1
 43
0.0
 10
393.2304
 20
-27.2099
 10
393.9198
 20
-27.4288
 10
394.5631
 20
-27.6777
 10
395.1603
 20
-27.9567
 10
395.7115
 20
-28.2657
 10
396.2165
 20
-28.6047
 10
396.6754
 20
-28.9739
 10
397.0882
 20
-29.3733
 10
397.4549
 20
-29.8029
 10
397.8661
 20
-30.3725
 10
398.2236
 20
-30.9506
 10
398.5273
 20
-31.5373
 10
398.7772
 20
-32.1324
 10
398.9734
 20
-32.7361
 10
399.1159
 20
-33.3482
 10
399.2046
 20
-33.9688
 10
399.2396
 20
-34.5979
 10
399.2386
 20
-34.7488
 10
399.232
 20
-34.9066
 10
399.22
 20
-35.071
 10
399.2025
 20
-35.2422
 10
399.1513
 20
-35.6043
 10
399.0789
 20
-35.9925
 10
398.8817
 20
-36.75
 10
398.621
 20
-37.4658
 10
398.2968
 20
-38.1401
 10
397.9091
 20
-38.7727
 10
397.4579
 20
-39.3637
 10
396.9432
 20
-39.913
 10
396.3648
 20
-40.4207
 10
395.7229
 20
-40.8867
 10
395.1356
 20
-41.2384
 10
394.5161
 20
-41.5435
 10
393.8644
 20
-41.802
 10
393.1806
 20
-42.0139
 10
392.4647
 20
-42.1791
 10
391.7165
 20
-42.2978
 10
390.9362
 20
-42.3699
 10
390.1238
 20
-42.3953
 10
389.2162
 20
-42.3748
 10
388.352
 20
-42.308
 10
387.5311
 20
-42.195
 10
386.7534
 20
-42.0357
 10
386.0189
 20
-41.83
 10
385.3275
 20
-41.578
 10
384.6791
 20
-41.2795
 10
384.0738
 20
-40.9346
 10
383.8167
 20
-40.7674
 10
383.5709
 20
-40.5948
 10
383.3362
 20
-40.417
 10
383.1127
 20
-40.2339
 10
382.9004
 20
-40.0454
 10
382.6991
 20
-39.8515
 10
382.5089
 20
-39.6523
 10
382.3298
 20
-39.4476
 10
382.162
 20
-39.2396
 10
382.0042
 20
-39.0302
 10
381.8564
 20
-38.8196
 10
381.7187
 20
-38.6076
 10
381.5911
 20
-38.3943
 10
381.4736
 20
-38.1797
 10
381.3664
 20
-37.9637
 10
381.2695
 20
-37.7463
 10
381.1809
 20
-37.5295
 10
381.0987
 20
-37.3142
 10
381.0228
 20
-37.1007
 10
380.9535
 20
-36.8888
 10
380.8906
 20
-36.6786
 10
380.8344
 20
-36.4702
 10
380.7847
 20
-36.2635
 10
380.7418
 20
-36.0586
 10
380.7045
 20
-35.8507
 10
380.6716
 20
-35.6349
 10
380.6433
 20
-35.4113
 10
380.6194
 20
-35.1799
 10
380.6001
 20
-34.9407
 10
380.5852
 20
-34.6938
 10
380.5749
 20
-34.4393
 10
380.569
 20
-34.1771
 10
380.5756
 20
-33.9035
 10
380.6027
 20
-33.6139
 10
380.65
 20
-33.3082
 10
380.7177
 20
-32.9864
 10
380.8056
 20
-32.6484
 10
380.9138
 20
-32.2942
 10
381.042
 20
-31.9239
 10
381.1903
 20
-31.5373
 10
381.282
 20
-31.3228
 10
381.3826
 20
-31.1087
 10
381.4922
 20
-30.8948
 10
381.611
 20
-30.6814
 10
381.7392
 20
-30.4683
 10
381.8768
 20
-30.2556
 10
382.0241
 20
-30.0434
 10
382.1811
 20
-29.8315
 10
382.3473
 20
-29.6224
 10
382.5257
 20
-29.4186
 10
382.7162
 20
-29.2201
 10
382.919
 20
-29.0268
 10
383.1341
 20
-28.8389
 10
383.3614
 20
-28.6562
 10
383.6011
 20
-28.4789
 10
383.8531
 20
-28.3069
 10
384.1178
 20
-28.1413
 10
384.3956
 20
-27.984
 10
384.6864
 20
-27.8351
 10
384.9902
 20
-27.6945
 10
385.3071
 20
-27.5623
 10
385.637
 20
-27.4384
 10
385.98
 20
-27.3228
 10
386.336
 20
-27.2156
 10
386.7077
 20
-27.1185
 10
387.0962
 20
-27.0343
 10
387.5013
 20
-26.9628
 10
387.9231
 20
-26.9041
 10
388.3617
 20
-26.8582
 10
388.8171
 20
-26.8251
 10
389.2894
 20
-26.8047
 10
389.7784
 20
-26.7971
 10
390.2677
 20
-26.8025
 10
390.7405
 20
-26.821
 10
391.1968
 20
-26.8529
 10
391.6367
 20
-26.8979
 10
392.06
 20
-26.9561
 10
392.4667
 20
-27.0276
 10
392.8569
 20
-27.1121
 10
393.2304
 20
-27.2099
  0
LWPOLYLINE
  5
77
330
1F
100
AcDbEntity
  8
Layer 1
 62
     7
370
     9
100
AcDbPolyline
 90
       65
 70
     1
 43
0.0
 10
390.2102
 20
-44.3943
 10
391.9445
 20
-44.3372
 10
393.567
 20
-44.1762
 10
395.0777
 20
-43.9112
 10
396.4767
 20
-43.5423
 10
397.7639
 20
-43.0694
 10
398.9393
 20
-42.4926
 10
400.0029
 20
-41.8117
 10
400.9548
 20
-41.0269
 10
401.6212
 20
-40.3431
 10
402.1972
 20
-39.6214
 10
402.6827
 20
-38.8621
 10
403.0779
 20
-38.065
 10
403.3826
 20
-37.2303
 10
403.5969
 20
-36.358
 10
403.7209
 20
-35.4483
 10
403.7544
 20
-34.501
 10
403.697
 20
-33.5537
 10
403.5502
 20
-32.6447
 10
403.3138
 20
-31.7738
 10
402.9879
 20
-30.9411
 10
402.5725
 20
-30.1465
 10
402.0676
 20
-29.39
 10
401.4732
 20
-28.6715
 10
400.7893
 20
-27.991
 10
399.818
 20
-27.212
 10
398.7374
 20
-26.5374
 10
397.5475
 20
-25.9672
 10
396.2485
 20
-25.5016
 10
394.8403
 20
-25.1404
 10
393.3229
 20
-24.8838
 10
391.6963
 20
-24.7317
 10
389.9607
 20
-24.6841
 10
388.2256
 20
-24.7412
 10
386.6025
 20
-24.9024
 10
385.0914
 20
-25.1675
 10
383.6921
 20
-25.5365
 10
382.4048
 20
-26.0094
 10
381.2293
 20
-26.5862
 10
380.1656
 20
-27.2669
 10
379.2137
 20
-28.0514
 10
378.5473
 20
-28.7359
 10
377.9713
 20
-29.4579
 10
377.4858
 20
-30.2174
 10
377.0906
 20
-31.0144
 10
376.7859
 20
-31.8489
 10
376.5716
 20
-32.7211
 10
376.4476
 20
-33.631
 10
376.4141
 20
-34.5785
 10
376.4715
 20
-35.5255
 10
376.6183
 20
-36.4345
 10
376.8547
 20
-37.3055
 10
377.1806
 20
-38.1384
 10
377.596
 20
-38.9332
 10
378.1009
 20
-39.6898
 10
378.6953
 20
-40.4083
 10
379.3792
 20
-41.0885
 10
380.3505
 20
-41.8679
 10
381.4312
 20
-42.5426
 10
382.6211
 20
-43.1127
 10
383.9203
 20
-43.5782
 10
385.3288
 20
-43.9391
 10
386.8467
 20
-44.1954
 10
388.4738
 20
-44.3471
 10
390.2102
 20
-44.3943
  0
LWPOLYLINE
  5
78
330
1F
100
AcDbEntity
  8
Layer 1
 62
     7
370
     9
100
AcDbPolyline
 90
      136
 70
     1
 43
0.0
 10
417.3345
 20
-32.0117
 10
420.0045
 20
-26.8803
 10
434.6233
 20
-26.8382
 10
434.5994
 20
-24.8677
 10
416.8283
 20
-24.919
 10
412.3016
 20
-33.5192
 10
416.8307
 20
-34.4645
 10
417.4833
 20
-34.2511
 10
418.1688
 20
-34.066
 10
418.8873
 20
-33.9089
 10
419.6387
 20
-33.7801
 10
420.4229
 20
-33.6793
 10
421.2398
 20
-33.6066
 10
422.0895
 20
-33.562
 10
422.9719
 20
-33.5454
 10
423.8597
 20
-33.5635
 10
424.7184
 20
-33.6231
 10
425.5481
 20
-33.724
 10
426.3486
 20
-33.8664
 10
427.1201
 20
-34.0503
 10
427.8624
 20
-34.2757
 10
428.5755
 20
-34.5426
 10
429.2594
 20
-34.8511
 10
429.9042
 20
-35.1951
 10
430.4639
 20
-35.5521
 10
430.9385
 20
-35.9223
 10
431.3279
 20
-36.3055
 10
431.632
 20
-36.7018
 10
431.8509
 20
-37.1111
 10
431.9844
 20
-37.5334
 10
432.0325
 20
-37.9687
 10
431.9943
 20
-38.4191
 10
431.8687
 20
-38.8517
 10
431.6556
 20
-39.2665
 10
431.3551
 20
-39.6636
 10
430.967
 20
-40.0428
 10
430.4912
 20
-40.4043
 10
429.9276
 20
-40.7479
 10
429.2762
 20
-41.0737
 10
428.9454
 20
-41.2188
 10
428.6024
 20
-41.3563
 10
428.2472
 20
-41.4864
 10
427.8798
 20
-41.6091
 10
427.5001
 20
-41.7242
 10
427.1081
 20
-41.8318
 10
426.7038
 20
-41.932
 10
426.2872
 20
-42.0247
 10
425.853
 20
-42.1086
 10
425.3944
 20
-42.1816
 10
424.9113
 20
-42.2437
 10
424.4037
 20
-42.2948
 10
423.8718
 20
-42.335
 10
423.3155
 20
-42.3642
 10
422.7349
 20
-42.3824
 10
422.1299
 20
-42.3896
 10
421.5139
 20
-42.379
 10
420.8984
 20
-42.3439
 10
420.2834
 20
-42.2841
 10
419.669
 20
-42.1996
 10
419.055
 20
-42.0905
 10
418.4417
 20
-41.9568
 10
417.829
 20
-41.7984
 10
417.217
 20
-41.6153
 10
416.6275
 20
-41.4123
 10
416.0825
 20
-41.1943
 10
415.5819
 20
-40.9612
 10
415.1257
 20
-40.7129
 10
414.7138
 20
-40.4495
 10
414.3462
 20
-40.171
 10
414.0227
 20
-39.8773
 10
413.7434
 20
-39.5685
 10
409.7108
 20
-40.2002
 10
410.1135
 20
-40.6627
 10
410.582
 20
-41.1016
 10
411.1163
 20
-41.5171
 10
411.7163
 20
-41.909
 10
412.382
 20
-42.2774
 10
413.1133
 20
-42.6222
 10
413.9101
 20
-42.9436
 10
414.7725
 20
-43.2414
 10
415.6891
 20
-43.5126
 10
416.6253
 20
-43.7471
 10
417.5813
 20
-43.945
 10
418.5571
 20
-44.1064
 10
419.5527
 20
-44.2311
 10
420.5684
 20
-44.3193
 10
421.6041
 20
-44.3711
 10
422.66
 20
-44.3863
 10
424.0674
 20
-44.3524
 10
425.42
 20
-44.2582
 10
426.7178
 20
-44.104
 10
427.9607
 20
-43.8896
 10
429.1489
 20
-43.615
 10
430.2824
 20
-43.2803
 10
431.3611
 20
-42.8856
 10
432.3852
 20
-42.4307
 10
433.3123
 20
-41.9369
 10
434.1147
 20
-41.4195
 10
434.7922
 20
-40.8784
 10
435.3449
 20
-40.3135
 10
435.7727
 20
-39.7249
 10
436.0758
 20
-39.1124
 10
436.254
 20
-38.4761
 10
436.3074
 20
-37.8159
 10
436.2381
 20
-37.1595
 10
436.0466
 20
-36.5311
 10
435.7327
 20
-35.9308
 10
435.2966
 20
-35.3585
 10
434.7382
 20
-34.8143
 10
434.0576
 20
-34.298
 10
433.2549
 20
-33.8097
 10
432.33
 20
-33.3493
 10
431.8568
 20
-33.1449
 10
431.3655
 20
-32.9518
 10
430.8561
 20
-32.7697
 10
430.3284
 20
-32.5987
 10
429.7824
 20
-32.4387
 10
429.218
 20
-32.2897
 10
428.6351
 20
-32.1516
 10
428.0336
 20
-32.0243
 10
427.4201
 20
-31.9105
 10
426.8013
 20
-31.8122
 10
426.1773
 20
-31.7292
 10
425.5483
 20
-31.6617
 10
424.9143
 20
-31.6095
 10
424.2756
 20
-31.5727
 10
423.632
 20
-31.5513
 10
422.9839
 20
-31.5453
 10
422.3243
 20
-31.5544
 10
421.6515
 20
-31.5776
 10
420.9655
 20
-31.6148
 10
420.2663
 20
-31.666
 10
419.5536
 20
-31.7313
 10
418.8275
 20
-31.8107
 10
418.0878
 20
-31.9042
 10
417.3345
 20
-32.0117
  0
LWPOLYLINE
  5
79
330
1F
100
AcDbEntity
  8
Layer 1
 62
     7
370
     9
100
AcDbPolyline
 90
      169
 70
     1
 43
0.0
 10
477.1606
 20
-43.8389
 10
481.3202
 20
-43.8264
 10
481.2219
 20
-36.0826
 10
481.1811
 20
-35.5688
 10
481.0729
 20
-35.0792
 10
480.8974
 20
-34.614
 10
480.6545
 20
-34.1732
 10
480.3442
 20
-33.7567
 10
479.9663
 20
-33.3646
 10
479.5208
 20
-32.9969
 10
479.0077
 20
-32.6537
 10
478.7219
 20
-32.4899
 10
478.4188
 20
-32.3345
 10
478.0983
 20
-32.1875
 10
477.7603
 20
-32.0489
 10
477.4047
 20
-31.9187
 10
477.0316
 20
-31.7969
 10
476.6407
 20
-31.6835
 10
476.2322
 20
-31.5784
 10
475.7981
 20
-31.4836
 10
475.3308
 20
-31.4017
 10
474.8302
 20
-31.3329
 10
474.2963
 20
-31.2771
 10
473.7291
 20
-31.2341
 10
473.1286
 20
-31.2041
 10
472.4949
 20
-31.187
 10
471.8278
 20
-31.1827
 10
471.155
 20
-31.1954
 10
470.504
 20
-31.2302
 10
469.8748
 20
-31.2869
 10
469.2673
 20
-31.3656
 10
468.6815
 20
-31.4663
 10
468.1174
 20
-31.5889
 10
467.5749
 20
-31.7335
 10
467.054
 20
-31.9
 10
466.6012
 20
-32.0656
 10
466.1692
 20
-32.2434
 10
465.758
 20
-32.4333
 10
465.3676
 20
-32.6352
 10
464.9978
 20
-32.8489
 10
464.6487
 20
-33.0744
 10
464.3202
 20
-33.3115
 10
464.0122
 20
-33.5602
 10
463.8926
 20
-33.4452
 10
463.7675
 20
-33.3322
 10
463.637
 20
-33.2212
 10
463.501
 20
-33.1122
 10
463.3594
 20
-33.0055
 10
463.2124
 20
-32.901
 10
463.0597
 20
-32.7989
 10
462.9015
 20
-32.6993
 10
462.6164
 20
-32.5355
 10
462.3133
 20
-32.3801
 10
461.9924
 20
-32.2331
 10
461.6538
 20
-32.0945
 10
461.2975
 20
-31.9643
 10
460.9237
 20
-31.8425
 10
460.5323
 20
-31.7291
 10
460.1236
 20
-31.624
 10
459.6896
 20
-31.5295
 10
459.2226
 20
-31.4478
 10
458.7224
 20
-31.379
 10
458.1889
 20
-31.3231
 10
457.6221
 20
-31.28
 10
457.022
 20
-31.2499
 10
456.3886
 20
-31.2326
 10
455.7216
 20
-31.2283
 10
455.0481
 20
-31.241
 10
454.3968
 20
-31.2758
 10
453.7674
 20
-31.3325
 10
453.1599
 20
-31.4112
 10
452.5741
 20
-31.5119
 10
452.0098
 20
-31.6345
 10
451.467
 20
-31.7791
 10
450.9454
 20
-31.9456
 10
450.5148
 20
-32.1035
 10
450.1029
 20
-32.2719
 10
449.7096
 20
-32.451
 10
449.3349
 20
-32.6406
 10
448.9787
 20
-32.8409
 10
448.641
 20
-33.052
 10
448.3219
 20
-33.2739
 10
448.0212
 20
-33.5066
 10
447.9972
 20
-31.5316
 10
443.8375
 20
-31.543
 10
443.9934
 20
-43.9324
 10
448.1531
 20
-43.921
 10
448.0739
 20
-37.581
 10
448.1661
 20
-37.2111
 10
448.2881
 20
-36.8556
 10
448.4398
 20
-36.5144
 10
448.6212
 20
-36.1874
 10
448.8324
 20
-35.8744
 10
449.0735
 20
-35.5754
 10
449.3444
 20
-35.2902
 10
449.6452
 20
-35.0187
 10
449.8911
 20
-34.8251
 10
450.1575
 20
-34.6403
 10
450.4444
 20
-34.4642
 10
450.7517
 20
-34.297
 10
451.0795
 20
-34.1386
 10
451.4277
 20
-33.9891
 10
451.7965
 20
-33.8484
 10
452.1857
 20
-33.7165
 10
452.589
 20
-33.5962
 10
453.0001
 20
-33.4918
 10
453.419
 20
-33.4033
 10
453.8454
 20
-33.3306
 10
454.2794
 20
-33.2739
 10
454.7208
 20
-33.233
 10
455.1696
 20
-33.208
 10
455.6257
 20
-33.1988
 10
456.0722
 20
-33.2017
 10
456.4889
 20
-33.2131
 10
456.8758
 20
-33.2329
 10
457.2329
 20
-33.2612
 10
457.5604
 20
-33.2979
 10
457.8582
 20
-33.3431
 10
458.1265
 20
-33.3967
 10
458.3652
 20
-33.4588
 10
458.9669
 20
-33.6669
 10
459.4892
 20
-33.9113
 10
459.932
 20
-34.1922
 10
460.2954
 20
-34.5094
 10
460.5793
 20
-34.8629
 10
460.7836
 20
-35.2526
 10
460.9084
 20
-35.6786
 10
460.9536
 20
-36.1407
 10
461.052
 20
-43.8845
 10
465.2117
 20
-43.872
 10
465.1133
 20
-36.1282
 10
465.0797
 20
-35.655
 10
465.2312
 20
-35.4747
 10
465.3943
 20
-35.3012
 10
465.5685
 20
-35.1341
 10
465.7538
 20
-34.9731
 10
465.9989
 20
-34.7795
 10
466.2648
 20
-34.5946
 10
466.5513
 20
-34.4186
 10
466.8585
 20
-34.2513
 10
467.1864
 20
-34.0927
 10
467.535
 20
-33.943
 10
467.9042
 20
-33.802
 10
468.2942
 20
-33.6697
 10
468.6967
 20
-33.5498
 10
469.1073
 20
-33.4457
 10
469.5258
 20
-33.3574
 10
469.9522
 20
-33.2849
 10
470.3863
 20
-33.2282
 10
470.828
 20
-33.1874
 10
471.2774
 20
-33.1624
 10
471.7343
 20
-33.1532
 10
472.18
 20
-33.1561
 10
472.5961
 20
-33.1675
 10
472.9826
 20
-33.1873
 10
473.3394
 20
-33.2156
 10
473.6667
 20
-33.2523
 10
473.9645
 20
-33.2975
 10
474.2327
 20
-33.3511
 10
474.4714
 20
-33.4131
 10
475.0731
 20
-33.6212
 10
475.5954
 20
-33.8657
 10
476.0384
 20
-34.1466
 10
476.4019
 20
-34.4638
 10
476.6861
 20
-34.8173
 10
476.8908
 20
-35.207
 10
477.0162
 20
-35.633
 10
477.0622
 20
-36.0951
 10
477.1606
 20
-43.8389
  0
LWPOLYLINE
  5
7A
330
1F
100
AcDbEntity
  8
Layer 1
 62
     7
370
     9
100
AcDbPolyline
 90
      167
 70
     1
 43
0.0
 10
522.5093
 20
-43.7101
 10
526.669
 20
-43.6975
 10
526.5706
 20
-35.9537
 10
526.5306
 20
-35.4399
 10
526.423
 20
-34.9504
 10
526.248
 20
-34.4852
 10
526.0053
 20
-34.0443
 10
525.6951
 20
-33.6278
 10
525.3173
 20
-33.2357
 10
524.8719
 20
-32.868
 10
524.3588
 20
-32.5248
 10
524.073
 20
-32.361
 10
523.7696
 20
-32.2056
 10
523.4487
 20
-32.0586
 10
523.1102
 20
-31.9201
 10
522.7542
 20
-31.7899
 10
522.3806
 20
-31.6681
 10
521.9895
 20
-31.5546
 10
521.5809
 20
-31.4495
 10
521.1469
 20
-31.3547
 10
520.6798
 20
-31.2729
 10
520.1795
 20
-31.2041
 10
519.6459
 20
-31.1482
 10
519.0789
 20
-31.1053
 10
518.4783
 20
-31.0753
 10
517.8442
 20
-31.0582
 10
517.1765
 20
-31.0539
 10
516.5045
 20
-31.0666
 10
515.8541
 20
-31.1013
 10
515.2252
 20
-31.158
 10
514.6178
 20
-31.2367
 10
514.0319
 20
-31.3374
 10
513.4674
 20
-31.46
 10
512.9244
 20
-31.6046
 10
512.4027
 20
-31.7711
 10
511.9506
 20
-31.9367
 10
511.519
 20
-32.1145
 10
511.1079
 20
-32.3044
 10
510.7175
 20
-32.5063
 10
510.3478
 20
-32.72
 10
509.9988
 20
-32.9455
 10
509.6706
 20
-33.1827
 10
509.3633
 20
-33.4314
 10
509.1172
 20
-33.2034
 10
508.85
 20
-32.9834
 10
508.7082
 20
-32.8766
 10
508.5611
 20
-32.7722
 10
508.4084
 20
-32.6701
 10
508.2502
 20
-32.5705
 10
507.9652
 20
-32.4067
 10
507.6624
 20
-32.2512
 10
507.3419
 20
-32.1043
 10
507.0037
 20
-31.9657
 10
506.6479
 20
-31.8355
 10
506.2744
 20
-31.7137
 10
505.8833
 20
-31.6003
 10
505.4747
 20
-31.4952
 10
505.0407
 20
-31.4007
 10
504.5733
 20
-31.319
 10
504.0728
 20
-31.2502
 10
503.5391
 20
-31.1943
 10
502.9722
 20
-31.1512
 10
502.3721
 20
-31.1211
 10
501.739
 20
-31.1038
 10
501.0727
 20
-31.0995
 10
500.3991
 20
-31.1122
 10
499.7476
 20
-31.1469
 10
499.1179
 20
-31.2036
 10
498.5101
 20
-31.2823
 10
497.9241
 20
-31.383
 10
497.3599
 20
-31.5056
 10
496.8174
 20
-31.6502
 10
496.2965
 20
-31.8167
 10
495.8652
 20
-31.9746
 10
495.4527
 20
-32.143
 10
495.059
 20
-32.3221
 10
494.6842
 20
-32.5117
 10
494.3281
 20
-32.7121
 10
493.9908
 20
-32.9232
 10
493.6722
 20
-33.145
 10
493.3723
 20
-33.3778
 10
493.3459
 20
-31.4028
 10
489.1862
 20
-31.4142
 10
489.3445
 20
-43.8036
 10
493.5042
 20
-43.7922
 10
493.4227
 20
-37.4521
 10
493.5149
 20
-37.0822
 10
493.6369
 20
-36.7267
 10
493.7886
 20
-36.3855
 10
493.9702
 20
-36.0585
 10
494.1817
 20
-35.7455
 10
494.4232
 20
-35.4465
 10
494.6947
 20
-35.1613
 10
494.9963
 20
-34.8898
 10
495.2423
 20
-34.6962
 10
495.5087
 20
-34.5114
 10
495.7955
 20
-34.3354
 10
496.1029
 20
-34.1682
 10
496.4307
 20
-34.0098
 10
496.7789
 20
-33.8602
 10
497.1476
 20
-33.7195
 10
497.5368
 20
-33.5876
 10
497.9393
 20
-33.4673
 10
498.3499
 20
-33.3629
 10
498.7684
 20
-33.2744
 10
499.1947
 20
-33.2017
 10
499.6288
 20
-33.145
 10
500.0706
 20
-33.1041
 10
500.5199
 20
-33.0791
 10
500.9768
 20
-33.0699
 10
501.4225
 20
-33.0728
 10
501.8386
 20
-33.0842
 10
502.2251
 20
-33.1041
 10
502.5819
 20
-33.1324
 10
502.9092
 20
-33.1691
 10
503.207
 20
-33.2143
 10
503.4752
 20
-33.2679
 10
503.7139
 20
-33.3299
 10
504.3156
 20
-33.538
 10
504.8379
 20
-33.7825
 10
505.2809
 20
-34.0633
 10
505.6444
 20
-34.3805
 10
505.9286
 20
-34.734
 10
506.1333
 20
-35.1238
 10
506.2587
 20
-35.5498
 10
506.3047
 20
-36.0119
 10
506.4031
 20
-43.7557
 10
510.5604
 20
-43.7431
 10
510.4644
 20
-35.9994
 10
510.4284
 20
-35.5261
 10
510.5799
 20
-35.346
 10
510.743
 20
-35.1728
 10
510.9172
 20
-35.0058
 10
511.1025
 20
-34.8442
 10
511.3483
 20
-34.6506
 10
511.6145
 20
-34.4658
 10
511.901
 20
-34.2898
 10
512.2081
 20
-34.1226
 10
512.5357
 20
-33.9642
 10
512.884
 20
-33.8146
 10
513.2531
 20
-33.6739
 10
513.643
 20
-33.542
 10
514.0463
 20
-33.4217
 10
514.4574
 20
-33.3173
 10
514.8763
 20
-33.2288
 10
515.3027
 20
-33.1561
 10
515.7367
 20
-33.0994
 10
516.1781
 20
-33.0585
 10
516.6269
 20
-33.0335
 10
517.083
 20
-33.0243
 10
517.5288
 20
-33.0272
 10
517.9452
 20
-33.0386
 10
518.332
 20
-33.0585
 10
518.6893
 20
-33.0867
 10
519.0171
 20
-33.1234
 10
519.3152
 20
-33.1686
 10
519.5837
 20
-33.2222
 10
519.8225
 20
-33.2843
 10
520.4242
 20
-33.4924
 10
520.9465
 20
-33.7369
 10
521.3893
 20
-34.0177
 10
521.7527
 20
-34.3349
 10
522.0366
 20
-34.6884
 10
522.2409
 20
-35.0782
 10
522.3657
 20
-35.5042
 10
522.4109
 20
-35.9663
 10
522.5093
 20
-43.7101
  0
LWPOLYLINE
  5
7B
330
1F
100
AcDbEntity
  8
Layer 1
 62
     7
370
     9
100
AcDbPolyline
 90
      137
 70
     1
 43
0.0
 10
430.0534
 20
70.9052
 10
429.7814
 20
71.1929
 10
429.4853
 20
71.4718
 10
429.1651
 20
71.7419
 10
428.8207
 20
72.0033
 10
428.4522
 20
72.2559
 10
428.0594
 20
72.4997
 10
427.6424
 20
72.7348
 10
427.2012
 20
72.9611
 10
426.2029
 20
73.4065
 10
425.1491
 20
73.7924
 10
424.0399
 20
74.119
 10
422.8751
 20
74.3861
 10
421.6546
 20
74.5938
 10
420.3784
 20
74.7422
 10
419.0463
 20
74.8312
 10
417.6584
 20
74.8609
 10
416.2703
 20
74.8308
 10
414.9362
 20
74.7405
 10
413.6559
 20
74.5899
 10
412.4294
 20
74.3791
 10
411.2567
 20
74.108
 10
410.1376
 20
73.7766
 10
409.0722
 20
73.3848
 10
408.0604
 20
72.9326
 10
407.1876
 20
72.4653
 10
406.4187
 20
71.9681
 10
405.7537
 20
71.441
 10
405.1928
 20
70.8841
 10
404.7358
 20
70.2972
 10
404.3829
 20
69.6803
 10
404.1341
 20
69.0335
 10
403.9894
 20
68.3566
 10
405.0594
 20
67.5128
 10
390.0831
 20
73.5096
 10
390.0831
 20
63.2047
 10
394.2403
 20
63.2047
 10
394.2403
 20
69.5117
 10
408.509
 20
63.711
 10
411.0614
 20
65.2037
 10
410.3927
 20
65.5494
 10
409.8132
 20
65.911
 10
409.3229
 20
66.2884
 10
408.9219
 20
66.6816
 10
408.61
 20
67.0908
 10
408.3873
 20
67.5158
 10
408.2536
 20
67.9567
 10
408.2091
 20
68.4136
 10
408.2523
 20
68.8694
 10
408.3818
 20
69.3082
 10
408.5977
 20
69.7298
 10
408.9
 20
70.1343
 10
409.2886
 20
70.5218
 10
409.7636
 20
70.8921
 10
410.3249
 20
71.2453
 10
410.9726
 20
71.5814
 10
411.6815
 20
71.8881
 10
412.4246
 20
72.1539
 10
413.2018
 20
72.3789
 10
414.0133
 20
72.5631
 10
414.8589
 20
72.7063
 10
415.7387
 20
72.8086
 10
416.6526
 20
72.87
 10
417.6008
 20
72.8905
 10
418.5286
 20
72.8696
 10
419.4248
 20
72.8069
 10
420.2893
 20
72.7024
 10
421.1224
 20
72.5561
 10
421.9239
 20
72.368
 10
422.694
 20
72.1381
 10
423.4328
 20
71.8664
 10
424.1402
 20
71.5529
 10
424.4444
 20
71.3982
 10
424.7326
 20
71.2369
 10
425.0049
 20
71.069
 10
425.2614
 20
70.8945
 10
425.502
 20
70.7134
 10
425.7267
 20
70.5258
 10
425.9357
 20
70.3316
 10
426.1289
 20
70.1309
 10
426.3034
 20
69.9216
 10
426.4545
 20
69.7016
 10
426.5824
 20
69.471
 10
426.6869
 20
69.2298
 10
426.7681
 20
68.978
 10
426.8261
 20
68.7156
 10
426.8609
 20
68.4427
 10
426.8725
 20
68.1593
 10
426.847
 20
67.8711
 10
426.7704
 20
67.5827
 10
426.6428
 20
67.2943
 10
426.4641
 20
67.0058
 10
426.2344
 20
66.7172
 10
425.9536
 20
66.4287
 10
425.6218
 20
66.14
 10
425.2389
 20
65.8514
 10
424.8123
 20
65.5733
 10
424.3493
 20
65.3163
 10
423.8499
 20
65.0803
 10
423.3144
 20
64.8655
 10
422.7426
 20
64.6717
 10
422.1346
 20
64.4991
 10
421.4906
 20
64.3476
 10
420.8105
 20
64.2173
 10
422.1779
 20
62.3027
 10
423.1461
 20
62.4847
 10
424.0679
 20
62.6997
 10
424.9435
 20
62.9478
 10
425.7727
 20
63.2288
 10
426.5555
 20
63.5428
 10
427.292
 20
63.8898
 10
427.9822
 20
64.2697
 10
428.6261
 20
64.6826
 10
428.9079
 20
64.8856
 10
429.1739
 20
65.0935
 10
429.4241
 20
65.3062
 10
429.6585
 20
65.5238
 10
429.8771
 20
65.7462
 10
430.0797
 20
65.9734
 10
430.2665
 20
66.2053
 10
430.4373
 20
66.442
 10
430.5908
 20
66.6847
 10
430.7238
 20
66.934
 10
430.8364
 20
67.1899
 10
430.9285
 20
67.4523
 10
431.0001
 20
67.7214
 10
431.0513
 20
67.9971
 10
431.082
 20
68.2796
 10
431.0922
 20
68.5687
 10
431.076
 20
68.8608
 10
431.0274
 20
69.1528
 10
430.9463
 20
69.4449
 10
430.8328
 20
69.737
 10
430.6868
 20
70.029
 10
430.5082
 20
70.3211
 10
430.2971
 20
70.6131
 10
430.0534
 20
70.9052
  0
LWPOLYLINE
  5
7C
330
1F
100
AcDbEntity
  8
Layer 1
 62
     7
370
     9
100
AcDbPolyline
 90
      129
 70
     1
 43
0.0
 10
394.7777
 20
84.9275
 10
395.2437
 20
85.2526
 10
395.7728
 20
85.5557
 10
396.365
 20
85.8368
 10
397.0204
 20
86.0959
 10
397.7391
 20
86.333
 10
398.5212
 20
86.5482
 10
399.3668
 20
86.7415
 10
400.276
 20
86.9128
 10
401.4804
 20
87.104
 10
402.7026
 20
87.2698
 10
403.9426
 20
87.4101
 10
405.2003
 20
87.525
 10
406.4758
 20
87.6143
 10
407.769
 20
87.6781
 10
409.0801
 20
87.7164
 10
410.4089
 20
87.7292
 10
410.7273
 20
87.7279
 10
411.06
 20
87.7239
 10
411.4069
 20
87.7172
 10
411.7679
 20
87.708
 10
412.1428
 20
87.6961
 10
412.5315
 20
87.6816
 10
412.9339
 20
87.6645
 10
413.3499
 20
87.6448
 10
414.9476
 20
87.5469
 10
416.4571
 20
87.4192
 10
417.8784
 20
87.2617
 10
419.2116
 20
87.0742
 10
420.4566
 20
86.8569
 10
421.6135
 20
86.6097
 10
422.6822
 20
86.3326
 10
423.6628
 20
86.0256
 10
424.4015
 20
85.7453
 10
425.0415
 20
85.45
 10
425.5829
 20
85.1398
 10
426.0257
 20
84.8146
 10
426.37
 20
84.4744
 10
426.6159
 20
84.1193
 10
426.7634
 20
83.7492
 10
426.8125
 20
83.3641
 10
426.7638
 20
82.9345
 10
426.6177
 20
82.5256
 10
426.3742
 20
82.1374
 10
426.0332
 20
81.7699
 10
425.5947
 20
81.423
 10
425.0587
 20
81.0969
 10
424.4251
 20
80.7914
 10
423.694
 20
80.5065
 10
423.3393
 20
80.386
 10
422.9734
 20
80.2707
 10
422.5963
 20
80.1607
 10
422.2079
 20
80.056
 10
421.8082
 20
79.9565
 10
421.3973
 20
79.8624
 10
420.9752
 20
79.7736
 10
420.5418
 20
79.6901
 10
420.1023
 20
79.6117
 10
419.6598
 20
79.5381
 10
419.2145
 20
79.4693
 10
418.7664
 20
79.4053
 10
418.3154
 20
79.3462
 10
417.8616
 20
79.2918
 10
417.4051
 20
79.2422
 10
416.9459
 20
79.1975
 10
416.4879
 20
79.1567
 10
416.0333
 20
79.119
 10
415.5821
 20
79.0844
 10
415.1344
 20
79.053
 10
414.6902
 20
79.0246
 10
414.2495
 20
78.9993
 10
413.8123
 20
78.9771
 10
413.3787
 20
78.958
 10
412.9403
 20
78.9416
 10
412.4852
 20
78.9273
 10
412.0133
 20
78.9151
 10
411.525
 20
78.9051
 10
411.0203
 20
78.8974
 10
410.4992
 20
78.8918
 10
409.9619
 20
78.8884
 10
409.4086
 20
78.8873
 10
408.8313
 20
78.8922
 10
408.2201
 20
78.9067
 10
407.5752
 20
78.931
 10
406.8963
 20
78.965
 10
406.1835
 20
79.0086
 10
405.4366
 20
79.062
 10
404.6557
 20
79.1249
 10
403.8407
 20
79.1975
 10
403.3879
 20
79.242
 10
402.9361
 20
79.2908
 10
402.4854
 20
79.3439
 10
402.0356
 20
79.4015
 10
401.5866
 20
79.4635
 10
401.1386
 20
79.5299
 10
400.6913
 20
79.6009
 10
400.2448
 20
79.6764
 10
399.8043
 20
79.7566
 10
399.3752
 20
79.8425
 10
398.9574
 20
79.9341
 10
398.5508
 20
80.0315
 10
398.1554
 20
80.1345
 10
397.771
 20
80.2432
 10
397.3976
 20
80.3577
 10
397.035
 20
80.478
 10
396.6876
 20
80.6043
 10
396.3576
 20
80.7367
 10
396.0453
 20
80.8753
 10
395.7504
 20
81.0201
 10
395.4731
 20
81.171
 10
395.2134
 20
81.3281
 10
394.9712
 20
81.4912
 10
394.7465
 20
81.6605
 10
394.5442
 20
81.8372
 10
394.3691
 20
82.0217
 10
394.221
 20
82.214
 10
394.1
 20
82.4143
 10
394.006
 20
82.6224
 10
393.9389
 20
82.8385
 10
393.8987
 20
83.0625
 10
393.8853
 20
83.2946
 10
393.8992
 20
83.5263
 10
393.9411
 20
83.75
 10
394.0108
 20
83.9659
 10
394.1084
 20
84.1739
 10
394.2339
 20
84.374
 10
394.3873
 20
84.5664
 10
394.5686
 20
84.7508
 10
394.7777
 20
84.9275
  0
LWPOLYLINE
  5
7D
330
1F
100
AcDbEntity
  8
Layer 1
 62
     7
370
     9
100
AcDbPolyline
 90
       65
 70
     1
 43
0.0
 10
431.0322
 20
83.3926
 10
430.9222
 20
84.2148
 10
430.5922
 20
84.9846
 10
430.0422
 20
85.7021
 10
429.272
 20
86.3671
 10
428.2817
 20
86.9798
 10
427.0711
 20
87.5401
 10
425.6402
 20
88.048
 10
423.989
 20
88.5035
 10
422.5492
 20
88.8234
 10
421.0294
 20
89.1006
 10
419.4296
 20
89.3352
 10
417.7498
 20
89.5272
 10
415.9901
 20
89.6765
 10
414.1504
 20
89.7831
 10
412.2308
 20
89.8471
 10
410.2314
 20
89.8684
 10
408.2313
 20
89.8471
 10
406.3113
 20
89.7831
 10
404.4715
 20
89.6765
 10
402.7118
 20
89.5272
 10
401.0319
 20
89.3352
 10
399.432
 20
89.1006
 10
397.9118
 20
88.8234
 10
396.4713
 20
88.5035
 10
394.8208
 20
88.048
 10
393.3903
 20
87.5401
 10
392.1798
 20
86.9798
 10
391.1893
 20
86.3671
 10
390.4188
 20
85.7021
 10
389.8685
 20
84.9846
 10
389.5383
 20
84.2148
 10
389.4282
 20
83.3926
 10
389.5383
 20
82.5704
 10
389.8685
 20
81.8006
 10
390.4188
 20
81.0832
 10
391.1893
 20
80.4182
 10
392.1798
 20
79.8055
 10
393.3903
 20
79.2452
 10
394.8208
 20
78.7373
 10
396.4713
 20
78.2818
 10
397.9118
 20
77.9619
 10
399.432
 20
77.6846
 10
401.0319
 20
77.45
 10
402.7118
 20
77.2581
 10
404.4715
 20
77.1088
 10
406.3113
 20
77.0022
 10
408.2313
 20
76.9382
 10
410.2314
 20
76.9169
 10
412.2308
 20
76.9382
 10
414.1504
 20
77.0022
 10
415.9901
 20
77.1088
 10
417.7498
 20
77.2581
 10
419.4296
 20
77.45
 10
421.0294
 20
77.6846
 10
422.5492
 20
77.9619
 10
423.989
 20
78.2818
 10
425.6402
 20
78.7373
 10
427.0711
 20
79.2452
 10
428.2817
 20
79.8055
 10
429.272
 20
80.4182
 10
430.0422
 20
81.0832
 10
430.5922
 20
81.8006
 10
430.9222
 20
82.5704
 10
431.0322
 20
83.3926
  0
LWPOLYLINE
  5
7E
330
1F
100
AcDbEntity
  8
Layer 1
 62
     7
370
     9
100
AcDbPolyline
 90
      129
 70
     1
 43
0.0
 10
394.7777
 20
100.6956
 10
395.2437
 20
101.0207
 10
395.7728
 20
101.3238
 10
396.365
 20
101.6049
 10
397.0204
 20
101.864
 10
397.7391
 20
102.1011
 10
398.5212
 20
102.3163
 10
399.3668
 20
102.5096
 10
400.276
 20
102.6809
 10
401.4804
 20
102.8721
 10
402.7026
 20
103.0379
 10
403.9426
 20
103.1782
 10
405.2003
 20
103.2931
 10
406.4758
 20
103.3824
 10
407.769
 20
103.4462
 10
409.0801
 20
103.4845
 10
410.4089
 20
103.4973
 10
410.7273
 20
103.496
 10
411.06
 20
103.492
 10
411.4069
 20
103.4853
 10
411.7679
 20
103.4761
 10
412.1428
 20
103.4642
 10
412.5315
 20
103.4497
 10
412.9339
 20
103.4326
 10
413.3499
 20
103.4129
 10
414.9476
 20
103.315
 10
416.4571
 20
103.1873
 10
417.8784
 20
103.0298
 10
419.2116
 20
102.8424
 10
420.4566
 20
102.6251
 10
421.6135
 20
102.3779
 10
422.6822
 20
102.1007
 10
423.6628
 20
101.7937
 10
424.4015
 20
101.5134
 10
425.0415
 20
101.2181
 10
425.5829
 20
100.9079
 10
426.0257
 20
100.5827
 10
426.37
 20
100.2425
 10
426.6159
 20
99.8874
 10
426.7634
 20
99.5173
 10
426.8125
 20
99.1322
 10
426.7638
 20
98.7026
 10
426.6177
 20
98.2937
 10
426.3742
 20
97.9055
 10
426.0332
 20
97.538
 10
425.5947
 20
97.1911
 10
425.0587
 20
96.865
 10
424.4251
 20
96.5595
 10
423.694
 20
96.2746
 10
423.3393
 20
96.1541
 10
422.9734
 20
96.0388
 10
422.5963
 20
95.9288
 10
422.2079
 20
95.8241
 10
421.8082
 20
95.7246
 10
421.3973
 20
95.6305
 10
420.9752
 20
95.5417
 10
420.5418
 20
95.4582
 10
420.1023
 20
95.3798
 10
419.6598
 20
95.3062
 10
419.2145
 20
95.2374
 10
418.7664
 20
95.1734
 10
418.3154
 20
95.1143
 10
417.8616
 20
95.0599
 10
417.4051
 20
95.0103
 10
416.9459
 20
94.9656
 10
416.4879
 20
94.9248
 10
416.0333
 20
94.8871
 10
415.5821
 20
94.8525
 10
415.1344
 20
94.8211
 10
414.6902
 20
94.7927
 10
414.2495
 20
94.7674
 10
413.8123
 20
94.7452
 10
413.3787
 20
94.7261
 10
412.9403
 20
94.7097
 10
412.4852
 20
94.6954
 10
412.0133
 20
94.6832
 10
411.525
 20
94.6732
 10
411.0203
 20
94.6655
 10
410.4992
 20
94.6599
 10
409.9619
 20
94.6565
 10
409.4086
 20
94.6554
 10
408.8313
 20
94.6603
 10
408.2201
 20
94.6748
 10
407.5752
 20
94.6991
 10
406.8963
 20
94.7331
 10
406.1835
 20
94.7767
 10
405.4366
 20
94.8301
 10
404.6557
 20
94.893
 10
403.8407
 20
94.9656
 10
403.3879
 20
95.0101
 10
402.9361
 20
95.0589
 10
402.4854
 20
95.112
 10
402.0356
 20
95.1696
 10
401.5866
 20
95.2316
 10
401.1386
 20
95.298
 10
400.6913
 20
95.369
 10
400.2448
 20
95.4445
 10
399.8043
 20
95.5247
 10
399.3752
 20
95.6106
 10
398.9574
 20
95.7022
 10
398.5508
 20
95.7996
 10
398.1554
 20
95.9026
 10
397.771
 20
96.0113
 10
397.3976
 20
96.1258
 10
397.035
 20
96.2461
 10
396.6876
 20
96.3724
 10
396.3576
 20
96.5048
 10
396.0453
 20
96.6434
 10
395.7504
 20
96.7882
 10
395.4731
 20
96.9391
 10
395.2134
 20
97.0962
 10
394.9712
 20
97.2593
 10
394.7465
 20
97.4286
 10
394.5442
 20
97.6053
 10
394.3691
 20
97.7898
 10
394.221
 20
97.9821
 10
394.1
 20
98.1824
 10
394.006
 20
98.3905
 10
393.9389
 20
98.6066
 10
393.8987
 20
98.8306
 10
393.8853
 20
99.0627
 10
393.8992
 20
99.2944
 10
393.9411
 20
99.5181
 10
394.0108
 20
99.734
 10
394.1084
 20
99.942
 10
394.2339
 20
100.1421
 10
394.3873
 20
100.3345
 10
394.5686
 20
100.5189
 10
394.7777
 20
100.6956
  0
LWPOLYLINE
  5
7F
330
1F
100
AcDbEntity
  8
Layer 1
 62
     7
370
     9
100
AcDbPolyline
 90
       65
 70
     1
 43
0.0
 10
431.0322
 20
99.1607
 10
430.9222
 20
99.9829
 10
430.5922
 20
100.7527
 10
430.0422
 20
101.4702
 10
429.272
 20
102.1352
 10
428.2817
 20
102.7479
 10
427.0711
 20
103.3082
 10
425.6402
 20
103.8161
 10
423.989
 20
104.2716
 10
422.5492
 20
104.5915
 10
421.0294
 20
104.8687
 10
419.4296
 20
105.1033
 10
417.7498
 20
105.2953
 10
415.9901
 20
105.4446
 10
414.1504
 20
105.5512
 10
412.2308
 20
105.6152
 10
410.2314
 20
105.6365
 10
408.2313
 20
105.6152
 10
406.3113
 20
105.5512
 10
404.4715
 20
105.4446
 10
402.7118
 20
105.2953
 10
401.0319
 20
105.1033
 10
399.432
 20
104.8687
 10
397.9118
 20
104.5915
 10
396.4713
 20
104.2716
 10
394.8208
 20
103.8161
 10
393.3903
 20
103.3082
 10
392.1798
 20
102.7479
 10
391.1893
 20
102.1352
 10
390.4188
 20
101.4702
 10
389.8685
 20
100.7527
 10
389.5383
 20
99.9829
 10
389.4282
 20
99.1607
 10
389.5383
 20
98.3385
 10
389.8685
 20
97.5687
 10
390.4188
 20
96.8513
 10
391.1893
 20
96.1863
 10
392.1798
 20
95.5736
 10
393.3903
 20
95.0133
 10
394.8208
 20
94.5054
 10
396.4713
 20
94.0499
 10
397.9118
 20
93.73
 10
399.432
 20
93.4527
 10
401.0319
 20
93.2181
 10
402.7118
 20
93.0262
 10
404.4715
 20
92.8769
 10
406.3113
 20
92.7703
 10
408.2313
 20
92.7063
 10
410.2314
 20
92.685
 10
412.2308
 20
92.7063
 10
414.1504
 20
92.7703
 10
415.9901
 20
92.8769
 10
417.7498
 20
93.0262
 10
419.4296
 20
93.2181
 10
421.0294
 20
93.4527
 10
422.5492
 20
93.73
 10
423.989
 20
94.0499
 10
425.6402
 20
94.5054
 10
427.0711
 20
95.0133
 10
428.2817
 20
95.5736
 10
429.272
 20
96.1863
 10
430.0422
 20
96.8513
 10
430.5922
 20
97.5687
 10
430.9222
 20
98.3385
 10
431.0322
 20
99.1607
  0
LWPOLYLINE
  5
80
330
1F
100
AcDbEntity
  8
Layer 1
 62
     7
370
     9
100
AcDbPolyline
 90
      169
 70
     1
 43
0.0
 10
430.3797
 20
124.8689
 10
430.3797
 20
126.8393
 10
414.0336
 20
126.8393
 10
412.9489
 20
126.8233
 10
411.9151
 20
126.7751
 10
410.9322
 20
126.6949
 10
410.0002
 20
126.5826
 10
409.1191
 20
126.4381
 10
408.289
 20
126.2615
 10
407.5099
 20
126.0528
 10
406.7818
 20
125.8119
 10
406.4344
 20
125.6774
 10
406.1048
 20
125.5346
 10
405.7927
 20
125.3835
 10
405.4983
 20
125.2241
 10
405.2215
 20
125.0563
 10
404.9621
 20
124.8802
 10
404.7202
 20
124.6957
 10
404.4956
 20
124.5028
 10
404.2933
 20
124.2978
 10
404.1182
 20
124.0769
 10
403.9701
 20
123.8402
 10
403.8491
 20
123.5876
 10
403.7551
 20
123.3192
 10
403.688
 20
123.0348
 10
403.6478
 20
122.7346
 10
403.6344
 20
122.4184
 10
403.6576
 20
122.0998
 10
403.7271
 20
121.7913
 10
403.843
 20
121.4929
 10
404.0053
 20
121.2047
 10
404.2141
 20
120.9265
 10
404.4693
 20
120.6585
 10
404.7711
 20
120.4005
 10
405.1193
 20
120.1526
 10
405.4662
 20
119.9372
 10
405.8391
 20
119.7316
 10
406.2377
 20
119.5357
 10
406.6618
 20
119.3495
 10
407.1111
 20
119.1731
 10
407.5853
 20
119.0063
 10
408.0841
 20
118.8494
 10
408.6073
 20
118.7021
 10
408.3637
 20
118.6461
 10
408.124
 20
118.5875
 10
407.8886
 20
118.5263
 10
407.6577
 20
118.4625
 10
407.4313
 20
118.3961
 10
407.2097
 20
118.327
 10
406.9932
 20
118.2553
 10
406.7818
 20
118.181
 10
406.4344
 20
118.0468
 10
406.1048
 20
117.9041
 10
405.7927
 20
117.753
 10
405.4983
 20
117.5936
 10
405.2215
 20
117.4257
 10
404.9621
 20
117.2495
 10
404.7202
 20
117.0649
 10
404.4956
 20
116.8719
 10
404.2933
 20
116.6669
 10
404.1182
 20
116.446
 10
403.9701
 20
116.2094
 10
403.8491
 20
115.9569
 10
403.7551
 20
115.6885
 10
403.688
 20
115.4044
 10
403.6478
 20
115.1044
 10
403.6344
 20
114.7886
 10
403.6576
 20
114.4696
 10
403.7271
 20
114.1608
 10
403.843
 20
113.8623
 10
404.0053
 20
113.5739
 10
404.2141
 20
113.2957
 10
404.4693
 20
113.0276
 10
404.7711
 20
112.7696
 10
405.1193
 20
112.5217
 10
405.4498
 20
112.3166
 10
405.8027
 20
112.1203
 10
406.1781
 20
111.9329
 10
406.576
 20
111.7542
 10
406.9967
 20
111.5844
 10
407.4402
 20
111.4232
 10
407.9067
 20
111.2708
 10
408.3962
 20
111.1271
 10
404.2269
 20
111.1271
 10
404.2269
 20
109.1566
 10
430.3797
 20
109.1566
 10
430.3797
 20
111.1271
 10
416.9963
 20
111.1271
 10
416.2164
 20
111.173
 10
415.4671
 20
111.233
 10
414.7481
 20
111.3069
 10
414.0591
 20
111.3949
 10
413.4
 20
111.497
 10
412.7703
 20
111.6131
 10
412.17
 20
111.7434
 10
411.5987
 20
111.8877
 10
411.1916
 20
112.0054
 10
410.8031
 20
112.1327
 10
410.4332
 20
112.2696
 10
410.0821
 20
112.4162
 10
409.7496
 20
112.5724
 10
409.4357
 20
112.7382
 10
409.1405
 20
112.9136
 10
408.864
 20
113.0987
 10
408.6128
 20
113.2904
 10
408.3952
 20
113.4856
 10
408.2113
 20
113.6845
 10
408.061
 20
113.8869
 10
407.9441
 20
114.0929
 10
407.8607
 20
114.3023
 10
407.8108
 20
114.5152
 10
407.7941
 20
114.7316
 10
407.8029
 20
114.943
 10
407.8292
 20
115.1402
 10
407.8732
 20
115.3233
 10
407.9347
 20
115.4922
 10
408.0139
 20
115.647
 10
408.1108
 20
115.7877
 10
408.2255
 20
115.9144
 10
408.3578
 20
116.027
 10
408.8007
 20
116.3108
 10
409.3199
 20
116.5568
 10
409.9152
 20
116.7649
 10
410.5867
 20
116.9352
 10
411.3343
 20
117.0677
 10
412.158
 20
117.1623
 10
413.0578
 20
117.2191
 10
414.0336
 20
117.238
 10
430.3797
 20
117.238
 10
430.3797
 20
119.2084
 10
414.0336
 20
119.2084
 10
413.0333
 20
119.1947
 10
412.654
 20
119.2676
 10
412.289
 20
119.346
 10
411.9376
 20
119.4297
 10
411.5987
 20
119.5186
 10
411.1916
 20
119.6359
 10
410.8031
 20
119.763
 10
410.4332
 20
119.8997
 10
410.0821
 20
120.0463
 10
409.7496
 20
120.2025
 10
409.4357
 20
120.3685
 10
409.1405
 20
120.5442
 10
408.864
 20
120.7296
 10
408.6128
 20
120.9213
 10
408.3952
 20
121.1165
 10
408.2113
 20
121.3154
 10
408.061
 20
121.5178
 10
407.9441
 20
121.7238
 10
407.8607
 20
121.9332
 10
407.8108
 20
122.1461
 10
407.7941
 20
122.3625
 10
407.8029
 20
122.5736
 10
407.8292
 20
122.7706
 10
407.8732
 20
122.9536
 10
407.9347
 20
123.1226
 10
408.0139
 20
123.2776
 10
408.1108
 20
123.4184
 10
408.2255
 20
123.5452
 10
408.3578
 20
123.6579
 10
408.8007
 20
123.9417
 10
409.3199
 20
124.1877
 10
409.9152
 20
124.3958
 10
410.5867
 20
124.5661
 10
411.3343
 20
124.6986
 10
412.158
 20
124.7932
 10
413.0578
 20
124.85
 10
414.0336
 20
124.8689
 10
430.3797
 20
124.8689
  0
LWPOLYLINE
  5
81
330
1F
100
AcDbEntity
  8
Layer 1
 62
     7
370
     9
100
AcDbPolyline
 90
      169
 70
     1
 43
0.0
 10
430.3797
 20
146.3533
 10
430.3797
 20
148.3238
 10
414.0336
 20
148.3238
 10
412.9489
 20
148.3078
 10
411.9151
 20
148.2596
 10
410.9322
 20
148.1794
 10
410.0002
 20
148.0671
 10
409.1191
 20
147.9226
 10
408.289
 20
147.746
 10
407.5099
 20
147.5373
 10
406.7818
 20
147.2964
 10
406.4344
 20
147.1619
 10
406.1048
 20
147.0191
 10
405.7927
 20
146.868
 10
405.4983
 20
146.7086
 10
405.2215
 20
146.5408
 10
404.9621
 20
146.3647
 10
404.7202
 20
146.1802
 10
404.4956
 20
145.9873
 10
404.2933
 20
145.7823
 10
404.1182
 20
145.5614
 10
403.9701
 20
145.3246
 10
403.8491
 20
145.0721
 10
403.7551
 20
144.8036
 10
403.688
 20
144.5192
 10
403.6478
 20
144.219
 10
403.6344
 20
143.9028
 10
403.6576
 20
143.5842
 10
403.7271
 20
143.2757
 10
403.843
 20
142.9773
 10
404.0053
 20
142.6891
 10
404.2141
 20
142.4109
 10
404.4693
 20
142.1429
 10
404.7711
 20
141.8849
 10
405.1193
 20
141.637
 10
405.4662
 20
141.4217
 10
405.8391
 20
141.216
 10
406.2377
 20
141.0202
 10
406.6618
 20
140.834
 10
407.1111
 20
140.6575
 10
407.5853
 20
140.4908
 10
408.0841
 20
140.3339
 10
408.6073
 20
140.1866
 10
408.3637
 20
140.1306
 10
408.124
 20
140.072
 10
407.8886
 20
140.0108
 10
407.6577
 20
139.947
 10
407.4313
 20
139.8805
 10
407.2097
 20
139.8115
 10
406.9932
 20
139.7398
 10
406.7818
 20
139.6654
 10
406.4344
 20
139.5312
 10
406.1048
 20
139.3886
 10
405.7927
 20
139.2375
 10
405.4983
 20
139.0781
 10
405.2215
 20
138.9102
 10
404.9621
 20
138.734
 10
404.7202
 20
138.5494
 10
404.4956
 20
138.3564
 10
404.2933
 20
138.1514
 10
404.1182
 20
137.9305
 10
403.9701
 20
137.6938
 10
403.8491
 20
137.4413
 10
403.7551
 20
137.173
 10
403.688
 20
136.8888
 10
403.6478
 20
136.5888
 10
403.6344
 20
136.273
 10
403.6576
 20
135.954
 10
403.7271
 20
135.6453
 10
403.843
 20
135.3467
 10
404.0053
 20
135.0583
 10
404.2141
 20
134.7801
 10
404.4693
 20
134.512
 10
404.7711
 20
134.254
 10
405.1193
 20
134.0061
 10
405.4498
 20
133.801
 10
405.8027
 20
133.6048
 10
406.1781
 20
133.4174
 10
406.576
 20
133.2387
 10
406.9967
 20
133.0688
 10
407.4402
 20
132.9077
 10
407.9067
 20
132.7553
 10
408.3962
 20
132.6115
 10
404.2269
 20
132.6115
 10
404.2269
 20
130.6411
 10
430.3797
 20
130.6411
 10
430.3797
 20
132.6115
 10
416.9963
 20
132.6115
 10
416.2164
 20
132.6574
 10
415.4671
 20
132.7174
 10
414.7481
 20
132.7913
 10
414.0591
 20
132.8793
 10
413.4
 20
132.9814
 10
412.7703
 20
133.0975
 10
412.17
 20
133.2278
 10
411.5987
 20
133.3721
 10
411.1916
 20
133.4898
 10
410.8031
 20
133.6171
 10
410.4332
 20
133.7541
 10
410.0821
 20
133.9007
 10
409.7496
 20
134.0568
 10
409.4357
 20
134.2226
 10
409.1405
 20
134.3981
 10
408.864
 20
134.5831
 10
408.6128
 20
134.7748
 10
408.3952
 20
134.9701
 10
408.2113
 20
135.1689
 10
408.061
 20
135.3714
 10
407.9441
 20
135.5773
 10
407.8607
 20
135.7867
 10
407.8108
 20
135.9996
 10
407.7941
 20
136.216
 10
407.8029
 20
136.4274
 10
407.8292
 20
136.6246
 10
407.8732
 20
136.8077
 10
407.9347
 20
136.9766
 10
408.0139
 20
137.1314
 10
408.1108
 20
137.2721
 10
408.2255
 20
137.3988
 10
408.3578
 20
137.5114
 10
408.8007
 20
137.7952
 10
409.3199
 20
138.0412
 10
409.9152
 20
138.2493
 10
410.5867
 20
138.4196
 10
411.3343
 20
138.5521
 10
412.158
 20
138.6467
 10
413.0578
 20
138.7035
 10
414.0336
 20
138.7224
 10
430.3797
 20
138.7224
 10
430.3797
 20
140.6929
 10
414.0336
 20
140.6929
 10
413.0333
 20
140.6792
 10
412.654
 20
140.7521
 10
412.289
 20
140.8304
 10
411.9376
 20
140.9141
 10
411.5987
 20
141.003
 10
411.1916
 20
141.1203
 10
410.8031
 20
141.2474
 10
410.4332
 20
141.3842
 10
410.0821
 20
141.5307
 10
409.7496
 20
141.6869
 10
409.4357
 20
141.8529
 10
409.1405
 20
142.0286
 10
408.864
 20
142.214
 10
408.6128
 20
142.4057
 10
408.3952
 20
142.601
 10
408.2113
 20
142.7998
 10
408.061
 20
143.0023
 10
407.9441
 20
143.2082
 10
407.8607
 20
143.4176
 10
407.8108
 20
143.6305
 10
407.7941
 20
143.8469
 10
407.8029
 20
144.058
 10
407.8292
 20
144.2551
 10
407.8732
 20
144.4381
 10
407.9347
 20
144.6071
 10
408.0139
 20
144.762
 10
408.1108
 20
144.9029
 10
408.2255
 20
145.0296
 10
408.3578
 20
145.1423
 10
408.8007
 20
145.4261
 10
409.3199
 20
145.6721
 10
409.9152
 20
145.8803
 10
410.5867
 20
146.0506
 10
411.3343
 20
146.183
 10
412.158
 20
146.2776
 10
413.0578
 20
146.3344
 10
414.0336
 20
146.3533
 10
430.3797
 20
146.3533
  0
LWPOLYLINE
  5
82
330
1F
100
AcDbEntity
  8
Layer 1
 62
     7
370
    20
100
AcDbPolyline
 90
      526
 70
     1
 43
0.0
 10
301.2918
 20
85.7533
 10
301.0714
 20
85.6475
 10
300.7498
 20
85.57
 10
300.3569
 20
85.5139
 10
299.9223
 20
85.4721
 10
299.4757
 20
85.4374
 10
299.0471
 20
85.4029
 10
298.666
 20
85.3615
 10
298.3622
 20
85.306
 10
298.1811
 20
85.2652
 10
297.9949
 20
85.2319
 10
297.8048
 20
85.2047
 10
297.6121
 20
85.1822
 10
297.4181
 20
85.1628
 10
297.2239
 20
85.1453
 10
297.0309
 20
85.128
 10
296.8403
 20
85.1096
 10
292.3555
 20
84.4633
 10
292.163
 20
84.4379
 10
291.9675
 20
84.4149
 10
291.7699
 20
84.3938
 10
291.5712
 20
84.3742
 10
291.3721
 20
84.3555
 10
291.1737
 20
84.3373
 10
290.9768
 20
84.3189
 10
290.7824
 20
84.3
 10
290.5588
 20
84.2732
 10
290.363
 20
84.2422
 10
290.1854
 20
84.2084
 10
290.0163
 20
84.1731
 10
289.846
 20
84.1378
 10
289.6648
 20
84.1037
 10
289.4631
 20
84.0724
 10
289.2311
 20
84.0451
 10
288.1317
 20
83.92
 10
287.005
 20
83.7649
 10
285.8578
 20
83.5893
 10
284.6973
 20
83.4026
 10
283.5303
 20
83.2143
 10
282.3638
 20
83.0338
 10
281.2048
 20
82.8706
 10
280.0602
 20
82.734
 10
252.6863
 20
78.5302
 10
252.1054
 20
78.4639
 10
251.4999
 20
78.3808
 10
250.8848
 20
78.2871
 10
250.2753
 20
78.1893
 10
249.6864
 20
78.0937
 10
249.1331
 20
78.0067
 10
248.6305
 20
77.9346
 10
248.1937
 20
77.8837
 10
218.8251
 20
73.2018
 10
218.6251
 20
73.1574
 10
218.4884
 20
73.1169
 10
218.3376
 20
73.078
 10
218.0954
 20
73.0388
 10
210.6647
 20
71.7287
 10
210.3814
 20
71.6991
 10
209.832
 20
71.7135
 10
209.2778
 20
71.8039
 10
208.7212
 20
71.9572
 10
208.1643
 20
72.1602
 10
207.6095
 20
72.3995
 10
207.0589
 20
72.6621
 10
206.515
 20
72.9346
 10
205.9799
 20
73.2039
 10
204.9702
 20
73.6957
 10
203.9314
 20
74.1856
 10
202.8731
 20
74.6741
 10
201.8048
 20
75.1619
 10
200.736
 20
75.6494
 10
199.6763
 20
76.1374
 10
198.635
 20
76.6263
 10
197.6218
 20
77.1168
 10
195.5758
 20
78.0717
 10
189.2437
 20
81.0056
 10
188.988
 20
81.1187
 10
188.7297
 20
81.2343
 10
188.4701
 20
81.352
 10
188.2104
 20
81.4715
 10
187.9518
 20
81.5922
 10
187.6955
 20
81.7137
 10
187.4428
 20
81.8357
 10
187.1948
 20
81.9576
 10
155.429
 20
96.3042
 10
154.8967
 20
96.5404
 10
154.3685
 20
96.7713
 10
153.8429
 20
96.9987
 10
153.3184
 20
97.2247
 10
152.7932
 20
97.4509
 10
152.266
 20
97.6794
 10
151.735
 20
97.9119
 10
151.1988
 20
98.1504
 10
138.5539
 20
103.5463
 10
138.4509
 20
103.6103
 10
138.3748
 20
103.662
 10
138.362
 20
103.6637
 10
138.3661
 20
103.6696
 10
138.3407
 20
103.7337
 10
138.213
 20
103.7529
 10
138.0952
 20
103.7852
 10
137.9853
 20
103.8309
 10
137.8814
 20
103.8903
 10
137.7814
 20
103.9634
 10
137.6835
 20
104.0506
 10
137.5855
 20
104.152
 10
137.4856
 20
104.2679
 10
137.3703
 20
104.438
 10
137.307
 20
104.6077
 10
137.2874
 20
104.7897
 10
137.303
 20
104.9968
 10
137.3456
 20
105.2416
 10
137.4066
 20
105.5371
 10
137.4777
 20
105.8959
 10
137.5506
 20
106.3307
 10
138.3941
 20
111.7589
 10
139.0728
 20
116.0987
 10
139.114
 20
116.3971
 10
139.1749
 20
116.8557
 10
139.2519
 20
117.4191
 10
139.3414
 20
118.032
 10
139.4398
 20
118.6388
 10
139.5435
 20
119.1843
 10
139.649
 20
119.613
 10
139.7527
 20
119.8695
 10
139.8148
 20
119.9566
 10
139.861
 20
120.0107
 10
139.8963
 20
120.0428
 10
139.9258
 20
120.064
 10
139.9545
 20
120.0852
 10
139.9875
 20
120.1174
 10
140.0297
 20
120.1717
 10
140.0864
 20
120.2591
 10
140.451
 20
120.2974
 10
140.4298
 20
120.3052
 10
140.4147
 20
120.3284
 10
140.4347
 20
120.351
 10
140.4865
 20
120.3835
 10
140.5802
 20
120.4281
 10
140.7258
 20
120.4869
 10
144.8197
 20
121.2055
 10
145.9141
 20
121.4099
 10
153.9117
 20
122.9026
 10
154.1981
 20
122.9671
 10
154.4848
 20
123.0205
 10
154.7718
 20
123.0663
 10
155.0589
 20
123.1082
 10
155.3463
 20
123.1497
 10
155.6338
 20
123.1945
 10
155.9213
 20
123.246
 10
156.2088
 20
123.3079
 10
170.0165
 20
125.7218
 10
170.2686
 20
125.7747
 10
170.5445
 20
125.8309
 10
170.8374
 20
125.8883
 10
171.1404
 20
125.945
 10
171.4465
 20
125.9991
 10
171.7489
 20
126.0486
 10
172.0408
 20
126.0915
 10
172.3151
 20
126.126
 10
176.9643
 20
126.8942
 10
177.2231
 20
126.9489
 10
177.4985
 20
127.0055
 10
177.7864
 20
127.0624
 10
178.0825
 20
127.1182
 10
178.3826
 20
127.1711
 10
178.6824
 20
127.2197
 10
178.9776
 20
127.2624
 10
179.264
 20
127.2977
 10
179.527
 20
127.3329
 10
179.8102
 20
127.3804
 10
180.1066
 20
127.4365
 10
180.4092
 20
127.4976
 10
180.7111
 20
127.5599
 10
181.0054
 20
127.6196
 10
181.2851
 20
127.6732
 10
181.5433
 20
127.7169
 10
182.1354
 20
127.8078
 10
182.7199
 20
127.8981
 10
183.2992
 20
127.9887
 10
183.8758
 20
128.0806
 10
184.4521
 20
128.1744
 10
185.0305
 20
128.2711
 10
185.6135
 20
128.3716
 10
186.2036
 20
128.4766
 10
190.779
 20
129.3022
 10
194.2551
 20
129.8463
 10
194.4439
 20
129.8694
 10
194.6003
 20
129.8958
 10
194.7347
 20
129.9245
 10
194.8573
 20
129.9545
 10
194.9785
 20
129.9846
 10
195.1084
 20
130.0137
 10
195.2574
 20
130.0408
 10
195.4357
 20
130.0649
 10
195.9603
 20
130.1302
 10
196.4359
 20
130.2
 10
196.8743
 20
130.2723
 10
197.2873
 20
130.3452
 10
197.6868
 20
130.4165
 10
198.0844
 20
130.4843
 10
198.4921
 20
130.5466
 10
198.9216
 20
130.6012
 10
212.8127
 20
132.9499
 10
213.0063
 20
132.9735
 10
213.1708
 20
133.0006
 10
213.3141
 20
133.0297
 10
213.4447
 20
133.0597
 10
213.5704
 20
133.0892
 10
213.6997
 20
133.1171
 10
213.8405
 20
133.1419
 10
214.001
 20
133.1626
 10
213.9575
 20
133.6272
 10
213.8932
 20
134.3971
 10
213.8201
 20
135.3655
 10
213.7503
 20
136.4255
 10
213.696
 20
137.4702
 10
213.6693
 20
138.3927
 10
213.6822
 20
139.0861
 10
213.7468
 20
139.4436
 10
213.8391
 20
139.5529
 10
213.9652
 20
139.6422
 10
214.1228
 20
139.7192
 10
214.3098
 20
139.7916
 10
214.5241
 20
139.8673
 10
214.7634
 20
139.9539
 10
215.0256
 20
140.0593
 10
215.3085
 20
140.1912
 10
215.3221
 20
140.3376
 10
215.3414
 20
140.4575
 10
215.3666
 20
140.558
 10
215.3982
 20
140.6458
 10
215.4817
 20
140.8112
 10
215.5947
 20
141.0093
 10
215.068
 20
141.2247
 10
214.6588
 20
141.3207
 10
214.3527
 20
141.3648
 10
214.1353
 20
141.4243
 10
213.9922
 20
141.5666
 10
213.9089
 20
141.8592
 10
213.8712
 20
142.3694
 10
213.8645
 20
143.1647
 10
213.866
 20
143.5024
 10
213.8645
 20
143.8471
 10
213.8551
 20
144.1812
 10
213.833
 20
144.4869
 10
213.0446
 20
144.5023
 10
211.5808
 20
144.596
 10
209.6766
 20
144.747
 10
207.5672
 20
144.9339
 10
205.488
 20
145.1357
 10
203.674
 20
145.3311
 10
202.3606
 20
145.499
 10
201.7828
 20
145.6182
 10
201.6577
 20
145.7406
 10
201.568
 20
145.9072
 10
201.5093
 20
146.106
 10
201.4769
 20
146.3248
 10
201.4663
 20
146.5513
 10
201.473
 20
146.7734
 10
201.4922
 20
146.979
 10
201.5196
 20
147.1558
 10
201.5392
 20
147.2209
 10
201.512
 20
148.133
 10
201.4981
 20
149.8955
 10
201.4957
 20
152.2125
 10
201.5031
 20
154.7881
 10
201.5185
 20
157.3261
 10
201.5402
 20
159.5307
 10
201.5665
 20
161.1058
 10
201.5957
 20
161.7554
 10
201.5407
 20
162.4846
 10
201.5576
 20
162.9794
 10
201.6473
 20
163.2874
 10
201.8105
 20
163.456
 10
202.048
 20
163.5328
 10
202.3605
 20
163.5652
 10
202.7489
 20
163.6009
 10
203.2139
 20
163.6873
 10
204.0257
 20
163.8239
 10
208.4179
 20
164.2827
 10
214.3034
 20
164.8115
 10
215.7262
 20
164.8267
 10
218.2045
 20
164.7315
 10
221.3927
 20
164.556
 10
224.9447
 20
164.3304
 10
228.5147
 20
164.0846
 10
231.7568
 20
163.8488
 10
234.3253
 20
163.653
 10
235.8741
 20
163.5274
 10
236.9483
 20
163.439
 10
238.0153
 20
163.3598
 10
239.0777
 20
163.2867
 10
240.1378
 20
163.2164
 10
241.1982
 20
163.1458
 10
242.2615
 20
163.0718
 10
243.3301
 20
162.9911
 10
244.4066
 20
162.9006
 10
248.669
 20
162.5825
 10
249.1855
 20
162.5517
 10
249.7133
 20
162.5149
 10
250.2488
 20
162.4734
 10
250.7882
 20
162.4285
 10
251.328
 20
162.3816
 10
251.8643
 20
162.3339
 10
252.3936
 20
162.2868
 10
252.9121
 20
162.2415
 10
278.3589
 20
160.1823
 10
279.4251
 20
160.0926
 10
280.4955
 20
160.0061
 10
281.5681
 20
159.9229
 10
282.641
 20
159.843
 10
283.712
 20
159.7665
 10
284.7792
 20
159.6935
 10
285.8404
 20
159.6239
 10
286.8937
 20
159.5579
 10
289.02
 20
159.4175
 10
291.1611
 20
159.2599
 10
293.3109
 20
159.0918
 10
295.4631
 20
158.9196
 10
297.6116
 20
158.7498
 10
299.7501
 20
158.589
 10
301.8725
 20
158.4436
 10
303.9724
 20
158.3201
 10
305.0585
 20
158.2574
 10
306.1312
 20
158.1866
 10
307.1946
 20
158.1097
 10
308.253
 20
158.0288
 10
309.3103
 20
157.9461
 10
310.3708
 20
157.8637
 10
311.4384
 20
157.7836
 10
312.5175
 20
157.708
 10
321.1326
 20
157.179
 10
322.7598
 20
157.0827
 10
324.3744
 20
156.9756
 10
325.9793
 20
156.8607
 10
327.5775
 20
156.7411
 10
329.1718
 20
156.6195
 10
330.7652
 20
156.499
 10
332.3606
 20
156.3826
 10
333.9608
 20
156.2732
 10
334.3621
 20
156.2425
 10
334.9088
 20
156.1955
 10
335.5472
 20
156.1393
 10
336.2236
 20
156.0809
 10
336.8841
 20
156.0275
 10
337.4751
 20
155.9862
 10
337.943
 20
155.9639
 10
338.2338
 20
155.9677
 10
340.2875
 20
136.4457
 10
319.9157
 20
137.6591
 10
317.1395
 20
137.8529
 10
314.3807
 20
138.0317
 10
311.6343
 20
138.1999
 10
308.8957
 20
138.3619
 10
306.1598
 20
138.5221
 10
303.4218
 20
138.6849
 10
300.6769
 20
138.8547
 10
297.9202
 20
139.036
 10
297.6988
 20
139.0494
 10
297.4855
 20
139.0597
 10
297.278
 20
139.0682
 10
297.0736
 20
139.0762
 10
296.8699
 20
139.085
 10
296.6643
 20
139.096
 10
296.4543
 20
139.1106
 10
296.2375
 20
139.1301
 10
286.1562
 20
139.9102
 10
283.6326
 20
140.0576
 10
281.0953
 20
140.2151
 10
278.5487
 20
140.3789
 10
275.9969
 20
140.5455
 10
273.444
 20
140.7112
 10
270.8942
 20
140.8724
 10
268.3517
 20
141.0255
 10
265.8207
 20
141.1667
 10
264.5913
 20
141.2386
 10
263.3407
 20
141.3228
 10
262.0755
 20
141.4154
 10
260.8024
 20
141.513
 10
259.5282
 20
141.6117
 10
258.2595
 20
141.7079
 10
257.003
 20
141.798
 10
255.7655
 20
141.8783
 10
252.3268
 20
142.0787
 10
250.6449
 20
142.1751
 10
248.9542
 20
142.2833
 10
247.2581
 20
142.3995
 10
245.5598
 20
142.5197
 10
243.8626
 20
142.6401
 10
242.1696
 20
142.7568
 10
240.4842
 20
142.8658
 10
238.8097
 20
142.9633
 10
233.7089
 20
143.2825
 10
233.5211
 20
143.2982
 10
233.3097
 20
143.3154
 10
233.0812
 20
143.3323
 10
232.8422
 20
143.3467
 10
232.5992
 20
143.3567
 10
232.3587
 20
143.3602
 10
232.1271
 20
143.3551
 10
231.9111
 20
143.3396
 10
231.9355
 20
143.1038
 10
231.9559
 20
142.8676
 10
231.9667
 20
142.6362
 10
231.9621
 20
142.415
 10
231.9364
 20
142.2091
 10
231.8842
 20
142.024
 10
231.7996
 20
141.8648
 10
231.677
 20
141.7369
 10
231.2753
 20
141.4833
 10
230.986
 20
141.3973
 10
230.7799
 20
141.4085
 10
230.628
 20
141.4464
 10
230.5013
 20
141.4408
 10
230.3706
 20
141.3212
 10
230.2069
 20
141.0173
 10
229.9812
 20
140.4587
 10
230.1524
 20
140.4686
 10
230.3365
 20
140.4689
 10
230.5249
 20
140.4554
 10
230.7093
 20
140.4243
 10
230.8809
 20
140.3714
 10
231.0314
 20
140.2927
 10
231.1522
 20
140.1843
 10
231.2347
 20
140.0421
 10
231.3099
 20
139.8977
 10
231.3693
 20
139.6701
 10
231.4144
 20
139.3865
 10
231.4468
 20
139.0739
 10
231.4681
 20
138.7595
 10
231.4798
 20
138.4705
 10
231.4835
 20
138.234
 10
231.4807
 20
138.077
 10
231.4756
 20
137.823
 10
231.4841
 20
137.5642
 10
231.5035
 20
137.3022
 10
231.5309
 20
137.0382
 10
231.5631
 20
136.7736
 10
231.5975
 20
136.5099
 10
231.631
 20
136.2483
 10
231.6608
 20
135.9903
 10
231.8751
 20
136.0364
 10
232.2776
 20
136.0975
 10
232.813
 20
136.1605
 10
233.4262
 20
136.2121
 10
234.0619
 20
136.2391
 10
234.6649
 20
136.2281
 10
235.1799
 20
136.1661
 10
235.5518
 20
136.0397
 10
235.8962
 20
135.9621
 10
236.363
 20
135.8005
 10
236.9134
 20
135.5776
 10
237.5092
 20
135.316
 10
238.1118
 20
135.0383
 10
238.6828
 20
134.7671
 10
239.1836
 20
134.5249
 10
239.5758
 20
134.3343
 10
241.3187
 20
133.499
 10
243.1099
 20
132.6517
 10
244.9326
 20
131.7953
 10
246.7696
 20
130.9326
 10
248.6039
 20
130.0664
 10
250.4184
 20
129.1995
 10
252.1961
 20
128.3347
 10
253.92
 20
127.4749
 10
257.8312
 20
125.6485
 10
259.15
 20
125.0246
 10
259.4831
 20
124.8739
 10
259.8148
 20
124.7189
 10
260.1453
 20
124.5611
 10
260.4751
 20
124.4019
 10
260.8044
 20
124.243
 10
261.1335
 20
124.0858
 10
261.4629
 20
123.9317
 10
261.7929
 20
123.7824
 10
263.3633
 20
123.0677
 10
264.9907
 20
122.2954
 10
266.6539
 20
121.4821
 10
268.3317
 20
120.6443
 10
270.0026
 20
119.7987
 10
271.6456
 20
118.962
 10
273.2392
 20
118.1507
 10
274.7622
 20
117.3815
 10
277.3388
 20
116.0615
 10
287.6268
 20
110.9563
 10
289.1795
 20
110.1749
 10
290.7749
 20
109.3687
 10
292.3997
 20
108.5469
 10
294.0403
 20
107.7189
 10
295.6831
 20
106.8939
 10
297.3149
 20
106.0813
 10
298.922
 20
105.2903
 10
300.4909
 20
104.5302
 10
300.859
 20
104.3565
 10
301.3437
 20
104.129
 10
301.9018
 20
103.8623
 10
302.4902
 20
103.5715
 10
303.0656
 20
103.2712
 10
303.5849
 20
102.9765
 10
304.005
 20
102.7022
 10
304.2826
 20
102.463
 10
304.4234
 20
102.2862
 10
304.5261
 20
102.1166
 10
304.5964
 20
101.9485
 10
304.6403
 20
101.7762
 10
304.6634
 20
101.594
 10
304.6717
 20
101.3962
 10
304.6707
 20
101.177
 10
304.6665
 20
100.9308
 10
304.648
 20
99.4412
 10
304.6306
 20
97.7002
 10
304.6104
 20
95.7976
 10
304.5833
 20
93.8229
 10
304.5453
 20
91.866
 10
304.4927
 20
90.0166
 10
304.4213
 20
88.3644
 10
304.3272
 20
86.999
 10
304.2591
 20
86.5981
 10
304.1295
 20
86.3133
 10
303.9245
 20
86.1215
 10
303.6306
 20
85.9997
 10
303.234
 20
85.925
 10
302.7211
 20
85.8744
 10
302.0783
 20
85.8248
 10
301.2918
 20
85.7533
  0
LWPOLYLINE
  5
83
330
1F
100
AcDbEntity
  8
Layer 1
 62
     7
370
    20
100
AcDbPolyline
 90
      257
 70
     1
 43
0.0
 10
301.9747
 20
85.6257
 10
301.7542
 20
85.5199
 10
301.4327
 20
85.4425
 10
301.0397
 20
85.3864
 10
300.6051
 20
85.3446
 10
300.1585
 20
85.3099
 10
299.7298
 20
85.2754
 10
299.3487
 20
85.234
 10
299.0449
 20
85.1786
 10
298.8638
 20
85.1377
 10
298.6776
 20
85.1043
 10
298.4875
 20
85.0771
 10
298.2948
 20
85.0546
 10
298.1008
 20
85.0352
 10
297.9066
 20
85.0176
 10
297.7137
 20
85.0003
 10
297.5231
 20
84.9819
 10
293.0383
 20
84.3357
 10
292.8458
 20
84.3103
 10
292.6503
 20
84.2873
 10
292.4527
 20
84.2662
 10
292.254
 20
84.2466
 10
292.0549
 20
84.2279
 10
291.8565
 20
84.2097
 10
291.6596
 20
84.1913
 10
291.4652
 20
84.1724
 10
291.2416
 20
84.1456
 10
291.0458
 20
84.1146
 10
290.8682
 20
84.0808
 10
290.6991
 20
84.0456
 10
290.5288
 20
84.0102
 10
290.3476
 20
83.9762
 10
290.1458
 20
83.9449
 10
289.9138
 20
83.9176
 10
288.8144
 20
83.7924
 10
287.6877
 20
83.6373
 10
286.5406
 20
83.4617
 10
285.3801
 20
83.2751
 10
284.2131
 20
83.0868
 10
283.0466
 20
82.9063
 10
281.8875
 20
82.743
 10
280.7429
 20
82.6064
 10
253.369
 20
78.4027
 10
252.7881
 20
78.3364
 10
252.1826
 20
78.2533
 10
251.5676
 20
78.1596
 10
250.9581
 20
78.0618
 10
250.3691
 20
77.9662
 10
249.8158
 20
77.8791
 10
249.3132
 20
77.807
 10
248.8764
 20
77.7562
 10
219.508
 20
73.0742
 10
219.3079
 20
73.0298
 10
219.1712
 20
72.9892
 10
219.0204
 20
72.9504
 10
218.7782
 20
72.9111
 10
211.3475
 20
71.6011
 10
211.0642
 20
71.5715
 10
210.5148
 20
71.5859
 10
209.9607
 20
71.6763
 10
209.404
 20
71.8296
 10
208.8471
 20
72.0325
 10
208.2923
 20
72.2719
 10
207.7418
 20
72.5345
 10
207.1978
 20
72.8071
 10
206.6627
 20
73.0764
 10
205.653
 20
73.5682
 10
204.6142
 20
74.0581
 10
203.556
 20
74.5466
 10
202.4877
 20
75.0344
 10
201.4189
 20
75.5219
 10
200.3592
 20
76.0099
 10
199.3179
 20
76.4988
 10
198.3047
 20
76.9892
 10
196.2585
 20
77.9441
 10
189.9263
 20
80.878
 10
189.6706
 20
80.9911
 10
189.4124
 20
81.1067
 10
189.1528
 20
81.2245
 10
188.8931
 20
81.3439
 10
188.6346
 20
81.4646
 10
188.3783
 20
81.5861
 10
188.1256
 20
81.7081
 10
187.8776
 20
81.8301
 10
156.1117
 20
96.1765
 10
155.5794
 20
96.4127
 10
155.0512
 20
96.6436
 10
154.5256
 20
96.8711
 10
154.0011
 20
97.0971
 10
153.476
 20
97.3234
 10
152.9488
 20
97.5519
 10
152.4179
 20
97.7845
 10
151.8817
 20
98.023
 10
139.2365
 20
103.4188
 10
139.1338
 20
103.4828
 10
139.0576
 20
103.5345
 10
139.0448
 20
103.5362
 10
139.0489
 20
103.5421
 10
139.0235
 20
103.6062
 10
138.9664
 20
103.6537
 10
138.8166
 20
103.8206
 10
138.7683
 20
103.8984
 10
138.7411
 20
103.9559
 10
138.7205
 20
104.0265
 10
138.6921
 20
104.1437
 10
140.2561
 20
104.4982
 10
142.9589
 20
105.0128
 10
146.4304
 20
105.6318
 10
150.3006
 20
106.299
 10
154.1994
 20
106.9587
 10
157.7567
 20
107.5548
 10
160.6026
 20
108.0315
 10
162.3668
 20
108.3327
 10
163.8289
 20
108.5937
 10
165.3076
 20
108.8602
 10
166.7967
 20
109.1289
 10
168.2898
 20
109.3962
 10
169.7805
 20
109.6589
 10
171.2626
 20
109.9134
 10
172.7297
 20
110.1564
 10
174.1755
 20
110.3844
 10
174.5255
 20
110.4378
 10
174.8946
 20
110.4949
 10
175.2765
 20
110.5562
 10
175.6643
 20
110.6221
 10
176.0517
 20
110.6931
 10
176.4318
 20
110.7697
 10
176.7983
 20
110.8525
 10
177.1444
 20
110.9419
 10
177.3327
 20
110.9863
 10
177.5196
 20
111.0166
 10
177.7058
 20
111.0368
 10
177.8923
 20
111.0507
 10
178.0799
 20
111.0624
 10
178.2696
 20
111.0757
 10
178.4623
 20
111.0945
 10
178.6588
 20
111.1228
 10
179.0245
 20
111.1911
 10
179.3751
 20
111.2616
 10
179.7324
 20
111.33
 10
180.1181
 20
111.3917
 10
180.8149
 20
111.4935
 10
181.5395
 20
111.6074
 10
182.2833
 20
111.7306
 10
183.0379
 20
111.8607
 10
183.7949
 20
111.995
 10
184.5458
 20
112.1311
 10
185.2821
 20
112.2663
 10
185.9954
 20
112.398
 10
187.4879
 20
112.6653
 10
188.9866
 20
112.9192
 10
190.4903
 20
113.1631
 10
191.9978
 20
113.4004
 10
193.508
 20
113.6347
 10
195.0198
 20
113.8694
 10
196.5318
 20
114.108
 10
198.0431
 20
114.354
 10
199.5382
 20
114.6019
 10
201.0332
 20
114.8484
 10
202.5286
 20
115.0932
 10
204.0249
 20
115.3357
 10
205.5227
 20
115.5753
 10
207.0225
 20
115.8116
 10
208.525
 20
116.044
 10
210.0307
 20
116.2721
 10
211.5331
 20
116.5002
 10
213.0417
 20
116.7342
 10
214.5544
 20
116.972
 10
216.0691
 20
117.2116
 10
217.5837
 20
117.4508
 10
219.0962
 20
117.6877
 10
220.6043
 20
117.92
 10
222.1061
 20
118.1458
 10
223.1414
 20
118.3086
 10
224.6483
 20
118.555
 10
226.4567
 20
118.8518
 10
228.3968
 20
119.1657
 10
230.2987
 20
119.4635
 10
231.9923
 20
119.712
 10
233.3079
 20
119.878
 10
234.0754
 20
119.9283
 10
234.478
 20
120.0075
 10
234.6821
 20
119.8777
 10
234.9314
 20
119.7491
 10
235.2134
 20
119.6224
 10
235.5153
 20
119.498
 10
235.8245
 20
119.3767
 10
236.1283
 20
119.2588
 10
236.414
 20
119.145
 10
236.669
 20
119.0359
 10
236.9559
 20
118.9046
 10
237.2359
 20
118.7739
 10
237.5112
 20
118.6437
 10
237.7836
 20
118.5135
 10
238.0552
 20
118.3829
 10
238.328
 20
118.2518
 10
238.604
 20
118.1198
 10
238.8851
 20
117.9865
 10
239.4448
 20
117.7231
 10
240.0039
 20
117.4606
 10
240.5619
 20
117.1986
 10
241.1185
 20
116.9368
 10
241.673
 20
116.6749
 10
242.2252
 20
116.4124
 10
242.7744
 20
116.149
 10
243.3203
 20
115.8844
 10
245.5392
 20
114.8219
 10
247.7669
 20
113.7875
 10
249.9998
 20
112.7734
 10
252.2343
 20
111.772
 10
254.4665
 20
110.7757
 10
256.6929
 20
109.7767
 10
258.9096
 20
108.7676
 10
261.1131
 20
107.7405
 10
269.928
 20
103.5874
 10
272.1619
 20
102.5318
 10
274.3847
 20
101.4596
 10
276.5945
 20
100.3771
 10
278.7892
 20
99.2906
 10
280.9669
 20
98.2065
 10
283.1257
 20
97.1311
 10
285.2634
 20
96.0706
 10
287.3781
 20
95.0314
 10
288.4844
 20
94.4874
 10
289.5768
 20
93.943
 10
290.6582
 20
93.3975
 10
291.7315
 20
92.8503
 10
292.7996
 20
92.3008
 10
293.8654
 20
91.7485
 10
294.9317
 20
91.1928
 10
296.0015
 20
90.633
 10
296.5302
 20
90.3576
 10
297.0622
 20
90.0833
 10
297.5965
 20
89.8095
 10
298.1323
 20
89.536
 10
298.6686
 20
89.2623
 10
299.2045
 20
88.9879
 10
299.7391
 20
88.7125
 10
300.2715
 20
88.4357
 10
302.4383
 20
87.3219
 10
302.6665
 20
87.2094
 10
302.9462
 20
87.0732
 10
303.2554
 20
86.9191
 10
303.5724
 20
86.7524
 10
303.8754
 20
86.5787
 10
304.1427
 20
86.4036
 10
304.3524
 20
86.2326
 10
304.4828
 20
86.0712
 10
302.2797
 20
85.7574
 10
302.2821
 20
85.7629
 10
302.2854
 20
85.7751
 10
302.2834
 20
85.7876
 10
302.2699
 20
85.7937
 10
302.2385
 20
85.7871
 10
302.183
 20
85.7612
 10
302.0971
 20
85.7096
 10
301.9747
 20
85.6257
  0
LWPOLYLINE
  5
84
330
1F
100
AcDbEntity
  8
Layer 1
 62
     7
370
    20
100
AcDbPolyline
 90
        5
 70
     1
 43
0.0
 10
234.0753
 20
119.9284
 10
235.484
 20
136.0906
 10
234.2946
 20
136.0955
 10
233.0261
 20
119.8463
 10
234.0753
 20
119.9284
  0
LWPOLYLINE
  5
85
330
1F
100
AcDbEntity
  8
Layer 1
 62
     7
370
    20
100
AcDbPolyline
 90
        2
 70
     0
 43
0.0
 10
231.6608
 20
135.9903
 10
214.001
 20
133.1626
  0
LWPOLYLINE
  5
86
330
1F
100
AcDbEntity
  8
Layer 1
 62
     7
370
    20
100
AcDbPolyline
 90
        3
 70
     0
 43
0.0
 10
340.0919
 20
138.3028
 10
214.7847
 20
146.3714
 10
204.691
 20
145.2185
  0
LWPOLYLINE
  5
87
330
1F
100
AcDbEntity
  8
Layer 1
 62
     7
370
    20
100
AcDbPolyline
 90
        2
 70
     0
 43
0.0
 10
214.9782
 20
164.759
 10
214.7847
 20
146.3714
  0
LWPOLYLINE
  5
88
330
1F
100
AcDbEntity
  8
Layer 1
 62
     7
370
    20
100
AcDbPolyline
 90
       33
 70
     1
 43
0.0
 10
182.9712
 20
101.4487
 10
183.009
 20
99.9711
 10
182.9389
 20
99.8178
 10
182.7922
 20
99.6905
 10
182.5875
 20
99.5878
 10
182.3435
 20
99.5084
 10
182.0791
 20
99.4509
 10
181.8128
 20
99.4138
 10
181.5636
 20
99.3958
 10
181.3501
 20
99.3955
 10
181.1576
 20
99.417
 10
180.9732
 20
99.4611
 10
180.7977
 20
99.5222
 10
180.6317
 20
99.5949
 10
180.331
 20
99.7532
 10
180.0769
 20
99.892
 10
180.0577
 20
100.0861
 10
180.0459
 20
100.3264
 10
180.0412
 20
100.596
 10
180.0437
 20
100.8779
 10
180.0531
 20
101.1549
 10
180.0694
 20
101.4102
 10
180.0925
 20
101.6268
 10
180.1222
 20
101.7875
 10
180.2431
 20
101.8366
 10
180.4342
 20
101.8966
 10
180.6721
 20
101.9615
 10
180.9334
 20
102.0253
 10
181.1948
 20
102.0821
 10
181.4331
 20
102.1258
 10
181.6248
 20
102.1505
 10
181.7467
 20
102.1502
 10
182.9712
 20
101.4487
  0
LWPOLYLINE
  5
89
330
1F
100
AcDbEntity
  8
Layer 1
 62
     7
370
    20
100
AcDbPolyline
 90
       57
 70
     1
 43
0.0
 10
227.5157
 20
105.3853
 10
227.5641
 20
105.3235
 10
227.5782
 20
105.3169
 10
227.5673
 20
105.2966
 10
227.5408
 20
105.194
 10
227.4392
 20
104.914
 10
227.5857
 20
104.8316
 10
227.699
 20
104.7442
 10
227.7807
 20
104.6423
 10
227.8325
 20
104.5167
 10
227.8558
 20
104.3581
 10
227.8523
 20
104.1573
 10
227.8235
 20
103.9048
 10
227.7711
 20
103.5915
 10
227.725
 20
103.3854
 10
227.6116
 20
103.1222
 10
227.4577
 20
103.0591
 10
227.2645
 20
102.9957
 10
227.044
 20
102.9355
 10
226.8076
 20
102.882
 10
226.5673
 20
102.8388
 10
226.3347
 20
102.8094
 10
226.1216
 20
102.7973
 10
225.9397
 20
102.806
 10
225.8169
 20
102.8351
 10
225.6598
 20
102.8917
 10
225.481
 20
102.9678
 10
225.2932
 20
103.0555
 10
224.9412
 20
103.2334
 10
224.7054
 20
103.3618
 10
224.9846
 20
105.1816
 10
225.2655
 20
105.2351
 10
225.4635
 20
105.2824
 10
225.5961
 20
105.3238
 10
225.6811
 20
105.3599
 10
225.7362
 20
105.3912
 10
225.779
 20
105.418
 10
225.8271
 20
105.4409
 10
225.8984
 20
105.4604
 10
225.9373
 20
105.462
 10
226.1883
 20
105.5132
 10
226.428
 20
105.5417
 10
226.6128
 20
105.4949
 10
226.7558
 20
105.399
 10
226.8701
 20
105.2802
 10
226.9686
 20
105.1646
 10
227.0645
 20
105.0784
 10
227.1708
 20
105.0478
 10
227.3005
 20
105.0988
 10
227.3634
 20
105.1513
 10
227.3761
 20
105.1835
 10
227.3587
 20
105.2032
 10
227.3311
 20
105.2181
 10
227.313
 20
105.236
 10
227.3245
 20
105.2647
 10
227.3854
 20
105.3119
 10
227.5157
 20
105.3853
  0
LWPOLYLINE
  5
8A
330
1F
100
AcDbEntity
  8
Layer 1
 62
     7
370
    20
100
AcDbPolyline
 90
       43
 70
     1
 43
0.0
 10
215.8496
 20
108.7697
 10
215.1548
 20
108.6476
 10
214.6384
 20
108.5859
 10
214.2576
 20
108.5782
 10
213.9695
 20
108.6185
 10
213.7312
 20
108.7004
 10
213.4998
 20
108.8179
 10
213.2324
 20
108.9647
 10
212.8862
 20
109.1345
 10
212.8874
 20
109.2742
 10
212.9071
 20
109.4783
 10
212.941
 20
109.7243
 10
212.9851
 20
109.9896
 10
213.0351
 20
110.2514
 10
213.0868
 20
110.4873
 10
213.136
 20
110.6745
 10
213.1786
 20
110.7905
 10
213.2858
 20
110.9079
 10
213.4593
 20
110.9988
 10
213.6825
 20
111.0671
 10
213.9388
 20
111.1164
 10
214.2116
 20
111.1506
 10
214.4843
 20
111.1735
 10
214.7404
 20
111.1889
 10
214.9632
 20
111.2005
 10
215.0866
 20
111.0741
 10
215.1793
 20
110.9808
 10
215.2294
 20
110.9407
 10
215.2902
 20
110.9017
 10
215.3677
 20
110.8615
 10
215.4681
 20
110.8177
 10
215.5786
 20
110.78
 10
215.628
 20
110.7723
 10
215.6776
 20
110.7555
 10
215.7889
 20
110.6904
 10
215.9427
 20
110.556
 10
216.0293
 20
110.3936
 10
216.0615
 20
110.2019
 10
216.0518
 20
109.9801
 10
216.0131
 20
109.727
 10
215.958
 20
109.4416
 10
215.8993
 20
109.1228
 10
215.8496
 20
108.7697
  0
LWPOLYLINE
  5
8B
330
1F
100
AcDbEntity
  8
Layer 1
 62
     7
370
    20
100
AcDbPolyline
 90
       60
 70
     1
 43
0.0
 10
242.5649
 20
107.821
 10
242.7629
 20
107.8063
 10
242.9476
 20
107.8038
 10
243.0377
 20
107.7827
 10
243.1277
 20
107.7354
 10
243.2186
 20
107.6522
 10
243.3115
 20
107.5234
 10
243.3925
 20
107.3427
 10
243.4321
 20
107.1446
 10
243.4382
 20
106.9306
 10
243.4188
 20
106.7021
 10
243.3818
 20
106.4604
 10
243.3352
 20
106.2071
 10
243.2868
 20
105.9434
 10
243.2448
 20
105.6708
 10
243.0563
 20
105.634
 10
242.8416
 20
105.5927
 10
242.6097
 20
105.5512
 10
242.3699
 20
105.5136
 10
242.1311
 20
105.4843
 10
241.9025
 20
105.4674
 10
241.6932
 20
105.4672
 10
241.5122
 20
105.488
 10
241.3698
 20
105.5278
 10
241.209
 20
105.5915
 10
241.0379
 20
105.6732
 10
240.8648
 20
105.7671
 10
240.698
 20
105.8673
 10
240.5456
 20
105.9679
 10
240.416
 20
106.0631
 10
240.3173
 20
106.1471
 10
240.3127
 20
106.3444
 10
240.3288
 20
106.5715
 10
240.3595
 20
106.7995
 10
240.3989
 20
106.9995
 10
240.5004
 20
107.4157
 10
240.5433
 20
107.5381
 10
240.5878
 20
107.6189
 10
240.6177
 20
107.6497
 10
240.6564
 20
107.6776
 10
240.7066
 20
107.7049
 10
240.7712
 20
107.7341
 10
240.8952
 20
107.7706
 10
241.0285
 20
107.7878
 10
241.1717
 20
107.8001
 10
241.326
 20
107.8218
 10
241.4921
 20
107.8675
 10
241.6709
 20
107.9514
 10
241.8634
 20
108.0879
 10
242.0704
 20
108.2916
 10
242.1366
 20
108.3729
 10
242.1651
 20
108.421
 10
242.1686
 20
108.4447
 10
242.1599
 20
108.4528
 10
242.1575
 20
108.457
 10
242.2606
 20
108.5036
 10
242.3383
 20
108.3415
 10
242.407
 20
108.1682
 10
242.4786
 20
107.9919
 10
242.5649
 20
107.821
  0
LWPOLYLINE
  5
8C
330
1F
100
AcDbEntity
  8
Layer 1
 62
     7
370
    20
100
AcDbPolyline
 90
       49
 70
     1
 43
0.0
 10
175.145
 20
100.1064
 10
175.0685
 20
98.4405
 10
174.6987
 20
98.2609
 10
174.3187
 20
98.1455
 10
173.9374
 20
98.0903
 10
173.5635
 20
98.091
 10
173.2059
 20
98.1436
 10
172.8732
 20
98.2439
 10
172.5744
 20
98.3879
 10
172.3182
 20
98.5714
 10
172.2648
 20
98.6518
 10
172.2372
 20
98.6989
 10
172.2291
 20
98.7226
 10
172.2342
 20
98.7325
 10
172.2461
 20
98.7386
 10
172.2584
 20
98.7506
 10
172.2648
 20
98.7783
 10
172.259
 20
98.8316
 10
172.1993
 20
99.1469
 10
172.1679
 20
99.3617
 10
172.1573
 20
99.5065
 10
172.1599
 20
99.6117
 10
172.1682
 20
99.7076
 10
172.1745
 20
99.8245
 10
172.1713
 20
99.9929
 10
172.151
 20
100.2432
 10
172.2608
 20
100.3005
 10
172.3124
 20
100.324
 10
172.3239
 20
100.3235
 10
172.313
 20
100.3093
 10
172.2978
 20
100.2913
 10
172.2962
 20
100.2796
 10
172.326
 20
100.2842
 10
172.4053
 20
100.3152
 10
172.554
 20
100.399
 10
172.7099
 20
100.4855
 10
172.8418
 20
100.5443
 10
172.9602
 20
100.5829
 10
173.0756
 20
100.6088
 10
173.3396
 20
100.653
 10
173.7179
 20
100.7374
 10
173.9322
 20
100.767
 10
174.1357
 20
100.7446
 10
174.3287
 20
100.6807
 10
174.5114
 20
100.5858
 10
174.6842
 20
100.4704
 10
174.8472
 20
100.345
 10
175.0007
 20
100.2202
 10
175.145
 20
100.1064
  0
LWPOLYLINE
  5
8D
330
1F
100
AcDbEntity
  8
Layer 1
 62
     7
370
    20
100
AcDbPolyline
 90
       53
 70
     1
 43
0.0
 10
197.422
 20
108.1859
 10
197.557
 20
108.2269
 10
197.6645
 20
108.2504
 10
197.7511
 20
108.2583
 10
197.8236
 20
108.2524
 10
197.8885
 20
108.2344
 10
197.9526
 20
108.2063
 10
198.0224
 20
108.1698
 10
198.1048
 20
108.1268
 10
198.2962
 20
108.3335
 10
198.4892
 20
108.4762
 10
198.6871
 20
108.5591
 10
198.8933
 20
108.5867
 10
199.1111
 20
108.5631
 10
199.3439
 20
108.4927
 10
199.595
 20
108.3798
 10
199.8676
 20
108.2287
 10
199.981
 20
108.1544
 10
200.0741
 20
108.076
 10
200.1485
 20
107.9896
 10
200.206
 20
107.891
 10
200.2483
 20
107.776
 10
200.2773
 20
107.6405
 10
200.2947
 20
107.4804
 10
200.3022
 20
107.2916
 10
200.3154
 20
107.011
 10
200.32
 20
106.6673
 10
200.3059
 20
106.4994
 10
200.2739
 20
106.3488
 10
200.2186
 20
106.2266
 10
200.1348
 20
106.1438
 10
199.9328
 20
106.085
 10
199.5378
 20
105.9892
 10
199.1325
 20
105.8976
 10
198.8997
 20
105.8513
 10
198.7296
 20
105.8399
 10
198.5815
 20
105.8464
 10
198.4502
 20
105.8687
 10
198.33
 20
105.9047
 10
198.1012
 20
106.0088
 10
197.8517
 20
106.1413
 10
197.7054
 20
106.2166
 10
197.5891
 20
106.2815
 10
197.4998
 20
106.3442
 10
197.4346
 20
106.4131
 10
197.3903
 20
106.4965
 10
197.364
 20
106.6027
 10
197.3528
 20
106.74
 10
197.3535
 20
106.9169
 10
197.3625
 20
107.2523
 10
197.3728
 20
107.5518
 10
197.3906
 20
107.8511
 10
197.422
 20
108.1859
  0
LWPOLYLINE
  5
8E
330
1F
100
AcDbEntity
  8
Layer 1
 62
     7
370
    20
100
AcDbPolyline
 90
       42
 70
     1
 43
0.0
 10
214.0004
 20
104.7288
 10
213.851
 20
104.6592
 10
213.6654
 20
104.5923
 10
213.4538
 20
104.53
 10
213.2267
 20
104.4741
 10
212.9943
 20
104.4264
 10
212.7671
 20
104.3889
 10
212.5553
 20
104.3633
 10
212.3694
 20
104.3515
 10
212.2089
 20
104.3654
 10
212.0369
 20
104.4099
 10
211.8597
 20
104.478
 10
211.6833
 20
104.5627
 10
211.514
 20
104.6568
 10
211.3578
 20
104.7534
 10
211.221
 20
104.8453
 10
211.1096
 20
104.9256
 10
211.0977
 20
105.1363
 10
211.0923
 20
105.3775
 10
211.0941
 20
105.6369
 10
211.1043
 20
105.9017
 10
211.1238
 20
106.1595
 10
211.1534
 20
106.3976
 10
211.1942
 20
106.6036
 10
211.2471
 20
106.7648
 10
212.9104
 20
107.1283
 10
213.1805
 20
106.8976
 10
213.3834
 20
106.7497
 10
213.532
 20
106.6617
 10
213.6395
 20
106.6106
 10
213.719
 20
106.5735
 10
213.7836
 20
106.5275
 10
213.8462
 20
106.4495
 10
213.9201
 20
106.3166
 10
213.9609
 20
106.1909
 10
213.9925
 20
106.0084
 10
214.015
 20
105.787
 10
214.0287
 20
105.5448
 10
214.0339
 20
105.2998
 10
214.0307
 20
105.0701
 10
214.0195
 20
104.8738
 10
214.0004
 20
104.7288
  0
LWPOLYLINE
  5
8F
330
1F
100
AcDbEntity
  8
Layer 1
 62
     7
370
    20
100
AcDbPolyline
 90
       58
 70
     1
 43
0.0
 10
223.9493
 20
111.6362
 10
223.9711
 20
111.4494
 10
223.9848
 20
111.2515
 10
223.9904
 20
111.0474
 10
223.9875
 20
110.8423
 10
223.9758
 20
110.641
 10
223.9551
 20
110.4488
 10
223.9252
 20
110.2706
 10
223.8857
 20
110.1114
 10
223.7296
 20
110.0235
 10
223.5407
 20
109.9467
 10
223.3283
 20
109.8816
 10
223.1011
 20
109.8287
 10
222.8682
 20
109.7887
 10
222.6386
 20
109.762
 10
222.4213
 20
109.7493
 10
222.2253
 20
109.7511
 10
222.0763
 20
109.7738
 10
221.9011
 20
109.8241
 10
221.7105
 20
109.8955
 10
221.5155
 20
109.9812
 10
221.327
 20
110.0747
 10
221.1559
 20
110.1695
 10
221.0132
 20
110.2589
 10
220.9097
 20
110.3363
 10
220.9006
 20
110.4827
 10
220.8999
 20
110.6466
 10
220.9059
 20
110.8213
 10
220.917
 20
111.0003
 10
220.9475
 20
111.3441
 10
220.9782
 20
111.625
 10
221.011
 20
111.8279
 10
221.0587
 20
111.969
 10
221.1255
 20
112.0613
 10
221.216
 20
112.1177
 10
221.4855
 20
112.1747
 10
221.9025
 20
112.2439
 10
222.5723
 20
112.3839
 10
222.6835
 20
112.4073
 10
222.7649
 20
112.4219
 10
222.8238
 20
112.4263
 10
222.8676
 20
112.4188
 10
222.9036
 20
112.398
 10
222.939
 20
112.3623
 10
222.9813
 20
112.3101
 10
223.0378
 20
112.24
 10
223.0959
 20
112.1664
 10
223.1157
 20
112.134
 10
223.111
 20
112.1289
 10
223.0958
 20
112.1375
 10
223.0887
 20
112.1401
 10
223.205
 20
112.0316
 10
223.29
 20
111.9619
 10
223.3793
 20
111.9049
 10
223.4718
 20
111.8571
 10
223.5667
 20
111.815
 10
223.7593
 20
111.7346
 10
223.9493
 20
111.6362
  0
LWPOLYLINE
  5
90
330
1F
100
AcDbEntity
  8
Layer 1
 62
     7
370
    20
100
AcDbPolyline
 90
       34
 70
     1
 43
0.0
 10
198.2567
 20
102.0811
 10
197.655
 20
101.8806
 10
197.1602
 20
101.7887
 10
196.7543
 20
101.7829
 10
196.4191
 20
101.8409
 10
196.1362
 20
101.9403
 10
195.8877
 20
102.0588
 10
195.6552
 20
102.174
 10
195.4206
 20
102.2634
 10
195.5278
 20
104.1692
 10
195.6556
 20
104.2257
 10
195.7998
 20
104.2715
 10
195.9564
 20
104.3091
 10
196.1213
 20
104.3412
 10
196.4599
 20
104.3992
 10
196.7831
 20
104.4661
 10
196.9859
 20
104.5072
 10
197.1417
 20
104.5155
 10
197.2625
 20
104.4961
 10
197.3605
 20
104.4537
 10
197.5359
 20
104.3197
 10
197.7641
 20
104.153
 10
198.021
 20
104.0234
 10
198.2073
 20
103.9123
 10
198.2711
 20
103.8332
 10
198.3139
 20
103.7219
 10
198.3346
 20
103.5663
 10
198.3319
 20
103.3542
 10
198.2991
 20
103.0449
 10
198.2579
 20
102.7489
 10
198.2425
 20
102.5968
 10
198.2349
 20
102.4372
 10
198.2385
 20
102.2665
 10
198.2567
 20
102.0811
  0
LWPOLYLINE
  5
91
330
1F
100
AcDbEntity
  8
Layer 1
 62
     7
370
    20
100
AcDbPolyline
 90
       51
 70
     1
 43
0.0
 10
216.9881
 20
102.0675
 10
216.9698
 20
102.2499
 10
216.9634
 20
102.4825
 10
216.9679
 20
102.7469
 10
216.9824
 20
103.0246
 10
217.0061
 20
103.2972
 10
217.0381
 20
103.5462
 10
217.0774
 20
103.7533
 10
217.1232
 20
103.8999
 10
217.3297
 20
103.9402
 10
217.5346
 20
103.9783
 10
217.7375
 20
104.0157
 10
217.9377
 20
104.054
 10
218.1349
 20
104.0948
 10
218.3286
 20
104.1397
 10
218.5181
 20
104.1902
 10
218.7032
 20
104.248
 10
218.8238
 20
104.1494
 10
218.9304
 20
104.0666
 10
219.0474
 20
103.9861
 10
219.199
 20
103.8944
 10
219.3331
 20
103.8177
 10
219.5114
 20
103.7121
 10
219.6004
 20
103.656
 10
219.6805
 20
103.6017
 10
219.745
 20
103.5523
 10
219.7871
 20
103.5108
 10
219.8367
 20
103.3969
 10
219.8679
 20
103.2208
 10
219.8831
 20
103.0026
 10
219.8851
 20
102.7629
 10
219.8762
 20
102.5217
 10
219.8592
 20
102.2996
 10
219.8367
 20
102.1168
 10
219.8111
 20
101.9936
 10
219.7258
 20
101.8494
 10
219.5766
 20
101.7319
 10
219.3799
 20
101.6389
 10
219.1519
 20
101.5682
 10
218.9089
 20
101.5176
 10
218.6673
 20
101.4849
 10
218.4433
 20
101.468
 10
218.2533
 20
101.4645
 10
218.1087
 20
101.4821
 10
217.946
 20
101.5273
 10
217.7722
 20
101.5945
 10
217.5945
 20
101.6783
 10
217.4201
 20
101.7729
 10
217.2562
 20
101.873
 10
217.1098
 20
101.9731
 10
216.9881
 20
102.0675
  0
LWPOLYLINE
  5
92
330
1F
100
AcDbEntity
  8
Layer 1
 62
     7
370
    20
100
AcDbPolyline
 90
       37
 70
     1
 43
0.0
 10
206.0725
 20
103.3175
 10
205.6063
 20
103.1748
 10
205.1932
 20
103.0811
 10
204.8224
 20
103.0367
 10
204.4832
 20
103.0424
 10
204.1646
 20
103.0987
 10
203.856
 20
103.2061
 10
203.5464
 20
103.3651
 10
203.2251
 20
103.5765
 10
203.215
 20
103.6418
 10
203.1931
 20
103.8159
 10
203.1715
 20
104.0665
 10
203.1624
 20
104.3611
 10
203.1778
 20
104.6673
 10
203.2301
 20
104.9528
 10
203.3314
 20
105.1851
 10
203.4938
 20
105.332
 10
204.402
 20
105.6003
 10
204.665
 20
105.6881
 10
204.8471
 20
105.7414
 10
204.9704
 20
105.762
 10
205.0567
 20
105.7514
 10
205.1281
 20
105.7114
 10
205.2066
 20
105.6436
 10
205.3142
 20
105.5497
 10
205.4727
 20
105.4314
 10
205.528
 20
105.3964
 10
205.7146
 20
105.3177
 10
205.823
 20
105.2688
 10
205.9102
 20
105.2231
 10
205.9783
 20
105.1733
 10
206.0292
 20
105.1117
 10
206.065
 20
105.0307
 10
206.0878
 20
104.9227
 10
206.0995
 20
104.7803
 10
206.1021
 20
104.5958
 10
206.0725
 20
103.3175
  0
LWPOLYLINE
  5
93
330
1F
100
AcDbEntity
  8
Layer 1
 62
     7
370
    20
100
AcDbPolyline
 90
       25
 70
     1
 43
0.0
 10
188.7943
 20
98.5047
 10
188.8646
 20
97.9092
 10
188.8896
 20
97.4675
 10
188.8688
 20
97.1541
 10
188.8015
 20
96.9438
 10
188.6872
 20
96.8113
 10
188.5252
 20
96.7313
 10
188.3149
 20
96.6786
 10
188.0558
 20
96.6277
 10
187.7264
 20
96.5676
 10
187.4221
 20
96.5318
 10
187.1384
 20
96.5255
 10
186.8708
 20
96.5539
 10
186.6147
 20
96.6223
 10
186.3657
 20
96.7359
 10
186.1191
 20
96.8997
 10
185.8705
 20
97.1191
 10
185.9392
 20
98.779
 10
187.6897
 20
99.2275
 10
187.8619
 20
99.062
 10
187.9939
 20
98.9411
 10
188.1008
 20
98.8532
 10
188.198
 20
98.7868
 10
188.4241
 20
98.6721
 10
188.7943
 20
98.5047
  0
LWPOLYLINE
  5
94
330
1F
100
AcDbEntity
  8
Layer 1
 62
     7
370
    20
100
AcDbPolyline
 90
       30
 70
     1
 43
0.0
 10
177.0979
 20
104.3293
 10
177.1677
 20
102.7534
 10
176.7375
 20
102.557
 10
176.3302
 20
102.4236
 10
175.9448
 20
102.352
 10
175.5799
 20
102.3412
 10
175.2343
 20
102.39
 10
174.9068
 20
102.4974
 10
174.5961
 20
102.6623
 10
174.301
 20
102.8835
 10
174.2587
 20
103.1268
 10
174.2308
 20
103.3751
 10
174.2171
 20
103.6247
 10
174.2173
 20
103.8718
 10
174.2312
 20
104.1129
 10
174.2584
 20
104.3441
 10
174.2989
 20
104.5617
 10
174.3522
 20
104.7622
 10
175.0365
 20
104.8722
 10
175.4852
 20
104.9544
 10
175.7565
 20
105.0056
 10
175.9084
 20
105.0225
 10
175.9989
 20
105.002
 10
176.0863
 20
104.9409
 10
176.2285
 20
104.8361
 10
176.4836
 20
104.6843
 10
176.6454
 20
104.5994
 10
176.7905
 20
104.522
 10
176.9357
 20
104.4369
 10
177.0979
 20
104.3293
  0
LWPOLYLINE
  5
95
330
1F
100
AcDbEntity
  8
Layer 1
 62
     7
370
    20
100
AcDbPolyline
 90
       34
 70
     1
 43
0.0
 10
231.7257
 20
112.8825
 10
231.74
 20
112.5869
 10
231.7328
 20
112.2855
 10
231.6993
 20
111.9901
 10
231.6348
 20
111.7128
 10
231.5344
 20
111.4653
 10
231.3936
 20
111.2596
 10
231.2075
 20
111.1077
 10
230.9714
 20
111.0215
 10
230.6031
 20
110.9628
 10
230.2629
 20
110.9333
 10
229.9487
 20
110.9371
 10
229.6584
 20
110.9782
 10
229.3901
 20
111.0607
 10
229.1417
 20
111.1885
 10
228.9112
 20
111.3657
 10
228.6964
 20
111.5964
 10
228.6798
 20
111.8168
 10
228.6797
 20
112.0321
 10
228.6932
 20
112.2419
 10
228.7177
 20
112.4457
 10
228.7505
 20
112.6429
 10
228.7888
 20
112.833
 10
228.83
 20
113.0154
 10
228.8713
 20
113.1896
 10
229.2283
 20
113.2505
 10
229.4784
 20
113.2968
 10
229.6524
 20
113.3349
 10
229.7813
 20
113.3711
 10
229.8959
 20
113.4119
 10
230.0273
 20
113.4638
 10
230.2062
 20
113.533
 10
230.4636
 20
113.6261
 10
231.7257
 20
112.8825
  0
LWPOLYLINE
  5
96
330
1F
100
AcDbEntity
  8
Layer 1
 62
     7
370
    20
100
AcDbPolyline
 90
       39
 70
     1
 43
0.0
 10
202.1157
 20
95.043
 10
201.718
 20
94.9444
 10
201.3461
 20
94.8828
 10
200.997
 20
94.8589
 10
200.6677
 20
94.8733
 10
200.3551
 20
94.9267
 10
200.0564
 20
95.0197
 10
199.7685
 20
95.153
 10
199.4885
 20
95.3271
 10
199.4686
 20
95.5208
 10
199.4624
 20
95.7577
 10
199.4682
 20
96.0224
 10
199.4843
 20
96.2994
 10
199.5088
 20
96.573
 10
199.5402
 20
96.828
 10
199.5765
 20
97.0486
 10
199.6161
 20
97.2194
 10
200.2016
 20
97.3319
 10
200.6142
 20
97.4159
 10
200.8988
 20
97.4678
 10
201.1007
 20
97.4842
 10
201.2649
 20
97.4616
 10
201.4367
 20
97.3967
 10
201.6611
 20
97.286
 10
201.9834
 20
97.126
 10
202.1446
 20
97.041
 10
202.2612
 20
96.9598
 10
202.339
 20
96.8753
 10
202.3837
 20
96.7804
 10
202.401
 20
96.6681
 10
202.3966
 20
96.5313
 10
202.3762
 20
96.363
 10
202.3455
 20
96.1561
 10
202.3106
 20
95.847
 10
202.2821
 20
95.5684
 10
202.2601
 20
95.4358
 10
202.2278
 20
95.3053
 10
202.181
 20
95.175
 10
202.1157
 20
95.043
  0
LWPOLYLINE
  5
97
330
1F
100
AcDbEntity
  8
Layer 1
 62
     7
370
    20
100
AcDbPolyline
 90
       44
 70
     1
 43
0.0
 10
204.5293
 20
86.6386
 10
204.5441
 20
86.4969
 10
204.5499
 20
86.2937
 10
204.5476
 20
86.0496
 10
204.5383
 20
85.7856
 10
204.523
 20
85.5223
 10
204.5027
 20
85.2806
 10
204.4785
 20
85.0813
 10
204.4513
 20
84.9451
 10
204.3121
 20
84.8805
 10
204.1265
 20
84.818
 10
203.9084
 20
84.76
 10
203.6722
 20
84.709
 10
203.4318
 20
84.6673
 10
203.2015
 20
84.6374
 10
202.9953
 20
84.6216
 10
202.8274
 20
84.6225
 10
202.6929
 20
84.6444
 10
202.5332
 20
84.6894
 10
202.3573
 20
84.751
 10
202.1743
 20
84.8229
 10
201.8231
 20
84.9716
 10
201.5519
 20
85.0843
 10
201.6464
 20
86.322
 10
201.6634
 20
86.5153
 10
201.6872
 20
86.6685
 10
201.7235
 20
86.7877
 10
201.7778
 20
86.879
 10
201.8556
 20
86.9486
 10
201.9625
 20
87.0025
 10
202.1041
 20
87.047
 10
202.2859
 20
87.0881
 10
202.5998
 20
87.1522
 10
202.839
 20
87.1992
 10
203.0192
 20
87.2286
 10
203.1558
 20
87.2398
 10
203.2644
 20
87.2325
 10
203.3604
 20
87.206
 10
203.4594
 20
87.1599
 10
203.577
 20
87.0936
 10
203.8176
 20
86.9578
 10
204.0445
 20
86.8404
 10
204.2758
 20
86.7358
 10
204.5293
 20
86.6386
  0
LWPOLYLINE
  5
98
330
1F
100
AcDbEntity
  8
Layer 1
 62
     7
370
    20
100
AcDbPolyline
 90
       41
 70
     1
 43
0.0
 10
231.0963
 20
82.0842
 10
230.8159
 20
81.9684
 10
230.5076
 20
81.8892
 10
230.1785
 20
81.848
 10
229.8356
 20
81.8462
 10
229.4857
 20
81.8852
 10
229.1358
 20
81.9665
 10
228.793
 20
82.0914
 10
228.4642
 20
82.2613
 10
228.4483
 20
82.4142
 10
228.4352
 20
82.6255
 10
228.4255
 20
82.875
 10
228.42
 20
83.1426
 10
228.4193
 20
83.408
 10
228.4242
 20
83.6512
 10
228.4352
 20
83.8518
 10
228.4531
 20
83.9898
 10
228.5305
 20
84.1357
 10
228.6793
 20
84.2498
 10
228.8802
 20
84.3361
 10
229.1141
 20
84.3986
 10
229.3616
 20
84.4411
 10
229.6035
 20
84.4676
 10
229.8205
 20
84.4821
 10
229.9935
 20
84.4884
 10
230.1216
 20
84.4705
 10
230.2883
 20
84.4172
 10
230.4779
 20
84.3366
 10
230.6746
 20
84.237
 10
230.8626
 20
84.1265
 10
231.0261
 20
84.0133
 10
231.1493
 20
83.9057
 10
231.2165
 20
83.8118
 10
231.2376
 20
83.6861
 10
231.2421
 20
83.4794
 10
231.233
 20
83.2192
 10
231.2137
 20
82.9332
 10
231.1871
 20
82.649
 10
231.1566
 20
82.3944
 10
231.1253
 20
82.1969
 10
231.0963
 20
82.0842
  0
LWPOLYLINE
  5
99
330
1F
100
AcDbEntity
  8
Layer 1
 62
     7
370
    20
100
AcDbPolyline
 90
       38
 70
     1
 43
0.0
 10
196.1107
 20
97.8997
 10
195.7119
 20
97.7473
 10
195.3366
 20
97.6751
 10
194.9844
 20
97.6716
 10
194.6545
 20
97.7252
 10
194.3463
 20
97.8242
 10
194.0592
 20
97.9572
 10
193.7925
 20
98.1124
 10
193.5456
 20
98.2783
 10
193.5327
 20
98.4754
 10
193.538
 20
98.7186
 10
193.5585
 20
98.9895
 10
193.5911
 20
99.27
 10
193.6328
 20
99.5416
 10
193.6806
 20
99.7863
 10
193.7313
 20
99.9856
 10
193.7819
 20
100.1213
 10
194.3517
 20
100.2309
 10
194.7581
 20
100.3124
 10
195.0414
 20
100.3623
 10
195.2422
 20
100.3768
 10
195.4008
 20
100.3525
 10
195.5577
 20
100.2858
 10
195.7534
 20
100.173
 10
196.0284
 20
100.0106
 10
196.2288
 20
99.8806
 10
196.3596
 20
99.7565
 10
196.4319
 20
99.6256
 10
196.4563
 20
99.4756
 10
196.4439
 20
99.2937
 10
196.4053
 20
99.0675
 10
196.3515
 20
98.7844
 10
196.2934
 20
98.4319
 10
196.2418
 20
98.1479
 10
196.1998
 20
98.0173
 10
196.1844
 20
97.9761
 10
196.1649
 20
97.9587
 10
196.1107
 20
97.8997
  0
LWPOLYLINE
  5
9A
330
1F
100
AcDbEntity
  8
Layer 1
 62
     7
370
    20
100
AcDbPolyline
 90
       41
 70
     1
 43
0.0
 10
223.6211
 20
82.7134
 10
223.6431
 20
82.5391
 10
223.6536
 20
82.3246
 10
223.6524
 20
82.0848
 10
223.6397
 20
81.8347
 10
223.6153
 20
81.589
 10
223.5793
 20
81.3628
 10
223.5315
 20
81.171
 10
223.472
 20
81.0285
 10
223.312
 20
80.9672
 10
223.1301
 20
80.912
 10
222.9322
 20
80.8633
 10
222.7245
 20
80.8218
 10
222.5129
 20
80.7878
 10
222.3034
 20
80.7619
 10
222.102
 20
80.7448
 10
221.9147
 20
80.7368
 10
221.7212
 20
80.7465
 10
221.5402
 20
80.7796
 10
221.3713
 20
80.8315
 10
221.2138
 20
80.8975
 10
221.0671
 20
80.973
 10
220.9309
 20
81.0532
 10
220.8045
 20
81.1335
 10
220.6874
 20
81.2093
 10
220.6761
 20
81.3733
 10
220.6775
 20
81.5634
 10
220.6883
 20
81.7736
 10
220.705
 20
81.998
 10
220.724
 20
82.2305
 10
220.742
 20
82.4651
 10
220.7554
 20
82.6959
 10
220.7607
 20
82.917
 10
221.3344
 20
83.1509
 10
221.796
 20
83.2734
 10
222.1707
 20
83.3032
 10
222.4837
 20
83.2588
 10
222.76
 20
83.159
 10
223.0249
 20
83.0223
 10
223.3036
 20
82.8676
 10
223.6211
 20
82.7134
  0
LWPOLYLINE
  5
9B
330
1F
100
AcDbEntity
  8
Layer 1
 62
     7
370
    20
100
AcDbPolyline
 90
       42
 70
     1
 43
0.0
 10
229.7888
 20
108.9957
 10
229.8056
 20
108.8364
 10
229.8177
 20
108.653
 10
229.8238
 20
108.4539
 10
229.8227
 20
108.2474
 10
229.8133
 20
108.0418
 10
229.7942
 20
107.8455
 10
229.7643
 20
107.6669
 10
229.7224
 20
107.5143
 10
229.619
 20
107.3481
 10
229.4516
 20
107.2211
 10
229.2363
 20
107.1285
 10
228.9888
 20
107.0657
 10
228.725
 20
107.028
 10
228.461
 20
107.0108
 10
228.2124
 20
107.0095
 10
227.9954
 20
107.0193
 10
227.8633
 20
107.042
 10
227.7042
 20
107.0898
 10
227.5284
 20
107.1564
 10
227.3463
 20
107.2355
 10
227.1683
 20
107.3211
 10
227.0046
 20
107.4068
 10
226.8656
 20
107.4866
 10
226.7616
 20
107.554
 10
226.7552
 20
107.6806
 10
226.7644
 20
107.8861
 10
226.7859
 20
108.1444
 10
226.8163
 20
108.4297
 10
226.8524
 20
108.7161
 10
226.8907
 20
108.9777
 10
226.928
 20
109.1886
 10
226.9608
 20
109.3228
 10
227.6789
 20
109.4193
 10
228.1582
 20
109.4774
 10
228.4552
 20
109.5007
 10
228.6262
 20
109.4933
 10
228.7276
 20
109.4588
 10
228.8157
 20
109.4012
 10
228.947
 20
109.3242
 10
229.1777
 20
109.2317
 10
229.7888
 20
108.9957
  0
LWPOLYLINE
  5
9C
330
1F
100
AcDbEntity
  8
Layer 1
 62
     7
370
    20
100
AcDbPolyline
 90
       40
 70
     1
 43
0.0
 10
181.0764
 20
97.3326
 10
181.0994
 20
95.7209
 10
180.957
 20
95.6286
 10
180.7778
 20
95.5456
 10
180.5712
 20
95.473
 10
180.3468
 20
95.4118
 10
180.1142
 20
95.363
 10
179.8827
 20
95.3278
 10
179.662
 20
95.3072
 10
179.4616
 20
95.3022
 10
179.31
 20
95.3229
 10
179.1385
 20
95.3748
 10
178.9561
 20
95.4493
 10
178.7718
 20
95.5381
 10
178.4332
 20
95.7251
 10
178.1942
 20
95.8687
 10
178.1858
 20
96.0706
 10
178.1867
 20
96.2808
 10
178.1946
 20
96.4974
 10
178.2069
 20
96.7183
 10
178.2212
 20
96.9412
 10
178.2352
 20
97.1642
 10
178.2462
 20
97.3851
 10
178.252
 20
97.6019
 10
178.5071
 20
97.6554
 10
178.7374
 20
97.6943
 10
178.9485
 20
97.726
 10
179.1458
 20
97.7585
 10
179.3346
 20
97.7994
 10
179.5205
 20
97.8564
 10
179.7087
 20
97.9372
 10
179.9049
 20
98.0496
 10
180.1811
 20
97.8268
 10
180.3718
 20
97.6849
 10
180.5014
 20
97.6025
 10
180.5939
 20
97.5581
 10
180.6734
 20
97.5304
 10
180.7643
 20
97.4979
 10
180.8905
 20
97.4391
 10
181.0764
 20
97.3326
  0
LWPOLYLINE
  5
9D
330
1F
100
AcDbEntity
  8
Layer 1
 62
     7
370
    20
100
AcDbPolyline
 90
       34
 70
     1
 43
0.0
 10
222.0104
 20
106.0405
 10
221.4402
 20
105.902
 10
220.9819
 20
105.8048
 10
220.6065
 20
105.7504
 10
220.2851
 20
105.7408
 10
219.9886
 20
105.7776
 10
219.6881
 20
105.8625
 10
219.3544
 20
105.9974
 10
218.9587
 20
106.184
 10
218.9446
 20
106.3496
 10
218.9375
 20
106.5711
 10
218.939
 20
106.8282
 10
218.9511
 20
107.1007
 10
218.9756
 20
107.3682
 10
219.0141
 20
107.6106
 10
219.0686
 20
107.8077
 10
219.1408
 20
107.939
 10
220.8477
 20
108.3493
 10
220.987
 20
108.154
 10
221.1288
 20
108.0177
 10
221.2698
 20
107.9258
 10
221.4066
 20
107.8637
 10
221.5359
 20
107.8167
 10
221.6545
 20
107.7702
 10
221.759
 20
107.7096
 10
221.8461
 20
107.6203
 10
221.8709
 20
107.5364
 10
221.8972
 20
107.368
 10
221.9237
 20
107.1412
 10
221.949
 20
106.8819
 10
221.9716
 20
106.6162
 10
221.9904
 20
106.37
 10
222.0037
 20
106.1695
 10
222.0104
 20
106.0405
  0
LWPOLYLINE
  5
9E
330
1F
100
AcDbEntity
  8
Layer 1
 62
     7
370
    20
100
AcDbPolyline
 90
       43
 70
     1
 43
0.0
 10
246.5391
 20
84.5257
 10
246.2568
 20
84.397
 10
245.9667
 20
84.3098
 10
245.6723
 20
84.2614
 10
245.3771
 20
84.2491
 10
245.0845
 20
84.2701
 10
244.798
 20
84.3217
 10
244.5212
 20
84.4012
 10
244.2574
 20
84.5058
 10
244.0864
 20
84.5851
 10
243.9607
 20
84.6515
 10
243.8736
 20
84.7146
 10
243.8184
 20
84.7839
 10
243.7884
 20
84.8689
 10
243.7768
 20
84.9792
 10
243.777
 20
85.1245
 10
243.7821
 20
85.3142
 10
243.7778
 20
85.6138
 10
243.7746
 20
85.9594
 10
243.7841
 20
86.1269
 10
243.8066
 20
86.2789
 10
243.8466
 20
86.4063
 10
243.9081
 20
86.5001
 10
243.9777
 20
86.5415
 10
244.0992
 20
86.5872
 10
244.2567
 20
86.6347
 10
244.4343
 20
86.6818
 10
244.7862
 20
86.7646
 10
245.0277
 20
86.8162
 10
245.2221
 20
86.8338
 10
245.4671
 20
86.8169
 10
245.7387
 20
86.7606
 10
246.0133
 20
86.6598
 10
246.2667
 20
86.5096
 10
246.4754
 20
86.305
 10
246.6152
 20
86.0411
 10
246.6625
 20
85.7127
 10
246.6509
 20
85.4362
 10
246.6254
 20
85.0915
 10
246.6079
 20
84.9191
 10
246.5876
 20
84.7606
 10
246.5646
 20
84.626
 10
246.5391
 20
84.5257
  0
LWPOLYLINE
  5
9F
330
1F
100
AcDbEntity
  8
Layer 1
 62
     7
370
    20
100
AcDbPolyline
 90
       50
 70
     1
 43
0.0
 10
219.8622
 20
88.7934
 10
219.8736
 20
88.5642
 10
219.8733
 20
88.3654
 10
219.8669
 20
88.1765
 10
219.8599
 20
87.9775
 10
219.8639
 20
87.5371
 10
219.8688
 20
87.3492
 10
219.8766
 20
87.2721
 10
219.8722
 20
87.2518
 10
219.8573
 20
87.2312
 10
219.8282
 20
87.201
 10
219.7812
 20
87.1519
 10
219.6839
 20
87.0682
 10
219.5302
 20
86.9945
 10
219.3362
 20
86.9313
 10
219.1181
 20
86.8792
 10
218.8918
 20
86.8387
 10
218.6734
 20
86.8102
 10
218.479
 20
86.7942
 10
218.3247
 20
86.7914
 10
218.175
 20
86.8087
 10
218.0129
 20
86.8487
 10
217.8451
 20
86.9059
 10
217.6786
 20
86.9749
 10
217.52
 20
87.0503
 10
217.3764
 20
87.1267
 10
217.2543
 20
87.1987
 10
217.1607
 20
87.2608
 10
217.1143
 20
87.483
 10
217.0832
 20
87.7433
 10
217.0682
 20
88.0264
 10
217.0704
 20
88.3174
 10
217.0906
 20
88.6011
 10
217.1299
 20
88.8626
 10
217.1891
 20
89.0868
 10
217.2693
 20
89.2585
 10
217.8635
 20
89.354
 10
218.2507
 20
89.4216
 10
218.4862
 20
89.4593
 10
218.6249
 20
89.4653
 10
218.722
 20
89.4375
 10
218.8328
 20
89.374
 10
219.0121
 20
89.273
 10
219.3153
 20
89.1325
 10
219.5028
 20
89.0628
 10
219.6321
 20
89.0145
 10
219.6863
 20
88.9836
 10
219.7397
 20
88.9404
 10
219.7968
 20
88.8789
 10
219.8622
 20
88.7934
  0
LWPOLYLINE
  5
A0
330
1F
100
AcDbEntity
  8
Layer 1
 62
     7
370
    20
100
AcDbPolyline
 90
       33
 70
     1
 43
0.0
 10
192.4882
 20
106.6519
 10
192.4495
 20
105.019
 10
192.1617
 20
104.8733
 10
191.8632
 20
104.7692
 10
191.558
 20
104.7055
 10
191.2497
 20
104.6813
 10
190.9422
 20
104.6956
 10
190.6392
 20
104.7474
 10
190.3445
 20
104.8356
 10
190.0619
 20
104.9592
 10
189.8964
 20
105.0463
 10
189.7733
 20
105.1207
 10
189.6869
 20
105.1918
 10
189.6316
 20
105.269
 10
189.6017
 20
105.3618
 10
189.5914
 20
105.4795
 10
189.5951
 20
105.6315
 10
189.6072
 20
105.8272
 10
189.6251
 20
106.1594
 10
189.6412
 20
106.4319
 10
189.6541
 20
106.5624
 10
189.6731
 20
106.6979
 10
189.7004
 20
106.845
 10
189.7383
 20
107.0104
 10
189.895
 20
107.0444
 10
190.0955
 20
107.0916
 10
190.3243
 20
107.1454
 10
190.5661
 20
107.1994
 10
190.8055
 20
107.2471
 10
191.0271
 20
107.282
 10
191.2156
 20
107.2975
 10
191.3555
 20
107.2873
 10
192.4882
 20
106.6519
  0
LWPOLYLINE
  5
A1
330
1F
100
AcDbEntity
  8
Layer 1
 62
     7
370
    20
100
AcDbPolyline
 90
       37
 70
     1
 43
0.0
 10
208.0995
 20
109.3404
 10
208.1682
 20
107.6243
 10
208.0167
 20
107.5616
 10
207.815
 20
107.4933
 10
207.5798
 20
107.424
 10
207.3279
 20
107.358
 10
207.0761
 20
107.3
 10
206.8412
 20
107.2544
 10
206.6399
 20
107.2258
 10
206.489
 20
107.2186
 10
206.3327
 20
107.2421
 10
206.1708
 20
107.2955
 10
206.007
 20
107.3726
 10
205.8448
 20
107.4674
 10
205.688
 20
107.5737
 10
205.5402
 20
107.6853
 10
205.4051
 20
107.7961
 10
205.2863
 20
107.9
 10
205.3388
 20
109.5683
 10
205.5721
 20
109.622
 10
205.7179
 20
109.6368
 10
205.8151
 20
109.6318
 10
205.9027
 20
109.6258
 10
206.0196
 20
109.638
 10
206.2047
 20
109.6873
 10
206.4971
 20
109.7926
 10
206.9357
 20
109.973
 10
207.0261
 20
109.9333
 10
207.1017
 20
109.8942
 10
207.1672
 20
109.8548
 10
207.2273
 20
109.8142
 10
207.3503
 20
109.7261
 10
207.508
 20
109.6233
 10
207.6567
 20
109.542
 10
207.8039
 20
109.4729
 10
207.9511
 20
109.4083
 10
208.0995
 20
109.3404
  0
LWPOLYLINE
  5
A2
330
1F
100
AcDbEntity
  8
Layer 1
 62
     7
370
    20
100
AcDbPolyline
 90
       33
 70
     1
 43
0.0
 10
225.7097
 20
99.0169
 10
225.294
 20
98.8545
 10
224.8393
 20
98.7441
 10
224.3731
 20
98.6956
 10
223.9232
 20
98.7189
 10
223.517
 20
98.8238
 10
223.1821
 20
99.0202
 10
222.946
 20
99.3181
 10
222.8365
 20
99.7273
 10
222.8205
 20
100.0304
 10
222.8195
 20
100.3269
 10
222.8316
 20
100.6198
 10
222.8547
 20
100.9121
 10
223.0003
 20
100.9571
 10
223.128
 20
100.9864
 10
223.2539
 20
101.0127
 10
223.3942
 20
101.0488
 10
223.653
 20
101.1302
 10
223.8679
 20
101.2005
 10
224.0535
 20
101.2528
 10
224.2249
 20
101.2805
 10
224.3969
 20
101.2766
 10
224.5843
 20
101.2346
 10
224.8022
 20
101.1475
 10
225.0653
 20
101.0087
 10
225.2856
 20
100.8764
 10
225.463
 20
100.746
 10
225.599
 20
100.5999
 10
225.6952
 20
100.4204
 10
225.7528
 20
100.19
 10
225.7735
 20
99.891
 10
225.7586
 20
99.5058
 10
225.7097
 20
99.0169
  0
LWPOLYLINE
  5
A3
330
1F
100
AcDbEntity
  8
Layer 1
 62
     7
370
    20
100
AcDbPolyline
 90
       34
 70
     1
 43
0.0
 10
211.9666
 20
102.0786
 10
211.8657
 20
100.4669
 10
211.5567
 20
100.3331
 10
211.2195
 20
100.237
 10
210.8648
 20
100.1817
 10
210.5034
 20
100.1699
 10
210.1459
 20
100.2048
 10
209.8031
 20
100.2893
 10
209.4854
 20
100.4264
 10
209.2038
 20
100.619
 10
209.0905
 20
100.7326
 10
209.0311
 20
100.8314
 10
209.017
 20
100.9181
 10
209.04
 20
100.9956
 10
209.0913
 20
101.0666
 10
209.1625
 20
101.1337
 10
209.2452
 20
101.1997
 10
209.3309
 20
101.2674
 10
209.2312
 20
101.3857
 10
209.166
 20
101.5192
 10
209.1305
 20
101.6652
 10
209.12
 20
101.8211
 10
209.1295
 20
101.9841
 10
209.1543
 20
102.1518
 10
209.1897
 20
102.3213
 10
209.2309
 20
102.4901
 10
209.8188
 20
102.6085
 10
210.2427
 20
102.7147
 10
210.5495
 20
102.7906
 10
210.7861
 20
102.8181
 10
210.9992
 20
102.7788
 10
211.2358
 20
102.6545
 10
211.5427
 20
102.4272
 10
211.9666
 20
102.0786
  0
LWPOLYLINE
  5
A4
330
1F
100
AcDbEntity
  8
Layer 1
 62
     7
370
    20
100
AcDbPolyline
 90
       34
 70
     1
 43
0.0
 10
211.9586
 20
86.0722
 10
211.5838
 20
85.9293
 10
211.1948
 20
85.8512
 10
210.801
 20
85.8307
 10
210.4118
 20
85.8609
 10
210.0365
 20
85.9346
 10
209.6844
 20
86.0447
 10
209.365
 20
86.1842
 10
209.0876
 20
86.3459
 10
209.335
 20
88.0625
 10
209.6198
 20
88.1291
 10
209.9631
 20
88.1895
 10
210.314
 20
88.2406
 10
210.6214
 20
88.2794
 10
210.8036
 20
88.2927
 10
210.9479
 20
88.2863
 10
211.0651
 20
88.2626
 10
211.1662
 20
88.2246
 10
211.3637
 20
88.1159
 10
211.6277
 20
87.9816
 10
211.8253
 20
87.8999
 10
211.9759
 20
87.832
 10
212.0838
 20
87.7577
 10
212.1535
 20
87.6567
 10
212.1894
 20
87.5086
 10
212.196
 20
87.2932
 10
212.1775
 20
86.9901
 10
212.1386
 20
86.5791
 10
212.1203
 20
86.425
 10
212.1012
 20
86.3128
 10
212.081
 20
86.2344
 10
212.0597
 20
86.182
 10
212.0128
 20
86.123
 10
211.9586
 20
86.0722
  0
LWPOLYLINE
  5
A5
330
1F
100
AcDbEntity
  8
Layer 1
 62
     7
370
    20
100
AcDbPolyline
 90
       51
 70
     1
 43
0.0
 10
204.1639
 20
99.1747
 10
204.026
 20
99.124
 10
203.8359
 20
99.0735
 10
203.6101
 20
99.0259
 10
203.3651
 20
98.9838
 10
203.1174
 20
98.9499
 10
202.8834
 20
98.9268
 10
202.6797
 20
98.9171
 10
202.5226
 20
98.9236
 10
202.3824
 20
98.9523
 10
202.2285
 20
99.0033
 10
202.0674
 20
99.071
 10
201.9054
 20
99.15
 10
201.6047
 20
99.3193
 10
201.378
 20
99.4672
 10
201.3681
 20
99.6066
 10
201.3642
 20
99.8143
 10
201.3674
 20
100.0668
 10
201.3789
 20
100.3405
 10
201.3998
 20
100.6117
 10
201.4314
 20
100.857
 10
201.4748
 20
101.0527
 10
201.5311
 20
101.1752
 10
201.6395
 20
101.2508
 10
201.7577
 20
101.3095
 10
201.8854
 20
101.3551
 10
202.0225
 20
101.3916
 10
202.3238
 20
101.4527
 10
202.6599
 20
101.5237
 10
202.8799
 20
101.5686
 10
203.0297
 20
101.5789
 10
203.1297
 20
101.5599
 10
203.2
 20
101.517
 10
203.261
 20
101.4555
 10
203.3329
 20
101.381
 10
203.4361
 20
101.2986
 10
203.5907
 20
101.2139
 10
203.8956
 20
101.0759
 10
204.0871
 20
100.9776
 10
204.1887
 20
100.8944
 10
204.2241
 20
100.8014
 10
204.217
 20
100.6738
 10
204.1908
 20
100.4867
 10
204.1694
 20
100.2155
 10
204.1762
 20
99.8353
 10
204.2018
 20
99.6157
 10
204.2248
 20
99.4784
 10
204.2276
 20
99.4191
 10
204.2205
 20
99.3544
 10
204.2003
 20
99.2759
 10
204.1639
 20
99.1747
  0
LWPOLYLINE
  5
A6
330
1F
100
AcDbEntity
  8
Layer 1
 62
     7
370
    20
100
AcDbPolyline
 90
       35
 70
     1
 43
0.0
 10
190.5365
 20
102.7864
 10
190.5487
 20
102.6244
 10
190.5428
 20
102.4025
 10
190.5227
 20
102.142
 10
190.4925
 20
101.8646
 10
190.4561
 20
101.5916
 10
190.4176
 20
101.3446
 10
190.3808
 20
101.145
 10
190.3498
 20
101.0143
 10
190.319
 20
100.9405
 10
190.1602
 20
100.8167
 10
189.8187
 20
100.7167
 10
189.3622
 20
100.6627
 10
188.8581
 20
100.677
 10
188.3738
 20
100.7817
 10
187.9768
 20
100.999
 10
187.7347
 20
101.3511
 10
187.7149
 20
101.8602
 10
187.7574
 20
102.1506
 10
187.7889
 20
102.4592
 10
187.8223
 20
102.7596
 10
187.8705
 20
103.0252
 10
188.0777
 20
103.0592
 10
188.2782
 20
103.0811
 10
188.4751
 20
103.1024
 10
188.6714
 20
103.1345
 10
188.7998
 20
103.168
 10
188.9006
 20
103.2059
 10
188.9819
 20
103.2451
 10
189.0519
 20
103.283
 10
189.1188
 20
103.3166
 10
189.1908
 20
103.3431
 10
189.2761
 20
103.3596
 10
189.3828
 20
103.3632
 10
190.5365
 20
102.7864
  0
LWPOLYLINE
  5
A7
330
1F
100
AcDbEntity
  8
Layer 1
 62
     7
370
    20
100
AcDbPolyline
 90
       47
 70
     1
 43
0.0
 10
234.4565
 20
108.7154
 10
234.4838
 20
108.9065
 10
234.5169
 20
109.0195
 10
234.5532
 20
109.0944
 10
234.5902
 20
109.1714
 10
234.6251
 20
109.2905
 10
234.6554
 20
109.492
 10
234.6785
 20
109.8159
 10
234.6918
 20
110.3023
 10
234.8782
 20
110.3711
 10
235.1167
 20
110.4483
 10
235.3887
 20
110.5251
 10
235.6758
 20
110.5927
 10
235.9592
 20
110.6423
 10
236.2206
 20
110.6652
 10
236.4412
 20
110.6526
 10
236.6027
 20
110.5956
 10
236.827
 20
110.4537
 10
236.9776
 20
110.3675
 10
237.072
 20
110.3229
 10
237.1276
 20
110.306
 10
237.1617
 20
110.3028
 10
237.1917
 20
110.2994
 10
237.2349
 20
110.2817
 10
237.3089
 20
110.2358
 10
237.4155
 20
110.1428
 10
237.4853
 20
110.038
 10
237.5247
 20
109.9233
 10
237.5402
 20
109.8008
 10
237.5255
 20
109.5403
 10
237.4928
 20
109.2725
 10
237.4585
 20
108.9599
 10
237.4127
 20
108.7196
 10
237.3438
 20
108.5401
 10
237.2402
 20
108.4099
 10
237.0905
 20
108.3175
 10
236.8831
 20
108.2513
 10
236.6064
 20
108.2
 10
236.2489
 20
108.1519
 10
235.9794
 20
108.1327
 10
235.7208
 20
108.1425
 10
235.4741
 20
108.1798
 10
235.2404
 20
108.2427
 10
235.0208
 20
108.3294
 10
234.8162
 20
108.4383
 10
234.6278
 20
108.5675
 10
234.4565
 20
108.7154
  0
LWPOLYLINE
  5
A8
330
1F
100
AcDbEntity
  8
Layer 1
 62
     7
370
    20
100
AcDbPolyline
 90
       42
 70
     1
 43
0.0
 10
169.3172
 20
102.969
 10
169.3416
 20
102.7901
 10
169.3639
 20
102.5728
 10
169.3815
 20
102.3319
 10
169.3922
 20
102.0824
 10
169.3936
 20
101.8393
 10
169.3831
 20
101.6175
 10
169.3585
 20
101.432
 10
169.3174
 20
101.2977
 10
169.187
 20
101.2046
 10
169.0118
 20
101.1232
 10
168.8039
 20
101.0538
 10
168.5751
 20
100.9971
 10
168.3377
 20
100.9537
 10
168.1035
 20
100.924
 10
167.8847
 20
100.9087
 10
167.6933
 20
100.9082
 10
167.5063
 20
100.9321
 10
167.3293
 20
100.9839
 10
167.1627
 20
101.0571
 10
167.0069
 20
101.1456
 10
166.7288
 20
101.3427
 10
166.4977
 20
101.5248
 10
166.4968
 20
101.6831
 10
166.4994
 20
101.888
 10
166.5051
 20
102.123
 10
166.5139
 20
102.3719
 10
166.5257
 20
102.6183
 10
166.5401
 20
102.8459
 10
166.5572
 20
103.0384
 10
166.5766
 20
103.1793
 10
168.1314
 20
103.5422
 10
168.2146
 20
103.5241
 10
168.2881
 20
103.4938
 10
168.3548
 20
103.4538
 10
168.4175
 20
103.4069
 10
168.5427
 20
103.3028
 10
168.6865
 20
103.2026
 10
168.8392
 20
103.1308
 10
168.9998
 20
103.075
 10
169.1614
 20
103.0246
 10
169.3172
 20
102.969
  0
LWPOLYLINE
  5
A9
330
1F
100
AcDbEntity
  8
Layer 1
 62
     7
370
    20
100
AcDbPolyline
 90
       20
 70
     1
 43
0.0
 10
194.6839
 20
95.6288
 10
194.6833
 20
94.0799
 10
194.2385
 20
93.9627
 10
193.8159
 20
93.8797
 10
193.4151
 20
93.8349
 10
193.0357
 20
93.8329
 10
192.6774
 20
93.8778
 10
192.34
 20
93.974
 10
192.023
 20
94.1258
 10
191.7261
 20
94.3374
 10
191.8012
 20
96.0071
 10
191.9416
 20
96.041
 10
192.1429
 20
96.0911
 10
192.3842
 20
96.1507
 10
192.6444
 20
96.213
 10
192.9027
 20
96.2711
 10
193.1381
 20
96.3183
 10
193.3295
 20
96.3476
 10
193.4561
 20
96.3524
 10
194.6839
 20
95.6288
  0
LWPOLYLINE
  5
AA
330
1F
100
AcDbEntity
  8
Layer 1
 62
     7
370
    20
100
AcDbPolyline
 90
       42
 70
     1
 43
0.0
 10
233.9542
 20
79.8351
 10
233.9352
 20
79.996
 10
233.9252
 20
80.1494
 10
233.9228
 20
80.2972
 10
233.9266
 20
80.4412
 10
233.9469
 20
80.7254
 10
233.9751
 20
81.0167
 10
233.9875
 20
81.1958
 10
233.9954
 20
81.346
 10
234.0093
 20
81.4702
 10
234.0402
 20
81.5714
 10
234.0986
 20
81.6524
 10
234.1954
 20
81.7164
 10
234.3413
 20
81.7662
 10
234.547
 20
81.8048
 10
234.8562
 20
81.8633
 10
235.192
 20
81.9347
 10
235.3545
 20
81.9634
 10
235.5053
 20
81.9813
 10
235.6381
 20
81.9835
 10
235.7468
 20
81.9654
 10
236.6822
 20
81.4842
 10
236.7506
 20
81.3901
 10
236.7915
 20
81.2771
 10
236.8101
 20
81.1495
 10
236.8115
 20
81.0122
 10
236.784
 20
80.7261
 10
236.7506
 20
80.4556
 10
236.7382
 20
80.0763
 10
236.7198
 20
79.8227
 10
236.6788
 20
79.7327
 10
236.6009
 20
79.6619
 10
236.4743
 20
79.6061
 10
236.2873
 20
79.5611
 10
235.8835
 20
79.4948
 10
235.5379
 20
79.4575
 10
235.2375
 20
79.449
 10
234.9691
 20
79.4693
 10
234.7197
 20
79.5181
 10
234.4761
 20
79.5954
 10
234.2253
 20
79.7011
 10
233.9542
 20
79.8351
  0
LWPOLYLINE
  5
AB
330
1F
100
AcDbEntity
  8
Layer 1
 62
     7
370
    20
100
AcDbPolyline
 90
       44
 70
     1
 43
0.0
 10
210.1909
 20
84.1059
 10
210.2036
 20
83.9874
 10
210.2088
 20
83.878
 10
210.208
 20
83.775
 10
210.2025
 20
83.6756
 10
210.1822
 20
83.4766
 10
210.1585
 20
83.2593
 10
210.1444
 20
82.8588
 10
210.144
 20
82.7339
 10
210.1518
 20
82.6554
 10
210.1623
 20
82.6106
 10
210.1695
 20
82.5871
 10
210.1515
 20
82.5533
 10
210.0518
 20
82.4535
 10
209.9035
 20
82.3526
 10
209.6619
 20
82.2546
 10
209.3456
 20
82.176
 10
208.9731
 20
82.1336
 10
208.5628
 20
82.1439
 10
208.1333
 20
82.2235
 10
207.7031
 20
82.3891
 10
207.2906
 20
82.6572
 10
207.2865
 20
82.7895
 10
207.2883
 20
82.9906
 10
207.2954
 20
83.237
 10
207.3077
 20
83.5049
 10
207.3247
 20
83.771
 10
207.3462
 20
84.0117
 10
207.3718
 20
84.2033
 10
207.4011
 20
84.3225
 10
207.5459
 20
84.3826
 10
207.7361
 20
84.4429
 10
207.9592
 20
84.5009
 10
208.2028
 20
84.5545
 10
208.4544
 20
84.6012
 10
208.7014
 20
84.6388
 10
208.9313
 20
84.6648
 10
209.1317
 20
84.677
 10
209.2835
 20
84.5361
 10
209.4098
 20
84.4357
 10
209.5204
 20
84.3654
 10
209.6255
 20
84.3151
 10
209.8592
 20
84.2326
 10
210.1909
 20
84.1059
  0
LWPOLYLINE
  5
AC
330
1F
100
AcDbEntity
  8
Layer 1
 62
     7
370
    20
100
AcDbPolyline
 90
       33
 70
     1
 43
0.0
 10
215.966
 20
81.497
 10
215.9943
 20
81.3133
 10
216.0105
 20
81.1077
 10
216.0157
 20
80.8882
 10
216.0109
 20
80.6626
 10
215.9972
 20
80.4389
 10
215.9756
 20
80.2249
 10
215.9471
 20
80.0287
 10
215.9129
 20
79.858
 10
215.4836
 20
79.7019
 10
215.0831
 20
79.6009
 10
214.7078
 20
79.5516
 10
214.3543
 20
79.5507
 10
214.0191
 20
79.595
 10
213.6988
 20
79.681
 10
213.3898
 20
79.8054
 10
213.0888
 20
79.9649
 10
213.0819
 20
80.1585
 10
213.0873
 20
80.3917
 10
213.1032
 20
80.6502
 10
213.1278
 20
80.9197
 10
213.1591
 20
81.1858
 10
213.1953
 20
81.4343
 10
213.2347
 20
81.6508
 10
213.2753
 20
81.8211
 10
213.9893
 20
81.9407
 10
214.4344
 20
82.0221
 10
214.6909
 20
82.0617
 10
214.8395
 20
82.0555
 10
214.9608
 20
81.9997
 10
215.1353
 20
81.8906
 10
215.4435
 20
81.7243
 10
215.966
 20
81.497
  0
LWPOLYLINE
  5
AD
330
1F
100
AcDbEntity
  8
Layer 1
 62
     7
370
    20
100
AcDbPolyline
 90
       32
 70
     1
 43
0.0
 10
238.7732
 20
83.2809
 10
238.4231
 20
83.1187
 10
238.0553
 20
83.0341
 10
237.6805
 20
83.0158
 10
237.3095
 20
83.0525
 10
236.9529
 20
83.1328
 10
236.6213
 20
83.2454
 10
236.3256
 20
83.3788
 10
236.0763
 20
83.5218
 10
236.0835
 20
85.3353
 10
236.7079
 20
85.4626
 10
237.1444
 20
85.5467
 10
237.4376
 20
85.5904
 10
237.6321
 20
85.5964
 10
237.7726
 20
85.5673
 10
237.9038
 20
85.5059
 10
238.0703
 20
85.4147
 10
238.3168
 20
85.2966
 10
238.471
 20
85.2295
 10
238.5908
 20
85.1712
 10
238.6805
 20
85.1118
 10
238.7443
 20
85.0407
 10
238.7868
 20
84.9479
 10
238.8122
 20
84.823
 10
238.8249
 20
84.6559
 10
238.8292
 20
84.4363
 10
238.8333
 20
84.1599
 10
238.8342
 20
83.8404
 10
238.8292
 20
83.6808
 10
238.8185
 20
83.5299
 10
238.8004
 20
83.3945
 10
238.7732
 20
83.2809
  0
LWPOLYLINE
  5
AE
330
1F
100
AcDbEntity
  8
Layer 1
 62
     7
370
    20
100
AcDbPolyline
 90
       63
 70
     1
 43
0.0
 10
233.4871
 20
100.4872
 10
233.3354
 20
100.4336
 10
233.1357
 20
100.3793
 10
232.9031
 20
100.327
 10
232.6528
 20
100.2794
 10
232.4003
 20
100.2392
 10
232.1607
 20
100.2089
 10
231.9493
 20
100.1914
 10
231.7813
 20
100.1893
 10
231.6463
 20
100.2083
 10
231.4896
 20
100.2508
 10
231.3192
 20
100.3118
 10
231.1432
 20
100.3862
 10
230.9695
 20
100.4688
 10
230.8063
 20
100.5546
 10
230.6614
 20
100.6385
 10
230.543
 20
100.7154
 10
230.5357
 20
100.8489
 10
230.5467
 20
101.0426
 10
230.5721
 20
101.2758
 10
230.6077
 20
101.5277
 10
230.6493
 20
101.7775
 10
230.693
 20
102.0045
 10
230.7345
 20
102.1879
 10
230.7697
 20
102.307
 10
231.4032
 20
102.4127
 10
231.7988
 20
102.5042
 10
232.0152
 20
102.58
 10
232.1111
 20
102.6388
 10
232.1448
 20
102.6791
 10
232.1752
 20
102.6994
 10
232.2609
 20
102.6984
 10
232.4603
 20
102.6745
 10
232.6212
 20
102.6231
 10
232.7477
 20
102.5678
 10
232.7938
 20
102.5639
 10
232.8263
 20
102.5894
 10
232.8433
 20
102.6543
 10
232.8433
 20
102.7687
 10
232.8816
 20
102.6623
 10
232.8982
 20
102.5898
 10
232.9023
 20
102.5418
 10
232.9032
 20
102.5087
 10
232.91
 20
102.4812
 10
232.9319
 20
102.4497
 10
232.9781
 20
102.4048
 10
233.0578
 20
102.3369
 10
233.1336
 20
102.2823
 10
233.2034
 20
102.2449
 10
233.2677
 20
102.2176
 10
233.3269
 20
102.1935
 10
233.3815
 20
102.1655
 10
233.4317
 20
102.1266
 10
233.4782
 20
102.0699
 10
233.5213
 20
101.9883
 10
233.5576
 20
101.8533
 10
233.578
 20
101.669
 10
233.5845
 20
101.4523
 10
233.5795
 20
101.2207
 10
233.565
 20
100.9911
 10
233.5433
 20
100.7809
 10
233.5166
 20
100.6072
 10
233.4871
 20
100.4872
  0
LWPOLYLINE
  5
AF
330
1F
100
AcDbEntity
  8
Layer 1
 62
     7
370
    20
100
AcDbPolyline
 90
       47
 70
     1
 43
0.0
 10
235.6188
 20
106.0683
 10
235.6487
 20
105.873
 10
235.6664
 20
105.6673
 10
235.6721
 20
105.4569
 10
235.666
 20
105.2473
 10
235.6483
 20
105.044
 10
235.6193
 20
104.8527
 10
235.5791
 20
104.6787
 10
235.528
 20
104.5278
 10
235.3878
 20
104.4502
 10
235.2085
 20
104.3817
 10
235.0002
 20
104.323
 10
234.7731
 20
104.2751
 10
234.5374
 20
104.2389
 10
234.3032
 20
104.2153
 10
234.0807
 20
104.2051
 10
233.8801
 20
104.2093
 10
233.7625
 20
104.2336
 10
233.609
 20
104.2888
 10
233.4321
 20
104.3665
 10
233.2442
 20
104.458
 10
232.8852
 20
104.6484
 10
232.6315
 20
104.7921
 10
232.6289
 20
104.9719
 10
232.6395
 20
105.1492
 10
232.6589
 20
105.3279
 10
232.6826
 20
105.512
 10
232.7065
 20
105.7056
 10
232.7261
 20
105.9126
 10
232.7371
 20
106.137
 10
232.7352
 20
106.3829
 10
232.958
 20
106.4159
 10
233.1829
 20
106.4413
 10
233.4048
 20
106.4682
 10
233.6187
 20
106.5057
 10
233.8333
 20
106.5685
 10
234.0073
 20
106.6383
 10
234.0954
 20
106.6722
 10
234.1931
 20
106.7037
 10
234.3068
 20
106.7311
 10
234.4431
 20
106.7532
 10
234.5958
 20
106.6295
 10
234.7337
 20
106.5296
 10
234.8634
 20
106.4472
 10
234.9915
 20
106.3757
 10
235.2689
 20
106.2393
 10
235.6188
 20
106.0683
  0
LWPOLYLINE
  5
B0
330
1F
100
AcDbEntity
  8
Layer 1
 62
     7
370
    20
100
AcDbPolyline
 90
       38
 70
     1
 43
0.0
 10
225.4117
 20
86.4359
 10
225.2404
 20
84.8938
 10
225.1448
 20
84.7116
 10
224.9926
 20
84.5758
 10
224.7967
 20
84.4807
 10
224.5702
 20
84.4202
 10
224.3259
 20
84.3886
 10
224.0767
 20
84.3799
 10
223.8357
 20
84.3882
 10
223.6157
 20
84.4077
 10
223.4721
 20
84.4347
 10
223.3258
 20
84.4806
 10
223.1792
 20
84.5406
 10
223.0348
 20
84.61
 10
222.762
 20
84.7574
 10
222.5268
 20
84.8846
 10
222.5156
 20
85.003
 10
222.5121
 20
85.1459
 10
222.5152
 20
85.305
 10
222.5238
 20
85.472
 10
222.5525
 20
85.7967
 10
222.5891
 20
86.0537
 10
222.6173
 20
86.2135
 10
222.6433
 20
86.3489
 10
222.6757
 20
86.4622
 10
222.7232
 20
86.5555
 10
222.7943
 20
86.6312
 10
222.8978
 20
86.6914
 10
223.0423
 20
86.7385
 10
223.2364
 20
86.7747
 10
223.566
 20
86.8289
 10
223.8309
 20
86.8789
 10
224.0551
 20
86.9131
 10
224.2629
 20
86.9196
 10
224.4784
 20
86.8868
 10
224.7256
 20
86.8031
 10
225.0286
 20
86.6567
 10
225.4117
 20
86.4359
  0
LWPOLYLINE
  5
B1
330
1F
100
AcDbEntity
  8
Layer 1
 62
     7
370
    20
100
AcDbPolyline
 90
       36
 70
     1
 43
0.0
 10
186.9685
 20
94.4654
 10
186.928
 20
92.9406
 10
186.5861
 20
92.8183
 10
186.2708
 20
92.7222
 10
185.9745
 20
92.6551
 10
185.6898
 20
92.6196
 10
185.4094
 20
92.6183
 10
185.1258
 20
92.6541
 10
184.8316
 20
92.7296
 10
184.5194
 20
92.8475
 10
184.3634
 20
92.9155
 10
184.2408
 20
92.9746
 10
184.1487
 20
93.0328
 10
184.0842
 20
93.098
 10
184.0446
 20
93.1781
 10
184.027
 20
93.2811
 10
184.0284
 20
93.415
 10
184.0461
 20
93.5878
 10
184.0655
 20
93.8677
 10
184.0792
 20
94.2234
 10
184.0886
 20
94.4045
 10
184.1023
 20
94.5743
 10
184.1223
 20
94.723
 10
184.1504
 20
94.8403
 10
184.8365
 20
94.9733
 10
185.3016
 20
95.0583
 10
185.5983
 20
95.099
 10
185.7794
 20
95.099
 10
185.8977
 20
95.0621
 10
186.006
 20
94.9921
 10
186.1569
 20
94.8927
 10
186.4033
 20
94.7675
 10
186.5712
 20
94.695
 10
186.7054
 20
94.6336
 10
186.8299
 20
94.5636
 10
186.9685
 20
94.4654
  0
LWPOLYLINE
  5
B2
330
1F
100
AcDbEntity
  8
Layer 1
 62
     7
370
    20
100
AcDbPolyline
 90
       55
 70
     1
 43
0.0
 10
254.4404
 20
87.5154
 10
254.4321
 20
87.3235
 10
254.4204
 20
87.2238
 10
254.4048
 20
87.1898
 10
254.3852
 20
87.1955
 10
254.361
 20
87.2144
 10
254.332
 20
87.2204
 10
254.2977
 20
87.1872
 10
254.2579
 20
87.0885
 10
254.347
 20
87.0181
 10
254.4051
 20
86.9587
 10
254.4383
 20
86.903
 10
254.4525
 20
86.8437
 10
254.4477
 20
86.6849
 10
254.4386
 20
86.4236
 10
254.4462
 20
86.2514
 10
254.462
 20
86.1063
 10
254.483
 20
85.9861
 10
254.5064
 20
85.8886
 10
254.5489
 20
85.7521
 10
254.5667
 20
85.6787
 10
254.464
 20
85.6521
 10
254.2963
 20
85.6268
 10
254.0819
 20
85.6039
 10
253.8395
 20
85.5842
 10
253.5875
 20
85.5685
 10
253.3446
 20
85.5579
 10
253.1291
 20
85.5531
 10
252.9596
 20
85.555
 10
252.7882
 20
85.5745
 10
252.6111
 20
85.6164
 10
252.4331
 20
85.6751
 10
252.2591
 20
85.7454
 10
251.9414
 20
85.899
 10
251.6962
 20
86.0343
 10
251.6639
 20
86.2008
 10
251.6429
 20
86.4135
 10
251.6325
 20
86.6572
 10
251.632
 20
86.9165
 10
251.6405
 20
87.1763
 10
251.6574
 20
87.4213
 10
251.6819
 20
87.6362
 10
251.7133
 20
87.8059
 10
252.3197
 20
87.9254
 10
252.7534
 20
88.0092
 10
253.0518
 20
88.0574
 10
253.2524
 20
88.0705
 10
253.3927
 20
88.0487
 10
253.51
 20
87.9924
 10
253.6419
 20
87.9017
 10
253.8258
 20
87.7772
 10
253.9671
 20
87.7017
 10
254.1262
 20
87.6353
 10
254.2888
 20
87.5744
 10
254.4404
 20
87.5154
  0
LWPOLYLINE
  5
B3
330
1F
100
AcDbEntity
  8
Layer 1
 62
     7
370
    20
100
AcDbPolyline
 90
       25
 70
     1
 43
0.0
 10
262.2591
 20
88.7231
 10
262.2832
 20
88.5558
 10
262.2999
 20
88.356
 10
262.3082
 20
88.1353
 10
262.3071
 20
87.9054
 10
262.2956
 20
87.6781
 10
262.2725
 20
87.4651
 10
262.2368
 20
87.278
 10
262.1876
 20
87.1286
 10
262.0753
 20
87.0505
 10
261.8596
 20
86.9577
 10
261.5567
 20
86.873
 10
261.1827
 20
86.8195
 10
260.7538
 20
86.8202
 10
260.2859
 20
86.898
 10
259.7953
 20
87.076
 10
259.2981
 20
87.3772
 10
259.4493
 20
89.0306
 10
261.1202
 20
89.3159
 10
261.2773
 20
89.1663
 10
261.4128
 20
89.0542
 10
261.5355
 20
88.9715
 10
261.654
 20
88.9104
 10
261.913
 20
88.8212
 10
262.2591
 20
88.7231
  0
LWPOLYLINE
  5
B4
330
1F
100
AcDbEntity
  8
Layer 1
 62
     7
370
    20
100
AcDbPolyline
 90
       34
 70
     1
 43
0.0
 10
229.3375
 20
78.6004
 10
228.76
 20
78.4627
 10
228.3235
 20
78.3549
 10
227.9864
 20
78.2829
 10
227.7073
 20
78.2525
 10
227.4446
 20
78.2694
 10
227.1569
 20
78.3396
 10
226.8026
 20
78.4689
 10
226.3403
 20
78.663
 10
226.4003
 20
80.4184
 10
226.7319
 20
80.4949
 10
226.9477
 20
80.5184
 10
227.0775
 20
80.5064
 10
227.1508
 20
80.4766
 10
227.1974
 20
80.4465
 10
227.2469
 20
80.4337
 10
227.3289
 20
80.456
 10
227.4731
 20
80.5308
 10
227.6519
 20
80.6384
 10
227.7834
 20
80.7206
 10
227.8833
 20
80.7756
 10
227.9671
 20
80.8018
 10
228.0505
 20
80.7977
 10
228.1491
 20
80.7615
 10
228.2784
 20
80.6916
 10
228.454
 20
80.5864
 10
228.8277
 20
80.3691
 10
229.0687
 20
80.2313
 10
229.2057
 20
80.1289
 10
229.2676
 20
80.0177
 10
229.2829
 20
79.8534
 10
229.2805
 20
79.5919
 10
229.2891
 20
79.189
 10
229.3375
 20
78.6004
  0
LWPOLYLINE
  5
B5
330
1F
100
AcDbEntity
  8
Layer 1
 62
     7
370
    20
100
AcDbPolyline
 90
       47
 70
     1
 43
0.0
 10
249.114
 20
104.7466
 10
249.1442
 20
104.5775
 10
249.1661
 20
104.3592
 10
249.177
 20
104.1103
 10
249.1742
 20
103.8496
 10
249.1549
 20
103.5957
 10
249.1164
 20
103.3673
 10
249.0561
 20
103.1832
 10
248.9712
 20
103.0621
 10
248.8167
 20
102.9977
 10
248.628
 20
102.9376
 10
248.4149
 20
102.8839
 10
248.1875
 20
102.839
 10
247.9554
 20
102.805
 10
247.7286
 20
102.7843
 10
247.517
 20
102.7791
 10
247.3305
 20
102.7917
 10
247.1925
 20
102.8236
 10
247.0415
 20
102.8817
 10
246.8841
 20
102.9596
 10
246.7271
 20
103.0511
 10
246.5773
 20
103.1498
 10
246.4414
 20
103.2496
 10
246.3263
 20
103.3442
 10
246.2386
 20
103.4272
 10
246.2319
 20
103.6213
 10
246.2403
 20
103.8387
 10
246.2624
 20
104.07
 10
246.2967
 20
104.3055
 10
246.3418
 20
104.5356
 10
246.3961
 20
104.7509
 10
246.4582
 20
104.9417
 10
246.5267
 20
105.0985
 10
247.0645
 20
105.1827
 10
247.4416
 20
105.2456
 10
247.6964
 20
105.2839
 10
247.8674
 20
105.2944
 10
247.993
 20
105.2735
 10
248.1117
 20
105.2179
 10
248.262
 20
105.1243
 10
248.4822
 20
104.9893
 10
248.5699
 20
104.9421
 10
248.6513
 20
104.9055
 10
248.7284
 20
104.8767
 10
248.803
 20
104.8527
 10
248.9523
 20
104.8075
 10
249.114
 20
104.7466
  0
LWPOLYLINE
  5
B6
330
1F
100
AcDbEntity
  8
Layer 1
 62
     7
370
    20
100
AcDbPolyline
 90
       39
 70
     1
 43
0.0
 10
240.8753
 20
87.1795
 10
240.7388
 20
87.092
 10
240.58
 20
87.0176
 10
240.4037
 20
86.9555
 10
240.2145
 20
86.9053
 10
240.0171
 20
86.8661
 10
239.8161
 20
86.8374
 10
239.6162
 20
86.8185
 10
239.4221
 20
86.8087
 10
239.2448
 20
86.8162
 10
239.0783
 20
86.8459
 10
238.9202
 20
86.893
 10
238.7682
 20
86.9524
 10
238.473
 20
87.0885
 10
238.1737
 20
87.215
 10
238.129
 20
87.4262
 10
238.0968
 20
87.6524
 10
238.077
 20
87.8883
 10
238.0695
 20
88.1286
 10
238.074
 20
88.3678
 10
238.0905
 20
88.6007
 10
238.1188
 20
88.8219
 10
238.1587
 20
89.026
 10
238.4452
 20
89.1013
 10
238.7331
 20
89.1691
 10
239.0198
 20
89.2236
 10
239.3029
 20
89.2592
 10
239.5801
 20
89.27
 10
239.8488
 20
89.2503
 10
240.1066
 20
89.1945
 10
240.351
 20
89.0967
 10
240.566
 20
88.9666
 10
240.7307
 20
88.8179
 10
240.8489
 20
88.6443
 10
240.9244
 20
88.4394
 10
240.961
 20
88.1969
 10
240.9625
 20
87.9103
 10
240.9327
 20
87.5733
 10
240.8753
 20
87.1795
  0
LWPOLYLINE
  5
B7
330
1F
100
AcDbEntity
  8
Layer 1
 62
     7
370
    20
100
AcDbPolyline
 90
       20
 70
     1
 43
0.0
 10
248.7481
 20
90.0257
 10
248.7729
 20
89.8359
 10
248.7868
 20
89.6295
 10
248.789
 20
89.4137
 10
248.7789
 20
89.1959
 10
248.7558
 20
88.9832
 10
248.719
 20
88.7828
 10
248.6678
 20
88.602
 10
248.6015
 20
88.4481
 10
248.2257
 20
88.2678
 10
247.851
 20
88.1611
 10
247.4815
 20
88.1206
 10
247.1213
 20
88.139
 10
246.7746
 20
88.2087
 10
246.4454
 20
88.3224
 10
246.1378
 20
88.4725
 10
245.8561
 20
88.6518
 10
245.8929
 20
90.2909
 10
247.5637
 20
90.6292
 10
248.7481
 20
90.0257
  0
LWPOLYLINE
  5
B8
330
1F
100
AcDbEntity
  8
Layer 1
 62
     7
370
    20
100
AcDbPolyline
 90
       45
 70
     1
 43
0.0
 10
250.9103
 20
93.779
 10
250.9962
 20
93.3018
 10
251.0198
 20
92.9405
 10
250.9794
 20
92.6749
 10
250.8733
 20
92.4844
 10
250.6997
 20
92.3489
 10
250.4571
 20
92.2477
 10
250.1436
 20
92.1607
 10
249.7575
 20
92.0673
 10
249.5427
 20
92.0187
 10
249.3663
 20
91.9889
 10
249.2175
 20
91.9784
 10
249.0859
 20
91.9873
 10
248.961
 20
92.016
 10
248.8322
 20
92.0649
 10
248.689
 20
92.1342
 10
248.5208
 20
92.2243
 10
248.3901
 20
92.2937
 10
248.2745
 20
92.3565
 10
248.1749
 20
92.4201
 10
248.0921
 20
92.4923
 10
248.027
 20
92.5806
 10
247.9806
 20
92.6925
 10
247.9536
 20
92.8358
 10
247.9471
 20
93.0179
 10
247.9454
 20
93.3416
 10
247.9525
 20
93.6778
 10
247.9708
 20
93.8339
 10
248.0049
 20
93.9733
 10
248.0596
 20
94.0893
 10
248.1392
 20
94.1752
 10
248.2747
 20
94.2299
 10
248.4599
 20
94.2849
 10
248.6799
 20
94.3377
 10
248.9199
 20
94.3857
 10
249.1651
 20
94.4264
 10
249.4007
 20
94.4573
 10
249.6119
 20
94.4758
 10
249.7839
 20
94.4795
 10
249.9092
 20
94.3115
 10
250.0299
 20
94.1895
 10
250.1505
 20
94.1019
 10
250.2755
 20
94.0373
 10
250.5569
 20
93.931
 10
250.9103
 20
93.779
  0
LWPOLYLINE
  5
B9
330
1F
100
AcDbEntity
  8
Layer 1
 62
     7
370
    20
100
AcDbPolyline
 90
       39
 70
     1
 43
0.0
 10
217.7483
 20
99.4132
 10
217.7657
 20
99.2506
 10
217.7701
 20
99.0468
 10
217.7634
 20
98.8159
 10
217.747
 20
98.5722
 10
217.7227
 20
98.3301
 10
217.692
 20
98.1038
 10
217.6567
 20
97.9076
 10
217.6184
 20
97.7557
 10
217.4828
 20
97.6891
 10
217.2982
 20
97.6265
 10
217.0794
 20
97.5705
 10
216.8411
 20
97.5237
 10
216.5979
 20
97.489
 10
216.3645
 20
97.4688
 10
216.1557
 20
97.466
 10
215.9861
 20
97.4831
 10
215.8777
 20
97.5157
 10
215.7463
 20
97.5723
 10
215.5985
 20
97.6462
 10
215.441
 20
97.7303
 10
215.1233
 20
97.9021
 10
214.8465
 20
98.0327
 10
214.8545
 20
98.6207
 10
214.8867
 20
99.0539
 10
214.9458
 20
99.3577
 10
215.0343
 20
99.5576
 10
215.155
 20
99.679
 10
215.3105
 20
99.7472
 10
215.5035
 20
99.7877
 10
215.7366
 20
99.8259
 10
216.1652
 20
99.91
 10
216.4344
 20
99.9691
 10
216.5987
 20
99.9962
 10
216.7123
 20
99.9845
 10
216.8296
 20
99.9272
 10
217.0052
 20
99.8175
 10
217.2933
 20
99.6484
 10
217.7483
 20
99.4132
  0
LWPOLYLINE
  5
BA
330
1F
100
AcDbEntity
  8
Layer 1
 62
     7
370
    20
100
AcDbPolyline
 90
       26
 70
     1
 43
0.0
 10
217.893
 20
85.1944
 10
217.8369
 20
83.6405
 10
217.3733
 20
83.5221
 10
216.9552
 20
83.4397
 10
216.5741
 20
83.397
 10
216.2214
 20
83.3974
 10
215.8886
 20
83.4445
 10
215.5672
 20
83.5418
 10
215.2485
 20
83.6929
 10
214.924
 20
83.9013
 10
214.8982
 20
84.5216
 10
214.9254
 20
84.9706
 10
214.9988
 20
85.2766
 10
215.1116
 20
85.4682
 10
215.257
 20
85.5739
 10
215.4283
 20
85.6222
 10
215.6185
 20
85.6414
 10
215.821
 20
85.6602
 10
216.0877
 20
85.7087
 10
216.2781
 20
85.7578
 10
216.4293
 20
85.7919
 10
216.5783
 20
85.7956
 10
216.7621
 20
85.7532
 10
217.0178
 20
85.6492
 10
217.3824
 20
85.4682
 10
217.893
 20
85.1944
  0
LWPOLYLINE
  5
BB
330
1F
100
AcDbEntity
  8
Layer 1
 62
     7
370
    20
100
AcDbPolyline
 90
       31
 70
     1
 43
0.0
 10
207.9427
 20
92.4405
 10
207.5046
 20
92.302
 10
207.1071
 20
92.2272
 10
206.7444
 20
92.2105
 10
206.4104
 20
92.2464
 10
206.099
 20
92.3291
 10
205.8044
 20
92.4531
 10
205.5205
 20
92.6128
 10
205.2413
 20
92.8025
 10
205.4641
 20
94.315
 10
205.5627
 20
94.3987
 10
205.7375
 20
94.4804
 10
205.9649
 20
94.5562
 10
206.2218
 20
94.6222
 10
206.4847
 20
94.6745
 10
206.7302
 20
94.7091
 10
206.9351
 20
94.7221
 10
207.076
 20
94.7096
 10
207.2012
 20
94.6664
 10
207.3615
 20
94.5955
 10
207.5419
 20
94.5041
 10
207.7273
 20
94.3994
 10
207.9026
 20
94.2888
 10
208.0526
 20
94.1795
 10
208.1624
 20
94.0786
 10
208.2168
 20
93.9935
 10
208.0938
 20
92.8356
 10
208.0674
 20
92.6894
 10
208.0558
 20
92.6211
 10
208.0255
 20
92.5614
 10
207.9427
 20
92.4405
  0
LWPOLYLINE
  5
BC
330
1F
100
AcDbEntity
  8
Layer 1
 62
     7
370
    20
100
AcDbPolyline
 90
       32
 70
     1
 43
0.0
 10
233.1057
 20
87.4981
 10
233.1638
 20
85.8237
 10
232.6946
 20
85.6857
 10
232.3002
 20
85.5915
 10
231.9617
 20
85.5425
 10
231.6604
 20
85.5401
 10
231.3776
 20
85.5857
 10
231.0945
 20
85.6808
 10
230.7922
 20
85.8268
 10
230.4522
 20
86.0251
 10
230.4198
 20
86.1698
 10
230.3991
 20
86.3146
 10
230.3875
 20
86.4602
 10
230.3824
 20
86.6071
 10
230.3814
 20
86.9068
 10
230.3755
 20
87.2182
 10
230.3664
 20
87.4305
 10
230.367
 20
87.5865
 10
230.3844
 20
87.6967
 10
230.4258
 20
87.7718
 10
230.4982
 20
87.8222
 10
230.6087
 20
87.8587
 10
230.7645
 20
87.8919
 10
230.9726
 20
87.9323
 10
231.3105
 20
87.9994
 10
231.5826
 20
88.0445
 10
231.8117
 20
88.0613
 10
232.0204
 20
88.0433
 10
232.2315
 20
87.9844
 10
232.4676
 20
87.878
 10
232.7514
 20
87.7181
 10
233.1057
 20
87.4981
  0
LWPOLYLINE
  5
BD
330
1F
100
AcDbEntity
  8
Layer 1
 62
     7
370
    20
100
AcDbPolyline
 90
       30
 70
     1
 43
0.0
 10
173.4832
 20
95.9835
 10
173.5487
 20
94.4268
 10
173.118
 20
94.2362
 10
172.7338
 20
94.1102
 10
172.3851
 20
94.046
 10
172.0605
 20
94.0411
 10
171.7489
 20
94.0927
 10
171.439
 20
94.1982
 10
171.1197
 20
94.3548
 10
170.7798
 20
94.5599
 10
170.72
 20
95.2759
 10
170.7143
 20
95.7733
 10
170.758
 20
96.0932
 10
170.8464
 20
96.2767
 10
170.9749
 20
96.3646
 10
171.1388
 20
96.3981
 10
171.3333
 20
96.4182
 10
171.5538
 20
96.4659
 10
171.9004
 20
96.5741
 10
172.1306
 20
96.632
 10
172.2791
 20
96.6445
 10
172.3806
 20
96.6165
 10
172.4699
 20
96.5529
 10
172.5818
 20
96.4586
 10
172.751
 20
96.3387
 10
173.0123
 20
96.1979
 10
173.1429
 20
96.1397
 10
173.2532
 20
96.0935
 10
173.3607
 20
96.046
 10
173.4832
 20
95.9835
  0
LWPOLYLINE
  5
BE
330
1F
100
AcDbEntity
  8
Layer 1
 62
     7
370
    20
100
AcDbPolyline
 90
       30
 70
     1
 43
0.0
 10
221.4772
 20
78.8947
 10
221.4707
 20
77.3498
 10
221.2123
 20
77.1986
 10
220.8782
 20
77.0723
 10
220.4911
 20
76.9844
 10
220.0735
 20
76.9487
 10
219.6481
 20
76.9787
 10
219.2374
 20
77.088
 10
218.864
 20
77.2903
 10
218.5506
 20
77.5991
 10
218.4699
 20
77.7099
 10
218.5193
 20
77.8039
 10
218.56
 20
77.8389
 10
218.5937
 20
77.8414
 10
218.6217
 20
77.8381
 10
218.6455
 20
77.8555
 10
218.6667
 20
77.9202
 10
218.6868
 20
78.0588
 10
218.7071
 20
78.298
 10
218.7161
 20
78.4904
 10
218.7209
 20
78.6794
 10
218.7293
 20
78.866
 10
218.7488
 20
79.0511
 10
220.4674
 20
79.5176
 10
220.6002
 20
79.4127
 10
220.7231
 20
79.3266
 10
220.8402
 20
79.2538
 10
220.9554
 20
79.1887
 10
221.1961
 20
79.0595
 10
221.4772
 20
78.8947
  0
LWPOLYLINE
  5
BF
330
1F
100
AcDbEntity
  8
Layer 1
 62
     7
370
    20
100
AcDbPolyline
 90
       32
 70
     1
 43
0.0
 10
243.0407
 20
92.5923
 10
243.1321
 20
91.0107
 10
242.7459
 20
90.8704
 10
242.3716
 20
90.7716
 10
242.0087
 20
90.7154
 10
241.6564
 20
90.7028
 10
241.3142
 20
90.7351
 10
240.9813
 20
90.8133
 10
240.6572
 20
90.9385
 10
240.3412
 20
91.1119
 10
240.2985
 20
91.267
 10
240.2706
 20
91.4173
 10
240.2541
 20
91.5653
 10
240.2453
 20
91.7135
 10
240.2364
 20
92.0201
 10
240.2152
 20
92.3568
 10
240.1994
 20
92.5689
 10
240.2058
 20
92.7186
 10
240.239
 20
92.8185
 10
240.3032
 20
92.8814
 10
240.4029
 20
92.9202
 10
240.5424
 20
92.9474
 10
240.7262
 20
92.976
 10
240.9585
 20
93.0187
 10
241.402
 20
93.1045
 10
241.7003
 20
93.1425
 10
241.8999
 20
93.1366
 10
242.047
 20
93.091
 10
242.1883
 20
93.0097
 10
242.37
 20
92.8968
 10
242.6387
 20
92.7563
 10
243.0407
 20
92.5923
  0
LWPOLYLINE
  5
C0
330
1F
100
AcDbEntity
  8
Layer 1
 62
     7
370
    20
100
AcDbPolyline
 90
       23
 70
     1
 43
0.0
 10
200.5185
 20
92.9241
 10
200.4556
 20
91.5398
 10
200.1411
 20
91.3959
 10
199.7822
 20
91.2873
 10
199.3923
 20
91.22
 10
198.9844
 20
91.2002
 10
198.5718
 20
91.2341
 10
198.1677
 20
91.3278
 10
197.7854
 20
91.4874
 10
197.438
 20
91.7192
 10
197.6651
 20
93.3008
 10
197.8076
 20
93.3365
 10
198.0139
 20
93.3815
 10
198.2612
 20
93.4308
 10
198.5265
 20
93.4796
 10
198.7871
 20
93.523
 10
199.0202
 20
93.5562
 10
199.2029
 20
93.5743
 10
199.3124
 20
93.5723
 10
199.5099
 20
93.4777
 10
199.8821
 20
93.2781
 10
200.2709
 20
93.0635
 10
200.5185
 20
92.9241
  0
LWPOLYLINE
  5
C1
330
1F
100
AcDbEntity
  8
Layer 1
 62
     7
370
    20
100
AcDbPolyline
 90
       30
 70
     1
 43
0.0
 10
202.5899
 20
82.8633
 10
202.6559
 20
81.3022
 10
202.203
 20
81.1353
 10
201.8058
 20
81.0191
 10
201.4509
 20
80.9561
 10
201.125
 20
80.9487
 10
200.8148
 20
80.9992
 10
200.5072
 20
81.11
 10
200.1886
 20
81.2835
 10
199.846
 20
81.522
 10
199.826
 20
81.8095
 10
199.8173
 20
82.123
 10
199.8207
 20
82.4376
 10
199.8372
 20
82.7284
 10
199.8554
 20
82.8971
 10
199.881
 20
83.0263
 10
199.9199
 20
83.1227
 10
199.9778
 20
83.1931
 10
200.0607
 20
83.2441
 10
200.1743
 20
83.2826
 10
200.3245
 20
83.3152
 10
200.5172
 20
83.3487
 10
200.999
 20
83.4184
 10
201.3374
 20
83.4403
 10
201.5721
 20
83.4197
 10
201.7432
 20
83.3619
 10
201.8906
 20
83.2721
 10
202.0543
 20
83.1556
 10
202.274
 20
83.0175
 10
202.5899
 20
82.8633
  0
LWPOLYLINE
  5
C2
330
1F
100
AcDbEntity
  8
Layer 1
 62
     7
370
    20
100
AcDbPolyline
 90
       41
 70
     1
 43
0.0
 10
264.3673
 20
92.5191
 10
264.397
 20
92.3461
 10
264.4141
 20
92.1512
 10
264.4203
 20
91.9427
 10
264.4173
 20
91.7291
 10
264.4066
 20
91.5189
 10
264.3899
 20
91.3204
 10
264.3688
 20
91.1421
 10
264.345
 20
90.9924
 10
263.8016
 20
90.845
 10
263.3765
 20
90.742
 10
263.0373
 20
90.6855
 10
262.7515
 20
90.6776
 10
262.4868
 20
90.7202
 10
262.2107
 20
90.8154
 10
261.8909
 20
90.9653
 10
261.4949
 20
91.1719
 10
261.4621
 20
91.3737
 10
261.4485
 20
91.5939
 10
261.4515
 20
91.8244
 10
261.4685
 20
92.0573
 10
261.4969
 20
92.2847
 10
261.5342
 20
92.4986
 10
261.5778
 20
92.6911
 10
261.6251
 20
92.8542
 10
262.092
 20
92.9216
 10
262.4216
 20
92.978
 10
262.6444
 20
93.0254
 10
262.791
 20
93.0658
 10
262.8918
 20
93.1012
 10
262.9772
 20
93.1334
 10
263.0778
 20
93.1645
 10
263.224
 20
93.1964
 10
263.4067
 20
93.026
 10
263.5313
 20
92.914
 10
263.6212
 20
92.8434
 10
263.6997
 20
92.7974
 10
263.7903
 20
92.7589
 10
263.9161
 20
92.711
 10
264.1007
 20
92.6367
 10
264.3673
 20
92.5191
  0
LWPOLYLINE
  5
C3
330
1F
100
AcDbEntity
  8
Layer 1
 62
     7
370
    20
100
AcDbPolyline
 90
       43
 70
     1
 43
0.0
 10
192.739
 20
91.8538
 10
192.7691
 20
91.6343
 10
192.7795
 20
91.4187
 10
192.7765
 20
91.2134
 10
192.7664
 20
91.0252
 10
192.7594
 20
90.8363
 10
192.7455
 20
90.6022
 10
192.7304
 20
90.4858
 10
192.7069
 20
90.3794
 10
192.6728
 20
90.2898
 10
192.6258
 20
90.2243
 10
192.4804
 20
90.1484
 10
192.3051
 20
90.0836
 10
192.1079
 20
90.0303
 10
191.8972
 20
89.9889
 10
191.6811
 20
89.9598
 10
191.4677
 20
89.9436
 10
191.2655
 20
89.9406
 10
191.0824
 20
89.9513
 10
190.918
 20
89.9794
 10
190.7625
 20
90.0252
 10
190.6142
 20
90.0839
 10
190.4717
 20
90.1505
 10
190.3331
 20
90.2203
 10
190.1968
 20
90.2882
 10
190.0613
 20
90.3495
 10
189.9247
 20
90.3992
 10
189.9096
 20
90.5865
 10
189.9042
 20
90.8127
 10
189.9083
 20
91.0631
 10
189.9214
 20
91.3224
 10
189.9433
 20
91.5759
 10
189.9737
 20
91.8083
 10
190.0123
 20
92.0049
 10
190.0586
 20
92.1505
 10
190.7798
 20
92.2755
 10
191.2354
 20
92.3568
 10
191.5031
 20
92.3929
 10
191.6605
 20
92.3828
 10
191.7851
 20
92.325
 10
191.9547
 20
92.2185
 10
192.2468
 20
92.0618
 10
192.739
 20
91.8538
  0
LWPOLYLINE
  5
C4
330
1F
100
AcDbEntity
  8
Layer 1
 62
     7
370
    20
100
AcDbPolyline
 90
       45
 70
     1
 43
0.0
 10
277.5495
 20
89.4796
 10
277.4211
 20
89.3938
 10
277.2444
 20
89.3152
 10
277.0323
 20
89.2467
 10
276.7974
 20
89.191
 10
276.5523
 20
89.1509
 10
276.3097
 20
89.1292
 10
276.0824
 20
89.1287
 10
275.8829
 20
89.1521
 10
275.7689
 20
89.1874
 10
275.6164
 20
89.2518
 10
275.4389
 20
89.3369
 10
275.2502
 20
89.4346
 10
274.8944
 20
89.6347
 10
274.6586
 20
89.7861
 10
274.678
 20
89.9753
 10
274.7115
 20
90.182
 10
274.7569
 20
90.3976
 10
274.812
 20
90.6134
 10
274.8746
 20
90.821
 10
274.9426
 20
91.0118
 10
275.0137
 20
91.1773
 10
275.0859
 20
91.3088
 10
275.5786
 20
91.3923
 10
275.92
 20
91.4768
 10
276.1509
 20
91.549
 10
276.312
 20
91.5955
 10
276.444
 20
91.603
 10
276.5875
 20
91.5583
 10
276.7834
 20
91.4479
 10
277.0724
 20
91.2586
 10
277.2855
 20
91.1443
 10
277.4999
 20
91.0285
 10
277.5945
 20
90.952
 10
277.6737
 20
90.8537
 10
277.7324
 20
90.7262
 10
277.7653
 20
90.5624
 10
277.7747
 20
90.4134
 10
277.774
 20
90.2602
 10
277.7632
 20
90.1069
 10
277.7419
 20
89.9576
 10
277.7101
 20
89.8161
 10
277.6675
 20
89.6866
 10
277.614
 20
89.5731
 10
277.5495
 20
89.4796
  0
LWPOLYLINE
  5
C5
330
1F
100
AcDbEntity
  8
Layer 1
 62
     7
370
    20
100
AcDbPolyline
 90
       51
 70
     1
 43
0.0
 10
254.9023
 20
101.7426
 10
254.9223
 20
101.5581
 10
254.9323
 20
101.3693
 10
254.9322
 20
101.1789
 10
254.9219
 20
100.9897
 10
254.9012
 20
100.8045
 10
254.87
 20
100.6261
 10
254.8282
 20
100.4571
 10
254.7756
 20
100.3005
 10
254.6389
 20
100.211
 10
254.4721
 20
100.1309
 10
254.2817
 20
100.0612
 10
254.0744
 20
100.0033
 10
253.8568
 20
99.9584
 10
253.6355
 20
99.9278
 10
253.417
 20
99.9128
 10
253.2081
 20
99.9145
 10
253.0418
 20
99.9381
 10
252.8754
 20
99.9883
 10
252.7113
 20
100.0595
 10
252.5515
 20
100.1466
 10
252.3984
 20
100.2441
 10
252.2541
 20
100.3468
 10
252.1208
 20
100.4493
 10
252.0008
 20
100.5463
 10
251.9798
 20
100.7378
 10
251.979
 20
100.9445
 10
251.9947
 20
101.1597
 10
252.0236
 20
101.3765
 10
252.062
 20
101.5882
 10
252.1066
 20
101.788
 10
252.1536
 20
101.969
 10
252.1998
 20
102.1245
 10
252.4182
 20
102.1442
 10
252.6242
 20
102.1681
 10
252.8278
 20
102.2028
 10
253.0392
 20
102.2552
 10
253.2379
 20
102.3207
 10
253.406
 20
102.383
 10
253.4888
 20
102.4111
 10
253.5762
 20
102.4363
 10
253.6722
 20
102.4578
 10
253.7809
 20
102.475
 10
253.9725
 20
102.2721
 10
254.1197
 20
102.14
 10
254.2372
 20
102.0592
 10
254.3401
 20
102.0103
 10
254.4431
 20
101.9736
 10
254.5613
 20
101.9297
 10
254.7093
 20
101.8592
 10
254.9023
 20
101.7426
  0
LWPOLYLINE
  5
C6
330
1F
100
AcDbEntity
  8
Layer 1
 62
     7
370
    20
100
AcDbPolyline
 90
       34
 70
     1
 43
0.0
 10
275.5632
 20
87.1913
 10
275.4966
 20
85.6378
 10
274.8178
 20
85.4321
 10
274.3089
 20
85.3168
 10
273.9298
 20
85.2798
 10
273.6406
 20
85.3086
 10
273.4013
 20
85.3912
 10
273.1721
 20
85.515
 10
272.9129
 20
85.668
 10
272.5838
 20
85.8377
 10
272.5738
 20
85.9835
 10
272.5791
 20
86.1716
 10
272.5966
 20
86.3882
 10
272.6234
 20
86.6192
 10
272.6566
 20
86.8508
 10
272.6932
 20
87.0691
 10
272.7303
 20
87.26
 10
272.7649
 20
87.4098
 10
273.0067
 20
87.4583
 10
273.2271
 20
87.4835
 10
273.4413
 20
87.5078
 10
273.6644
 20
87.5535
 10
273.8684
 20
87.6212
 10
274.0104
 20
87.6786
 10
274.0884
 20
87.7039
 10
274.1871
 20
87.7272
 10
274.3186
 20
87.7487
 10
274.495
 20
87.7686
 10
274.6119
 20
87.6601
 10
274.7336
 20
87.5673
 10
274.8599
 20
87.4876
 10
274.991
 20
87.4183
 10
275.2676
 20
87.3001
 10
275.5632
 20
87.1913
  0
LWPOLYLINE
  5
C7
330
1F
100
AcDbEntity
  8
Layer 1
 62
     7
370
    20
100
AcDbPolyline
 90
       36
 70
     1
 43
0.0
 10
252.0399
 20
81.9744
 10
251.556
 20
81.847
 10
251.1541
 20
81.7676
 10
250.8143
 20
81.7353
 10
250.5163
 20
81.7495
 10
250.24
 20
81.8096
 10
249.9654
 20
81.9147
 10
249.6723
 20
82.0644
 10
249.3407
 20
82.2577
 10
249.418
 20
83.807
 10
249.5378
 20
83.8669
 10
249.68
 20
83.918
 10
249.8388
 20
83.9628
 10
250.0082
 20
84.0037
 10
250.355
 20
84.0827
 10
250.6731
 20
84.1739
 10
250.8679
 20
84.2356
 10
251.0162
 20
84.2633
 10
251.1314
 20
84.2611
 10
251.2272
 20
84.2332
 10
251.4146
 20
84.1166
 10
251.6865
 20
83.9467
 10
251.8366
 20
83.8683
 10
251.9552
 20
83.8036
 10
252.0452
 20
83.7425
 10
252.1096
 20
83.6752
 10
252.1514
 20
83.5917
 10
252.1734
 20
83.4821
 10
252.1787
 20
83.3366
 10
252.1701
 20
83.1451
 10
252.1502
 20
82.8337
 10
252.127
 20
82.5323
 10
252.1117
 20
82.3866
 10
252.0928
 20
82.2447
 10
252.0692
 20
82.1071
 10
252.0399
 20
81.9744
  0
LWPOLYLINE
  5
C8
330
1F
100
AcDbEntity
  8
Layer 1
 62
     7
370
    20
100
AcDbPolyline
 90
       32
 70
     1
 43
0.0
 10
167.4873
 20
98.8598
 10
167.5392
 20
97.1947
 10
167.1314
 20
96.9782
 10
166.739
 20
96.8493
 10
166.3637
 20
96.7991
 10
166.0074
 20
96.8187
 10
165.6719
 20
96.8993
 10
165.359
 20
97.0321
 10
165.0704
 20
97.2082
 10
164.808
 20
97.4188
 10
164.785
 20
97.7449
 10
164.7695
 20
98.076
 10
164.7665
 20
98.3943
 10
164.7808
 20
98.6824
 10
164.8075
 20
98.8736
 10
164.8485
 20
98.9986
 10
164.9083
 20
99.0718
 10
164.9914
 20
99.1079
 10
165.2458
 20
99.1272
 10
165.6483
 20
99.1731
 10
165.849
 20
99.2251
 10
165.9929
 20
99.2813
 10
166.0967
 20
99.3338
 10
166.1771
 20
99.3743
 10
166.2509
 20
99.3947
 10
166.3349
 20
99.3868
 10
166.4458
 20
99.3424
 10
166.6003
 20
99.2534
 10
166.8451
 20
99.1043
 10
167.0068
 20
99.0235
 10
167.187
 20
98.9592
 10
167.4873
 20
98.8598
  0
LWPOLYLINE
  5
C9
330
1F
100
AcDbEntity
  8
Layer 1
 62
     7
370
    20
100
AcDbPolyline
 90
       47
 70
     1
 43
0.0
 10
267.7896
 20
84.6734
 10
267.6582
 20
84.5881
 10
267.472
 20
84.5104
 10
267.2476
 20
84.4414
 10
267.0015
 20
84.3826
 10
266.7503
 20
84.335
 10
266.5104
 20
84.2999
 10
266.2984
 20
84.2786
 10
266.1308
 20
84.2723
 10
265.9505
 20
84.2872
 10
265.7768
 20
84.3253
 10
265.6096
 20
84.3826
 10
265.4483
 20
84.4554
 10
265.2929
 20
84.5399
 10
265.1429
 20
84.6322
 10
264.9981
 20
84.7287
 10
264.8582
 20
84.8255
 10
264.8434
 20
85.0287
 10
264.8383
 20
85.2369
 10
264.8429
 20
85.4466
 10
264.8575
 20
85.6543
 10
264.8819
 20
85.8565
 10
264.9164
 20
86.0497
 10
264.961
 20
86.2305
 10
265.0157
 20
86.3953
 10
265.5477
 20
86.4888
 10
265.9474
 20
86.5572
 10
266.2433
 20
86.5993
 10
266.4637
 20
86.6137
 10
266.6369
 20
86.599
 10
266.7914
 20
86.554
 10
266.9556
 20
86.4773
 10
267.1577
 20
86.3676
 10
267.3916
 20
86.2643
 10
267.5879
 20
86.1793
 10
267.6686
 20
86.1207
 10
267.7357
 20
86.0392
 10
267.788
 20
85.9255
 10
267.824
 20
85.7705
 10
267.8381
 20
85.6478
 10
267.8464
 20
85.5061
 10
267.8493
 20
85.3528
 10
267.8469
 20
85.1953
 10
267.8395
 20
85.0412
 10
267.8273
 20
84.8979
 10
267.8106
 20
84.7728
 10
267.7896
 20
84.6734
  0
LWPOLYLINE
  5
CA
330
1F
100
AcDbEntity
  8
Layer 1
 62
     7
370
    20
100
AcDbPolyline
 90
       33
 70
     1
 43
0.0
 10
196.8598
 20
85.4065
 10
196.9588
 20
83.8856
 10
196.5098
 20
83.7119
 10
196.1603
 20
83.5812
 10
195.8745
 20
83.5
 10
195.6166
 20
83.4748
 10
195.351
 20
83.512
 10
195.0418
 20
83.6182
 10
194.6533
 20
83.7997
 10
194.1498
 20
84.0631
 10
194.1375
 20
84.2153
 10
194.1324
 20
84.3678
 10
194.133
 20
84.5196
 10
194.1379
 20
84.6698
 10
194.1546
 20
84.9623
 10
194.1704
 20
85.2381
 10
194.1803
 20
85.4495
 10
194.1945
 20
85.6013
 10
194.2216
 20
85.7054
 10
194.2703
 20
85.7731
 10
194.3491
 20
85.8162
 10
194.4666
 20
85.8462
 10
194.6315
 20
85.8747
 10
194.8523
 20
85.9134
 10
195.2506
 20
85.9937
 10
195.4999
 20
86.0478
 10
195.6452
 20
86.0723
 10
195.7315
 20
86.0637
 10
195.8036
 20
86.0187
 10
195.9066
 20
85.9337
 10
196.0853
 20
85.8054
 10
196.3849
 20
85.6304
 10
196.8598
 20
85.4065
  0
LWPOLYLINE
  5
CB
330
1F
100
AcDbEntity
  8
Layer 1
 62
     7
370
    20
100
AcDbPolyline
 90
       31
 70
     1
 43
0.0
 10
161.6433
 20
101.53
 10
161.7729
 20
100.0652
 10
161.2883
 20
99.8154
 10
160.8236
 20
99.6838
 10
160.3988
 20
99.6368
 10
160.019
 20
99.6656
 10
159.6889
 20
99.7614
 10
159.4135
 20
99.9156
 10
159.1976
 20
100.1195
 10
159.0462
 20
100.3642
 10
158.964
 20
100.6412
 10
158.9316
 20
100.9008
 10
158.9069
 20
101.2666
 10
158.9064
 20
101.4537
 10
158.9186
 20
101.6245
 10
158.9471
 20
101.7649
 10
158.9956
 20
101.8605
 10
159.0804
 20
101.9022
 10
159.2474
 20
101.9528
 10
159.4716
 20
102.0079
 10
159.7282
 20
102.0629
 10
159.9923
 20
102.1136
 10
160.2391
 20
102.1555
 10
160.4436
 20
102.1843
 10
160.5811
 20
102.1954
 10
160.729
 20
102.0495
 10
160.8473
 20
101.9455
 10
160.9487
 20
101.8714
 10
161.0457
 20
101.8152
 10
161.2773
 20
101.7086
 10
161.6433
 20
101.53
  0
LWPOLYLINE
  5
CC
330
1F
100
AcDbEntity
  8
Layer 1
 62
     7
370
    20
100
AcDbPolyline
 90
       37
 70
     1
 43
0.0
 10
244.3482
 20
80.7224
 10
243.8787
 20
80.6328
 10
243.4831
 20
80.5673
 10
243.1432
 20
80.5313
 10
242.8407
 20
80.5301
 10
242.5576
 20
80.5688
 10
242.2755
 20
80.6528
 10
241.9764
 20
80.7873
 10
241.6419
 20
80.9777
 10
241.6474
 20
81.144
 10
241.6584
 20
81.1967
 10
241.6708
 20
81.2339
 10
241.6804
 20
81.3534
 10
241.6776
 20
81.6654
 10
241.6618
 20
81.9483
 10
241.6571
 20
82.1006
 10
241.6591
 20
82.2719
 10
241.6708
 20
82.4707
 10
241.6957
 20
82.706
 10
241.9963
 20
82.7698
 10
242.2942
 20
82.8145
 10
242.5896
 20
82.8595
 10
242.8829
 20
82.9241
 10
243.1059
 20
82.9854
 10
243.2597
 20
83.023
 10
243.3645
 20
83.0363
 10
243.4401
 20
83.0249
 10
243.5835
 20
82.9261
 10
243.8495
 20
82.723
 10
244.1367
 20
82.5347
 10
244.319
 20
82.4098
 10
244.4167
 20
82.3077
 10
244.4502
 20
82.1879
 10
244.4398
 20
82.01
 10
244.4057
 20
81.7335
 10
244.3684
 20
81.3178
 10
244.3482
 20
80.7224
  0
LWPOLYLINE
  5
CD
330
1F
100
AcDbEntity
  8
Layer 1
 62
     7
370
    20
100
AcDbPolyline
 90
       34
 70
     1
 43
0.0
 10
210.0562
 20
98.0388
 10
210.0255
 20
96.4291
 10
209.6225
 20
96.3128
 10
209.2467
 20
96.2286
 10
208.894
 20
96.1815
 10
208.5599
 20
96.1766
 10
208.24
 20
96.2191
 10
207.93
 20
96.314
 10
207.6256
 20
96.4664
 10
207.3224
 20
96.6815
 10
207.3081
 20
96.8547
 10
207.301
 20
97.0761
 10
207.3017
 20
97.3268
 10
207.3109
 20
97.588
 10
207.3295
 20
97.841
 10
207.3582
 20
98.0669
 10
207.3976
 20
98.247
 10
207.4485
 20
98.3625
 10
207.5525
 20
98.4183
 10
207.7273
 20
98.4749
 10
207.9511
 20
98.5299
 10
208.2026
 20
98.5809
 10
208.46
 20
98.6255
 10
208.7018
 20
98.6612
 10
208.9065
 20
98.6858
 10
209.0524
 20
98.6967
 10
209.2115
 20
98.5289
 10
209.3414
 20
98.4149
 10
209.4519
 20
98.3401
 10
209.5528
 20
98.2898
 10
209.654
 20
98.2491
 10
209.765
 20
98.2036
 10
209.8959
 20
98.1384
 10
210.0562
 20
98.0388
  0
LWPOLYLINE
  5
CE
330
1F
100
AcDbEntity
  8
Layer 1
 62
     7
370
    20
100
AcDbPolyline
 90
       26
 70
     1
 43
0.0
 10
227.3821
 20
90.1383
 10
227.3977
 20
88.3988
 10
226.9797
 20
88.2968
 10
226.6066
 20
88.2204
 10
226.2678
 20
88.1762
 10
225.953
 20
88.171
 10
225.6515
 20
88.2117
 10
225.3529
 20
88.3049
 10
225.0466
 20
88.4574
 10
224.7222
 20
88.676
 10
224.6993
 20
88.8216
 10
224.6852
 20
89.0255
 10
224.6789
 20
89.268
 10
224.6795
 20
89.5294
 10
224.6858
 20
89.7899
 10
224.697
 20
90.0299
 10
224.7119
 20
90.2296
 10
224.7297
 20
90.3692
 10
225.2844
 20
90.5464
 10
225.7091
 20
90.6323
 10
226.0369
 20
90.6432
 10
226.3009
 20
90.5953
 10
226.5343
 20
90.5047
 10
226.7703
 20
90.3875
 10
227.0418
 20
90.26
 10
227.3821
 20
90.1383
  0
LWPOLYLINE
  5
CF
330
1F
100
AcDbEntity
  8
Layer 1
 62
     7
370
    20
100
AcDbPolyline
 90
       35
 70
     1
 43
0.0
 10
241.404
 20
103.2792
 10
241.3506
 20
102.8101
 10
241.357
 20
102.4568
 10
241.3844
 20
102.1986
 10
241.3944
 20
102.0146
 10
241.3484
 20
101.8842
 10
241.2078
 20
101.7865
 10
240.9341
 20
101.7007
 10
240.4888
 20
101.6061
 10
240.1726
 20
101.5419
 10
239.9303
 20
101.4957
 10
239.7332
 20
101.4751
 10
239.553
 20
101.4877
 10
239.361
 20
101.5413
 10
239.1288
 20
101.6435
 10
238.8279
 20
101.8019
 10
238.4298
 20
102.0241
 10
238.384
 20
102.5073
 10
238.3971
 20
102.8784
 10
238.4633
 20
103.1549
 10
238.5772
 20
103.3537
 10
238.733
 20
103.4921
 10
238.9254
 20
103.5872
 10
239.1486
 20
103.6564
 10
239.3971
 20
103.7167
 10
239.8446
 20
103.8347
 10
240.1082
 20
103.9203
 10
240.2429
 20
103.9683
 10
240.3035
 20
103.9737
 10
240.3448
 20
103.9313
 10
240.4217
 20
103.836
 10
240.589
 20
103.6827
 10
240.9015
 20
103.4663
 10
241.3374
 20
103.3017
 10
241.404
 20
103.2792
  0
LWPOLYLINE
  5
D0
330
1F
100
AcDbEntity
  8
Layer 1
 62
     7
370
    20
100
AcDbPolyline
 90
       42
 70
     1
 43
0.0
 10
198.4105
 20
89.231
 10
198.4182
 20
88.8725
 10
198.411
 20
88.5464
 10
198.3992
 20
88.2228
 10
198.393
 20
87.872
 10
198.2873
 20
87.8007
 10
198.1646
 20
87.7407
 10
198.0271
 20
87.6903
 10
197.8773
 20
87.648
 10
197.5496
 20
87.5804
 10
197.2002
 20
87.5245
 10
196.9732
 20
87.4903
 10
196.7937
 20
87.4679
 10
196.6487
 20
87.46
 10
196.5249
 20
87.4692
 10
196.4092
 20
87.4982
 10
196.2886
 20
87.5495
 10
196.1498
 20
87.6259
 10
195.9797
 20
87.73
 10
195.8616
 20
87.7998
 10
195.7513
 20
87.8627
 10
195.652
 20
87.9259
 10
195.567
 20
87.9963
 10
195.4996
 20
88.0812
 10
195.453
 20
88.1876
 10
195.4306
 20
88.3226
 10
195.4355
 20
88.4933
 10
195.4549
 20
88.6578
 10
195.4772
 20
88.806
 10
195.5027
 20
88.9419
 10
195.5314
 20
89.0698
 10
195.5993
 20
89.3183
 10
195.6823
 20
89.5851
 10
195.8436
 20
89.6103
 10
196.0568
 20
89.6477
 10
196.3012
 20
89.6921
 10
196.556
 20
89.7383
 10
196.8005
 20
89.7811
 10
197.0139
 20
89.8152
 10
197.1755
 20
89.8354
 10
197.2646
 20
89.8365
 10
198.4105
 20
89.231
  0
LWPOLYLINE
  5
D1
330
1F
100
AcDbEntity
  8
Layer 1
 62
     7
370
    20
100
AcDbPolyline
 90
       44
 70
     1
 43
0.0
 10
267.1038
 20
88.6394
 10
267.0942
 20
88.8101
 10
267.1033
 20
88.9893
 10
267.1263
 20
89.1758
 10
267.1583
 20
89.3678
 10
267.1942
 20
89.564
 10
267.2292
 20
89.763
 10
267.2584
 20
89.9631
 10
267.2768
 20
90.1629
 10
267.9481
 20
90.2743
 10
268.3844
 20
90.3573
 10
268.6423
 20
90.4118
 10
268.7784
 20
90.4377
 10
268.8492
 20
90.4348
 10
268.9114
 20
90.403
 10
269.0214
 20
90.3421
 10
269.236
 20
90.2521
 10
269.6088
 20
90.0664
 10
269.6612
 20
90.0281
 10
269.8245
 20
89.924
 10
269.9216
 20
89.8478
 10
269.9936
 20
89.7758
 10
270.0437
 20
89.7028
 10
270.0752
 20
89.6232
 10
270.0914
 20
89.5316
 10
270.0954
 20
89.4226
 10
270.0906
 20
89.2907
 10
270.0801
 20
89.1305
 10
270.051
 20
88.8006
 10
270.0083
 20
88.5615
 10
269.9398
 20
88.396
 10
269.8332
 20
88.2873
 10
269.6765
 20
88.2184
 10
269.4573
 20
88.1724
 10
269.1635
 20
88.1321
 10
268.7829
 20
88.0807
 10
268.5272
 20
88.0637
 10
268.2795
 20
88.0842
 10
268.0422
 20
88.1357
 10
267.8181
 20
88.2121
 10
267.6096
 20
88.3069
 10
267.4193
 20
88.414
 10
267.2499
 20
88.5269
 10
267.1038
 20
88.6394
  0
LWPOLYLINE
  5
D2
330
1F
100
AcDbEntity
  8
Layer 1
 62
     7
370
    20
100
AcDbPolyline
 90
       40
 70
     1
 43
0.0
 10
247.2429
 20
100.3171
 10
247.2631
 20
100.016
 10
247.266
 20
99.7333
 10
247.2544
 20
99.6002
 10
247.2307
 20
99.4733
 10
247.1923
 20
99.3532
 10
247.1366
 20
99.2405
 10
246.9955
 20
99.1477
 10
246.8079
 20
99.0648
 10
246.5865
 20
98.993
 10
246.3441
 20
98.9337
 10
246.0933
 20
98.888
 10
245.8468
 20
98.8573
 10
245.6173
 20
98.8427
 10
245.4175
 20
98.8457
 10
245.2723
 20
98.8695
 10
245.1095
 20
98.9195
 10
244.9364
 20
98.99
 10
244.7606
 20
99.0757
 10
244.5896
 20
99.1711
 10
244.4308
 20
99.2708
 10
244.2918
 20
99.3693
 10
244.18
 20
99.4612
 10
244.1829
 20
99.6232
 10
244.1976
 20
99.8131
 10
244.2235
 20
100.0206
 10
244.2601
 20
100.2355
 10
244.3071
 20
100.4472
 10
244.3638
 20
100.6456
 10
244.4299
 20
100.8201
 10
244.5049
 20
100.9606
 10
246.1861
 20
101.2522
 10
246.3559
 20
100.9835
 10
246.5084
 20
100.8112
 10
246.6469
 20
100.7088
 10
246.7747
 20
100.6498
 10
246.8949
 20
100.6076
 10
247.0109
 20
100.5558
 10
247.1258
 20
100.4678
 10
247.2429
 20
100.3171
  0
LWPOLYLINE
  5
D3
330
1F
100
AcDbEntity
  8
Layer 1
 62
     7
370
    20
100
AcDbPolyline
 90
       34
 70
     1
 43
0.0
 10
208.3653
 20
80.1505
 10
208.394
 20
79.9454
 10
208.417
 20
79.7375
 10
208.4331
 20
79.5296
 10
208.441
 20
79.3246
 10
208.4393
 20
79.1252
 10
208.4266
 20
78.9345
 10
208.4016
 20
78.7551
 10
208.3631
 20
78.59
 10
207.8658
 20
78.4514
 10
207.4751
 20
78.3532
 10
207.1614
 20
78.2987
 10
206.8953
 20
78.2907
 10
206.6469
 20
78.3324
 10
206.3868
 20
78.4267
 10
206.0854
 20
78.5767
 10
205.713
 20
78.7855
 10
205.6725
 20
80.4913
 10
205.8116
 20
80.5429
 10
205.996
 20
80.5946
 10
206.2123
 20
80.6446
 10
206.4473
 20
80.6909
 10
206.6875
 20
80.7319
 10
206.9196
 20
80.7656
 10
207.1302
 20
80.7902
 10
207.3061
 20
80.8039
 10
207.4302
 20
80.6831
 10
207.5481
 20
80.5789
 10
207.6641
 20
80.4887
 10
207.7825
 20
80.4096
 10
207.9075
 20
80.339
 10
208.0435
 20
80.2741
 10
208.1947
 20
80.2122
 10
208.3653
 20
80.1505
  0
LWPOLYLINE
  5
D4
330
1F
100
AcDbEntity
  8
Layer 1
 62
     7
370
    20
100
AcDbPolyline
 90
       35
 70
     1
 43
0.0
 10
179.2852
 20
93.3053
 10
179.2978
 20
93.1561
 10
179.3059
 20
92.9628
 10
179.3085
 20
92.7427
 10
179.3044
 20
92.5128
 10
179.2928
 20
92.2906
 10
179.2724
 20
92.0933
 10
179.2422
 20
91.938
 10
179.2012
 20
91.8421
 10
179.0209
 20
91.6719
 10
178.7498
 20
91.5432
 10
178.4104
 20
91.4629
 10
178.0251
 20
91.4378
 10
177.6162
 20
91.475
 10
177.2061
 20
91.5813
 10
176.8173
 20
91.7636
 10
176.4721
 20
92.029
 10
176.4906
 20
92.1817
 10
176.5131
 20
92.2876
 10
176.5374
 20
92.3607
 10
176.5615
 20
92.4153
 10
176.5835
 20
92.4654
 10
176.6012
 20
92.5252
 10
176.6125
 20
92.609
 10
176.6155
 20
92.7307
 10
176.612
 20
93.6031
 10
176.745
 20
93.6372
 10
176.9331
 20
93.685
 10
177.157
 20
93.7401
 10
177.3972
 20
93.7962
 10
177.6344
 20
93.8469
 10
177.8491
 20
93.8857
 10
178.022
 20
93.9063
 10
178.1336
 20
93.9022
 10
179.2852
 20
93.3053
  0
LWPOLYLINE
  5
D5
330
1F
100
AcDbEntity
  8
Layer 1
 62
     7
370
    20
100
AcDbPolyline
 90
       35
 70
     1
 43
0.0
 10
185.2408
 20
89.0848
 10
184.7939
 20
88.8757
 10
184.3904
 20
88.7564
 10
184.0224
 20
88.7149
 10
183.6817
 20
88.7396
 10
183.3603
 20
88.8184
 10
183.0501
 20
88.9395
 10
182.7432
 20
89.0911
 10
182.4314
 20
89.2612
 10
182.4064
 20
89.4825
 10
182.3974
 20
89.6866
 10
182.4009
 20
89.8787
 10
182.4131
 20
90.0638
 10
182.4303
 20
90.2472
 10
182.449
 20
90.434
 10
182.4654
 20
90.6294
 10
182.4758
 20
90.8385
 10
182.7597
 20
90.922
 10
183.0124
 20
90.9798
 10
183.279
 20
91.0317
 10
183.6044
 20
91.0977
 10
183.7807
 20
91.1339
 10
183.9087
 20
91.1537
 10
184.0031
 20
91.1566
 10
184.0784
 20
91.1421
 10
184.23
 20
91.0584
 10
184.4806
 20
90.8987
 10
184.716
 20
90.7654
 10
184.8988
 20
90.6582
 10
185.0353
 20
90.5505
 10
185.1316
 20
90.4162
 10
185.1941
 20
90.2288
 10
185.229
 20
89.962
 10
185.2425
 20
89.5895
 10
185.2408
 20
89.0848
  0
LWPOLYLINE
  5
D6
330
1F
100
AcDbEntity
  8
Layer 1
 62
     7
370
    20
100
AcDbPolyline
 90
       19
 70
     1
 43
0.0
 10
258.9118
 20
93.9049
 10
258.4651
 20
93.7219
 10
258.0475
 20
93.5904
 10
257.6547
 20
93.5123
 10
257.282
 20
93.4894
 10
256.925
 20
93.5238
 10
256.5792
 20
93.6171
 10
256.2401
 20
93.7713
 10
255.9031
 20
93.9883
 10
255.8513
 20
95.5283
 10
257.5203
 20
95.8557
 10
257.8383
 20
95.5266
 10
258.125
 20
95.3273
 10
258.3754
 20
95.205
 10
258.5846
 20
95.1071
 10
258.7478
 20
94.9808
 10
258.86
 20
94.7734
 10
258.9163
 20
94.4324
 10
258.9118
 20
93.9049
  0
LWPOLYLINE
  5
D7
330
1F
100
AcDbEntity
  8
Layer 1
 62
     7
370
    20
100
AcDbPolyline
 90
       43
 70
     1
 43
0.0
 10
283.2807
 20
88.2789
 10
283.3156
 20
87.723
 10
283.2944
 20
87.3101
 10
283.2233
 20
87.018
 10
283.1089
 20
86.824
 10
282.9575
 20
86.7057
 10
282.7755
 20
86.6407
 10
282.5695
 20
86.6064
 10
282.3457
 20
86.5805
 10
282.1277
 20
86.5515
 10
281.8952
 20
86.5241
 10
281.7783
 20
86.5143
 10
281.6635
 20
86.5089
 10
281.5528
 20
86.5093
 10
281.448
 20
86.5169
 10
281.2995
 20
86.548
 10
281.1355
 20
86.6054
 10
280.9638
 20
86.6829
 10
280.7923
 20
86.7744
 10
280.6291
 20
86.8737
 10
280.4821
 20
86.9747
 10
280.3592
 20
87.0712
 10
280.2683
 20
87.1572
 10
280.277
 20
87.254
 10
280.2915
 20
87.3397
 10
280.3109
 20
87.4177
 10
280.3341
 20
87.4911
 10
280.3885
 20
87.6374
 10
280.4472
 20
87.8052
 10
280.4774
 20
87.9103
 10
280.4975
 20
87.9988
 10
280.51
 20
88.0771
 10
280.5176
 20
88.1514
 10
280.5276
 20
88.3138
 10
280.5478
 20
88.5368
 10
281.3266
 20
88.68
 10
281.8072
 20
88.7782
 10
282.0763
 20
88.8288
 10
282.2204
 20
88.8292
 10
282.3263
 20
88.777
 10
282.4806
 20
88.6696
 10
282.7698
 20
88.5044
 10
283.2807
 20
88.2789
  0
LWPOLYLINE
  5
D8
330
1F
100
AcDbEntity
  8
Layer 1
 62
     7
370
    20
100
AcDbPolyline
 90
       28
 70
     1
 43
0.0
 10
235.0486
 20
89.7354
 10
234.6206
 20
89.6307
 10
234.2309
 20
89.5568
 10
233.8743
 20
89.5183
 10
233.5453
 20
89.5196
 10
233.2384
 20
89.5654
 10
232.9485
 20
89.66
 10
232.6699
 20
89.808
 10
232.3974
 20
90.0139
 10
232.3718
 20
91.5624
 10
232.655
 20
91.6391
 10
232.9665
 20
91.7025
 10
233.2709
 20
91.7576
 10
233.5327
 20
91.8095
 10
233.7427
 20
91.8521
 10
233.9015
 20
91.8721
 10
234.0234
 20
91.8711
 10
234.1227
 20
91.8507
 10
234.3104
 20
91.7584
 10
234.5788
 20
91.6087
 10
234.7572
 20
91.5228
 10
234.9094
 20
91.4407
 10
235.0314
 20
91.3392
 10
235.1191
 20
91.1954
 10
235.1687
 20
90.9861
 10
235.1762
 20
90.6884
 10
235.1374
 20
90.2792
 10
235.0486
 20
89.7354
  0
LWPOLYLINE
  5
D9
330
1F
100
AcDbEntity
  8
Layer 1
 62
     7
370
    20
100
AcDbPolyline
 90
       41
 70
     1
 43
0.0
 10
213.9684
 20
77.6552
 10
213.9799
 20
77.4666
 10
213.99
 20
77.2682
 10
213.9967
 20
77.0645
 10
213.9979
 20
76.8596
 10
213.9915
 20
76.6579
 10
213.9756
 20
76.4637
 10
213.9481
 20
76.2812
 10
213.907
 20
76.1148
 10
213.6361
 20
76.0022
 10
213.3711
 20
75.9103
 10
213.1115
 20
75.8421
 10
212.8567
 20
75.8002
 10
212.6061
 20
75.7875
 10
212.359
 20
75.8067
 10
212.1149
 20
75.8607
 10
211.8732
 20
75.9522
 10
211.6462
 20
76.0525
 10
211.4808
 20
76.1285
 10
211.3671
 20
76.2046
 10
211.2956
 20
76.3049
 10
211.2565
 20
76.4536
 10
211.2401
 20
76.6752
 10
211.2367
 20
76.9938
 10
211.2366
 20
77.4336
 10
211.2431
 20
77.63
 10
211.2664
 20
77.7698
 10
211.3101
 20
77.8637
 10
211.3781
 20
77.9229
 10
211.4738
 20
77.9582
 10
211.601
 20
77.9806
 10
211.7635
 20
78.001
 10
211.9647
 20
78.0305
 10
212.3525
 20
78.1109
 10
212.5765
 20
78.178
 10
212.6991
 20
78.2203
 10
212.7824
 20
78.2262
 10
212.8888
 20
78.1842
 10
213.0804
 20
78.0827
 10
213.4195
 20
77.9102
 10
213.9684
 20
77.6552
  0
LWPOLYLINE
  5
DA
330
1F
100
AcDbEntity
  8
Layer 1
 62
     7
370
    20
100
AcDbPolyline
 90
       25
 70
     1
 43
0.0
 10
266.4405
 20
96.352
 10
266.4671
 20
94.8776
 10
266.0073
 20
94.7727
 10
265.5948
 20
94.6954
 10
265.222
 20
94.6519
 10
264.8817
 20
94.6486
 10
264.5661
 20
94.6914
 10
264.268
 20
94.7868
 10
263.9797
 20
94.9407
 10
263.6938
 20
95.1596
 10
263.6644
 20
95.33
 10
263.6323
 20
95.5335
 10
263.6012
 20
95.7565
 10
263.5748
 20
95.9851
 10
263.5567
 20
96.2058
 10
263.5508
 20
96.4047
 10
263.5605
 20
96.5683
 10
263.5897
 20
96.6828
 10
265.2747
 20
97.042
 10
265.4372
 20
96.8587
 10
265.5665
 20
96.7268
 10
265.6767
 20
96.6343
 10
265.7822
 20
96.5696
 10
266.0355
 20
96.4762
 10
266.4405
 20
96.352
  0
LWPOLYLINE
  5
DB
330
1F
100
AcDbEntity
  8
Layer 1
 62
     7
370
    20
100
AcDbPolyline
 90
       43
 70
     1
 43
0.0
 10
257.3553
 20
83.6913
 10
257.2497
 20
84.3238
 10
257.2159
 20
84.7659
 10
257.2476
 20
85.0524
 10
257.339
 20
85.2184
 10
257.4841
 20
85.2987
 10
257.6767
 20
85.3283
 10
257.9109
 20
85.3422
 10
258.1807
 20
85.3752
 10
258.3944
 20
85.4307
 10
258.5792
 20
85.4959
 10
258.6715
 20
85.5274
 10
258.7694
 20
85.5558
 10
258.8772
 20
85.579
 10
258.9993
 20
85.5953
 10
259.2263
 20
85.3591
 10
259.3923
 20
85.2149
 10
259.512
 20
85.1392
 10
259.6
 20
85.1086
 10
259.6708
 20
85.0998
 10
259.7392
 20
85.0893
 10
259.8197
 20
85.0538
 10
259.9269
 20
84.9699
 10
259.9901
 20
84.8713
 10
260.0461
 20
84.7107
 10
260.0919
 20
84.5084
 10
260.1246
 20
84.2849
 10
260.141
 20
84.0605
 10
260.1383
 20
83.8556
 10
260.1133
 20
83.6904
 10
260.0632
 20
83.5855
 10
259.9589
 20
83.5108
 10
259.7741
 20
83.4211
 10
259.5255
 20
83.331
 10
259.2302
 20
83.255
 10
258.905
 20
83.2077
 10
258.5669
 20
83.2034
 10
258.2326
 20
83.2569
 10
257.9192
 20
83.3826
 10
257.7746
 20
83.4573
 10
257.6376
 20
83.5229
 10
257.5004
 20
83.5955
 10
257.3553
 20
83.6913
  0
LWPOLYLINE
  5
DC
330
1F
100
AcDbEntity
  8
Layer 1
 62
     7
370
    20
100
AcDbPolyline
 90
       51
 70
     1
 43
0.0
 10
239.4193
 20
99.1376
 10
239.4326
 20
98.9963
 10
239.4392
 20
98.8432
 10
239.4378
 20
98.6831
 10
239.4276
 20
98.5207
 10
239.4075
 20
98.3609
 10
239.3765
 20
98.2083
 10
239.3336
 20
98.0676
 10
239.2777
 20
97.9437
 10
239.1232
 20
97.8807
 10
238.9213
 20
97.8143
 10
238.6867
 20
97.7486
 10
238.4345
 20
97.6874
 10
238.1794
 20
97.6348
 10
237.9364
 20
97.5948
 10
237.7204
 20
97.5713
 10
237.5463
 20
97.5684
 10
237.3997
 20
97.5943
 10
237.2349
 20
97.651
 10
237.0597
 20
97.7307
 10
236.8818
 20
97.8254
 10
236.5481
 20
98.0288
 10
236.2955
 20
98.1983
 10
236.2781
 20
98.4022
 10
236.284
 20
98.5893
 10
236.3097
 20
98.7614
 10
236.3517
 20
98.9201
 10
236.4066
 20
99.0673
 10
236.471
 20
99.2048
 10
236.5414
 20
99.3342
 10
236.6145
 20
99.4573
 10
236.837
 20
99.4881
 10
237.0607
 20
99.5158
 10
237.1699
 20
99.5322
 10
237.2756
 20
99.5522
 10
237.3767
 20
99.5774
 10
237.4718
 20
99.6091
 10
237.7838
 20
99.7294
 10
237.9904
 20
99.8019
 10
238.1221
 20
99.8298
 10
238.2099
 20
99.8163
 10
238.2845
 20
99.7648
 10
238.3765
 20
99.6782
 10
238.5168
 20
99.56
 10
238.7361
 20
99.4133
 10
238.8274
 20
99.3628
 10
238.9128
 20
99.3224
 10
238.9944
 20
99.2893
 10
239.0744
 20
99.2608
 10
239.2376
 20
99.2065
 10
239.4193
 20
99.1376
  0
LWPOLYLINE
  5
DD
330
1F
100
AcDbEntity
  8
Layer 1
 62
     7
370
    20
100
AcDbPolyline
 90
       27
 70
     1
 43
0.0
 10
272.0292
 20
93.7328
 10
272.0545
 20
93.5406
 10
272.0665
 20
93.3526
 10
272.066
 20
93.1692
 10
272.0541
 20
92.9908
 10
272.0316
 20
92.8176
 10
271.9994
 20
92.65
 10
271.9586
 20
92.4885
 10
271.91
 20
92.3333
 10
271.4435
 20
92.215
 10
271.0303
 20
92.1412
 10
270.6594
 20
92.1127
 10
270.3195
 20
92.1304
 10
269.9997
 20
92.1954
 10
269.6888
 20
92.3085
 10
269.3756
 20
92.4707
 10
269.0492
 20
92.6829
 10
269.3511
 20
94.0885
 10
270.92
 20
94.35
 10
271.0643
 20
94.2362
 10
271.1922
 20
94.1391
 10
271.3111
 20
94.0556
 10
271.4284
 20
93.9825
 10
271.5515
 20
93.9168
 10
271.6878
 20
93.8554
 10
271.8445
 20
93.7951
 10
272.0292
 20
93.7328
  0
LWPOLYLINE
  5
DE
330
1F
100
AcDbEntity
  8
Layer 1
 62
     7
370
    20
100
AcDbPolyline
 90
       38
 70
     1
 43
0.0
 10
256.5705
 20
91.2329
 10
256.6644
 20
90.8125
 10
256.6887
 20
90.4883
 10
256.6529
 20
90.2459
 10
256.5665
 20
90.071
 10
256.4387
 20
89.9493
 10
256.2792
 20
89.8666
 10
256.0972
 20
89.8085
 10
255.9023
 20
89.7608
 10
255.6722
 20
89.7079
 10
255.4319
 20
89.6601
 10
255.1888
 20
89.6242
 10
254.9504
 20
89.6073
 10
254.812
 20
89.6187
 10
254.6459
 20
89.6549
 10
254.462
 20
89.7103
 10
254.2701
 20
89.7796
 10
254.0803
 20
89.8575
 10
253.9025
 20
89.9385
 10
253.7466
 20
90.0173
 10
253.6226
 20
90.0884
 10
253.619
 20
90.2218
 10
253.6342
 20
90.3786
 10
253.6628
 20
90.5538
 10
253.6991
 20
90.7425
 10
253.7376
 20
90.9399
 10
253.7727
 20
91.141
 10
253.7988
 20
91.341
 10
253.8105
 20
91.5349
 10
255.5018
 20
91.8309
 10
255.628
 20
91.6785
 10
255.7486
 20
91.5703
 10
255.8674
 20
91.4953
 10
255.9883
 20
91.4425
 10
256.1152
 20
91.4008
 10
256.2519
 20
91.3593
 10
256.4024
 20
91.307
 10
256.5705
 20
91.2329
  0
LWPOLYLINE
  5
DF
330
1F
100
AcDbEntity
  8
Layer 1
 62
     7
370
    20
100
AcDbPolyline
 90
       33
 70
     1
 43
0.0
 10
231.4735
 20
97.8916
 10
231.5011
 20
97.6735
 10
231.5178
 20
97.448
 10
231.5171
 20
97.2231
 10
231.4925
 20
97.0069
 10
231.4375
 20
96.8073
 10
231.3456
 20
96.6326
 10
231.2103
 20
96.4907
 10
231.0251
 20
96.3897
 10
229.7021
 20
96.2396
 10
229.5443
 20
96.2732
 10
229.3806
 20
96.3303
 10
229.2156
 20
96.405
 10
229.0544
 20
96.4918
 10
228.9015
 20
96.5848
 10
228.762
 20
96.6785
 10
228.6406
 20
96.767
 10
228.542
 20
96.8448
 10
228.5349
 20
96.9617
 10
228.5373
 20
97.1132
 10
228.5493
 20
97.287
 10
228.5708
 20
97.4704
 10
228.6019
 20
97.6508
 10
228.6426
 20
97.8157
 10
228.6929
 20
97.9524
 10
228.7528
 20
98.0485
 10
230.2833
 20
98.4621
 10
230.3772
 20
98.4413
 10
230.5174
 20
98.3877
 10
230.6887
 20
98.3105
 10
230.8756
 20
98.2188
 10
231.2352
 20
98.0289
 10
231.4735
 20
97.8916
  0
LWPOLYLINE
  5
E0
330
1F
100
AcDbEntity
  8
Layer 1
 62
     7
370
    20
100
AcDbPolyline
 90
       48
 70
     1
 43
0.0
 10
184.6896
 20
105.6663
 10
184.7038
 20
105.4782
 10
184.7039
 20
105.2595
 10
184.6921
 20
105.021
 10
184.6706
 20
104.7737
 10
184.6418
 20
104.5283
 10
184.6078
 20
104.2959
 10
184.571
 20
104.0872
 10
184.5336
 20
103.9133
 10
184.0778
 20
103.7872
 10
183.7008
 20
103.7047
 10
183.3866
 20
103.6636
 10
183.119
 20
103.6615
 10
182.8821
 20
103.6963
 10
182.6598
 20
103.7657
 10
182.436
 20
103.8674
 10
182.1947
 20
103.9992
 10
182.0086
 20
104.0963
 10
181.869
 20
104.1732
 10
181.8129
 20
104.2181
 10
181.7639
 20
104.2746
 10
181.7205
 20
104.3485
 10
181.6811
 20
104.4452
 10
181.8195
 20
104.5746
 10
181.9747
 20
104.6625
 10
182.144
 20
104.7273
 10
182.3248
 20
104.7873
 10
182.5142
 20
104.8607
 10
182.7096
 20
104.9657
 10
182.9084
 20
105.1207
 10
183.1077
 20
105.3439
 10
183.1829
 20
105.4493
 10
183.2271
 20
105.5249
 10
183.2492
 20
105.5815
 10
183.2577
 20
105.6302
 10
183.2612
 20
105.6817
 10
183.2685
 20
105.747
 10
183.2882
 20
105.8371
 10
183.329
 20
105.9628
 10
183.505
 20
106.2813
 10
183.617
 20
106.2492
 10
183.731
 20
106.1993
 10
183.8512
 20
106.1342
 10
183.9816
 20
106.0563
 10
184.1265
 20
105.9681
 10
184.29
 20
105.872
 10
184.4763
 20
105.7706
 10
184.6896
 20
105.6663
  0
LWPOLYLINE
  5
E1
330
1F
100
AcDbEntity
  8
Layer 1
 62
     7
370
    20
100
AcDbPolyline
 90
       26
 70
     1
 43
0.0
 10
223.614
 20
96.6224
 10
223.6376
 20
95.441
 10
223.1313
 20
95.3108
 10
222.7079
 20
95.22
 10
222.3469
 20
95.1722
 10
222.0278
 20
95.1712
 10
221.7298
 20
95.2207
 10
221.4327
 20
95.3243
 10
221.1157
 20
95.4857
 10
220.7584
 20
95.7086
 10
220.803
 20
95.9922
 10
220.8641
 20
96.3339
 10
220.8995
 20
96.5034
 10
220.9374
 20
96.6597
 10
220.9771
 20
96.7936
 10
221.0181
 20
96.8958
 10
221.3712
 20
96.9576
 10
221.8586
 20
97.055
 10
222.2952
 20
97.1445
 10
222.4957
 20
97.1826
 10
222.5658
 20
97.1595
 10
222.6833
 20
97.1049
 10
222.8343
 20
97.028
 10
223.0054
 20
96.9376
 10
223.3522
 20
96.7528
 10
223.614
 20
96.6224
  0
LWPOLYLINE
  5
E2
330
1F
100
AcDbEntity
  8
Layer 1
 62
     7
370
    20
100
AcDbPolyline
 90
       24
 70
     1
 43
0.0
 10
215.9544
 20
95.3509
 10
215.8891
 20
95.2455
 10
215.8492
 20
95.1257
 10
215.8304
 20
94.9935
 10
215.8286
 20
94.8509
 10
215.8589
 20
94.5435
 10
215.9066
 20
94.2201
 10
215.4777
 20
94.1033
 10
215.0683
 20
94.0163
 10
214.6782
 20
93.9646
 10
214.3074
 20
93.9534
 10
213.9558
 20
93.9879
 10
213.6234
 20
94.0735
 10
213.3101
 20
94.2153
 10
213.0159
 20
94.4187
 10
213.1469
 20
95.6346
 10
213.7604
 20
95.7452
 10
214.1574
 20
95.8311
 10
214.4086
 20
95.8838
 10
214.5849
 20
95.8948
 10
214.7568
 20
95.8555
 10
214.9953
 20
95.7575
 10
215.3709
 20
95.5921
 10
215.9544
 20
95.3509
  0
LWPOLYLINE
  5
E3
330
1F
100
AcDbEntity
  8
Layer 1
 62
     7
370
    20
100
AcDbPolyline
 90
       42
 70
     1
 43
0.0
 10
205.9788
 20
90.4314
 10
205.9869
 20
90.2731
 10
205.987
 20
90.0845
 10
205.9796
 20
89.8759
 10
205.9651
 20
89.6579
 10
205.9441
 20
89.4409
 10
205.9169
 20
89.2354
 10
205.8841
 20
89.052
 10
205.8461
 20
88.9011
 10
205.6474
 20
88.8585
 10
205.4104
 20
88.8148
 10
205.1491
 20
88.774
 10
204.8775
 20
88.74
 10
204.6095
 20
88.7169
 10
204.3589
 20
88.7086
 10
204.1399
 20
88.7191
 10
203.9662
 20
88.7525
 10
203.8293
 20
88.806
 10
203.6721
 20
88.8853
 10
203.505
 20
88.9852
 10
203.3388
 20
89.1004
 10
203.1838
 20
89.2257
 10
203.0507
 20
89.356
 10
202.9501
 20
89.4858
 10
202.8924
 20
89.61
 10
203.0191
 20
89.7533
 10
203.1718
 20
89.864
 10
203.3466
 20
89.9479
 10
203.5394
 20
90.0109
 10
203.7464
 20
90.0591
 10
203.9635
 20
90.0984
 10
204.1868
 20
90.1347
 10
204.4123
 20
90.1739
 10
204.4888
 20
90.5803
 10
204.5678
 20
90.7735
 10
204.7105
 20
90.9816
 10
204.897
 20
90.9615
 10
205.0712
 20
90.914
 10
205.2352
 20
90.8459
 10
205.3913
 20
90.7638
 10
205.6881
 20
90.585
 10
205.9788
 20
90.4314
  0
LWPOLYLINE
  5
E4
330
1F
100
AcDbEntity
  8
Layer 1
 62
     7
370
    20
100
AcDbPolyline
 90
       39
 70
     1
 43
0.0
 10
213.5003
 20
90.1646
 10
213.3249
 20
90.0723
 10
213.105
 20
89.9933
 10
212.8543
 20
89.9305
 10
212.5864
 20
89.8866
 10
212.315
 20
89.8644
 10
212.0537
 20
89.8666
 10
211.8162
 20
89.8961
 10
211.6162
 20
89.9556
 10
211.3368
 20
90.0937
 10
211.093
 20
90.2545
 10
210.9029
 20
90.4298
 10
210.7849
 20
90.6115
 10
210.7573
 20
90.7914
 10
210.8384
 20
90.9615
 10
211.0465
 20
91.1137
 10
211.3998
 20
91.2397
 10
211.8714
 20
91.3588
 10
211.9316
 20
91.5492
 10
212.0897
 20
91.8315
 10
212.2649
 20
92.0022
 10
212.4492
 20
92.0822
 10
212.6346
 20
92.0928
 10
212.813
 20
92.0547
 10
212.9762
 20
91.9892
 10
213.1164
 20
91.9173
 10
213.2254
 20
91.8599
 10
213.4694
 20
91.728
 10
213.621
 20
91.6082
 10
213.6978
 20
91.4925
 10
213.7172
 20
91.3731
 10
213.6535
 20
91.0915
 10
213.5696
 20
90.7003
 10
213.5639
 20
90.5098
 10
213.5759
 20
90.4155
 10
213.5765
 20
90.377
 10
213.5673
 20
90.3297
 10
213.5435
 20
90.2625
 10
213.5003
 20
90.1646
  0
LWPOLYLINE
  5
E5
330
1F
100
AcDbEntity
  8
Layer 1
 62
     7
370
    20
100
AcDbPolyline
 90
       42
 70
     1
 43
0.0
 10
190.7673
 20
88.0751
 10
190.7908
 20
87.8929
 10
190.7937
 20
87.7072
 10
190.7792
 20
87.5192
 10
190.7505
 20
87.3302
 10
190.7106
 20
87.1413
 10
190.6627
 20
86.9538
 10
190.6099
 20
86.7689
 10
190.5553
 20
86.5879
 10
190.3406
 20
86.5144
 10
190.095
 20
86.4445
 10
189.8294
 20
86.3843
 10
189.5546
 20
86.3395
 10
189.2815
 20
86.316
 10
189.021
 20
86.3195
 10
188.784
 20
86.3561
 10
188.5812
 20
86.4314
 10
188.1884
 20
86.6614
 10
187.94
 20
86.8536
 10
187.8105
 20
87.0153
 10
187.7746
 20
87.1541
 10
187.8067
 20
87.2774
 10
187.8815
 20
87.3925
 10
187.9734
 20
87.507
 10
188.057
 20
87.6283
 10
188.0983
 20
87.6175
 10
188.1929
 20
87.5947
 10
188.3275
 20
87.5712
 10
188.4891
 20
87.5585
 10
188.6644
 20
87.5682
 10
188.8403
 20
87.6115
 10
189.0035
 20
87.7001
 10
189.141
 20
87.8453
 10
189.1922
 20
87.9524
 10
189.2196
 20
88.0452
 10
189.2331
 20
88.1296
 10
189.2431
 20
88.2117
 10
189.2595
 20
88.2974
 10
189.2926
 20
88.3928
 10
189.3524
 20
88.5038
 10
189.4492
 20
88.6364
 10
190.7673
 20
88.0751
  0
LWPOLYLINE
  5
E6
330
1F
100
AcDbEntity
  8
Layer 1
 62
     7
370
    20
100
AcDbPolyline
 90
       38
 70
     1
 43
0.0
 10
244.8606
 20
96.5495
 10
244.9943
 20
95.7069
 10
244.8417
 20
95.6124
 10
244.6497
 20
95.5257
 10
244.4292
 20
95.4482
 10
244.1913
 20
95.3813
 10
243.9466
 20
95.3263
 10
243.7063
 20
95.2846
 10
243.4811
 20
95.2575
 10
243.282
 20
95.2464
 10
243.0972
 20
95.2611
 10
242.914
 20
95.3063
 10
242.734
 20
95.375
 10
242.5588
 20
95.4604
 10
242.2286
 20
95.6533
 10
241.9359
 20
95.83
 10
241.9269
 20
96.1104
 10
241.9456
 20
96.3412
 10
242.0001
 20
96.5294
 10
242.0987
 20
96.6821
 10
242.2494
 20
96.8062
 10
242.4605
 20
96.9088
 10
242.7401
 20
96.9969
 10
243.0963
 20
97.0774
 10
243.2744
 20
97.1109
 10
243.4179
 20
97.1318
 10
243.5353
 20
97.1391
 10
243.6352
 20
97.1318
 10
243.7258
 20
97.1087
 10
243.8158
 20
97.069
 10
243.9136
 20
97.0115
 10
244.0275
 20
96.9353
 10
244.2179
 20
96.8091
 10
244.3581
 20
96.7262
 10
244.461
 20
96.6759
 10
244.5392
 20
96.6479
 10
244.6726
 20
96.6169
 10
244.8606
 20
96.5495
  0
LWPOLYLINE
  5
E7
330
1F
100
AcDbEntity
  8
Layer 1
 62
     7
370
    20
100
AcDbPolyline
 90
       47
 70
     1
 43
0.0
 10
252.6556
 20
97.9166
 10
252.6703
 20
96.8322
 10
252.4782
 20
96.7902
 10
252.2533
 20
96.738
 10
252.0068
 20
96.6819
 10
251.7497
 20
96.6283
 10
251.4931
 20
96.5836
 10
251.2481
 20
96.5543
 10
251.0256
 20
96.5466
 10
250.8369
 20
96.5669
 10
250.7188
 20
96.6076
 10
250.5673
 20
96.6817
 10
250.3952
 20
96.7808
 10
250.2149
 20
96.8964
 10
250.0391
 20
97.0202
 10
249.8803
 20
97.1435
 10
249.7511
 20
97.258
 10
249.6642
 20
97.3552
 10
249.6829
 20
97.4619
 10
249.7006
 20
97.5426
 10
249.7198
 20
97.603
 10
249.743
 20
97.6491
 10
249.7726
 20
97.6863
 10
249.8111
 20
97.7205
 10
249.8611
 20
97.7574
 10
249.925
 20
97.8028
 10
250.5025
 20
98.0268
 10
250.6182
 20
98.0287
 10
250.6842
 20
98.0181
 10
250.7183
 20
98.0033
 10
250.738
 20
97.9924
 10
250.7611
 20
97.9937
 10
250.8053
 20
98.0155
 10
250.8883
 20
98.066
 10
251.0278
 20
98.1533
 10
251.1803
 20
98.2523
 10
251.2982
 20
98.3272
 10
251.4271
 20
98.3923
 10
251.6129
 20
98.4618
 10
251.7607
 20
98.3035
 10
251.877
 20
98.1988
 10
251.9752
 20
98.1337
 10
252.0685
 20
98.0944
 10
252.1699
 20
98.067
 10
252.2928
 20
98.0375
 10
252.4503
 20
97.992
 10
252.6556
 20
97.9166
  0
LWPOLYLINE
  5
E8
330
1F
100
AcDbEntity
  8
Layer 1
 62
     7
370
    20
100
AcDbPolyline
 90
       33
 70
     1
 43
0.0
 10
221.2808
 20
92.8596
 10
221.3099
 20
92.6578
 10
221.3211
 20
92.4857
 10
221.3162
 20
92.3344
 10
221.2968
 20
92.1952
 10
221.2216
 20
91.9175
 10
221.1092
 20
91.5821
 10
221.0324
 20
91.3652
 10
220.8484
 20
91.2718
 10
220.5384
 20
91.201
 10
220.1436
 20
91.1653
 10
219.7053
 20
91.1767
 10
219.2647
 20
91.2475
 10
218.8631
 20
91.3899
 10
218.5419
 20
91.6161
 10
218.3421
 20
91.9384
 10
218.6301
 20
92.0321
 10
218.8759
 20
92.08
 10
219.0886
 20
92.1027
 10
219.2774
 20
92.1207
 10
219.4517
 20
92.1545
 10
219.6206
 20
92.2247
 10
219.7934
 20
92.3519
 10
219.9793
 20
92.5565
 10
219.575
 20
92.8715
 10
219.7928
 20
93.1103
 10
219.9893
 20
93.2436
 10
220.1746
 20
93.2898
 10
220.3585
 20
93.2673
 10
220.5511
 20
93.1946
 10
220.7624
 20
93.0901
 10
221.0023
 20
92.9723
 10
221.2808
 20
92.8596
  0
LWPOLYLINE
  5
E9
330
1F
100
AcDbEntity
  8
Layer 1
 62
     7
370
    20
100
AcDbPolyline
 90
       51
 70
     1
 43
0.0
 10
260.3499
 20
99.0764
 10
260.3521
 20
98.9181
 10
260.349
 20
98.7477
 10
260.3372
 20
98.5724
 10
260.3136
 20
98.399
 10
260.2748
 20
98.2346
 10
260.2175
 20
98.0861
 10
260.1386
 20
97.9604
 10
260.0347
 20
97.8646
 10
259.8643
 20
97.7996
 10
259.6574
 20
97.7434
 10
259.4256
 20
97.6985
 10
259.1801
 20
97.6672
 10
258.9325
 20
97.652
 10
258.6943
 20
97.6551
 10
258.4768
 20
97.6792
 10
258.2915
 20
97.7264
 10
258.1335
 20
97.7954
 10
257.9659
 20
97.8903
 10
257.7964
 20
98.0063
 10
257.6326
 20
98.1385
 10
257.4823
 20
98.282
 10
257.353
 20
98.432
 10
257.2525
 20
98.5835
 10
257.1884
 20
98.7317
 10
257.7965
 20
98.8047
 10
258.2012
 20
98.845
 10
258.4505
 20
98.8701
 10
258.5927
 20
98.8977
 10
258.6756
 20
98.9455
 10
258.7474
 20
99.0311
 10
258.8562
 20
99.1723
 10
259.0499
 20
99.3865
 10
259.1147
 20
99.4621
 10
259.1369
 20
99.4972
 10
259.1768
 20
99.5283
 10
259.2947
 20
99.5919
 10
259.4491
 20
99.5305
 10
259.5452
 20
99.4824
 10
259.5979
 20
99.4433
 10
259.6223
 20
99.4089
 10
259.6332
 20
99.375
 10
259.6457
 20
99.3374
 10
259.6748
 20
99.2919
 10
259.7354
 20
99.2341
 10
259.7944
 20
99.1955
 10
259.8597
 20
99.1674
 10
259.9307
 20
99.1471
 10
260.0067
 20
99.1323
 10
260.1717
 20
99.1087
 10
260.3499
 20
99.0764
  0
LWPOLYLINE
  5
EA
330
1F
100
AcDbEntity
  8
Layer 1
 62
     7
370
    20
100
AcDbPolyline
 90
       33
 70
     1
 43
0.0
 10
229.9381
 20
93.5407
 10
229.9657
 20
93.3226
 10
229.9824
 20
93.0971
 10
229.9817
 20
92.8722
 10
229.9571
 20
92.656
 10
229.9021
 20
92.4564
 10
229.8102
 20
92.2817
 10
229.6749
 20
92.1398
 10
229.4897
 20
92.0388
 10
228.1668
 20
91.8887
 10
228.009
 20
91.9223
 10
227.8452
 20
91.9794
 10
227.6803
 20
92.0541
 10
227.519
 20
92.1409
 10
227.3662
 20
92.2339
 10
227.2267
 20
92.3276
 10
227.1052
 20
92.4161
 10
227.0067
 20
92.4939
 10
226.9995
 20
92.6107
 10
227.0019
 20
92.7623
 10
227.0139
 20
92.9361
 10
227.0354
 20
93.1195
 10
227.0665
 20
93.2999
 10
227.1072
 20
93.4647
 10
227.1575
 20
93.6015
 10
227.2174
 20
93.6976
 10
228.7479
 20
94.1112
 10
228.8418
 20
94.0904
 10
228.982
 20
94.0368
 10
229.1533
 20
93.9596
 10
229.3402
 20
93.8679
 10
229.6998
 20
93.678
 10
229.9381
 20
93.5407
  0
LWPOLYLINE
  5
EB
330
1F
100
AcDbEntity
  8
Layer 1
 62
     7
370
    20
100
AcDbPolyline
 90
       28
 70
     1
 43
0.0
 10
237.6169
 20
93.4876
 10
237.1889
 20
93.3829
 10
236.7992
 20
93.309
 10
236.4426
 20
93.2705
 10
236.1136
 20
93.2718
 10
235.8068
 20
93.3176
 10
235.5168
 20
93.4122
 10
235.2382
 20
93.5602
 10
234.9657
 20
93.7661
 10
234.9401
 20
95.3146
 10
235.2234
 20
95.3913
 10
235.5349
 20
95.4547
 10
235.8392
 20
95.5098
 10
236.101
 20
95.5617
 10
236.311
 20
95.6043
 10
236.4698
 20
95.6243
 10
236.5917
 20
95.6233
 10
236.691
 20
95.6029
 10
236.8787
 20
95.5106
 10
237.1471
 20
95.3609
 10
237.3255
 20
95.275
 10
237.4777
 20
95.1929
 10
237.5997
 20
95.0914
 10
237.6874
 20
94.9476
 10
237.737
 20
94.7383
 10
237.7445
 20
94.4406
 10
237.7057
 20
94.0314
 10
237.6169
 20
93.4876
  0
LWPOLYLINE
  5
EC
330
1F
100
AcDbEntity
  8
Layer 1
 62
     7
370
    20
100
AcDbPolyline
 90
        9
 70
     0
 43
0.0
 10
230.5708
 20
141.4535
 10
230.1215
 20
141.5493
 10
228.8968
 20
141.7781
 10
227.081
 20
142.0518
 10
224.8588
 20
142.2822
 10
222.4145
 20
142.3812
 10
219.9328
 20
142.2608
 10
217.598
 20
141.8329
 10
215.5947
 20
141.0093
  0
LWPOLYLINE
  5
ED
330
1F
100
AcDbEntity
  8
Layer 1
 62
     7
370
    20
100
AcDbPolyline
 90
        9
 70
     0
 43
0.0
 10
229.9812
 20
140.4587
 10
229.4686
 20
140.4309
 10
228.0788
 20
140.3543
 10
226.0336
 20
140.2392
 10
223.5552
 20
140.0958
 10
220.8653
 20
139.9343
 10
218.186
 20
139.765
 10
215.7392
 20
139.598
 10
213.7468
 20
139.4436
  0
LWPOLYLINE
  5
EE
330
1F
100
AcDbEntity
  8
Layer 1
 62
     7
370
     9
100
AcDbPolyline
 90
        2
 70
     0
 43
0.0
 10
302.6267
 20
81.8683
 10
300.2515
 20
59.4645
  0
LWPOLYLINE
  5
EF
330
1F
100
AcDbEntity
  8
Layer 1
 62
     7
370
     9
100
AcDbPolyline
 90
       87
 70
     1
 43
0.0
 10
228.3118
 20
41.0107
 10
236.9052
 20
41.6438
 10
236.8122
 20
42.8956
 10
231.2503
 20
42.4861
 10
235.1908
 20
47.001
 10
235.4459
 20
47.3241
 10
235.663
 20
47.6595
 10
235.8418
 20
48.0073
 10
235.9826
 20
48.3674
 10
236.0851
 20
48.7399
 10
236.1495
 20
49.1247
 10
236.1758
 20
49.5219
 10
236.1638
 20
49.9315
 10
236.1139
 20
50.3476
 10
236.0274
 20
50.744
 10
235.9043
 20
51.1209
 10
235.7446
 20
51.4782
 10
235.5483
 20
51.8159
 10
235.3154
 20
52.1341
 10
235.0459
 20
52.4327
 10
234.7399
 20
52.7118
 10
234.4038
 20
52.9674
 10
234.0564
 20
53.1848
 10
233.6979
 20
53.3639
 10
233.3281
 20
53.5048
 10
232.947
 20
53.6074
 10
232.5547
 20
53.6719
 10
232.151
 20
53.6982
 10
231.736
 20
53.6862
 10
231.3082
 20
53.6351
 10
230.8993
 20
53.546
 10
230.5092
 20
53.4189
 10
230.1381
 20
53.2538
 10
229.7858
 20
53.0508
 10
229.4523
 20
52.8097
 10
229.1377
 20
52.5307
 10
228.8418
 20
52.2137
 10
228.5826
 20
51.8777
 10
228.3646
 20
51.528
 10
228.188
 20
51.1646
 10
228.0526
 20
50.7877
 10
227.9586
 20
50.3972
 10
227.9058
 20
49.9931
 10
227.8943
 20
49.5755
 10
227.924
 20
49.1444
 10
229.1976
 20
49.2381
 10
229.1664
 20
49.5169
 10
229.1659
 20
49.7915
 10
229.1961
 20
50.0619
 10
229.257
 20
50.328
 10
229.3487
 20
50.5898
 10
229.4711
 20
50.8475
 10
229.6243
 20
51.101
 10
229.8083
 20
51.3503
 10
230.008
 20
51.5758
 10
230.2209
 20
51.7741
 10
230.4472
 20
51.9453
 10
230.6867
 20
52.0894
 10
230.9395
 20
52.2063
 10
231.2055
 20
52.2961
 10
231.4848
 20
52.3589
 10
231.7774
 20
52.3945
 10
232.0669
 20
52.4033
 10
232.3472
 20
52.386
 10
232.6184
 20
52.3428
 10
232.8805
 20
52.2737
 10
233.1334
 20
52.1785
 10
233.3774
 20
52.0574
 10
233.6122
 20
51.9103
 10
233.8381
 20
51.7373
 10
234.049
 20
51.5434
 10
234.2347
 20
51.3376
 10
234.395
 20
51.1197
 10
234.5301
 20
50.8898
 10
234.6398
 20
50.6478
 10
234.7242
 20
50.3938
 10
234.7832
 20
50.1277
 10
234.8169
 20
49.8495
 10
234.8254
 20
49.5636
 10
234.8078
 20
49.2871
 10
234.7641
 20
49.0199
 10
234.6945
 20
48.762
 10
234.5989
 20
48.5134
 10
234.4772
 20
48.2742
 10
234.3297
 20
48.0443
 10
234.1561
 20
47.8237
 10
228.3118
 20
41.0107
  0
LWPOLYLINE
  5
F0
330
1F
100
AcDbEntity
  8
Layer 1
 62
     7
370
     9
100
AcDbPolyline
 90
       95
 70
     1
 43
0.0
 10
243.419
 20
52.9289
 10
243.6365
 20
52.804
 10
243.8413
 20
52.659
 10
244.0336
 20
52.494
 10
244.2132
 20
52.309
 10
244.3803
 20
52.1038
 10
244.5349
 20
51.8786
 10
244.677
 20
51.6332
 10
244.8066
 20
51.3677
 10
244.9553
 20
51.0143
 10
245.0881
 20
50.6543
 10
245.2052
 20
50.2878
 10
245.3064
 20
49.9148
 10
245.3918
 20
49.5352
 10
245.4614
 20
49.1491
 10
245.5151
 20
48.7565
 10
245.553
 20
48.3573
 10
245.5646
 20
47.4686
 10
245.538
 20
46.9834
 10
245.4904
 20
46.5234
 10
245.4218
 20
46.0884
 10
245.3321
 20
45.6786
 10
245.2214
 20
45.2939
 10
245.0896
 20
44.9343
 10
244.9368
 20
44.5998
 10
244.763
 20
44.2905
 10
244.6008
 20
44.0552
 10
244.427
 20
43.8488
 10
244.2414
 20
43.6714
 10
244.0441
 20
43.5228
 10
243.8352
 20
43.4032
 10
243.6145
 20
43.3125
 10
243.3821
 20
43.2508
 10
243.138
 20
43.218
 10
242.8631
 20
43.2124
 10
242.5991
 20
43.2372
 10
242.3463
 20
43.2922
 10
242.1044
 20
43.3776
 10
241.8736
 20
43.4932
 10
241.6538
 20
43.6391
 10
241.445
 20
43.8153
 10
241.2472
 20
44.0218
 10
241.0809
 20
44.2277
 10
240.927
 20
44.4478
 10
240.7857
 20
44.6824
 10
240.6569
 20
44.9316
 10
240.5403
 20
45.1901
 10
240.4358
 20
45.4528
 10
240.3432
 20
45.7195
 10
240.2626
 20
45.9903
 10
240.1921
 20
46.2613
 10
240.1299
 20
46.5288
 10
240.0759
 20
46.7925
 10
240.0303
 20
47.0525
 10
239.8967
 20
48.2433
 10
239.8869
 20
48.4174
 10
239.8825
 20
48.602
 10
239.8836
 20
48.7971
 10
239.8901
 20
49.0029
 10
239.902
 20
49.2193
 10
239.9193
 20
49.4465
 10
239.9419
 20
49.6843
 10
239.97
 20
49.933
 10
240.0093
 20
50.2095
 10
240.0597
 20
50.4857
 10
240.1215
 20
50.7617
 10
240.1951
 20
51.0374
 10
240.2814
 20
51.3067
 10
240.3834
 20
51.5635
 10
240.5011
 20
51.808
 10
240.6344
 20
52.0401
 10
240.7071
 20
52.1508
 10
240.7841
 20
52.2565
 10
240.8653
 20
52.357
 10
240.9509
 20
52.4526
 10
241.0408
 20
52.543
 10
241.135
 20
52.6285
 10
241.2336
 20
52.7089
 10
241.3365
 20
52.7844
 10
241.4444
 20
52.8535
 10
241.558
 20
52.9148
 10
241.6773
 20
52.9684
 10
241.8022
 20
53.0143
 10
241.9327
 20
53.0524
 10
242.0689
 20
53.0829
 10
242.2107
 20
53.1056
 10
242.3582
 20
53.1206
 10
242.5063
 20
53.1273
 10
242.6498
 20
53.1252
 10
242.789
 20
53.1143
 10
242.9237
 20
53.0947
 10
243.054
 20
53.0663
 10
243.18
 20
53.0292
 10
243.3017
 20
52.9834
 10
243.419
 20
52.9289
  0
LWPOLYLINE
  5
F1
330
1F
100
AcDbEntity
  8
Layer 1
 62
     7
370
     9
100
AcDbPolyline
 90
       65
 70
     1
 43
0.0
 10
243.2498
 20
41.9495
 10
243.7714
 20
42.0213
 10
244.2546
 20
42.1569
 10
244.6994
 20
42.3561
 10
245.106
 20
42.6191
 10
245.4742
 20
42.9458
 10
245.8042
 20
43.3362
 10
246.096
 20
43.7905
 10
246.3495
 20
44.3086
 10
246.5211
 20
44.7567
 10
246.6637
 20
45.227
 10
246.7775
 20
45.7194
 10
246.8623
 20
46.2339
 10
246.9181
 20
46.7704
 10
246.9449
 20
47.329
 10
246.9427
 20
47.9095
 10
246.9115
 20
48.512
 10
246.8534
 20
49.1125
 10
246.7698
 20
49.6869
 10
246.6609
 20
50.2354
 10
246.5265
 20
50.7578
 10
246.3668
 20
51.2543
 10
246.1817
 20
51.7247
 10
245.9711
 20
52.1692
 10
245.7352
 20
52.5876
 10
245.4081
 20
53.0625
 10
245.0526
 20
53.4689
 10
244.6686
 20
53.8068
 10
244.2561
 20
54.076
 10
243.8151
 20
54.2766
 10
243.3456
 20
54.4085
 10
242.8476
 20
54.4716
 10
242.3211
 20
54.466
 10
241.7997
 20
54.3943
 10
241.3167
 20
54.2588
 10
240.8718
 20
54.0596
 10
240.4653
 20
53.7965
 10
240.0971
 20
53.4698
 10
239.7671
 20
53.0794
 10
239.4754
 20
52.6253
 10
239.2221
 20
52.1076
 10
239.0504
 20
51.6591
 10
238.9076
 20
51.1886
 10
238.7938
 20
50.6962
 10
238.709
 20
50.1818
 10
238.6532
 20
49.6453
 10
238.6263
 20
49.0868
 10
238.6284
 20
48.5062
 10
238.6594
 20
47.9035
 10
238.7176
 20
47.303
 10
238.8013
 20
46.7286
 10
238.9103
 20
46.1802
 10
239.0448
 20
45.6578
 10
239.2047
 20
45.1614
 10
239.3899
 20
44.6911
 10
239.6005
 20
44.2469
 10
239.8364
 20
43.8287
 10
240.1635
 20
43.3533
 10
240.519
 20
42.9467
 10
240.903
 20
42.6088
 10
241.3155
 20
42.3396
 10
241.7564
 20
42.1391
 10
242.2257
 20
42.0073
 10
242.7235
 20
41.9441
 10
243.2498
 20
41.9495
  0
LWPOLYLINE
  5
F2
330
1F
100
AcDbEntity
  8
Layer 1
 62
     7
370
     9
100
AcDbPolyline
 90
      137
 70
     1
 43
0.0
 10
254.6474
 20
43.0859
 10
254.8246
 20
43.1813
 10
254.9958
 20
43.2836
 10
255.1608
 20
43.3926
 10
255.3198
 20
43.5086
 10
255.4726
 20
43.6313
 10
255.6192
 20
43.7609
 10
255.7598
 20
43.8974
 10
255.8941
 20
44.0407
 10
256.1556
 20
44.3619
 10
256.3779
 20
44.6969
 10
256.5613
 20
45.0459
 10
256.7055
 20
45.4088
 10
256.8107
 20
45.7857
 10
256.8768
 20
46.1766
 10
256.9038
 20
46.5814
 10
256.8918
 20
47.0003
 10
256.8416
 20
47.4166
 10
256.7542
 20
47.8139
 10
256.6297
 20
48.1921
 10
256.4679
 20
48.5512
 10
256.2689
 20
48.8913
 10
256.0327
 20
49.2123
 10
255.7591
 20
49.5143
 10
255.4483
 20
49.7972
 10
255.1312
 20
50.0379
 10
254.7973
 20
50.2458
 10
254.4466
 20
50.421
 10
254.0792
 20
50.5636
 10
253.6951
 20
50.6734
 10
253.2942
 20
50.7507
 10
252.8766
 20
50.7952
 10
252.4422
 20
50.8072
 10
251.9281
 20
50.4456
 10
255.4149
 20
55.2328
 10
248.8488
 20
54.7492
 10
248.9417
 20
53.4981
 10
252.9607
 20
53.7944
 10
249.5828
 20
49.2301
 10
250.5907
 20
48.5316
 10
250.7961
 20
48.7489
 10
251.0135
 20
48.9402
 10
251.2431
 20
49.1054
 10
251.4848
 20
49.2445
 10
251.7385
 20
49.3575
 10
252.0043
 20
49.4445
 10
252.2822
 20
49.5054
 10
252.5722
 20
49.5402
 10
252.8637
 20
49.5486
 10
253.1462
 20
49.5302
 10
253.4197
 20
49.4851
 10
253.6842
 20
49.4132
 10
253.9398
 20
49.3145
 10
254.1863
 20
49.189
 10
254.4239
 20
49.0367
 10
254.6525
 20
48.8576
 10
254.8637
 20
48.659
 10
255.0497
 20
48.4481
 10
255.2105
 20
48.2249
 10
255.346
 20
47.9895
 10
255.4562
 20
47.7417
 10
255.5411
 20
47.4817
 10
255.6007
 20
47.2094
 10
255.6349
 20
46.9247
 10
255.6422
 20
46.6448
 10
255.6222
 20
46.3723
 10
255.5749
 20
46.1075
 10
255.5003
 20
45.8501
 10
255.3983
 20
45.6002
 10
255.269
 20
45.3578
 10
255.1124
 20
45.1228
 10
254.9284
 20
44.8953
 10
254.8365
 20
44.7965
 10
254.7401
 20
44.7022
 10
254.6392
 20
44.6124
 10
254.5337
 20
44.5271
 10
254.4237
 20
44.4462
 10
254.3091
 20
44.3698
 10
254.1901
 20
44.2978
 10
254.0665
 20
44.2302
 10
253.937
 20
44.1678
 10
253.8003
 20
44.112
 10
253.6562
 20
44.0627
 10
253.5048
 20
44.0199
 10
253.3462
 20
43.9836
 10
253.1804
 20
43.9538
 10
253.0073
 20
43.9304
 10
252.8271
 20
43.9136
 10
252.6429
 20
43.9077
 10
252.4575
 20
43.9172
 10
252.2708
 20
43.9422
 10
252.0829
 20
43.9825
 10
251.8938
 20
44.0381
 10
251.7036
 20
44.1091
 10
251.5122
 20
44.1954
 10
251.3197
 20
44.297
 10
251.133
 20
44.4124
 10
250.9589
 20
44.5396
 10
250.7975
 20
44.6787
 10
250.6487
 20
44.8297
 10
250.5125
 20
44.9925
 10
250.389
 20
45.1672
 10
250.278
 20
45.3539
 10
250.1797
 20
45.5524
 10
248.9904
 20
45.0514
 10
249.1281
 20
44.7684
 10
249.2857
 20
44.5009
 10
249.4633
 20
44.2491
 10
249.6608
 20
44.0128
 10
249.8784
 20
43.792
 10
250.1159
 20
43.5869
 10
250.3734
 20
43.3972
 10
250.6509
 20
43.2231
 10
250.7865
 20
43.148
 10
250.9249
 20
43.0777
 10
251.0661
 20
43.0124
 10
251.21
 20
42.9521
 10
251.3566
 20
42.8967
 10
251.506
 20
42.8463
 10
251.658
 20
42.801
 10
251.8127
 20
42.7606
 10
251.9706
 20
42.7259
 10
252.1323
 20
42.6977
 10
252.2977
 20
42.6759
 10
252.4669
 20
42.6605
 10
252.6399
 20
42.6515
 10
252.8168
 20
42.649
 10
252.9975
 20
42.6529
 10
253.1821
 20
42.6633
 10
253.3677
 20
42.682
 10
253.5527
 20
42.7105
 10
253.7369
 20
42.7488
 10
253.9205
 20
42.7967
 10
254.1033
 20
42.8544
 10
254.2854
 20
42.9218
 10
254.4668
 20
42.999
 10
254.6474
 20
43.0859
  0
LWPOLYLINE
  5
F3
330
1F
100
AcDbEntity
  8
Layer 1
 62
     7
370
     9
100
AcDbPolyline
 90
      162
 70
     1
 43
0.0
 10
273.7888
 20
44.3972
 10
275.045
 20
44.4901
 10
274.6798
 20
49.4073
 10
274.6453
 20
49.733
 10
274.5916
 20
50.0418
 10
274.5185
 20
50.3339
 10
274.4261
 20
50.6091
 10
274.3144
 20
50.8674
 10
274.1834
 20
51.1089
 10
274.0331
 20
51.3335
 10
273.8636
 20
51.5413
 10
273.77
 20
51.6395
 10
273.6715
 20
51.7319
 10
273.5682
 20
51.8187
 10
273.46
 20
51.8997
 10
273.347
 20
51.9751
 10
273.229
 20
52.0448
 10
273.1062
 20
52.1088
 10
272.9785
 20
52.1672
 10
272.8433
 20
52.2185
 10
272.6986
 20
52.261
 10
272.5444
 20
52.2945
 10
272.3806
 20
52.3192
 10
272.2074
 20
52.335
 10
272.0247
 20
52.3419
 10
271.8325
 20
52.3399
 10
271.6309
 20
52.3291
 10
271.4283
 20
52.3071
 10
271.2332
 20
52.2716
 10
271.0456
 20
52.2227
 10
270.8656
 20
52.1603
 10
270.693
 20
52.0844
 10
270.5279
 20
51.995
 10
270.3702
 20
51.8921
 10
270.22
 20
51.7758
 10
270.0905
 20
51.6613
 10
269.9679
 20
51.5394
 10
269.852
 20
51.4103
 10
269.7429
 20
51.274
 10
269.6406
 20
51.1305
 10
269.545
 20
50.9801
 10
269.4562
 20
50.8226
 10
269.3741
 20
50.6583
 10
269.29
 20
50.7983
 10
269.1998
 20
50.9327
 10
269.1035
 20
51.061
 10
269.0009
 20
51.1826
 10
268.9077
 20
51.281
 10
268.8095
 20
51.3736
 10
268.7063
 20
51.4605
 10
268.5981
 20
51.5417
 10
268.4849
 20
51.6171
 10
268.3668
 20
51.6868
 10
268.2438
 20
51.7508
 10
268.1158
 20
51.8092
 10
267.9806
 20
51.8603
 10
267.836
 20
51.9026
 10
267.682
 20
51.936
 10
267.5184
 20
51.9606
 10
267.3454
 20
51.9763
 10
267.1629
 20
51.9832
 10
266.971
 20
51.9812
 10
266.7696
 20
51.9704
 10
266.5667
 20
51.9484
 10
266.3715
 20
51.9129
 10
266.1838
 20
51.864
 10
266.0037
 20
51.8016
 10
265.831
 20
51.7257
 10
265.6659
 20
51.6363
 10
265.5083
 20
51.5334
 10
265.3581
 20
51.4171
 10
265.2348
 20
51.308
 10
265.1177
 20
51.1926
 10
265.0066
 20
51.0708
 10
264.9017
 20
50.9426
 10
264.8028
 20
50.808
 10
264.71
 20
50.667
 10
264.6233
 20
50.5196
 10
264.5427
 20
50.3657
 10
264.4497
 20
51.6197
 10
263.1943
 20
51.5275
 10
263.7774
 20
43.6595
 10
265.0335
 20
43.7524
 10
264.7344
 20
47.7786
 10
264.7463
 20
48.0153
 10
264.7677
 20
48.2435
 10
264.7988
 20
48.4633
 10
264.8396
 20
48.6747
 10
264.8899
 20
48.8779
 10
264.9499
 20
49.0728
 10
265.0196
 20
49.2597
 10
265.0989
 20
49.4385
 10
265.1648
 20
49.5664
 10
265.2372
 20
49.6891
 10
265.3162
 20
49.8068
 10
265.4017
 20
49.9193
 10
265.4937
 20
50.0266
 10
265.5923
 20
50.1288
 10
265.6974
 20
50.2259
 10
265.809
 20
50.3178
 10
265.9257
 20
50.4024
 10
266.0453
 20
50.4771
 10
266.1679
 20
50.5418
 10
266.2936
 20
50.5966
 10
266.4221
 20
50.6415
 10
266.5536
 20
50.6764
 10
266.6881
 20
50.7014
 10
266.8255
 20
50.7164
 10
266.9606
 20
50.7238
 10
267.0869
 20
50.7251
 10
267.2046
 20
50.7205
 10
267.3137
 20
50.7099
 10
267.414
 20
50.6933
 10
267.5058
 20
50.6707
 10
267.5889
 20
50.6421
 10
267.6635
 20
50.6075
 10
267.8543
 20
50.4876
 10
268.0227
 20
50.3429
 10
268.1688
 20
50.1735
 10
268.2924
 20
49.9794
 10
268.3935
 20
49.7606
 10
268.4723
 20
49.5171
 10
268.5286
 20
49.2491
 10
268.5624
 20
48.9564
 10
268.9269
 20
44.0392
 10
270.1823
 20
44.1314
 10
269.8178
 20
49.0493
 10
269.7866
 20
49.3499
 10
269.9608
 20
49.7965
 10
270.0265
 20
49.9244
 10
270.0987
 20
50.0471
 10
270.1776
 20
50.1648
 10
270.2632
 20
50.2773
 10
270.3553
 20
50.3846
 10
270.4541
 20
50.4868
 10
270.5596
 20
50.5839
 10
270.6717
 20
50.6758
 10
270.7881
 20
50.7604
 10
270.9076
 20
50.8351
 10
271.0302
 20
50.8998
 10
271.1557
 20
50.9547
 10
271.2843
 20
50.9996
 10
271.4159
 20
51.0347
 10
271.5506
 20
51.0598
 10
271.6882
 20
51.0751
 10
271.8228
 20
51.0823
 10
271.9489
 20
51.0835
 10
272.0665
 20
51.0788
 10
272.1755
 20
51.0682
 10
272.276
 20
51.0516
 10
272.3679
 20
51.029
 10
272.4513
 20
51.0003
 10
272.5261
 20
50.9655
 10
272.7167
 20
50.8458
 10
272.885
 20
50.7013
 10
273.0309
 20
50.532
 10
273.1544
 20
50.338
 10
273.2555
 20
50.1192
 10
273.3342
 20
49.8758
 10
273.3905
 20
49.6078
 10
273.4243
 20
49.3151
 10
273.7888
 20
44.3972
  0
LWPOLYLINE
  5
F4
330
1F
100
AcDbEntity
  8
Layer 1
 62
     7
370
     9
100
AcDbPolyline
 90
      162
 70
     1
 43
0.0
 10
287.4787
 20
45.4065
 10
288.7341
 20
45.4987
 10
288.3689
 20
50.4166
 10
288.3345
 20
50.7421
 10
288.2808
 20
51.0508
 10
288.2078
 20
51.3428
 10
288.1155
 20
51.618
 10
288.0039
 20
51.8763
 10
287.8729
 20
52.1178
 10
287.7225
 20
52.3423
 10
287.5528
 20
52.5498
 10
287.4592
 20
52.6482
 10
287.3608
 20
52.7407
 10
287.2575
 20
52.8275
 10
287.1494
 20
52.9086
 10
287.0364
 20
52.984
 10
286.9185
 20
53.0537
 10
286.7956
 20
53.1179
 10
286.6677
 20
53.1765
 10
286.5325
 20
53.2276
 10
286.3879
 20
53.2699
 10
286.2337
 20
53.3033
 10
286.0701
 20
53.3279
 10
285.8969
 20
53.3436
 10
285.7142
 20
53.3505
 10
285.5219
 20
53.3485
 10
285.32
 20
53.3377
 10
285.1176
 20
53.3157
 10
284.9226
 20
53.2802
 10
284.7351
 20
53.2313
 10
284.555
 20
53.1689
 10
284.3823
 20
53.093
 10
284.2171
 20
53.0036
 10
284.0594
 20
52.9007
 10
283.9092
 20
52.7844
 10
283.7797
 20
52.6699
 10
283.6571
 20
52.548
 10
283.5412
 20
52.4189
 10
283.4321
 20
52.2825
 10
283.3297
 20
52.1391
 10
283.2342
 20
51.9886
 10
283.1454
 20
51.8312
 10
283.0633
 20
51.6669
 10
282.9795
 20
51.8069
 10
282.8895
 20
51.9414
 10
282.793
 20
52.0698
 10
282.6901
 20
52.1919
 10
282.5969
 20
52.2901
 10
282.4987
 20
52.3825
 10
282.3955
 20
52.4693
 10
282.2873
 20
52.5503
 10
282.1741
 20
52.6257
 10
282.056
 20
52.6954
 10
281.933
 20
52.7594
 10
281.805
 20
52.8178
 10
281.6698
 20
52.8691
 10
281.5252
 20
52.9115
 10
281.3711
 20
52.9449
 10
281.2076
 20
52.9695
 10
281.0346
 20
52.9852
 10
280.8521
 20
52.9922
 10
280.6602
 20
52.9903
 10
280.4588
 20
52.9797
 10
280.2559
 20
52.9577
 10
280.0607
 20
52.9222
 10
279.873
 20
52.8733
 10
279.6929
 20
52.8109
 10
279.5202
 20
52.735
 10
279.3551
 20
52.6456
 10
279.1974
 20
52.5427
 10
279.0472
 20
52.4264
 10
278.9239
 20
52.3173
 10
278.8068
 20
52.2019
 10
278.6957
 20
52.08
 10
278.5908
 20
51.9518
 10
278.4919
 20
51.8171
 10
278.3992
 20
51.676
 10
278.3125
 20
51.5284
 10
278.2318
 20
51.3743
 10
278.1389
 20
52.629
 10
276.8835
 20
52.536
 10
277.4672
 20
44.6688
 10
278.7227
 20
44.761
 10
278.4235
 20
48.7872
 10
278.4354
 20
49.0239
 10
278.4569
 20
49.2522
 10
278.488
 20
49.4721
 10
278.5287
 20
49.6836
 10
278.5791
 20
49.8868
 10
278.6391
 20
50.0817
 10
278.7087
 20
50.2685
 10
278.788
 20
50.4471
 10
278.8539
 20
50.575
 10
278.9263
 20
50.6977
 10
279.0053
 20
50.8154
 10
279.0909
 20
50.9279
 10
279.183
 20
51.0352
 10
279.2817
 20
51.1374
 10
279.387
 20
51.2345
 10
279.4989
 20
51.3264
 10
279.6153
 20
51.411
 10
279.7348
 20
51.4857
 10
279.8574
 20
51.5504
 10
279.9829
 20
51.6053
 10
280.1115
 20
51.6502
 10
280.2431
 20
51.6852
 10
280.3778
 20
51.7104
 10
280.5154
 20
51.7257
 10
280.6502
 20
51.7328
 10
280.7764
 20
51.734
 10
280.894
 20
51.7293
 10
281.003
 20
51.7186
 10
281.1034
 20
51.7019
 10
281.1953
 20
51.6793
 10
281.2785
 20
51.6507
 10
281.3533
 20
51.6161
 10
281.5439
 20
51.4964
 10
281.7122
 20
51.3519
 10
281.8581
 20
51.1826
 10
281.9816
 20
50.9886
 10
282.0827
 20
50.7698
 10
282.1614
 20
50.5264
 10
282.2177
 20
50.2583
 10
282.2515
 20
49.9656
 10
282.616
 20
45.0478
 10
283.8714
 20
45.1407
 10
283.5069
 20
50.0579
 10
283.4757
 20
50.3585
 10
283.65
 20
50.8057
 10
283.7157
 20
50.9336
 10
283.7879
 20
51.0563
 10
283.8668
 20
51.174
 10
283.9523
 20
51.2865
 10
284.0445
 20
51.3939
 10
284.1433
 20
51.4961
 10
284.2487
 20
51.5932
 10
284.3608
 20
51.6851
 10
284.4773
 20
51.7697
 10
284.5969
 20
51.8443
 10
284.7195
 20
51.9091
 10
284.8452
 20
51.9639
 10
284.9738
 20
52.0087
 10
285.1054
 20
52.0437
 10
285.24
 20
52.0686
 10
285.3774
 20
52.0837
 10
285.512
 20
52.0911
 10
285.6381
 20
52.0924
 10
285.7556
 20
52.0878
 10
285.8647
 20
52.0772
 10
285.9652
 20
52.0606
 10
286.0571
 20
52.038
 10
286.1405
 20
52.0094
 10
286.2153
 20
51.9748
 10
286.4061
 20
51.8549
 10
286.5745
 20
51.7102
 10
286.7204
 20
51.5407
 10
286.8438
 20
51.3466
 10
286.9449
 20
51.1278
 10
287.0235
 20
50.8843
 10
287.0797
 20
50.6163
 10
287.1135
 20
50.3236
 10
287.4787
 20
45.4065
  0
LWPOLYLINE
  5
F5
330
1F
100
AcDbEntity
  8
Layer 1
 62
     7
370
     9
100
AcDbPolyline
 90
        2
 70
     0
 43
0.0
 10
212.1952
 20
70.2668
 10
210.426
 20
53.5794
  0
LWPOLYLINE
  5
F6
330
1F
100
AcDbEntity
  8
Layer 1
 62
     7
370
     9
100
AcDbPolyline
 90
        2
 70
     0
 43
0.0
 10
212.3772
 20
56.3241
 10
298.7049
 20
65.7387
  0
ENDSEC
  0
SECTION
  2
OBJECTS
  0
DICTIONARY
  5
C
330
0
100
AcDbDictionary
281
     1
  3
ACAD_DETAILVIEWSTYLE
350
FE
  3
ACAD_GROUP
350
D
  3
ACAD_LAYOUT
350
1A
  3
ACAD_MATERIAL
350
43
  3
ACAD_MLEADERSTYLE
350
5B
  3
ACAD_MLINESTYLE
350
17
  3
ACAD_PLOTSETTINGS
350
19
  3
ACAD_PLOTSTYLENAME
350
E
  3
ACAD_SCALELIST
350
47
  3
ACAD_SECTIONVIEWSTYLE
350
FF
  3
ACAD_TABLESTYLE
350
59
  3
ACAD_VISUALSTYLE
350
2A
  3
ACDB_RECOMPOSE_DATA
350
FB
  3
AcDbVariableDictionary
350
F7
  0
SUN
  5
5D
330
29
100
AcDbSun
 90
        1
290
     0
 63
     7
421
 16777215
 40
1.0
291
     1
 91
  2455826
 92
 54000000
292
     0
 70
     2
 71
   256
280
     1
  0
DICTIONARY
  5
FE
102
{ACAD_REACTORS
330
C
102
}
330
C
100
AcDbDictionary
281
     1
  0
DICTIONARY
  5
D
102
{ACAD_REACTORS
330
C
102
}
330
C
100
AcDbDictionary
281
     1
  0
DICTIONARY
  5
1A
102
{ACAD_REACTORS
330
C
102
}
330
C
100
AcDbDictionary
281
     1
  3
Layout1
350
1E
  3
Layout2
350
26
  3
Model
350
22
  0
DICTIONARY
  5
43
102
{ACAD_REACTORS
330
C
102
}
330
C
100
AcDbDictionary
281
     1
  3
ByBlock
350
45
  3
ByLayer
350
44
  3
Global
350
46
  0
DICTIONARY
  5
5B
102
{ACAD_REACTORS
330
C
102
}
330
C
100
AcDbDictionary
281
     1
  3
Standard
350
5C
  0
DICTIONARY
  5
17
102
{ACAD_REACTORS
330
C
102
}
330
C
100
AcDbDictionary
281
     1
  3
Standard
350
18
  0
DICTIONARY
  5
19
102
{ACAD_REACTORS
330
C
102
}
330
C
100
AcDbDictionary
281
     1
  0
ACDBDICTIONARYWDFLT
  5
E
102
{ACAD_REACTORS
330
C
102
}
330
C
100
AcDbDictionary
281
     1
  3
Normal
350
F
100
AcDbDictionaryWithDefault
340
F
  0
DICTIONARY
  5
47
102
{ACAD_REACTORS
330
C
102
}
330
C
100
AcDbDictionary
281
     1
  3
A0
350
48
  3
A1
350
49
  3
A2
350
4A
  3
A3
350
4B
  3
A4
350
4C
  3
A5
350
4D
  3
A6
350
4E
  3
A7
350
4F
  3
A8
350
50
  3
A9
350
51
  3
B1
350
52
  3
B2
350
53
  3
B3
350
54
  3
B4
350
55
  3
B5
350
56
  3
B6
350
57
  3
B7
350
58
  0
DICTIONARY
  5
FF
102
{ACAD_REACTORS
330
C
102
}
330
C
100
AcDbDictionary
281
     1
  0
DICTIONARY
  5
59
102
{ACAD_REACTORS
330
C
102
}
330
C
100
AcDbDictionary
281
     1
  3
Standard
350
5A
  0
DICTIONARY
  5
2A
102
{ACAD_REACTORS
330
C
102
}
330
C
100
AcDbDictionary
281
     1
  3
2dWireframe
350
2F
  3
Basic
350
32
  3
Brighten
350
36
  3
ColorChange
350
3A
  3
Conceptual
350
34
  3
Dim
350
35
  3
EdgeColorOff
350
3D
  3
Facepattern
350
39
  3
Flat
350
2B
  3
FlatWithEdges
350
2C
  3
Gouraud
350
2D
  3
GouraudWithEdges
350
2E
  3
Hidden
350
31
  3
JitterOff
350
3B
  3
Linepattern
350
38
  3
OverhangOff
350
3C
  3
Realistic
350
33
  3
Shaded
350
42
  3
Shaded with edges
350
41
  3
Shades of Gray
350
3E
  3
Sketchy
350
3F
  3
Thicken
350
37
  3
Wireframe
350
30
  3
X-Ray
350
40
  0
XRECORD
  5
FB
102
{ACAD_REACTORS
330
C
102
}
330
C
100
AcDbXrecord
280
     1
 90
        1
330
5A
  0
DICTIONARY
  5
F7
102
{ACAD_REACTORS
330
C
102
}
330
C
100
AcDbDictionary
281
     1
  3
CANNOSCALE
350
F8
  3
CMLEADERSTYLE
350
FD
  3
CTABLESTYLE
350
FC
  0
LAYOUT
  5
1E
102
{ACAD_REACTORS
330
1A
102
}
330
1A
100
AcDbPlotSettings
  1

  2
none_device
  4

  6

 40
0.0
 41
0.0
 42
0.0
 43
0.0
 44
0.0
 45
0.0
 46
0.0
 47
0.0
 48
0.0
 49
0.0
140
0.0
141
0.0
142
1.0
143
1.0
 70
   688
 72
     0
 73
     0
 74
     5
  7

 75
    16
 76
     0
 77
     2
 78
   300
147
1.0
148
0.0
149
0.0
100
AcDbLayout
  1
Layout1
 70
     1
 71
     1
 10
0.0
 20
0.0
 11
12.0
 21
9.0
 12
0.0
 22
0.0
 32
0.0
 14
1.000000000000000E+20
 24
1.000000000000000E+20
 34
1.000000000000000E+20
 15
-1.000000000000000E+20
 25
-1.000000000000000E+20
 35
-1.000000000000000E+20
146
0.0
 13
0.0
 23
0.0
 33
0.0
 16
1.0
 26
0.0
 36
0.0
 17
0.0
 27
1.0
 37
0.0
 76
     0
330
1B
  0
LAYOUT
  5
26
102
{ACAD_REACTORS
330
1A
102
}
330
1A
100
AcDbPlotSettings
  1

  2
none_device
  4

  6

 40
0.0
 41
0.0
 42
0.0
 43
0.0
 44
0.0
 45
0.0
 46
0.0
 47
0.0
 48
0.0
 49
0.0
140
0.0
141
0.0
142
1.0
143
1.0
 70
   688
 72
     0
 73
     0
 74
     5
  7

 75
    16
 76
     0
 77
     2
 78
   300
147
1.0
148
0.0
149
0.0
100
AcDbLayout
  1
Layout2
 70
     1
 71
     2
 10
0.0
 20
0.0
 11
0.0
 21
0.0
 12
0.0
 22
0.0
 32
0.0
 14
0.0
 24
0.0
 34
0.0
 15
0.0
 25
0.0
 35
0.0
146
0.0
 13
0.0
 23
0.0
 33
0.0
 16
1.0
 26
0.0
 36
0.0
 17
0.0
 27
1.0
 37
0.0
 76
     0
330
23
  0
LAYOUT
  5
22
102
{ACAD_REACTORS
330
1A
102
}
330
1A
100
AcDbPlotSettings
  1

  2
none_device
  4
Letter_(8.50_x_11.00_Inches)
  6

 40
6.35
 41
6.35
 42
6.35000508
 43
6.35000508
 44
215.9
 45
279.4
 46
0.0
 47
0.0
 48
0.0
 49
0.0
140
0.0
141
0.0
142
1.0
143
1.0
 70
  1712
 72
     0
 73
     0
 74
     0
  7

 75
     0
 76
     0
 77
     2
 78
   300
147
1.0
148
0.0
149
0.0
100
AcDbLayout
  1
Model
 70
     1
 71
     0
 10
0.0
 20
0.0
 11
12.0
 21
9.0
 12
0.0
 22
0.0
 32
0.0
 14
128.6371
 24
-76.0194
 34
0.0
 15
564.8482
 25
284.7475
 35
0.0
146
0.0
 13
0.0
 23
0.0
 33
0.0
 16
1.0
 26
0.0
 36
0.0
 17
0.0
 27
1.0
 37
0.0
 76
     0
330
1F
331
29
  0
MATERIAL
  5
45
102
{ACAD_REACTORS
330
43
102
}
330
43
100
AcDbMaterial
  1
ByBlock
 72
     1
 94
      127
  0
MATERIAL
  5
44
102
{ACAD_REACTORS
330
43
102
}
330
43
100
AcDbMaterial
  1
ByLayer
 72
     1
 94
      127
  0
MATERIAL
  5
46
102
{ACAD_REACTORS
330
43
102
}
330
43
100
AcDbMaterial
  1
Global
 72
     1
 94
      127
  0
MLEADERSTYLE
  5
5C
102
{ACAD_REACTORS
330
5B
102
}
330
5B
100
AcDbMLeaderStyle
179
     2
170
     2
171
     1
172
     0
 90
        2
 40
0.0
 41
0.0
173
     1
 91
-1056964608
340
14
 92
       -2
290
     1
 42
0.09
291
     1
 43
0.36
  3
Standard
341
0
 44
0.18
300

342
11
174
     1
178
     6
175
     1
176
     0
 93
-1056964608
 45
0.18
292
     0
297
     0
 46
0.18
343
0
 94
-1056964608
 47
1.0
 49
1.0
140
1.0
293
     1
141
0.0
294
     1
177
     0
142
1.0
295
     0
296
     0
143
0.125
271
     0
272
     9
273
     9
298
     0
  0
MLINESTYLE
  5
18
102
{ACAD_REACTORS
330
17
102
}
330
17
100
AcDbMlineStyle
  2
Standard
 70
     0
  3

 62
   256
 51
90.0
 52
90.0
 71
     2
 49
0.5
 62
   256
  6
BYLAYER
 49
-0.5
 62
   256
  6
BYLAYER
  0
ACDBPLACEHOLDER
  5
F
102
{ACAD_REACTORS
330
E
102
}
330
E
  0
SCALE
  5
48
102
{ACAD_REACTORS
330
47
102
}
330
47
100
AcDbScale
 70
     0
300
1:1
140
1.0
141
1.0
290
     1
  0
SCALE
  5
49
102
{ACAD_REACTORS
330
47
102
}
330
47
100
AcDbScale
 70
     0
300
1/128" = 1'-0"
140
0.0078125
141
12.0
290
     0
  0
SCALE
  5
4A
102
{ACAD_REACTORS
330
47
102
}
330
47
100
AcDbScale
 70
     0
300
1/64" = 1'-0"
140
0.015625
141
12.0
290
     0
  0
SCALE
  5
4B
102
{ACAD_REACTORS
330
47
102
}
330
47
100
AcDbScale
 70
     0
300
1/32" = 1'-0"
140
0.03125
141
12.0
290
     0
  0
SCALE
  5
4C
102
{ACAD_REACTORS
330
47
102
}
330
47
100
AcDbScale
 70
     0
300
1/16" = 1'-0"
140
0.0625
141
12.0
290
     0
  0
SCALE
  5
4D
102
{ACAD_REACTORS
330
47
102
}
330
47
100
AcDbScale
 70
     0
300
3/32" = 1'-0"
140
0.09375
141
12.0
290
     0
  0
SCALE
  5
4E
102
{ACAD_REACTORS
330
47
102
}
330
47
100
AcDbScale
 70
     0
300
1/8" = 1'-0"
140
0.125
141
12.0
290
     0
  0
SCALE
  5
4F
102
{ACAD_REACTORS
330
47
102
}
330
47
100
AcDbScale
 70
     0
300
3/16" = 1'-0"
140
0.1875
141
12.0
290
     0
  0
SCALE
  5
50
102
{ACAD_REACTORS
330
47
102
}
330
47
100
AcDbScale
 70
     0
300
1/4" = 1'-0"
140
0.25
141
12.0
290
     0
  0
SCALE
  5
51
102
{ACAD_REACTORS
330
47
102
}
330
47
100
AcDbScale
 70
     0
300
3/8" = 1'-0"
140
0.375
141
12.0
290
     0
  0
SCALE
  5
52
102
{ACAD_REACTORS
330
47
102
}
330
47
100
AcDbScale
 70
     0
300
1/2" = 1'-0"
140
0.5
141
12.0
290
     0
  0
SCALE
  5
53
102
{ACAD_REACTORS
330
47
102
}
330
47
100
AcDbScale
 70
     0
300
3/4" = 1'-0"
140
0.75
141
12.0
290
     0
  0
SCALE
  5
54
102
{ACAD_REACTORS
330
47
102
}
330
47
100
AcDbScale
 70
     0
300
1" = 1'-0"
140
1.0
141
12.0
290
     0
  0
SCALE
  5
55
102
{ACAD_REACTORS
330
47
102
}
330
47
100
AcDbScale
 70
     0
300
1-1/2" = 1'-0"
140
1.5
141
12.0
290
     0
  0
SCALE
  5
56
102
{ACAD_REACTORS
330
47
102
}
330
47
100
AcDbScale
 70
     0
300
3" = 1'-0"
140
3.0
141
12.0
290
     0
  0
SCALE
  5
57
102
{ACAD_REACTORS
330
47
102
}
330
47
100
AcDbScale
 70
     0
300
6" = 1'-0"
140
6.0
141
12.0
290
     0
  0
SCALE
  5
58
102
{ACAD_REACTORS
330
47
102
}
330
47
100
AcDbScale
 70
     0
300
1'-0" = 1'-0"
140
12.0
141
12.0
290
     0
  0
TABLESTYLE
  5
5A
102
{ACAD_REACTORS
330
59
102
}
102
{ACAD_XDICTIONARY
360
F9
102
}
330
59
100
AcDbTableStyle
  3
Standard
 70
     0
 71
     0
 40
0.06
 41
0.06
280
     0
281
     0
  7
Standard
140
0.18
170
     2
 62
     0
 63
   257
283
     0
 90
        4
 91
        0
  1

274
    -2
284
     1
 64
     0
275
    -2
285
     1
 65
     0
276
    -2
286
     1
 66
     0
277
    -2
287
     1
 67
     0
278
    -2
288
     1
 68
     0
279
    -2
289
     1
 69
     0
  7
Standard
140
0.25
170
     5
 62
     0
 63
   257
283
     0
 90
        4
 91
        0
  1

274
    -2
284
     1
 64
     0
275
    -2
285
     1
 65
     0
276
    -2
286
     1
 66
     0
277
    -2
287
     1
 67
     0
278
    -2
288
     1
 68
     0
279
    -2
289
     1
 69
     0
  7
Standard
140
0.18
170
     5
 62
     0
 63
   257
283
     0
 90
        4
 91
        0
  1

274
    -2
284
     1
 64
     0
275
    -2
285
     1
 65
     0
276
    -2
286
     1
 66
     0
277
    -2
287
     1
 67
     0
278
    -2
288
     1
 68
     0
279
    -2
289
     1
 69
     0
  0
VISUALSTYLE
  5
2F
102
{ACAD_REACTORS
330
2A
102
}
330
2A
100
AcDbVisualStyle
  2
2dWireframe
 70
     4
177
     3
291
     0
 70
    58
 90
        0
176
     1
 90
        2
176
     1
 90
        0
176
     1
 90
        0
176
     1
 40
0.6
176
     1
 40
30.0
176
     1
 62
     7
420
 16777215
176
     1
 90
        1
176
     1
 90
        4
176
     1
 62
     7
176
     1
 62
   257
176
     1
 90
        1
176
     1
 90
        1
176
     1
 40
1.0
176
     1
 90
        0
176
     1
 62
   257
176
     1
 40
1.0
176
     1
 90
        1
176
     1
 90
        6
176
     1
 90
        2
176
     1
 62
     7
176
     1
 90
        5
176
     1
 90
        0
176
     1
 90
        0
176
     1
290
     0
176
     1
 90
        1
176
     1
 40
0.0
176
     1
 90
        0
176
     1
290
     1
176
     1
290
     1
176
     1
290
     0
176
     1
290
     0
176
     1
290
     0
176
     1
290
     0
176
     1
290
     0
176
     1
290
     0
176
     1
290
     0
176
     1
 90
       50
176
     1
 40
0.0
176
     1
 40
1.0
176
     1
 90
        0
176
     1
 62
    18
420
        0
176
     1
 90
       50
176
     1
 90
        3
176
     1
 62
     5
420
      255
176
     1
290
     0
176
     1
 90
       50
176
     1
 90
       50
176
     1
 90
       50
176
     1
290
     0
176
     1
 90
       50
176
     1
 62
   256
176
     0
 40
1.0
176
     0
 90
        2
176
     1
  1
strokes_ogs.tif
176
     1
290
     0
176
     1
 40
1.0
176
     1
 40
1.0
176
     1
  0
VISUALSTYLE
  5
32
102
{ACAD_REACTORS
330
2A
102
}
330
2A
100
AcDbVisualStyle
  2
Basic
 70
     7
177
     3
291
     1
 70
    58
 90
        1
176
     1
 90
        0
176
     1
 90
        1
176
     1
 90
        0
176
     1
 40
0.6
176
     1
 40
30.0
176
     1
 62
     7
420
 16777215
176
     1
 90
        0
176
     1
 90
        4
176
     1
 62
     7
176
     1
 62
   257
176
     1
 90
        1
176
     1
 90
        1
176
     1
 40
1.0
176
     1
 90
        8
176
     1
 62
     7
176
     1
 40
1.0
176
     1
 90
        1
176
     1
 90
        6
176
     1
 90
        2
176
     1
 62
     7
176
     1
 90
        5
176
     1
 90
        0
176
     1
 90
        0
176
     1
290
     0
176
     1
 90
        1
176
     1
 40
0.0
176
     1
 90
        0
176
     1
290
     0
176
     1
290
     1
176
     1
290
     1
176
     1
290
     0
176
     1
290
     0
176
     1
290
     0
176
     1
290
     0
176
     1
290
     0
176
     1
290
     0
176
     1
 90
       50
176
     1
 40
0.0
176
     1
 40
1.0
176
     1
 90
        0
176
     1
 62
    18
420
        0
176
     1
 90
       50
176
     1
 90
        3
176
     1
 62
     5
420
      255
176
     1
290
     0
176
     1
 90
       50
176
     1
 90
       50
176
     1
 90
       50
176
     1
290
     0
176
     1
 90
       50
176
     1
 62
   256
176
     0
 40
1.0
176
     0
 90
        2
176
     1
  1
strokes_ogs.tif
176
     1
290
     0
176
     1
 40
1.0
176
     1
 40
1.0
176
     1
  0
VISUALSTYLE
  5
36
102
{ACAD_REACTORS
330
2A
102
}
330
2A
100
AcDbVisualStyle
  2
Brighten
 70
    12
177
     3
291
     1
 70
    58
 90
        2
176
     1
 90
        2
176
     1
 90
        0
176
     1
 90
        0
176
     1
 40
0.6
176
     1
 40
30.0
176
     1
 62
     7
420
 16777215
176
     1
 90
        1
176
     1
 90
        4
176
     1
 62
     7
176
     1
 62
   257
176
     1
 90
        1
176
     1
 90
        1
176
     1
 40
1.0
176
     1
 90
        8
176
     1
 62
     7
176
     1
 40
1.0
176
     1
 90
        1
176
     1
 90
        6
176
     1
 90
        2
176
     1
 62
     7
176
     1
 90
        5
176
     1
 90
        0
176
     1
 90
        0
176
     1
290
     0
176
     1
 90
        1
176
     1
 40
50.0
176
     1
 90
        0
176
     1
290
     0
176
     1
290
     1
176
     1
290
     1
176
     1
290
     0
176
     1
290
     0
176
     1
290
     0
176
     1
290
     0
176
     1
290
     0
176
     1
290
     0
176
     1
 90
       50
176
     1
 40
0.0
176
     1
 40
1.0
176
     1
 90
        0
176
     1
 62
    18
420
        0
176
     1
 90
       50
176
     1
 90
        3
176
     1
 62
     5
420
      255
176
     1
290
     0
176
     1
 90
       50
176
     1
 90
       50
176
     1
 90
       50
176
     1
290
     0
176
     1
 90
       50
176
     1
 62
   256
176
     0
 40
1.0
176
     0
 90
        2
176
     1
  1
strokes_ogs.tif
176
     1
290
     0
176
     1
 40
1.0
176
     1
 40
1.0
176
     1
  0
VISUALSTYLE
  5
3A
102
{ACAD_REACTORS
330
2A
102
}
330
2A
100
AcDbVisualStyle
  2
ColorChange
 70
    16
177
     3
291
     1
 70
    58
 90
        2
176
     1
 90
        2
176
     1
 90
        3
176
     1
 90
        0
176
     1
 40
0.6
176
     1
 40
30.0
176
     1
 62
     8
420
  8421504
176
     1
 90
        1
176
     1
 90
        4
176
     1
 62
     7
176
     1
 62
   257
176
     1
 90
        1
176
     1
 90
        1
176
     1
 40
1.0
176
     1
 90
        8
176
     1
 62
     8
420
  8421504
176
     1
 40
1.0
176
     1
 90
        1
176
     1
 90
        6
176
     1
 90
        2
176
     1
 62
     7
176
     1
 90
        5
176
     1
 90
        0
176
     1
 90
        0
176
     1
290
     0
176
     1
 90
        1
176
     1
 40
0.0
176
     1
 90
        0
176
     1
290
     0
176
     1
290
     1
176
     1
290
     1
176
     1
290
     0
176
     1
290
     0
176
     1
290
     0
176
     1
290
     0
176
     1
290
     0
176
     1
290
     0
176
     1
 90
       50
176
     1
 40
0.0
176
     1
 40
1.0
176
     1
 90
        0
176
     1
 62
    18
420
        0
176
     1
 90
       50
176
     1
 90
        3
176
     1
 62
     5
420
      255
176
     1
290
     0
176
     1
 90
       50
176
     1
 90
       50
176
     1
 90
       50
176
     1
290
     0
176
     1
 90
       50
176
     1
 62
   256
176
     0
 40
1.0
176
     0
 90
        2
176
     1
  1
strokes_ogs.tif
176
     1
290
     0
176
     1
 40
1.0
176
     1
 40
1.0
176
     1
  0
VISUALSTYLE
  5
34
102
{ACAD_REACTORS
330
2A
102
}
330
2A
100
AcDbVisualStyle
  2
Conceptual
 70
     9
177
     3
291
     0
 70
    58
 90
        3
176
     1
 90
        2
176
     1
 90
        0
176
     1
 90
        0
176
     1
 40
0.6
176
     1
 40
30.0
176
     1
 62
     7
420
 16777215
176
     1
 90
        2
176
     1
 90
        2
176
     1
 62
     7
176
     1
 62
   257
176
     1
 90
        1
176
     1
 90
        1
176
     1
 40
179.0
176
     1
 90
        8
176
     1
 62
     7
176
     1
 40
1.0
176
     1
 90
        1
176
     1
 90
        6
176
     1
 90
        2
176
     1
 62
     7
176
     1
 90
        3
176
     1
 90
        0
176
     1
 90
        0
176
     1
290
     0
176
     1
 90
        1
176
     1
 40
0.0
176
     1
 90
        0
176
     1
290
     0
176
     1
290
     1
176
     1
290
     1
176
     1
290
     0
176
     1
290
     0
176
     1
290
     0
176
     1
290
     0
176
     1
290
     0
176
     1
290
     0
176
     1
 90
       50
176
     1
 40
0.0
176
     1
 40
1.0
176
     1
 90
        0
176
     1
 62
    18
420
        0
176
     1
 90
       50
176
     1
 90
        3
176
     1
 62
     5
420
      255
176
     1
290
     0
176
     1
 90
       50
176
     1
 90
       50
176
     1
 90
       50
176
     1
290
     0
176
     1
 90
       50
176
     1
 62
   256
176
     0
 40
1.0
176
     0
 90
        2
176
     1
  1
strokes_ogs.tif
176
     1
290
     0
176
     1
 40
1.0
176
     1
 40
1.0
176
     1
  0
VISUALSTYLE
  5
35
102
{ACAD_REACTORS
330
2A
102
}
330
2A
100
AcDbVisualStyle
  2
Dim
 70
    11
177
     3
291
     1
 70
    58
 90
        2
176
     1
 90
        2
176
     1
 90
        0
176
     1
 90
        0
176
     1
 40
0.6
176
     1
 40
30.0
176
     1
 62
     7
420
 16777215
176
     1
 90
        1
176
     1
 90
        4
176
     1
 62
     7
176
     1
 62
   257
176
     1
 90
        1
176
     1
 90
        1
176
     1
 40
1.0
176
     1
 90
        8
176
     1
 62
     7
176
     1
 40
1.0
176
     1
 90
        1
176
     1
 90
        6
176
     1
 90
        2
176
     1
 62
     7
176
     1
 90
        5
176
     1
 90
        0
176
     1
 90
        0
176
     1
290
     0
176
     1
 90
        1
176
     1
 40
-50.0
176
     1
 90
        0
176
     1
290
     0
176
     1
290
     1
176
     1
290
     1
176
     1
290
     0
176
     1
290
     0
176
     1
290
     0
176
     1
290
     0
176
     1
290
     0
176
     1
290
     0
176
     1
 90
       50
176
     1
 40
0.0
176
     1
 40
1.0
176
     1
 90
        0
176
     1
 62
    18
420
        0
176
     1
 90
       50
176
     1
 90
        3
176
     1
 62
     5
420
      255
176
     1
290
     0
176
     1
 90
       50
176
     1
 90
       50
176
     1
 90
       50
176
     1
290
     0
176
     1
 90
       50
176
     1
 62
   256
176
     0
 40
1.0
176
     0
 90
        2
176
     1
  1
strokes_ogs.tif
176
     1
290
     0
176
     1
 40
1.0
176
     1
 40
1.0
176
     1
  0
VISUALSTYLE
  5
3D
102
{ACAD_REACTORS
330
2A
102
}
330
2A
100
AcDbVisualStyle
  2
EdgeColorOff
 70
    22
177
     3
291
     1
 70
    58
 90
        2
176
     0
 90
        2
176
     0
 90
        0
176
     0
 90
        0
176
     0
 40
0.6
176
     0
 40
30.0
176
     0
 62
     7
420
 16777215
176
     0
 90
        1
176
     0
 90
        4
176
     0
 62
     7
176
     0
 62
   257
176
     0
 90
        1
176
     0
 90
        1
176
     0
 40
1.0
176
     0
 90
        8
176
     2
 62
     7
176
     0
 40
1.0
176
     0
 90
        1
176
     0
 90
        6
176
     0
 90
        2
176
     0
 62
     7
176
     0
 90
        5
176
     0
 90
        0
176
     0
 90
        0
176
     0
290
     0
176
     0
 90
        1
176
     0
 40
0.0
176
     0
 90
        0
176
     0
290
     0
176
     0
290
     1
176
     0
290
     1
176
     0
290
     0
176
     0
290
     0
176
     0
290
     0
176
     0
290
     0
176
     0
290
     0
176
     0
290
     0
176
     0
 90
       50
176
     0
 40
0.0
176
     0
 40
1.0
176
     0
 90
        0
176
     0
 62
    18
420
        0
176
     0
 90
       50
176
     0
 90
        3
176
     0
 62
     5
420
      255
176
     0
290
     0
176
     0
 90
       50
176
     0
 90
       50
176
     0
 90
       50
176
     0
290
     0
176
     0
 90
       50
176
     0
 62
   256
176
     0
 40
1.0
176
     0
 90
        2
176
     0
  1
strokes_ogs.tif
176
     0
290
     0
176
     0
 40
1.0
176
     0
 40
1.0
176
     0
  0
VISUALSTYLE
  5
39
102
{ACAD_REACTORS
330
2A
102
}
330
2A
100
AcDbVisualStyle
  2
Facepattern
 70
    15
177
     3
291
     1
 70
    58
 90
        2
176
     1
 90
        2
176
     1
 90
        0
176
     1
 90
        0
176
     1
 40
0.6
176
     1
 40
30.0
176
     1
 62
     7
420
 16777215
176
     1
 90
        1
176
     1
 90
        4
176
     1
 62
     7
176
     1
 62
   257
176
     1
 90
        1
176
     1
 90
        1
176
     1
 40
1.0
176
     1
 90
        8
176
     1
 62
     7
176
     1
 40
1.0
176
     1
 90
        1
176
     1
 90
        6
176
     1
 90
        2
176
     1
 62
     7
176
     1
 90
        5
176
     1
 90
        0
176
     1
 90
        0
176
     1
290
     0
176
     1
 90
        1
176
     1
 40
0.0
176
     1
 90
        0
176
     1
290
     0
176
     1
290
     1
176
     1
290
     1
176
     1
290
     0
176
     1
290
     0
176
     1
290
     0
176
     1
290
     0
176
     1
290
     0
176
     1
290
     0
176
     1
 90
       50
176
     1
 40
0.0
176
     1
 40
1.0
176
     1
 90
        0
176
     1
 62
    18
420
        0
176
     1
 90
       50
176
     1
 90
        3
176
     1
 62
     5
420
      255
176
     1
290
     0
176
     1
 90
       50
176
     1
 90
       50
176
     1
 90
       50
176
     1
290
     0
176
     1
 90
       50
176
     1
 62
   256
176
     0
 40
1.0
176
     0
 90
        2
176
     1
  1
strokes_ogs.tif
176
     1
290
     0
176
     1
 40
1.0
176
     1
 40
1.0
176
     1
  0
VISUALSTYLE
  5
2B
102
{ACAD_REACTORS
330
2A
102
}
330
2A
100
AcDbVisualStyle
  2
Flat
 70
     0
177
     3
291
     1
 70
    58
 90
        2
176
     1
 90
        1
176
     1
 90
        1
176
     1
 90
        2
176
     1
 40
0.6
176
     1
 40
30.0
176
     1
 62
     7
420
 16777215
176
     1
 90
        0
176
     1
 90
        0
176
     1
 62
     7
176
     1
 62
   257
176
     1
 90
        1
176
     1
 90
        1
176
     1
 40
1.0
176
     1
 90
        8
176
     1
 62
     7
176
     1
 40
1.0
176
     1
 90
        1
176
     1
 90
        6
176
     1
 90
        2
176
     1
 62
     7
176
     1
 90
        5
176
     1
 90
        0
176
     1
 90
        0
176
     1
290
     0
176
     1
 90
       13
176
     1
 40
0.0
176
     1
 90
        0
176
     1
290
     0
176
     1
290
     1
176
     1
290
     1
176
     1
290
     0
176
     1
290
     0
176
     1
290
     0
176
     1
290
     0
176
     1
290
     0
176
     1
290
     0
176
     1
 90
       50
176
     1
 40
0.0
176
     1
 40
1.0
176
     1
 90
        0
176
     1
 62
    18
420
        0
176
     1
 90
       50
176
     1
 90
        3
176
     1
 62
     5
420
      255
176
     1
290
     0
176
     1
 90
       50
176
     1
 90
       50
176
     1
 90
       50
176
     1
290
     0
176
     1
 90
       50
176
     1
 62
   256
176
     0
 40
1.0
176
     0
 90
        2
176
     1
  1
strokes_ogs.tif
176
     1
290
     0
176
     1
 40
1.0
176
     1
 40
1.0
176
     1
  0
VISUALSTYLE
  5
2C
102
{ACAD_REACTORS
330
2A
102
}
330
2A
100
AcDbVisualStyle
  2
FlatWithEdges
 70
     1
177
     3
291
     1
 70
    58
 90
        2
176
     1
 90
        1
176
     1
 90
        1
176
     1
 90
        2
176
     1
 40
0.6
176
     1
 40
30.0
176
     1
 62
     7
420
 16777215
176
     1
 90
        1
176
     1
 90
        0
176
     1
 62
     7
176
     1
 62
   257
176
     1
 90
        1
176
     1
 90
        1
176
     1
 40
1.0
176
     1
 90
        0
176
     1
 62
   257
176
     1
 40
1.0
176
     1
 90
        1
176
     1
 90
        6
176
     1
 90
        2
176
     1
 62
     7
176
     1
 90
        5
176
     1
 90
        0
176
     1
 90
        0
176
     1
290
     0
176
     1
 90
       13
176
     1
 40
0.0
176
     1
 90
        0
176
     1
290
     0
176
     1
290
     1
176
     1
290
     1
176
     1
290
     0
176
     1
290
     0
176
     1
290
     0
176
     1
290
     0
176
     1
290
     0
176
     1
290
     0
176
     1
 90
       50
176
     1
 40
0.0
176
     1
 40
1.0
176
     1
 90
        0
176
     1
 62
    18
420
        0
176
     1
 90
       50
176
     1
 90
        3
176
     1
 62
     5
420
      255
176
     1
290
     0
176
     1
 90
       50
176
     1
 90
       50
176
     1
 90
       50
176
     1
290
     0
176
     1
 90
       50
176
     1
 62
   256
176
     0
 40
1.0
176
     0
 90
        2
176
     1
  1
strokes_ogs.tif
176
     1
290
     0
176
     1
 40
1.0
176
     1
 40
1.0
176
     1
  0
VISUALSTYLE
  5
2D
102
{ACAD_REACTORS
330
2A
102
}
330
2A
100
AcDbVisualStyle
  2
Gouraud
 70
     2
177
     3
291
     1
 70
    58
 90
        2
176
     1
 90
        2
176
     1
 90
        1
176
     1
 90
        2
176
     1
 40
0.6
176
     1
 40
30.0
176
     1
 62
     7
420
 16777215
176
     1
 90
        0
176
     1
 90
        0
176
     1
 62
     7
176
     1
 62
   257
176
     1
 90
        1
176
     1
 90
        1
176
     1
 40
1.0
176
     1
 90
        0
176
     1
 62
     7
176
     1
 40
1.0
176
     1
 90
        1
176
     1
 90
        6
176
     1
 90
        2
176
     1
 62
     7
176
     1
 90
        5
176
     1
 90
        0
176
     1
 90
        0
176
     1
290
     0
176
     1
 90
       13
176
     1
 40
0.0
176
     1
 90
        0
176
     1
290
     0
176
     1
290
     1
176
     1
290
     1
176
     1
290
     0
176
     1
290
     0
176
     1
290
     0
176
     1
290
     0
176
     1
290
     0
176
     1
290
     0
176
     1
 90
       50
176
     1
 40
0.0
176
     1
 40
1.0
176
     1
 90
        0
176
     1
 62
    18
420
        0
176
     1
 90
       50
176
     1
 90
        3
176
     1
 62
     5
420
      255
176
     1
290
     0
176
     1
 90
       50
176
     1
 90
       50
176
     1
 90
       50
176
     1
290
     0
176
     1
 90
       50
176
     1
 62
   256
176
     0
 40
1.0
176
     0
 90
        2
176
     1
  1
strokes_ogs.tif
176
     1
290
     0
176
     1
 40
1.0
176
     1
 40
1.0
176
     1
  0
VISUALSTYLE
  5
2E
102
{ACAD_REACTORS
330
2A
102
}
330
2A
100
AcDbVisualStyle
  2
GouraudWithEdges
 70
     3
177
     3
291
     1
 70
    58
 90
        2
176
     1
 90
        2
176
     1
 90
        1
176
     1
 90
        2
176
     1
 40
0.6
176
     1
 40
30.0
176
     1
 62
     7
420
 16777215
176
     1
 90
        1
176
     1
 90
        0
176
     1
 62
     7
176
     1
 62
   257
176
     1
 90
        1
176
     1
 90
        1
176
     1
 40
1.0
176
     1
 90
        0
176
     1
 62
   257
176
     1
 40
1.0
176
     1
 90
        1
176
     1
 90
        6
176
     1
 90
        2
176
     1
 62
     7
176
     1
 90
        5
176
     1
 90
        0
176
     1
 90
        0
176
     1
290
     0
176
     1
 90
       13
176
     1
 40
0.0
176
     1
 90
        0
176
     1
290
     0
176
     1
290
     1
176
     1
290
     1
176
     1
290
     0
176
     1
290
     0
176
     1
290
     0
176
     1
290
     0
176
     1
290
     0
176
     1
290
     0
176
     1
 90
       50
176
     1
 40
0.0
176
     1
 40
1.0
176
     1
 90
        0
176
     1
 62
    18
420
        0
176
     1
 90
       50
176
     1
 90
        3
176
     1
 62
     5
420
      255
176
     1
290
     0
176
     1
 90
       50
176
     1
 90
       50
176
     1
 90
       50
176
     1
290
     0
176
     1
 90
       50
176
     1
 62
   256
176
     0
 40
1.0
176
     0
 90
        2
176
     1
  1
strokes_ogs.tif
176
     1
290
     0
176
     1
 40
1.0
176
     1
 40
1.0
176
     1
  0
VISUALSTYLE
  5
31
102
{ACAD_REACTORS
330
2A
102
}
330
2A
100
AcDbVisualStyle
  2
Hidden
 70
     6
177
     3
291
     0
 70
    58
 90
        1
176
     1
 90
        2
176
     1
 90
        2
176
     1
 90
        0
176
     1
 40
0.6
176
     1
 40
30.0
176
     1
 62
     7
420
 16777215
176
     1
 90
        2
176
     1
 90
        2
176
     1
 62
     7
176
     1
 62
   257
176
     1
 90
        2
176
     1
 90
        1
176
     1
 40
40.0
176
     1
 90
        0
176
     1
 62
   257
176
     1
 40
1.0
176
     1
 90
        1
176
     1
 90
        6
176
     1
 90
        2
176
     1
 62
     7
176
     1
 90
        3
176
     1
 90
        0
176
     1
 90
        0
176
     1
290
     0
176
     1
 90
        1
176
     1
 40
0.0
176
     1
 90
        0
176
     1
290
     0
176
     1
290
     1
176
     1
290
     1
176
     1
290
     0
176
     1
290
     0
176
     1
290
     0
176
     1
290
     0
176
     1
290
     0
176
     1
290
     0
176
     1
 90
       50
176
     1
 40
0.0
176
     1
 40
1.0
176
     1
 90
        0
176
     1
 62
    18
420
        0
176
     1
 90
       50
176
     1
 90
        3
176
     1
 62
     5
420
      255
176
     1
290
     0
176
     1
 90
       50
176
     1
 90
       50
176
     1
 90
       50
176
     1
290
     0
176
     1
 90
       50
176
     1
 62
   256
176
     0
 40
1.0
176
     0
 90
        2
176
     1
  1
strokes_ogs.tif
176
     1
290
     0
176
     1
 40
1.0
176
     1
 40
1.0
176
     1
  0
VISUALSTYLE
  5
3B
102
{ACAD_REACTORS
330
2A
102
}
330
2A
100
AcDbVisualStyle
  2
JitterOff
 70
    20
177
     3
291
     1
 70
    58
 90
        2
176
     0
 90
        2
176
     0
 90
        0
176
     0
 90
        0
176
     0
 40
0.6
176
     0
 40
30.0
176
     0
 62
     7
420
 16777215
176
     0
 90
        1
176
     0
 90
        4
176
     0
 62
     7
176
     0
 62
   257
176
     0
 90
        1
176
     0
 90
        1
176
     0
 40
1.0
176
     0
 90
       10
176
     2
 62
     7
176
     0
 40
1.0
176
     0
 90
        1
176
     0
 90
        6
176
     0
 90
        2
176
     0
 62
     7
176
     0
 90
        5
176
     0
 90
        0
176
     0
 90
        0
176
     0
290
     0
176
     0
 90
        1
176
     0
 40
0.0
176
     0
 90
        0
176
     0
290
     0
176
     0
290
     1
176
     0
290
     1
176
     0
290
     0
176
     0
290
     0
176
     0
290
     0
176
     0
290
     0
176
     0
290
     0
176
     0
290
     0
176
     0
 90
       50
176
     0
 40
0.0
176
     0
 40
1.0
176
     0
 90
        0
176
     0
 62
    18
420
        0
176
     0
 90
       50
176
     0
 90
        3
176
     0
 62
     5
420
      255
176
     0
290
     0
176
     0
 90
       50
176
     0
 90
       50
176
     0
 90
       50
176
     0
290
     0
176
     0
 90
       50
176
     0
 62
   256
176
     0
 40
1.0
176
     0
 90
        2
176
     0
  1
strokes_ogs.tif
176
     0
290
     0
176
     0
 40
1.0
176
     0
 40
1.0
176
     0
  0
VISUALSTYLE
  5
38
102
{ACAD_REACTORS
330
2A
102
}
330
2A
100
AcDbVisualStyle
  2
Linepattern
 70
    14
177
     3
291
     1
 70
    58
 90
        2
176
     1
 90
        2
176
     1
 90
        0
176
     1
 90
        0
176
     1
 40
0.6
176
     1
 40
30.0
176
     1
 62
     7
420
 16777215
176
     1
 90
        1
176
     1
 90
        4
176
     1
 62
     7
176
     1
 62
   257
176
     1
 90
        7
176
     1
 90
        7
176
     1
 40
1.0
176
     1
 90
        8
176
     1
 62
     7
176
     1
 40
1.0
176
     1
 90
        1
176
     1
 90
        6
176
     1
 90
        2
176
     1
 62
     7
176
     1
 90
        5
176
     1
 90
        0
176
     1
 90
        0
176
     1
290
     0
176
     1
 90
        1
176
     1
 40
0.0
176
     1
 90
        0
176
     1
290
     0
176
     1
290
     1
176
     1
290
     1
176
     1
290
     0
176
     1
290
     0
176
     1
290
     0
176
     1
290
     0
176
     1
290
     0
176
     1
290
     0
176
     1
 90
       50
176
     1
 40
0.0
176
     1
 40
1.0
176
     1
 90
        0
176
     1
 62
    18
420
        0
176
     1
 90
       50
176
     1
 90
        3
176
     1
 62
     5
420
      255
176
     1
290
     0
176
     1
 90
       50
176
     1
 90
       50
176
     1
 90
       50
176
     1
290
     0
176
     1
 90
       50
176
     1
 62
   256
176
     0
 40
1.0
176
     0
 90
        2
176
     1
  1
strokes_ogs.tif
176
     1
290
     0
176
     1
 40
1.0
176
     1
 40
1.0
176
     1
  0
VISUALSTYLE
  5
3C
102
{ACAD_REACTORS
330
2A
102
}
330
2A
100
AcDbVisualStyle
  2
OverhangOff
 70
    21
177
     3
291
     1
 70
    58
 90
        2
176
     0
 90
        2
176
     0
 90
        0
176
     0
 90
        0
176
     0
 40
0.6
176
     0
 40
30.0
176
     0
 62
     7
420
 16777215
176
     0
 90
        1
176
     0
 90
        4
176
     0
 62
     7
176
     0
 62
   257
176
     0
 90
        1
176
     0
 90
        1
176
     0
 40
1.0
176
     0
 90
        9
176
     2
 62
     7
176
     0
 40
1.0
176
     0
 90
        1
176
     0
 90
        6
176
     0
 90
        2
176
     0
 62
     7
176
     0
 90
        5
176
     0
 90
        0
176
     0
 90
        0
176
     0
290
     0
176
     0
 90
        1
176
     0
 40
0.0
176
     0
 90
        0
176
     0
290
     0
176
     0
290
     1
176
     0
290
     1
176
     0
290
     0
176
     0
290
     0
176
     0
290
     0
176
     0
290
     0
176
     0
290
     0
176
     0
290
     0
176
     0
 90
       50
176
     0
 40
0.0
176
     0
 40
1.0
176
     0
 90
        0
176
     0
 62
    18
420
        0
176
     0
 90
       50
176
     0
 90
        3
176
     0
 62
     5
420
      255
176
     0
290
     0
176
     0
 90
       50
176
     0
 90
       50
176
     0
 90
       50
176
     0
290
     0
176
     0
 90
       50
176
     0
 62
   256
176
     0
 40
1.0
176
     0
 90
        2
176
     0
  1
strokes_ogs.tif
176
     0
290
     0
176
     0
 40
1.0
176
     0
 40
1.0
176
     0
  0
VISUALSTYLE
  5
33
102
{ACAD_REACTORS
330
2A
102
}
330
2A
100
AcDbVisualStyle
  2
Realistic
 70
     8
177
     3
291
     0
 70
    58
 90
        2
176
     1
 90
        3
176
     1
 90
        0
176
     1
 90
        2
176
     1
 40
0.6
176
     1
 40
30.0
176
     1
 62
     7
420
 16777215
176
     1
 90
        0
176
     1
 90
        0
176
     1
 62
     7
176
     1
 62
   257
176
     1
 90
        1
176
     1
 90
        1
176
     1
 40
1.0
176
     1
 90
        8
176
     1
 62
   257
176
     1
 40
1.0
176
     1
 90
        1
176
     1
 90
        6
176
     1
 90
        2
176
     1
 62
     7
176
     1
 90
        3
176
     1
 90
        0
176
     1
 90
        0
176
     1
290
     0
176
     1
 90
       13
176
     1
 40
0.0
176
     1
 90
        0
176
     1
290
     0
176
     1
290
     1
176
     1
290
     1
176
     1
290
     0
176
     1
290
     0
176
     1
290
     0
176
     1
290
     0
176
     1
290
     0
176
     1
290
     0
176
     1
 90
       50
176
     1
 40
0.0
176
     1
 40
1.0
176
     1
 90
        0
176
     1
 62
    18
420
        0
176
     1
 90
       50
176
     1
 90
        3
176
     1
 62
     5
420
      255
176
     1
290
     0
176
     1
 90
       50
176
     1
 90
       50
176
     1
 90
       50
176
     1
290
     0
176
     1
 90
       50
176
     1
 62
   256
176
     0
 40
1.0
176
     0
 90
        2
176
     1
  1
strokes_ogs.tif
176
     1
290
     0
176
     1
 40
1.0
176
     1
 40
1.0
176
     1
  0
VISUALSTYLE
  5
42
102
{ACAD_REACTORS
330
2A
102
}
330
2A
100
AcDbVisualStyle
  2
Shaded
 70
    27
177
     3
291
     0
 70
    58
 90
        2
176
     1
 90
        2
176
     1
 90
        1
176
     1
 90
        2
176
     1
 40
0.6
176
     1
 40
30.0
176
     1
 62
     7
420
 16777215
176
     1
 90
        0
176
     1
 90
        4
176
     1
 62
     7
176
     1
 62
   257
176
     1
 90
        1
176
     1
 90
        1
176
     1
 40
1.0
176
     1
 90
        8
176
     1
 62
   257
176
     1
 40
1.0
176
     1
 90
        1
176
     1
 90
        6
176
     1
 90
        2
176
     1
 62
     8
420
  7895160
176
     1
 90
        3
176
     1
 90
        0
176
     1
 90
        0
176
     1
290
     0
176
     1
 90
        5
176
     1
 40
0.0
176
     1
 90
        0
176
     1
290
     0
176
     1
290
     1
176
     1
290
     1
176
     1
290
     0
176
     1
290
     0
176
     1
290
     0
176
     1
290
     0
176
     1
290
     0
176
     1
290
     0
176
     1
 90
       50
176
     1
 40
0.0
176
     1
 40
1.0
176
     1
 90
        0
176
     1
 62
    18
420
        0
176
     1
 90
       50
176
     1
 90
        3
176
     1
 62
     5
420
      255
176
     1
290
     0
176
     1
 90
       50
176
     1
 90
       50
176
     1
 90
       50
176
     1
290
     0
176
     1
 90
       50
176
     1
 62
   256
176
     0
 40
1.0
176
     0
 90
        2
176
     1
  1
strokes_ogs.tif
176
     1
290
     0
176
     1
 40
1.0
176
     1
 40
1.0
176
     1
  0
VISUALSTYLE
  5
41
102
{ACAD_REACTORS
330
2A
102
}
330
2A
100
AcDbVisualStyle
  2
Shaded with edges
 70
    26
177
     3
291
     0
 70
    58
 90
        2
176
     1
 90
        2
176
     1
 90
        1
176
     1
 90
        2
176
     1
 40
0.6
176
     1
 40
30.0
176
     1
 62
     7
420
 16777215
176
     1
 90
        1
176
     1
 90
       10
176
     1
 62
     7
176
     1
 62
   257
176
     1
 90
        2
176
     1
 90
        1
176
     1
 40
1.0
176
     1
 90
        8
176
     1
 62
   257
176
     1
 40
1.0
176
     1
 90
        1
176
     1
 90
        6
176
     1
 90
        2
176
     1
 62
     7
176
     1
 90
        3
176
     1
 90
        0
176
     1
 90
        0
176
     1
290
     0
176
     1
 90
        5
176
     1
 40
0.0
176
     1
 90
        0
176
     1
290
     0
176
     1
290
     1
176
     1
290
     1
176
     1
290
     0
176
     1
290
     0
176
     1
290
     0
176
     1
290
     0
176
     1
290
     0
176
     1
290
     0
176
     1
 90
       50
176
     1
 40
0.0
176
     1
 40
1.0
176
     1
 90
        0
176
     1
 62
    18
420
        0
176
     1
 90
       50
176
     1
 90
        3
176
     1
 62
     5
420
      255
176
     1
290
     0
176
     1
 90
       50
176
     1
 90
       50
176
     1
 90
       50
176
     1
290
     0
176
     1
 90
       50
176
     1
 62
   256
176
     0
 40
1.0
176
     0
 90
        2
176
     1
  1
strokes_ogs.tif
176
     1
290
     0
176
     1
 40
1.0
176
     1
 40
1.0
176
     1
  0
VISUALSTYLE
  5
3E
102
{ACAD_REACTORS
330
2A
102
}
330
2A
100
AcDbVisualStyle
  2
Shades of Gray
 70
    23
177
     3
291
     0
 70
    58
 90
        2
176
     1
 90
        2
176
     1
 90
        3
176
     1
 90
        0
176
     1
 40
0.6
176
     1
 40
30.0
176
     1
 62
     7
420
 16777215
176
     1
 90
        2
176
     1
 90
        2
176
     1
 62
     7
176
     1
 62
     7
176
     1
 90
        1
176
     1
 90
        1
176
     1
 40
40.0
176
     1
 90
        8
176
     1
 62
     7
176
     1
 40
1.0
176
     1
 90
        1
176
     1
 90
        6
176
     1
 90
        2
176
     1
 62
     7
176
     1
 90
        3
176
     1
 90
        0
176
     1
 90
        0
176
     1
290
     0
176
     1
 90
        1
176
     1
 40
0.0
176
     1
 90
        0
176
     1
290
     0
176
     1
290
     1
176
     1
290
     1
176
     1
290
     0
176
     1
290
     0
176
     1
290
     0
176
     1
290
     0
176
     1
290
     0
176
     1
290
     0
176
     1
 90
       50
176
     1
 40
0.0
176
     1
 40
1.0
176
     1
 90
        0
176
     1
 62
    18
420
        0
176
     1
 90
       50
176
     1
 90
        3
176
     1
 62
     5
420
      255
176
     1
290
     0
176
     1
 90
       50
176
     1
 90
       50
176
     1
 90
       50
176
     1
290
     0
176
     1
 90
       50
176
     1
 62
   256
176
     0
 40
1.0
176
     0
 90
        2
176
     1
  1
strokes_ogs.tif
176
     1
290
     0
176
     1
 40
1.0
176
     1
 40
1.0
176
     1
  0
VISUALSTYLE
  5
3F
102
{ACAD_REACTORS
330
2A
102
}
330
2A
100
AcDbVisualStyle
  2
Sketchy
 70
    24
177
     3
291
     0
 70
    58
 90
        1
176
     1
 90
        2
176
     1
 90
        2
176
     1
 90
        0
176
     1
 40
0.6
176
     1
 40
30.0
176
     1
 62
     7
420
 16777215
176
     1
 90
        2
176
     1
 90
        2
176
     1
 62
     7
176
     1
 62
     7
176
     1
 90
        1
176
     1
 90
        1
176
     1
 40
40.0
176
     1
 90
       11
176
     1
 62
     7
176
     1
 40
1.0
176
     1
 90
        1
176
     1
 90
        6
176
     1
 90
        2
176
     1
 62
     7
176
     1
 90
        6
176
     1
 90
        0
176
     1
 90
        0
176
     1
290
     0
176
     1
 90
        1
176
     1
 40
0.0
176
     1
 90
        0
176
     1
290
     0
176
     1
290
     1
176
     1
290
     1
176
     1
290
     0
176
     1
290
     0
176
     1
290
     0
176
     1
290
     0
176
     1
290
     0
176
     1
290
     0
176
     1
 90
       50
176
     1
 40
0.0
176
     1
 40
1.0
176
     1
 90
        0
176
     1
 62
    18
420
        0
176
     1
 90
       50
176
     1
 90
        3
176
     1
 62
     5
420
      255
176
     1
290
     0
176
     1
 90
       50
176
     1
 90
       50
176
     1
 90
       50
176
     1
290
     0
176
     1
 90
       50
176
     1
 62
   256
176
     0
 40
1.0
176
     0
 90
        2
176
     1
  1
strokes_ogs.tif
176
     1
290
     0
176
     1
 40
1.0
176
     1
 40
1.0
176
     1
  0
VISUALSTYLE
  5
37
102
{ACAD_REACTORS
330
2A
102
}
330
2A
100
AcDbVisualStyle
  2
Thicken
 70
    13
177
     3
291
     1
 70
    58
 90
        2
176
     1
 90
        2
176
     1
 90
        0
176
     1
 90
        0
176
     1
 40
0.6
176
     1
 40
30.0
176
     1
 62
     7
420
 16777215
176
     1
 90
        1
176
     1
 90
        4
176
     1
 62
     7
176
     1
 62
   257
176
     1
 90
        1
176
     1
 90
        1
176
     1
 40
1.0
176
     1
 90
       12
176
     1
 62
     7
176
     1
 40
1.0
176
     1
 90
        1
176
     1
 90
        6
176
     1
 90
        2
176
     1
 62
     7
176
     1
 90
        5
176
     1
 90
        0
176
     1
 90
        0
176
     1
290
     0
176
     1
 90
        1
176
     1
 40
0.0
176
     1
 90
        0
176
     1
290
     0
176
     1
290
     1
176
     1
290
     1
176
     1
290
     0
176
     1
290
     0
176
     1
290
     0
176
     1
290
     0
176
     1
290
     0
176
     1
290
     0
176
     1
 90
       50
176
     1
 40
0.0
176
     1
 40
1.0
176
     1
 90
        0
176
     1
 62
    18
420
        0
176
     1
 90
       50
176
     1
 90
        3
176
     1
 62
     5
420
      255
176
     1
290
     0
176
     1
 90
       50
176
     1
 90
       50
176
     1
 90
       50
176
     1
290
     0
176
     1
 90
       50
176
     1
 62
   256
176
     0
 40
1.0
176
     0
 90
        2
176
     1
  1
strokes_ogs.tif
176
     1
290
     0
176
     1
 40
1.0
176
     1
 40
1.0
176
     1
  0
VISUALSTYLE
  5
30
102
{ACAD_REACTORS
330
2A
102
}
330
2A
100
AcDbVisualStyle
  2
Wireframe
 70
     5
177
     3
291
     0
 70
    58
 90
        0
176
     1
 90
        2
176
     1
 90
        0
176
     1
 90
        0
176
     1
 40
0.6
176
     1
 40
30.0
176
     1
 62
     7
420
 16777215
176
     1
 90
        1
176
     1
 90
        4
176
     1
 62
     7
176
     1
 62
   257
176
     1
 90
        1
176
     1
 90
        1
176
     1
 40
1.0
176
     1
 90
        0
176
     1
 62
   257
176
     1
 40
1.0
176
     1
 90
        1
176
     1
 90
        6
176
     1
 90
        2
176
     1
 62
     7
176
     1
 90
        3
176
     1
 90
        0
176
     1
 90
        0
176
     1
290
     0
176
     1
 90
        1
176
     1
 40
0.0
176
     1
 90
        0
176
     1
290
     0
176
     1
290
     1
176
     1
290
     1
176
     1
290
     0
176
     1
290
     0
176
     1
290
     0
176
     1
290
     0
176
     1
290
     0
176
     1
290
     0
176
     1
 90
       50
176
     1
 40
0.0
176
     1
 40
1.0
176
     1
 90
        0
176
     1
 62
    18
420
        0
176
     1
 90
       50
176
     1
 90
        3
176
     1
 62
     5
420
      255
176
     1
290
     0
176
     1
 90
       50
176
     1
 90
       50
176
     1
 90
       50
176
     1
290
     0
176
     1
 90
       50
176
     1
 62
   256
176
     0
 40
1.0
176
     0
 90
        2
176
     1
  1
strokes_ogs.tif
176
     1
290
     0
176
     1
 40
1.0
176
     1
 40
1.0
176
     1
  0
VISUALSTYLE
  5
40
102
{ACAD_REACTORS
330
2A
102
}
330
2A
100
AcDbVisualStyle
  2
X-Ray
 70
    25
177
     3
291
     0
 70
    58
 90
        2
176
     1
 90
        2
176
     1
 90
        1
176
     1
 90
        1
176
     1
 40
0.5
176
     1
 40
30.0
176
     1
 62
     7
420
 16777215
176
     1
 90
        1
176
     1
 90
        0
176
     1
 62
     7
176
     1
 62
   257
176
     1
 90
        1
176
     1
 90
        1
176
     1
 40
1.0
176
     1
 90
        8
176
     1
 62
     7
176
     1
 40
1.0
176
     1
 90
        1
176
     1
 90
        6
176
     1
 90
        2
176
     1
 62
     7
176
     1
 90
        3
176
     1
 90
        0
176
     1
 90
        0
176
     1
290
     0
176
     1
 90
       13
176
     1
 40
0.0
176
     1
 90
        0
176
     1
290
     0
176
     1
290
     1
176
     1
290
     1
176
     1
290
     0
176
     1
290
     0
176
     1
290
     0
176
     1
290
     0
176
     1
290
     0
176
     1
290
     0
176
     1
 90
       50
176
     1
 40
0.0
176
     1
 40
1.0
176
     1
 90
        0
176
     1
 62
    18
420
        0
176
     1
 90
       50
176
     1
 90
        3
176
     1
 62
     5
420
      255
176
     1
290
     0
176
     1
 90
       50
176
     1
 90
       50
176
     1
 90
       50
176
     1
290
     0
176
     1
 90
       50
176
     1
 62
   256
176
     0
 40
1.0
176
     0
 90
        2
176
     1
  1
strokes_ogs.tif
176
     1
290
     0
176
     1
 40
1.0
176
     1
 40
1.0
176
     1
  0
DICTIONARYVAR
  5
F8
102
{ACAD_REACTORS
330
F7
102
}
330
F7
100
DictionaryVariables
280
     0
  1
1:1
  0
DICTIONARYVAR
  5
FD
102
{ACAD_REACTORS
330
F7
102
}
330
F7
100
DictionaryVariables
280
     0
  1
Standard
  0
DICTIONARYVAR
  5
FC
102
{ACAD_REACTORS
330
F7
102
}
330
F7
100
DictionaryVariables
280
     0
  1
Standard
  0
DICTIONARY
  5
F9
330
5A
100
AcDbDictionary
280
     1
281
     1
  3
ACAD_ROUNDTRIP_2008_TABLESTYLE_CELLSTYLEMAP
360
FA
  0
CELLSTYLEMAP
  5
FA
102
{ACAD_REACTORS
330
F9
102
}
330
F9
100
AcDbCellStyleMap
 90
        3
300
CELLSTYLE
  1
TABLEFORMAT_BEGIN
 90
        5
170
     1
 91
        0
 92
    32768
 62
   257
 93
        1
300
CONTENTFORMAT
  1
CONTENTFORMAT_BEGIN
 90
        0
 91
        0
 92
        4
 93
        0
300

 40
0.0
140
1.0
 94
        5
 62
     0
340
11
144
0.25
309
CONTENTFORMAT_END
171
     1
301
MARGIN
  1
CELLMARGIN_BEGIN
 40
0.06
 40
0.06
 40
0.06
 40
0.06
 40
0.06
 40
0.06
309
CELLMARGIN_END
 94
        6
 95
        1
302
GRIDFORMAT
  1
GRIDFORMAT_BEGIN
 90
        0
 91
        1
 62
     0
 92
       -2
340
14
 93
        0
 40
0.045
309
GRIDFORMAT_END
 95
        2
302
GRIDFORMAT
  1
GRIDFORMAT_BEGIN
 90
        0
 91
        1
 62
     0
 92
       -2
340
14
 93
        0
 40
0.045
309
GRIDFORMAT_END
 95
        4
302
GRIDFORMAT
  1
GRIDFORMAT_BEGIN
 90
        0
 91
        1
 62
     0
 92
       -2
340
14
 93
        0
 40
0.045
309
GRIDFORMAT_END
 95
        8
302
GRIDFORMAT
  1
GRIDFORMAT_BEGIN
 90
        0
 91
        1
 62
     0
 92
       -2
340
14
 93
        0
 40
0.045
309
GRIDFORMAT_END
 95
       16
302
GRIDFORMAT
  1
GRIDFORMAT_BEGIN
 90
        0
 91
        1
 62
     0
 92
       -2
340
14
 93
        0
 40
0.045
309
GRIDFORMAT_END
 95
       32
302
GRIDFORMAT
  1
GRIDFORMAT_BEGIN
 90
        0
 91
        1
 62
     0
 92
       -2
340
14
 93
        0
 40
0.045
309
GRIDFORMAT_END
309
TABLEFORMAT_END
  1
CELLSTYLE_BEGIN
 90
        1
 91
        1
300
_TITLE
309
CELLSTYLE_END
300
CELLSTYLE
  1
TABLEFORMAT_BEGIN
 90
        5
170
     1
 91
        0
 92
        0
 62
   257
 93
        1
300
CONTENTFORMAT
  1
CONTENTFORMAT_BEGIN
 90
        0
 91
        0
 92
        4
 93
        0
300

 40
0.0
140
1.0
 94
        5
 62
     0
340
11
144
0.18
309
CONTENTFORMAT_END
171
     1
301
MARGIN
  1
CELLMARGIN_BEGIN
 40
0.06
 40
0.06
 40
0.06
 40
0.06
 40
0.06
 40
0.06
309
CELLMARGIN_END
 94
        6
 95
        1
302
GRIDFORMAT
  1
GRIDFORMAT_BEGIN
 90
        0
 91
        1
 62
     0
 92
       -2
340
14
 93
        0
 40
0.045
309
GRIDFORMAT_END
 95
        2
302
GRIDFORMAT
  1
GRIDFORMAT_BEGIN
 90
        0
 91
        1
 62
     0
 92
       -2
340
14
 93
        0
 40
0.045
309
GRIDFORMAT_END
 95
        4
302
GRIDFORMAT
  1
GRIDFORMAT_BEGIN
 90
        0
 91
        1
 62
     0
 92
       -2
340
14
 93
        0
 40
0.045
309
GRIDFORMAT_END
 95
        8
302
GRIDFORMAT
  1
GRIDFORMAT_BEGIN
 90
        0
 91
        1
 62
     0
 92
       -2
340
14
 93
        0
 40
0.045
309
GRIDFORMAT_END
 95
       16
302
GRIDFORMAT
  1
GRIDFORMAT_BEGIN
 90
        0
 91
        1
 62
     0
 92
       -2
340
14
 93
        0
 40
0.045
309
GRIDFORMAT_END
 95
       32
302
GRIDFORMAT
  1
GRIDFORMAT_BEGIN
 90
        0
 91
        1
 62
     0
 92
       -2
340
14
 93
        0
 40
0.045
309
GRIDFORMAT_END
309
TABLEFORMAT_END
  1
CELLSTYLE_BEGIN
 90
        2
 91
        1
300
_HEADER
309
CELLSTYLE_END
300
CELLSTYLE
  1
TABLEFORMAT_BEGIN
 90
        5
170
     1
 91
        0
 92
        0
 62
   257
 93
        1
300
CONTENTFORMAT
  1
CONTENTFORMAT_BEGIN
 90
        0
 91
        0
 92
        4
 93
        0
300

 40
0.0
140
1.0
 94
        2
 62
     0
340
11
144
0.18
309
CONTENTFORMAT_END
171
     1
301
MARGIN
  1
CELLMARGIN_BEGIN
 40
0.06
 40
0.06
 40
0.06
 40
0.06
 40
0.06
 40
0.06
309
CELLMARGIN_END
 94
        6
 95
        1
302
GRIDFORMAT
  1
GRIDFORMAT_BEGIN
 90
        0
 91
        1
 62
     0
 92
       -2
340
14
 93
        0
 40
0.045
309
GRIDFORMAT_END
 95
        2
302
GRIDFORMAT
  1
GRIDFORMAT_BEGIN
 90
        0
 91
        1
 62
     0
 92
       -2
340
14
 93
        0
 40
0.045
309
GRIDFORMAT_END
 95
        4
302
GRIDFORMAT
  1
GRIDFORMAT_BEGIN
 90
        0
 91
        1
 62
     0
 92
       -2
340
14
 93
        0
 40
0.045
309
GRIDFORMAT_END
 95
        8
302
GRIDFORMAT
  1
GRIDFORMAT_BEGIN
 90
        0
 91
        1
 62
     0
 92
       -2
340
14
 93
        0
 40
0.045
309
GRIDFORMAT_END
 95
       16
302
GRIDFORMAT
  1
GRIDFORMAT_BEGIN
 90
        0
 91
        1
 62
     0
 92
       -2
340
14
 93
        0
 40
0.045
309
GRIDFORMAT_END
 95
       32
302
GRIDFORMAT
  1
GRIDFORMAT_BEGIN
 90
        0
 91
        1
 62
     0
 92
       -2
340
14
 93
        0
 40
0.045
309
GRIDFORMAT_END
309
TABLEFORMAT_END
  1
CELLSTYLE_BEGIN
 90
        3
 91
        2
300
_DATA
309
CELLSTYLE_END
  0
ENDSEC
  0
EOF
