  0
SECTION
  2
HEADER
  9
$ACADVER
  1
AC1027
  9
$ACADMAINTVER
 70
   105
  9
$DWGCODEPAGE
  3
ANSI_1252
  9
$LASTSAVEDBY
  1
Office Desk
  9
$REQUIREDVERSIONS
160
                 0
  9
$INSBASE
 10
0.0
 20
0.0
 30
0.0
  9
$EXTMIN
 10
-405.2873
 20
-19.3803
 30
0.0
  9
$EXTMAX
 10
-118.8409
 20
215.8671
 30
0.0
  9
$LIMMIN
 10
0.0
 20
0.0
  9
$LIMMAX
 10
12.0
 20
9.0
  9
$ORTHOMODE
 70
     0
  9
$REGENMODE
 70
     1
  9
$FILLMODE
 70
     1
  9
$QTEXTMODE
 70
     0
  9
$MIRRTEXT
 70
     1
  9
$LTSCALE
 40
1.0
  9
$ATTMODE
 70
     1
  9
$TEXTSIZE
 40
0.2
  9
$TRACEWID
 40
0.05
  9
$TEXTSTYLE
  7
Standard
  9
$CLAYER
  8
0
  9
$CELTYPE
  6
ByLayer
  9
$CECOLOR
 62
   256
  9
$CELTSCALE
 40
1.0
  9
$DISPSILH
 70
     0
  9
$DIMSCALE
 40
1.0
  9
$DIMASZ
 40
0.18
  9
$DIMEXO
 40
0.0625
  9
$DIMDLI
 40
0.38
  9
$DIMRND
 40
0.0
  9
$DIMDLE
 40
0.0
  9
$DIMEXE
 40
0.18
  9
$DIMTP
 40
0.0
  9
$DIMTM
 40
0.0
  9
$DIMTXT
 40
0.18
  9
$DIMCEN
 40
0.09
  9
$DIMTSZ
 40
0.0
  9
$DIMTOL
 70
     0
  9
$DIMLIM
 70
     0
  9
$DIMTIH
 70
     1
  9
$DIMTOH
 70
     1
  9
$DIMSE1
 70
     0
  9
$DIMSE2
 70
     0
  9
$DIMTAD
 70
     0
  9
$DIMZIN
 70
     0
  9
$DIMBLK
  1

  9
$DIMASO
 70
     1
  9
$DIMSHO
 70
     1
  9
$DIMPOST
  1

  9
$DIMAPOST
  1

  9
$DIMALT
 70
     0
  9
$DIMALTD
 70
     2
  9
$DIMALTF
 40
25.4
  9
$DIMLFAC
 40
1.0
  9
$DIMTOFL
 70
     0
  9
$DIMTVP
 40
0.0
  9
$DIMTIX
 70
     0
  9
$DIMSOXD
 70
     0
  9
$DIMSAH
 70
     0
  9
$DIMBLK1
  1

  9
$DIMBLK2
  1

  9
$DIMSTYLE
  2
Standard
  9
$DIMCLRD
 70
     0
  9
$DIMCLRE
 70
     0
  9
$DIMCLRT
 70
     0
  9
$DIMTFAC
 40
1.0
  9
$DIMGAP
 40
0.09
  9
$DIMJUST
 70
     0
  9
$DIMSD1
 70
     0
  9
$DIMSD2
 70
     0
  9
$DIMTOLJ
 70
     1
  9
$DIMTZIN
 70
     0
  9
$DIMALTZ
 70
     0
  9
$DIMALTTZ
 70
     0
  9
$DIMUPT
 70
     0
  9
$DIMDEC
 70
     4
  9
$DIMTDEC
 70
     4
  9
$DIMALTU
 70
     2
  9
$DIMALTTD
 70
     2
  9
$DIMTXSTY
  7
Standard
  9
$DIMAUNIT
 70
     0
  9
$DIMADEC
 70
     0
  9
$DIMALTRND
 40
0.0
  9
$DIMAZIN
 70
     0
  9
$DIMDSEP
 70
    46
  9
$DIMATFIT
 70
     3
  9
$DIMFRAC
 70
     0
  9
$DIMLDRBLK
  1

  9
$DIMLUNIT
 70
     2
  9
$DIMLWD
 70
    -2
  9
$DIMLWE
 70
    -2
  9
$DIMTMOVE
 70
     0
  9
$DIMFXL
 40
1.0
  9
$DIMFXLON
 70
     0
  9
$DIMJOGANG
 40
0.7853981633974483
  9
$DIMTFILL
 70
     0
  9
$DIMTFILLCLR
 70
     0
  9
$DIMARCSYM
 70
     0
  9
$DIMLTYPE
  6

  9
$DIMLTEX1
  6

  9
$DIMLTEX2
  6

  9
$DIMTXTDIRECTION
 70
     0
  9
$LUNITS
 70
     2
  9
$LUPREC
 70
     4
  9
$SKETCHINC
 40
0.1
  9
$FILLETRAD
 40
0.0
  9
$AUNITS
 70
     0
  9
$AUPREC
 70
     0
  9
$MENU
  1
.
  9
$ELEVATION
 40
0.0
  9
$PELEVATION
 40
0.0
  9
$THICKNESS
 40
0.0
  9
$LIMCHECK
 70
     0
  9
$CHAMFERA
 40
0.0
  9
$CHAMFERB
 40
0.0
  9
$CHAMFERC
 40
0.0
  9
$CHAMFERD
 40
0.0
  9
$SKPOLY
 70
     0
  9
$TDCREATE
 40
2461016.690028843
  9
$TDUCREATE
 40
2461016.460862176
  9
$TDUPDATE
 40
2461016.690028843
  9
$TDUUPDATE
 40
2461016.460862176
  9
$TDINDWG
 40
0.0000000116
  9
$TDUSRTIMER
 40
0.0000000116
  9
$USRTIMER
 70
     1
  9
$ANGBASE
 50
0.0
  9
$ANGDIR
 70
     0
  9
$PDMODE
 70
     0
  9
$PDSIZE
 40
0.0
  9
$PLINEWID
 40
0.0
  9
$SPLFRAME
 70
     0
  9
$SPLINETYPE
 70
     6
  9
$SPLINESEGS
 70
     8
  9
$HANDSEED
  5
9D
  9
$SURFTAB1
 70
     6
  9
$SURFTAB2
 70
     6
  9
$SURFTYPE
 70
     6
  9
$SURFU
 70
     6
  9
$SURFV
 70
     6
  9
$UCSBASE
  2

  9
$UCSNAME
  2

  9
$UCSORG
 10
0.0
 20
0.0
 30
0.0
  9
$UCSXDIR
 10
1.0
 20
0.0
 30
0.0
  9
$UCSYDIR
 10
0.0
 20
1.0
 30
0.0
  9
$UCSORTHOREF
  2

  9
$UCSORTHOVIEW
 70
     0
  9
$UCSORGTOP
 10
0.0
 20
0.0
 30
0.0
  9
$UCSORGBOTTOM
 10
0.0
 20
0.0
 30
0.0
  9
$UCSORGLEFT
 10
0.0
 20
0.0
 30
0.0
  9
$UCSORGRIGHT
 10
0.0
 20
0.0
 30
0.0
  9
$UCSORGFRONT
 10
0.0
 20
0.0
 30
0.0
  9
$UCSORGBACK
 10
0.0
 20
0.0
 30
0.0
  9
$PUCSBASE
  2

  9
$PUCSNAME
  2

  9
$PUCSORG
 10
0.0
 20
0.0
 30
0.0
  9
$PUCSXDIR
 10
1.0
 20
0.0
 30
0.0
  9
$PUCSYDIR
 10
0.0
 20
1.0
 30
0.0
  9
$PUCSORTHOREF
  2

  9
$PUCSORTHOVIEW
 70
     0
  9
$PUCSORGTOP
 10
0.0
 20
0.0
 30
0.0
  9
$PUCSORGBOTTOM
 10
0.0
 20
0.0
 30
0.0
  9
$PUCSORGLEFT
 10
0.0
 20
0.0
 30
0.0
  9
$PUCSORGRIGHT
 10
0.0
 20
0.0
 30
0.0
  9
$PUCSORGFRONT
 10
0.0
 20
0.0
 30
0.0
  9
$PUCSORGBACK
 10
0.0
 20
0.0
 30
0.0
  9
$USERI1
 70
     0
  9
$USERI2
 70
     0
  9
$USERI3
 70
     0
  9
$USERI4
 70
     0
  9
$USERI5
 70
     0
  9
$USERR1
 40
0.0
  9
$USERR2
 40
0.0
  9
$USERR3
 40
0.0
  9
$USERR4
 40
0.0
  9
$USERR5
 40
0.0
  9
$WORLDVIEW
 70
     1
  9
$SHADEDGE
 70
     3
  9
$SHADEDIF
 70
    70
  9
$TILEMODE
 70
     1
  9
$MAXACTVP
 70
    64
  9
$PINSBASE
 10
0.0
 20
0.0
 30
0.0
  9
$PLIMCHECK
 70
     0
  9
$PEXTMIN
 10
1.000000000000000E+20
 20
1.000000000000000E+20
 30
1.000000000000000E+20
  9
$PEXTMAX
 10
-1.000000000000000E+20
 20
-1.000000000000000E+20
 30
-1.000000000000000E+20
  9
$PLIMMIN
 10
0.0
 20
0.0
  9
$PLIMMAX
 10
12.0
 20
9.0
  9
$UNITMODE
 70
     0
  9
$VISRETAIN
 70
     1
  9
$PLINEGEN
 70
     0
  9
$PSLTSCALE
 70
     1
  9
$TREEDEPTH
 70
  3020
  9
$CMLSTYLE
  2
Standard
  9
$CMLJUST
 70
     0
  9
$CMLSCALE
 40
1.0
  9
$PROXYGRAPHICS
 70
     1
  9
$MEASUREMENT
 70
     0
  9
$CELWEIGHT
370
    -1
  9
$ENDCAPS
280
     0
  9
$JOINSTYLE
280
     0
  9
$LWDISPLAY
290
     0
  9
$INSUNITS
 70
     4
  9
$HYPERLINKBASE
  1

  9
$STYLESHEET
  1

  9
$XEDIT
290
     1
  9
$CEPSNTYPE
380
     0
  9
$PSTYLEMODE
290
     1
  9
$FINGERPRINTGUID
  2
{9e6bc2cd-52ea-4df1-9937-e585e2b66c12}
  9
$VERSIONGUID
  2
{FAEB1C32-E019-11D5-929B-00C0DF256EC4}
  9
$EXTNAMES
290
     1
  9
$PSVPSCALE
 40
0.0
  9
$OLESTARTUP
290
     0
  9
$SORTENTS
280
   127
  9
$INDEXCTL
280
     0
  9
$HIDETEXT
280
     1
  9
$XCLIPFRAME
280
     2
  9
$HALOGAP
280
     0
  9
$OBSCOLOR
 70
   257
  9
$OBSLTYPE
280
     0
  9
$INTERSECTIONDISPLAY
280
     0
  9
$INTERSECTIONCOLOR
 70
   257
  9
$DIMASSOC
280
     2
  9
$PROJECTNAME
  1

  9
$CAMERADISPLAY
290
     0
  9
$LENSLENGTH
 40
50.0
  9
$CAMERAHEIGHT
 40
0.0
  9
$STEPSPERSEC
 40
2.0
  9
$STEPSIZE
 40
6.0
  9
$3DDWFPREC
 40
2.0
  9
$PSOLWIDTH
 40
0.25
  9
$PSOLHEIGHT
 40
4.0
  9
$LOFTANG1
 40
1.570796326794897
  9
$LOFTANG2
 40
1.570796326794897
  9
$LOFTMAG1
 40
0.0
  9
$LOFTMAG2
 40
0.0
  9
$LOFTPARAM
 70
     7
  9
$LOFTNORMALS
280
     1
  9
$LATITUDE
 40
37.795
  9
$LONGITUDE
 40
-122.394
  9
$NORTHDIRECTION
 40
0.0
  9
$TIMEZONE
 70
 -8000
  9
$LIGHTGLYPHDISPLAY
280
     1
  9
$TILEMODELIGHTSYNCH
280
     1
  9
$CMATERIAL
347
44
  9
$SOLIDHIST
280
     0
  9
$SHOWHIST
280
     1
  9
$DWFFRAME
280
     2
  9
$DGNFRAME
280
     2
  9
$REALWORLDSCALE
290
     1
  9
$INTERFERECOLOR
 62
   256
  9
$CSHADOW
280
     0
  9
$SHADOWPLANELOCATION
 40
0.0
  0
ENDSEC
  0
SECTION
  2
CLASSES
  0
CLASS
  1
ACDBDICTIONARYWDFLT
  2
AcDbDictionaryWithDefault
  3
ObjectDBX Classes
 90
        0
 91
        3
280
     0
281
     0
  0
CLASS
  1
VISUALSTYLE
  2
AcDbVisualStyle
  3
ObjectDBX Classes
 90
     4095
 91
        3
280
     0
281
     0
  0
CLASS
  1
MATERIAL
  2
AcDbMaterial
  3
ObjectDBX Classes
 90
     1153
 91
        3
280
     0
281
     0
  0
CLASS
  1
SCALE
  2
AcDbScale
  3
ObjectDBX Classes
 90
     1153
 91
        3
280
     0
281
     0
  0
CLASS
  1
TABLESTYLE
  2
AcDbTableStyle
  3
ObjectDBX Classes
 90
     4095
 91
        3
280
     0
281
     0
  0
CLASS
  1
MLEADERSTYLE
  2
AcDbMLeaderStyle
  3
ACDB_MLEADERSTYLE_CLASS
 90
     4095
 91
        3
280
     0
281
     0
  0
CLASS
  1
SUN
  2
AcDbSun
  3
SCENEOE
 90
     1153
 91
        3
280
     0
281
     0
  0
CLASS
  1
DICTIONARYVAR
  2
AcDbDictionaryVar
  3
ObjectDBX Classes
 90
        0
 91
        3
280
     0
281
     0
  0
CLASS
  1
CELLSTYLEMAP
  2
AcDbCellStyleMap
  3
ObjectDBX Classes
 90
     1152
 91
        3
280
     0
281
     0
  0
ENDSEC
  0
SECTION
  2
TABLES
  0
TABLE
  2
VPORT
  5
8
330
0
100
AcDbSymbolTable
 70
     1
  0
VPORT
  5
29
330
8
100
AcDbSymbolTableRecord
100
AcDbViewportTableRecord
  2
*Active
 70
     0
 10
0.0
 20
0.0
 11
1.0
 21
1.0
 12
10.42990654205607
 22
4.5
 13
0.0
 23
0.0
 14
0.5
 24
0.5
 15
0.5
 25
0.5
 16
0.0
 26
0.0
 36
1.0
 17
0.0
 27
0.0
 37
0.0
 40
9.0
 41
1.972972972850329
 42
50.0
 43
0.0
 44
0.0
 50
0.0
 51
0.0
 71
     0
 72
   100
 73
     1
 74
     3
 75
     0
 76
     0
 77
     0
 78
     0
281
     0
 65
     1
110
0.0
120
0.0
130
0.0
111
1.0
121
0.0
131
0.0
112
0.0
122
1.0
132
0.0
 79
     0
146
0.0
348
2F
 60
     3
 61
     5
292
     1
282
     1
141
0.0
142
0.0
 63
   250
361
5D
  0
ENDTAB
  0
TABLE
  2
LTYPE
  5
5
330
0
100
AcDbSymbolTable
 70
     1
  0
LTYPE
  5
14
330
5
100
AcDbSymbolTableRecord
100
AcDbLinetypeTableRecord
  2
ByBlock
 70
     0
  3

 72
    65
 73
     0
 40
0.0
  0
LTYPE
  5
15
330
5
100
AcDbSymbolTableRecord
100
AcDbLinetypeTableRecord
  2
ByLayer
 70
     0
  3

 72
    65
 73
     0
 40
0.0
  0
LTYPE
  5
16
330
5
100
AcDbSymbolTableRecord
100
AcDbLinetypeTableRecord
  2
Continuous
 70
     0
  3
Solid line
 72
    65
 73
     0
 40
0.0
  0
ENDTAB
  0
TABLE
  2
LAYER
  5
2
330
0
100
AcDbSymbolTable
 70
     2
  0
LAYER
  5
10
330
2
100
AcDbSymbolTableRecord
100
AcDbLayerTableRecord
  2
0
 70
     0
 62
     7
  6
Continuous
370
    -3
390
F
347
46
348
0
  0
LAYER
  5
5F
330
2
100
AcDbSymbolTableRecord
100
AcDbLayerTableRecord
  2
Layer 1
 70
     0
 62
     7
  6
Continuous
370
    -3
390
F
347
46
348
0
  0
ENDTAB
  0
TABLE
  2
STYLE
  5
3
330
0
100
AcDbSymbolTable
 70
     1
  0
STYLE
  5
11
330
3
100
AcDbSymbolTableRecord
100
AcDbTextStyleTableRecord
  2
Standard
 70
     0
 40
0.0
 41
1.0
 50
0.0
 71
     0
 42
0.2
  3
txt
  4

  0
ENDTAB
  0
TABLE
  2
VIEW
  5
6
330
0
100
AcDbSymbolTable
 70
     0
  0
ENDTAB
  0
TABLE
  2
UCS
  5
7
330
0
100
AcDbSymbolTable
 70
     0
  0
ENDTAB
  0
TABLE
  2
APPID
  5
9
330
0
100
AcDbSymbolTable
 70
     2
  0
APPID
  5
12
330
9
100
AcDbSymbolTableRecord
100
AcDbRegAppTableRecord
  2
ACAD
 70
     0
  0
APPID
  5
5E
330
9
100
AcDbSymbolTableRecord
100
AcDbRegAppTableRecord
  2
ODA
 70
     0
  0
ENDTAB
  0
TABLE
  2
DIMSTYLE
  5
A
330
0
100
AcDbSymbolTable
 70
     1
100
AcDbDimStyleTable
  0
DIMSTYLE
105
27
330
A
100
AcDbSymbolTableRecord
100
AcDbDimStyleTableRecord
  2
Standard
 70
     0
178
     0
340
11
  0
ENDTAB
  0
TABLE
  2
BLOCK_RECORD
  5
1
330
0
100
AcDbSymbolTable
 70
     1
  0
BLOCK_RECORD
  5
1F
330
1
100
AcDbSymbolTableRecord
100
AcDbBlockTableRecord
  2
*Model_Space
340
22
 70
     0
280
     1
281
     0
  0
BLOCK_RECORD
  5
1B
330
1
100
AcDbSymbolTableRecord
100
AcDbBlockTableRecord
  2
*Paper_Space
340
1E
 70
     0
280
     1
281
     0
  0
BLOCK_RECORD
  5
23
330
1
100
AcDbSymbolTableRecord
100
AcDbBlockTableRecord
  2
*Paper_Space0
340
26
 70
     0
280
     1
281
     0
  0
ENDTAB
  0
ENDSEC
  0
SECTION
  2
BLOCKS
  0
BLOCK
  5
20
330
1F
100
AcDbEntity
  8
0
100
AcDbBlockBegin
  2
*Model_Space
 70
     0
 10
0.0
 20
0.0
 30
0.0
  3
*Model_Space
  1

  0
ENDBLK
  5
21
330
1F
100
AcDbEntity
  8
0
100
AcDbBlockEnd
  0
BLOCK
  5
1C
330
1B
100
AcDbEntity
 67
     1
  8
0
100
AcDbBlockBegin
  2
*Paper_Space
 70
     0
 10
0.0
 20
0.0
 30
0.0
  3
*Paper_Space
  1

  0
ENDBLK
  5
1D
330
1B
100
AcDbEntity
 67
     1
  8
0
100
AcDbBlockEnd
  0
BLOCK
  5
24
330
23
100
AcDbEntity
  8
0
100
AcDbBlockBegin
  2
*Paper_Space0
 70
     0
 10
0.0
 20
0.0
 30
0.0
  3
*Paper_Space0
  1

  0
ENDBLK
  5
25
330
23
100
AcDbEntity
  8
0
100
AcDbBlockEnd
  0
ENDSEC
  0
SECTION
  2
ENTITIES
  0
LWPOLYLINE
  5
60
330
1F
100
AcDbEntity
  8
Layer 1
 62
   250
370
     9
100
AcDbPolyline
 90
        5
 70
     1
 43
0.0
 10
-405.2492
 20
-19.3422
 10
-118.879
 20
-19.3422
 10
-118.879
 20
215.829
 10
-405.2492
 20
215.829
 10
-405.2492
 20
-19.3422
  0
LWPOLYLINE
  5
61
330
1F
100
AcDbEntity
  8
Layer 1
 62
     7
370
     9
100
AcDbPolyline
 90
        5
 70
     1
 43
0.0
 10
-390.0079
 20
141.6664
 10
-136.0082
 20
141.6664
 10
-136.0082
 20
136.5598
 10
-390.0079
 20
136.5598
 10
-390.0079
 20
141.6664
  0
LWPOLYLINE
  5
62
330
1F
100
AcDbEntity
  8
Layer 1
 62
     7
370
     9
100
AcDbPolyline
 90
        5
 70
     1
 43
0.0
 10
-354.6836
 20
138.7541
 10
-367.7829
 20
25.3094
 10
-371.8438
 20
26.0273
 10
-358.7445
 20
139.4721
 10
-354.6836
 20
138.7541
  0
LWPOLYLINE
  5
63
330
1F
100
AcDbEntity
  8
Layer 1
 62
     7
370
     9
100
AcDbPolyline
 90
        5
 70
     1
 43
0.0
 10
-166.3108
 20
139.4721
 10
-153.1218
 20
26.2799
 10
-157.1827
 20
25.562
 10
-170.3717
 20
138.7541
 10
-166.3108
 20
139.4721
  0
LWPOLYLINE
  5
64
330
1F
100
AcDbEntity
  8
Layer 1
 62
     7
370
     9
100
AcDbPolyline
 90
        5
 70
     1
 43
0.0
 10
-379.3822
 20
158.5974
 10
-146.7649
 20
158.7327
 10
-146.7649
 20
155.7553
 10
-379.3822
 20
155.62
 10
-379.3822
 20
158.5974
  0
LWPOLYLINE
  5
65
330
1F
100
AcDbEntity
  8
Layer 1
 62
     7
370
     9
100
AcDbPolyline
 90
        8
 70
     1
 43
0.0
 10
-357.6248
 20
163.3936
 10
-376.887
 20
157.5653
 10
-354.704
 20
151.2269
 10
-355.2397
 20
148.319
 10
-382.3629
 20
156.0694
 10
-382.3769
 20
158.9716
 10
-358.1884
 20
166.2899
 10
-357.6248
 20
163.3936
  0
LWPOLYLINE
  5
66
330
1F
100
AcDbEntity
  8
Layer 1
 62
     7
370
     9
100
AcDbPolyline
 90
        8
 70
     1
 43
0.0
 10
-168.3972
 20
151.41
 10
-149.1343
 20
157.2411
 10
-171.3185
 20
163.5774
 10
-170.7828
 20
166.4853
 10
-143.6584
 20
158.7378
 10
-143.6444
 20
155.8356
 10
-167.8335
 20
148.5137
 10
-168.3972
 20
151.41
  0
LWPOLYLINE
  5
67
330
1F
100
AcDbEntity
  8
Layer 1
 62
     7
370
     9
100
AcDbPolyline
 90
        5
 70
     1
 43
0.0
 10
-348.357
 20
115.0266
 10
-177.7575
 20
115.1642
 10
-177.7575
 20
112.6137
 10
-348.357
 20
112.4762
 10
-348.357
 20
115.0266
  0
LWPOLYLINE
  5
68
330
1F
100
AcDbEntity
  8
Layer 1
 62
     7
370
     9
100
AcDbPolyline
 90
        8
 70
     1
 43
0.0
 10
-332.2862
 20
120.2766
 10
-347.0049
 20
114.2023
 10
-330.1504
 20
107.6352
 10
-330.7618
 20
105.1948
 10
-350.6535
 20
112.9452
 10
-350.6698
 20
115.3755
 10
-332.9302
 20
122.6967
 10
-332.2862
 20
120.2766
  0
LWPOLYLINE
  5
69
330
1F
100
AcDbEntity
  8
Layer 1
 62
     7
370
     9
100
AcDbPolyline
 90
        8
 70
     1
 43
0.0
 10
-193.7363
 20
107.8183
 10
-179.0176
 20
113.8889
 10
-195.8779
 20
120.4568
 10
-195.2665
 20
122.8972
 10
-175.3672
 20
115.1453
 10
-175.3509
 20
112.715
 10
-193.0923
 20
105.3981
 10
-193.7363
 20
107.8183
  0
LWPOLYLINE
  5
6A
330
1F
100
AcDbEntity
  8
Layer 1
 62
     7
370
     9
100
AcDbPolyline
 90
        5
 70
     1
 43
0.0
 10
-356.3885
 20
39.0451
 10
-169.7294
 20
39.1804
 10
-169.7294
 20
36.5127
 10
-356.3885
 20
36.3774
 10
-356.3885
 20
39.0451
  0
LWPOLYLINE
  5
6B
330
1F
100
AcDbEntity
  8
Layer 1
 62
     7
370
     9
100
AcDbPolyline
 90
        8
 70
     1
 43
0.0
 10
-338.8411
 20
44.1705
 10
-354.7634
 20
38.1643
 10
-336.5032
 20
31.6652
 10
-337.0925
 20
29.0916
 10
-358.8581
 20
36.8384
 10
-358.8749
 20
39.4019
 10
-339.4642
 20
46.7239
 10
-338.8411
 20
44.1705
  0
LWPOLYLINE
  5
6C
330
1F
100
AcDbEntity
  8
Layer 1
 62
     7
370
     9
100
AcDbPolyline
 90
        8
 70
     1
 43
0.0
 10
-187.1709
 20
31.8454
 10
-171.2504
 20
37.8473
 10
-189.5094
 20
44.3442
 10
-188.9201
 20
46.9178
 10
-167.1545
 20
39.1732
 10
-167.1376
 20
36.6097
 10
-186.5478
 20
29.2921
 10
-187.1709
 20
31.8454
  0
LWPOLYLINE
  5
6D
330
1F
100
AcDbEntity
  8
Layer 1
 62
     7
370
     9
100
AcDbPolyline
 90
        7
 70
     1
 43
0.0
 10
-314.7145
 20
166.5576
 10
-313.2816
 20
166.5576
 10
-313.2816
 20
180.6051
 10
-316.7235
 20
180.2378
 10
-316.7235
 20
178.9918
 10
-314.7145
 20
178.9918
 10
-314.7145
 20
166.5576
  0
LWPOLYLINE
  5
6E
330
1F
100
AcDbEntity
  8
Layer 1
 62
     7
370
     9
100
AcDbPolyline
 90
      106
 70
     1
 43
0.0
 10
-305.0148
 20
178.8289
 10
-304.7782
 20
178.6687
 10
-304.5577
 20
178.4869
 10
-304.3532
 20
178.2832
 10
-304.1648
 20
178.0579
 10
-303.9923
 20
177.8109
 10
-303.8357
 20
177.5422
 10
-303.6951
 20
177.2518
 10
-303.5703
 20
176.9397
 10
-303.4312
 20
176.5259
 10
-303.3106
 20
176.1059
 10
-303.2086
 20
175.6799
 10
-303.1252
 20
175.2479
 10
-303.0603
 20
174.8097
 10
-303.0139
 20
174.3655
 10
-302.9861
 20
173.9152
 10
-302.9768
 20
173.4588
 10
-303.0375
 20
172.4481
 10
-303.1088
 20
171.8991
 10
-303.2018
 20
171.3805
 10
-303.3164
 20
170.8923
 10
-303.4528
 20
170.4344
 10
-303.611
 20
170.0068
 10
-303.7909
 20
169.6094
 10
-303.9926
 20
169.2424
 10
-304.2161
 20
168.9056
 10
-304.42
 20
168.652
 10
-304.6348
 20
168.4322
 10
-304.8605
 20
168.2462
 10
-305.097
 20
168.094
 10
-305.3444
 20
167.9757
 10
-305.6027
 20
167.8911
 10
-305.8718
 20
167.8404
 10
-306.1519
 20
167.8235
 10
-306.4645
 20
167.8403
 10
-306.762
 20
167.8905
 10
-307.0445
 20
167.9743
 10
-307.312
 20
168.0916
 10
-307.5644
 20
168.2423
 10
-307.8018
 20
168.4266
 10
-308.0241
 20
168.6444
 10
-308.2314
 20
168.8957
 10
-308.319
 20
169.0176
 10
-308.4028
 20
169.1433
 10
-308.4829
 20
169.2729
 10
-308.5591
 20
169.4062
 10
-308.6315
 20
169.5434
 10
-308.7001
 20
169.6844
 10
-308.7648
 20
169.8292
 10
-308.8257
 20
169.9778
 10
-308.9362
 20
170.2808
 10
-309.0329
 20
170.5876
 10
-309.1156
 20
170.8983
 10
-309.184
 20
171.213
 10
-309.2408
 20
171.5267
 10
-309.289
 20
171.8355
 10
-309.3283
 20
172.1394
 10
-309.3585
 20
172.4381
 10
-309.3808
 20
172.7455
 10
-309.3966
 20
173.0755
 10
-309.4061
 20
173.4277
 10
-309.4092
 20
173.802
 10
-309.4057
 20
174.0006
 10
-309.3952
 20
174.2107
 10
-309.3776
 20
174.4323
 10
-309.353
 20
174.6654
 10
-309.3213
 20
174.9101
 10
-309.2826
 20
175.1666
 10
-309.2369
 20
175.4347
 10
-309.184
 20
175.7146
 10
-309.1163
 20
176.0255
 10
-309.0357
 20
176.335
 10
-308.9421
 20
176.6433
 10
-308.8357
 20
176.9505
 10
-308.7772
 20
177.1016
 10
-308.7146
 20
177.2489
 10
-308.6479
 20
177.3924
 10
-308.5769
 20
177.5321
 10
-308.5018
 20
177.668
 10
-308.4225
 20
177.8
 10
-308.3391
 20
177.9282
 10
-308.2514
 20
178.0526
 10
-308.1597
 20
178.1721
 10
-308.0634
 20
178.2855
 10
-307.9627
 20
178.3928
 10
-307.8575
 20
178.4941
 10
-307.7478
 20
178.5893
 10
-307.6337
 20
178.6785
 10
-307.5151
 20
178.7617
 10
-307.392
 20
178.8389
 10
-307.2633
 20
178.9082
 10
-307.1289
 20
178.9682
 10
-306.9889
 20
179.0191
 10
-306.8432
 20
179.0607
 10
-306.6918
 20
179.0931
 10
-306.5347
 20
179.1163
 10
-306.3719
 20
179.1302
 10
-306.2034
 20
179.1348
 10
-306.0345
 20
179.13
 10
-305.8715
 20
179.1156
 10
-305.7142
 20
179.0917
 10
-305.5627
 20
179.0582
 10
-305.417
 20
179.0152
 10
-305.2771
 20
178.9626
 10
-305.143
 20
178.9005
 10
-305.0148
 20
178.8289
  0
LWPOLYLINE
  5
6F
330
1F
100
AcDbEntity
  8
Layer 1
 62
     7
370
     9
100
AcDbPolyline
 90
       65
 70
     1
 43
0.0
 10
-306.1319
 20
166.3739
 10
-305.5335
 20
166.4117
 10
-304.9734
 20
166.5251
 10
-304.4513
 20
166.7141
 10
-303.9675
 20
166.9787
 10
-303.5217
 20
167.3189
 10
-303.1141
 20
167.7347
 10
-302.7447
 20
168.2262
 10
-302.4133
 20
168.7934
 10
-302.1804
 20
169.2881
 10
-301.9786
 20
169.8103
 10
-301.8079
 20
170.3599
 10
-301.6682
 20
170.9371
 10
-301.5596
 20
171.5417
 10
-301.482
 20
172.1738
 10
-301.4355
 20
172.8333
 10
-301.42
 20
173.5203
 10
-301.4355
 20
174.207
 10
-301.482
 20
174.8663
 10
-301.5596
 20
175.4982
 10
-301.6682
 20
176.1027
 10
-301.8079
 20
176.6798
 10
-301.9786
 20
177.2294
 10
-302.1804
 20
177.7516
 10
-302.4133
 20
178.2463
 10
-302.7447
 20
178.8135
 10
-303.1141
 20
179.305
 10
-303.5217
 20
179.7208
 10
-303.9675
 20
180.061
 10
-304.4513
 20
180.3256
 10
-304.9734
 20
180.5146
 10
-305.5335
 20
180.628
 10
-306.1319
 20
180.6658
 10
-306.7297
 20
180.628
 10
-307.2895
 20
180.5146
 10
-307.8113
 20
180.3256
 10
-308.295
 20
180.061
 10
-308.7408
 20
179.7208
 10
-309.1484
 20
179.305
 10
-309.5181
 20
178.8135
 10
-309.8497
 20
178.2463
 10
-310.0826
 20
177.7516
 10
-310.2845
 20
177.2294
 10
-310.4554
 20
176.6798
 10
-310.5952
 20
176.1027
 10
-310.7039
 20
175.4982
 10
-310.7816
 20
174.8663
 10
-310.8283
 20
174.207
 10
-310.8438
 20
173.5203
 10
-310.8283
 20
172.8333
 10
-310.7816
 20
172.1738
 10
-310.7039
 20
171.5417
 10
-310.5952
 20
170.9371
 10
-310.4554
 20
170.3599
 10
-310.2845
 20
169.8103
 10
-310.0826
 20
169.2881
 10
-309.8497
 20
168.7934
 10
-309.5181
 20
168.2262
 10
-309.1484
 20
167.7347
 10
-308.7408
 20
167.3189
 10
-308.295
 20
166.9787
 10
-307.8113
 20
166.7141
 10
-307.2895
 20
166.5251
 10
-306.7297
 20
166.4117
 10
-306.1319
 20
166.3739
  0
LWPOLYLINE
  5
70
330
1F
100
AcDbEntity
  8
Layer 1
 62
     7
370
     9
100
AcDbPolyline
 90
        5
 70
     1
 43
0.0
 10
-296.7289
 20
181.871
 10
-298.6946
 20
181.871
 10
-299.8832
 20
176.5823
 10
-299.023
 20
176.5823
 10
-296.7289
 20
181.871
  0
LWPOLYLINE
  5
71
330
1F
100
AcDbEntity
  8
Layer 1
 62
     7
370
     9
100
AcDbPolyline
 90
        5
 70
     1
 43
0.0
 10
-293.5115
 20
181.871
 10
-295.478
 20
181.871
 10
-296.6666
 20
176.5823
 10
-295.8063
 20
176.5823
 10
-293.5115
 20
181.871
  0
LWPOLYLINE
  5
72
330
1F
100
AcDbEntity
  8
Layer 1
 62
     7
370
     9
100
AcDbPolyline
 90
        5
 70
     1
 43
0.0
 10
-279.6219
 20
168.6197
 10
-279.6219
 20
169.7834
 10
-286.4848
 20
169.7834
 10
-286.4848
 20
168.6197
 10
-279.6219
 20
168.6197
  0
LWPOLYLINE
  5
73
330
1F
100
AcDbEntity
  8
Layer 1
 62
     7
370
     9
100
AcDbPolyline
 90
        5
 70
     1
 43
0.0
 10
-279.6219
 20
172.3151
 10
-279.6219
 20
173.4795
 10
-286.4848
 20
173.4795
 10
-286.4848
 20
172.3151
 10
-279.6219
 20
172.3151
  0
LWPOLYLINE
  5
74
330
1F
100
AcDbEntity
  8
Layer 1
 62
     7
370
     9
100
AcDbPolyline
 90
       87
 70
     1
 43
0.0
 10
-271.2213
 20
166.5576
 10
-261.4085
 20
166.5576
 10
-261.4085
 20
167.9872
 10
-267.7595
 20
167.9872
 10
-262.9038
 20
172.7847
 10
-262.587
 20
173.1302
 10
-262.3125
 20
173.493
 10
-262.0802
 20
173.873
 10
-261.8902
 20
174.2702
 10
-261.7424
 20
174.6846
 10
-261.6368
 20
175.1163
 10
-261.5734
 20
175.5651
 10
-261.5523
 20
176.0312
 10
-261.5739
 20
176.5078
 10
-261.6387
 20
176.9653
 10
-261.7467
 20
177.4037
 10
-261.8979
 20
177.8229
 10
-262.0923
 20
178.223
 10
-262.3301
 20
178.6039
 10
-262.6111
 20
178.9658
 10
-262.9354
 20
179.3085
 10
-263.2953
 20
179.6267
 10
-263.6713
 20
179.9025
 10
-264.0633
 20
180.1358
 10
-264.4714
 20
180.3266
 10
-264.8955
 20
180.475
 10
-265.3357
 20
180.581
 10
-265.7919
 20
180.6446
 10
-266.2642
 20
180.6658
 10
-266.7544
 20
180.6435
 10
-267.2264
 20
180.5765
 10
-267.6801
 20
180.4649
 10
-268.1156
 20
180.3086
 10
-268.5329
 20
180.1077
 10
-268.9319
 20
179.8621
 10
-269.3127
 20
179.5719
 10
-269.6753
 20
179.237
 10
-269.9981
 20
178.8766
 10
-270.275
 20
178.4975
 10
-270.5062
 20
178.0996
 10
-270.6916
 20
177.6828
 10
-270.8313
 20
177.2473
 10
-270.9253
 20
176.7929
 10
-270.9735
 20
176.3197
 10
-270.9761
 20
175.8276
 10
-269.5215
 20
175.8276
 10
-269.5338
 20
176.1466
 10
-269.5114
 20
176.4582
 10
-269.4544
 20
176.7627
 10
-269.3628
 20
177.0598
 10
-269.2366
 20
177.3496
 10
-269.0758
 20
177.632
 10
-268.8804
 20
177.9071
 10
-268.6505
 20
178.1748
 10
-268.4047
 20
178.4141
 10
-268.1461
 20
178.6216
 10
-267.8747
 20
178.7971
 10
-267.5905
 20
178.9408
 10
-267.2935
 20
179.0526
 10
-266.9835
 20
179.1324
 10
-266.6607
 20
179.1803
 10
-266.3249
 20
179.1963
 10
-265.996
 20
179.1819
 10
-265.6795
 20
179.1388
 10
-265.3754
 20
179.067
 10
-265.0837
 20
178.9664
 10
-264.8044
 20
178.8371
 10
-264.5375
 20
178.6791
 10
-264.2829
 20
178.4924
 10
-264.0408
 20
178.277
 10
-263.8178
 20
178.0391
 10
-263.6245
 20
177.7897
 10
-263.4608
 20
177.5288
 10
-263.3268
 20
177.2565
 10
-263.2225
 20
176.9726
 10
-263.148
 20
176.6773
 10
-263.1032
 20
176.3704
 10
-263.0883
 20
176.052
 10
-263.1027
 20
175.7265
 10
-263.146
 20
175.4138
 10
-263.218
 20
175.1139
 10
-263.3189
 20
174.8269
 10
-263.4487
 20
174.5526
 10
-263.6072
 20
174.2911
 10
-263.7947
 20
174.0423
 10
-264.0109
 20
173.8062
 10
-271.2213
 20
166.5576
  0
LWPOLYLINE
  5
75
330
1F
100
AcDbEntity
  8
Layer 1
 62
     7
370
     9
100
AcDbPolyline
 90
      136
 70
     1
 43
0.0
 10
-256.247
 20
175.2965
 10
-255.3044
 20
179.0126
 10
-250.2643
 20
179.0126
 10
-250.2643
 20
180.4414
 10
-256.3899
 20
180.4414
 10
-257.9883
 20
174.2143
 10
-256.4307
 20
173.5203
 10
-256.205
 20
173.6734
 10
-255.968
 20
173.8061
 10
-255.7198
 20
173.9184
 10
-255.4603
 20
174.0103
 10
-255.1896
 20
174.0817
 10
-254.9077
 20
174.1328
 10
-254.6146
 20
174.1634
 10
-254.3104
 20
174.1736
 10
-254.0044
 20
174.1586
 10
-253.7087
 20
174.1136
 10
-253.4232
 20
174.0386
 10
-253.1479
 20
173.9336
 10
-252.8828
 20
173.7986
 10
-252.628
 20
173.6336
 10
-252.3835
 20
173.4386
 10
-252.1493
 20
173.2136
 10
-251.9284
 20
172.9627
 10
-251.737
 20
172.7026
 10
-251.575
 20
172.4332
 10
-251.4424
 20
172.1545
 10
-251.3393
 20
171.8665
 10
-251.2657
 20
171.5693
 10
-251.2215
 20
171.2628
 10
-251.2068
 20
170.947
 10
-251.2218
 20
170.6206
 10
-251.267
 20
170.3073
 10
-251.3421
 20
170.0069
 10
-251.4474
 20
169.7197
 10
-251.5828
 20
169.4454
 10
-251.7482
 20
169.1843
 10
-251.9437
 20
168.9362
 10
-252.1693
 20
168.7012
 10
-252.2842
 20
168.5967
 10
-252.4032
 20
168.4977
 10
-252.5264
 20
168.404
 10
-252.6537
 20
168.3158
 10
-252.7851
 20
168.2331
 10
-252.9206
 20
168.1557
 10
-253.0603
 20
168.0837
 10
-253.2041
 20
168.0171
 10
-253.3544
 20
167.9575
 10
-253.513
 20
167.9057
 10
-253.6798
 20
167.8619
 10
-253.855
 20
167.826
 10
-254.0384
 20
167.798
 10
-254.2302
 20
167.778
 10
-254.4303
 20
167.766
 10
-254.6387
 20
167.762
 10
-254.8509
 20
167.771
 10
-255.0628
 20
167.7978
 10
-255.2746
 20
167.8425
 10
-255.4861
 20
167.9051
 10
-255.6972
 20
167.9856
 10
-255.908
 20
168.0838
 10
-256.1184
 20
168.1999
 10
-256.3284
 20
168.3338
 10
-256.5308
 20
168.4822
 10
-256.7177
 20
168.6415
 10
-256.8893
 20
168.8115
 10
-257.0455
 20
168.9923
 10
-257.1864
 20
169.1839
 10
-257.3119
 20
169.3864
 10
-257.4221
 20
169.5998
 10
-257.517
 20
169.8241
 10
-258.9092
 20
169.3753
 10
-258.7725
 20
169.0393
 10
-258.6131
 20
168.7201
 10
-258.4309
 20
168.4178
 10
-258.226
 20
168.1325
 10
-257.9983
 20
167.864
 10
-257.7479
 20
167.6124
 10
-257.4747
 20
167.3778
 10
-257.1787
 20
167.1602
 10
-256.8641
 20
166.9615
 10
-256.5424
 20
166.7893
 10
-256.2137
 20
166.6436
 10
-255.8778
 20
166.5244
 10
-255.535
 20
166.4316
 10
-255.185
 20
166.3654
 10
-254.8281
 20
166.3256
 10
-254.4641
 20
166.3124
 10
-253.9791
 20
166.3343
 10
-253.5126
 20
166.3998
 10
-253.0647
 20
166.5091
 10
-252.6354
 20
166.6621
 10
-252.2247
 20
166.8588
 10
-251.8327
 20
167.0993
 10
-251.4593
 20
167.3834
 10
-251.1046
 20
167.7113
 10
-250.7828
 20
168.0672
 10
-250.504
 20
168.4407
 10
-250.268
 20
168.8316
 10
-250.0749
 20
169.24
 10
-249.9246
 20
169.666
 10
-249.8173
 20
170.1095
 10
-249.753
 20
170.5705
 10
-249.7315
 20
171.0492
 10
-249.7527
 20
171.5254
 10
-249.8161
 20
171.9815
 10
-249.9218
 20
172.4174
 10
-250.0698
 20
172.8333
 10
-250.26
 20
173.2291
 10
-250.4924
 20
173.6048
 10
-250.767
 20
173.9603
 10
-251.0838
 20
174.2958
 10
-251.2457
 20
174.4449
 10
-251.414
 20
174.586
 10
-251.5888
 20
174.7191
 10
-251.77
 20
174.8444
 10
-251.9577
 20
174.9616
 10
-252.1517
 20
175.0709
 10
-252.3522
 20
175.1723
 10
-252.5591
 20
175.2657
 10
-252.7701
 20
175.3496
 10
-252.983
 20
175.4222
 10
-253.1976
 20
175.4836
 10
-253.4141
 20
175.5339
 10
-253.6323
 20
175.5729
 10
-253.8522
 20
175.6008
 10
-254.0738
 20
175.6175
 10
-254.2971
 20
175.6231
 10
-254.5247
 20
175.618
 10
-254.7569
 20
175.6027
 10
-254.9936
 20
175.5772
 10
-255.2349
 20
175.5414
 10
-255.4809
 20
175.4955
 10
-255.7316
 20
175.4394
 10
-255.9869
 20
175.373
 10
-256.247
 20
175.2965
  0
LWPOLYLINE
  5
76
330
1F
100
AcDbEntity
  8
Layer 1
 62
     7
370
     9
100
AcDbPolyline
 90
        4
 70
     1
 43
0.0
 10
-240.4723
 20
178.8896
 10
-240.4723
 20
170.8655
 10
-245.7976
 20
170.8655
 10
-240.4723
 20
178.8896
  0
LWPOLYLINE
  5
77
330
1F
100
AcDbEntity
  8
Layer 1
 62
     7
370
     9
100
AcDbPolyline
 90
       11
 70
     1
 43
0.0
 10
-238.9762
 20
169.396
 10
-237.2141
 20
169.396
 10
-237.2141
 20
170.8655
 10
-238.9762
 20
170.8655
 10
-238.997
 20
180.4414
 10
-241.0042
 20
180.4414
 10
-248.3384
 20
169.396
 10
-240.4723
 20
169.396
 10
-240.4723
 20
166.5576
 10
-238.9762
 20
166.5576
 10
-238.9762
 20
169.396
  0
LWPOLYLINE
  5
78
330
1F
100
AcDbEntity
  8
Layer 1
 62
     7
370
     9
100
AcDbPolyline
 90
      162
 70
     1
 43
0.0
 10
-223.2829
 20
166.5983
 10
-221.8492
 20
166.5983
 10
-221.8492
 20
172.2137
 10
-221.8609
 20
172.5864
 10
-221.8959
 20
172.9416
 10
-221.9543
 20
173.2793
 10
-222.0361
 20
173.5994
 10
-222.1412
 20
173.9019
 10
-222.2696
 20
174.1868
 10
-222.4213
 20
174.4542
 10
-222.5964
 20
174.7039
 10
-222.6942
 20
174.8234
 10
-222.7982
 20
174.9368
 10
-222.9083
 20
175.0443
 10
-223.0245
 20
175.1456
 10
-223.1467
 20
175.2409
 10
-223.275
 20
175.3301
 10
-223.4093
 20
175.4132
 10
-223.5497
 20
175.4901
 10
-223.6989
 20
175.5596
 10
-223.8595
 20
175.6198
 10
-224.0318
 20
175.6707
 10
-224.2155
 20
175.7123
 10
-224.4108
 20
175.7446
 10
-224.6176
 20
175.7676
 10
-224.8359
 20
175.7814
 10
-225.0658
 20
175.786
 10
-225.2977
 20
175.7781
 10
-225.5223
 20
175.7542
 10
-225.7395
 20
175.7144
 10
-225.9493
 20
175.6587
 10
-226.1517
 20
175.5869
 10
-226.3467
 20
175.4992
 10
-226.5344
 20
175.3955
 10
-226.7148
 20
175.2757
 10
-226.8714
 20
175.1565
 10
-227.0209
 20
175.0285
 10
-227.1633
 20
174.8916
 10
-227.2986
 20
174.746
 10
-227.4269
 20
174.5918
 10
-227.5481
 20
174.429
 10
-227.6623
 20
174.2577
 10
-227.7696
 20
174.078
 10
-227.853
 20
174.2437
 10
-227.9439
 20
174.4037
 10
-228.0426
 20
174.5573
 10
-228.1494
 20
174.7039
 10
-228.2472
 20
174.8234
 10
-228.351
 20
174.9368
 10
-228.4608
 20
175.0443
 10
-228.5768
 20
175.1456
 10
-228.6988
 20
175.2409
 10
-228.827
 20
175.3301
 10
-228.9613
 20
175.4132
 10
-229.1019
 20
175.4901
 10
-229.2508
 20
175.5596
 10
-229.4113
 20
175.6198
 10
-229.5834
 20
175.6707
 10
-229.7671
 20
175.7123
 10
-229.9624
 20
175.7446
 10
-230.1693
 20
175.7676
 10
-230.3879
 20
175.7814
 10
-230.618
 20
175.786
 10
-230.8497
 20
175.7781
 10
-231.074
 20
175.7542
 10
-231.291
 20
175.7144
 10
-231.5007
 20
175.6587
 10
-231.703
 20
175.5869
 10
-231.8981
 20
175.4992
 10
-232.0858
 20
175.3955
 10
-232.2662
 20
175.2757
 10
-232.4154
 20
175.1622
 10
-232.5582
 20
175.0409
 10
-232.6946
 20
174.912
 10
-232.8246
 20
174.7752
 10
-232.9482
 20
174.6307
 10
-233.0653
 20
174.4782
 10
-233.176
 20
174.3178
 10
-233.2802
 20
174.1495
 10
-233.2802
 20
175.5824
 10
-234.7148
 20
175.5824
 10
-234.7148
 20
166.5983
 10
-233.2802
 20
166.5983
 10
-233.2802
 20
171.1955
 10
-233.247
 20
171.4636
 10
-233.2035
 20
171.7211
 10
-233.1498
 20
171.9682
 10
-233.0858
 20
172.205
 10
-233.0116
 20
172.4316
 10
-232.9271
 20
172.648
 10
-232.8324
 20
172.8543
 10
-232.7275
 20
173.0507
 10
-232.642
 20
173.1903
 10
-232.5495
 20
173.3235
 10
-232.45
 20
173.4505
 10
-232.3435
 20
173.5711
 10
-232.23
 20
173.6853
 10
-232.1094
 20
173.7932
 10
-231.9819
 20
173.8948
 10
-231.8473
 20
173.9899
 10
-231.7074
 20
174.0758
 10
-231.565
 20
174.1504
 10
-231.4202
 20
174.2135
 10
-231.273
 20
174.2652
 10
-231.1232
 20
174.3055
 10
-230.9709
 20
174.3342
 10
-230.8161
 20
174.3515
 10
-230.6587
 20
174.3573
 10
-230.5049
 20
174.3543
 10
-230.3613
 20
174.3451
 10
-230.2281
 20
174.3299
 10
-230.1051
 20
174.3087
 10
-229.9925
 20
174.2813
 10
-229.8901
 20
174.2479
 10
-229.798
 20
174.2084
 10
-229.7162
 20
174.1628
 10
-229.5098
 20
174.0107
 10
-229.3308
 20
173.8324
 10
-229.1793
 20
173.628
 10
-229.0552
 20
173.3974
 10
-228.9586
 20
173.1407
 10
-228.8896
 20
172.8578
 10
-228.8481
 20
172.5488
 10
-228.8343
 20
172.2137
 10
-228.8343
 20
166.5983
 10
-227.4014
 20
166.5983
 10
-227.4014
 20
172.2137
 10
-227.4113
 20
172.557
 10
-227.1761
 20
173.0507
 10
-227.0906
 20
173.1903
 10
-226.9981
 20
173.3235
 10
-226.8985
 20
173.4505
 10
-226.7919
 20
173.5711
 10
-226.6782
 20
173.6853
 10
-226.5574
 20
173.7932
 10
-226.4294
 20
173.8948
 10
-226.2943
 20
173.9899
 10
-226.1549
 20
174.0758
 10
-226.0128
 20
174.1504
 10
-225.8682
 20
174.2135
 10
-225.721
 20
174.2652
 10
-225.5711
 20
174.3055
 10
-225.4188
 20
174.3342
 10
-225.2639
 20
174.3515
 10
-225.1065
 20
174.3573
 10
-224.9529
 20
174.3543
 10
-224.8095
 20
174.3451
 10
-224.6763
 20
174.3299
 10
-224.5534
 20
174.3087
 10
-224.4407
 20
174.2813
 10
-224.3384
 20
174.2479
 10
-224.2464
 20
174.2084
 10
-224.1648
 20
174.1628
 10
-223.9579
 20
174.0107
 10
-223.7787
 20
173.8324
 10
-223.6271
 20
173.628
 10
-223.5032
 20
173.3974
 10
-223.4068
 20
173.1407
 10
-223.3379
 20
172.8578
 10
-223.2967
 20
172.5488
 10
-223.2829
 20
172.2137
 10
-223.2829
 20
166.5983
  0
LWPOLYLINE
  5
79
330
1F
100
AcDbEntity
  8
Layer 1
 62
     7
370
     9
100
AcDbPolyline
 90
      162
 70
     1
 43
0.0
 10
-207.652
 20
166.5983
 10
-206.2183
 20
166.5983
 10
-206.2183
 20
172.2137
 10
-206.23
 20
172.5864
 10
-206.265
 20
172.9416
 10
-206.3234
 20
173.2793
 10
-206.4052
 20
173.5994
 10
-206.5103
 20
173.9019
 10
-206.6387
 20
174.1868
 10
-206.7904
 20
174.4542
 10
-206.9655
 20
174.7039
 10
-207.0633
 20
174.8234
 10
-207.1672
 20
174.9368
 10
-207.2772
 20
175.0443
 10
-207.3933
 20
175.1456
 10
-207.5154
 20
175.2409
 10
-207.6438
 20
175.3301
 10
-207.7782
 20
175.4132
 10
-207.9188
 20
175.4901
 10
-208.0677
 20
175.5596
 10
-208.2282
 20
175.6198
 10
-208.4003
 20
175.6707
 10
-208.584
 20
175.7123
 10
-208.7793
 20
175.7446
 10
-208.9862
 20
175.7676
 10
-209.2048
 20
175.7814
 10
-209.4349
 20
175.786
 10
-209.6666
 20
175.7781
 10
-209.891
 20
175.7542
 10
-210.1081
 20
175.7144
 10
-210.318
 20
175.6587
 10
-210.5205
 20
175.5869
 10
-210.7157
 20
175.4992
 10
-210.9035
 20
175.3955
 10
-211.0839
 20
175.2757
 10
-211.2403
 20
175.1565
 10
-211.3897
 20
175.0285
 10
-211.532
 20
174.8916
 10
-211.6674
 20
174.746
 10
-211.7957
 20
174.5918
 10
-211.9171
 20
174.429
 10
-212.0314
 20
174.2577
 10
-212.1387
 20
174.078
 10
-212.2217
 20
174.2437
 10
-212.3126
 20
174.4037
 10
-212.4113
 20
174.5573
 10
-212.5177
 20
174.7039
 10
-212.6155
 20
174.8234
 10
-212.7194
 20
174.9368
 10
-212.8293
 20
175.0443
 10
-212.9454
 20
175.1456
 10
-213.0675
 20
175.2409
 10
-213.1956
 20
175.3301
 10
-213.3299
 20
175.4132
 10
-213.4702
 20
175.4901
 10
-213.6193
 20
175.5596
 10
-213.78
 20
175.6198
 10
-213.9522
 20
175.6707
 10
-214.136
 20
175.7123
 10
-214.3312
 20
175.7446
 10
-214.538
 20
175.7676
 10
-214.7563
 20
175.7814
 10
-214.9862
 20
175.786
 10
-215.2181
 20
175.7781
 10
-215.4427
 20
175.7542
 10
-215.6599
 20
175.7144
 10
-215.8697
 20
175.6587
 10
-216.0721
 20
175.5869
 10
-216.2672
 20
175.4992
 10
-216.4549
 20
175.3955
 10
-216.6353
 20
175.2757
 10
-216.7845
 20
175.1622
 10
-216.9273
 20
175.0409
 10
-217.0637
 20
174.912
 10
-217.1937
 20
174.7752
 10
-217.3173
 20
174.6307
 10
-217.4344
 20
174.4782
 10
-217.5451
 20
174.3178
 10
-217.6493
 20
174.1495
 10
-217.6493
 20
175.5824
 10
-219.0839
 20
175.5824
 10
-219.0839
 20
166.5983
 10
-217.6493
 20
166.5983
 10
-217.6493
 20
171.1955
 10
-217.6161
 20
171.4636
 10
-217.5726
 20
171.7211
 10
-217.5189
 20
171.9682
 10
-217.4549
 20
172.205
 10
-217.3807
 20
172.4316
 10
-217.2962
 20
172.648
 10
-217.2015
 20
172.8543
 10
-217.0966
 20
173.0507
 10
-217.0111
 20
173.1903
 10
-216.9186
 20
173.3235
 10
-216.8191
 20
173.4505
 10
-216.7125
 20
173.5711
 10
-216.5988
 20
173.6853
 10
-216.4781
 20
173.7932
 10
-216.3504
 20
173.8948
 10
-216.2155
 20
173.9899
 10
-216.0758
 20
174.0758
 10
-215.9336
 20
174.1504
 10
-215.7889
 20
174.2135
 10
-215.6416
 20
174.2652
 10
-215.4918
 20
174.3055
 10
-215.3396
 20
174.3342
 10
-215.1849
 20
174.3515
 10
-215.0278
 20
174.3573
 10
-214.874
 20
174.3543
 10
-214.7304
 20
174.3451
 10
-214.5972
 20
174.3299
 10
-214.4742
 20
174.3087
 10
-214.3616
 20
174.2813
 10
-214.2592
 20
174.2479
 10
-214.1671
 20
174.2084
 10
-214.0853
 20
174.1628
 10
-213.8787
 20
174.0107
 10
-213.6996
 20
173.8324
 10
-213.548
 20
173.628
 10
-213.424
 20
173.3974
 10
-213.3275
 20
173.1407
 10
-213.2586
 20
172.8578
 10
-213.2172
 20
172.5488
 10
-213.2034
 20
172.2137
 10
-213.2034
 20
166.5983
 10
-211.7696
 20
166.5983
 10
-211.7696
 20
172.2137
 10
-211.7796
 20
172.557
 10
-211.5444
 20
173.0507
 10
-211.4591
 20
173.1903
 10
-211.3667
 20
173.3235
 10
-211.2672
 20
173.4505
 10
-211.1606
 20
173.5711
 10
-211.0469
 20
173.6853
 10
-210.9261
 20
173.7932
 10
-210.7982
 20
173.8948
 10
-210.6633
 20
173.9899
 10
-210.5237
 20
174.0758
 10
-210.3815
 20
174.1504
 10
-210.2369
 20
174.2135
 10
-210.0897
 20
174.2652
 10
-209.94
 20
174.3055
 10
-209.7878
 20
174.3342
 10
-209.633
 20
174.3515
 10
-209.4756
 20
174.3573
 10
-209.3218
 20
174.3543
 10
-209.1782
 20
174.3451
 10
-209.045
 20
174.3299
 10
-208.922
 20
174.3087
 10
-208.8094
 20
174.2813
 10
-208.707
 20
174.2479
 10
-208.6149
 20
174.2084
 10
-208.5331
 20
174.1628
 10
-208.3265
 20
174.0107
 10
-208.1475
 20
173.8324
 10
-207.996
 20
173.628
 10
-207.8722
 20
173.3974
 10
-207.7758
 20
173.1407
 10
-207.707
 20
172.8578
 10
-207.6658
 20
172.5488
 10
-207.652
 20
172.2137
 10
-207.652
 20
166.5983
  0
LWPOLYLINE
  5
7A
330
1F
100
AcDbEntity
  8
Layer 1
 62
     7
370
     9
100
AcDbPolyline
 90
       73
 70
     1
 43
0.0
 10
-312.5336
 20
94.8886
 10
-312.8604
 20
94.9036
 10
-313.175
 20
94.9485
 10
-313.4775
 20
95.0233
 10
-313.7678
 20
95.1282
 10
-314.046
 20
95.2631
 10
-314.312
 20
95.4279
 10
-314.5659
 20
95.6228
 10
-314.8076
 20
95.8478
 10
-315.0259
 20
96.091
 10
-315.2153
 20
96.3457
 10
-315.3755
 20
96.6119
 10
-315.5067
 20
96.8895
 10
-315.6088
 20
97.1785
 10
-315.6818
 20
97.479
 10
-315.7256
 20
97.791
 10
-315.7402
 20
98.1144
 10
-315.7254
 20
98.4306
 10
-315.6812
 20
98.7359
 10
-315.6074
 20
99.0304
 10
-315.5043
 20
99.3139
 10
-315.3717
 20
99.5866
 10
-315.2097
 20
99.8484
 10
-315.0184
 20
100.0993
 10
-314.7977
 20
100.3394
 10
-314.5603
 20
100.5548
 10
-314.3096
 20
100.7415
 10
-314.0454
 20
100.8995
 10
-313.7679
 20
101.0288
 10
-313.4769
 20
101.1294
 10
-313.1725
 20
101.2012
 10
-312.8548
 20
101.2443
 10
-312.5236
 20
101.2587
 10
-312.1986
 20
101.2439
 10
-311.8846
 20
101.1993
 10
-311.5815
 20
101.1251
 10
-311.2892
 20
101.0213
 10
-311.0078
 20
100.8878
 10
-310.7373
 20
100.7246
 10
-310.4776
 20
100.5319
 10
-310.2287
 20
100.3095
 10
-310.0031
 20
100.0686
 10
-309.8075
 20
99.8159
 10
-309.642
 20
99.5515
 10
-309.5065
 20
99.2753
 10
-309.401
 20
98.9874
 10
-309.3257
 20
98.6876
 10
-309.2805
 20
98.3762
 10
-309.2654
 20
98.0529
 10
-309.2806
 20
97.7391
 10
-309.3263
 20
97.4355
 10
-309.4024
 20
97.142
 10
-309.5089
 20
96.8587
 10
-309.6458
 20
96.5857
 10
-309.8131
 20
96.3228
 10
-310.0107
 20
96.0702
 10
-310.2387
 20
95.8279
 10
-310.3512
 20
95.7233
 10
-310.4685
 20
95.6242
 10
-310.5907
 20
95.5305
 10
-310.7177
 20
95.4422
 10
-310.8494
 20
95.3594
 10
-310.9858
 20
95.282
 10
-311.127
 20
95.2102
 10
-311.2727
 20
95.1438
 10
-311.4225
 20
95.0839
 10
-311.5745
 20
95.032
 10
-311.7288
 20
94.9882
 10
-311.8853
 20
94.9523
 10
-312.0441
 20
94.9244
 10
-312.2051
 20
94.9045
 10
-312.3682
 20
94.8926
 10
-312.5336
 20
94.8886
  0
LWPOLYLINE
  5
7B
330
1F
100
AcDbEntity
  8
Layer 1
 62
     7
370
     9
100
AcDbPolyline
 90
       69
 70
     1
 43
0.0
 10
-317.1939
 20
98.0122
 10
-317.1715
 20
97.5206
 10
-317.1043
 20
97.0513
 10
-316.9923
 20
96.6042
 10
-316.8355
 20
96.1795
 10
-316.6338
 20
95.7772
 10
-316.3874
 20
95.3971
 10
-316.0962
 20
95.0394
 10
-315.7601
 20
94.7041
 10
-315.4165
 20
94.4217
 10
-315.0487
 20
94.174
 10
-314.657
 20
93.9612
 10
-314.2413
 20
93.7832
 10
-313.8016
 20
93.6399
 10
-313.338
 20
93.5313
 10
-312.8505
 20
93.4575
 10
-312.3391
 20
93.4183
 10
-311.9293
 20
93.6835
 10
-316.1899
 20
88.5793
 10
-314.3056
 20
88.5793
 10
-308.8565
 20
95.133
 10
-308.6116
 20
95.4522
 10
-308.3993
 20
95.7845
 10
-308.2196
 20
96.1298
 10
-308.0725
 20
96.4883
 10
-307.9581
 20
96.8598
 10
-307.8763
 20
97.2444
 10
-307.8273
 20
97.6421
 10
-307.8109
 20
98.0529
 10
-307.8324
 20
98.5263
 10
-307.8967
 20
98.9814
 10
-308.004
 20
99.4183
 10
-308.1543
 20
99.8371
 10
-308.3474
 20
100.2376
 10
-308.5834
 20
100.62
 10
-308.8622
 20
100.9842
 10
-309.184
 20
101.3302
 10
-309.5383
 20
101.6484
 10
-309.9099
 20
101.9241
 10
-310.2987
 20
102.1574
 10
-310.7049
 20
102.3483
 10
-311.1283
 20
102.4967
 10
-311.569
 20
102.6027
 10
-312.0269
 20
102.6663
 10
-312.502
 20
102.6875
 10
-312.9845
 20
102.6665
 10
-313.4475
 20
102.6033
 10
-313.8913
 20
102.4981
 10
-314.3158
 20
102.3508
 10
-314.721
 20
102.1613
 10
-315.107
 20
101.9298
 10
-315.4739
 20
101.6561
 10
-315.8216
 20
101.3402
 10
-315.9764
 20
101.1787
 10
-316.1227
 20
101.0108
 10
-316.2607
 20
100.8367
 10
-316.3904
 20
100.6561
 10
-316.5117
 20
100.4692
 10
-316.6246
 20
100.2758
 10
-316.7293
 20
100.076
 10
-316.8257
 20
99.8698
 10
-316.9119
 20
99.6578
 10
-316.9867
 20
99.44
 10
-317.05
 20
99.2164
 10
-317.1018
 20
98.9871
 10
-317.1421
 20
98.752
 10
-317.1709
 20
98.5112
 10
-317.1881
 20
98.2646
 10
-317.1939
 20
98.0122
  0
LWPOLYLINE
  5
7C
330
1F
100
AcDbEntity
  8
Layer 1
 62
     7
370
     9
100
AcDbPolyline
 90
       87
 70
     1
 43
0.0
 10
-265.4854
 20
88.5793
 10
-255.6727
 20
88.5793
 10
-255.6727
 20
90.0089
 10
-262.0236
 20
90.0089
 10
-257.1679
 20
94.8064
 10
-256.8511
 20
95.1519
 10
-256.5766
 20
95.5147
 10
-256.3443
 20
95.8947
 10
-256.1543
 20
96.2919
 10
-256.0065
 20
96.7063
 10
-255.9009
 20
97.1379
 10
-255.8375
 20
97.5868
 10
-255.8164
 20
98.0529
 10
-255.838
 20
98.5295
 10
-255.9028
 20
98.987
 10
-256.0107
 20
99.4254
 10
-256.1619
 20
99.8446
 10
-256.3562
 20
100.2447
 10
-256.5938
 20
100.6256
 10
-256.8746
 20
100.9875
 10
-257.1987
 20
101.3302
 10
-257.5589
 20
101.6484
 10
-257.9351
 20
101.9241
 10
-258.3272
 20
102.1574
 10
-258.7354
 20
102.3483
 10
-259.1596
 20
102.4967
 10
-259.5998
 20
102.6027
 10
-260.056
 20
102.6663
 10
-260.5283
 20
102.6875
 10
-261.0183
 20
102.6652
 10
-261.4901
 20
102.5982
 10
-261.9439
 20
102.4866
 10
-262.3794
 20
102.3303
 10
-262.7968
 20
102.1294
 10
-263.1959
 20
101.8838
 10
-263.5768
 20
101.5936
 10
-263.9394
 20
101.2587
 10
-264.2619
 20
100.8983
 10
-264.5388
 20
100.5192
 10
-264.77
 20
100.1213
 10
-264.9554
 20
99.7045
 10
-265.0952
 20
99.269
 10
-265.1892
 20
98.8146
 10
-265.2376
 20
98.3414
 10
-265.2402
 20
97.8493
 10
-263.7857
 20
97.8493
 10
-263.7977
 20
98.1683
 10
-263.7752
 20
98.4799
 10
-263.7182
 20
98.7844
 10
-263.6266
 20
99.0815
 10
-263.5005
 20
99.3713
 10
-263.3398
 20
99.6537
 10
-263.1445
 20
99.9288
 10
-262.9146
 20
100.1965
 10
-262.6688
 20
100.4358
 10
-262.4103
 20
100.6433
 10
-262.1389
 20
100.8188
 10
-261.8547
 20
100.9625
 10
-261.5576
 20
101.0743
 10
-261.2476
 20
101.1541
 10
-260.9248
 20
101.202
 10
-260.589
 20
101.218
 10
-260.2599
 20
101.2036
 10
-259.9432
 20
101.1605
 10
-259.639
 20
101.0887
 10
-259.3473
 20
100.9881
 10
-259.068
 20
100.8588
 10
-258.8012
 20
100.7008
 10
-258.5469
 20
100.5141
 10
-258.305
 20
100.2987
 10
-258.0817
 20
100.0608
 10
-257.8882
 20
99.8114
 10
-257.7245
 20
99.5505
 10
-257.5905
 20
99.2782
 10
-257.4864
 20
98.9943
 10
-257.4119
 20
98.699
 10
-257.3673
 20
98.3921
 10
-257.3524
 20
98.0737
 10
-257.3668
 20
97.7482
 10
-257.4101
 20
97.4355
 10
-257.4822
 20
97.1356
 10
-257.5831
 20
96.8485
 10
-257.7128
 20
96.5742
 10
-257.8714
 20
96.3127
 10
-258.0588
 20
96.0639
 10
-258.275
 20
95.8279
 10
-265.4854
 20
88.5793
  0
LWPOLYLINE
  5
7D
330
1F
100
AcDbEntity
  8
Layer 1
 62
     7
370
     9
100
AcDbPolyline
 90
       65
 70
     1
 43
0.0
 10
-248.7889
 20
95.6433
 10
-248.4853
 20
95.6302
 10
-248.1933
 20
95.5911
 10
-247.9131
 20
95.5258
 10
-247.6447
 20
95.4343
 10
-247.3881
 20
95.3166
 10
-247.1433
 20
95.1728
 10
-246.9104
 20
95.0027
 10
-246.6894
 20
94.8064
 10
-246.4904
 20
94.5937
 10
-246.3178
 20
94.3688
 10
-246.1716
 20
94.1318
 10
-246.052
 20
93.8826
 10
-245.9589
 20
93.6214
 10
-245.8924
 20
93.348
 10
-245.8524
 20
93.0626
 10
-245.8391
 20
92.765
 10
-245.8523
 20
92.4701
 10
-245.8917
 20
92.185
 10
-245.9575
 20
91.9097
 10
-246.0495
 20
91.6444
 10
-246.1677
 20
91.3889
 10
-246.3121
 20
91.1434
 10
-246.4827
 20
90.9078
 10
-246.6794
 20
90.6821
 10
-246.8951
 20
90.4764
 10
-247.1245
 20
90.2981
 10
-247.3676
 20
90.1473
 10
-247.6245
 20
90.0238
 10
-247.895
 20
89.9278
 10
-248.1793
 20
89.8593
 10
-248.4772
 20
89.8181
 10
-248.7889
 20
89.8044
 10
-249.1011
 20
89.8181
 10
-249.3995
 20
89.8593
 10
-249.6841
 20
89.9278
 10
-249.9548
 20
90.0238
 10
-250.2118
 20
90.1473
 10
-250.455
 20
90.2981
 10
-250.6844
 20
90.4764
 10
-250.9001
 20
90.6821
 10
-251.0968
 20
90.9078
 10
-251.2673
 20
91.1434
 10
-251.4116
 20
91.3889
 10
-251.5296
 20
91.6444
 10
-251.6215
 20
91.9097
 10
-251.6871
 20
92.185
 10
-251.7265
 20
92.4701
 10
-251.7396
 20
92.765
 10
-251.7263
 20
93.0626
 10
-251.6864
 20
93.348
 10
-251.62
 20
93.6214
 10
-251.527
 20
93.8826
 10
-251.4074
 20
94.1318
 10
-251.2613
 20
94.3688
 10
-251.0886
 20
94.5937
 10
-250.8893
 20
94.8064
 10
-250.6683
 20
95.0027
 10
-250.4355
 20
95.1728
 10
-250.1908
 20
95.3166
 10
-249.9342
 20
95.4343
 10
-249.6657
 20
95.5258
 10
-249.3853
 20
95.5911
 10
-249.0931
 20
95.6302
 10
-248.7889
 20
95.6433
  0
LWPOLYLINE
  5
7E
330
1F
100
AcDbEntity
  8
Layer 1
 62
     7
370
     9
100
AcDbPolyline
 90
       65
 70
     1
 43
0.0
 10
-248.7889
 20
101.2787
 10
-248.5441
 20
101.2685
 10
-248.3085
 20
101.2379
 10
-248.0821
 20
101.1868
 10
-247.8649
 20
101.1154
 10
-247.6569
 20
101.0235
 10
-247.4583
 20
100.9112
 10
-247.2691
 20
100.7785
 10
-247.0892
 20
100.6254
 10
-246.9209
 20
100.4534
 10
-246.7753
 20
100.2715
 10
-246.6521
 20
100.0797
 10
-246.5514
 20
99.878
 10
-246.4732
 20
99.6664
 10
-246.4173
 20
99.4449
 10
-246.3838
 20
99.2135
 10
-246.3727
 20
98.9722
 10
-246.3838
 20
98.736
 10
-246.4173
 20
98.5075
 10
-246.4732
 20
98.2866
 10
-246.5514
 20
98.0734
 10
-246.6521
 20
97.8678
 10
-246.7753
 20
97.67
 10
-246.9209
 20
97.4798
 10
-247.0892
 20
97.2974
 10
-247.268
 20
97.1346
 10
-247.4565
 20
96.9936
 10
-247.6546
 20
96.8743
 10
-247.8624
 20
96.7767
 10
-248.0798
 20
96.7008
 10
-248.3066
 20
96.6466
 10
-248.543
 20
96.6141
 10
-248.7889
 20
96.6033
 10
-249.0353
 20
96.6141
 10
-249.2719
 20
96.6466
 10
-249.4989
 20
96.7008
 10
-249.7162
 20
96.7767
 10
-249.9239
 20
96.8743
 10
-250.122
 20
96.9936
 10
-250.3105
 20
97.1346
 10
-250.4895
 20
97.2974
 10
-250.6575
 20
97.4798
 10
-250.8032
 20
97.67
 10
-250.9265
 20
97.8678
 10
-251.0274
 20
98.0734
 10
-251.1059
 20
98.2866
 10
-251.1619
 20
98.5075
 10
-251.1956
 20
98.736
 10
-251.2068
 20
98.9722
 10
-251.1956
 20
99.2135
 10
-251.1619
 20
99.4449
 10
-251.1059
 20
99.6664
 10
-251.0274
 20
99.878
 10
-250.9265
 20
100.0797
 10
-250.8032
 20
100.2715
 10
-250.6575
 20
100.4534
 10
-250.4895
 20
100.6254
 10
-250.3094
 20
100.7785
 10
-250.1201
 20
100.9112
 10
-249.9216
 20
101.0235
 10
-249.7137
 20
101.1154
 10
-249.4965
 20
101.1868
 10
-249.27
 20
101.2379
 10
-249.0342
 20
101.2685
 10
-248.7889
 20
101.2787
  0
LWPOLYLINE
  5
7F
330
1F
100
AcDbEntity
  8
Layer 1
 62
     7
370
     9
100
AcDbPolyline
 90
      121
 70
     1
 43
0.0
 10
-248.7889
 20
88.3748
 10
-248.3196
 20
88.3925
 10
-247.8693
 20
88.4457
 10
-247.4378
 20
88.5343
 10
-247.0251
 20
88.6583
 10
-246.6313
 20
88.8178
 10
-246.2562
 20
89.0126
 10
-245.8999
 20
89.2429
 10
-245.5623
 20
89.5085
 10
-245.4106
 20
89.6473
 10
-245.2671
 20
89.7931
 10
-245.1317
 20
89.9459
 10
-245.0047
 20
90.1057
 10
-244.8858
 20
90.2725
 10
-244.7753
 20
90.4464
 10
-244.673
 20
90.6272
 10
-244.5791
 20
90.8151
 10
-244.4952
 20
91.01
 10
-244.4225
 20
91.2119
 10
-244.3609
 20
91.4208
 10
-244.3105
 20
91.6367
 10
-244.2713
 20
91.8596
 10
-244.2432
 20
92.0896
 10
-244.2264
 20
92.3265
 10
-244.2208
 20
92.5705
 10
-244.2303
 20
92.818
 10
-244.2586
 20
93.0647
 10
-244.3059
 20
93.3108
 10
-244.3721
 20
93.5562
 10
-244.4571
 20
93.8009
 10
-244.561
 20
94.045
 10
-244.6836
 20
94.2884
 10
-244.8251
 20
94.5312
 10
-244.9844
 20
94.7681
 10
-245.16
 20
94.9938
 10
-245.3519
 20
95.2083
 10
-245.5601
 20
95.4116
 10
-245.7847
 20
95.6037
 10
-246.0256
 20
95.7846
 10
-246.2828
 20
95.9544
 10
-246.5564
 20
96.113
 10
-246.1675
 20
96.4589
 10
-245.8305
 20
96.812
 10
-245.5453
 20
97.1724
 10
-245.312
 20
97.5401
 10
-245.1306
 20
97.9151
 10
-245.001
 20
98.2975
 10
-244.9233
 20
98.6873
 10
-244.8974
 20
99.0844
 10
-244.9152
 20
99.4758
 10
-244.9685
 20
99.8491
 10
-245.0572
 20
100.2042
 10
-245.1816
 20
100.5412
 10
-245.3413
 20
100.86
 10
-245.5366
 20
101.1607
 10
-245.7674
 20
101.4432
 10
-246.0336
 20
101.7075
 10
-246.3153
 20
101.9372
 10
-246.615
 20
102.1362
 10
-246.9327
 20
102.3047
 10
-247.2682
 20
102.4425
 10
-247.6217
 20
102.5497
 10
-247.9929
 20
102.6262
 10
-248.382
 20
102.6722
 10
-248.7889
 20
102.6875
 10
-249.1963
 20
102.6722
 10
-249.5858
 20
102.6262
 10
-249.9572
 20
102.5497
 10
-250.3106
 20
102.4425
 10
-250.646
 20
102.3047
 10
-250.9634
 20
102.1362
 10
-251.2628
 20
101.9372
 10
-251.5442
 20
101.7075
 10
-251.811
 20
101.4433
 10
-252.0422
 20
101.1613
 10
-252.2377
 20
100.8614
 10
-252.3977
 20
100.5437
 10
-252.5222
 20
100.2081
 10
-252.611
 20
99.8547
 10
-252.6643
 20
99.4834
 10
-252.6821
 20
99.0943
 10
-252.6562
 20
98.6948
 10
-252.5784
 20
98.3031
 10
-252.4488
 20
97.919
 10
-252.2674
 20
97.5426
 10
-252.034
 20
97.1738
 10
-251.7487
 20
96.8126
 10
-251.4115
 20
96.459
 10
-251.0223
 20
96.113
 10
-251.2959
 20
95.9544
 10
-251.5532
 20
95.7846
 10
-251.7942
 20
95.6037
 10
-252.0189
 20
95.4116
 10
-252.2271
 20
95.2083
 10
-252.419
 20
94.9938
 10
-252.5945
 20
94.7681
 10
-252.7536
 20
94.5312
 10
-252.8953
 20
94.2879
 10
-253.0181
 20
94.043
 10
-253.1219
 20
93.7965
 10
-253.2069
 20
93.5484
 10
-253.273
 20
93.2987
 10
-253.3202
 20
93.0475
 10
-253.3485
 20
92.7948
 10
-253.3579
 20
92.5406
 10
-253.3369
 20
92.0844
 10
-253.274
 20
91.6503
 10
-253.1692
 20
91.2382
 10
-253.0224
 20
90.8482
 10
-252.8336
 20
90.4802
 10
-252.6029
 20
90.1342
 10
-252.3302
 20
89.8103
 10
-252.0155
 20
89.5085
 10
-251.6785
 20
89.2429
 10
-251.3225
 20
89.0126
 10
-250.9476
 20
88.8178
 10
-250.5537
 20
88.6583
 10
-250.1409
 20
88.5343
 10
-249.7092
 20
88.4457
 10
-249.2585
 20
88.3925
 10
-248.7889
 20
88.3748
  0
LWPOLYLINE
  5
80
330
1F
100
AcDbEntity
  8
Layer 1
 62
     7
370
     9
100
AcDbPolyline
 90
        5
 70
     1
 43
0.0
 10
-303.591
 20
103.8927
 10
-305.5576
 20
103.8927
 10
-306.7461
 20
98.604
 10
-305.8859
 20
98.604
 10
-303.591
 20
103.8927
  0
LWPOLYLINE
  5
81
330
1F
100
AcDbEntity
  8
Layer 1
 62
     7
370
     9
100
AcDbPolyline
 90
        5
 70
     1
 43
0.0
 10
-300.3744
 20
103.8927
 10
-302.341
 20
103.8927
 10
-303.5295
 20
98.604
 10
-302.6693
 20
98.604
 10
-300.3744
 20
103.8927
  0
LWPOLYLINE
  5
82
330
1F
100
AcDbEntity
  8
Layer 1
 62
     7
370
     9
100
AcDbPolyline
 90
        5
 70
     1
 43
0.0
 10
-286.4848
 20
90.6414
 10
-286.4848
 20
91.805
 10
-293.3477
 20
91.805
 10
-293.3477
 20
90.6414
 10
-286.4848
 20
90.6414
  0
LWPOLYLINE
  5
83
330
1F
100
AcDbEntity
  8
Layer 1
 62
     7
370
     9
100
AcDbPolyline
 90
        5
 70
     1
 43
0.0
 10
-286.4848
 20
94.3368
 10
-286.4848
 20
95.5012
 10
-293.3477
 20
95.5012
 10
-293.3477
 20
94.3368
 10
-286.4848
 20
94.3368
  0
LWPOLYLINE
  5
84
330
1F
100
AcDbEntity
  8
Layer 1
 62
     7
370
     9
100
AcDbPolyline
 90
       87
 70
     1
 43
0.0
 10
-278.0842
 20
88.5793
 10
-268.2715
 20
88.5793
 10
-268.2715
 20
90.0089
 10
-274.6224
 20
90.0089
 10
-269.7667
 20
94.8064
 10
-269.45
 20
95.1519
 10
-269.1755
 20
95.5147
 10
-268.9432
 20
95.8947
 10
-268.7532
 20
96.2919
 10
-268.6053
 20
96.7063
 10
-268.4998
 20
97.1379
 10
-268.4364
 20
97.5868
 10
-268.4153
 20
98.0529
 10
-268.4369
 20
98.5295
 10
-268.5016
 20
98.987
 10
-268.6096
 20
99.4254
 10
-268.7607
 20
99.8446
 10
-268.9551
 20
100.2447
 10
-269.1926
 20
100.6256
 10
-269.4735
 20
100.9875
 10
-269.7975
 20
101.3302
 10
-270.1577
 20
101.6484
 10
-270.5339
 20
101.9241
 10
-270.926
 20
102.1574
 10
-271.3342
 20
102.3483
 10
-271.7584
 20
102.4967
 10
-272.1986
 20
102.6027
 10
-272.6548
 20
102.6663
 10
-273.1271
 20
102.6875
 10
-273.6171
 20
102.6652
 10
-274.0889
 20
102.5982
 10
-274.5427
 20
102.4866
 10
-274.9782
 20
102.3303
 10
-275.3956
 20
102.1294
 10
-275.7947
 20
101.8838
 10
-276.1756
 20
101.5936
 10
-276.5382
 20
101.2587
 10
-276.8607
 20
100.8983
 10
-277.1376
 20
100.5192
 10
-277.3688
 20
100.1213
 10
-277.5542
 20
99.7045
 10
-277.694
 20
99.269
 10
-277.788
 20
98.8146
 10
-277.8364
 20
98.3414
 10
-277.839
 20
97.8493
 10
-276.3845
 20
97.8493
 10
-276.3965
 20
98.1683
 10
-276.374
 20
98.4799
 10
-276.317
 20
98.7844
 10
-276.2254
 20
99.0815
 10
-276.0993
 20
99.3713
 10
-275.9386
 20
99.6537
 10
-275.7433
 20
99.9288
 10
-275.5134
 20
100.1965
 10
-275.2676
 20
100.4358
 10
-275.0091
 20
100.6433
 10
-274.7377
 20
100.8188
 10
-274.4535
 20
100.9625
 10
-274.1564
 20
101.0743
 10
-273.8464
 20
101.1541
 10
-273.5236
 20
101.202
 10
-273.1878
 20
101.218
 10
-272.8589
 20
101.2036
 10
-272.5423
 20
101.1605
 10
-272.2381
 20
101.0887
 10
-271.9464
 20
100.9881
 10
-271.667
 20
100.8588
 10
-271.4001
 20
100.7008
 10
-271.1457
 20
100.5141
 10
-270.9038
 20
100.2987
 10
-270.6806
 20
100.0608
 10
-270.4871
 20
99.8114
 10
-270.3234
 20
99.5505
 10
-270.1894
 20
99.2782
 10
-270.0852
 20
98.9943
 10
-270.0108
 20
98.699
 10
-269.9662
 20
98.3921
 10
-269.9513
 20
98.0737
 10
-269.9657
 20
97.7482
 10
-270.009
 20
97.4355
 10
-270.081
 20
97.1356
 10
-270.1819
 20
96.8485
 10
-270.3117
 20
96.5742
 10
-270.4702
 20
96.3127
 10
-270.6576
 20
96.0639
 10
-270.8738
 20
95.8279
 10
-278.0842
 20
88.5793
  0
LWPOLYLINE
  5
85
330
1F
100
AcDbEntity
  8
Layer 1
 62
     7
370
     9
100
AcDbPolyline
 90
      162
 70
     1
 43
0.0
 10
-230.4335
 20
88.62
 10
-228.9997
 20
88.62
 10
-228.9997
 20
94.2354
 10
-229.0114
 20
94.6081
 10
-229.0464
 20
94.9633
 10
-229.1048
 20
95.3009
 10
-229.1866
 20
95.621
 10
-229.2917
 20
95.9235
 10
-229.4201
 20
96.2084
 10
-229.5718
 20
96.4758
 10
-229.7469
 20
96.7255
 10
-229.8447
 20
96.845
 10
-229.9486
 20
96.9585
 10
-230.0586
 20
97.0659
 10
-230.1747
 20
97.1673
 10
-230.2969
 20
97.2626
 10
-230.4252
 20
97.3518
 10
-230.5597
 20
97.4349
 10
-230.7003
 20
97.5118
 10
-230.8494
 20
97.5813
 10
-231.0101
 20
97.6415
 10
-231.1823
 20
97.6923
 10
-231.3661
 20
97.7339
 10
-231.5613
 20
97.7662
 10
-231.7681
 20
97.7893
 10
-231.9864
 20
97.8031
 10
-232.2163
 20
97.8077
 10
-232.4482
 20
97.7997
 10
-232.6728
 20
97.7759
 10
-232.89
 20
97.7361
 10
-233.0998
 20
97.6803
 10
-233.3022
 20
97.6086
 10
-233.4972
 20
97.5209
 10
-233.6849
 20
97.4171
 10
-233.8653
 20
97.2974
 10
-234.022
 20
97.1782
 10
-234.1715
 20
97.0502
 10
-234.3138
 20
96.9133
 10
-234.4491
 20
96.7677
 10
-234.5774
 20
96.6135
 10
-234.6986
 20
96.4507
 10
-234.8128
 20
96.2794
 10
-234.9201
 20
96.0997
 10
-235.0035
 20
96.2654
 10
-235.0944
 20
96.4254
 10
-235.1931
 20
96.579
 10
-235.2999
 20
96.7255
 10
-235.3977
 20
96.845
 10
-235.5015
 20
96.9585
 10
-235.6113
 20
97.0659
 10
-235.7273
 20
97.1673
 10
-235.8493
 20
97.2626
 10
-235.9775
 20
97.3518
 10
-236.1119
 20
97.4349
 10
-236.2525
 20
97.5118
 10
-236.4014
 20
97.5813
 10
-236.5618
 20
97.6415
 10
-236.7339
 20
97.6923
 10
-236.9176
 20
97.7339
 10
-237.1129
 20
97.7662
 10
-237.3198
 20
97.7893
 10
-237.5384
 20
97.8031
 10
-237.7685
 20
97.8077
 10
-238.0002
 20
97.7997
 10
-238.2245
 20
97.7759
 10
-238.4415
 20
97.7361
 10
-238.6512
 20
97.6803
 10
-238.8535
 20
97.6086
 10
-239.0486
 20
97.5209
 10
-239.2363
 20
97.4171
 10
-239.4167
 20
97.2974
 10
-239.5659
 20
97.1839
 10
-239.7087
 20
97.0626
 10
-239.8451
 20
96.9337
 10
-239.9751
 20
96.7969
 10
-240.0987
 20
96.6523
 10
-240.2158
 20
96.4999
 10
-240.3265
 20
96.3395
 10
-240.4307
 20
96.1711
 10
-240.4307
 20
97.6041
 10
-241.8653
 20
97.6041
 10
-241.8653
 20
88.62
 10
-240.4307
 20
88.62
 10
-240.4307
 20
93.2172
 10
-240.3975
 20
93.4853
 10
-240.354
 20
93.7428
 10
-240.3003
 20
93.9899
 10
-240.2363
 20
94.2267
 10
-240.1621
 20
94.4533
 10
-240.0776
 20
94.6697
 10
-239.9829
 20
94.876
 10
-239.878
 20
95.0723
 10
-239.7925
 20
95.2119
 10
-239.7
 20
95.3452
 10
-239.6005
 20
95.4721
 10
-239.494
 20
95.5928
 10
-239.3805
 20
95.707
 10
-239.2599
 20
95.8149
 10
-239.1324
 20
95.9165
 10
-238.9978
 20
96.0116
 10
-238.8579
 20
96.0975
 10
-238.7155
 20
96.1721
 10
-238.5707
 20
96.2352
 10
-238.4235
 20
96.2869
 10
-238.2737
 20
96.3271
 10
-238.1214
 20
96.3559
 10
-237.9666
 20
96.3731
 10
-237.8092
 20
96.3789
 10
-237.6554
 20
96.3759
 10
-237.5119
 20
96.3667
 10
-237.3786
 20
96.3516
 10
-237.2557
 20
96.3303
 10
-237.143
 20
96.3029
 10
-237.0406
 20
96.2695
 10
-236.9485
 20
96.23
 10
-236.8667
 20
96.1844
 10
-236.6603
 20
96.0323
 10
-236.4813
 20
95.854
 10
-236.3298
 20
95.6496
 10
-236.2057
 20
95.419
 10
-236.1091
 20
95.1623
 10
-236.0401
 20
94.8795
 10
-235.9986
 20
94.5705
 10
-235.9848
 20
94.2354
 10
-235.9848
 20
88.62
 10
-234.5519
 20
88.62
 10
-234.5519
 20
94.2354
 10
-234.5619
 20
94.5786
 10
-234.3266
 20
95.0723
 10
-234.2411
 20
95.2119
 10
-234.1486
 20
95.3452
 10
-234.049
 20
95.4721
 10
-233.9424
 20
95.5928
 10
-233.8287
 20
95.707
 10
-233.7079
 20
95.8149
 10
-233.5799
 20
95.9165
 10
-233.4448
 20
96.0116
 10
-233.3054
 20
96.0975
 10
-233.1634
 20
96.1721
 10
-233.0187
 20
96.2352
 10
-232.8715
 20
96.2869
 10
-232.7217
 20
96.3271
 10
-232.5693
 20
96.3559
 10
-232.4144
 20
96.3731
 10
-232.257
 20
96.3789
 10
-232.1034
 20
96.3759
 10
-231.9601
 20
96.3667
 10
-231.8269
 20
96.3516
 10
-231.7039
 20
96.3303
 10
-231.5912
 20
96.3029
 10
-231.4889
 20
96.2695
 10
-231.3969
 20
96.23
 10
-231.3153
 20
96.1844
 10
-231.1085
 20
96.0323
 10
-230.9293
 20
95.854
 10
-230.7777
 20
95.6496
 10
-230.6538
 20
95.419
 10
-230.5574
 20
95.1623
 10
-230.4885
 20
94.8795
 10
-230.4473
 20
94.5705
 10
-230.4335
 20
94.2354
 10
-230.4335
 20
88.62
  0
LWPOLYLINE
  5
86
330
1F
100
AcDbEntity
  8
Layer 1
 62
     7
370
     9
100
AcDbPolyline
 90
      162
 70
     1
 43
0.0
 10
-214.8026
 20
88.62
 10
-213.3688
 20
88.62
 10
-213.3688
 20
94.2354
 10
-213.3805
 20
94.6081
 10
-213.4155
 20
94.9633
 10
-213.4739
 20
95.3009
 10
-213.5557
 20
95.621
 10
-213.6608
 20
95.9235
 10
-213.7892
 20
96.2084
 10
-213.9409
 20
96.4758
 10
-214.116
 20
96.7255
 10
-214.2138
 20
96.845
 10
-214.3177
 20
96.9585
 10
-214.4277
 20
97.0659
 10
-214.5438
 20
97.1673
 10
-214.666
 20
97.2626
 10
-214.7943
 20
97.3518
 10
-214.9288
 20
97.4349
 10
-215.0694
 20
97.5118
 10
-215.2183
 20
97.5813
 10
-215.3787
 20
97.6415
 10
-215.5508
 20
97.6923
 10
-215.7345
 20
97.7339
 10
-215.9298
 20
97.7662
 10
-216.1367
 20
97.7893
 10
-216.3553
 20
97.8031
 10
-216.5854
 20
97.8077
 10
-216.8171
 20
97.7997
 10
-217.0415
 20
97.7759
 10
-217.2587
 20
97.7361
 10
-217.4685
 20
97.6803
 10
-217.671
 20
97.6086
 10
-217.8662
 20
97.5209
 10
-218.054
 20
97.4171
 10
-218.2344
 20
97.2974
 10
-218.3908
 20
97.1782
 10
-218.5402
 20
97.0502
 10
-218.6825
 20
96.9133
 10
-218.8179
 20
96.7677
 10
-218.9462
 20
96.6135
 10
-219.0676
 20
96.4507
 10
-219.1819
 20
96.2794
 10
-219.2892
 20
96.0997
 10
-219.3722
 20
96.2654
 10
-219.4631
 20
96.4254
 10
-219.5618
 20
96.579
 10
-219.6682
 20
96.7255
 10
-219.766
 20
96.845
 10
-219.8699
 20
96.9585
 10
-219.9798
 20
97.0659
 10
-220.0959
 20
97.1673
 10
-220.218
 20
97.2626
 10
-220.3461
 20
97.3518
 10
-220.4804
 20
97.4349
 10
-220.6207
 20
97.5118
 10
-220.7699
 20
97.5813
 10
-220.9305
 20
97.6415
 10
-221.1028
 20
97.6923
 10
-221.2865
 20
97.7339
 10
-221.4818
 20
97.7662
 10
-221.6886
 20
97.7893
 10
-221.9069
 20
97.8031
 10
-222.1368
 20
97.8077
 10
-222.3687
 20
97.7997
 10
-222.5932
 20
97.7759
 10
-222.8104
 20
97.7361
 10
-223.0202
 20
97.6803
 10
-223.2226
 20
97.6086
 10
-223.4177
 20
97.5209
 10
-223.6054
 20
97.4171
 10
-223.7858
 20
97.2974
 10
-223.935
 20
97.1839
 10
-224.0778
 20
97.0626
 10
-224.2142
 20
96.9337
 10
-224.3442
 20
96.7969
 10
-224.4678
 20
96.6523
 10
-224.5849
 20
96.4999
 10
-224.6956
 20
96.3395
 10
-224.7998
 20
96.1711
 10
-224.7998
 20
97.6041
 10
-226.2344
 20
97.6041
 10
-226.2344
 20
88.62
 10
-224.7998
 20
88.62
 10
-224.7998
 20
93.2172
 10
-224.7666
 20
93.4853
 10
-224.7231
 20
93.7428
 10
-224.6694
 20
93.9899
 10
-224.6054
 20
94.2267
 10
-224.5312
 20
94.4533
 10
-224.4467
 20
94.6697
 10
-224.352
 20
94.876
 10
-224.2471
 20
95.0723
 10
-224.1616
 20
95.2119
 10
-224.0691
 20
95.3452
 10
-223.9696
 20
95.4721
 10
-223.863
 20
95.5928
 10
-223.7494
 20
95.707
 10
-223.6287
 20
95.8149
 10
-223.5009
 20
95.9165
 10
-223.3661
 20
96.0116
 10
-223.2264
 20
96.0975
 10
-223.0842
 20
96.1721
 10
-222.9394
 20
96.2352
 10
-222.7922
 20
96.2869
 10
-222.6424
 20
96.3271
 10
-222.4901
 20
96.3559
 10
-222.3354
 20
96.3731
 10
-222.1783
 20
96.3789
 10
-222.0245
 20
96.3759
 10
-221.8809
 20
96.3667
 10
-221.7477
 20
96.3516
 10
-221.6247
 20
96.3303
 10
-221.5121
 20
96.3029
 10
-221.4097
 20
96.2695
 10
-221.3176
 20
96.23
 10
-221.2358
 20
96.1844
 10
-221.0292
 20
96.0323
 10
-220.8501
 20
95.854
 10
-220.6985
 20
95.6496
 10
-220.5745
 20
95.419
 10
-220.478
 20
95.1623
 10
-220.4091
 20
94.8795
 10
-220.3677
 20
94.5705
 10
-220.3539
 20
94.2354
 10
-220.3539
 20
88.62
 10
-218.9201
 20
88.62
 10
-218.9201
 20
94.2354
 10
-218.9301
 20
94.5786
 10
-218.6949
 20
95.0723
 10
-218.6096
 20
95.2119
 10
-218.5173
 20
95.3452
 10
-218.4177
 20
95.4721
 10
-218.3111
 20
95.5928
 10
-218.1974
 20
95.707
 10
-218.0766
 20
95.8149
 10
-217.9488
 20
95.9165
 10
-217.8139
 20
96.0116
 10
-217.6742
 20
96.0975
 10
-217.5321
 20
96.1721
 10
-217.3874
 20
96.2352
 10
-217.2403
 20
96.2869
 10
-217.0905
 20
96.3271
 10
-216.9383
 20
96.3559
 10
-216.7835
 20
96.3731
 10
-216.6261
 20
96.3789
 10
-216.4723
 20
96.3759
 10
-216.3288
 20
96.3667
 10
-216.1955
 20
96.3516
 10
-216.0726
 20
96.3303
 10
-215.9599
 20
96.3029
 10
-215.8575
 20
96.2695
 10
-215.7654
 20
96.23
 10
-215.6836
 20
96.1844
 10
-215.477
 20
96.0323
 10
-215.2981
 20
95.854
 10
-215.1466
 20
95.6496
 10
-215.0228
 20
95.419
 10
-214.9264
 20
95.1623
 10
-214.8576
 20
94.8795
 10
-214.8164
 20
94.5705
 10
-214.8026
 20
94.2354
 10
-214.8026
 20
88.62
  0
LWPOLYLINE
  5
87
330
1F
100
AcDbEntity
  8
Layer 1
 62
     7
370
     9
100
AcDbPolyline
 90
        7
 70
     1
 43
0.0
 10
-314.7145
 20
13.3272
 10
-313.2816
 20
13.3272
 10
-313.2816
 20
27.3747
 10
-316.7235
 20
27.0073
 10
-316.7235
 20
25.7614
 10
-314.7145
 20
25.7614
 10
-314.7145
 20
13.3272
  0
LWPOLYLINE
  5
88
330
1F
100
AcDbEntity
  8
Layer 1
 62
     7
370
     9
100
AcDbPolyline
 90
      106
 70
     1
 43
0.0
 10
-305.0148
 20
25.5985
 10
-304.7782
 20
25.4383
 10
-304.5577
 20
25.2564
 10
-304.3532
 20
25.0528
 10
-304.1648
 20
24.8275
 10
-303.9923
 20
24.5805
 10
-303.8357
 20
24.3117
 10
-303.6951
 20
24.0213
 10
-303.5703
 20
23.7093
 10
-303.4312
 20
23.2954
 10
-303.3106
 20
22.8755
 10
-303.2086
 20
22.4495
 10
-303.1252
 20
22.0174
 10
-303.0603
 20
21.5793
 10
-303.0139
 20
21.135
 10
-302.9861
 20
20.6847
 10
-302.9768
 20
20.2283
 10
-303.0375
 20
19.2176
 10
-303.1088
 20
18.6686
 10
-303.2018
 20
18.1501
 10
-303.3164
 20
17.6618
 10
-303.4528
 20
17.2039
 10
-303.611
 20
16.7763
 10
-303.7909
 20
16.379
 10
-303.9926
 20
16.012
 10
-304.2161
 20
15.6752
 10
-304.42
 20
15.4216
 10
-304.6348
 20
15.2018
 10
-304.8605
 20
15.0158
 10
-305.097
 20
14.8636
 10
-305.3444
 20
14.7452
 10
-305.6027
 20
14.6606
 10
-305.8718
 20
14.6099
 10
-306.1519
 20
14.593
 10
-306.4645
 20
14.6098
 10
-306.762
 20
14.66
 10
-307.0445
 20
14.7438
 10
-307.312
 20
14.8611
 10
-307.5644
 20
15.0118
 10
-307.8018
 20
15.1961
 10
-308.0241
 20
15.4139
 10
-308.2314
 20
15.6652
 10
-308.319
 20
15.7871
 10
-308.4028
 20
15.9128
 10
-308.4829
 20
16.0424
 10
-308.5591
 20
16.1758
 10
-308.6315
 20
16.313
 10
-308.7001
 20
16.454
 10
-308.7648
 20
16.5988
 10
-308.8257
 20
16.7474
 10
-308.9362
 20
17.0504
 10
-309.0329
 20
17.3572
 10
-309.1156
 20
17.6679
 10
-309.184
 20
17.9825
 10
-309.2408
 20
18.2962
 10
-309.289
 20
18.6051
 10
-309.3283
 20
18.909
 10
-309.3585
 20
19.2077
 10
-309.3808
 20
19.5151
 10
-309.3966
 20
19.8451
 10
-309.4061
 20
20.1973
 10
-309.4092
 20
20.5716
 10
-309.4057
 20
20.7702
 10
-309.3952
 20
20.9803
 10
-309.3776
 20
21.2019
 10
-309.353
 20
21.435
 10
-309.3213
 20
21.6797
 10
-309.2826
 20
21.9361
 10
-309.2369
 20
22.2042
 10
-309.184
 20
22.4841
 10
-309.1163
 20
22.795
 10
-309.0357
 20
23.1046
 10
-308.9421
 20
23.4129
 10
-308.8357
 20
23.7201
 10
-308.7772
 20
23.8712
 10
-308.7146
 20
24.0185
 10
-308.6479
 20
24.162
 10
-308.5769
 20
24.3017
 10
-308.5018
 20
24.4375
 10
-308.4225
 20
24.5696
 10
-308.3391
 20
24.6978
 10
-308.2514
 20
24.8222
 10
-308.1597
 20
24.9416
 10
-308.0634
 20
25.055
 10
-307.9627
 20
25.1624
 10
-307.8575
 20
25.2637
 10
-307.7478
 20
25.3589
 10
-307.6337
 20
25.4481
 10
-307.5151
 20
25.5313
 10
-307.392
 20
25.6085
 10
-307.2633
 20
25.6778
 10
-307.1289
 20
25.7378
 10
-306.9889
 20
25.7887
 10
-306.8432
 20
25.8303
 10
-306.6918
 20
25.8627
 10
-306.5347
 20
25.8859
 10
-306.3719
 20
25.8998
 10
-306.2034
 20
25.9044
 10
-306.0345
 20
25.8996
 10
-305.8715
 20
25.8852
 10
-305.7142
 20
25.8613
 10
-305.5627
 20
25.8278
 10
-305.417
 20
25.7848
 10
-305.2771
 20
25.7322
 10
-305.143
 20
25.6701
 10
-305.0148
 20
25.5985
  0
LWPOLYLINE
  5
89
330
1F
100
AcDbEntity
  8
Layer 1
 62
     7
370
     9
100
AcDbPolyline
 90
       65
 70
     1
 43
0.0
 10
-306.1319
 20
13.1435
 10
-305.5335
 20
13.1813
 10
-304.9734
 20
13.2947
 10
-304.4513
 20
13.4837
 10
-303.9675
 20
13.7483
 10
-303.5217
 20
14.0885
 10
-303.1141
 20
14.5043
 10
-302.7447
 20
14.9958
 10
-302.4133
 20
15.563
 10
-302.1804
 20
16.0577
 10
-301.9786
 20
16.5799
 10
-301.8079
 20
17.1295
 10
-301.6682
 20
17.7067
 10
-301.5596
 20
18.3113
 10
-301.482
 20
18.9434
 10
-301.4355
 20
19.6029
 10
-301.42
 20
20.2898
 10
-301.4355
 20
20.9765
 10
-301.482
 20
21.6358
 10
-301.5596
 20
22.2678
 10
-301.6682
 20
22.8723
 10
-301.8079
 20
23.4494
 10
-301.9786
 20
23.999
 10
-302.1804
 20
24.5212
 10
-302.4133
 20
25.0159
 10
-302.7447
 20
25.583
 10
-303.1141
 20
26.0745
 10
-303.5217
 20
26.4904
 10
-303.9675
 20
26.8306
 10
-304.4513
 20
27.0952
 10
-304.9734
 20
27.2842
 10
-305.5335
 20
27.3976
 10
-306.1319
 20
27.4354
 10
-306.7297
 20
27.3976
 10
-307.2895
 20
27.2842
 10
-307.8113
 20
27.0952
 10
-308.295
 20
26.8306
 10
-308.7408
 20
26.4904
 10
-309.1484
 20
26.0745
 10
-309.5181
 20
25.583
 10
-309.8497
 20
25.0159
 10
-310.0826
 20
24.5212
 10
-310.2845
 20
23.999
 10
-310.4554
 20
23.4494
 10
-310.5952
 20
22.8723
 10
-310.7039
 20
22.2678
 10
-310.7816
 20
21.6358
 10
-310.8283
 20
20.9765
 10
-310.8438
 20
20.2898
 10
-310.8283
 20
19.6029
 10
-310.7816
 20
18.9434
 10
-310.7039
 20
18.3113
 10
-310.5952
 20
17.7067
 10
-310.4554
 20
17.1295
 10
-310.2845
 20
16.5799
 10
-310.0826
 20
16.0577
 10
-309.8497
 20
15.563
 10
-309.5181
 20
14.9958
 10
-309.1484
 20
14.5043
 10
-308.7408
 20
14.0885
 10
-308.295
 20
13.7483
 10
-307.8113
 20
13.4837
 10
-307.2895
 20
13.2947
 10
-306.7297
 20
13.1813
 10
-306.1319
 20
13.1435
  0
LWPOLYLINE
  5
8A
330
1F
100
AcDbEntity
  8
Layer 1
 62
     7
370
     9
100
AcDbPolyline
 90
        5
 70
     1
 43
0.0
 10
-296.7289
 20
28.6406
 10
-298.6946
 20
28.6406
 10
-299.8832
 20
23.3519
 10
-299.023
 20
23.3519
 10
-296.7289
 20
28.6406
  0
LWPOLYLINE
  5
8B
330
1F
100
AcDbEntity
  8
Layer 1
 62
     7
370
     9
100
AcDbPolyline
 90
        5
 70
     1
 43
0.0
 10
-293.5115
 20
28.6406
 10
-295.478
 20
28.6406
 10
-296.6666
 20
23.3519
 10
-295.8063
 20
23.3519
 10
-293.5115
 20
28.6406
  0
LWPOLYLINE
  5
8C
330
1F
100
AcDbEntity
  8
Layer 1
 62
     7
370
     9
100
AcDbPolyline
 90
        5
 70
     1
 43
0.0
 10
-279.6219
 20
15.3893
 10
-279.6219
 20
16.5529
 10
-286.4848
 20
16.5529
 10
-286.4848
 20
15.3893
 10
-279.6219
 20
15.3893
  0
LWPOLYLINE
  5
8D
330
1F
100
AcDbEntity
  8
Layer 1
 62
     7
370
     9
100
AcDbPolyline
 90
        5
 70
     1
 43
0.0
 10
-279.6219
 20
19.0847
 10
-279.6219
 20
20.2491
 10
-286.4848
 20
20.2491
 10
-286.4848
 20
19.0847
 10
-279.6219
 20
19.0847
  0
LWPOLYLINE
  5
8E
330
1F
100
AcDbEntity
  8
Layer 1
 62
     7
370
     9
100
AcDbPolyline
 90
       87
 70
     1
 43
0.0
 10
-271.2213
 20
13.3272
 10
-261.4085
 20
13.3272
 10
-261.4085
 20
14.7568
 10
-267.7595
 20
14.7568
 10
-262.9038
 20
19.5543
 10
-262.587
 20
19.8998
 10
-262.3125
 20
20.2626
 10
-262.0802
 20
20.6425
 10
-261.8902
 20
21.0397
 10
-261.7424
 20
21.4542
 10
-261.6368
 20
21.8858
 10
-261.5734
 20
22.3347
 10
-261.5523
 20
22.8008
 10
-261.5739
 20
23.2774
 10
-261.6387
 20
23.7349
 10
-261.7467
 20
24.1733
 10
-261.8979
 20
24.5925
 10
-262.0923
 20
24.9926
 10
-262.3301
 20
25.3735
 10
-262.6111
 20
25.7354
 10
-262.9354
 20
26.0781
 10
-263.2953
 20
26.3963
 10
-263.6713
 20
26.672
 10
-264.0633
 20
26.9053
 10
-264.4714
 20
27.0962
 10
-264.8955
 20
27.2446
 10
-265.3357
 20
27.3506
 10
-265.7919
 20
27.4142
 10
-266.2642
 20
27.4354
 10
-266.7544
 20
27.4131
 10
-267.2264
 20
27.3461
 10
-267.6801
 20
27.2345
 10
-268.1156
 20
27.0782
 10
-268.5329
 20
26.8773
 10
-268.9319
 20
26.6317
 10
-269.3127
 20
26.3415
 10
-269.6753
 20
26.0066
 10
-269.9981
 20
25.6462
 10
-270.275
 20
25.2671
 10
-270.5062
 20
24.8692
 10
-270.6916
 20
24.4524
 10
-270.8313
 20
24.0169
 10
-270.9253
 20
23.5625
 10
-270.9735
 20
23.0893
 10
-270.9761
 20
22.5972
 10
-269.5215
 20
22.5972
 10
-269.5338
 20
22.9162
 10
-269.5114
 20
23.2278
 10
-269.4544
 20
23.5323
 10
-269.3628
 20
23.8294
 10
-269.2366
 20
24.1192
 10
-269.0758
 20
24.4016
 10
-268.8804
 20
24.6767
 10
-268.6505
 20
24.9444
 10
-268.4047
 20
25.1837
 10
-268.1461
 20
25.3912
 10
-267.8747
 20
25.5667
 10
-267.5905
 20
25.7104
 10
-267.2935
 20
25.8222
 10
-266.9835
 20
25.902
 10
-266.6607
 20
25.9499
 10
-266.3249
 20
25.9659
 10
-265.996
 20
25.9515
 10
-265.6795
 20
25.9084
 10
-265.3754
 20
25.8366
 10
-265.0837
 20
25.736
 10
-264.8044
 20
25.6067
 10
-264.5375
 20
25.4487
 10
-264.2829
 20
25.262
 10
-264.0408
 20
25.0466
 10
-263.8178
 20
24.8087
 10
-263.6245
 20
24.5593
 10
-263.4608
 20
24.2984
 10
-263.3268
 20
24.0261
 10
-263.2225
 20
23.7422
 10
-263.148
 20
23.4469
 10
-263.1032
 20
23.14
 10
-263.0883
 20
22.8216
 10
-263.1027
 20
22.4961
 10
-263.146
 20
22.1834
 10
-263.218
 20
21.8835
 10
-263.3189
 20
21.5964
 10
-263.4487
 20
21.3221
 10
-263.6072
 20
21.0606
 10
-263.7947
 20
20.8118
 10
-264.0109
 20
20.5758
 10
-271.2213
 20
13.3272
  0
LWPOLYLINE
  5
8F
330
1F
100
AcDbEntity
  8
Layer 1
 62
     7
370
     9
100
AcDbPolyline
 90
      136
 70
     1
 43
0.0
 10
-256.247
 20
22.066
 10
-255.3044
 20
25.7822
 10
-250.2643
 20
25.7822
 10
-250.2643
 20
27.211
 10
-256.3899
 20
27.211
 10
-257.9883
 20
20.9839
 10
-256.4307
 20
20.2898
 10
-256.205
 20
20.4429
 10
-255.968
 20
20.5756
 10
-255.7198
 20
20.6879
 10
-255.4603
 20
20.7798
 10
-255.1896
 20
20.8512
 10
-254.9077
 20
20.9023
 10
-254.6146
 20
20.9329
 10
-254.3104
 20
20.9431
 10
-254.0044
 20
20.9281
 10
-253.7087
 20
20.8831
 10
-253.4232
 20
20.8081
 10
-253.1479
 20
20.7031
 10
-252.8828
 20
20.5681
 10
-252.628
 20
20.4031
 10
-252.3835
 20
20.2081
 10
-252.1493
 20
19.9831
 10
-251.9284
 20
19.7322
 10
-251.737
 20
19.4721
 10
-251.575
 20
19.2027
 10
-251.4424
 20
18.924
 10
-251.3393
 20
18.6361
 10
-251.2657
 20
18.3389
 10
-251.2215
 20
18.0324
 10
-251.2068
 20
17.7166
 10
-251.2218
 20
17.3902
 10
-251.267
 20
17.0769
 10
-251.3421
 20
16.7765
 10
-251.4474
 20
16.4893
 10
-251.5828
 20
16.215
 10
-251.7482
 20
15.9538
 10
-251.9437
 20
15.7057
 10
-252.1693
 20
15.4707
 10
-252.2842
 20
15.3662
 10
-252.4032
 20
15.2672
 10
-252.5264
 20
15.1736
 10
-252.6537
 20
15.0854
 10
-252.7851
 20
15.0026
 10
-252.9206
 20
14.9253
 10
-253.0603
 20
14.8533
 10
-253.2041
 20
14.7867
 10
-253.3544
 20
14.727
 10
-253.513
 20
14.6753
 10
-253.6798
 20
14.6314
 10
-253.855
 20
14.5955
 10
-254.0384
 20
14.5675
 10
-254.2302
 20
14.5475
 10
-254.4303
 20
14.5355
 10
-254.6387
 20
14.5315
 10
-254.8509
 20
14.5405
 10
-255.0628
 20
14.5673
 10
-255.2746
 20
14.6121
 10
-255.4861
 20
14.6747
 10
-255.6972
 20
14.7551
 10
-255.908
 20
14.8534
 10
-256.1184
 20
14.9695
 10
-256.3284
 20
15.1034
 10
-256.5308
 20
15.2518
 10
-256.7177
 20
15.4111
 10
-256.8893
 20
15.5811
 10
-257.0455
 20
15.7619
 10
-257.1864
 20
15.9535
 10
-257.3119
 20
16.156
 10
-257.4221
 20
16.3694
 10
-257.517
 20
16.5936
 10
-258.9092
 20
16.1448
 10
-258.7725
 20
15.8088
 10
-258.6131
 20
15.4897
 10
-258.4309
 20
15.1874
 10
-258.226
 20
14.902
 10
-257.9983
 20
14.6336
 10
-257.7479
 20
14.382
 10
-257.4747
 20
14.1474
 10
-257.1787
 20
13.9298
 10
-256.8641
 20
13.7311
 10
-256.5424
 20
13.5589
 10
-256.2137
 20
13.4132
 10
-255.8778
 20
13.294
 10
-255.535
 20
13.2012
 10
-255.185
 20
13.135
 10
-254.8281
 20
13.0952
 10
-254.4641
 20
13.082
 10
-253.9791
 20
13.1039
 10
-253.5126
 20
13.1694
 10
-253.0647
 20
13.2787
 10
-252.6354
 20
13.4317
 10
-252.2247
 20
13.6284
 10
-251.8327
 20
13.8688
 10
-251.4593
 20
14.153
 10
-251.1046
 20
14.4808
 10
-250.7828
 20
14.8367
 10
-250.504
 20
15.2102
 10
-250.268
 20
15.6011
 10
-250.0749
 20
16.0095
 10
-249.9246
 20
16.4355
 10
-249.8173
 20
16.879
 10
-249.753
 20
17.3401
 10
-249.7315
 20
17.8188
 10
-249.7527
 20
18.295
 10
-249.8161
 20
18.751
 10
-249.9218
 20
19.187
 10
-250.0698
 20
19.6029
 10
-250.26
 20
19.9987
 10
-250.4924
 20
20.3743
 10
-250.767
 20
20.7299
 10
-251.0838
 20
21.0653
 10
-251.2457
 20
21.2144
 10
-251.414
 20
21.3555
 10
-251.5888
 20
21.4886
 10
-251.77
 20
21.6139
 10
-251.9577
 20
21.7311
 10
-252.1517
 20
21.8405
 10
-252.3522
 20
21.9419
 10
-252.5591
 20
22.0353
 10
-252.7701
 20
22.1191
 10
-252.983
 20
22.1918
 10
-253.1976
 20
22.2532
 10
-253.4141
 20
22.3034
 10
-253.6323
 20
22.3425
 10
-253.8522
 20
22.3704
 10
-254.0738
 20
22.3871
 10
-254.2971
 20
22.3927
 10
-254.5247
 20
22.3876
 10
-254.7569
 20
22.3723
 10
-254.9936
 20
22.3468
 10
-255.2349
 20
22.311
 10
-255.4809
 20
22.2651
 10
-255.7316
 20
22.2089
 10
-255.9869
 20
22.1426
 10
-256.247
 20
22.066
  0
LWPOLYLINE
  5
90
330
1F
100
AcDbEntity
  8
Layer 1
 62
     7
370
     9
100
AcDbPolyline
 90
        4
 70
     1
 43
0.0
 10
-240.4723
 20
25.6592
 10
-240.4723
 20
17.6351
 10
-245.7976
 20
17.6351
 10
-240.4723
 20
25.6592
  0
LWPOLYLINE
  5
91
330
1F
100
AcDbEntity
  8
Layer 1
 62
     7
370
     9
100
AcDbPolyline
 90
       11
 70
     1
 43
0.0
 10
-238.9762
 20
16.1656
 10
-237.2141
 20
16.1656
 10
-237.2141
 20
17.6351
 10
-238.9762
 20
17.6351
 10
-238.997
 20
27.211
 10
-241.0042
 20
27.211
 10
-248.3384
 20
16.1656
 10
-240.4723
 20
16.1656
 10
-240.4723
 20
13.3272
 10
-238.9762
 20
13.3272
 10
-238.9762
 20
16.1656
  0
LWPOLYLINE
  5
92
330
1F
100
AcDbEntity
  8
Layer 1
 62
     7
370
     9
100
AcDbPolyline
 90
      162
 70
     1
 43
0.0
 10
-223.2829
 20
13.3679
 10
-221.8492
 20
13.3679
 10
-221.8492
 20
18.9832
 10
-221.8609
 20
19.356
 10
-221.8959
 20
19.7112
 10
-221.9543
 20
20.0488
 10
-222.0361
 20
20.3689
 10
-222.1412
 20
20.6714
 10
-222.2696
 20
20.9563
 10
-222.4213
 20
21.2237
 10
-222.5964
 20
21.4734
 10
-222.6942
 20
21.5929
 10
-222.7982
 20
21.7064
 10
-222.9083
 20
21.8138
 10
-223.0245
 20
21.9152
 10
-223.1467
 20
22.0105
 10
-223.275
 20
22.0997
 10
-223.4093
 20
22.1828
 10
-223.5497
 20
22.2597
 10
-223.6989
 20
22.3292
 10
-223.8595
 20
22.3894
 10
-224.0318
 20
22.4402
 10
-224.2155
 20
22.4818
 10
-224.4108
 20
22.5141
 10
-224.6176
 20
22.5372
 10
-224.8359
 20
22.551
 10
-225.0658
 20
22.5556
 10
-225.2977
 20
22.5476
 10
-225.5223
 20
22.5238
 10
-225.7395
 20
22.484
 10
-225.9493
 20
22.4282
 10
-226.1517
 20
22.3565
 10
-226.3467
 20
22.2688
 10
-226.5344
 20
22.165
 10
-226.7148
 20
22.0453
 10
-226.8714
 20
21.9261
 10
-227.0209
 20
21.7981
 10
-227.1633
 20
21.6612
 10
-227.2986
 20
21.5156
 10
-227.4269
 20
21.3614
 10
-227.5481
 20
21.1986
 10
-227.6623
 20
21.0273
 10
-227.7696
 20
20.8476
 10
-227.853
 20
21.0133
 10
-227.9439
 20
21.1733
 10
-228.0426
 20
21.3269
 10
-228.1494
 20
21.4734
 10
-228.2472
 20
21.5929
 10
-228.351
 20
21.7064
 10
-228.4608
 20
21.8138
 10
-228.5768
 20
21.9152
 10
-228.6988
 20
22.0105
 10
-228.827
 20
22.0997
 10
-228.9613
 20
22.1828
 10
-229.1019
 20
22.2597
 10
-229.2508
 20
22.3292
 10
-229.4113
 20
22.3894
 10
-229.5834
 20
22.4402
 10
-229.7671
 20
22.4818
 10
-229.9624
 20
22.5141
 10
-230.1693
 20
22.5372
 10
-230.3879
 20
22.551
 10
-230.618
 20
22.5556
 10
-230.8497
 20
22.5476
 10
-231.074
 20
22.5238
 10
-231.291
 20
22.484
 10
-231.5007
 20
22.4282
 10
-231.703
 20
22.3565
 10
-231.8981
 20
22.2688
 10
-232.0858
 20
22.165
 10
-232.2662
 20
22.0453
 10
-232.4154
 20
21.9318
 10
-232.5582
 20
21.8105
 10
-232.6946
 20
21.6816
 10
-232.8246
 20
21.5448
 10
-232.9482
 20
21.4002
 10
-233.0653
 20
21.2478
 10
-233.176
 20
21.0874
 10
-233.2802
 20
20.919
 10
-233.2802
 20
22.352
 10
-234.7148
 20
22.352
 10
-234.7148
 20
13.3679
 10
-233.2802
 20
13.3679
 10
-233.2802
 20
17.9651
 10
-233.247
 20
18.2332
 10
-233.2035
 20
18.4907
 10
-233.1498
 20
18.7378
 10
-233.0858
 20
18.9746
 10
-233.0116
 20
19.2012
 10
-232.9271
 20
19.4176
 10
-232.8324
 20
19.6239
 10
-232.7275
 20
19.8202
 10
-232.642
 20
19.9598
 10
-232.5495
 20
20.0931
 10
-232.45
 20
20.22
 10
-232.3435
 20
20.3407
 10
-232.23
 20
20.4549
 10
-232.1094
 20
20.5628
 10
-231.9819
 20
20.6643
 10
-231.8473
 20
20.7594
 10
-231.7074
 20
20.8454
 10
-231.565
 20
20.9199
 10
-231.4202
 20
20.9831
 10
-231.273
 20
21.0348
 10
-231.1232
 20
21.075
 10
-230.9709
 20
21.1038
 10
-230.8161
 20
21.121
 10
-230.6587
 20
21.1268
 10
-230.5049
 20
21.1238
 10
-230.3613
 20
21.1146
 10
-230.2281
 20
21.0995
 10
-230.1051
 20
21.0782
 10
-229.9925
 20
21.0508
 10
-229.8901
 20
21.0174
 10
-229.798
 20
20.9779
 10
-229.7162
 20
20.9323
 10
-229.5098
 20
20.7802
 10
-229.3308
 20
20.6019
 10
-229.1793
 20
20.3975
 10
-229.0552
 20
20.1669
 10
-228.9586
 20
19.9102
 10
-228.8896
 20
19.6273
 10
-228.8481
 20
19.3183
 10
-228.8343
 20
18.9832
 10
-228.8343
 20
13.3679
 10
-227.4014
 20
13.3679
 10
-227.4014
 20
18.9832
 10
-227.4113
 20
19.3265
 10
-227.1761
 20
19.8202
 10
-227.0906
 20
19.9598
 10
-226.9981
 20
20.0931
 10
-226.8985
 20
20.22
 10
-226.7919
 20
20.3407
 10
-226.6782
 20
20.4549
 10
-226.5574
 20
20.5628
 10
-226.4294
 20
20.6643
 10
-226.2943
 20
20.7594
 10
-226.1549
 20
20.8454
 10
-226.0128
 20
20.9199
 10
-225.8682
 20
20.9831
 10
-225.721
 20
21.0348
 10
-225.5711
 20
21.075
 10
-225.4188
 20
21.1038
 10
-225.2639
 20
21.121
 10
-225.1065
 20
21.1268
 10
-224.9529
 20
21.1238
 10
-224.8095
 20
21.1146
 10
-224.6763
 20
21.0995
 10
-224.5534
 20
21.0782
 10
-224.4407
 20
21.0508
 10
-224.3384
 20
21.0174
 10
-224.2464
 20
20.9779
 10
-224.1648
 20
20.9323
 10
-223.9579
 20
20.7802
 10
-223.7787
 20
20.6019
 10
-223.6271
 20
20.3975
 10
-223.5032
 20
20.1669
 10
-223.4068
 20
19.9102
 10
-223.3379
 20
19.6273
 10
-223.2967
 20
19.3183
 10
-223.2829
 20
18.9832
 10
-223.2829
 20
13.3679
  0
LWPOLYLINE
  5
93
330
1F
100
AcDbEntity
  8
Layer 1
 62
     7
370
     9
100
AcDbPolyline
 90
      162
 70
     1
 43
0.0
 10
-207.652
 20
13.3679
 10
-206.2183
 20
13.3679
 10
-206.2183
 20
18.9832
 10
-206.23
 20
19.356
 10
-206.265
 20
19.7112
 10
-206.3234
 20
20.0488
 10
-206.4052
 20
20.3689
 10
-206.5103
 20
20.6714
 10
-206.6387
 20
20.9563
 10
-206.7904
 20
21.2237
 10
-206.9655
 20
21.4734
 10
-207.0633
 20
21.5929
 10
-207.1672
 20
21.7064
 10
-207.2772
 20
21.8138
 10
-207.3933
 20
21.9152
 10
-207.5154
 20
22.0105
 10
-207.6438
 20
22.0997
 10
-207.7782
 20
22.1828
 10
-207.9188
 20
22.2597
 10
-208.0677
 20
22.3292
 10
-208.2282
 20
22.3894
 10
-208.4003
 20
22.4402
 10
-208.584
 20
22.4818
 10
-208.7793
 20
22.5141
 10
-208.9862
 20
22.5372
 10
-209.2048
 20
22.551
 10
-209.4349
 20
22.5556
 10
-209.6666
 20
22.5476
 10
-209.891
 20
22.5238
 10
-210.1081
 20
22.484
 10
-210.318
 20
22.4282
 10
-210.5205
 20
22.3565
 10
-210.7157
 20
22.2688
 10
-210.9035
 20
22.165
 10
-211.0839
 20
22.0453
 10
-211.2403
 20
21.9261
 10
-211.3897
 20
21.7981
 10
-211.532
 20
21.6612
 10
-211.6674
 20
21.5156
 10
-211.7957
 20
21.3614
 10
-211.9171
 20
21.1986
 10
-212.0314
 20
21.0273
 10
-212.1387
 20
20.8476
 10
-212.2217
 20
21.0133
 10
-212.3126
 20
21.1733
 10
-212.4113
 20
21.3269
 10
-212.5177
 20
21.4734
 10
-212.6155
 20
21.5929
 10
-212.7194
 20
21.7064
 10
-212.8293
 20
21.8138
 10
-212.9454
 20
21.9152
 10
-213.0675
 20
22.0105
 10
-213.1956
 20
22.0997
 10
-213.3299
 20
22.1828
 10
-213.4702
 20
22.2597
 10
-213.6193
 20
22.3292
 10
-213.78
 20
22.3894
 10
-213.9522
 20
22.4402
 10
-214.136
 20
22.4818
 10
-214.3312
 20
22.5141
 10
-214.538
 20
22.5372
 10
-214.7563
 20
22.551
 10
-214.9862
 20
22.5556
 10
-215.2181
 20
22.5476
 10
-215.4427
 20
22.5238
 10
-215.6599
 20
22.484
 10
-215.8697
 20
22.4282
 10
-216.0721
 20
22.3565
 10
-216.2672
 20
22.2688
 10
-216.4549
 20
22.165
 10
-216.6353
 20
22.0453
 10
-216.7845
 20
21.9318
 10
-216.9273
 20
21.8105
 10
-217.0637
 20
21.6816
 10
-217.1937
 20
21.5448
 10
-217.3173
 20
21.4002
 10
-217.4344
 20
21.2478
 10
-217.5451
 20
21.0874
 10
-217.6493
 20
20.919
 10
-217.6493
 20
22.352
 10
-219.0839
 20
22.352
 10
-219.0839
 20
13.3679
 10
-217.6493
 20
13.3679
 10
-217.6493
 20
17.9651
 10
-217.6161
 20
18.2332
 10
-217.5726
 20
18.4907
 10
-217.5189
 20
18.7378
 10
-217.4549
 20
18.9746
 10
-217.3807
 20
19.2012
 10
-217.2962
 20
19.4176
 10
-217.2015
 20
19.6239
 10
-217.0966
 20
19.8202
 10
-217.0111
 20
19.9598
 10
-216.9186
 20
20.0931
 10
-216.8191
 20
20.22
 10
-216.7125
 20
20.3407
 10
-216.5988
 20
20.4549
 10
-216.4781
 20
20.5628
 10
-216.3504
 20
20.6643
 10
-216.2155
 20
20.7594
 10
-216.0758
 20
20.8454
 10
-215.9336
 20
20.9199
 10
-215.7889
 20
20.9831
 10
-215.6416
 20
21.0348
 10
-215.4918
 20
21.075
 10
-215.3396
 20
21.1038
 10
-215.1849
 20
21.121
 10
-215.0278
 20
21.1268
 10
-214.874
 20
21.1238
 10
-214.7304
 20
21.1146
 10
-214.5972
 20
21.0995
 10
-214.4742
 20
21.0782
 10
-214.3616
 20
21.0508
 10
-214.2592
 20
21.0174
 10
-214.1671
 20
20.9779
 10
-214.0853
 20
20.9323
 10
-213.8787
 20
20.7802
 10
-213.6996
 20
20.6019
 10
-213.548
 20
20.3975
 10
-213.424
 20
20.1669
 10
-213.3275
 20
19.9102
 10
-213.2586
 20
19.6273
 10
-213.2172
 20
19.3183
 10
-213.2034
 20
18.9832
 10
-213.2034
 20
13.3679
 10
-211.7696
 20
13.3679
 10
-211.7696
 20
18.9832
 10
-211.7796
 20
19.3265
 10
-211.5444
 20
19.8202
 10
-211.4591
 20
19.9598
 10
-211.3667
 20
20.0931
 10
-211.2672
 20
20.22
 10
-211.1606
 20
20.3407
 10
-211.0469
 20
20.4549
 10
-210.9261
 20
20.5628
 10
-210.7982
 20
20.6643
 10
-210.6633
 20
20.7594
 10
-210.5237
 20
20.8454
 10
-210.3815
 20
20.9199
 10
-210.2369
 20
20.9831
 10
-210.0897
 20
21.0348
 10
-209.94
 20
21.075
 10
-209.7878
 20
21.1038
 10
-209.633
 20
21.121
 10
-209.4756
 20
21.1268
 10
-209.3218
 20
21.1238
 10
-209.1782
 20
21.1146
 10
-209.045
 20
21.0995
 10
-208.922
 20
21.0782
 10
-208.8094
 20
21.0508
 10
-208.707
 20
21.0174
 10
-208.6149
 20
20.9779
 10
-208.5331
 20
20.9323
 10
-208.3265
 20
20.7802
 10
-208.1475
 20
20.6019
 10
-207.996
 20
20.3975
 10
-207.8722
 20
20.1669
 10
-207.7758
 20
19.9102
 10
-207.707
 20
19.6273
 10
-207.6658
 20
19.3183
 10
-207.652
 20
18.9832
 10
-207.652
 20
13.3679
  0
ENDSEC
  0
SECTION
  2
OBJECTS
  0
DICTIONARY
  5
C
330
0
100
AcDbDictionary
281
     1
  3
ACAD_DETAILVIEWSTYLE
350
9B
  3
ACAD_GROUP
350
D
  3
ACAD_LAYOUT
350
1A
  3
ACAD_MATERIAL
350
43
  3
ACAD_MLEADERSTYLE
350
5B
  3
ACAD_MLINESTYLE
350
17
  3
ACAD_PLOTSETTINGS
350
19
  3
ACAD_PLOTSTYLENAME
350
E
  3
ACAD_SCALELIST
350
47
  3
ACAD_SECTIONVIEWSTYLE
350
9C
  3
ACAD_TABLESTYLE
350
59
  3
ACAD_VISUALSTYLE
350
2A
  3
ACDB_RECOMPOSE_DATA
350
98
  3
AcDbVariableDictionary
350
94
  0
SUN
  5
5D
330
29
100
AcDbSun
 90
        1
290
     0
 63
     7
421
 16777215
 40
1.0
291
     1
 91
  2455826
 92
 54000000
292
     0
 70
     2
 71
   256
280
     1
  0
DICTIONARY
  5
9B
102
{ACAD_REACTORS
330
C
102
}
330
C
100
AcDbDictionary
281
     1
  0
DICTIONARY
  5
D
102
{ACAD_REACTORS
330
C
102
}
330
C
100
AcDbDictionary
281
     1
  0
DICTIONARY
  5
1A
102
{ACAD_REACTORS
330
C
102
}
330
C
100
AcDbDictionary
281
     1
  3
Layout1
350
1E
  3
Layout2
350
26
  3
Model
350
22
  0
DICTIONARY
  5
43
102
{ACAD_REACTORS
330
C
102
}
330
C
100
AcDbDictionary
281
     1
  3
ByBlock
350
45
  3
ByLayer
350
44
  3
Global
350
46
  0
DICTIONARY
  5
5B
102
{ACAD_REACTORS
330
C
102
}
330
C
100
AcDbDictionary
281
     1
  3
Standard
350
5C
  0
DICTIONARY
  5
17
102
{ACAD_REACTORS
330
C
102
}
330
C
100
AcDbDictionary
281
     1
  3
Standard
350
18
  0
DICTIONARY
  5
19
102
{ACAD_REACTORS
330
C
102
}
330
C
100
AcDbDictionary
281
     1
  0
ACDBDICTIONARYWDFLT
  5
E
102
{ACAD_REACTORS
330
C
102
}
330
C
100
AcDbDictionary
281
     1
  3
Normal
350
F
100
AcDbDictionaryWithDefault
340
F
  0
DICTIONARY
  5
47
102
{ACAD_REACTORS
330
C
102
}
330
C
100
AcDbDictionary
281
     1
  3
A0
350
48
  3
A1
350
49
  3
A2
350
4A
  3
A3
350
4B
  3
A4
350
4C
  3
A5
350
4D
  3
A6
350
4E
  3
A7
350
4F
  3
A8
350
50
  3
A9
350
51
  3
B1
350
52
  3
B2
350
53
  3
B3
350
54
  3
B4
350
55
  3
B5
350
56
  3
B6
350
57
  3
B7
350
58
  0
DICTIONARY
  5
9C
102
{ACAD_REACTORS
330
C
102
}
330
C
100
AcDbDictionary
281
     1
  0
DICTIONARY
  5
59
102
{ACAD_REACTORS
330
C
102
}
330
C
100
AcDbDictionary
281
     1
  3
Standard
350
5A
  0
DICTIONARY
  5
2A
102
{ACAD_REACTORS
330
C
102
}
330
C
100
AcDbDictionary
281
     1
  3
2dWireframe
350
2F
  3
Basic
350
32
  3
Brighten
350
36
  3
ColorChange
350
3A
  3
Conceptual
350
34
  3
Dim
350
35
  3
EdgeColorOff
350
3D
  3
Facepattern
350
39
  3
Flat
350
2B
  3
FlatWithEdges
350
2C
  3
Gouraud
350
2D
  3
GouraudWithEdges
350
2E
  3
Hidden
350
31
  3
JitterOff
350
3B
  3
Linepattern
350
38
  3
OverhangOff
350
3C
  3
Realistic
350
33
  3
Shaded
350
42
  3
Shaded with edges
350
41
  3
Shades of Gray
350
3E
  3
Sketchy
350
3F
  3
Thicken
350
37
  3
Wireframe
350
30
  3
X-Ray
350
40
  0
XRECORD
  5
98
102
{ACAD_REACTORS
330
C
102
}
330
C
100
AcDbXrecord
280
     1
 90
        1
330
5A
  0
DICTIONARY
  5
94
102
{ACAD_REACTORS
330
C
102
}
330
C
100
AcDbDictionary
281
     1
  3
CANNOSCALE
350
95
  3
CMLEADERSTYLE
350
9A
  3
CTABLESTYLE
350
99
  0
LAYOUT
  5
1E
102
{ACAD_REACTORS
330
1A
102
}
330
1A
100
AcDbPlotSettings
  1

  2
none_device
  4

  6

 40
0.0
 41
0.0
 42
0.0
 43
0.0
 44
0.0
 45
0.0
 46
0.0
 47
0.0
 48
0.0
 49
0.0
140
0.0
141
0.0
142
1.0
143
1.0
 70
   688
 72
     0
 73
     0
 74
     5
  7

 75
    16
 76
     0
 77
     2
 78
   300
147
1.0
148
0.0
149
0.0
100
AcDbLayout
  1
Layout1
 70
     1
 71
     1
 10
0.0
 20
0.0
 11
12.0
 21
9.0
 12
0.0
 22
0.0
 32
0.0
 14
1.000000000000000E+20
 24
1.000000000000000E+20
 34
1.000000000000000E+20
 15
-1.000000000000000E+20
 25
-1.000000000000000E+20
 35
-1.000000000000000E+20
146
0.0
 13
0.0
 23
0.0
 33
0.0
 16
1.0
 26
0.0
 36
0.0
 17
0.0
 27
1.0
 37
0.0
 76
     0
330
1B
  0
LAYOUT
  5
26
102
{ACAD_REACTORS
330
1A
102
}
330
1A
100
AcDbPlotSettings
  1

  2
none_device
  4

  6

 40
0.0
 41
0.0
 42
0.0
 43
0.0
 44
0.0
 45
0.0
 46
0.0
 47
0.0
 48
0.0
 49
0.0
140
0.0
141
0.0
142
1.0
143
1.0
 70
   688
 72
     0
 73
     0
 74
     5
  7

 75
    16
 76
     0
 77
     2
 78
   300
147
1.0
148
0.0
149
0.0
100
AcDbLayout
  1
Layout2
 70
     1
 71
     2
 10
0.0
 20
0.0
 11
0.0
 21
0.0
 12
0.0
 22
0.0
 32
0.0
 14
0.0
 24
0.0
 34
0.0
 15
0.0
 25
0.0
 35
0.0
146
0.0
 13
0.0
 23
0.0
 33
0.0
 16
1.0
 26
0.0
 36
0.0
 17
0.0
 27
1.0
 37
0.0
 76
     0
330
23
  0
LAYOUT
  5
22
102
{ACAD_REACTORS
330
1A
102
}
330
1A
100
AcDbPlotSettings
  1

  2
none_device
  4
Letter_(8.50_x_11.00_Inches)
  6

 40
6.35
 41
6.35
 42
6.35000508
 43
6.35000508
 44
215.9
 45
279.4
 46
0.0
 47
0.0
 48
0.0
 49
0.0
140
0.0
141
0.0
142
1.0
143
1.0
 70
  1712
 72
     0
 73
     0
 74
     0
  7

 75
     0
 76
     0
 77
     2
 78
   300
147
1.0
148
0.0
149
0.0
100
AcDbLayout
  1
Model
 70
     1
 71
     0
 10
0.0
 20
0.0
 11
12.0
 21
9.0
 12
0.0
 22
0.0
 32
0.0
 14
-405.2873
 24
-19.3803
 34
0.0
 15
-118.8409
 25
215.8671
 35
0.0
146
0.0
 13
0.0
 23
0.0
 33
0.0
 16
1.0
 26
0.0
 36
0.0
 17
0.0
 27
1.0
 37
0.0
 76
     0
330
1F
331
29
  0
MATERIAL
  5
45
102
{ACAD_REACTORS
330
43
102
}
330
43
100
AcDbMaterial
  1
ByBlock
 72
     1
 94
      127
  0
MATERIAL
  5
44
102
{ACAD_REACTORS
330
43
102
}
330
43
100
AcDbMaterial
  1
ByLayer
 72
     1
 94
      127
  0
MATERIAL
  5
46
102
{ACAD_REACTORS
330
43
102
}
330
43
100
AcDbMaterial
  1
Global
 72
     1
 94
      127
  0
MLEADERSTYLE
  5
5C
102
{ACAD_REACTORS
330
5B
102
}
330
5B
100
AcDbMLeaderStyle
179
     2
170
     2
171
     1
172
     0
 90
        2
 40
0.0
 41
0.0
173
     1
 91
-1056964608
340
14
 92
       -2
290
     1
 42
0.09
291
     1
 43
0.36
  3
Standard
341
0
 44
0.18
300

342
11
174
     1
178
     6
175
     1
176
     0
 93
-1056964608
 45
0.18
292
     0
297
     0
 46
0.18
343
0
 94
-1056964608
 47
1.0
 49
1.0
140
1.0
293
     1
141
0.0
294
     1
177
     0
142
1.0
295
     0
296
     0
143
0.125
271
     0
272
     9
273
     9
298
     0
  0
MLINESTYLE
  5
18
102
{ACAD_REACTORS
330
17
102
}
330
17
100
AcDbMlineStyle
  2
Standard
 70
     0
  3

 62
   256
 51
90.0
 52
90.0
 71
     2
 49
0.5
 62
   256
  6
BYLAYER
 49
-0.5
 62
   256
  6
BYLAYER
  0
ACDBPLACEHOLDER
  5
F
102
{ACAD_REACTORS
330
E
102
}
330
E
  0
SCALE
  5
48
102
{ACAD_REACTORS
330
47
102
}
330
47
100
AcDbScale
 70
     0
300
1:1
140
1.0
141
1.0
290
     1
  0
SCALE
  5
49
102
{ACAD_REACTORS
330
47
102
}
330
47
100
AcDbScale
 70
     0
300
1/128" = 1'-0"
140
0.0078125
141
12.0
290
     0
  0
SCALE
  5
4A
102
{ACAD_REACTORS
330
47
102
}
330
47
100
AcDbScale
 70
     0
300
1/64" = 1'-0"
140
0.015625
141
12.0
290
     0
  0
SCALE
  5
4B
102
{ACAD_REACTORS
330
47
102
}
330
47
100
AcDbScale
 70
     0
300
1/32" = 1'-0"
140
0.03125
141
12.0
290
     0
  0
SCALE
  5
4C
102
{ACAD_REACTORS
330
47
102
}
330
47
100
AcDbScale
 70
     0
300
1/16" = 1'-0"
140
0.0625
141
12.0
290
     0
  0
SCALE
  5
4D
102
{ACAD_REACTORS
330
47
102
}
330
47
100
AcDbScale
 70
     0
300
3/32" = 1'-0"
140
0.09375
141
12.0
290
     0
  0
SCALE
  5
4E
102
{ACAD_REACTORS
330
47
102
}
330
47
100
AcDbScale
 70
     0
300
1/8" = 1'-0"
140
0.125
141
12.0
290
     0
  0
SCALE
  5
4F
102
{ACAD_REACTORS
330
47
102
}
330
47
100
AcDbScale
 70
     0
300
3/16" = 1'-0"
140
0.1875
141
12.0
290
     0
  0
SCALE
  5
50
102
{ACAD_REACTORS
330
47
102
}
330
47
100
AcDbScale
 70
     0
300
1/4" = 1'-0"
140
0.25
141
12.0
290
     0
  0
SCALE
  5
51
102
{ACAD_REACTORS
330
47
102
}
330
47
100
AcDbScale
 70
     0
300
3/8" = 1'-0"
140
0.375
141
12.0
290
     0
  0
SCALE
  5
52
102
{ACAD_REACTORS
330
47
102
}
330
47
100
AcDbScale
 70
     0
300
1/2" = 1'-0"
140
0.5
141
12.0
290
     0
  0
SCALE
  5
53
102
{ACAD_REACTORS
330
47
102
}
330
47
100
AcDbScale
 70
     0
300
3/4" = 1'-0"
140
0.75
141
12.0
290
     0
  0
SCALE
  5
54
102
{ACAD_REACTORS
330
47
102
}
330
47
100
AcDbScale
 70
     0
300
1" = 1'-0"
140
1.0
141
12.0
290
     0
  0
SCALE
  5
55
102
{ACAD_REACTORS
330
47
102
}
330
47
100
AcDbScale
 70
     0
300
1-1/2" = 1'-0"
140
1.5
141
12.0
290
     0
  0
SCALE
  5
56
102
{ACAD_REACTORS
330
47
102
}
330
47
100
AcDbScale
 70
     0
300
3" = 1'-0"
140
3.0
141
12.0
290
     0
  0
SCALE
  5
57
102
{ACAD_REACTORS
330
47
102
}
330
47
100
AcDbScale
 70
     0
300
6" = 1'-0"
140
6.0
141
12.0
290
     0
  0
SCALE
  5
58
102
{ACAD_REACTORS
330
47
102
}
330
47
100
AcDbScale
 70
     0
300
1'-0" = 1'-0"
140
12.0
141
12.0
290
     0
  0
TABLESTYLE
  5
5A
102
{ACAD_REACTORS
330
59
102
}
102
{ACAD_XDICTIONARY
360
96
102
}
330
59
100
AcDbTableStyle
  3
Standard
 70
     0
 71
     0
 40
0.06
 41
0.06
280
     0
281
     0
  7
Standard
140
0.18
170
     2
 62
     0
 63
   257
283
     0
 90
        4
 91
        0
  1

274
    -2
284
     1
 64
     0
275
    -2
285
     1
 65
     0
276
    -2
286
     1
 66
     0
277
    -2
287
     1
 67
     0
278
    -2
288
     1
 68
     0
279
    -2
289
     1
 69
     0
  7
Standard
140
0.25
170
     5
 62
     0
 63
   257
283
     0
 90
        4
 91
        0
  1

274
    -2
284
     1
 64
     0
275
    -2
285
     1
 65
     0
276
    -2
286
     1
 66
     0
277
    -2
287
     1
 67
     0
278
    -2
288
     1
 68
     0
279
    -2
289
     1
 69
     0
  7
Standard
140
0.18
170
     5
 62
     0
 63
   257
283
     0
 90
        4
 91
        0
  1

274
    -2
284
     1
 64
     0
275
    -2
285
     1
 65
     0
276
    -2
286
     1
 66
     0
277
    -2
287
     1
 67
     0
278
    -2
288
     1
 68
     0
279
    -2
289
     1
 69
     0
  0
VISUALSTYLE
  5
2F
102
{ACAD_REACTORS
330
2A
102
}
330
2A
100
AcDbVisualStyle
  2
2dWireframe
 70
     4
177
     3
291
     0
 70
    58
 90
        0
176
     1
 90
        2
176
     1
 90
        0
176
     1
 90
        0
176
     1
 40
0.6
176
     1
 40
30.0
176
     1
 62
     7
420
 16777215
176
     1
 90
        1
176
     1
 90
        4
176
     1
 62
     7
176
     1
 62
   257
176
     1
 90
        1
176
     1
 90
        1
176
     1
 40
1.0
176
     1
 90
        0
176
     1
 62
   257
176
     1
 40
1.0
176
     1
 90
        1
176
     1
 90
        6
176
     1
 90
        2
176
     1
 62
     7
176
     1
 90
        5
176
     1
 90
        0
176
     1
 90
        0
176
     1
290
     0
176
     1
 90
        1
176
     1
 40
0.0
176
     1
 90
        0
176
     1
290
     1
176
     1
290
     1
176
     1
290
     0
176
     1
290
     0
176
     1
290
     0
176
     1
290
     0
176
     1
290
     0
176
     1
290
     0
176
     1
290
     0
176
     1
 90
       50
176
     1
 40
0.0
176
     1
 40
1.0
176
     1
 90
        0
176
     1
 62
    18
420
        0
176
     1
 90
       50
176
     1
 90
        3
176
     1
 62
     5
420
      255
176
     1
290
     0
176
     1
 90
       50
176
     1
 90
       50
176
     1
 90
       50
176
     1
290
     0
176
     1
 90
       50
176
     1
 62
   256
176
     0
 40
1.0
176
     0
 90
        2
176
     1
  1
strokes_ogs.tif
176
     1
290
     0
176
     1
 40
1.0
176
     1
 40
1.0
176
     1
  0
VISUALSTYLE
  5
32
102
{ACAD_REACTORS
330
2A
102
}
330
2A
100
AcDbVisualStyle
  2
Basic
 70
     7
177
     3
291
     1
 70
    58
 90
        1
176
     1
 90
        0
176
     1
 90
        1
176
     1
 90
        0
176
     1
 40
0.6
176
     1
 40
30.0
176
     1
 62
     7
420
 16777215
176
     1
 90
        0
176
     1
 90
        4
176
     1
 62
     7
176
     1
 62
   257
176
     1
 90
        1
176
     1
 90
        1
176
     1
 40
1.0
176
     1
 90
        8
176
     1
 62
     7
176
     1
 40
1.0
176
     1
 90
        1
176
     1
 90
        6
176
     1
 90
        2
176
     1
 62
     7
176
     1
 90
        5
176
     1
 90
        0
176
     1
 90
        0
176
     1
290
     0
176
     1
 90
        1
176
     1
 40
0.0
176
     1
 90
        0
176
     1
290
     0
176
     1
290
     1
176
     1
290
     1
176
     1
290
     0
176
     1
290
     0
176
     1
290
     0
176
     1
290
     0
176
     1
290
     0
176
     1
290
     0
176
     1
 90
       50
176
     1
 40
0.0
176
     1
 40
1.0
176
     1
 90
        0
176
     1
 62
    18
420
        0
176
     1
 90
       50
176
     1
 90
        3
176
     1
 62
     5
420
      255
176
     1
290
     0
176
     1
 90
       50
176
     1
 90
       50
176
     1
 90
       50
176
     1
290
     0
176
     1
 90
       50
176
     1
 62
   256
176
     0
 40
1.0
176
     0
 90
        2
176
     1
  1
strokes_ogs.tif
176
     1
290
     0
176
     1
 40
1.0
176
     1
 40
1.0
176
     1
  0
VISUALSTYLE
  5
36
102
{ACAD_REACTORS
330
2A
102
}
330
2A
100
AcDbVisualStyle
  2
Brighten
 70
    12
177
     3
291
     1
 70
    58
 90
        2
176
     1
 90
        2
176
     1
 90
        0
176
     1
 90
        0
176
     1
 40
0.6
176
     1
 40
30.0
176
     1
 62
     7
420
 16777215
176
     1
 90
        1
176
     1
 90
        4
176
     1
 62
     7
176
     1
 62
   257
176
     1
 90
        1
176
     1
 90
        1
176
     1
 40
1.0
176
     1
 90
        8
176
     1
 62
     7
176
     1
 40
1.0
176
     1
 90
        1
176
     1
 90
        6
176
     1
 90
        2
176
     1
 62
     7
176
     1
 90
        5
176
     1
 90
        0
176
     1
 90
        0
176
     1
290
     0
176
     1
 90
        1
176
     1
 40
50.0
176
     1
 90
        0
176
     1
290
     0
176
     1
290
     1
176
     1
290
     1
176
     1
290
     0
176
     1
290
     0
176
     1
290
     0
176
     1
290
     0
176
     1
290
     0
176
     1
290
     0
176
     1
 90
       50
176
     1
 40
0.0
176
     1
 40
1.0
176
     1
 90
        0
176
     1
 62
    18
420
        0
176
     1
 90
       50
176
     1
 90
        3
176
     1
 62
     5
420
      255
176
     1
290
     0
176
     1
 90
       50
176
     1
 90
       50
176
     1
 90
       50
176
     1
290
     0
176
     1
 90
       50
176
     1
 62
   256
176
     0
 40
1.0
176
     0
 90
        2
176
     1
  1
strokes_ogs.tif
176
     1
290
     0
176
     1
 40
1.0
176
     1
 40
1.0
176
     1
  0
VISUALSTYLE
  5
3A
102
{ACAD_REACTORS
330
2A
102
}
330
2A
100
AcDbVisualStyle
  2
ColorChange
 70
    16
177
     3
291
     1
 70
    58
 90
        2
176
     1
 90
        2
176
     1
 90
        3
176
     1
 90
        0
176
     1
 40
0.6
176
     1
 40
30.0
176
     1
 62
     8
420
  8421504
176
     1
 90
        1
176
     1
 90
        4
176
     1
 62
     7
176
     1
 62
   257
176
     1
 90
        1
176
     1
 90
        1
176
     1
 40
1.0
176
     1
 90
        8
176
     1
 62
     8
420
  8421504
176
     1
 40
1.0
176
     1
 90
        1
176
     1
 90
        6
176
     1
 90
        2
176
     1
 62
     7
176
     1
 90
        5
176
     1
 90
        0
176
     1
 90
        0
176
     1
290
     0
176
     1
 90
        1
176
     1
 40
0.0
176
     1
 90
        0
176
     1
290
     0
176
     1
290
     1
176
     1
290
     1
176
     1
290
     0
176
     1
290
     0
176
     1
290
     0
176
     1
290
     0
176
     1
290
     0
176
     1
290
     0
176
     1
 90
       50
176
     1
 40
0.0
176
     1
 40
1.0
176
     1
 90
        0
176
     1
 62
    18
420
        0
176
     1
 90
       50
176
     1
 90
        3
176
     1
 62
     5
420
      255
176
     1
290
     0
176
     1
 90
       50
176
     1
 90
       50
176
     1
 90
       50
176
     1
290
     0
176
     1
 90
       50
176
     1
 62
   256
176
     0
 40
1.0
176
     0
 90
        2
176
     1
  1
strokes_ogs.tif
176
     1
290
     0
176
     1
 40
1.0
176
     1
 40
1.0
176
     1
  0
VISUALSTYLE
  5
34
102
{ACAD_REACTORS
330
2A
102
}
330
2A
100
AcDbVisualStyle
  2
Conceptual
 70
     9
177
     3
291
     0
 70
    58
 90
        3
176
     1
 90
        2
176
     1
 90
        0
176
     1
 90
        0
176
     1
 40
0.6
176
     1
 40
30.0
176
     1
 62
     7
420
 16777215
176
     1
 90
        2
176
     1
 90
        2
176
     1
 62
     7
176
     1
 62
   257
176
     1
 90
        1
176
     1
 90
        1
176
     1
 40
179.0
176
     1
 90
        8
176
     1
 62
     7
176
     1
 40
1.0
176
     1
 90
        1
176
     1
 90
        6
176
     1
 90
        2
176
     1
 62
     7
176
     1
 90
        3
176
     1
 90
        0
176
     1
 90
        0
176
     1
290
     0
176
     1
 90
        1
176
     1
 40
0.0
176
     1
 90
        0
176
     1
290
     0
176
     1
290
     1
176
     1
290
     1
176
     1
290
     0
176
     1
290
     0
176
     1
290
     0
176
     1
290
     0
176
     1
290
     0
176
     1
290
     0
176
     1
 90
       50
176
     1
 40
0.0
176
     1
 40
1.0
176
     1
 90
        0
176
     1
 62
    18
420
        0
176
     1
 90
       50
176
     1
 90
        3
176
     1
 62
     5
420
      255
176
     1
290
     0
176
     1
 90
       50
176
     1
 90
       50
176
     1
 90
       50
176
     1
290
     0
176
     1
 90
       50
176
     1
 62
   256
176
     0
 40
1.0
176
     0
 90
        2
176
     1
  1
strokes_ogs.tif
176
     1
290
     0
176
     1
 40
1.0
176
     1
 40
1.0
176
     1
  0
VISUALSTYLE
  5
35
102
{ACAD_REACTORS
330
2A
102
}
330
2A
100
AcDbVisualStyle
  2
Dim
 70
    11
177
     3
291
     1
 70
    58
 90
        2
176
     1
 90
        2
176
     1
 90
        0
176
     1
 90
        0
176
     1
 40
0.6
176
     1
 40
30.0
176
     1
 62
     7
420
 16777215
176
     1
 90
        1
176
     1
 90
        4
176
     1
 62
     7
176
     1
 62
   257
176
     1
 90
        1
176
     1
 90
        1
176
     1
 40
1.0
176
     1
 90
        8
176
     1
 62
     7
176
     1
 40
1.0
176
     1
 90
        1
176
     1
 90
        6
176
     1
 90
        2
176
     1
 62
     7
176
     1
 90
        5
176
     1
 90
        0
176
     1
 90
        0
176
     1
290
     0
176
     1
 90
        1
176
     1
 40
-50.0
176
     1
 90
        0
176
     1
290
     0
176
     1
290
     1
176
     1
290
     1
176
     1
290
     0
176
     1
290
     0
176
     1
290
     0
176
     1
290
     0
176
     1
290
     0
176
     1
290
     0
176
     1
 90
       50
176
     1
 40
0.0
176
     1
 40
1.0
176
     1
 90
        0
176
     1
 62
    18
420
        0
176
     1
 90
       50
176
     1
 90
        3
176
     1
 62
     5
420
      255
176
     1
290
     0
176
     1
 90
       50
176
     1
 90
       50
176
     1
 90
       50
176
     1
290
     0
176
     1
 90
       50
176
     1
 62
   256
176
     0
 40
1.0
176
     0
 90
        2
176
     1
  1
strokes_ogs.tif
176
     1
290
     0
176
     1
 40
1.0
176
     1
 40
1.0
176
     1
  0
VISUALSTYLE
  5
3D
102
{ACAD_REACTORS
330
2A
102
}
330
2A
100
AcDbVisualStyle
  2
EdgeColorOff
 70
    22
177
     3
291
     1
 70
    58
 90
        2
176
     0
 90
        2
176
     0
 90
        0
176
     0
 90
        0
176
     0
 40
0.6
176
     0
 40
30.0
176
     0
 62
     7
420
 16777215
176
     0
 90
        1
176
     0
 90
        4
176
     0
 62
     7
176
     0
 62
   257
176
     0
 90
        1
176
     0
 90
        1
176
     0
 40
1.0
176
     0
 90
        8
176
     2
 62
     7
176
     0
 40
1.0
176
     0
 90
        1
176
     0
 90
        6
176
     0
 90
        2
176
     0
 62
     7
176
     0
 90
        5
176
     0
 90
        0
176
     0
 90
        0
176
     0
290
     0
176
     0
 90
        1
176
     0
 40
0.0
176
     0
 90
        0
176
     0
290
     0
176
     0
290
     1
176
     0
290
     1
176
     0
290
     0
176
     0
290
     0
176
     0
290
     0
176
     0
290
     0
176
     0
290
     0
176
     0
290
     0
176
     0
 90
       50
176
     0
 40
0.0
176
     0
 40
1.0
176
     0
 90
        0
176
     0
 62
    18
420
        0
176
     0
 90
       50
176
     0
 90
        3
176
     0
 62
     5
420
      255
176
     0
290
     0
176
     0
 90
       50
176
     0
 90
       50
176
     0
 90
       50
176
     0
290
     0
176
     0
 90
       50
176
     0
 62
   256
176
     0
 40
1.0
176
     0
 90
        2
176
     0
  1
strokes_ogs.tif
176
     0
290
     0
176
     0
 40
1.0
176
     0
 40
1.0
176
     0
  0
VISUALSTYLE
  5
39
102
{ACAD_REACTORS
330
2A
102
}
330
2A
100
AcDbVisualStyle
  2
Facepattern
 70
    15
177
     3
291
     1
 70
    58
 90
        2
176
     1
 90
        2
176
     1
 90
        0
176
     1
 90
        0
176
     1
 40
0.6
176
     1
 40
30.0
176
     1
 62
     7
420
 16777215
176
     1
 90
        1
176
     1
 90
        4
176
     1
 62
     7
176
     1
 62
   257
176
     1
 90
        1
176
     1
 90
        1
176
     1
 40
1.0
176
     1
 90
        8
176
     1
 62
     7
176
     1
 40
1.0
176
     1
 90
        1
176
     1
 90
        6
176
     1
 90
        2
176
     1
 62
     7
176
     1
 90
        5
176
     1
 90
        0
176
     1
 90
        0
176
     1
290
     0
176
     1
 90
        1
176
     1
 40
0.0
176
     1
 90
        0
176
     1
290
     0
176
     1
290
     1
176
     1
290
     1
176
     1
290
     0
176
     1
290
     0
176
     1
290
     0
176
     1
290
     0
176
     1
290
     0
176
     1
290
     0
176
     1
 90
       50
176
     1
 40
0.0
176
     1
 40
1.0
176
     1
 90
        0
176
     1
 62
    18
420
        0
176
     1
 90
       50
176
     1
 90
        3
176
     1
 62
     5
420
      255
176
     1
290
     0
176
     1
 90
       50
176
     1
 90
       50
176
     1
 90
       50
176
     1
290
     0
176
     1
 90
       50
176
     1
 62
   256
176
     0
 40
1.0
176
     0
 90
        2
176
     1
  1
strokes_ogs.tif
176
     1
290
     0
176
     1
 40
1.0
176
     1
 40
1.0
176
     1
  0
VISUALSTYLE
  5
2B
102
{ACAD_REACTORS
330
2A
102
}
330
2A
100
AcDbVisualStyle
  2
Flat
 70
     0
177
     3
291
     1
 70
    58
 90
        2
176
     1
 90
        1
176
     1
 90
        1
176
     1
 90
        2
176
     1
 40
0.6
176
     1
 40
30.0
176
     1
 62
     7
420
 16777215
176
     1
 90
        0
176
     1
 90
        0
176
     1
 62
     7
176
     1
 62
   257
176
     1
 90
        1
176
     1
 90
        1
176
     1
 40
1.0
176
     1
 90
        8
176
     1
 62
     7
176
     1
 40
1.0
176
     1
 90
        1
176
     1
 90
        6
176
     1
 90
        2
176
     1
 62
     7
176
     1
 90
        5
176
     1
 90
        0
176
     1
 90
        0
176
     1
290
     0
176
     1
 90
       13
176
     1
 40
0.0
176
     1
 90
        0
176
     1
290
     0
176
     1
290
     1
176
     1
290
     1
176
     1
290
     0
176
     1
290
     0
176
     1
290
     0
176
     1
290
     0
176
     1
290
     0
176
     1
290
     0
176
     1
 90
       50
176
     1
 40
0.0
176
     1
 40
1.0
176
     1
 90
        0
176
     1
 62
    18
420
        0
176
     1
 90
       50
176
     1
 90
        3
176
     1
 62
     5
420
      255
176
     1
290
     0
176
     1
 90
       50
176
     1
 90
       50
176
     1
 90
       50
176
     1
290
     0
176
     1
 90
       50
176
     1
 62
   256
176
     0
 40
1.0
176
     0
 90
        2
176
     1
  1
strokes_ogs.tif
176
     1
290
     0
176
     1
 40
1.0
176
     1
 40
1.0
176
     1
  0
VISUALSTYLE
  5
2C
102
{ACAD_REACTORS
330
2A
102
}
330
2A
100
AcDbVisualStyle
  2
FlatWithEdges
 70
     1
177
     3
291
     1
 70
    58
 90
        2
176
     1
 90
        1
176
     1
 90
        1
176
     1
 90
        2
176
     1
 40
0.6
176
     1
 40
30.0
176
     1
 62
     7
420
 16777215
176
     1
 90
        1
176
     1
 90
        0
176
     1
 62
     7
176
     1
 62
   257
176
     1
 90
        1
176
     1
 90
        1
176
     1
 40
1.0
176
     1
 90
        0
176
     1
 62
   257
176
     1
 40
1.0
176
     1
 90
        1
176
     1
 90
        6
176
     1
 90
        2
176
     1
 62
     7
176
     1
 90
        5
176
     1
 90
        0
176
     1
 90
        0
176
     1
290
     0
176
     1
 90
       13
176
     1
 40
0.0
176
     1
 90
        0
176
     1
290
     0
176
     1
290
     1
176
     1
290
     1
176
     1
290
     0
176
     1
290
     0
176
     1
290
     0
176
     1
290
     0
176
     1
290
     0
176
     1
290
     0
176
     1
 90
       50
176
     1
 40
0.0
176
     1
 40
1.0
176
     1
 90
        0
176
     1
 62
    18
420
        0
176
     1
 90
       50
176
     1
 90
        3
176
     1
 62
     5
420
      255
176
     1
290
     0
176
     1
 90
       50
176
     1
 90
       50
176
     1
 90
       50
176
     1
290
     0
176
     1
 90
       50
176
     1
 62
   256
176
     0
 40
1.0
176
     0
 90
        2
176
     1
  1
strokes_ogs.tif
176
     1
290
     0
176
     1
 40
1.0
176
     1
 40
1.0
176
     1
  0
VISUALSTYLE
  5
2D
102
{ACAD_REACTORS
330
2A
102
}
330
2A
100
AcDbVisualStyle
  2
Gouraud
 70
     2
177
     3
291
     1
 70
    58
 90
        2
176
     1
 90
        2
176
     1
 90
        1
176
     1
 90
        2
176
     1
 40
0.6
176
     1
 40
30.0
176
     1
 62
     7
420
 16777215
176
     1
 90
        0
176
     1
 90
        0
176
     1
 62
     7
176
     1
 62
   257
176
     1
 90
        1
176
     1
 90
        1
176
     1
 40
1.0
176
     1
 90
        0
176
     1
 62
     7
176
     1
 40
1.0
176
     1
 90
        1
176
     1
 90
        6
176
     1
 90
        2
176
     1
 62
     7
176
     1
 90
        5
176
     1
 90
        0
176
     1
 90
        0
176
     1
290
     0
176
     1
 90
       13
176
     1
 40
0.0
176
     1
 90
        0
176
     1
290
     0
176
     1
290
     1
176
     1
290
     1
176
     1
290
     0
176
     1
290
     0
176
     1
290
     0
176
     1
290
     0
176
     1
290
     0
176
     1
290
     0
176
     1
 90
       50
176
     1
 40
0.0
176
     1
 40
1.0
176
     1
 90
        0
176
     1
 62
    18
420
        0
176
     1
 90
       50
176
     1
 90
        3
176
     1
 62
     5
420
      255
176
     1
290
     0
176
     1
 90
       50
176
     1
 90
       50
176
     1
 90
       50
176
     1
290
     0
176
     1
 90
       50
176
     1
 62
   256
176
     0
 40
1.0
176
     0
 90
        2
176
     1
  1
strokes_ogs.tif
176
     1
290
     0
176
     1
 40
1.0
176
     1
 40
1.0
176
     1
  0
VISUALSTYLE
  5
2E
102
{ACAD_REACTORS
330
2A
102
}
330
2A
100
AcDbVisualStyle
  2
GouraudWithEdges
 70
     3
177
     3
291
     1
 70
    58
 90
        2
176
     1
 90
        2
176
     1
 90
        1
176
     1
 90
        2
176
     1
 40
0.6
176
     1
 40
30.0
176
     1
 62
     7
420
 16777215
176
     1
 90
        1
176
     1
 90
        0
176
     1
 62
     7
176
     1
 62
   257
176
     1
 90
        1
176
     1
 90
        1
176
     1
 40
1.0
176
     1
 90
        0
176
     1
 62
   257
176
     1
 40
1.0
176
     1
 90
        1
176
     1
 90
        6
176
     1
 90
        2
176
     1
 62
     7
176
     1
 90
        5
176
     1
 90
        0
176
     1
 90
        0
176
     1
290
     0
176
     1
 90
       13
176
     1
 40
0.0
176
     1
 90
        0
176
     1
290
     0
176
     1
290
     1
176
     1
290
     1
176
     1
290
     0
176
     1
290
     0
176
     1
290
     0
176
     1
290
     0
176
     1
290
     0
176
     1
290
     0
176
     1
 90
       50
176
     1
 40
0.0
176
     1
 40
1.0
176
     1
 90
        0
176
     1
 62
    18
420
        0
176
     1
 90
       50
176
     1
 90
        3
176
     1
 62
     5
420
      255
176
     1
290
     0
176
     1
 90
       50
176
     1
 90
       50
176
     1
 90
       50
176
     1
290
     0
176
     1
 90
       50
176
     1
 62
   256
176
     0
 40
1.0
176
     0
 90
        2
176
     1
  1
strokes_ogs.tif
176
     1
290
     0
176
     1
 40
1.0
176
     1
 40
1.0
176
     1
  0
VISUALSTYLE
  5
31
102
{ACAD_REACTORS
330
2A
102
}
330
2A
100
AcDbVisualStyle
  2
Hidden
 70
     6
177
     3
291
     0
 70
    58
 90
        1
176
     1
 90
        2
176
     1
 90
        2
176
     1
 90
        0
176
     1
 40
0.6
176
     1
 40
30.0
176
     1
 62
     7
420
 16777215
176
     1
 90
        2
176
     1
 90
        2
176
     1
 62
     7
176
     1
 62
   257
176
     1
 90
        2
176
     1
 90
        1
176
     1
 40
40.0
176
     1
 90
        0
176
     1
 62
   257
176
     1
 40
1.0
176
     1
 90
        1
176
     1
 90
        6
176
     1
 90
        2
176
     1
 62
     7
176
     1
 90
        3
176
     1
 90
        0
176
     1
 90
        0
176
     1
290
     0
176
     1
 90
        1
176
     1
 40
0.0
176
     1
 90
        0
176
     1
290
     0
176
     1
290
     1
176
     1
290
     1
176
     1
290
     0
176
     1
290
     0
176
     1
290
     0
176
     1
290
     0
176
     1
290
     0
176
     1
290
     0
176
     1
 90
       50
176
     1
 40
0.0
176
     1
 40
1.0
176
     1
 90
        0
176
     1
 62
    18
420
        0
176
     1
 90
       50
176
     1
 90
        3
176
     1
 62
     5
420
      255
176
     1
290
     0
176
     1
 90
       50
176
     1
 90
       50
176
     1
 90
       50
176
     1
290
     0
176
     1
 90
       50
176
     1
 62
   256
176
     0
 40
1.0
176
     0
 90
        2
176
     1
  1
strokes_ogs.tif
176
     1
290
     0
176
     1
 40
1.0
176
     1
 40
1.0
176
     1
  0
VISUALSTYLE
  5
3B
102
{ACAD_REACTORS
330
2A
102
}
330
2A
100
AcDbVisualStyle
  2
JitterOff
 70
    20
177
     3
291
     1
 70
    58
 90
        2
176
     0
 90
        2
176
     0
 90
        0
176
     0
 90
        0
176
     0
 40
0.6
176
     0
 40
30.0
176
     0
 62
     7
420
 16777215
176
     0
 90
        1
176
     0
 90
        4
176
     0
 62
     7
176
     0
 62
   257
176
     0
 90
        1
176
     0
 90
        1
176
     0
 40
1.0
176
     0
 90
       10
176
     2
 62
     7
176
     0
 40
1.0
176
     0
 90
        1
176
     0
 90
        6
176
     0
 90
        2
176
     0
 62
     7
176
     0
 90
        5
176
     0
 90
        0
176
     0
 90
        0
176
     0
290
     0
176
     0
 90
        1
176
     0
 40
0.0
176
     0
 90
        0
176
     0
290
     0
176
     0
290
     1
176
     0
290
     1
176
     0
290
     0
176
     0
290
     0
176
     0
290
     0
176
     0
290
     0
176
     0
290
     0
176
     0
290
     0
176
     0
 90
       50
176
     0
 40
0.0
176
     0
 40
1.0
176
     0
 90
        0
176
     0
 62
    18
420
        0
176
     0
 90
       50
176
     0
 90
        3
176
     0
 62
     5
420
      255
176
     0
290
     0
176
     0
 90
       50
176
     0
 90
       50
176
     0
 90
       50
176
     0
290
     0
176
     0
 90
       50
176
     0
 62
   256
176
     0
 40
1.0
176
     0
 90
        2
176
     0
  1
strokes_ogs.tif
176
     0
290
     0
176
     0
 40
1.0
176
     0
 40
1.0
176
     0
  0
VISUALSTYLE
  5
38
102
{ACAD_REACTORS
330
2A
102
}
330
2A
100
AcDbVisualStyle
  2
Linepattern
 70
    14
177
     3
291
     1
 70
    58
 90
        2
176
     1
 90
        2
176
     1
 90
        0
176
     1
 90
        0
176
     1
 40
0.6
176
     1
 40
30.0
176
     1
 62
     7
420
 16777215
176
     1
 90
        1
176
     1
 90
        4
176
     1
 62
     7
176
     1
 62
   257
176
     1
 90
        7
176
     1
 90
        7
176
     1
 40
1.0
176
     1
 90
        8
176
     1
 62
     7
176
     1
 40
1.0
176
     1
 90
        1
176
     1
 90
        6
176
     1
 90
        2
176
     1
 62
     7
176
     1
 90
        5
176
     1
 90
        0
176
     1
 90
        0
176
     1
290
     0
176
     1
 90
        1
176
     1
 40
0.0
176
     1
 90
        0
176
     1
290
     0
176
     1
290
     1
176
     1
290
     1
176
     1
290
     0
176
     1
290
     0
176
     1
290
     0
176
     1
290
     0
176
     1
290
     0
176
     1
290
     0
176
     1
 90
       50
176
     1
 40
0.0
176
     1
 40
1.0
176
     1
 90
        0
176
     1
 62
    18
420
        0
176
     1
 90
       50
176
     1
 90
        3
176
     1
 62
     5
420
      255
176
     1
290
     0
176
     1
 90
       50
176
     1
 90
       50
176
     1
 90
       50
176
     1
290
     0
176
     1
 90
       50
176
     1
 62
   256
176
     0
 40
1.0
176
     0
 90
        2
176
     1
  1
strokes_ogs.tif
176
     1
290
     0
176
     1
 40
1.0
176
     1
 40
1.0
176
     1
  0
VISUALSTYLE
  5
3C
102
{ACAD_REACTORS
330
2A
102
}
330
2A
100
AcDbVisualStyle
  2
OverhangOff
 70
    21
177
     3
291
     1
 70
    58
 90
        2
176
     0
 90
        2
176
     0
 90
        0
176
     0
 90
        0
176
     0
 40
0.6
176
     0
 40
30.0
176
     0
 62
     7
420
 16777215
176
     0
 90
        1
176
     0
 90
        4
176
     0
 62
     7
176
     0
 62
   257
176
     0
 90
        1
176
     0
 90
        1
176
     0
 40
1.0
176
     0
 90
        9
176
     2
 62
     7
176
     0
 40
1.0
176
     0
 90
        1
176
     0
 90
        6
176
     0
 90
        2
176
     0
 62
     7
176
     0
 90
        5
176
     0
 90
        0
176
     0
 90
        0
176
     0
290
     0
176
     0
 90
        1
176
     0
 40
0.0
176
     0
 90
        0
176
     0
290
     0
176
     0
290
     1
176
     0
290
     1
176
     0
290
     0
176
     0
290
     0
176
     0
290
     0
176
     0
290
     0
176
     0
290
     0
176
     0
290
     0
176
     0
 90
       50
176
     0
 40
0.0
176
     0
 40
1.0
176
     0
 90
        0
176
     0
 62
    18
420
        0
176
     0
 90
       50
176
     0
 90
        3
176
     0
 62
     5
420
      255
176
     0
290
     0
176
     0
 90
       50
176
     0
 90
       50
176
     0
 90
       50
176
     0
290
     0
176
     0
 90
       50
176
     0
 62
   256
176
     0
 40
1.0
176
     0
 90
        2
176
     0
  1
strokes_ogs.tif
176
     0
290
     0
176
     0
 40
1.0
176
     0
 40
1.0
176
     0
  0
VISUALSTYLE
  5
33
102
{ACAD_REACTORS
330
2A
102
}
330
2A
100
AcDbVisualStyle
  2
Realistic
 70
     8
177
     3
291
     0
 70
    58
 90
        2
176
     1
 90
        3
176
     1
 90
        0
176
     1
 90
        2
176
     1
 40
0.6
176
     1
 40
30.0
176
     1
 62
     7
420
 16777215
176
     1
 90
        0
176
     1
 90
        0
176
     1
 62
     7
176
     1
 62
   257
176
     1
 90
        1
176
     1
 90
        1
176
     1
 40
1.0
176
     1
 90
        8
176
     1
 62
   257
176
     1
 40
1.0
176
     1
 90
        1
176
     1
 90
        6
176
     1
 90
        2
176
     1
 62
     7
176
     1
 90
        3
176
     1
 90
        0
176
     1
 90
        0
176
     1
290
     0
176
     1
 90
       13
176
     1
 40
0.0
176
     1
 90
        0
176
     1
290
     0
176
     1
290
     1
176
     1
290
     1
176
     1
290
     0
176
     1
290
     0
176
     1
290
     0
176
     1
290
     0
176
     1
290
     0
176
     1
290
     0
176
     1
 90
       50
176
     1
 40
0.0
176
     1
 40
1.0
176
     1
 90
        0
176
     1
 62
    18
420
        0
176
     1
 90
       50
176
     1
 90
        3
176
     1
 62
     5
420
      255
176
     1
290
     0
176
     1
 90
       50
176
     1
 90
       50
176
     1
 90
       50
176
     1
290
     0
176
     1
 90
       50
176
     1
 62
   256
176
     0
 40
1.0
176
     0
 90
        2
176
     1
  1
strokes_ogs.tif
176
     1
290
     0
176
     1
 40
1.0
176
     1
 40
1.0
176
     1
  0
VISUALSTYLE
  5
42
102
{ACAD_REACTORS
330
2A
102
}
330
2A
100
AcDbVisualStyle
  2
Shaded
 70
    27
177
     3
291
     0
 70
    58
 90
        2
176
     1
 90
        2
176
     1
 90
        1
176
     1
 90
        2
176
     1
 40
0.6
176
     1
 40
30.0
176
     1
 62
     7
420
 16777215
176
     1
 90
        0
176
     1
 90
        4
176
     1
 62
     7
176
     1
 62
   257
176
     1
 90
        1
176
     1
 90
        1
176
     1
 40
1.0
176
     1
 90
        8
176
     1
 62
   257
176
     1
 40
1.0
176
     1
 90
        1
176
     1
 90
        6
176
     1
 90
        2
176
     1
 62
     8
420
  7895160
176
     1
 90
        3
176
     1
 90
        0
176
     1
 90
        0
176
     1
290
     0
176
     1
 90
        5
176
     1
 40
0.0
176
     1
 90
        0
176
     1
290
     0
176
     1
290
     1
176
     1
290
     1
176
     1
290
     0
176
     1
290
     0
176
     1
290
     0
176
     1
290
     0
176
     1
290
     0
176
     1
290
     0
176
     1
 90
       50
176
     1
 40
0.0
176
     1
 40
1.0
176
     1
 90
        0
176
     1
 62
    18
420
        0
176
     1
 90
       50
176
     1
 90
        3
176
     1
 62
     5
420
      255
176
     1
290
     0
176
     1
 90
       50
176
     1
 90
       50
176
     1
 90
       50
176
     1
290
     0
176
     1
 90
       50
176
     1
 62
   256
176
     0
 40
1.0
176
     0
 90
        2
176
     1
  1
strokes_ogs.tif
176
     1
290
     0
176
     1
 40
1.0
176
     1
 40
1.0
176
     1
  0
VISUALSTYLE
  5
41
102
{ACAD_REACTORS
330
2A
102
}
330
2A
100
AcDbVisualStyle
  2
Shaded with edges
 70
    26
177
     3
291
     0
 70
    58
 90
        2
176
     1
 90
        2
176
     1
 90
        1
176
     1
 90
        2
176
     1
 40
0.6
176
     1
 40
30.0
176
     1
 62
     7
420
 16777215
176
     1
 90
        1
176
     1
 90
       10
176
     1
 62
     7
176
     1
 62
   257
176
     1
 90
        2
176
     1
 90
        1
176
     1
 40
1.0
176
     1
 90
        8
176
     1
 62
   257
176
     1
 40
1.0
176
     1
 90
        1
176
     1
 90
        6
176
     1
 90
        2
176
     1
 62
     7
176
     1
 90
        3
176
     1
 90
        0
176
     1
 90
        0
176
     1
290
     0
176
     1
 90
        5
176
     1
 40
0.0
176
     1
 90
        0
176
     1
290
     0
176
     1
290
     1
176
     1
290
     1
176
     1
290
     0
176
     1
290
     0
176
     1
290
     0
176
     1
290
     0
176
     1
290
     0
176
     1
290
     0
176
     1
 90
       50
176
     1
 40
0.0
176
     1
 40
1.0
176
     1
 90
        0
176
     1
 62
    18
420
        0
176
     1
 90
       50
176
     1
 90
        3
176
     1
 62
     5
420
      255
176
     1
290
     0
176
     1
 90
       50
176
     1
 90
       50
176
     1
 90
       50
176
     1
290
     0
176
     1
 90
       50
176
     1
 62
   256
176
     0
 40
1.0
176
     0
 90
        2
176
     1
  1
strokes_ogs.tif
176
     1
290
     0
176
     1
 40
1.0
176
     1
 40
1.0
176
     1
  0
VISUALSTYLE
  5
3E
102
{ACAD_REACTORS
330
2A
102
}
330
2A
100
AcDbVisualStyle
  2
Shades of Gray
 70
    23
177
     3
291
     0
 70
    58
 90
        2
176
     1
 90
        2
176
     1
 90
        3
176
     1
 90
        0
176
     1
 40
0.6
176
     1
 40
30.0
176
     1
 62
     7
420
 16777215
176
     1
 90
        2
176
     1
 90
        2
176
     1
 62
     7
176
     1
 62
     7
176
     1
 90
        1
176
     1
 90
        1
176
     1
 40
40.0
176
     1
 90
        8
176
     1
 62
     7
176
     1
 40
1.0
176
     1
 90
        1
176
     1
 90
        6
176
     1
 90
        2
176
     1
 62
     7
176
     1
 90
        3
176
     1
 90
        0
176
     1
 90
        0
176
     1
290
     0
176
     1
 90
        1
176
     1
 40
0.0
176
     1
 90
        0
176
     1
290
     0
176
     1
290
     1
176
     1
290
     1
176
     1
290
     0
176
     1
290
     0
176
     1
290
     0
176
     1
290
     0
176
     1
290
     0
176
     1
290
     0
176
     1
 90
       50
176
     1
 40
0.0
176
     1
 40
1.0
176
     1
 90
        0
176
     1
 62
    18
420
        0
176
     1
 90
       50
176
     1
 90
        3
176
     1
 62
     5
420
      255
176
     1
290
     0
176
     1
 90
       50
176
     1
 90
       50
176
     1
 90
       50
176
     1
290
     0
176
     1
 90
       50
176
     1
 62
   256
176
     0
 40
1.0
176
     0
 90
        2
176
     1
  1
strokes_ogs.tif
176
     1
290
     0
176
     1
 40
1.0
176
     1
 40
1.0
176
     1
  0
VISUALSTYLE
  5
3F
102
{ACAD_REACTORS
330
2A
102
}
330
2A
100
AcDbVisualStyle
  2
Sketchy
 70
    24
177
     3
291
     0
 70
    58
 90
        1
176
     1
 90
        2
176
     1
 90
        2
176
     1
 90
        0
176
     1
 40
0.6
176
     1
 40
30.0
176
     1
 62
     7
420
 16777215
176
     1
 90
        2
176
     1
 90
        2
176
     1
 62
     7
176
     1
 62
     7
176
     1
 90
        1
176
     1
 90
        1
176
     1
 40
40.0
176
     1
 90
       11
176
     1
 62
     7
176
     1
 40
1.0
176
     1
 90
        1
176
     1
 90
        6
176
     1
 90
        2
176
     1
 62
     7
176
     1
 90
        6
176
     1
 90
        0
176
     1
 90
        0
176
     1
290
     0
176
     1
 90
        1
176
     1
 40
0.0
176
     1
 90
        0
176
     1
290
     0
176
     1
290
     1
176
     1
290
     1
176
     1
290
     0
176
     1
290
     0
176
     1
290
     0
176
     1
290
     0
176
     1
290
     0
176
     1
290
     0
176
     1
 90
       50
176
     1
 40
0.0
176
     1
 40
1.0
176
     1
 90
        0
176
     1
 62
    18
420
        0
176
     1
 90
       50
176
     1
 90
        3
176
     1
 62
     5
420
      255
176
     1
290
     0
176
     1
 90
       50
176
     1
 90
       50
176
     1
 90
       50
176
     1
290
     0
176
     1
 90
       50
176
     1
 62
   256
176
     0
 40
1.0
176
     0
 90
        2
176
     1
  1
strokes_ogs.tif
176
     1
290
     0
176
     1
 40
1.0
176
     1
 40
1.0
176
     1
  0
VISUALSTYLE
  5
37
102
{ACAD_REACTORS
330
2A
102
}
330
2A
100
AcDbVisualStyle
  2
Thicken
 70
    13
177
     3
291
     1
 70
    58
 90
        2
176
     1
 90
        2
176
     1
 90
        0
176
     1
 90
        0
176
     1
 40
0.6
176
     1
 40
30.0
176
     1
 62
     7
420
 16777215
176
     1
 90
        1
176
     1
 90
        4
176
     1
 62
     7
176
     1
 62
   257
176
     1
 90
        1
176
     1
 90
        1
176
     1
 40
1.0
176
     1
 90
       12
176
     1
 62
     7
176
     1
 40
1.0
176
     1
 90
        1
176
     1
 90
        6
176
     1
 90
        2
176
     1
 62
     7
176
     1
 90
        5
176
     1
 90
        0
176
     1
 90
        0
176
     1
290
     0
176
     1
 90
        1
176
     1
 40
0.0
176
     1
 90
        0
176
     1
290
     0
176
     1
290
     1
176
     1
290
     1
176
     1
290
     0
176
     1
290
     0
176
     1
290
     0
176
     1
290
     0
176
     1
290
     0
176
     1
290
     0
176
     1
 90
       50
176
     1
 40
0.0
176
     1
 40
1.0
176
     1
 90
        0
176
     1
 62
    18
420
        0
176
     1
 90
       50
176
     1
 90
        3
176
     1
 62
     5
420
      255
176
     1
290
     0
176
     1
 90
       50
176
     1
 90
       50
176
     1
 90
       50
176
     1
290
     0
176
     1
 90
       50
176
     1
 62
   256
176
     0
 40
1.0
176
     0
 90
        2
176
     1
  1
strokes_ogs.tif
176
     1
290
     0
176
     1
 40
1.0
176
     1
 40
1.0
176
     1
  0
VISUALSTYLE
  5
30
102
{ACAD_REACTORS
330
2A
102
}
330
2A
100
AcDbVisualStyle
  2
Wireframe
 70
     5
177
     3
291
     0
 70
    58
 90
        0
176
     1
 90
        2
176
     1
 90
        0
176
     1
 90
        0
176
     1
 40
0.6
176
     1
 40
30.0
176
     1
 62
     7
420
 16777215
176
     1
 90
        1
176
     1
 90
        4
176
     1
 62
     7
176
     1
 62
   257
176
     1
 90
        1
176
     1
 90
        1
176
     1
 40
1.0
176
     1
 90
        0
176
     1
 62
   257
176
     1
 40
1.0
176
     1
 90
        1
176
     1
 90
        6
176
     1
 90
        2
176
     1
 62
     7
176
     1
 90
        3
176
     1
 90
        0
176
     1
 90
        0
176
     1
290
     0
176
     1
 90
        1
176
     1
 40
0.0
176
     1
 90
        0
176
     1
290
     0
176
     1
290
     1
176
     1
290
     1
176
     1
290
     0
176
     1
290
     0
176
     1
290
     0
176
     1
290
     0
176
     1
290
     0
176
     1
290
     0
176
     1
 90
       50
176
     1
 40
0.0
176
     1
 40
1.0
176
     1
 90
        0
176
     1
 62
    18
420
        0
176
     1
 90
       50
176
     1
 90
        3
176
     1
 62
     5
420
      255
176
     1
290
     0
176
     1
 90
       50
176
     1
 90
       50
176
     1
 90
       50
176
     1
290
     0
176
     1
 90
       50
176
     1
 62
   256
176
     0
 40
1.0
176
     0
 90
        2
176
     1
  1
strokes_ogs.tif
176
     1
290
     0
176
     1
 40
1.0
176
     1
 40
1.0
176
     1
  0
VISUALSTYLE
  5
40
102
{ACAD_REACTORS
330
2A
102
}
330
2A
100
AcDbVisualStyle
  2
X-Ray
 70
    25
177
     3
291
     0
 70
    58
 90
        2
176
     1
 90
        2
176
     1
 90
        1
176
     1
 90
        1
176
     1
 40
0.5
176
     1
 40
30.0
176
     1
 62
     7
420
 16777215
176
     1
 90
        1
176
     1
 90
        0
176
     1
 62
     7
176
     1
 62
   257
176
     1
 90
        1
176
     1
 90
        1
176
     1
 40
1.0
176
     1
 90
        8
176
     1
 62
     7
176
     1
 40
1.0
176
     1
 90
        1
176
     1
 90
        6
176
     1
 90
        2
176
     1
 62
     7
176
     1
 90
        3
176
     1
 90
        0
176
     1
 90
        0
176
     1
290
     0
176
     1
 90
       13
176
     1
 40
0.0
176
     1
 90
        0
176
     1
290
     0
176
     1
290
     1
176
     1
290
     1
176
     1
290
     0
176
     1
290
     0
176
     1
290
     0
176
     1
290
     0
176
     1
290
     0
176
     1
290
     0
176
     1
 90
       50
176
     1
 40
0.0
176
     1
 40
1.0
176
     1
 90
        0
176
     1
 62
    18
420
        0
176
     1
 90
       50
176
     1
 90
        3
176
     1
 62
     5
420
      255
176
     1
290
     0
176
     1
 90
       50
176
     1
 90
       50
176
     1
 90
       50
176
     1
290
     0
176
     1
 90
       50
176
     1
 62
   256
176
     0
 40
1.0
176
     0
 90
        2
176
     1
  1
strokes_ogs.tif
176
     1
290
     0
176
     1
 40
1.0
176
     1
 40
1.0
176
     1
  0
DICTIONARYVAR
  5
95
102
{ACAD_REACTORS
330
94
102
}
330
94
100
DictionaryVariables
280
     0
  1
1:1
  0
DICTIONARYVAR
  5
9A
102
{ACAD_REACTORS
330
94
102
}
330
94
100
DictionaryVariables
280
     0
  1
Standard
  0
DICTIONARYVAR
  5
99
102
{ACAD_REACTORS
330
94
102
}
330
94
100
DictionaryVariables
280
     0
  1
Standard
  0
DICTIONARY
  5
96
330
5A
100
AcDbDictionary
280
     1
281
     1
  3
ACAD_ROUNDTRIP_2008_TABLESTYLE_CELLSTYLEMAP
360
97
  0
CELLSTYLEMAP
  5
97
102
{ACAD_REACTORS
330
96
102
}
330
96
100
AcDbCellStyleMap
 90
        3
300
CELLSTYLE
  1
TABLEFORMAT_BEGIN
 90
        5
170
     1
 91
        0
 92
    32768
 62
   257
 93
        1
300
CONTENTFORMAT
  1
CONTENTFORMAT_BEGIN
 90
        0
 91
        0
 92
        4
 93
        0
300

 40
0.0
140
1.0
 94
        5
 62
     0
340
11
144
0.25
309
CONTENTFORMAT_END
171
     1
301
MARGIN
  1
CELLMARGIN_BEGIN
 40
0.06
 40
0.06
 40
0.06
 40
0.06
 40
0.06
 40
0.06
309
CELLMARGIN_END
 94
        6
 95
        1
302
GRIDFORMAT
  1
GRIDFORMAT_BEGIN
 90
        0
 91
        1
 62
     0
 92
       -2
340
14
 93
        0
 40
0.045
309
GRIDFORMAT_END
 95
        2
302
GRIDFORMAT
  1
GRIDFORMAT_BEGIN
 90
        0
 91
        1
 62
     0
 92
       -2
340
14
 93
        0
 40
0.045
309
GRIDFORMAT_END
 95
        4
302
GRIDFORMAT
  1
GRIDFORMAT_BEGIN
 90
        0
 91
        1
 62
     0
 92
       -2
340
14
 93
        0
 40
0.045
309
GRIDFORMAT_END
 95
        8
302
GRIDFORMAT
  1
GRIDFORMAT_BEGIN
 90
        0
 91
        1
 62
     0
 92
       -2
340
14
 93
        0
 40
0.045
309
GRIDFORMAT_END
 95
       16
302
GRIDFORMAT
  1
GRIDFORMAT_BEGIN
 90
        0
 91
        1
 62
     0
 92
       -2
340
14
 93
        0
 40
0.045
309
GRIDFORMAT_END
 95
       32
302
GRIDFORMAT
  1
GRIDFORMAT_BEGIN
 90
        0
 91
        1
 62
     0
 92
       -2
340
14
 93
        0
 40
0.045
309
GRIDFORMAT_END
309
TABLEFORMAT_END
  1
CELLSTYLE_BEGIN
 90
        1
 91
        1
300
_TITLE
309
CELLSTYLE_END
300
CELLSTYLE
  1
TABLEFORMAT_BEGIN
 90
        5
170
     1
 91
        0
 92
        0
 62
   257
 93
        1
300
CONTENTFORMAT
  1
CONTENTFORMAT_BEGIN
 90
        0
 91
        0
 92
        4
 93
        0
300

 40
0.0
140
1.0
 94
        5
 62
     0
340
11
144
0.18
309
CONTENTFORMAT_END
171
     1
301
MARGIN
  1
CELLMARGIN_BEGIN
 40
0.06
 40
0.06
 40
0.06
 40
0.06
 40
0.06
 40
0.06
309
CELLMARGIN_END
 94
        6
 95
        1
302
GRIDFORMAT
  1
GRIDFORMAT_BEGIN
 90
        0
 91
        1
 62
     0
 92
       -2
340
14
 93
        0
 40
0.045
309
GRIDFORMAT_END
 95
        2
302
GRIDFORMAT
  1
GRIDFORMAT_BEGIN
 90
        0
 91
        1
 62
     0
 92
       -2
340
14
 93
        0
 40
0.045
309
GRIDFORMAT_END
 95
        4
302
GRIDFORMAT
  1
GRIDFORMAT_BEGIN
 90
        0
 91
        1
 62
     0
 92
       -2
340
14
 93
        0
 40
0.045
309
GRIDFORMAT_END
 95
        8
302
GRIDFORMAT
  1
GRIDFORMAT_BEGIN
 90
        0
 91
        1
 62
     0
 92
       -2
340
14
 93
        0
 40
0.045
309
GRIDFORMAT_END
 95
       16
302
GRIDFORMAT
  1
GRIDFORMAT_BEGIN
 90
        0
 91
        1
 62
     0
 92
       -2
340
14
 93
        0
 40
0.045
309
GRIDFORMAT_END
 95
       32
302
GRIDFORMAT
  1
GRIDFORMAT_BEGIN
 90
        0
 91
        1
 62
     0
 92
       -2
340
14
 93
        0
 40
0.045
309
GRIDFORMAT_END
309
TABLEFORMAT_END
  1
CELLSTYLE_BEGIN
 90
        2
 91
        1
300
_HEADER
309
CELLSTYLE_END
300
CELLSTYLE
  1
TABLEFORMAT_BEGIN
 90
        5
170
     1
 91
        0
 92
        0
 62
   257
 93
        1
300
CONTENTFORMAT
  1
CONTENTFORMAT_BEGIN
 90
        0
 91
        0
 92
        4
 93
        0
300

 40
0.0
140
1.0
 94
        2
 62
     0
340
11
144
0.18
309
CONTENTFORMAT_END
171
     1
301
MARGIN
  1
CELLMARGIN_BEGIN
 40
0.06
 40
0.06
 40
0.06
 40
0.06
 40
0.06
 40
0.06
309
CELLMARGIN_END
 94
        6
 95
        1
302
GRIDFORMAT
  1
GRIDFORMAT_BEGIN
 90
        0
 91
        1
 62
     0
 92
       -2
340
14
 93
        0
 40
0.045
309
GRIDFORMAT_END
 95
        2
302
GRIDFORMAT
  1
GRIDFORMAT_BEGIN
 90
        0
 91
        1
 62
     0
 92
       -2
340
14
 93
        0
 40
0.045
309
GRIDFORMAT_END
 95
        4
302
GRIDFORMAT
  1
GRIDFORMAT_BEGIN
 90
        0
 91
        1
 62
     0
 92
       -2
340
14
 93
        0
 40
0.045
309
GRIDFORMAT_END
 95
        8
302
GRIDFORMAT
  1
GRIDFORMAT_BEGIN
 90
        0
 91
        1
 62
     0
 92
       -2
340
14
 93
        0
 40
0.045
309
GRIDFORMAT_END
 95
       16
302
GRIDFORMAT
  1
GRIDFORMAT_BEGIN
 90
        0
 91
        1
 62
     0
 92
       -2
340
14
 93
        0
 40
0.045
309
GRIDFORMAT_END
 95
       32
302
GRIDFORMAT
  1
GRIDFORMAT_BEGIN
 90
        0
 91
        1
 62
     0
 92
       -2
340
14
 93
        0
 40
0.045
309
GRIDFORMAT_END
309
TABLEFORMAT_END
  1
CELLSTYLE_BEGIN
 90
        3
 91
        2
300
_DATA
309
CELLSTYLE_END
  0
ENDSEC
  0
EOF
