  0
SECTION
  2
HEADER
  9
$ACADVER
  1
AC1027
  9
$ACADMAINTVER
 70
   105
  9
$DWGCODEPAGE
  3
ANSI_1252
  9
$LASTSAVEDBY
  1
Office Desk
  9
$REQUIREDVERSIONS
160
                 0
  9
$INSBASE
 10
0.0
 20
0.0
 30
0.0
  9
$EXTMIN
 10
-788.558
 20
-172.2074
 30
0.0
  9
$EXTMAX
 10
-486.4871
 20
322.3249
 30
0.0
  9
$LIMMIN
 10
0.0
 20
0.0
  9
$LIMMAX
 10
12.0
 20
9.0
  9
$ORTHOMODE
 70
     0
  9
$REGENMODE
 70
     1
  9
$FILLMODE
 70
     1
  9
$QTEXTMODE
 70
     0
  9
$MIRRTEXT
 70
     1
  9
$LTSCALE
 40
1.0
  9
$ATTMODE
 70
     1
  9
$TEXTSIZE
 40
0.2
  9
$TRACEWID
 40
0.05
  9
$TEXTSTYLE
  7
Standard
  9
$CLAYER
  8
0
  9
$CELTYPE
  6
ByLayer
  9
$CECOLOR
 62
   256
  9
$CELTSCALE
 40
1.0
  9
$DISPSILH
 70
     0
  9
$DIMSCALE
 40
1.0
  9
$DIMASZ
 40
0.18
  9
$DIMEXO
 40
0.0625
  9
$DIMDLI
 40
0.38
  9
$DIMRND
 40
0.0
  9
$DIMDLE
 40
0.0
  9
$DIMEXE
 40
0.18
  9
$DIMTP
 40
0.0
  9
$DIMTM
 40
0.0
  9
$DIMTXT
 40
0.18
  9
$DIMCEN
 40
0.09
  9
$DIMTSZ
 40
0.0
  9
$DIMTOL
 70
     0
  9
$DIMLIM
 70
     0
  9
$DIMTIH
 70
     1
  9
$DIMTOH
 70
     1
  9
$DIMSE1
 70
     0
  9
$DIMSE2
 70
     0
  9
$DIMTAD
 70
     0
  9
$DIMZIN
 70
     0
  9
$DIMBLK
  1

  9
$DIMASO
 70
     1
  9
$DIMSHO
 70
     1
  9
$DIMPOST
  1

  9
$DIMAPOST
  1

  9
$DIMALT
 70
     0
  9
$DIMALTD
 70
     2
  9
$DIMALTF
 40
25.4
  9
$DIMLFAC
 40
1.0
  9
$DIMTOFL
 70
     0
  9
$DIMTVP
 40
0.0
  9
$DIMTIX
 70
     0
  9
$DIMSOXD
 70
     0
  9
$DIMSAH
 70
     0
  9
$DIMBLK1
  1

  9
$DIMBLK2
  1

  9
$DIMSTYLE
  2
Standard
  9
$DIMCLRD
 70
     0
  9
$DIMCLRE
 70
     0
  9
$DIMCLRT
 70
     0
  9
$DIMTFAC
 40
1.0
  9
$DIMGAP
 40
0.09
  9
$DIMJUST
 70
     0
  9
$DIMSD1
 70
     0
  9
$DIMSD2
 70
     0
  9
$DIMTOLJ
 70
     1
  9
$DIMTZIN
 70
     0
  9
$DIMALTZ
 70
     0
  9
$DIMALTTZ
 70
     0
  9
$DIMUPT
 70
     0
  9
$DIMDEC
 70
     4
  9
$DIMTDEC
 70
     4
  9
$DIMALTU
 70
     2
  9
$DIMALTTD
 70
     2
  9
$DIMTXSTY
  7
Standard
  9
$DIMAUNIT
 70
     0
  9
$DIMADEC
 70
     0
  9
$DIMALTRND
 40
0.0
  9
$DIMAZIN
 70
     0
  9
$DIMDSEP
 70
    46
  9
$DIMATFIT
 70
     3
  9
$DIMFRAC
 70
     0
  9
$DIMLDRBLK
  1

  9
$DIMLUNIT
 70
     2
  9
$DIMLWD
 70
    -2
  9
$DIMLWE
 70
    -2
  9
$DIMTMOVE
 70
     0
  9
$DIMFXL
 40
1.0
  9
$DIMFXLON
 70
     0
  9
$DIMJOGANG
 40
0.7853981633974483
  9
$DIMTFILL
 70
     0
  9
$DIMTFILLCLR
 70
     0
  9
$DIMARCSYM
 70
     0
  9
$DIMLTYPE
  6

  9
$DIMLTEX1
  6

  9
$DIMLTEX2
  6

  9
$DIMTXTDIRECTION
 70
     0
  9
$LUNITS
 70
     2
  9
$LUPREC
 70
     4
  9
$SKETCHINC
 40
0.1
  9
$FILLETRAD
 40
0.0
  9
$AUNITS
 70
     0
  9
$AUPREC
 70
     0
  9
$MENU
  1
.
  9
$ELEVATION
 40
0.0
  9
$PELEVATION
 40
0.0
  9
$THICKNESS
 40
0.0
  9
$LIMCHECK
 70
     0
  9
$CHAMFERA
 40
0.0
  9
$CHAMFERB
 40
0.0
  9
$CHAMFERC
 40
0.0
  9
$CHAMFERD
 40
0.0
  9
$SKPOLY
 70
     0
  9
$TDCREATE
 40
2461016.759410613
  9
$TDUCREATE
 40
2461016.530243947
  9
$TDUPDATE
 40
2461016.759410706
  9
$TDUUPDATE
 40
2461016.53024404
  9
$TDINDWG
 40
0.0000000116
  9
$TDUSRTIMER
 40
0.0000000116
  9
$USRTIMER
 70
     1
  9
$ANGBASE
 50
0.0
  9
$ANGDIR
 70
     0
  9
$PDMODE
 70
     0
  9
$PDSIZE
 40
0.0
  9
$PLINEWID
 40
0.0
  9
$SPLFRAME
 70
     0
  9
$SPLINETYPE
 70
     6
  9
$SPLINESEGS
 70
     8
  9
$HANDSEED
  5
101
  9
$SURFTAB1
 70
     6
  9
$SURFTAB2
 70
     6
  9
$SURFTYPE
 70
     6
  9
$SURFU
 70
     6
  9
$SURFV
 70
     6
  9
$UCSBASE
  2

  9
$UCSNAME
  2

  9
$UCSORG
 10
0.0
 20
0.0
 30
0.0
  9
$UCSXDIR
 10
1.0
 20
0.0
 30
0.0
  9
$UCSYDIR
 10
0.0
 20
1.0
 30
0.0
  9
$UCSORTHOREF
  2

  9
$UCSORTHOVIEW
 70
     0
  9
$UCSORGTOP
 10
0.0
 20
0.0
 30
0.0
  9
$UCSORGBOTTOM
 10
0.0
 20
0.0
 30
0.0
  9
$UCSORGLEFT
 10
0.0
 20
0.0
 30
0.0
  9
$UCSORGRIGHT
 10
0.0
 20
0.0
 30
0.0
  9
$UCSORGFRONT
 10
0.0
 20
0.0
 30
0.0
  9
$UCSORGBACK
 10
0.0
 20
0.0
 30
0.0
  9
$PUCSBASE
  2

  9
$PUCSNAME
  2

  9
$PUCSORG
 10
0.0
 20
0.0
 30
0.0
  9
$PUCSXDIR
 10
1.0
 20
0.0
 30
0.0
  9
$PUCSYDIR
 10
0.0
 20
1.0
 30
0.0
  9
$PUCSORTHOREF
  2

  9
$PUCSORTHOVIEW
 70
     0
  9
$PUCSORGTOP
 10
0.0
 20
0.0
 30
0.0
  9
$PUCSORGBOTTOM
 10
0.0
 20
0.0
 30
0.0
  9
$PUCSORGLEFT
 10
0.0
 20
0.0
 30
0.0
  9
$PUCSORGRIGHT
 10
0.0
 20
0.0
 30
0.0
  9
$PUCSORGFRONT
 10
0.0
 20
0.0
 30
0.0
  9
$PUCSORGBACK
 10
0.0
 20
0.0
 30
0.0
  9
$USERI1
 70
     0
  9
$USERI2
 70
     0
  9
$USERI3
 70
     0
  9
$USERI4
 70
     0
  9
$USERI5
 70
     0
  9
$USERR1
 40
0.0
  9
$USERR2
 40
0.0
  9
$USERR3
 40
0.0
  9
$USERR4
 40
0.0
  9
$USERR5
 40
0.0
  9
$WORLDVIEW
 70
     1
  9
$SHADEDGE
 70
     3
  9
$SHADEDIF
 70
    70
  9
$TILEMODE
 70
     1
  9
$MAXACTVP
 70
    64
  9
$PINSBASE
 10
0.0
 20
0.0
 30
0.0
  9
$PLIMCHECK
 70
     0
  9
$PEXTMIN
 10
1.000000000000000E+20
 20
1.000000000000000E+20
 30
1.000000000000000E+20
  9
$PEXTMAX
 10
-1.000000000000000E+20
 20
-1.000000000000000E+20
 30
-1.000000000000000E+20
  9
$PLIMMIN
 10
0.0
 20
0.0
  9
$PLIMMAX
 10
12.0
 20
9.0
  9
$UNITMODE
 70
     0
  9
$VISRETAIN
 70
     1
  9
$PLINEGEN
 70
     0
  9
$PSLTSCALE
 70
     1
  9
$TREEDEPTH
 70
  3020
  9
$CMLSTYLE
  2
Standard
  9
$CMLJUST
 70
     0
  9
$CMLSCALE
 40
1.0
  9
$PROXYGRAPHICS
 70
     1
  9
$MEASUREMENT
 70
     0
  9
$CELWEIGHT
370
    -1
  9
$ENDCAPS
280
     0
  9
$JOINSTYLE
280
     0
  9
$LWDISPLAY
290
     0
  9
$INSUNITS
 70
     4
  9
$HYPERLINKBASE
  1

  9
$STYLESHEET
  1

  9
$XEDIT
290
     1
  9
$CEPSNTYPE
380
     0
  9
$PSTYLEMODE
290
     1
  9
$FINGERPRINTGUID
  2
{76583645-b972-4666-862e-947c8f6af5ca}
  9
$VERSIONGUID
  2
{FAEB1C32-E019-11D5-929B-00C0DF256EC4}
  9
$EXTNAMES
290
     1
  9
$PSVPSCALE
 40
0.0
  9
$OLESTARTUP
290
     0
  9
$SORTENTS
280
   127
  9
$INDEXCTL
280
     0
  9
$HIDETEXT
280
     1
  9
$XCLIPFRAME
280
     2
  9
$HALOGAP
280
     0
  9
$OBSCOLOR
 70
   257
  9
$OBSLTYPE
280
     0
  9
$INTERSECTIONDISPLAY
280
     0
  9
$INTERSECTIONCOLOR
 70
   257
  9
$DIMASSOC
280
     2
  9
$PROJECTNAME
  1

  9
$CAMERADISPLAY
290
     0
  9
$LENSLENGTH
 40
50.0
  9
$CAMERAHEIGHT
 40
0.0
  9
$STEPSPERSEC
 40
2.0
  9
$STEPSIZE
 40
6.0
  9
$3DDWFPREC
 40
2.0
  9
$PSOLWIDTH
 40
0.25
  9
$PSOLHEIGHT
 40
4.0
  9
$LOFTANG1
 40
1.570796326794897
  9
$LOFTANG2
 40
1.570796326794897
  9
$LOFTMAG1
 40
0.0
  9
$LOFTMAG2
 40
0.0
  9
$LOFTPARAM
 70
     7
  9
$LOFTNORMALS
280
     1
  9
$LATITUDE
 40
37.795
  9
$LONGITUDE
 40
-122.394
  9
$NORTHDIRECTION
 40
0.0
  9
$TIMEZONE
 70
 -8000
  9
$LIGHTGLYPHDISPLAY
280
     1
  9
$TILEMODELIGHTSYNCH
280
     1
  9
$CMATERIAL
347
44
  9
$SOLIDHIST
280
     0
  9
$SHOWHIST
280
     1
  9
$DWFFRAME
280
     2
  9
$DGNFRAME
280
     2
  9
$REALWORLDSCALE
290
     1
  9
$INTERFERECOLOR
 62
   256
  9
$CSHADOW
280
     0
  9
$SHADOWPLANELOCATION
 40
0.0
  0
ENDSEC
  0
SECTION
  2
CLASSES
  0
CLASS
  1
ACDBDICTIONARYWDFLT
  2
AcDbDictionaryWithDefault
  3
ObjectDBX Classes
 90
        0
 91
        3
280
     0
281
     0
  0
CLASS
  1
VISUALSTYLE
  2
AcDbVisualStyle
  3
ObjectDBX Classes
 90
     4095
 91
        3
280
     0
281
     0
  0
CLASS
  1
MATERIAL
  2
AcDbMaterial
  3
ObjectDBX Classes
 90
     1153
 91
        3
280
     0
281
     0
  0
CLASS
  1
SCALE
  2
AcDbScale
  3
ObjectDBX Classes
 90
     1153
 91
        3
280
     0
281
     0
  0
CLASS
  1
TABLESTYLE
  2
AcDbTableStyle
  3
ObjectDBX Classes
 90
     4095
 91
        3
280
     0
281
     0
  0
CLASS
  1
MLEADERSTYLE
  2
AcDbMLeaderStyle
  3
ACDB_MLEADERSTYLE_CLASS
 90
     4095
 91
        3
280
     0
281
     0
  0
CLASS
  1
SUN
  2
AcDbSun
  3
SCENEOE
 90
     1153
 91
        3
280
     0
281
     0
  0
CLASS
  1
DICTIONARYVAR
  2
AcDbDictionaryVar
  3
ObjectDBX Classes
 90
        0
 91
        3
280
     0
281
     0
  0
CLASS
  1
CELLSTYLEMAP
  2
AcDbCellStyleMap
  3
ObjectDBX Classes
 90
     1152
 91
        3
280
     0
281
     0
  0
ENDSEC
  0
SECTION
  2
TABLES
  0
TABLE
  2
VPORT
  5
8
330
0
100
AcDbSymbolTable
 70
     1
  0
VPORT
  5
29
330
8
100
AcDbSymbolTableRecord
100
AcDbViewportTableRecord
  2
*Active
 70
     0
 10
0.0
 20
0.0
 11
1.0
 21
1.0
 12
10.42990654205607
 22
4.5
 13
0.0
 23
0.0
 14
0.5
 24
0.5
 15
0.5
 25
0.5
 16
0.0
 26
0.0
 36
1.0
 17
0.0
 27
0.0
 37
0.0
 40
9.0
 41
1.972972972850329
 42
50.0
 43
0.0
 44
0.0
 50
0.0
 51
0.0
 71
     0
 72
   100
 73
     1
 74
     3
 75
     0
 76
     0
 77
     0
 78
     0
281
     0
 65
     1
110
0.0
120
0.0
130
0.0
111
1.0
121
0.0
131
0.0
112
0.0
122
1.0
132
0.0
 79
     0
146
0.0
348
2F
 60
     3
 61
     5
292
     1
282
     1
141
0.0
142
0.0
 63
   250
361
5D
  0
ENDTAB
  0
TABLE
  2
LTYPE
  5
5
330
0
100
AcDbSymbolTable
 70
     1
  0
LTYPE
  5
14
330
5
100
AcDbSymbolTableRecord
100
AcDbLinetypeTableRecord
  2
ByBlock
 70
     0
  3

 72
    65
 73
     0
 40
0.0
  0
LTYPE
  5
15
330
5
100
AcDbSymbolTableRecord
100
AcDbLinetypeTableRecord
  2
ByLayer
 70
     0
  3

 72
    65
 73
     0
 40
0.0
  0
LTYPE
  5
16
330
5
100
AcDbSymbolTableRecord
100
AcDbLinetypeTableRecord
  2
Continuous
 70
     0
  3
Solid line
 72
    65
 73
     0
 40
0.0
  0
ENDTAB
  0
TABLE
  2
LAYER
  5
2
330
0
100
AcDbSymbolTable
 70
     2
  0
LAYER
  5
10
330
2
100
AcDbSymbolTableRecord
100
AcDbLayerTableRecord
  2
0
 70
     0
 62
     7
  6
Continuous
370
    -3
390
F
347
46
348
0
  0
LAYER
  5
5F
330
2
100
AcDbSymbolTableRecord
100
AcDbLayerTableRecord
  2
Layer 1
 70
     0
 62
     7
  6
Continuous
370
    -3
390
F
347
46
348
0
  0
ENDTAB
  0
TABLE
  2
STYLE
  5
3
330
0
100
AcDbSymbolTable
 70
     1
  0
STYLE
  5
11
330
3
100
AcDbSymbolTableRecord
100
AcDbTextStyleTableRecord
  2
Standard
 70
     0
 40
0.0
 41
1.0
 50
0.0
 71
     0
 42
0.2
  3
txt
  4

  0
ENDTAB
  0
TABLE
  2
VIEW
  5
6
330
0
100
AcDbSymbolTable
 70
     0
  0
ENDTAB
  0
TABLE
  2
UCS
  5
7
330
0
100
AcDbSymbolTable
 70
     0
  0
ENDTAB
  0
TABLE
  2
APPID
  5
9
330
0
100
AcDbSymbolTable
 70
     2
  0
APPID
  5
12
330
9
100
AcDbSymbolTableRecord
100
AcDbRegAppTableRecord
  2
ACAD
 70
     0
  0
APPID
  5
5E
330
9
100
AcDbSymbolTableRecord
100
AcDbRegAppTableRecord
  2
ODA
 70
     0
  0
ENDTAB
  0
TABLE
  2
DIMSTYLE
  5
A
330
0
100
AcDbSymbolTable
 70
     1
100
AcDbDimStyleTable
  0
DIMSTYLE
105
27
330
A
100
AcDbSymbolTableRecord
100
AcDbDimStyleTableRecord
  2
Standard
 70
     0
178
     0
340
11
  0
ENDTAB
  0
TABLE
  2
BLOCK_RECORD
  5
1
330
0
100
AcDbSymbolTable
 70
     1
  0
BLOCK_RECORD
  5
1F
330
1
100
AcDbSymbolTableRecord
100
AcDbBlockTableRecord
  2
*Model_Space
340
22
 70
     0
280
     1
281
     0
  0
BLOCK_RECORD
  5
1B
330
1
100
AcDbSymbolTableRecord
100
AcDbBlockTableRecord
  2
*Paper_Space
340
1E
 70
     0
280
     1
281
     0
  0
BLOCK_RECORD
  5
23
330
1
100
AcDbSymbolTableRecord
100
AcDbBlockTableRecord
  2
*Paper_Space0
340
26
 70
     0
280
     1
281
     0
  0
ENDTAB
  0
ENDSEC
  0
SECTION
  2
BLOCKS
  0
BLOCK
  5
20
330
1F
100
AcDbEntity
  8
0
100
AcDbBlockBegin
  2
*Model_Space
 70
     0
 10
0.0
 20
0.0
 30
0.0
  3
*Model_Space
  1

  0
ENDBLK
  5
21
330
1F
100
AcDbEntity
  8
0
100
AcDbBlockEnd
  0
BLOCK
  5
1C
330
1B
100
AcDbEntity
 67
     1
  8
0
100
AcDbBlockBegin
  2
*Paper_Space
 70
     0
 10
0.0
 20
0.0
 30
0.0
  3
*Paper_Space
  1

  0
ENDBLK
  5
1D
330
1B
100
AcDbEntity
 67
     1
  8
0
100
AcDbBlockEnd
  0
BLOCK
  5
24
330
23
100
AcDbEntity
  8
0
100
AcDbBlockBegin
  2
*Paper_Space0
 70
     0
 10
0.0
 20
0.0
 30
0.0
  3
*Paper_Space0
  1

  0
ENDBLK
  5
25
330
23
100
AcDbEntity
  8
0
100
AcDbBlockEnd
  0
ENDSEC
  0
SECTION
  2
ENTITIES
  0
LWPOLYLINE
  5
60
330
1F
100
AcDbEntity
  8
Layer 1
 62
   250
370
     9
100
AcDbPolyline
 90
        5
 70
     1
 43
0.0
 10
-788.5199
 20
-172.1692
 10
-486.5253
 20
-172.1692
 10
-486.5253
 20
322.2868
 10
-788.5199
 20
322.2868
 10
-788.5199
 20
-172.1692
  0
LWPOLYLINE
  5
61
330
1F
100
AcDbEntity
  8
Layer 1
 62
     7
370
    18
100
AcDbPolyline
 90
      192
 70
     1
 43
0.0
 10
-679.5788
 20
267.7401
 10
-678.5284
 20
268.164
 10
-675.4755
 20
269.1033
 10
-670.568
 20
270.0588
 10
-663.9534
 20
270.5319
 10
-655.7797
 20
270.0234
 10
-646.1944
 20
268.0345
 10
-635.3452
 20
264.0663
 10
-623.38
 20
257.6199
 10
-611.8268
 20
248.9352
 10
-602.0564
 20
238.95
 10
-593.9807
 20
228.2124
 10
-587.5114
 20
217.2703
 10
-582.5603
 20
206.6717
 10
-579.0393
 20
196.9647
 10
-576.8601
 20
188.6971
 10
-575.9344
 20
182.417
 10
-575.5606
 20
176.7748
 10
-575.275
 20
170.1594
 10
-575.3463
 20
162.7261
 10
-576.0434
 20
154.6303
 10
-577.635
 20
146.0274
 10
-580.3899
 20
137.0728
 10
-584.5769
 20
127.9219
 10
-590.4648
 20
118.7301
 10
-590.8144
 20
118.3104
 10
-591.801
 20
117.172
 10
-593.3313
 20
115.4959
 10
-595.3119
 20
113.4629
 10
-597.6495
 20
111.2541
 10
-600.2508
 20
109.0504
 10
-603.0224
 20
107.0328
 10
-605.8709
 20
105.3822
 10
-626.3546
 20
93.0811
 10
-626.7036
 20
61.3251
 10
-626.5272
 20
61.3121
 10
-626.0559
 20
61.2378
 10
-625.3762
 20
61.0489
 10
-624.575
 20
60.6923
 10
-623.7389
 20
60.1149
 10
-622.9547
 20
59.2636
 10
-622.3089
 20
58.0851
 10
-621.8884
 20
56.5263
 10
-621.6804
 20
52.8383
 10
-621.5949
 20
46.0465
 10
-621.6028
 20
37.2589
 10
-621.6747
 20
27.584
 10
-621.7815
 20
18.1299
 10
-621.894
 20
10.0049
 10
-621.9829
 20
4.3172
 10
-622.019
 20
2.175
 10
-621.7562
 20
-116.9107
 10
-621.7641
 20
-116.9911
 10
-621.8355
 20
-117.2269
 10
-622.0424
 20
-117.61
 10
-622.4565
 20
-118.1321
 10
-623.1496
 20
-118.785
 10
-624.1935
 20
-119.5606
 10
-625.6601
 20
-120.4507
 10
-627.6211
 20
-121.4472
 10
-627.9707
 20
-131.8287
 10
-628.1341
 20
-132.0151
 10
-628.7038
 20
-132.5021
 10
-629.7987
 20
-133.1813
 10
-631.5378
 20
-133.9444
 10
-634.0401
 20
-134.6829
 10
-637.4246
 20
-135.2885
 10
-641.8104
 20
-135.6528
 10
-647.3164
 20
-135.6674
 10
-647.9198
 20
-135.6105
 10
-649.5171
 20
-135.4248
 10
-651.7895
 20
-135.0878
 10
-654.4179
 20
-134.5769
 10
-657.0831
 20
-133.8698
 10
-659.4663
 20
-132.9439
 10
-661.2483
 20
-131.7767
 10
-662.1102
 20
-130.3457
 10
-662.0227
 20
-121.7088
 10
-662.2058
 20
-121.658
 10
-662.6998
 20
-121.507
 10
-663.4215
 20
-121.2578
 10
-664.2878
 20
-120.9125
 10
-665.2157
 20
-120.4732
 10
-666.1221
 20
-119.9419
 10
-666.9238
 20
-119.3206
 10
-667.5377
 20
-118.6114
 10
-667.5859
 20
-118.5829
 10
-667.71
 20
-118.4485
 10
-667.8792
 20
-118.1353
 10
-668.0628
 20
-117.57
 10
-668.2299
 20
-116.6796
 10
-668.3499
 20
-115.391
 10
-668.392
 20
-113.6311
 10
-668.3254
 20
-111.3267
 10
-668.2268
 20
-102.5108
 10
-668.1845
 20
-83.5842
 10
-668.1853
 20
-58.0255
 10
-668.2159
 20
-29.3133
 10
-668.2628
 20
-0.9263
 10
-668.3128
 20
23.6571
 10
-668.3526
 20
40.9581
 10
-668.3688
 20
47.4981
 10
-668.3584
 20
47.7041
 10
-668.31
 20
48.2629
 10
-668.198
 20
49.0854
 10
-667.9967
 20
50.0828
 10
-667.6806
 20
51.166
 10
-667.2239
 20
52.2461
 10
-666.6011
 20
53.2343
 10
-665.7864
 20
54.0414
 10
-664.9099
 20
54.7435
 10
-664.1082
 20
55.4543
 10
-663.366
 20
56.1416
 10
-662.668
 20
56.7732
 10
-661.9986
 20
57.3168
 10
-661.3426
 20
57.7403
 10
-660.6845
 20
58.0115
 10
-660.009
 20
58.0982
 10
-660.1831
 20
70.0507
 10
-664.034
 20
70.2691
 10
-664.116
 20
70.3297
 10
-664.3371
 20
70.5084
 10
-664.6603
 20
70.8006
 10
-665.0483
 20
71.2016
 10
-665.464
 20
71.707
 10
-665.8702
 20
72.312
 10
-666.2298
 20
73.0121
 10
-666.5056
 20
73.8027
 10
-666.7405
 20
74.9355
 10
-666.9905
 20
76.555
 10
-667.2378
 20
78.4955
 10
-667.4648
 20
80.5914
 10
-667.6539
 20
82.6771
 10
-667.7874
 20
84.5869
 10
-667.8475
 20
86.1552
 10
-667.8168
 20
87.2165
 10
-668.4722
 20
87.3871
 10
-670.2785
 20
87.8858
 10
-672.9957
 20
88.6933
 10
-676.3837
 20
89.7902
 10
-680.2025
 20
91.1569
 10
-684.2122
 20
92.7742
 10
-688.1727
 20
94.6225
 10
-691.8441
 20
96.6824
 10
-692.5314
 20
97.1319
 10
-694.4044
 20
98.3972
 10
-697.1802
 20
100.3537
 10
-700.5755
 20
102.8766
 10
-704.3073
 20
105.8411
 10
-708.0925
 20
109.1226
 10
-711.6479
 20
112.5963
 10
-714.6905
 20
116.1375
 10
-715.4944
 20
117.0859
 10
-717.6585
 20
119.7498
 10
-720.8114
 20
123.8574
 10
-724.5819
 20
129.1365
 10
-728.5986
 20
135.3153
 10
-732.4902
 20
142.1219
 10
-735.8852
 20
149.2843
 10
-738.4125
 20
156.5305
 10
-740.184
 20
163.0259
 10
-741.5883
 20
168.3845
 10
-742.6683
 20
173.0069
 10
-743.4673
 20
177.294
 10
-744.0283
 20
181.6465
 10
-744.3944
 20
186.4652
 10
-744.6088
 20
192.1509
 10
-744.7144
 20
199.1044
 10
-744.1729
 20
206.8199
 10
-742.5656
 20
214.4046
 10
-740.115
 20
221.6784
 10
-737.0438
 20
228.4615
 10
-733.5746
 20
234.5739
 10
-729.9299
 20
239.8358
 10
-726.3325
 20
244.0671
 10
-723.0048
 20
247.0879
 10
-720.5434
 20
248.9253
 10
-718.3394
 20
250.6226
 10
-716.2359
 20
252.1992
 10
-714.076
 20
253.6746
 10
-711.7028
 20
255.0683
 10
-708.9592
 20
256.3995
 10
-705.6883
 20
257.6879
 10
-701.7332
 20
258.9528
 10
-697.3904
 20
260.3136
 10
-693.1701
 20
261.8076
 10
-689.2358
 20
263.3306
 10
-685.751
 20
264.7786
 10
-682.8794
 20
266.0476
 10
-680.7845
 20
267.0335
 10
-679.6298
 20
267.6324
 10
-679.5788
 20
267.7401
  0
LWPOLYLINE
  5
62
330
1F
100
AcDbEntity
  8
Layer 1
 62
     7
370
    18
100
AcDbPolyline
 90
       17
 70
     0
 43
0.0
 10
-626.7123
 20
61.043
 10
-626.8513
 20
60.5719
 10
-627.414
 20
59.3186
 10
-628.6189
 20
57.5235
 10
-630.6844
 20
55.4268
 10
-633.8291
 20
53.2687
 10
-638.2715
 20
51.2895
 10
-644.23
 20
49.7295
 10
-651.9232
 20
48.8289
 10
-652.3771
 20
48.8357
 10
-653.5522
 20
48.9325
 10
-655.1683
 20
49.2338
 10
-656.9455
 20
49.8541
 10
-658.6038
 20
50.9079
 10
-659.8629
 20
52.5096
 10
-660.443
 20
54.7739
 10
-660.064
 20
57.8151
  0
LWPOLYLINE
  5
63
330
1F
100
AcDbEntity
  8
Layer 1
 62
     7
370
    18
100
AcDbPolyline
 90
       34
 70
     0
 43
0.0
 10
-699.0158
 20
259.2574
 10
-697.4302
 20
259.5413
 10
-692.9621
 20
259.9908
 10
-686.0444
 20
260.0027
 10
-677.1099
 20
258.9739
 10
-666.5915
 20
256.3011
 10
-654.9221
 20
251.3812
 10
-642.5346
 20
243.6108
 10
-629.8619
 20
232.3869
 10
-619.8144
 20
219.2772
 10
-612.0657
 20
206.6982
 10
-606.3296
 20
194.7306
 10
-602.32
 20
183.4551
 10
-599.7506
 20
172.9525
 10
-598.3354
 20
163.3036
 10
-597.788
 20
154.5892
 10
-597.8224
 20
146.89
 10
-597.9174
 20
145.3656
 10
-598.4022
 20
141.1891
 10
-599.5762
 20
134.9556
 10
-601.7392
 20
127.2601
 10
-605.1905
 20
118.6976
 10
-610.2299
 20
109.8632
 10
-617.1568
 20
101.3519
 10
-626.2709
 20
93.7587
 10
-626.4015
 20
93.0827
 10
-626.9994
 20
92.766
 10
-628.7108
 20
91.931
 10
-631.412
 20
90.7504
 10
-634.9795
 20
89.3972
 10
-639.2896
 20
88.0439
 10
-644.2189
 20
86.8633
 10
-649.6437
 20
86.0283
 10
-655.4405
 20
85.7116
  0
LWPOLYLINE
  5
64
330
1F
100
AcDbEntity
  8
Layer 1
 62
     7
370
    18
100
AcDbPolyline
 90
       33
 70
     0
 43
0.0
 10
-656.0672
 20
91.8923
 10
-643.4409
 20
93.2461
 10
-631.902
 20
97.8503
 10
-621.7872
 20
105.3413
 10
-613.433
 20
115.3555
 10
-607.1761
 20
127.5292
 10
-603.3531
 20
141.4988
 10
-602.3007
 20
156.9008
 10
-604.3555
 20
173.3715
 10
-609.3213
 20
189.8012
 10
-616.5519
 20
205.1039
 10
-625.7087
 20
218.9517
 10
-636.4533
 20
231.0169
 10
-648.447
 20
240.9716
 10
-661.3515
 20
248.488
 10
-674.8282
 20
253.2382
 10
-688.5385
 20
254.8945
 10
-701.5103
 20
253.1752
 10
-712.8852
 20
248.2593
 10
-722.4951
 20
240.51
 10
-730.1723
 20
230.2907
 10
-735.7485
 20
217.9643
 10
-739.0561
 20
203.8942
 10
-739.9269
 20
188.4436
 10
-738.1931
 20
171.9756
 10
-734.4343
 20
157.6501
 10
-728.712
 20
144.1532
 10
-721.2857
 20
131.7031
 10
-712.4148
 20
120.5185
 10
-702.359
 20
110.8176
 10
-691.3776
 20
102.8191
 10
-679.7301
 20
96.7412
 10
-667.6762
 20
92.8024
  0
LWPOLYLINE
  5
65
330
1F
100
AcDbEntity
  8
Layer 1
 62
     7
370
    18
100
AcDbPolyline
 90
       25
 70
     0
 43
0.0
 10
-655.9829
 20
92.1121
 10
-656.0108
 20
92.0566
 10
-656.0753
 20
91.8628
 10
-656.148
 20
91.4903
 10
-656.2004
 20
90.8984
 10
-656.2038
 20
90.0464
 10
-656.1297
 20
88.8937
 10
-655.9496
 20
87.3996
 10
-655.6349
 20
85.5236
 10
-655.1819
 20
83.4909
 10
-654.639
 20
81.2744
 10
-654.1557
 20
78.9833
 10
-653.8812
 20
76.7266
 10
-653.9648
 20
74.6134
 10
-654.5559
 20
72.7528
 10
-655.8038
 20
71.254
 10
-657.8578
 20
70.2259
 10
-658.1017
 20
70.158
 10
-658.3669
 20
70.0944
 10
-658.6493
 20
70.0354
 10
-658.9446
 20
69.9813
 10
-659.2485
 20
69.9325
 10
-659.5569
 20
69.8894
 10
-659.8654
 20
69.8523
 10
-660.1698
 20
69.8215
  0
LWPOLYLINE
  5
66
330
1F
100
AcDbEntity
  8
Layer 1
 62
     7
370
    18
100
AcDbPolyline
 90
       33
 70
     1
 43
0.0
 10
-695.8086
 20
212.2801
 10
-701.7055
 20
208.2318
 10
-706.3434
 20
202.8132
 10
-709.6829
 20
196.2565
 10
-711.6851
 20
188.7939
 10
-712.3107
 20
180.6577
 10
-711.5206
 20
172.0799
 10
-709.2757
 20
163.2928
 10
-705.5368
 20
154.5286
 10
-700.5199
 20
146.4094
 10
-694.6097
 20
139.4713
 10
-688.02
 20
133.819
 10
-680.9647
 20
129.557
 10
-673.6575
 20
126.7901
 10
-666.3124
 20
125.623
 10
-659.1431
 20
126.1603
 10
-652.3635
 20
128.5067
 10
-646.4666
 20
132.5546
 10
-641.829
 20
137.973
 10
-638.4896
 20
144.5297
 10
-636.4877
 20
151.9924
 10
-635.8624
 20
160.1288
 10
-636.6527
 20
168.7067
 10
-638.8978
 20
177.4939
 10
-642.6367
 20
186.2582
 10
-647.6535
 20
194.3774
 10
-653.5635
 20
201.3155
 10
-660.153
 20
206.9678
 10
-667.2081
 20
211.2298
 10
-674.515
 20
213.9967
 10
-681.8599
 20
215.1638
 10
-689.029
 20
214.6265
 10
-695.8086
 20
212.2801
  0
LWPOLYLINE
  5
67
330
1F
100
AcDbEntity
  8
Layer 1
 62
     7
370
    18
100
AcDbPolyline
 90
       33
 70
     1
 43
0.0
 10
-642.4716
 20
200.3653
 10
-643.3341
 20
199.5761
 10
-643.9796
 20
198.7783
 10
-644.4277
 20
197.9893
 10
-644.6978
 20
197.2265
 10
-644.8093
 20
196.5074
 10
-644.7816
 20
195.8493
 10
-644.6341
 20
195.2697
 10
-644.3864
 20
194.786
 10
-644.0168
 20
194.4116
 10
-643.5062
 20
194.1538
 10
-642.8772
 20
194.0206
 10
-642.1526
 20
194.02
 10
-641.3552
 20
194.1601
 10
-640.5078
 20
194.449
 10
-639.633
 20
194.8946
 10
-638.7537
 20
195.5051
 10
-637.97
 20
196.2341
 10
-637.3602
 20
197.0098
 10
-636.9146
 20
197.8024
 10
-636.6233
 20
198.5819
 10
-636.4764
 20
199.3184
 10
-636.4642
 20
199.9819
 10
-636.5767
 20
200.5426
 10
-636.8041
 20
200.9705
 10
-637.1563
 20
201.2988
 10
-637.6399
 20
201.5635
 10
-638.2401
 20
201.7387
 10
-638.942
 20
201.7985
 10
-639.731
 20
201.7169
 10
-640.592
 20
201.4681
 10
-641.5105
 20
201.0262
 10
-642.4716
 20
200.3653
  0
LWPOLYLINE
  5
68
330
1F
100
AcDbEntity
  8
Layer 1
 62
     7
370
    18
100
AcDbPolyline
 90
       33
 70
     1
 43
0.0
 10
-641.1539
 20
198.7579
 10
-641.3269
 20
198.7405
 10
-641.4882
 20
198.6906
 10
-641.6342
 20
198.6117
 10
-641.7616
 20
198.5071
 10
-641.8667
 20
198.3803
 10
-641.9461
 20
198.2347
 10
-641.9963
 20
198.0738
 10
-642.0138
 20
197.9009
 10
-641.9963
 20
197.7281
 10
-641.9461
 20
197.5672
 10
-641.8667
 20
197.4216
 10
-641.7616
 20
197.2948
 10
-641.6342
 20
197.1902
 10
-641.4882
 20
197.1113
 10
-641.3269
 20
197.0614
 10
-641.1539
 20
197.044
 10
-640.9805
 20
197.0614
 10
-640.819
 20
197.1113
 10
-640.673
 20
197.1902
 10
-640.5457
 20
197.2948
 10
-640.4408
 20
197.4216
 10
-640.3615
 20
197.5672
 10
-640.3115
 20
197.7281
 10
-640.294
 20
197.9009
 10
-640.3115
 20
198.0738
 10
-640.3615
 20
198.2347
 10
-640.4408
 20
198.3803
 10
-640.5457
 20
198.5071
 10
-640.673
 20
198.6117
 10
-640.819
 20
198.6906
 10
-640.9805
 20
198.7405
 10
-641.1539
 20
198.7579
  0
LWPOLYLINE
  5
69
330
1F
100
AcDbEntity
  8
Layer 1
 62
     7
370
    18
100
AcDbPolyline
 90
       33
 70
     1
 43
0.0
 10
-626.891
 20
200.3653
 10
-627.7535
 20
199.5761
 10
-628.3991
 20
198.7783
 10
-628.8472
 20
197.9893
 10
-629.1173
 20
197.2265
 10
-629.2287
 20
196.5074
 10
-629.201
 20
195.8493
 10
-629.0536
 20
195.2697
 10
-628.8058
 20
194.786
 10
-628.4363
 20
194.4116
 10
-627.9256
 20
194.1538
 10
-627.2966
 20
194.0206
 10
-626.5721
 20
194.02
 10
-625.7747
 20
194.1601
 10
-624.9272
 20
194.449
 10
-624.0524
 20
194.8946
 10
-623.1731
 20
195.5051
 10
-622.3894
 20
196.2341
 10
-621.7796
 20
197.0098
 10
-621.334
 20
197.8024
 10
-621.0427
 20
198.5819
 10
-620.8959
 20
199.3184
 10
-620.8836
 20
199.9819
 10
-620.9962
 20
200.5426
 10
-621.2236
 20
200.9705
 10
-621.5758
 20
201.2988
 10
-622.0594
 20
201.5635
 10
-622.6596
 20
201.7387
 10
-623.3615
 20
201.7985
 10
-624.1504
 20
201.7169
 10
-625.0115
 20
201.4681
 10
-625.93
 20
201.0262
 10
-626.891
 20
200.3653
  0
LWPOLYLINE
  5
6A
330
1F
100
AcDbEntity
  8
Layer 1
 62
     7
370
    18
100
AcDbPolyline
 90
       33
 70
     1
 43
0.0
 10
-625.5725
 20
198.7579
 10
-625.7459
 20
198.7405
 10
-625.9074
 20
198.6906
 10
-626.0535
 20
198.6117
 10
-626.1807
 20
198.5071
 10
-626.2857
 20
198.3803
 10
-626.3649
 20
198.2347
 10
-626.415
 20
198.0738
 10
-626.4324
 20
197.9009
 10
-626.415
 20
197.7281
 10
-626.3649
 20
197.5672
 10
-626.2857
 20
197.4216
 10
-626.1807
 20
197.2948
 10
-626.0535
 20
197.1902
 10
-625.9074
 20
197.1113
 10
-625.7459
 20
197.0614
 10
-625.5725
 20
197.044
 10
-625.3995
 20
197.0614
 10
-625.2382
 20
197.1113
 10
-625.0922
 20
197.1902
 10
-624.9649
 20
197.2948
 10
-624.8598
 20
197.4216
 10
-624.7804
 20
197.5672
 10
-624.7302
 20
197.7281
 10
-624.7127
 20
197.9009
 10
-624.7302
 20
198.0738
 10
-624.7804
 20
198.2347
 10
-624.8598
 20
198.3803
 10
-624.9649
 20
198.5071
 10
-625.0922
 20
198.6117
 10
-625.2382
 20
198.6906
 10
-625.3995
 20
198.7405
 10
-625.5725
 20
198.7579
  0
LWPOLYLINE
  5
6B
330
1F
100
AcDbEntity
  8
Layer 1
 62
     7
370
    18
100
AcDbPolyline
 90
       33
 70
     1
 43
0.0
 10
-634.3658
 20
187.4689
 10
-635.4762
 20
187.0988
 10
-636.3921
 20
186.6327
 10
-637.124
 20
186.0943
 10
-637.6827
 20
185.5076
 10
-638.0787
 20
184.8962
 10
-638.3227
 20
184.2841
 10
-638.4251
 20
183.6949
 10
-638.3968
 20
183.1526
 10
-638.2125
 20
182.6606
 10
-637.8517
 20
182.2177
 10
-637.3319
 20
181.8404
 10
-636.6706
 20
181.5454
 10
-635.8852
 20
181.3493
 10
-634.9932
 20
181.2687
 10
-634.0121
 20
181.3201
 10
-632.9594
 20
181.5202
 10
-631.9456
 20
181.8673
 10
-631.0714
 20
182.3278
 10
-630.3403
 20
182.8705
 10
-629.7554
 20
183.4638
 10
-629.32
 20
184.0766
 10
-629.0373
 20
184.6775
 10
-628.9107
 20
185.2352
 10
-628.9433
 20
185.7183
 10
-629.1306
 20
186.1612
 10
-629.4639
 20
186.5995
 10
-629.9402
 20
187.0033
 10
-630.5567
 20
187.3432
 10
-631.3104
 20
187.5893
 10
-632.1984
 20
187.7121
 10
-633.2179
 20
187.6818
 10
-634.3658
 20
187.4689
  0
LWPOLYLINE
  5
6C
330
1F
100
AcDbEntity
  8
Layer 1
 62
     7
370
    18
100
AcDbPolyline
 90
       33
 70
     1
 43
0.0
 10
-633.8194
 20
185.4662
 10
-633.9849
 20
185.5205
 10
-634.1528
 20
185.5403
 10
-634.3186
 20
185.5274
 10
-634.4776
 20
185.4835
 10
-634.6254
 20
185.4103
 10
-634.7575
 20
185.3095
 10
-634.8692
 20
185.1829
 10
-634.956
 20
185.0321
 10
-635.0105
 20
184.8675
 10
-635.0304
 20
184.7004
 10
-635.0175
 20
184.5353
 10
-634.9736
 20
184.3768
 10
-634.9003
 20
184.2295
 10
-634.7994
 20
184.098
 10
-634.6726
 20
183.9869
 10
-634.5218
 20
183.9007
 10
-634.3563
 20
183.846
 10
-634.1884
 20
183.826
 10
-634.0226
 20
183.8388
 10
-633.8636
 20
183.8827
 10
-633.7158
 20
183.956
 10
-633.5837
 20
184.0567
 10
-633.472
 20
184.1831
 10
-633.3852
 20
184.3335
 10
-633.3307
 20
184.4985
 10
-633.3108
 20
184.6658
 10
-633.3237
 20
184.831
 10
-633.3676
 20
184.9895
 10
-633.4409
 20
185.1368
 10
-633.5418
 20
185.2683
 10
-633.6686
 20
185.3797
 10
-633.8194
 20
185.4662
  0
LWPOLYLINE
  5
6D
330
1F
100
AcDbEntity
  8
Layer 1
 62
     7
370
    18
100
AcDbPolyline
 90
       33
 70
     1
 43
0.0
 10
-630.1754
 20
173.1553
 10
-631.2858
 20
172.9149
 10
-632.2017
 20
172.5558
 10
-632.9337
 20
172.1029
 10
-633.4924
 20
171.5815
 10
-633.8884
 20
171.0164
 10
-634.1323
 20
170.4327
 10
-634.2348
 20
169.8556
 10
-634.2065
 20
169.3099
 10
-634.0222
 20
168.7964
 10
-633.6614
 20
168.3113
 10
-633.1416
 20
167.8734
 10
-632.4802
 20
167.5012
 10
-631.6948
 20
167.2133
 10
-630.8029
 20
167.0285
 10
-629.8218
 20
166.9653
 10
-628.7691
 20
167.0424
 10
-627.7553
 20
167.2711
 10
-626.8811
 20
167.6295
 10
-626.15
 20
168.0867
 10
-625.5651
 20
168.6118
 10
-625.1297
 20
169.1737
 10
-624.847
 20
169.7416
 10
-624.7203
 20
170.2845
 10
-624.7529
 20
170.7714
 10
-624.9402
 20
171.2362
 10
-625.2735
 20
171.7133
 10
-625.7498
 20
172.1728
 10
-626.3663
 20
172.5847
 10
-627.12
 20
172.9188
 10
-628.0081
 20
173.1453
 10
-629.0275
 20
173.2341
 10
-630.1754
 20
173.1553
  0
LWPOLYLINE
  5
6E
330
1F
100
AcDbEntity
  8
Layer 1
 62
     7
370
    18
100
AcDbPolyline
 90
       33
 70
     1
 43
0.0
 10
-629.6293
 20
171.0885
 10
-629.7948
 20
171.1622
 10
-629.9627
 20
171.2017
 10
-630.1285
 20
171.2083
 10
-630.2875
 20
171.183
 10
-630.4353
 20
171.1272
 10
-630.5674
 20
171.0421
 10
-630.6791
 20
170.9289
 10
-630.7659
 20
170.7887
 10
-630.8204
 20
170.63
 10
-630.8403
 20
170.4649
 10
-630.8273
 20
170.298
 10
-630.7832
 20
170.1342
 10
-630.7097
 20
169.9782
 10
-630.6086
 20
169.8349
 10
-630.4815
 20
169.7089
 10
-630.3302
 20
169.605
 10
-630.1651
 20
169.5313
 10
-629.9974
 20
169.4918
 10
-629.8318
 20
169.4853
 10
-629.6728
 20
169.5106
 10
-629.525
 20
169.5666
 10
-629.393
 20
169.6519
 10
-629.2815
 20
169.7655
 10
-629.1951
 20
169.9062
 10
-629.1406
 20
170.0644
 10
-629.1207
 20
170.2291
 10
-629.1336
 20
170.3957
 10
-629.1775
 20
170.5594
 10
-629.2508
 20
170.7153
 10
-629.3517
 20
170.8586
 10
-629.4785
 20
170.9846
 10
-629.6293
 20
171.0885
  0
LWPOLYLINE
  5
6F
330
1F
100
AcDbEntity
  8
Layer 1
 62
     7
370
    18
100
AcDbPolyline
 90
       33
 70
     1
 43
0.0
 10
-627.7136
 20
159.1373
 10
-628.9471
 20
159.3273
 10
-630.0266
 20
159.3348
 10
-630.9533
 20
159.1869
 10
-631.7285
 20
158.9108
 10
-632.3534
 20
158.5337
 10
-632.8293
 20
158.0828
 10
-633.1573
 20
157.5853
 10
-633.3388
 20
157.0684
 10
-633.3477
 20
156.5233
 10
-633.1643
 20
155.9389
 10
-632.7993
 20
155.3391
 10
-632.2635
 20
154.7476
 10
-631.5677
 20
154.1882
 10
-630.7227
 20
153.6848
 10
-629.7392
 20
153.2612
 10
-628.628
 20
152.9411
 10
-627.4982
 20
152.7761
 10
-626.4619
 20
152.7835
 10
-625.5343
 20
152.9358
 10
-624.7308
 20
153.2054
 10
-624.0666
 20
153.5649
 10
-623.5571
 20
153.9867
 10
-623.2174
 20
154.4434
 10
-623.063
 20
154.9074
 10
-623.076
 20
155.4084
 10
-623.2342
 20
155.9752
 10
-623.5462
 20
156.5789
 10
-624.0206
 20
157.1905
 10
-624.6659
 20
157.781
 10
-625.4908
 20
158.3216
 10
-626.5039
 20
158.7834
 10
-627.7136
 20
159.1373
  0
LWPOLYLINE
  5
70
330
1F
100
AcDbEntity
  8
Layer 1
 62
     7
370
    18
100
AcDbPolyline
 90
       33
 70
     1
 43
0.0
 10
-627.9507
 20
157.0161
 10
-628.0922
 20
157.1461
 10
-628.2493
 20
157.2453
 10
-628.4169
 20
157.313
 10
-628.5899
 20
157.3487
 10
-628.7632
 20
157.3518
 10
-628.9316
 20
157.3218
 10
-629.09
 20
157.2582
 10
-629.2334
 20
157.1604
 10
-629.3509
 20
157.0336
 10
-629.4353
 20
156.8879
 10
-629.4865
 20
156.7284
 10
-629.5044
 20
156.5601
 10
-629.4891
 20
156.388
 10
-629.4405
 20
156.2174
 10
-629.3586
 20
156.0531
 10
-629.2433
 20
155.9004
 10
-629.1018
 20
155.7704
 10
-628.9447
 20
155.6712
 10
-628.7771
 20
155.6036
 10
-628.6041
 20
155.5679
 10
-628.4308
 20
155.5648
 10
-628.2624
 20
155.5947
 10
-628.104
 20
155.6583
 10
-627.9606
 20
155.7561
 10
-627.8431
 20
155.8829
 10
-627.7587
 20
156.0286
 10
-627.7075
 20
156.1881
 10
-627.6896
 20
156.3564
 10
-627.7049
 20
156.5285
 10
-627.7535
 20
156.6991
 10
-627.8354
 20
156.8634
 10
-627.9507
 20
157.0161
  0
LWPOLYLINE
  5
71
330
1F
100
AcDbEntity
  8
Layer 1
 62
     7
370
    18
100
AcDbPolyline
 90
       33
 70
     1
 43
0.0
 10
-630.2053
 20
145.7915
 10
-631.4388
 20
146.2311
 10
-632.5183
 20
146.4569
 10
-633.445
 20
146.4964
 10
-634.2202
 20
146.3772
 10
-634.8451
 20
146.1265
 10
-635.321
 20
145.7719
 10
-635.649
 20
145.3407
 10
-635.8305
 20
144.8605
 10
-635.8394
 20
144.3172
 10
-635.6559
 20
143.6957
 10
-635.2909
 20
143.022
 10
-634.7552
 20
142.3221
 10
-634.0594
 20
141.622
 10
-633.2144
 20
140.9477
 10
-632.2309
 20
140.3251
 10
-631.1197
 20
139.7803
 10
-629.9899
 20
139.3868
 10
-628.9535
 20
139.1846
 10
-628.026
 20
139.1492
 10
-627.2224
 20
139.2563
 10
-626.5583
 20
139.4815
 10
-626.0487
 20
139.8002
 10
-625.7091
 20
140.1882
 10
-625.5547
 20
140.621
 10
-625.5677
 20
141.1247
 10
-625.7259
 20
141.7235
 10
-626.0379
 20
142.3902
 10
-626.5123
 20
143.0977
 10
-627.1576
 20
143.8188
 10
-627.9825
 20
144.5262
 10
-628.9956
 20
145.1929
 10
-630.2053
 20
145.7915
  0
LWPOLYLINE
  5
72
330
1F
100
AcDbEntity
  8
Layer 1
 62
     7
370
    18
100
AcDbPolyline
 90
       33
 70
     1
 43
0.0
 10
-630.4423
 20
143.7188
 10
-630.5838
 20
143.8774
 10
-630.7409
 20
144.0083
 10
-630.9085
 20
144.1099
 10
-631.0816
 20
144.1807
 10
-631.2549
 20
144.2189
 10
-631.4233
 20
144.2229
 10
-631.5817
 20
144.1911
 10
-631.7251
 20
144.1218
 10
-631.8426
 20
144.0188
 10
-631.927
 20
143.8902
 10
-631.9781
 20
143.7411
 10
-631.9961
 20
143.5765
 10
-631.9808
 20
143.4015
 10
-631.9322
 20
143.2211
 10
-631.8503
 20
143.0405
 10
-631.735
 20
142.8646
 10
-631.5935
 20
142.706
 10
-631.4364
 20
142.5751
 10
-631.2688
 20
142.4735
 10
-631.0958
 20
142.4027
 10
-630.9225
 20
142.3645
 10
-630.7541
 20
142.3605
 10
-630.5956
 20
142.3923
 10
-630.4523
 20
142.4616
 10
-630.3348
 20
142.5642
 10
-630.2504
 20
142.6925
 10
-630.1992
 20
142.8414
 10
-630.1812
 20
143.0059
 10
-630.1965
 20
143.181
 10
-630.2451
 20
143.3615
 10
-630.327
 20
143.5425
 10
-630.4423
 20
143.7188
  0
LWPOLYLINE
  5
73
330
1F
100
AcDbEntity
  8
Layer 1
 62
     7
370
    18
100
AcDbPolyline
 90
       33
 70
     1
 43
0.0
 10
-634.5713
 20
134.4272
 10
-635.6504
 20
135.2412
 10
-636.6356
 20
135.8028
 10
-637.5212
 20
136.1385
 10
-638.3011
 20
136.2747
 10
-638.9696
 20
136.2379
 10
-639.5209
 20
136.0545
 10
-639.9489
 20
135.7509
 10
-640.2479
 20
135.3536
 10
-640.3964
 20
134.8409
 10
-640.3791
 20
134.1921
 10
-640.1997
 20
133.4354
 10
-639.8621
 20
132.5989
 10
-639.3698
 20
131.7107
 10
-638.7267
 20
130.7989
 10
-637.9364
 20
129.8917
 10
-637.0026
 20
129.0172
 10
-636.0119
 20
128.2803
 10
-635.0623
 20
127.7549
 10
-634.1749
 20
127.4229
 10
-633.3707
 20
127.2661
 10
-632.6708
 20
127.266
 10
-632.0962
 20
127.4045
 10
-631.6681
 20
127.6634
 10
-631.4074
 20
128.0244
 10
-631.2903
 20
128.5066
 10
-631.2891
 20
129.1257
 10
-631.419
 20
129.8588
 10
-631.6954
 20
130.6828
 10
-632.1335
 20
131.5747
 10
-632.7487
 20
132.5114
 10
-633.5562
 20
133.4699
 10
-634.5713
 20
134.4272
  0
LWPOLYLINE
  5
74
330
1F
100
AcDbEntity
  8
Layer 1
 62
     7
370
    18
100
AcDbPolyline
 90
       33
 70
     1
 43
0.0
 10
-635.3334
 20
132.5356
 10
-635.4296
 20
132.7318
 10
-635.5479
 20
132.9068
 10
-635.6839
 20
133.0574
 10
-635.8331
 20
133.1803
 10
-635.9908
 20
133.2724
 10
-636.1525
 20
133.3305
 10
-636.3138
 20
133.3514
 10
-636.47
 20
133.3318
 10
-636.6099
 20
133.2719
 10
-636.7244
 20
133.177
 10
-636.8122
 20
133.0519
 10
-636.8719
 20
132.9014
 10
-636.9022
 20
132.7303
 10
-636.9018
 20
132.5433
 10
-636.8693
 20
132.3453
 10
-636.8034
 20
132.1411
 10
-636.7077
 20
131.9453
 10
-636.5895
 20
131.7707
 10
-636.4536
 20
131.6204
 10
-636.3043
 20
131.4976
 10
-636.1465
 20
131.4056
 10
-635.9846
 20
131.3476
 10
-635.8232
 20
131.3267
 10
-635.6669
 20
131.3463
 10
-635.5274
 20
131.4062
 10
-635.4131
 20
131.5011
 10
-635.3253
 20
131.6262
 10
-635.2655
 20
131.7766
 10
-635.235
 20
131.9475
 10
-635.2353
 20
132.1342
 10
-635.2676
 20
132.3318
 10
-635.3334
 20
132.5356
  0
LWPOLYLINE
  5
75
330
1F
100
AcDbEntity
  8
Layer 1
 62
     7
370
    18
100
AcDbPolyline
 90
       33
 70
     1
 43
0.0
 10
-641.5639
 20
125.7605
 10
-642.4043
 20
126.7738
 10
-643.2124
 20
127.5268
 10
-643.9768
 20
128.0432
 10
-644.686
 20
128.3467
 10
-645.3284
 20
128.4613
 10
-645.8926
 20
128.4105
 10
-646.3669
 20
128.2183
 10
-646.74
 20
127.9083
 10
-646.9962
 20
127.4551
 10
-647.1258
 20
126.8358
 10
-647.126
 20
126.0779
 10
-646.994
 20
125.209
 10
-646.7269
 20
124.2564
 10
-646.3221
 20
123.2478
 10
-645.7766
 20
122.2106
 10
-645.0877
 20
121.1723
 10
-644.3138
 20
120.2518
 10
-643.5314
 20
119.5412
 10
-642.7643
 20
119.0279
 10
-642.0368
 20
118.6993
 10
-641.3729
 20
118.5428
 10
-640.7967
 20
118.5458
 10
-640.3323
 20
118.6956
 10
-640.0038
 20
118.9798
 10
-639.7842
 20
119.4109
 10
-639.6437
 20
119.9979
 10
-639.602
 20
120.7224
 10
-639.6787
 20
121.5658
 10
-639.8935
 20
122.5097
 10
-640.2662
 20
123.5358
 10
-640.8164
 20
124.6255
 10
-641.5639
 20
125.7605
  0
LWPOLYLINE
  5
76
330
1F
100
AcDbEntity
  8
Layer 1
 62
     7
370
    18
100
AcDbPolyline
 90
       33
 70
     1
 43
0.0
 10
-642.9772
 20
123.4935
 10
-643.0545
 20
123.6978
 10
-643.156
 20
123.8829
 10
-643.2773
 20
124.0454
 10
-643.4143
 20
124.1815
 10
-643.5627
 20
124.2876
 10
-643.7183
 20
124.3601
 10
-643.8769
 20
124.3955
 10
-644.0343
 20
124.39
 10
-644.1793
 20
124.3434
 10
-644.3022
 20
124.2596
 10
-644.4014
 20
124.1434
 10
-644.4749
 20
123.9992
 10
-644.5211
 20
123.8318
 10
-644.538
 20
123.6457
 10
-644.5239
 20
123.4456
 10
-644.4771
 20
123.2361
 10
-644.4002
 20
123.0323
 10
-644.2989
 20
122.8474
 10
-644.1776
 20
122.6852
 10
-644.0406
 20
122.5492
 10
-643.892
 20
122.443
 10
-643.7362
 20
122.3702
 10
-643.5774
 20
122.3345
 10
-643.4199
 20
122.3395
 10
-643.2754
 20
122.3862
 10
-643.1528
 20
122.4701
 10
-643.0539
 20
122.5865
 10
-642.9804
 20
122.7309
 10
-642.9342
 20
122.8984
 10
-642.9171
 20
123.0845
 10
-642.9308
 20
123.2844
 10
-642.9772
 20
123.4935
  0
LWPOLYLINE
  5
77
330
1F
100
AcDbEntity
  8
Layer 1
 62
     7
370
    18
100
AcDbPolyline
 90
       33
 70
     1
 43
0.0
 10
-650.8465
 20
120.4249
 10
-651.4875
 20
121.5739
 10
-652.1445
 20
122.461
 10
-652.8017
 20
123.1076
 10
-653.4436
 20
123.5349
 10
-654.0543
 20
123.7641
 10
-654.6183
 20
123.8167
 10
-655.1198
 20
123.7138
 10
-655.5433
 20
123.4767
 10
-655.8781
 20
123.0776
 10
-656.1187
 20
122.4922
 10
-656.2574
 20
121.7471
 10
-656.2865
 20
120.8687
 10
-656.1981
 20
119.8836
 10
-655.9844
 20
118.8183
 10
-655.6376
 20
117.6994
 10
-655.1501
 20
116.5534
 10
-654.5575
 20
115.5078
 10
-653.918
 20
114.667
 10
-653.2576
 20
114.023
 10
-652.6023
 20
113.5678
 10
-651.9782
 20
113.2934
 10
-651.4111
 20
113.1917
 10
-650.9271
 20
113.2548
 10
-650.5521
 20
113.4745
 10
-650.2574
 20
113.8586
 10
-650.0119
 20
114.4102
 10
-649.8384
 20
115.115
 10
-649.7596
 20
115.9582
 10
-649.7983
 20
116.9253
 10
-649.9772
 20
118.0019
 10
-650.319
 20
119.1732
 10
-650.8465
 20
120.4249
  0
LWPOLYLINE
  5
78
330
1F
100
AcDbEntity
  8
Layer 1
 62
     7
370
    18
100
AcDbPolyline
 90
       33
 70
     1
 43
0.0
 10
-652.6516
 20
118.4534
 10
-652.6898
 20
118.6678
 10
-652.7554
 20
118.8679
 10
-652.8449
 20
119.0494
 10
-652.9547
 20
119.208
 10
-653.0813
 20
119.3394
 10
-653.2212
 20
119.4392
 10
-653.371
 20
119.503
 10
-653.527
 20
119.5267
 10
-653.6779
 20
119.5071
 10
-653.8141
 20
119.447
 10
-653.9327
 20
119.3506
 10
-654.0313
 20
119.2222
 10
-654.1072
 20
119.066
 10
-654.1578
 20
118.8862
 10
-654.1805
 20
118.6872
 10
-654.1727
 20
118.4732
 10
-654.134
 20
118.2583
 10
-654.068
 20
118.0579
 10
-653.9783
 20
117.8761
 10
-653.8685
 20
117.7173
 10
-653.7419
 20
117.5859
 10
-653.6022
 20
117.486
 10
-653.4528
 20
117.4221
 10
-653.2972
 20
117.3984
 10
-653.1463
 20
117.418
 10
-653.0102
 20
117.4782
 10
-652.8915
 20
117.5746
 10
-652.7929
 20
117.7032
 10
-652.717
 20
117.8596
 10
-652.6665
 20
118.0396
 10
-652.6438
 20
118.2389
 10
-652.6516
 20
118.4534
  0
LWPOLYLINE
  5
79
330
1F
100
AcDbEntity
  8
Layer 1
 62
     7
370
    18
100
AcDbPolyline
 90
       33
 70
     1
 43
0.0
 10
-661.6718
 20
118.5163
 10
-662.127
 20
119.7502
 10
-662.6386
 20
120.7279
 10
-663.1877
 20
121.4679
 10
-663.7555
 20
121.9889
 10
-664.3234
 20
122.3094
 10
-664.8725
 20
122.4482
 10
-665.384
 20
122.4237
 10
-665.8391
 20
122.2547
 10
-666.2317
 20
121.912
 10
-666.5602
 20
121.3707
 10
-666.8128
 20
120.6559
 10
-666.9777
 20
119.7925
 10
-667.043
 20
118.8056
 10
-666.9971
 20
117.7202
 10
-666.828
 20
116.5613
 10
-666.524
 20
115.354
 10
-666.1006
 20
114.2297
 10
-665.5991
 20
113.3005
 10
-665.0465
 20
112.5626
 10
-664.4697
 20
112.012
 10
-663.8956
 20
111.6447
 10
-663.3511
 20
111.4569
 10
-662.8631
 20
111.4446
 10
-662.4586
 20
111.604
 10
-662.1079
 20
111.9381
 10
-661.7798
 20
112.4453
 10
-661.4991
 20
113.1149
 10
-661.2906
 20
113.9358
 10
-661.1788
 20
114.8973
 10
-661.1887
 20
115.9885
 10
-661.3447
 20
117.1984
 10
-661.6718
 20
118.5163
  0
LWPOLYLINE
  5
7A
330
1F
100
AcDbEntity
  8
Layer 1
 62
     7
370
    18
100
AcDbPolyline
 90
       33
 70
     1
 43
0.0
 10
-663.7604
 20
116.8455
 10
-663.7652
 20
117.0637
 10
-663.7992
 20
117.2719
 10
-663.8596
 20
117.4652
 10
-663.9434
 20
117.6389
 10
-664.0481
 20
117.7881
 10
-664.1706
 20
117.9083
 10
-664.3084
 20
117.9944
 10
-664.4585
 20
118.0419
 10
-664.6108
 20
118.0455
 10
-664.7546
 20
118.0069
 10
-664.8868
 20
117.9298
 10
-665.0041
 20
117.8181
 10
-665.1034
 20
117.6754
 10
-665.1813
 20
117.5057
 10
-665.2346
 20
117.3126
 10
-665.2602
 20
117.1
 10
-665.2558
 20
116.8818
 10
-665.222
 20
116.6737
 10
-665.1617
 20
116.4804
 10
-665.0777
 20
116.3067
 10
-664.973
 20
116.1574
 10
-664.8502
 20
116.0373
 10
-664.7123
 20
115.9512
 10
-664.5621
 20
115.9037
 10
-664.4099
 20
115.8997
 10
-664.266
 20
115.9381
 10
-664.1339
 20
116.0151
 10
-664.0165
 20
116.127
 10
-663.9173
 20
116.2697
 10
-663.8394
 20
116.4396
 10
-663.786
 20
116.6328
 10
-663.7604
 20
116.8455
  0
LWPOLYLINE
  5
7B
330
1F
100
AcDbEntity
  8
Layer 1
 62
     7
370
    18
100
AcDbPolyline
 90
       33
 70
     1
 43
0.0
 10
-673.1891
 20
119.7718
 10
-673.3924
 20
121.0708
 10
-673.7015
 20
122.1295
 10
-674.0941
 20
122.9625
 10
-674.5483
 20
123.5845
 10
-675.042
 20
124.0099
 10
-675.553
 20
124.2534
 10
-676.0594
 20
124.3295
 10
-676.539
 20
124.2528
 10
-676.9915
 20
123.9935
 10
-677.4202
 20
123.527
 10
-677.8087
 20
122.8755
 10
-678.1404
 20
122.0612
 10
-678.3989
 20
121.1063
 10
-678.5676
 20
120.0331
 10
-678.6301
 20
118.8637
 10
-678.5698
 20
117.6204
 10
-678.3761
 20
116.4351
 10
-678.0674
 20
115.4259
 10
-677.6709
 20
114.5942
 10
-677.2137
 20
113.9414
 10
-676.7231
 20
113.469
 10
-676.2262
 20
113.1783
 10
-675.7501
 20
113.0708
 10
-675.3221
 20
113.1479
 10
-674.9124
 20
113.4069
 10
-674.4908
 20
113.8401
 10
-674.0838
 20
114.4417
 10
-673.7176
 20
115.2059
 10
-673.4186
 20
116.1268
 10
-673.2133
 20
117.1986
 10
-673.128
 20
118.4156
 10
-673.1891
 20
119.7718
  0
LWPOLYLINE
  5
7C
330
1F
100
AcDbEntity
  8
Layer 1
 62
     7
370
    18
100
AcDbPolyline
 90
       33
 70
     1
 43
0.0
 10
-675.566
 20
118.5425
 10
-675.5277
 20
118.757
 10
-675.52
 20
118.9676
 10
-675.5411
 20
119.169
 10
-675.5892
 20
119.3558
 10
-675.6626
 20
119.5228
 10
-675.7593
 20
119.6647
 10
-675.8777
 20
119.7762
 10
-676.0158
 20
119.852
 10
-676.1641
 20
119.8856
 10
-676.3125
 20
119.876
 10
-676.4573
 20
119.8264
 10
-676.5944
 20
119.7398
 10
-676.7199
 20
119.6193
 10
-676.8299
 20
119.468
 10
-676.9205
 20
119.289
 10
-676.9878
 20
119.0855
 10
-677.0257
 20
118.8706
 10
-677.0332
 20
118.6598
 10
-677.0121
 20
118.4584
 10
-676.964
 20
118.2717
 10
-676.8908
 20
118.1048
 10
-676.7942
 20
117.9631
 10
-676.676
 20
117.8518
 10
-676.538
 20
117.776
 10
-676.3897
 20
117.7424
 10
-676.2412
 20
117.752
 10
-676.0965
 20
117.8016
 10
-675.9594
 20
117.8883
 10
-675.8339
 20
118.0088
 10
-675.7238
 20
118.16
 10
-675.6332
 20
118.339
 10
-675.566
 20
118.5425
  0
LWPOLYLINE
  5
7D
330
1F
100
AcDbEntity
  8
Layer 1
 62
     7
370
    18
100
AcDbPolyline
 90
       33
 70
     1
 43
0.0
 10
-684.4456
 20
124.6944
 10
-684.4161
 20
125.847
 10
-684.5331
 20
126.8085
 10
-684.7724
 20
127.588
 10
-685.1095
 20
128.1948
 10
-685.5202
 20
128.6381
 10
-685.9802
 20
128.927
 10
-686.4652
 20
129.0706
 10
-686.9509
 20
129.0783
 10
-687.4421
 20
128.9242
 10
-687.9466
 20
128.5875
 10
-688.4442
 20
128.085
 10
-688.9147
 20
127.4331
 10
-689.3379
 20
126.6486
 10
-689.6937
 20
125.7481
 10
-689.962
 20
124.7483
 10
-690.1224
 20
123.6657
 10
-690.1412
 20
122.6127
 10
-690.0158
 20
121.694
 10
-689.7725
 20
120.915
 10
-689.438
 20
120.2811
 10
-689.0386
 20
119.7977
 10
-688.6008
 20
119.4703
 10
-688.1512
 20
119.3041
 10
-687.7162
 20
119.3048
 10
-687.2671
 20
119.4653
 10
-686.7756
 20
119.7743
 10
-686.2685
 20
120.2309
 10
-685.773
 20
120.8342
 10
-685.3159
 20
121.5832
 10
-684.9243
 20
122.4768
 10
-684.6252
 20
123.5142
 10
-684.4456
 20
124.6944
  0
LWPOLYLINE
  5
7E
330
1F
100
AcDbEntity
  8
Layer 1
 62
     7
370
    18
100
AcDbPolyline
 90
       33
 70
     1
 43
0.0
 10
-687.0026
 20
123.9997
 10
-686.9272
 20
124.1791
 10
-686.8826
 20
124.3597
 10
-686.8679
 20
124.5368
 10
-686.8822
 20
124.7054
 10
-686.9248
 20
124.8607
 10
-686.9949
 20
124.998
 10
-687.0916
 20
125.1123
 10
-687.2141
 20
125.1989
 10
-687.3541
 20
125.2507
 10
-687.5019
 20
125.2653
 10
-687.6531
 20
125.2447
 10
-687.8033
 20
125.191
 10
-687.948
 20
125.1061
 10
-688.0828
 20
124.9923
 10
-688.2034
 20
124.8514
 10
-688.3052
 20
124.6856
 10
-688.381
 20
124.5062
 10
-688.4259
 20
124.3256
 10
-688.4407
 20
124.1486
 10
-688.4264
 20
123.98
 10
-688.3838
 20
123.8246
 10
-688.3138
 20
123.6873
 10
-688.2173
 20
123.573
 10
-688.0952
 20
123.4864
 10
-687.9548
 20
123.4346
 10
-687.8068
 20
123.42
 10
-687.6555
 20
123.4406
 10
-687.5053
 20
123.4944
 10
-687.3605
 20
123.5792
 10
-687.2256
 20
123.693
 10
-687.1048
 20
123.8339
 10
-687.0026
 20
123.9997
  0
LWPOLYLINE
  5
7F
330
1F
100
AcDbEntity
  8
Layer 1
 62
     7
370
    18
100
AcDbPolyline
 90
       33
 70
     1
 43
0.0
 10
-694.9292
 20
132.5075
 10
-694.5744
 20
133.5226
 10
-694.4042
 20
134.4094
 10
-694.3944
 20
135.1694
 10
-694.5208
 20
135.8036
 10
-694.7591
 20
136.3135
 10
-695.0852
 20
136.7003
 10
-695.4749
 20
136.9652
 10
-695.9039
 20
137.1095
 10
-696.384
 20
137.1118
 10
-696.928
 20
136.9557
 10
-697.5131
 20
136.6504
 10
-698.1167
 20
136.2048
 10
-698.7161
 20
135.6281
 10
-699.2888
 20
134.9293
 10
-699.8119
 20
134.1175
 10
-700.263
 20
133.2017
 10
-700.5799
 20
132.272
 10
-700.7305
 20
131.4207
 10
-700.7366
 20
130.6602
 10
-700.6202
 20
130.0026
 10
-700.4034
 20
129.4603
 10
-700.108
 20
129.0456
 10
-699.7562
 20
128.7708
 10
-699.3698
 20
128.6482
 10
-698.9253
 20
128.6635
 10
-698.4007
 20
128.7987
 10
-697.8203
 20
129.0605
 10
-697.2083
 20
129.4559
 10
-696.5889
 20
129.9914
 10
-695.9864
 20
130.674
 10
-695.4251
 20
131.5105
 10
-694.9292
 20
132.5075
  0
LWPOLYLINE
  5
80
330
1F
100
AcDbEntity
  8
Layer 1
 62
     7
370
    18
100
AcDbPolyline
 90
       33
 70
     1
 43
0.0
 10
-697.4602
 20
132.5144
 10
-697.4058
 20
132.6875
 10
-697.3803
 20
132.859
 10
-697.3823
 20
133.0247
 10
-697.4107
 20
133.1799
 10
-697.4642
 20
133.3204
 10
-697.5414
 20
133.4417
 10
-697.6412
 20
133.5394
 10
-697.7624
 20
133.609
 10
-697.8971
 20
133.6447
 10
-698.0357
 20
133.6452
 10
-698.1744
 20
133.6127
 10
-698.3091
 20
133.5496
 10
-698.4359
 20
133.458
 10
-698.551
 20
133.3405
 10
-698.6504
 20
133.1991
 10
-698.7302
 20
133.0362
 10
-698.7845
 20
132.8631
 10
-698.81
 20
132.6916
 10
-698.808
 20
132.5259
 10
-698.7796
 20
132.3707
 10
-698.7262
 20
132.2302
 10
-698.6489
 20
132.1089
 10
-698.5491
 20
132.0113
 10
-698.4279
 20
131.9417
 10
-698.2933
 20
131.906
 10
-698.1548
 20
131.9055
 10
-698.0163
 20
131.9379
 10
-697.8818
 20
132.0011
 10
-697.755
 20
132.0926
 10
-697.64
 20
132.2101
 10
-697.5404
 20
132.3515
 10
-697.4602
 20
132.5144
  0
LWPOLYLINE
  5
81
330
1F
100
AcDbEntity
  8
Layer 1
 62
     7
370
    18
100
AcDbPolyline
 90
       33
 70
     1
 43
0.0
 10
-704.2071
 20
142.588
 10
-703.5331
 20
143.4271
 10
-703.0759
 20
144.2067
 10
-702.8124
 20
144.9199
 10
-702.7194
 20
145.5598
 10
-702.7735
 20
146.1197
 10
-702.9515
 20
146.5927
 10
-703.2303
 20
146.972
 10
-703.5865
 20
147.2506
 10
-704.0384
 20
147.4123
 10
-704.6034
 20
147.4459
 10
-705.2572
 20
147.3524
 10
-705.9753
 20
147.1329
 10
-706.7334
 20
146.7884
 10
-707.5071
 20
146.3199
 10
-708.2719
 20
145.7284
 10
-709.0035
 20
145.0149
 10
-709.6133
 20
144.2437
 10
-710.04
 20
143.4912
 10
-710.3002
 20
142.7761
 10
-710.4105
 20
142.1175
 10
-710.3875
 20
141.5342
 10
-710.2478
 20
141.045
 10
-710.008
 20
140.6691
 10
-709.6847
 20
140.4251
 10
-709.2605
 20
140.2918
 10
-708.7208
 20
140.2449
 10
-708.086
 20
140.299
 10
-707.3767
 20
140.4683
 10
-706.6136
 20
140.7674
 10
-705.8172
 20
141.2108
 10
-705.0082
 20
141.8128
 10
-704.2071
 20
142.588
  0
LWPOLYLINE
  5
82
330
1F
100
AcDbEntity
  8
Layer 1
 62
     7
370
    18
100
AcDbPolyline
 90
       33
 70
     1
 43
0.0
 10
-706.5911
 20
143.436
 10
-706.4819
 20
143.5811
 10
-706.4005
 20
143.7343
 10
-706.347
 20
143.891
 10
-706.3218
 20
144.0467
 10
-706.3253
 20
144.1968
 10
-706.3576
 20
144.3366
 10
-706.4192
 20
144.4617
 10
-706.5102
 20
144.5673
 10
-706.6253
 20
144.6459
 10
-706.7557
 20
144.6925
 10
-706.8972
 20
144.708
 10
-707.0451
 20
144.6933
 10
-707.1952
 20
144.6492
 10
-707.343
 20
144.5766
 10
-707.4841
 20
144.4764
 10
-707.6141
 20
144.3495
 10
-707.7233
 20
144.2044
 10
-707.8047
 20
144.0512
 10
-707.8582
 20
143.8945
 10
-707.8834
 20
143.7388
 10
-707.8799
 20
143.5887
 10
-707.8476
 20
143.4489
 10
-707.786
 20
143.3238
 10
-707.695
 20
143.2182
 10
-707.5799
 20
143.1395
 10
-707.4495
 20
143.0929
 10
-707.308
 20
143.0774
 10
-707.16
 20
143.0921
 10
-707.0099
 20
143.1362
 10
-706.8621
 20
143.2088
 10
-706.721
 20
143.309
 10
-706.5911
 20
143.436
  0
LWPOLYLINE
  5
83
330
1F
100
AcDbEntity
  8
Layer 1
 62
     7
370
    18
100
AcDbPolyline
 90
       33
 70
     1
 43
0.0
 10
-711.8526
 20
153.7563
 10
-710.9134
 20
154.3244
 10
-710.1891
 20
154.9387
 10
-709.6621
 20
155.5798
 10
-709.3149
 20
156.2285
 10
-709.13
 20
156.8654
 10
-709.0898
 20
157.4711
 10
-709.1768
 20
158.0263
 10
-709.3734
 20
158.5117
 10
-709.7024
 20
158.9188
 10
-710.1838
 20
159.2445
 10
-710.7957
 20
159.4773
 10
-711.5163
 20
159.6059
 10
-712.3238
 20
159.6189
 10
-713.1965
 20
159.505
 10
-714.1125
 20
159.2528
 10
-715.05
 20
158.8508
 10
-715.9046
 20
158.3238
 10
-716.591
 20
157.7234
 10
-717.1159
 20
157.0785
 10
-717.4859
 20
156.4184
 10
-717.7078
 20
155.7719
 10
-717.7883
 20
155.1683
 10
-717.7341
 20
154.6365
 10
-717.552
 20
154.2056
 10
-717.2355
 20
153.8436
 10
-716.7818
 20
153.5164
 10
-716.2029
 20
153.2504
 10
-715.5109
 20
153.0718
 10
-714.7178
 20
153.0068
 10
-713.8357
 20
153.0817
 10
-712.8766
 20
153.3228
 10
-711.8526
 20
153.7563
  0
LWPOLYLINE
  5
84
330
1F
100
AcDbEntity
  8
Layer 1
 62
     7
370
    18
100
AcDbPolyline
 90
       33
 70
     1
 43
0.0
 10
-713.5907
 20
155.8975
 10
-713.4349
 20
156.0001
 10
-713.2999
 20
156.1255
 10
-713.1879
 20
156.2689
 10
-713.1012
 20
156.4256
 10
-713.0418
 20
156.5906
 10
-713.0121
 20
156.7593
 10
-713.0141
 20
156.9268
 10
-713.0501
 20
157.0883
 10
-713.1182
 20
157.2327
 10
-713.2131
 20
157.3502
 10
-713.3306
 20
157.4393
 10
-713.4664
 20
157.4989
 10
-713.6162
 20
157.5277
 10
-713.7758
 20
157.5244
 10
-713.9409
 20
157.4877
 10
-714.1072
 20
157.4163
 10
-714.2634
 20
157.3142
 10
-714.3986
 20
157.1891
 10
-714.5107
 20
157.0459
 10
-714.5974
 20
156.8894
 10
-714.6568
 20
156.7243
 10
-714.6866
 20
156.5554
 10
-714.6848
 20
156.3876
 10
-714.6492
 20
156.2256
 10
-714.5807
 20
156.0816
 10
-714.4854
 20
155.9643
 10
-714.3677
 20
155.8752
 10
-714.2317
 20
155.8155
 10
-714.0818
 20
155.7866
 10
-713.9221
 20
155.7897
 10
-713.757
 20
155.8262
 10
-713.5907
 20
155.8975
  0
LWPOLYLINE
  5
85
330
1F
100
AcDbEntity
  8
Layer 1
 62
     7
370
    18
100
AcDbPolyline
 90
       33
 70
     1
 43
0.0
 10
-716.813
 20
166.8907
 10
-715.7844
 20
167.0762
 10
-714.9483
 20
167.3825
 10
-714.2929
 20
167.7856
 10
-713.8061
 20
168.2609
 10
-713.476
 20
168.7842
 10
-713.2907
 20
169.3313
 10
-713.2383
 20
169.8777
 10
-713.3069
 20
170.3993
 10
-713.52
 20
170.8964
 10
-713.8974
 20
171.3733
 10
-714.4211
 20
171.8116
 10
-715.0732
 20
172.1928
 10
-715.8359
 20
172.4984
 10
-716.6911
 20
172.7099
 10
-717.621
 20
172.8089
 10
-718.6077
 20
172.7769
 10
-719.5461
 20
172.5988
 10
-720.3429
 20
172.2914
 10
-720.9972
 20
171.8842
 10
-721.5085
 20
171.4065
 10
-721.876
 20
170.8877
 10
-722.099
 20
170.3573
 10
-722.1768
 20
169.8444
 10
-722.1087
 20
169.3787
 10
-721.8965
 20
168.928
 10
-721.5457
 20
168.4597
 10
-721.0613
 20
168.0026
 10
-720.4485
 20
167.5855
 10
-719.7122
 20
167.237
 10
-718.8575
 20
166.9859
 10
-717.8894
 20
166.8609
 10
-716.813
 20
166.8907
  0
LWPOLYLINE
  5
86
330
1F
100
AcDbEntity
  8
Layer 1
 62
     7
370
    18
100
AcDbPolyline
 90
       33
 70
     1
 43
0.0
 10
-718.1668
 20
169.0888
 10
-717.985
 20
169.0778
 10
-717.8116
 20
169.0941
 10
-717.6506
 20
169.1356
 10
-717.5061
 20
169.2
 10
-717.3819
 20
169.2852
 10
-717.2822
 20
169.3889
 10
-717.2109
 20
169.509
 10
-717.1721
 20
169.6432
 10
-717.1695
 20
169.782
 10
-717.2022
 20
169.9162
 10
-717.2669
 20
170.0426
 10
-717.3606
 20
170.1579
 10
-717.48
 20
170.2589
 10
-717.622
 20
170.3424
 10
-717.7834
 20
170.405
 10
-717.961
 20
170.4436
 10
-718.1423
 20
170.4546
 10
-718.3154
 20
170.4384
 10
-718.4761
 20
170.3969
 10
-718.6205
 20
170.3326
 10
-718.7445
 20
170.2476
 10
-718.8442
 20
170.1441
 10
-718.9155
 20
170.0244
 10
-718.9543
 20
169.8907
 10
-718.9574
 20
169.7515
 10
-718.925
 20
169.617
 10
-718.8605
 20
169.4905
 10
-718.767
 20
169.3752
 10
-718.6477
 20
169.2742
 10
-718.5057
 20
169.1906
 10
-718.3444
 20
169.1278
 10
-718.1668
 20
169.0888
  0
LWPOLYLINE
  5
87
330
1F
100
AcDbEntity
  8
Layer 1
 62
     7
370
    18
100
AcDbPolyline
 90
       33
 70
     1
 43
0.0
 10
-719.1749
 20
180.4401
 10
-718.1326
 20
180.3622
 10
-717.2461
 20
180.4495
 10
-716.5101
 20
180.6755
 10
-715.9191
 20
181.0138
 10
-715.4677
 20
181.4378
 10
-715.1505
 20
181.9209
 10
-714.9621
 20
182.4368
 10
-714.897
 20
182.9588
 10
-714.9781
 20
183.4933
 10
-715.2232
 20
184.0494
 10
-715.6197
 20
184.6047
 10
-716.1549
 20
185.1369
 10
-716.8161
 20
185.6235
 10
-717.5906
 20
186.0423
 10
-718.4658
 20
186.3708
 10
-719.4289
 20
186.5868
 10
-720.3822
 20
186.6493
 10
-721.2308
 20
186.5512
 10
-721.9668
 20
186.3208
 10
-722.5821
 20
185.9864
 10
-723.0685
 20
185.5762
 10
-723.418
 20
185.1185
 10
-723.6226
 20
184.6416
 10
-723.674
 20
184.1738
 10
-723.5822
 20
183.6844
 10
-723.3606
 20
183.1433
 10
-723.0069
 20
182.5796
 10
-722.5188
 20
182.0224
 10
-721.8939
 20
181.5008
 10
-721.1299
 20
181.0438
 10
-720.2243
 20
180.6806
 10
-719.1749
 20
180.4401
  0
LWPOLYLINE
  5
88
330
1F
100
AcDbEntity
  8
Layer 1
 62
     7
370
    18
100
AcDbPolyline
 90
       33
 70
     1
 43
0.0
 10
-719.9319
 20
182.9066
 10
-719.7587
 20
182.8503
 10
-719.5867
 20
182.8226
 10
-719.4203
 20
182.8224
 10
-719.2641
 20
182.8486
 10
-719.1225
 20
182.9
 10
-718.9999
 20
182.9754
 10
-718.9007
 20
183.0737
 10
-718.8294
 20
183.1937
 10
-718.7919
 20
183.3276
 10
-718.7897
 20
183.4658
 10
-718.8204
 20
183.6044
 10
-718.8819
 20
183.7395
 10
-718.9719
 20
183.8672
 10
-719.088
 20
183.9835
 10
-719.2281
 20
184.0847
 10
-719.3899
 20
184.1666
 10
-719.5631
 20
184.2225
 10
-719.7351
 20
184.25
 10
-719.9015
 20
184.2502
 10
-720.0577
 20
184.2241
 10
-720.1993
 20
184.1728
 10
-720.3219
 20
184.0976
 10
-720.4211
 20
183.9994
 10
-720.4924
 20
183.8795
 10
-720.5299
 20
183.7456
 10
-720.5321
 20
183.6074
 10
-720.5014
 20
183.4688
 10
-720.4399
 20
183.3337
 10
-720.3499
 20
183.206
 10
-720.2338
 20
183.0897
 10
-720.0937
 20
182.9885
 10
-719.9319
 20
182.9066
  0
LWPOLYLINE
  5
89
330
1F
100
AcDbEntity
  8
Layer 1
 62
     7
370
    18
100
AcDbPolyline
 90
       33
 70
     1
 43
0.0
 10
-718.5491
 20
193.8541
 10
-717.4755
 20
193.2886
 10
-716.4981
 20
192.8812
 10
-715.6219
 20
192.6274
 10
-714.8518
 20
192.5225
 10
-714.1928
 20
192.5618
 10
-713.6497
 20
192.7409
 10
-713.2274
 20
193.055
 10
-712.931
 20
193.4996
 10
-712.7951
 20
194.0639
 10
-712.8438
 20
194.7218
 10
-713.0665
 20
195.4458
 10
-713.4524
 20
196.2082
 10
-713.9907
 20
196.9816
 10
-714.6706
 20
197.7386
 10
-715.4815
 20
198.4514
 10
-716.4126
 20
199.0927
 10
-717.3885
 20
199.5867
 10
-718.3263
 20
199.8911
 10
-719.2038
 20
200.028
 10
-719.9987
 20
200.0194
 10
-720.689
 20
199.8875
 10
-721.2524
 20
199.6545
 10
-721.6668
 20
199.3424
 10
-721.91
 20
198.9733
 10
-722.0031
 20
198.5252
 10
-721.974
 20
197.9767
 10
-721.8103
 20
197.3505
 10
-721.4999
 20
196.6696
 10
-721.0308
 20
195.9566
 10
-720.3907
 20
195.2345
 10
-719.5675
 20
194.5261
 10
-718.5491
 20
193.8541
  0
LWPOLYLINE
  5
8A
330
1F
100
AcDbEntity
  8
Layer 1
 62
     7
370
    18
100
AcDbPolyline
 90
       33
 70
     1
 43
0.0
 10
-718.2391
 20
196.2054
 10
-718.1158
 20
196.0927
 10
-717.9826
 20
196.0043
 10
-717.8437
 20
195.941
 10
-717.7031
 20
195.9036
 10
-717.5651
 20
195.8928
 10
-717.4338
 20
195.9092
 10
-717.3133
 20
195.9538
 10
-717.2076
 20
196.0272
 10
-717.1248
 20
196.1246
 10
-717.07
 20
196.2391
 10
-717.0427
 20
196.3665
 10
-717.0426
 20
196.5027
 10
-717.0692
 20
196.6435
 10
-717.1222
 20
196.7848
 10
-717.2011
 20
196.9225
 10
-717.3055
 20
197.0524
 10
-717.4288
 20
197.1651
 10
-717.562
 20
197.2535
 10
-717.7009
 20
197.3168
 10
-717.8415
 20
197.3544
 10
-717.9795
 20
197.3654
 10
-718.1108
 20
197.3491
 10
-718.2313
 20
197.3049
 10
-718.337
 20
197.232
 10
-718.4198
 20
197.1341
 10
-718.4746
 20
197.0193
 10
-718.5019
 20
196.8917
 10
-718.502
 20
196.7553
 10
-718.4754
 20
196.6144
 10
-718.4224
 20
196.473
 10
-718.3435
 20
196.3353
 10
-718.2391
 20
196.2054
  0
LWPOLYLINE
  5
8B
330
1F
100
AcDbEntity
  8
Layer 1
 62
     7
370
    18
100
AcDbPolyline
 90
       33
 70
     1
 43
0.0
 10
-714.876
 20
205.5695
 10
-713.9465
 20
204.7907
 10
-713.0775
 20
204.1868
 10
-712.2749
 20
203.7542
 10
-711.5444
 20
203.4895
 10
-710.8919
 20
203.3892
 10
-710.3231
 20
203.4499
 10
-709.8439
 20
203.668
 10
-709.4599
 20
204.0402
 10
-709.2074
 20
204.5632
 10
-709.1156
 20
205.2165
 10
-709.1798
 20
205.971
 10
-709.3953
 20
206.7974
 10
-709.7575
 20
207.6667
 10
-710.2616
 20
208.5497
 10
-710.9031
 20
209.4172
 10
-711.6772
 20
210.24
 10
-712.5264
 20
210.9284
 10
-713.3785
 20
211.4233
 10
-714.2072
 20
211.7419
 10
-714.986
 20
211.9009
 10
-715.6887
 20
211.9174
 10
-716.2888
 20
211.8082
 10
-716.76
 20
211.5904
 10
-717.0759
 20
211.2808
 10
-717.2619
 20
210.8625
 10
-717.3496
 20
210.3202
 10
-717.3224
 20
209.6737
 10
-717.1634
 20
208.9428
 10
-716.856
 20
208.1471
 10
-716.3834
 20
207.3066
 10
-715.729
 20
206.4408
 10
-714.876
 20
205.5695
  0
LWPOLYLINE
  5
8C
330
1F
100
AcDbEntity
  8
Layer 1
 62
     7
370
    18
100
AcDbPolyline
 90
       33
 70
     1
 43
0.0
 10
-714.0745
 20
207.8015
 10
-713.978
 20
207.6655
 10
-713.8666
 20
207.5512
 10
-713.7442
 20
207.4602
 10
-713.6148
 20
207.3942
 10
-713.4821
 20
207.3547
 10
-713.3502
 20
207.3433
 10
-713.2229
 20
207.3616
 10
-713.104
 20
207.4112
 10
-713.0028
 20
207.4891
 10
-712.9251
 20
207.5894
 10
-712.8715
 20
207.7082
 10
-712.8424
 20
207.8413
 10
-712.8384
 20
207.9844
 10
-712.86
 20
208.1336
 10
-712.9077
 20
208.2847
 10
-712.982
 20
208.4336
 10
-713.0786
 20
208.5701
 10
-713.1901
 20
208.6847
 10
-713.3126
 20
208.7759
 10
-713.4422
 20
208.8421
 10
-713.575
 20
208.8817
 10
-713.7069
 20
208.8932
 10
-713.834
 20
208.8749
 10
-713.9525
 20
208.8253
 10
-714.0541
 20
208.7474
 10
-714.132
 20
208.6471
 10
-714.1857
 20
208.5282
 10
-714.2147
 20
208.3951
 10
-714.2185
 20
208.2517
 10
-714.1968
 20
208.1023
 10
-714.1489
 20
207.9508
 10
-714.0745
 20
207.8015
  0
LWPOLYLINE
  5
8D
330
1F
100
AcDbEntity
  8
Layer 1
 62
     7
370
    18
100
AcDbPolyline
 90
       33
 70
     1
 43
0.0
 10
-707.7744
 20
214.9697
 10
-707.0065
 20
213.8679
 10
-706.2576
 20
212.9622
 10
-705.5346
 20
212.2511
 10
-704.8443
 20
211.7331
 10
-704.1936
 20
211.4068
 10
-703.5894
 20
211.2708
 10
-703.0385
 20
211.3234
 10
-702.5477
 20
211.5633
 10
-702.1555
 20
211.9998
 10
-701.897
 20
212.6224
 10
-701.7748
 20
213.4003
 10
-701.7913
 20
214.3028
 10
-701.949
 20
215.2989
 10
-702.2503
 20
216.3578
 10
-702.6977
 20
217.4488
 10
-703.2936
 20
218.5409
 10
-704.0009
 20
219.5243
 10
-704.7596
 20
220.315
 10
-705.5381
 20
220.9208
 10
-706.3049
 20
221.3497
 10
-707.0285
 20
221.6093
 10
-707.6773
 20
221.7077
 10
-708.2198
 20
221.6525
 10
-708.6244
 20
221.4518
 10
-708.9217
 20
221.0972
 10
-709.1481
 20
220.5843
 10
-709.2816
 20
219.9273
 10
-709.2997
 20
219.1402
 10
-709.1803
 20
218.2368
 10
-708.9012
 20
217.2313
 10
-708.4399
 20
216.1376
 10
-707.7744
 20
214.9697
  0
LWPOLYLINE
  5
8E
330
1F
100
AcDbEntity
  8
Layer 1
 62
     7
370
    18
100
AcDbPolyline
 90
       33
 70
     1
 43
0.0
 10
-706.1242
 20
216.6075
 10
-706.0621
 20
216.4473
 10
-705.9803
 20
216.3028
 10
-705.8823
 20
216.1767
 10
-705.7714
 20
216.0719
 10
-705.6512
 20
215.991
 10
-705.525
 20
215.9369
 10
-705.3963
 20
215.9124
 10
-705.2686
 20
215.9202
 10
-705.1509
 20
215.9609
 10
-705.0511
 20
216.0305
 10
-704.9705
 20
216.1254
 10
-704.9107
 20
216.2419
 10
-704.8731
 20
216.3761
 10
-704.8592
 20
216.5243
 10
-704.8704
 20
216.6829
 10
-704.9082
 20
216.8479
 10
-704.9703
 20
217.008
 10
-705.0521
 20
217.1525
 10
-705.1501
 20
217.2786
 10
-705.261
 20
217.3835
 10
-705.3812
 20
217.4643
 10
-705.5074
 20
217.5184
 10
-705.6361
 20
217.5429
 10
-705.7638
 20
217.5351
 10
-705.881
 20
217.4944
 10
-705.9806
 20
217.4248
 10
-706.0609
 20
217.3299
 10
-706.1207
 20
217.2134
 10
-706.1584
 20
217.0792
 10
-706.1725
 20
216.931
 10
-706.1616
 20
216.7725
 10
-706.1242
 20
216.6075
  0
LWPOLYLINE
  5
8F
330
1F
100
AcDbEntity
  8
Layer 1
 62
     7
370
    18
100
AcDbPolyline
 90
       33
 70
     1
 43
0.0
 10
-652.8332
 20
211.1669
 10
-653.3581
 20
210.1238
 10
-653.6772
 20
209.1495
 10
-653.8148
 20
208.2532
 10
-653.7953
 20
207.4446
 10
-653.6432
 20
206.7329
 10
-653.3827
 20
206.1276
 10
-653.0382
 20
205.638
 10
-652.6342
 20
205.2736
 10
-652.1553
 20
205.0545
 10
-651.5861
 20
204.9943
 10
-650.9507
 20
205.0925
 10
-650.2732
 20
205.3485
 10
-649.5777
 20
205.7618
 10
-648.8886
 20
206.3319
 10
-648.2297
 20
207.0582
 10
-647.6254
 20
207.9402
 10
-647.1526
 20
208.8991
 10
-646.8592
 20
209.8401
 10
-646.7252
 20
210.7388
 10
-646.7308
 20
211.5706
 10
-646.856
 20
212.311
 10
-647.0811
 20
212.9356
 10
-647.3862
 20
213.4199
 10
-647.7513
 20
213.7393
 10
-648.1976
 20
213.9215
 10
-648.744
 20
213.9977
 10
-649.3674
 20
213.949
 10
-650.0449
 20
213.7563
 10
-650.7532
 20
213.4007
 10
-651.4694
 20
212.8633
 10
-652.1705
 20
212.125
 10
-652.8332
 20
211.1669
  0
LWPOLYLINE
  5
90
330
1F
100
AcDbEntity
  8
Layer 1
 62
     7
370
    18
100
AcDbPolyline
 90
       33
 70
     1
 43
0.0
 10
-651.0283
 20
210.1306
 10
-651.1841
 20
210.0529
 10
-651.3172
 20
209.9491
 10
-651.4256
 20
209.8235
 10
-651.5072
 20
209.6807
 10
-651.5601
 20
209.5251
 10
-651.5822
 20
209.3612
 10
-651.5716
 20
209.1934
 10
-651.5263
 20
209.0261
 10
-651.4484
 20
208.8707
 10
-651.3442
 20
208.7379
 10
-651.2182
 20
208.6297
 10
-651.0748
 20
208.5482
 10
-650.9185
 20
208.4952
 10
-650.7537
 20
208.4729
 10
-650.585
 20
208.4833
 10
-650.4167
 20
208.5284
 10
-650.2613
 20
208.6061
 10
-650.1284
 20
208.7099
 10
-650.02
 20
208.8355
 10
-649.9384
 20
208.9784
 10
-649.8853
 20
209.1342
 10
-649.863
 20
209.2984
 10
-649.8734
 20
209.4665
 10
-649.9187
 20
209.6342
 10
-649.9966
 20
209.7895
 10
-650.1008
 20
209.9222
 10
-650.2269
 20
210.0302
 10
-650.3703
 20
210.1115
 10
-650.5266
 20
210.1642
 10
-650.6913
 20
210.1863
 10
-650.86
 20
210.1757
 10
-651.0283
 20
210.1306
  0
LWPOLYLINE
  5
91
330
1F
100
AcDbEntity
  8
Layer 1
 62
     7
370
    18
100
AcDbPolyline
 90
       33
 70
     1
 43
0.0
 10
-663.964
 20
218.8516
 10
-664.1799
 20
217.7047
 10
-664.2171
 20
216.6805
 10
-664.1014
 20
215.7812
 10
-663.8589
 20
215.0093
 10
-663.5158
 20
214.367
 10
-663.0979
 20
213.8567
 10
-662.6314
 20
213.4808
 10
-662.1422
 20
213.2415
 10
-661.6213
 20
213.1625
 10
-661.0574
 20
213.2611
 10
-660.4738
 20
213.5301
 10
-659.8934
 20
213.9624
 10
-659.3393
 20
214.5508
 10
-658.8345
 20
215.2882
 10
-658.4022
 20
216.1674
 10
-658.0653
 20
217.1813
 10
-657.8762
 20
218.233
 10
-657.8545
 20
219.2182
 10
-657.9744
 20
220.1188
 10
-658.2099
 20
220.9168
 10
-658.5351
 20
221.5941
 10
-658.9243
 20
222.1326
 10
-659.3515
 20
222.5143
 10
-659.7909
 20
222.721
 10
-660.2703
 20
222.7735
 10
-660.8166
 20
222.6966
 10
-661.4024
 20
222.4784
 10
-662.0002
 20
222.107
 10
-662.5827
 20
221.5705
 10
-663.1225
 20
220.857
 10
-663.592
 20
219.9547
 10
-663.964
 20
218.8516
  0
LWPOLYLINE
  5
92
330
1F
100
AcDbEntity
  8
Layer 1
 62
     7
370
    18
100
AcDbPolyline
 90
       33
 70
     1
 43
0.0
 10
-661.9428
 20
218.3525
 10
-662.071
 20
218.2349
 10
-662.1702
 20
218.0983
 10
-662.2395
 20
217.9477
 10
-662.2784
 20
217.7878
 10
-662.2861
 20
217.6234
 10
-662.262
 20
217.4594
 10
-662.2055
 20
217.3006
 10
-662.1159
 20
217.1519
 10
-661.9979
 20
217.0241
 10
-661.8608
 20
216.9253
 10
-661.7097
 20
216.8562
 10
-661.5492
 20
216.8174
 10
-661.3843
 20
216.8097
 10
-661.2198
 20
216.8337
 10
-661.0605
 20
216.89
 10
-660.9112
 20
216.9794
 10
-660.7833
 20
217.097
 10
-660.6844
 20
217.2336
 10
-660.6152
 20
217.3842
 10
-660.5763
 20
217.5442
 10
-660.5686
 20
217.7085
 10
-660.5927
 20
217.8725
 10
-660.6495
 20
218.0313
 10
-660.7395
 20
218.18
 10
-660.8571
 20
218.3078
 10
-660.9938
 20
218.4066
 10
-661.1447
 20
218.4757
 10
-661.305
 20
218.5145
 10
-661.4698
 20
218.5222
 10
-661.6343
 20
218.4982
 10
-661.7935
 20
218.4419
 10
-661.9428
 20
218.3525
  0
LWPOLYLINE
  5
93
330
1F
100
AcDbEntity
  8
Layer 1
 62
     7
370
    18
100
AcDbPolyline
 90
       33
 70
     1
 43
0.0
 10
-676.4479
 20
223.2434
 10
-676.2918
 20
222.0869
 10
-676.0046
 20
221.1028
 10
-675.6116
 20
220.2851
 10
-675.1383
 20
219.628
 10
-674.6103
 20
219.1254
 10
-674.0528
 20
218.7716
 10
-673.4915
 20
218.5606
 10
-672.9517
 20
218.4864
 10
-672.4322
 20
218.5743
 10
-671.9279
 20
218.8443
 10
-671.4584
 20
219.2822
 10
-671.0434
 20
219.8742
 10
-670.7026
 20
220.6061
 10
-670.4555
 20
221.4641
 10
-670.3218
 20
222.4342
 10
-670.3212
 20
223.5022
 10
-670.4728
 20
224.5599
 10
-670.7624
 20
225.5021
 10
-671.1597
 20
226.3198
 10
-671.6346
 20
227.0038
 10
-672.1567
 20
227.5452
 10
-672.6957
 20
227.9348
 10
-673.2215
 20
228.1636
 10
-673.7038
 20
228.2224
 10
-674.1755
 20
228.1223
 10
-674.67
 20
227.8784
 10
-675.1575
 20
227.4881
 10
-675.6082
 20
226.9485
 10
-675.9924
 20
226.2569
 10
-676.2803
 20
225.4107
 10
-676.442
 20
224.4071
 10
-676.4479
 20
223.2434
  0
LWPOLYLINE
  5
94
330
1F
100
AcDbEntity
  8
Layer 1
 62
     7
370
    18
100
AcDbPolyline
 90
       33
 70
     1
 43
0.0
 10
-674.3712
 20
223.4011
 10
-674.4558
 20
223.2497
 10
-674.507
 20
223.0893
 10
-674.5255
 20
222.9247
 10
-674.5123
 20
222.7608
 10
-674.4681
 20
222.6023
 10
-674.3938
 20
222.454
 10
-674.2903
 20
222.3208
 10
-674.1584
 20
222.2075
 10
-674.006
 20
222.1232
 10
-673.8448
 20
222.0722
 10
-673.6795
 20
222.0538
 10
-673.5149
 20
222.0672
 10
-673.3559
 20
222.1114
 10
-673.2074
 20
222.1857
 10
-673.0741
 20
222.2892
 10
-672.9608
 20
222.4211
 10
-672.8758
 20
222.5725
 10
-672.8245
 20
222.7328
 10
-672.8059
 20
222.8974
 10
-672.8193
 20
223.0613
 10
-672.8637
 20
223.2198
 10
-672.9381
 20
223.3681
 10
-673.0418
 20
223.5013
 10
-673.1737
 20
223.6146
 10
-673.3261
 20
223.6989
 10
-673.4873
 20
223.7499
 10
-673.6526
 20
223.7683
 10
-673.8172
 20
223.755
 10
-673.9761
 20
223.7108
 10
-674.1246
 20
223.6365
 10
-674.2579
 20
223.533
 10
-674.3712
 20
223.4011
  0
LWPOLYLINE
  5
95
330
1F
100
AcDbEntity
  8
Layer 1
 62
     7
370
    18
100
AcDbPolyline
 90
       33
 70
     1
 43
0.0
 10
-688.3572
 20
224.3622
 10
-688.0969
 20
223.2245
 10
-687.7217
 20
222.2702
 10
-687.2562
 20
221.4912
 10
-686.7253
 20
220.8794
 10
-686.1539
 20
220.4265
 10
-685.5667
 20
220.1243
 10
-684.9885
 20
219.9646
 10
-684.4442
 20
219.9393
 10
-683.9348
 20
220.0736
 10
-683.457
 20
220.3879
 10
-683.0292
 20
220.8663
 10
-682.6695
 20
221.4932
 10
-682.3964
 20
222.2528
 10
-682.228
 20
223.1296
 10
-682.1828
 20
224.1077
 10
-682.279
 20
225.1714
 10
-682.5258
 20
226.2111
 10
-682.8996
 20
227.1234
 10
-683.3694
 20
227.9019
 10
-683.9043
 20
228.5404
 10
-684.4733
 20
229.0326
 10
-685.0455
 20
229.3721
 10
-685.5899
 20
229.5526
 10
-686.0755
 20
229.5678
 10
-686.5362
 20
229.4257
 10
-687.0065
 20
229.1383
 10
-687.4567
 20
228.7056
 10
-687.8567
 20
228.1277
 10
-688.1766
 20
227.4044
 10
-688.3866
 20
226.5357
 10
-688.4568
 20
225.5217
 10
-688.3572
 20
224.3622
  0
LWPOLYLINE
  5
96
330
1F
100
AcDbEntity
  8
Layer 1
 62
     7
370
    18
100
AcDbPolyline
 90
       33
 70
     1
 43
0.0
 10
-686.3031
 20
224.7063
 10
-686.3739
 20
224.5475
 10
-686.4104
 20
224.383
 10
-686.414
 20
224.2173
 10
-686.3859
 20
224.0553
 10
-686.3274
 20
223.9015
 10
-686.2398
 20
223.7607
 10
-686.1244
 20
223.6376
 10
-685.9824
 20
223.5368
 10
-685.8235
 20
223.4663
 10
-685.6586
 20
223.4301
 10
-685.4924
 20
223.4267
 10
-685.3297
 20
223.4548
 10
-685.1753
 20
223.5132
 10
-685.0338
 20
223.6004
 10
-684.9102
 20
223.7153
 10
-684.809
 20
223.8564
 10
-684.7387
 20
224.0152
 10
-684.7024
 20
224.1798
 10
-684.699
 20
224.3454
 10
-684.7272
 20
224.5075
 10
-684.7856
 20
224.6613
 10
-684.873
 20
224.802
 10
-684.9881
 20
224.9251
 10
-685.1296
 20
225.0259
 10
-685.2889
 20
225.0965
 10
-685.454
 20
225.1329
 10
-685.6203
 20
225.1365
 10
-685.7829
 20
225.1085
 10
-685.9372
 20
225.0502
 10
-686.0785
 20
224.9629
 10
-686.202
 20
224.8478
 10
-686.3031
 20
224.7063
  0
LWPOLYLINE
  5
97
330
1F
100
AcDbEntity
  8
Layer 1
 62
     7
370
    18
100
AcDbPolyline
 90
       33
 70
     1
 43
0.0
 10
-698.8901
 20
221.744
 10
-698.4698
 20
220.6759
 10
-697.9798
 20
219.8095
 10
-697.4404
 20
219.1324
 10
-696.8721
 20
218.6316
 10
-696.2951
 20
218.2945
 10
-695.7298
 20
218.1084
 10
-695.1966
 20
218.0606
 10
-694.7157
 20
218.1383
 10
-694.2924
 20
218.3662
 10
-693.9272
 20
218.7648
 10
-693.6335
 20
219.3152
 10
-693.4246
 20
219.9986
 10
-693.314
 20
220.796
 10
-693.3149
 20
221.6886
 10
-693.4407
 20
222.6576
 10
-693.7049
 20
223.684
 10
-694.0969
 20
224.6584
 10
-694.5785
 20
225.4838
 10
-695.1216
 20
226.1598
 10
-695.6979
 20
226.686
 10
-696.2794
 20
227.0621
 10
-696.8378
 20
227.2877
 10
-697.345
 20
227.3623
 10
-697.7728
 20
227.2858
 10
-698.1522
 20
227.0594
 10
-698.5154
 20
226.6885
 10
-698.8364
 20
226.1788
 10
-699.0888
 20
225.5359
 10
-699.2466
 20
224.7654
 10
-699.2836
 20
223.8728
 10
-699.1735
 20
222.8638
 10
-698.8901
 20
221.744
  0
LWPOLYLINE
  5
98
330
1F
100
AcDbEntity
  8
Layer 1
 62
     7
370
    18
100
AcDbPolyline
 90
       33
 70
     1
 43
0.0
 10
-697.1495
 20
222.4691
 10
-697.1849
 20
222.3
 10
-697.1893
 20
222.1316
 10
-697.1645
 20
221.9683
 10
-697.1126
 20
221.8146
 10
-697.0353
 20
221.6747
 10
-696.9348
 20
221.553
 10
-696.8128
 20
221.4539
 10
-696.6713
 20
221.3817
 10
-696.5202
 20
221.3424
 10
-696.3695
 20
221.3377
 10
-696.2234
 20
221.3655
 10
-696.0856
 20
221.4235
 10
-695.9602
 20
221.5098
 10
-695.8512
 20
221.6221
 10
-695.7624
 20
221.7583
 10
-695.6979
 20
221.9162
 10
-695.6629
 20
222.0854
 10
-695.6589
 20
222.2538
 10
-695.6839
 20
222.417
 10
-695.736
 20
222.5708
 10
-695.8134
 20
222.7107
 10
-695.914
 20
222.8324
 10
-696.036
 20
222.9315
 10
-696.1775
 20
223.0037
 10
-696.3285
 20
223.043
 10
-696.479
 20
223.0476
 10
-696.6249
 20
223.0199
 10
-696.7624
 20
222.9618
 10
-696.8876
 20
222.8755
 10
-696.9964
 20
222.7632
 10
-697.085
 20
222.627
 10
-697.1495
 20
222.4691
  0
LWPOLYLINE
  5
99
330
1F
100
AcDbEntity
  8
Layer 1
 62
     7
370
    18
100
AcDbPolyline
 90
       33
 70
     1
 43
0.0
 10
-616.9524
 20
182.747
 10
-618.115
 20
182.6083
 10
-619.1065
 20
182.3364
 10
-619.9326
 20
181.9567
 10
-620.5988
 20
181.4947
 10
-621.1106
 20
180.9758
 10
-621.4737
 20
180.4255
 10
-621.6936
 20
179.8691
 10
-621.7759
 20
179.3323
 10
-621.6952
 20
178.8133
 10
-621.4318
 20
178.3068
 10
-620.9993
 20
177.8326
 10
-620.4114
 20
177.4105
 10
-619.682
 20
177.0601
 10
-618.8249
 20
176.8014
 10
-617.8536
 20
176.6541
 10
-616.7821
 20
176.6379
 10
-615.7187
 20
176.7735
 10
-614.7692
 20
177.0484
 10
-613.9431
 20
177.4324
 10
-613.2499
 20
177.8956
 10
-612.6991
 20
178.408
 10
-612.3004
 20
178.9396
 10
-612.0632
 20
179.4602
 10
-611.9971
 20
179.9399
 10
-612.0907
 20
180.4114
 10
-612.3281
 20
180.9078
 10
-612.7127
 20
181.3993
 10
-613.2475
 20
181.8563
 10
-613.9357
 20
182.2492
 10
-614.7805
 20
182.5484
 10
-615.785
 20
182.7242
 10
-616.9524
 20
182.747
  0
LWPOLYLINE
  5
9A
330
1F
100
AcDbEntity
  8
Layer 1
 62
     7
370
    18
100
AcDbPolyline
 90
       33
 70
     1
 43
0.0
 10
-616.8248
 20
180.675
 10
-616.9754
 20
180.762
 10
-617.1355
 20
180.8155
 10
-617.3003
 20
180.8365
 10
-617.4649
 20
180.8256
 10
-617.6246
 20
180.7837
 10
-617.7744
 20
180.7116
 10
-617.9095
 20
180.6101
 10
-618.0252
 20
180.4799
 10
-618.112
 20
180.3294
 10
-618.1654
 20
180.1696
 10
-618.1862
 20
180.0054
 10
-618.1751
 20
179.8414
 10
-618.1329
 20
179.6824
 10
-618.0605
 20
179.5333
 10
-617.9586
 20
179.3987
 10
-617.828
 20
179.2835
 10
-617.6774
 20
179.197
 10
-617.5174
 20
179.1438
 10
-617.3526
 20
179.123
 10
-617.1881
 20
179.134
 10
-617.0286
 20
179.1758
 10
-616.879
 20
179.2477
 10
-616.7442
 20
179.349
 10
-616.629
 20
179.4787
 10
-616.5417
 20
179.6292
 10
-616.488
 20
179.7891
 10
-616.467
 20
179.9535
 10
-616.4779
 20
180.1177
 10
-616.5199
 20
180.2767
 10
-616.5923
 20
180.4259
 10
-616.6942
 20
180.5602
 10
-616.8248
 20
180.675
  0
LWPOLYLINE
  5
9B
330
1F
100
AcDbEntity
  8
Layer 1
 62
     7
370
    18
100
AcDbPolyline
 90
       33
 70
     1
 43
0.0
 10
-613.3337
 20
164.0272
 10
-614.5032
 20
164.0839
 10
-615.5263
 20
163.9807
 10
-616.4044
 20
163.7438
 10
-617.1386
 20
163.399
 10
-617.7302
 20
162.9726
 10
-618.1804
 20
162.4904
 10
-618.4904
 20
161.9784
 10
-618.6614
 20
161.4628
 10
-618.6688
 20
160.9377
 10
-618.4939
 20
160.3945
 10
-618.1468
 20
159.855
 10
-617.6379
 20
159.3409
 10
-616.9774
 20
158.8741
 10
-616.1756
 20
158.4764
 10
-615.2427
 20
158.1696
 10
-614.1889
 20
157.9754
 10
-613.1178
 20
157.9322
 10
-612.1355
 20
158.0453
 10
-611.2567
 20
158.2865
 10
-610.4956
 20
158.6279
 10
-609.8668
 20
159.0415
 10
-609.3846
 20
159.4992
 10
-609.0635
 20
159.9731
 10
-608.918
 20
160.4351
 10
-608.9313
 20
160.9156
 10
-609.0823
 20
161.4444
 10
-609.3791
 20
161.993
 10
-609.8299
 20
162.5326
 10
-610.4426
 20
163.0345
 10
-611.2255
 20
163.4701
 10
-612.1865
 20
163.8105
 10
-613.3337
 20
164.0272
  0
LWPOLYLINE
  5
9C
330
1F
100
AcDbEntity
  8
Layer 1
 62
     7
370
    18
100
AcDbPolyline
 90
       33
 70
     1
 43
0.0
 10
-613.5541
 20
161.9629
 10
-613.6883
 20
162.0735
 10
-613.8373
 20
162.1529
 10
-613.9964
 20
162.201
 10
-614.1606
 20
162.2178
 10
-614.3249
 20
162.2031
 10
-614.4846
 20
162.1569
 10
-614.6347
 20
162.0792
 10
-614.7702
 20
161.9699
 10
-614.8812
 20
161.8362
 10
-614.9609
 20
161.6877
 10
-615.0091
 20
161.5292
 10
-615.0259
 20
161.3656
 10
-615.0112
 20
161.2018
 10
-614.9649
 20
161.0426
 10
-614.887
 20
160.8931
 10
-614.7773
 20
160.758
 10
-614.6431
 20
160.6474
 10
-614.4941
 20
160.5682
 10
-614.335
 20
160.5202
 10
-614.1708
 20
160.5036
 10
-614.0065
 20
160.5184
 10
-613.8468
 20
160.5645
 10
-613.6967
 20
160.642
 10
-613.5612
 20
160.7509
 10
-613.4503
 20
160.8846
 10
-613.3707
 20
161.0332
 10
-613.3226
 20
161.1917
 10
-613.306
 20
161.3553
 10
-613.3208
 20
161.5191
 10
-613.3671
 20
161.6783
 10
-613.4448
 20
161.8278
 10
-613.5541
 20
161.9629
  0
LWPOLYLINE
  5
9D
330
1F
100
AcDbEntity
  8
Layer 1
 62
     7
370
    18
100
AcDbPolyline
 90
       33
 70
     1
 43
0.0
 10
-613.0164
 20
145.148
 10
-614.0618
 20
145.6736
 10
-615.0387
 20
145.9938
 10
-615.9376
 20
146.1331
 10
-616.749
 20
146.1156
 10
-617.4635
 20
145.9656
 10
-618.0715
 20
145.7074
 10
-618.5635
 20
145.3653
 10
-618.9301
 20
144.9635
 10
-619.151
 20
144.4867
 10
-619.2128
 20
143.9195
 10
-619.1157
 20
143.286
 10
-618.8604
 20
142.6102
 10
-618.4474
 20
141.9161
 10
-617.877
 20
141.2279
 10
-617.1498
 20
140.5696
 10
-616.2662
 20
139.9652
 10
-615.3051
 20
139.4918
 10
-614.3616
 20
139.1972
 10
-613.4602
 20
139.0615
 10
-612.6256
 20
139.0651
 10
-611.8824
 20
139.1882
 10
-611.2552
 20
139.4111
 10
-610.7686
 20
139.714
 10
-610.4472
 20
140.0771
 10
-610.2633
 20
140.5215
 10
-610.1856
 20
141.0659
 10
-610.233
 20
141.6873
 10
-610.4248
 20
142.363
 10
-610.7799
 20
143.0698
 10
-611.3175
 20
143.7848
 10
-612.0566
 20
144.4852
 10
-613.0164
 20
145.148
  0
LWPOLYLINE
  5
9E
330
1F
100
AcDbEntity
  8
Layer 1
 62
     7
370
    18
100
AcDbPolyline
 90
       33
 70
     1
 43
0.0
 10
-614.0593
 20
143.3511
 10
-614.1372
 20
143.5065
 10
-614.2412
 20
143.6395
 10
-614.367
 20
143.7479
 10
-614.5101
 20
143.8298
 10
-614.6662
 20
143.883
 10
-614.8307
 20
143.9055
 10
-614.9993
 20
143.8953
 10
-615.1675
 20
143.8503
 10
-615.3239
 20
143.7731
 10
-615.4574
 20
143.6696
 10
-615.5663
 20
143.5442
 10
-615.6483
 20
143.4015
 10
-615.7016
 20
143.2458
 10
-615.724
 20
143.0817
 10
-615.7136
 20
142.9135
 10
-615.6684
 20
142.7458
 10
-615.591
 20
142.5904
 10
-615.4872
 20
142.4576
 10
-615.3616
 20
142.3494
 10
-615.2186
 20
142.2677
 10
-615.0625
 20
142.2145
 10
-614.8977
 20
142.192
 10
-614.7289
 20
142.202
 10
-614.5602
 20
142.2466
 10
-614.4043
 20
142.3242
 10
-614.271
 20
142.4279
 10
-614.1623
 20
142.5533
 10
-614.0804
 20
142.696
 10
-614.0271
 20
142.8515
 10
-614.0044
 20
143.0155
 10
-614.0145
 20
143.1835
 10
-614.0593
 20
143.3511
  0
LWPOLYLINE
  5
9F
330
1F
100
AcDbEntity
  8
Layer 1
 62
     7
370
    18
100
AcDbPolyline
 90
       33
 70
     1
 43
0.0
 10
-617.9455
 20
129.1465
 10
-618.9045
 20
129.8159
 10
-619.8252
 20
130.2724
 10
-620.6948
 20
130.5386
 10
-621.5004
 20
130.6372
 10
-622.229
 20
130.5908
 10
-622.8679
 20
130.4221
 10
-623.404
 20
130.1538
 10
-623.8246
 20
129.8085
 10
-624.1118
 20
129.3682
 10
-624.2545
 20
128.8157
 10
-624.2495
 20
128.1748
 10
-624.0941
 20
127.4695
 10
-623.7851
 20
126.7236
 10
-623.3195
 20
125.9611
 10
-622.6945
 20
125.2057
 10
-621.9069
 20
124.4814
 10
-621.0238
 20
123.8756
 10
-620.1324
 20
123.4492
 10
-619.2599
 20
123.1862
 10
-618.4334
 20
123.0706
 10
-617.6801
 20
123.0862
 10
-617.0273
 20
123.2172
 10
-616.5022
 20
123.4475
 10
-616.1319
 20
123.761
 10
-615.8861
 20
124.1745
 10
-615.7308
 20
124.7022
 10
-615.6884
 20
125.324
 10
-615.7811
 20
126.02
 10
-616.0309
 20
126.7703
 10
-616.4601
 20
127.5548
 10
-617.0909
 20
128.3535
 10
-617.9455
 20
129.1465
  0
LWPOLYLINE
  5
A0
330
1F
100
AcDbEntity
  8
Layer 1
 62
     7
370
    18
100
AcDbPolyline
 90
       33
 70
     1
 43
0.0
 10
-619.237
 20
127.5182
 10
-619.2913
 20
127.6827
 10
-619.3749
 20
127.8289
 10
-619.4837
 20
127.9539
 10
-619.6136
 20
128.0552
 10
-619.7604
 20
128.1301
 10
-619.92
 20
128.176
 10
-620.0885
 20
128.1902
 10
-620.2615
 20
128.1701
 10
-620.427
 20
128.1159
 10
-620.5738
 20
128.0325
 10
-620.6993
 20
127.9239
 10
-620.8009
 20
127.7943
 10
-620.8759
 20
127.6479
 10
-620.9218
 20
127.4888
 10
-620.9359
 20
127.3212
 10
-620.9156
 20
127.1491
 10
-620.8613
 20
126.9841
 10
-620.7777
 20
126.8376
 10
-620.6689
 20
126.7123
 10
-620.539
 20
126.6108
 10
-620.3922
 20
126.5358
 10
-620.2326
 20
126.4898
 10
-620.0641
 20
126.4756
 10
-619.8911
 20
126.4957
 10
-619.7256
 20
126.5499
 10
-619.5788
 20
126.6334
 10
-619.4533
 20
126.742
 10
-619.3517
 20
126.8717
 10
-619.2767
 20
127.0183
 10
-619.2308
 20
127.1776
 10
-619.2167
 20
127.3457
 10
-619.237
 20
127.5182
  0
LWPOLYLINE
  5
A1
330
1F
100
AcDbEntity
  8
Layer 1
 62
     7
370
    18
100
AcDbPolyline
 90
       33
 70
     1
 43
0.0
 10
-625.6859
 20
116.3358
 10
-626.5497
 20
117.2787
 10
-627.4236
 20
117.9852
 10
-628.2884
 20
118.4763
 10
-629.125
 20
118.7731
 10
-629.9142
 20
118.8969
 10
-630.6367
 20
118.8687
 10
-631.2735
 20
118.7097
 10
-631.8053
 20
118.441
 10
-632.2174
 20
118.0392
 10
-632.502
 20
117.4831
 10
-632.6502
 20
116.7976
 10
-632.6531
 20
116.0075
 10
-632.5017
 20
115.1376
 10
-632.1872
 20
114.2125
 10
-631.7006
 20
113.2573
 10
-631.0331
 20
112.2965
 10
-630.2352
 20
111.4396
 10
-629.3854
 20
110.7723
 10
-628.5167
 20
110.2839
 10
-627.6618
 20
109.9639
 10
-626.8537
 20
109.8015
 10
-626.1252
 20
109.786
 10
-625.5094
 20
109.907
 10
-625.0389
 20
110.1537
 10
-624.6774
 20
110.5368
 10
-624.3853
 20
111.0633
 10
-624.1911
 20
111.7172
 10
-624.1233
 20
112.4825
 10
-624.2104
 20
113.343
 10
-624.4809
 20
114.2828
 10
-624.9633
 20
115.2857
 10
-625.6859
 20
116.3358
  0
LWPOLYLINE
  5
A2
330
1F
100
AcDbEntity
  8
Layer 1
 62
     7
370
    18
100
AcDbPolyline
 90
       33
 70
     1
 43
0.0
 10
-627.4541
 20
114.9039
 10
-627.4727
 20
115.0928
 10
-627.527
 20
115.269
 10
-627.6133
 20
115.4285
 10
-627.7279
 20
115.5676
 10
-627.8669
 20
115.6826
 10
-628.0267
 20
115.7695
 10
-628.2035
 20
115.8247
 10
-628.3934
 20
115.8443
 10
-628.583
 20
115.8258
 10
-628.7597
 20
115.7716
 10
-628.9198
 20
115.6856
 10
-629.0594
 20
115.5715
 10
-629.1747
 20
115.4331
 10
-629.262
 20
115.2741
 10
-629.3174
 20
115.0983
 10
-629.337
 20
114.9095
 10
-629.3183
 20
114.7201
 10
-629.2639
 20
114.5438
 10
-629.1773
 20
114.3842
 10
-629.0626
 20
114.2452
 10
-628.9235
 20
114.1304
 10
-628.7637
 20
114.0436
 10
-628.5872
 20
113.9886
 10
-628.3977
 20
113.9691
 10
-628.2081
 20
113.9876
 10
-628.0313
 20
114.0418
 10
-627.8713
 20
114.1278
 10
-627.7317
 20
114.2419
 10
-627.6163
 20
114.3803
 10
-627.5291
 20
114.5393
 10
-627.4737
 20
114.7151
 10
-627.4541
 20
114.9039
  0
LWPOLYLINE
  5
A3
330
1F
100
AcDbEntity
  8
Layer 1
 62
     7
370
    18
100
AcDbPolyline
 90
       33
 70
     1
 43
0.0
 10
-638.1649
 20
107.8729
 10
-638.9439
 20
108.9329
 10
-639.7116
 20
109.7348
 10
-640.4541
 20
110.3009
 10
-641.1577
 20
110.6538
 10
-641.8085
 20
110.8158
 10
-642.3926
 20
110.8095
 10
-642.8963
 20
110.6572
 10
-643.3058
 20
110.3815
 10
-643.6071
 20
109.9562
 10
-643.7922
 20
109.3579
 10
-643.8559
 20
108.6136
 10
-643.7929
 20
107.7499
 10
-643.5982
 20
106.7938
 10
-643.2665
 20
105.7719
 10
-642.7926
 20
104.7111
 10
-642.1714
 20
103.6382
 10
-641.453
 20
102.6744
 10
-640.7082
 20
101.9162
 10
-639.9627
 20
101.3529
 10
-639.2424
 20
100.974
 10
-638.573
 20
100.7691
 10
-637.9805
 20
100.7276
 10
-637.4906
 20
100.839
 10
-637.1291
 20
101.0927
 10
-636.8673
 20
101.4993
 10
-636.6737
 20
102.065
 10
-636.5701
 20
102.7733
 10
-636.5783
 20
103.6076
 10
-636.7201
 20
104.5513
 10
-637.0173
 20
105.5878
 10
-637.4916
 20
106.7005
 10
-638.1649
 20
107.8729
  0
LWPOLYLINE
  5
A4
330
1F
100
AcDbEntity
  8
Layer 1
 62
     7
370
    18
100
AcDbPolyline
 90
       33
 70
     1
 43
0.0
 10
-639.4824
 20
106.3666
 10
-639.5129
 20
106.5742
 10
-639.5715
 20
106.7687
 10
-639.6547
 20
106.9461
 10
-639.7591
 20
107.1021
 10
-639.8813
 20
107.2324
 10
-640.018
 20
107.3329
 10
-640.1657
 20
107.3992
 10
-640.321
 20
107.4272
 10
-640.4737
 20
107.4131
 10
-640.6129
 20
107.3598
 10
-640.7358
 20
107.2712
 10
-640.8398
 20
107.1513
 10
-640.9219
 20
107.0039
 10
-640.9796
 20
106.8332
 10
-641.0101
 20
106.643
 10
-641.0106
 20
106.4373
 10
-640.9796
 20
106.2297
 10
-640.9206
 20
106.0351
 10
-640.8372
 20
105.8577
 10
-640.7327
 20
105.7018
 10
-640.6103
 20
105.5715
 10
-640.4736
 20
105.471
 10
-640.3259
 20
105.4047
 10
-640.1706
 20
105.3767
 10
-640.0184
 20
105.3907
 10
-639.8795
 20
105.4441
 10
-639.7568
 20
105.5327
 10
-639.653
 20
105.6526
 10
-639.5709
 20
105.7999
 10
-639.5133
 20
105.9707
 10
-639.4829
 20
106.1609
 10
-639.4824
 20
106.3666
  0
LWPOLYLINE
  5
A5
330
1F
100
AcDbEntity
  8
Layer 1
 62
     7
370
    18
100
AcDbPolyline
 90
       33
 70
     1
 43
0.0
 10
-651.5568
 20
102.7435
 10
-651.9928
 20
104.0185
 10
-652.494
 20
105.0503
 10
-653.0405
 20
105.8544
 10
-653.6123
 20
106.4464
 10
-654.1896
 20
106.8418
 10
-654.7525
 20
107.0562
 10
-655.2811
 20
107.1053
 10
-655.7555
 20
107.0045
 10
-656.1701
 20
106.7244
 10
-656.524
 20
106.2405
 10
-656.8042
 20
105.5755
 10
-656.998
 20
104.7523
 10
-657.0925
 20
103.7938
 10
-657.0748
 20
102.7228
 10
-656.932
 20
101.5622
 10
-656.6513
 20
100.3348
 10
-656.2451
 20
99.1718
 10
-655.753
 20
98.189
 10
-655.2028
 20
97.3864
 10
-654.6226
 20
96.7641
 10
-654.0401
 20
96.322
 10
-653.4833
 20
96.0601
 10
-652.98
 20
95.9784
 10
-652.5581
 20
96.0769
 10
-652.187
 20
96.3545
 10
-651.8345
 20
96.8051
 10
-651.5265
 20
97.4217
 10
-651.2888
 20
98.197
 10
-651.1471
 20
99.124
 10
-651.1274
 20
100.1955
 10
-651.2553
 20
101.4044
 10
-651.5568
 20
102.7435
  0
LWPOLYLINE
  5
A6
330
1F
100
AcDbEntity
  8
Layer 1
 62
     7
370
    18
100
AcDbPolyline
 90
       33
 70
     1
 43
0.0
 10
-653.2645
 20
101.8469
 10
-653.2331
 20
102.0501
 10
-653.2324
 20
102.252
 10
-653.2602
 20
102.4474
 10
-653.3148
 20
102.6311
 10
-653.3939
 20
102.7978
 10
-653.4958
 20
102.9423
 10
-653.6184
 20
103.0593
 10
-653.7598
 20
103.1437
 10
-653.91
 20
103.1884
 10
-654.059
 20
103.1915
 10
-654.203
 20
103.1558
 10
-654.338
 20
103.084
 10
-654.4603
 20
102.9785
 10
-654.5659
 20
102.8422
 10
-654.6511
 20
102.6776
 10
-654.7119
 20
102.4875
 10
-654.7433
 20
102.2839
 10
-654.7442
 20
102.0816
 10
-654.7166
 20
101.886
 10
-654.6624
 20
101.7021
 10
-654.5834
 20
101.5353
 10
-654.4818
 20
101.3908
 10
-654.3594
 20
101.2737
 10
-654.2181
 20
101.1893
 10
-654.0675
 20
101.1447
 10
-653.9182
 20
101.1415
 10
-653.7742
 20
101.1773
 10
-653.6391
 20
101.2493
 10
-653.5168
 20
101.3548
 10
-653.4111
 20
101.4914
 10
-653.3257
 20
101.6563
 10
-653.2645
 20
101.8469
  0
LWPOLYLINE
  5
A7
330
1F
100
AcDbEntity
  8
Layer 1
 62
     7
370
    18
100
AcDbPolyline
 90
       33
 70
     1
 43
0.0
 10
-671.2512
 20
102.6612
 10
-671.1955
 20
103.8011
 10
-671.024
 20
104.7485
 10
-670.7576
 20
105.5131
 10
-670.417
 20
106.1044
 10
-670.023
 20
106.5322
 10
-669.5965
 20
106.8062
 10
-669.1582
 20
106.9361
 10
-668.729
 20
106.9315
 10
-668.3064
 20
106.7668
 10
-667.885
 20
106.4214
 10
-667.4814
 20
105.9122
 10
-667.1124
 20
105.2561
 10
-666.7945
 20
104.4701
 10
-666.5443
 20
103.5711
 10
-666.3784
 20
102.5762
 10
-666.3136
 20
101.5022
 10
-666.3717
 20
100.4609
 10
-666.5476
 20
99.556
 10
-666.8175
 20
98.7921
 10
-667.1578
 20
98.1739
 10
-667.5446
 20
97.7062
 10
-667.9542
 20
97.3935
 10
-668.3628
 20
97.2406
 10
-668.7467
 20
97.2522
 10
-669.1317
 20
97.422
 10
-669.5437
 20
97.7398
 10
-669.9589
 20
98.2038
 10
-670.3535
 20
98.8125
 10
-670.7038
 20
99.5643
 10
-670.986
 20
100.4574
 10
-671.1764
 20
101.4902
 10
-671.2512
 20
102.6612
  0
LWPOLYLINE
  5
A8
330
1F
100
AcDbEntity
  8
Layer 1
 62
     7
370
    18
100
AcDbPolyline
 90
       33
 70
     1
 43
0.0
 10
-669.5738
 20
102.1976
 10
-669.6509
 20
102.3624
 10
-669.7017
 20
102.5313
 10
-669.7266
 20
102.6995
 10
-669.7258
 20
102.8623
 10
-669.6998
 20
103.015
 10
-669.649
 20
103.153
 10
-669.5738
 20
103.2714
 10
-669.4745
 20
103.3657
 10
-669.3574
 20
103.4288
 10
-669.231
 20
103.4567
 10
-669.0993
 20
103.4511
 10
-668.9663
 20
103.4136
 10
-668.8359
 20
103.3458
 10
-668.7121
 20
103.2494
 10
-668.5987
 20
103.1258
 10
-668.4997
 20
102.9768
 10
-668.4221
 20
102.812
 10
-668.3711
 20
102.6432
 10
-668.3463
 20
102.475
 10
-668.3471
 20
102.3122
 10
-668.3732
 20
102.1594
 10
-668.4242
 20
102.0215
 10
-668.4996
 20
101.903
 10
-668.599
 20
101.8087
 10
-668.7161
 20
101.7461
 10
-668.8423
 20
101.7184
 10
-668.9738
 20
101.724
 10
-669.1067
 20
101.7614
 10
-669.237
 20
101.829
 10
-669.3609
 20
101.9253
 10
-669.4744
 20
102.0486
 10
-669.5738
 20
102.1976
  0
LWPOLYLINE
  5
A9
330
1F
100
AcDbEntity
  8
Layer 1
 62
     7
370
    18
100
AcDbPolyline
 90
       33
 70
     1
 43
0.0
 10
-686.0263
 20
107.3982
 10
-685.7653
 20
108.5382
 10
-685.4232
 20
109.4856
 10
-685.019
 20
110.2501
 10
-684.5719
 20
110.8415
 10
-684.1009
 20
111.2693
 10
-683.625
 20
111.5433
 10
-683.1634
 20
111.6732
 10
-682.735
 20
111.6686
 10
-682.342
 20
111.5039
 10
-681.9828
 20
111.1585
 10
-681.671
 20
110.6493
 10
-681.4201
 20
109.9932
 10
-681.2437
 20
109.2072
 10
-681.1554
 20
108.3082
 10
-681.1688
 20
107.3133
 10
-681.2974
 20
106.2393
 10
-681.543
 20
105.198
 10
-681.8818
 20
104.2931
 10
-682.2894
 20
103.5292
 10
-682.741
 20
102.911
 10
-683.212
 20
102.4433
 10
-683.6779
 20
102.1306
 10
-684.1141
 20
101.9777
 10
-684.4959
 20
101.9893
 10
-684.8503
 20
102.1591
 10
-685.205
 20
102.4769
 10
-685.5366
 20
102.9409
 10
-685.8216
 20
103.5496
 10
-686.0366
 20
104.3013
 10
-686.158
 20
105.1944
 10
-686.1624
 20
106.2273
 10
-686.0263
 20
107.3982
  0
LWPOLYLINE
  5
AA
330
1F
100
AcDbEntity
  8
Layer 1
 62
     7
370
    18
100
AcDbPolyline
 90
       33
 70
     1
 43
0.0
 10
-684.4315
 20
106.9351
 10
-684.4792
 20
107.0999
 10
-684.4997
 20
107.2687
 10
-684.4943
 20
107.4369
 10
-684.4642
 20
107.5997
 10
-684.4106
 20
107.7525
 10
-684.335
 20
107.8904
 10
-684.2384
 20
108.0089
 10
-684.1222
 20
108.1032
 10
-683.9935
 20
108.1658
 10
-683.862
 20
108.1936
 10
-683.7314
 20
108.1879
 10
-683.6052
 20
108.1506
 10
-683.487
 20
108.0829
 10
-683.3805
 20
107.9867
 10
-683.2893
 20
107.8633
 10
-683.2169
 20
107.7143
 10
-683.1696
 20
107.5495
 10
-683.1493
 20
107.3806
 10
-683.1548
 20
107.2124
 10
-683.185
 20
107.0495
 10
-683.2385
 20
106.8965
 10
-683.3143
 20
106.7583
 10
-683.4111
 20
106.6395
 10
-683.5277
 20
106.5448
 10
-683.656
 20
106.4822
 10
-683.7872
 20
106.4546
 10
-683.9178
 20
106.4605
 10
-684.044
 20
106.4981
 10
-684.1621
 20
106.566
 10
-684.2685
 20
106.6625
 10
-684.3595
 20
106.7861
 10
-684.4315
 20
106.9351
  0
LWPOLYLINE
  5
AB
330
1F
100
AcDbEntity
  8
Layer 1
 62
     7
370
    18
100
AcDbPolyline
 90
       33
 70
     1
 43
0.0
 10
-699.8322
 20
117.0622
 10
-699.3027
 20
118.1246
 10
-698.751
 20
118.9713
 10
-698.1916
 20
119.6175
 10
-697.6389
 20
120.0784
 10
-697.1075
 20
120.3691
 10
-696.6118
 20
120.505
 10
-696.1663
 20
120.501
 10
-695.7854
 20
120.3725
 10
-695.4777
 20
120.0944
 10
-695.2473
 20
119.6457
 10
-695.1017
 20
119.0472
 10
-695.0487
 20
118.3197
 10
-695.096
 20
117.484
 10
-695.2512
 20
116.5611
 10
-695.5221
 20
115.5718
 10
-695.9163
 20
114.537
 10
-696.4063
 20
113.5687
 10
-696.9441
 20
112.7634
 10
-697.5063
 20
112.1188
 10
-698.07
 20
111.6325
 10
-698.6119
 20
111.3019
 10
-699.1088
 20
111.1246
 10
-699.5376
 20
111.0982
 10
-699.8751
 20
111.2202
 10
-700.147
 20
111.4923
 10
-700.3806
 20
111.9121
 10
-700.5556
 20
112.4712
 10
-700.6514
 20
113.1613
 10
-700.6474
 20
113.9738
 10
-700.5232
 20
114.9005
 10
-700.2583
 20
115.9327
 10
-699.8322
 20
117.0622
  0
LWPOLYLINE
  5
AC
330
1F
100
AcDbEntity
  8
Layer 1
 62
     7
370
    18
100
AcDbPolyline
 90
       33
 70
     1
 43
0.0
 10
-698.5301
 20
116.1384
 10
-698.53
 20
116.3167
 10
-698.5045
 20
116.4911
 10
-698.456
 20
116.6574
 10
-698.3868
 20
116.8112
 10
-698.2992
 20
116.9482
 10
-698.1957
 20
117.0639
 10
-698.0784
 20
117.1542
 10
-697.9497
 20
117.2146
 10
-697.819
 20
117.2404
 10
-697.6947
 20
117.2303
 10
-697.5797
 20
117.187
 10
-697.4769
 20
117.1132
 10
-697.3891
 20
117.0113
 10
-697.3192
 20
116.8841
 10
-697.27
 20
116.7342
 10
-697.2445
 20
116.5641
 10
-697.2451
 20
116.3858
 10
-697.271
 20
116.2114
 10
-697.3197
 20
116.0451
 10
-697.3889
 20
115.8913
 10
-697.4764
 20
115.7543
 10
-697.5798
 20
115.6386
 10
-697.6967
 20
115.5483
 10
-697.8249
 20
115.4879
 10
-697.956
 20
115.4626
 10
-698.0805
 20
115.473
 10
-698.1955
 20
115.5165
 10
-698.2983
 20
115.5904
 10
-698.3859
 20
115.6922
 10
-698.4556
 20
115.8192
 10
-698.5046
 20
115.9688
 10
-698.5301
 20
116.1384
  0
LWPOLYLINE
  5
AD
330
1F
100
AcDbEntity
  8
Layer 1
 62
     7
370
    18
100
AcDbPolyline
 90
       33
 70
     1
 43
0.0
 10
-712.1201
 20
129.9887
 10
-711.3439
 20
130.8655
 10
-710.5889
 20
131.5346
 10
-709.8672
 20
132.0134
 10
-709.1908
 20
132.3197
 10
-708.5719
 20
132.471
 10
-708.0225
 20
132.4849
 10
-707.5547
 20
132.379
 10
-707.1807
 20
132.1708
 10
-706.9145
 20
131.8389
 10
-706.7648
 20
131.3644
 10
-706.7352
 20
130.7685
 10
-706.8297
 20
130.0727
 10
-707.0519
 20
129.2983
 10
-707.4056
 20
128.4667
 10
-707.8947
 20
127.5992
 10
-708.5229
 20
126.7172
 10
-709.2381
 20
125.9197
 10
-709.9699
 20
125.2865
 10
-710.6943
 20
124.8098
 10
-711.3875
 20
124.4821
 10
-712.0256
 20
124.2957
 10
-712.5848
 20
124.2432
 10
-713.0412
 20
124.3167
 10
-713.371
 20
124.5088
 10
-713.6008
 20
124.8269
 10
-713.7599
 20
125.275
 10
-713.8285
 20
125.8406
 10
-713.7868
 20
126.511
 10
-713.6149
 20
127.2736
 10
-713.293
 20
128.1159
 10
-712.8014
 20
129.0251
 10
-712.1201
 20
129.9887
  0
LWPOLYLINE
  5
AE
330
1F
100
AcDbEntity
  8
Layer 1
 62
     7
370
    18
100
AcDbPolyline
 90
       33
 70
     1
 43
0.0
 10
-710.9415
 20
128.822
 10
-710.9046
 20
128.9893
 10
-710.8417
 20
129.1474
 10
-710.7563
 20
129.2925
 10
-710.6517
 20
129.4213
 10
-710.5313
 20
129.53
 10
-710.3984
 20
129.6151
 10
-710.2564
 20
129.673
 10
-710.1086
 20
129.7002
 10
-709.9659
 20
129.6942
 10
-709.8373
 20
129.6561
 10
-709.7254
 20
129.5889
 10
-709.6326
 20
129.4959
 10
-709.5613
 20
129.38
 10
-709.514
 20
129.2444
 10
-709.4932
 20
129.0923
 10
-709.5013
 20
128.9267
 10
-709.5387
 20
128.7594
 10
-709.6019
 20
128.6015
 10
-709.6875
 20
128.4565
 10
-709.7922
 20
128.328
 10
-709.9125
 20
128.2193
 10
-710.0452
 20
128.1342
 10
-710.1869
 20
128.0761
 10
-710.3342
 20
128.0485
 10
-710.4769
 20
128.0549
 10
-710.6055
 20
128.0932
 10
-710.7174
 20
128.1604
 10
-710.8103
 20
128.2533
 10
-710.8816
 20
128.3691
 10
-710.9288
 20
128.5044
 10
-710.9496
 20
128.6565
 10
-710.9415
 20
128.822
  0
LWPOLYLINE
  5
AF
330
1F
100
AcDbEntity
  8
Layer 1
 62
     7
370
    18
100
AcDbPolyline
 90
       33
 70
     1
 43
0.0
 10
-721.4918
 20
146.3775
 10
-720.5406
 20
146.8286
 10
-719.6931
 20
147.0796
 10
-718.9507
 20
147.1555
 10
-718.3152
 20
147.0811
 10
-717.7881
 20
146.8813
 10
-717.3711
 20
146.581
 10
-717.0658
 20
146.205
 10
-716.8738
 20
145.7783
 10
-716.8148
 20
145.287
 10
-716.9031
 20
144.7167
 10
-717.1326
 20
144.0913
 10
-717.4972
 20
143.4348
 10
-717.9905
 20
142.7712
 10
-718.6064
 20
142.1244
 10
-719.3388
 20
141.5185
 10
-720.1815
 20
140.9774
 10
-721.0536
 20
140.5724
 10
-721.8686
 20
140.3446
 10
-722.6121
 20
140.2725
 10
-723.2693
 20
140.3346
 10
-723.8255
 20
140.5097
 10
-724.2662
 20
140.7761
 10
-724.5767
 20
141.1125
 10
-724.7424
 20
141.4975
 10
-724.78
 20
141.9538
 10
-724.7098
 20
142.5026
 10
-724.5223
 20
143.1194
 10
-724.2079
 20
143.7802
 10
-723.7572
 20
144.4606
 10
-723.1606
 20
145.1364
 10
-722.4086
 20
145.7835
 10
-721.4918
 20
146.3775
  0
LWPOLYLINE
  5
B0
330
1F
100
AcDbEntity
  8
Layer 1
 62
     7
370
    18
100
AcDbPolyline
 90
       33
 70
     1
 43
0.0
 10
-721.1025
 20
144.5121
 10
-721.0041
 20
144.6617
 10
-720.8903
 20
144.7869
 10
-720.7651
 20
144.8861
 10
-720.6325
 20
144.9576
 10
-720.4966
 20
144.9996
 10
-720.3615
 20
145.0105
 10
-720.231
 20
144.9885
 10
-720.1093
 20
144.9321
 10
-720.0047
 20
144.8441
 10
-719.9245
 20
144.7314
 10
-719.869
 20
144.5988
 10
-719.8388
 20
144.4507
 10
-719.8343
 20
144.2917
 10
-719.8561
 20
144.1264
 10
-719.9046
 20
143.9594
 10
-719.9802
 20
143.7952
 10
-720.0791
 20
143.6455
 10
-720.1933
 20
143.5201
 10
-720.3187
 20
143.4207
 10
-720.4514
 20
143.349
 10
-720.5874
 20
143.3067
 10
-720.7226
 20
143.2956
 10
-720.8531
 20
143.3174
 10
-720.9748
 20
143.3737
 10
-721.079
 20
143.4618
 10
-721.159
 20
143.5747
 10
-721.2144
 20
143.7076
 10
-721.2446
 20
143.8559
 10
-721.2491
 20
144.0152
 10
-721.2272
 20
144.1807
 10
-721.1786
 20
144.3479
 10
-721.1025
 20
144.5121
  0
LWPOLYLINE
  5
B1
330
1F
100
AcDbEntity
  8
Layer 1
 62
     7
370
    18
100
AcDbPolyline
 90
       33
 70
     1
 43
0.0
 10
-726.258
 20
158.0447
 10
-725.2913
 20
158.441
 10
-724.5383
 20
158.9153
 10
-723.9821
 20
159.4463
 10
-723.6062
 20
160.0128
 10
-723.3935
 20
160.5935
 10
-723.3274
 20
161.1671
 10
-723.3912
 20
161.7124
 10
-723.5679
 20
162.208
 10
-723.8809
 20
162.6495
 10
-724.3503
 20
163.037
 10
-724.9546
 20
163.3561
 10
-725.6724
 20
163.5925
 10
-726.4824
 20
163.7319
 10
-727.3631
 20
163.76
 10
-728.2931
 20
163.6625
 10
-729.2511
 20
163.425
 10
-730.1312
 20
163.0547
 10
-730.8456
 20
162.5877
 10
-731.3998
 20
162.0528
 10
-731.7992
 20
161.4789
 10
-732.0493
 20
160.8948
 10
-732.1558
 20
160.3295
 10
-732.124
 20
159.8118
 10
-731.9594
 20
159.3707
 10
-731.6571
 20
158.9743
 10
-731.2156
 20
158.5898
 10
-730.6458
 20
158.2441
 10
-729.9588
 20
157.9643
 10
-729.1655
 20
157.7774
 10
-728.277
 20
157.7105
 10
-727.3041
 20
157.7906
 10
-726.258
 20
158.0447
  0
LWPOLYLINE
  5
B2
330
1F
100
AcDbEntity
  8
Layer 1
 62
     7
370
    18
100
AcDbPolyline
 90
       33
 70
     1
 43
0.0
 10
-728.044
 20
159.9109
 10
-727.8641
 20
159.9382
 10
-727.6982
 20
159.9904
 10
-727.5497
 20
160.0647
 10
-727.422
 20
160.1579
 10
-727.3186
 20
160.2671
 10
-727.2429
 20
160.3892
 10
-727.1983
 20
160.5213
 10
-727.1884
 20
160.6604
 10
-727.2149
 20
160.7969
 10
-727.2749
 20
160.9214
 10
-727.3646
 20
161.0316
 10
-727.4803
 20
161.1248
 10
-727.6183
 20
161.1986
 10
-727.7746
 20
161.2505
 10
-727.9457
 20
161.2779
 10
-728.1277
 20
161.2784
 10
-728.3076
 20
161.2516
 10
-728.4735
 20
161.1997
 10
-728.622
 20
161.1257
 10
-728.7497
 20
161.0327
 10
-728.8531
 20
160.9236
 10
-728.9288
 20
160.8015
 10
-728.9734
 20
160.6694
 10
-728.9833
 20
160.5303
 10
-728.9568
 20
160.3938
 10
-728.8968
 20
160.2693
 10
-728.8071
 20
160.1591
 10
-728.6914
 20
160.0658
 10
-728.5534
 20
159.9918
 10
-728.3971
 20
159.9397
 10
-728.226
 20
159.9119
 10
-728.044
 20
159.9109
  0
LWPOLYLINE
  5
B3
330
1F
100
AcDbEntity
  8
Layer 1
 62
     7
370
    18
100
AcDbPolyline
 90
       33
 70
     1
 43
0.0
 10
-731.1267
 20
175.6721
 10
-730.0841
 20
175.7473
 10
-729.2201
 20
175.9631
 10
-728.5252
 20
176.2942
 10
-727.9904
 20
176.7152
 10
-727.6062
 20
177.2005
 10
-727.3635
 20
177.7247
 10
-727.253
 20
178.2625
 10
-727.2654
 20
178.7884
 10
-727.4242
 20
179.3053
 10
-727.7484
 20
179.8195
 10
-728.2223
 20
180.3109
 10
-728.83
 20
180.7592
 10
-729.5556
 20
181.144
 10
-730.3834
 20
181.4452
 10
-731.2974
 20
181.6423
 10
-732.2819
 20
181.7153
 10
-733.2341
 20
181.6379
 10
-734.0591
 20
181.4168
 10
-734.7533
 20
181.0814
 10
-735.3128
 20
180.6607
 10
-735.7336
 20
180.1839
 10
-736.012
 20
179.6801
 10
-736.1442
 20
179.1785
 10
-736.1263
 20
178.7082
 10
-735.9635
 20
178.2375
 10
-735.6647
 20
177.7346
 10
-735.232
 20
177.2287
 10
-734.6672
 20
176.7489
 10
-733.9723
 20
176.3242
 10
-733.1493
 20
175.9837
 10
-732.2001
 20
175.7567
 10
-731.1267
 20
175.6721
  0
LWPOLYLINE
  5
B4
330
1F
100
AcDbEntity
  8
Layer 1
 62
     7
370
    18
100
AcDbPolyline
 90
       33
 70
     1
 43
0.0
 10
-732.2384
 20
178.0023
 10
-732.0588
 20
177.9718
 10
-731.8846
 20
177.9695
 10
-731.72
 20
177.9934
 10
-731.5694
 20
178.0419
 10
-731.4368
 20
178.1132
 10
-731.3265
 20
178.2055
 10
-731.2428
 20
178.3172
 10
-731.1898
 20
178.4463
 10
-731.1723
 20
178.5843
 10
-731.1903
 20
178.7214
 10
-731.2411
 20
178.8539
 10
-731.3218
 20
178.9784
 10
-731.4296
 20
179.0913
 10
-731.5617
 20
179.1893
 10
-731.7154
 20
179.2686
 10
-731.8879
 20
179.3259
 10
-732.0674
 20
179.3563
 10
-732.2415
 20
179.3585
 10
-732.4059
 20
179.3344
 10
-732.5564
 20
179.2858
 10
-732.6889
 20
179.2144
 10
-732.7992
 20
179.1221
 10
-732.8831
 20
179.0106
 10
-732.9365
 20
178.8819
 10
-732.9539
 20
178.7439
 10
-732.9358
 20
178.6068
 10
-732.8849
 20
178.4743
 10
-732.804
 20
178.3498
 10
-732.6961
 20
178.2369
 10
-732.564
 20
178.1389
 10
-732.4105
 20
178.0596
 10
-732.2384
 20
178.0023
  0
LWPOLYLINE
  5
B5
330
1F
100
AcDbEntity
  8
Layer 1
 62
     7
370
    18
100
AcDbPolyline
 90
       33
 70
     1
 43
0.0
 10
-732.2726
 20
193.0367
 10
-731.2692
 20
192.7447
 10
-730.3839
 20
192.6465
 10
-729.6168
 20
192.7152
 10
-728.9682
 20
192.9238
 10
-728.4383
 20
193.245
 10
-728.0273
 20
193.652
 10
-727.7355
 20
194.1175
 10
-727.563
 20
194.6147
 10
-727.5309
 20
195.1543
 10
-727.6548
 20
195.749
 10
-727.9269
 20
196.3743
 10
-728.3395
 20
197.0057
 10
-728.8848
 20
197.6187
 10
-729.5552
 20
198.1887
 10
-730.3427
 20
198.6913
 10
-731.2398
 20
199.1019
 10
-732.1593
 20
199.3604
 10
-733.0099
 20
199.4401
 10
-733.7778
 20
199.3672
 10
-734.4494
 20
199.1674
 10
-735.0107
 20
198.8669
 10
-735.448
 20
198.4915
 10
-735.7474
 20
198.0674
 10
-735.8953
 20
197.6204
 10
-735.9075
 20
197.1226
 10
-735.8035
 20
196.5475
 10
-735.5751
 20
195.9229
 10
-735.2138
 20
195.2768
 10
-734.7112
 20
194.6372
 10
-734.0591
 20
194.032
 10
-733.249
 20
193.4892
 10
-732.2726
 20
193.0367
  0
LWPOLYLINE
  5
B6
330
1F
100
AcDbEntity
  8
Layer 1
 62
     7
370
    18
100
AcDbPolyline
 90
       33
 70
     1
 43
0.0
 10
-732.498
 20
195.6058
 10
-732.3408
 20
195.515
 10
-732.1786
 20
195.4525
 10
-732.016
 20
195.418
 10
-731.8578
 20
195.4113
 10
-731.7084
 20
195.4322
 10
-731.5726
 20
195.4805
 10
-731.455
 20
195.5558
 10
-731.3601
 20
195.6581
 10
-731.2955
 20
195.7814
 10
-731.2645
 20
195.9162
 10
-731.2658
 20
196.0582
 10
-731.298
 20
196.2031
 10
-731.3595
 20
196.3466
 10
-731.449
 20
196.4844
 10
-731.5651
 20
196.6122
 10
-731.7063
 20
196.7258
 10
-731.8639
 20
196.8166
 10
-732.0263
 20
196.8793
 10
-732.1889
 20
196.9139
 10
-732.3471
 20
196.9207
 10
-732.4963
 20
196.8999
 10
-732.6319
 20
196.8516
 10
-732.7495
 20
196.7761
 10
-732.8443
 20
196.6734
 10
-732.909
 20
196.5506
 10
-732.94
 20
196.4161
 10
-732.9389
 20
196.2744
 10
-732.9069
 20
196.1296
 10
-732.8454
 20
195.986
 10
-732.7558
 20
195.848
 10
-732.6396
 20
195.7198
 10
-732.498
 20
195.6058
  0
LWPOLYLINE
  5
B7
330
1F
100
AcDbEntity
  8
Layer 1
 62
     7
370
    18
100
AcDbPolyline
 90
       33
 70
     1
 43
0.0
 10
-729.8303
 20
209.434
 10
-728.8935
 20
208.6856
 10
-727.9894
 20
208.1719
 10
-727.1313
 20
207.868
 10
-726.3326
 20
207.7492
 10
-725.6067
 20
207.7907
 10
-724.967
 20
207.9679
 10
-724.4269
 20
208.2559
 10
-723.9998
 20
208.63
 10
-723.7029
 20
209.1103
 10
-723.5469
 20
209.7158
 10
-723.5354
 20
210.4204
 10
-723.6721
 20
211.1978
 10
-723.9604
 20
212.0217
 10
-724.404
 20
212.866
 10
-725.0064
 20
213.7045
 10
-725.7712
 20
214.511
 10
-726.634
 20
215.1884
 10
-727.5097
 20
215.6687
 10
-728.3708
 20
215.9691
 10
-729.1899
 20
216.1069
 10
-729.9395
 20
216.0995
 10
-730.5921
 20
215.964
 10
-731.1203
 20
215.7176
 10
-731.4966
 20
215.3778
 10
-731.7517
 20
214.9264
 10
-731.9195
 20
214.3484
 10
-731.9775
 20
213.6654
 10
-731.9032
 20
212.899
 10
-731.6739
 20
212.071
 10
-731.267
 20
211.2031
 10
-730.66
 20
210.3169
 10
-729.8303
 20
209.434
  0
LWPOLYLINE
  5
B8
330
1F
100
AcDbEntity
  8
Layer 1
 62
     7
370
    18
100
AcDbPolyline
 90
       33
 70
     1
 43
0.0
 10
-728.8244
 20
211.9025
 10
-728.6989
 20
211.7435
 10
-728.5547
 20
211.6082
 10
-728.3966
 20
211.4986
 10
-728.2299
 20
211.4168
 10
-728.0594
 20
211.3646
 10
-727.8902
 20
211.3441
 10
-727.7273
 20
211.3573
 10
-727.5757
 20
211.4062
 10
-727.4461
 20
211.4884
 10
-727.3471
 20
211.5973
 10
-727.2794
 20
211.7282
 10
-727.2434
 20
211.8766
 10
-727.2397
 20
212.0377
 10
-727.2689
 20
212.207
 10
-727.3315
 20
212.3798
 10
-727.4282
 20
212.5516
 10
-727.5532
 20
212.7106
 10
-727.6971
 20
212.846
 10
-727.8549
 20
212.9555
 10
-728.0216
 20
213.0374
 10
-728.1922
 20
213.0896
 10
-728.3616
 20
213.1101
 10
-728.5248
 20
213.0969
 10
-728.6768
 20
213.048
 10
-728.8064
 20
212.9662
 10
-728.9054
 20
212.8577
 10
-728.9732
 20
212.727
 10
-729.0092
 20
212.5787
 10
-729.0129
 20
212.4175
 10
-728.9837
 20
212.248
 10
-728.9211
 20
212.0748
 10
-728.8244
 20
211.9025
  0
LWPOLYLINE
  5
B9
330
1F
100
AcDbEntity
  8
Layer 1
 62
     7
370
    18
100
AcDbPolyline
 90
       33
 70
     1
 43
0.0
 10
-722.1318
 20
223.2844
 10
-721.2811
 20
222.4207
 10
-720.474
 20
221.7367
 10
-719.7165
 20
221.2297
 10
-719.0148
 20
220.8967
 10
-718.3749
 20
220.7347
 10
-717.8029
 20
220.7409
 10
-717.3049
 20
220.9125
 10
-716.887
 20
221.2464
 10
-716.5855
 20
221.7429
 10
-716.4315
 20
222.3845
 10
-716.4231
 20
223.1416
 10
-716.5584
 20
223.9849
 10
-716.8356
 20
224.8847
 10
-717.2528
 20
225.8116
 10
-717.8083
 20
226.7362
 10
-718.5
 20
227.629
 10
-719.2793
 20
228.395
 10
-720.0801
 20
228.9689
 10
-720.8744
 20
229.3648
 10
-721.6344
 20
229.5973
 10
-722.3323
 20
229.6805
 10
-722.9401
 20
229.629
 10
-723.43
 20
229.4571
 10
-723.7742
 20
229.179
 10
-723.9995
 20
228.7803
 10
-724.1388
 20
228.2488
 10
-724.1736
 20
227.6027
 10
-724.0854
 20
226.8599
 10
-723.8556
 20
226.0387
 10
-723.4658
 20
225.157
 10
-722.8974
 20
224.2329
 10
-722.1318
 20
223.2844
  0
LWPOLYLINE
  5
BA
330
1F
100
AcDbEntity
  8
Layer 1
 62
     7
370
    18
100
AcDbPolyline
 90
       33
 70
     1
 43
0.0
 10
-721.1196
 20
225.4304
 10
-721.0369
 20
225.2856
 10
-720.9373
 20
225.1612
 10
-720.8243
 20
225.0589
 10
-720.7019
 20
224.9809
 10
-720.5736
 20
224.9289
 10
-720.4433
 20
224.9048
 10
-720.3147
 20
224.9106
 10
-720.1916
 20
224.9482
 10
-720.0833
 20
225.0164
 10
-719.9962
 20
225.1093
 10
-719.9313
 20
225.2226
 10
-719.8895
 20
225.3524
 10
-719.8718
 20
225.4946
 10
-719.8789
 20
225.6452
 10
-719.9119
 20
225.8
 10
-719.9717
 20
225.9551
 10
-720.0548
 20
226.0999
 10
-720.1548
 20
226.2245
 10
-720.268
 20
226.3269
 10
-720.3906
 20
226.4051
 10
-720.519
 20
226.4572
 10
-720.6493
 20
226.4812
 10
-720.7779
 20
226.4753
 10
-720.9011
 20
226.4373
 10
-721.0094
 20
226.3695
 10
-721.0963
 20
226.277
 10
-721.1609
 20
226.1638
 10
-721.2024
 20
226.0341
 10
-721.2199
 20
225.8918
 10
-721.2126
 20
225.741
 10
-721.1794
 20
225.5859
 10
-721.1196
 20
225.4304
  0
LWPOLYLINE
  5
BB
330
1F
100
AcDbEntity
  8
Layer 1
 62
     7
370
    18
100
AcDbPolyline
 90
       33
 70
     1
 43
0.0
 10
-711.6985
 20
233.515
 10
-711.1395
 20
232.4406
 10
-710.5691
 20
231.5508
 10
-709.9942
 20
230.8447
 10
-709.4213
 20
230.3212
 10
-708.8572
 20
229.9793
 10
-708.3086
 20
229.818
 10
-707.782
 20
229.8364
 10
-707.2842
 20
230.0335
 10
-706.8499
 20
230.4201
 10
-706.5138
 20
230.9884
 10
-706.2829
 20
231.7098
 10
-706.1642
 20
232.5555
 10
-706.1643
 20
233.4967
 10
-706.2904
 20
234.5049
 10
-706.5493
 20
235.5512
 10
-706.9479
 20
236.6069
 10
-707.4675
 20
237.5671
 10
-708.0641
 20
238.3497
 10
-708.707
 20
238.9605
 10
-709.3652
 20
239.4049
 10
-710.0078
 20
239.6885
 10
-710.6041
 20
239.8169
 10
-711.1231
 20
239.7957
 10
-711.534
 20
239.6305
 10
-711.8667
 20
239.3152
 10
-712.1562
 20
238.8478
 10
-712.3797
 20
238.2402
 10
-712.5139
 20
237.5044
 10
-712.536
 20
236.6521
 10
-712.4228
 20
235.6952
 10
-712.1513
 20
234.6455
 10
-711.6985
 20
233.515
  0
LWPOLYLINE
  5
BC
330
1F
100
AcDbEntity
  8
Layer 1
 62
     7
370
    18
100
AcDbPolyline
 90
       33
 70
     1
 43
0.0
 10
-710.1001
 20
235.2715
 10
-710.0631
 20
235.1086
 10
-710.004
 20
234.9602
 10
-709.9259
 20
234.8292
 10
-709.8318
 20
234.7186
 10
-709.7245
 20
234.6313
 10
-709.607
 20
234.5703
 10
-709.4825
 20
234.5386
 10
-709.3537
 20
234.539
 10
-709.2303
 20
234.5721
 10
-709.1199
 20
234.6352
 10
-709.0247
 20
234.7245
 10
-708.9467
 20
234.8364
 10
-708.8878
 20
234.9672
 10
-708.8503
 20
235.1133
 10
-708.8361
 20
235.2712
 10
-708.8472
 20
235.437
 10
-708.8842
 20
235.5999
 10
-708.9433
 20
235.7483
 10
-709.0214
 20
235.8793
 10
-709.1155
 20
235.9899
 10
-709.2228
 20
236.0772
 10
-709.3402
 20
236.1382
 10
-709.4648
 20
236.1699
 10
-709.5935
 20
236.1695
 10
-709.7174
 20
236.1364
 10
-709.8279
 20
236.0734
 10
-709.9232
 20
235.9841
 10
-710.0012
 20
235.8722
 10
-710.0598
 20
235.7413
 10
-710.0972
 20
235.5952
 10
-710.1113
 20
235.4373
 10
-710.1001
 20
235.2715
  0
LWPOLYLINE
  5
BD
330
1F
100
AcDbEntity
  8
Layer 1
 62
     7
370
    18
100
AcDbPolyline
 90
       33
 70
     1
 43
0.0
 10
-698.2019
 20
239.2604
 10
-697.6429
 20
238.0402
 10
-697.0725
 20
237.0297
 10
-696.4976
 20
236.2277
 10
-695.9247
 20
235.6331
 10
-695.3606
 20
235.2449
 10
-694.812
 20
235.0617
 10
-694.2854
 20
235.0826
 10
-693.7876
 20
235.3064
 10
-693.3533
 20
235.7455
 10
-693.0172
 20
236.3909
 10
-692.7863
 20
237.2102
 10
-692.6675
 20
238.1707
 10
-692.6677
 20
239.2397
 10
-692.7938
 20
240.3846
 10
-693.0526
 20
241.5729
 10
-693.4512
 20
242.7719
 10
-693.9708
 20
243.8624
 10
-694.5675
 20
244.7513
 10
-695.2104
 20
245.4449
 10
-695.8686
 20
245.9496
 10
-696.5112
 20
246.2717
 10
-697.1075
 20
246.4175
 10
-697.6264
 20
246.3935
 10
-698.0373
 20
246.2058
 10
-698.37
 20
245.8477
 10
-698.6596
 20
245.3169
 10
-698.883
 20
244.6269
 10
-699.0173
 20
243.7912
 10
-699.0394
 20
242.8232
 10
-698.9262
 20
241.7365
 10
-698.6547
 20
240.5444
 10
-698.2019
 20
239.2604
  0
LWPOLYLINE
  5
BE
330
1F
100
AcDbEntity
  8
Layer 1
 62
     7
370
    18
100
AcDbPolyline
 90
       33
 70
     1
 43
0.0
 10
-696.6032
 20
241.2549
 10
-696.5666
 20
241.07
 10
-696.5077
 20
240.9016
 10
-696.4297
 20
240.753
 10
-696.3355
 20
240.6275
 10
-696.2282
 20
240.5284
 10
-696.1109
 20
240.4592
 10
-695.9865
 20
240.423
 10
-695.8582
 20
240.4233
 10
-695.7343
 20
240.4612
 10
-695.6236
 20
240.533
 10
-695.5282
 20
240.6344
 10
-695.4501
 20
240.7615
 10
-695.3914
 20
240.9101
 10
-695.354
 20
241.0762
 10
-695.3401
 20
241.2557
 10
-695.3517
 20
241.4444
 10
-695.3882
 20
241.6288
 10
-695.4469
 20
241.797
 10
-695.5248
 20
241.9456
 10
-695.6188
 20
242.0712
 10
-695.726
 20
242.1704
 10
-695.8433
 20
242.2398
 10
-695.9679
 20
242.2761
 10
-696.0966
 20
242.2759
 10
-696.2205
 20
242.238
 10
-696.3312
 20
242.1663
 10
-696.4266
 20
242.0648
 10
-696.5047
 20
241.9378
 10
-696.5635
 20
241.7891
 10
-696.6009
 20
241.623
 10
-696.6148
 20
241.4436
 10
-696.6032
 20
241.2549
  0
LWPOLYLINE
  5
BF
330
1F
100
AcDbEntity
  8
Layer 1
 62
     7
370
    18
100
AcDbPolyline
 90
       33
 70
     1
 43
0.0
 10
-683.3516
 20
239.5602
 10
-683.0438
 20
238.34
 10
-682.688
 20
237.3294
 10
-682.2906
 20
236.5274
 10
-681.8582
 20
235.9329
 10
-681.3971
 20
235.5446
 10
-680.9139
 20
235.3615
 10
-680.4151
 20
235.3824
 10
-679.9071
 20
235.6062
 10
-679.4204
 20
236.0453
 10
-678.9892
 20
236.6907
 10
-678.6259
 20
237.51
 10
-678.3427
 20
238.4704
 10
-678.1521
 20
239.5394
 10
-678.0662
 20
240.6844
 10
-678.0975
 20
241.8726
 10
-678.2582
 20
243.0716
 10
-678.552
 20
244.1621
 10
-678.9543
 20
245.051
 10
-679.4349
 20
245.7446
 10
-679.9637
 20
246.2493
 10
-680.5104
 20
246.5714
 10
-681.045
 20
246.7173
 10
-681.5372
 20
246.6932
 10
-681.957
 20
246.5055
 10
-682.3337
 20
246.1474
 10
-682.7008
 20
245.6166
 10
-683.034
 20
244.9266
 10
-683.3094
 20
244.091
 10
-683.503
 20
243.123
 10
-683.5905
 20
242.0362
 10
-683.5481
 20
240.8442
 10
-683.3516
 20
239.5602
  0
LWPOLYLINE
  5
C0
330
1F
100
AcDbEntity
  8
Layer 1
 62
     7
370
    18
100
AcDbPolyline
 90
       33
 70
     1
 43
0.0
 10
-682.0193
 20
241.566
 10
-681.9803
 20
241.3786
 10
-681.9167
 20
241.2078
 10
-681.8317
 20
241.0571
 10
-681.7286
 20
240.9298
 10
-681.6107
 20
240.8294
 10
-681.4812
 20
240.7592
 10
-681.3434
 20
240.7226
 10
-681.2006
 20
240.7231
 10
-681.0632
 20
240.7613
 10
-680.94
 20
240.834
 10
-680.8333
 20
240.9368
 10
-680.7453
 20
241.0657
 10
-680.6784
 20
241.2165
 10
-680.6349
 20
241.385
 10
-680.6171
 20
241.567
 10
-680.6273
 20
241.7583
 10
-680.6663
 20
241.9457
 10
-680.7299
 20
242.1165
 10
-680.8149
 20
242.2673
 10
-680.9181
 20
242.3947
 10
-681.036
 20
242.4953
 10
-681.1655
 20
242.5657
 10
-681.3033
 20
242.6026
 10
-681.4461
 20
242.6026
 10
-681.5839
 20
242.5639
 10
-681.7075
 20
242.4909
 10
-681.8144
 20
242.3878
 10
-681.9024
 20
242.2588
 10
-681.9692
 20
242.1079
 10
-682.0125
 20
241.9394
 10
-682.03
 20
241.7573
 10
-682.0193
 20
241.566
  0
LWPOLYLINE
  5
C1
330
1F
100
AcDbEntity
  8
Layer 1
 62
     7
370
    18
100
AcDbPolyline
 90
       33
 70
     1
 43
0.0
 10
-667.8294
 20
236.3102
 10
-667.8482
 20
235.0522
 10
-667.7662
 20
233.9844
 10
-667.5901
 20
233.1073
 10
-667.3263
 20
232.4216
 10
-666.9815
 20
231.9278
 10
-666.5621
 20
231.6266
 10
-666.0748
 20
231.5184
 10
-665.5261
 20
231.6039
 10
-664.9421
 20
231.9028
 10
-664.3583
 20
232.4154
 10
-663.7951
 20
233.1134
 10
-663.2727
 20
233.9684
 10
-662.8116
 20
234.9521
 10
-662.432
 20
236.0361
 10
-662.1543
 20
237.1921
 10
-661.9989
 20
238.3918
 10
-662.0003
 20
239.5209
 10
-662.1586
 20
240.4832
 10
-662.4432
 20
241.277
 10
-662.8233
 20
241.9007
 10
-663.268
 20
242.3525
 10
-663.7467
 20
242.631
 10
-664.2284
 20
242.7345
 10
-664.6826
 20
242.6612
 10
-665.1393
 20
242.4121
 10
-665.6314
 20
241.9938
 10
-666.1322
 20
241.413
 10
-666.6148
 20
240.6765
 10
-667.0525
 20
239.7911
 10
-667.4187
 20
238.7638
 10
-667.6866
 20
237.6012
 10
-667.8294
 20
236.3102
  0
LWPOLYLINE
  5
C2
330
1F
100
AcDbEntity
  8
Layer 1
 62
     7
370
    18
100
AcDbPolyline
 90
       33
 70
     1
 43
0.0
 10
-666.0222
 20
237.9061
 10
-666.0334
 20
237.7149
 10
-666.0164
 20
237.5335
 10
-665.9736
 20
237.3659
 10
-665.9071
 20
237.2162
 10
-665.8192
 20
237.0885
 10
-665.7123
 20
236.9871
 10
-665.5886
 20
236.916
 10
-665.4504
 20
236.8794
 10
-665.3075
 20
236.8814
 10
-665.1693
 20
236.9202
 10
-665.0393
 20
236.9923
 10
-664.9207
 20
237.0942
 10
-664.8169
 20
237.2226
 10
-664.7312
 20
237.374
 10
-664.6669
 20
237.545
 10
-664.6274
 20
237.7322
 10
-664.6166
 20
237.9234
 10
-664.6339
 20
238.1048
 10
-664.677
 20
238.2724
 10
-664.7436
 20
238.4221
 10
-664.8314
 20
238.5498
 10
-664.9381
 20
238.6512
 10
-665.0614
 20
238.7223
 10
-665.1992
 20
238.7589
 10
-665.3425
 20
238.7569
 10
-665.4809
 20
238.7181
 10
-665.6109
 20
238.646
 10
-665.7294
 20
238.5441
 10
-665.833
 20
238.4157
 10
-665.9186
 20
238.2643
 10
-665.9827
 20
238.0933
 10
-666.0222
 20
237.9061
  0
LWPOLYLINE
  5
C3
330
1F
100
AcDbEntity
  8
Layer 1
 62
     7
370
    18
100
AcDbPolyline
 90
       33
 70
     1
 43
0.0
 10
-652.4663
 20
227.6387
 10
-652.7099
 20
226.4042
 10
-652.8204
 20
225.3389
 10
-652.804
 20
224.4446
 10
-652.6672
 20
223.723
 10
-652.4162
 20
223.1758
 10
-652.0575
 20
222.8049
 10
-651.5973
 20
222.6118
 10
-651.0421
 20
222.5984
 10
-650.414
 20
222.7887
 10
-649.7479
 20
223.1893
 10
-649.0687
 20
223.776
 10
-648.4017
 20
224.5245
 10
-647.7719
 20
225.4104
 10
-647.2045
 20
226.4096
 10
-646.7244
 20
227.4978
 10
-646.3568
 20
228.6506
 10
-646.1561
 20
229.7618
 10
-646.1397
 20
230.7368
 10
-646.2777
 20
231.5685
 10
-646.5401
 20
232.2497
 10
-646.8968
 20
232.7734
 10
-647.318
 20
233.1324
 10
-647.7735
 20
233.3199
 10
-648.2335
 20
233.3285
 10
-648.7275
 20
233.1646
 10
-649.2866
 20
232.8405
 10
-649.8832
 20
232.358
 10
-650.4899
 20
231.7191
 10
-651.079
 20
230.9257
 10
-651.6232
 20
229.9799
 10
-652.0948
 20
228.8836
 10
-652.4663
 20
227.6387
  0
LWPOLYLINE
  5
C4
330
1F
100
AcDbEntity
  8
Layer 1
 62
     7
370
    18
100
AcDbPolyline
 90
       33
 70
     1
 43
0.0
 10
-650.4025
 20
228.888
 10
-650.4479
 20
228.7017
 10
-650.4636
 20
228.52
 10
-650.4514
 20
228.3475
 10
-650.4126
 20
228.1886
 10
-650.3489
 20
228.0475
 10
-650.2619
 20
227.9289
 10
-650.1529
 20
227.8371
 10
-650.0237
 20
227.7765
 10
-649.8827
 20
227.7526
 10
-649.7399
 20
227.7658
 10
-649.5992
 20
227.8135
 10
-649.4644
 20
227.8928
 10
-649.3395
 20
228.0008
 10
-649.2281
 20
228.1348
 10
-649.1342
 20
228.2919
 10
-649.0616
 20
228.4694
 10
-649.0167
 20
228.6553
 10
-649.0011
 20
228.8368
 10
-649.0134
 20
229.0092
 10
-649.0521
 20
229.1682
 10
-649.1156
 20
229.3092
 10
-649.2025
 20
229.4277
 10
-649.3113
 20
229.5193
 10
-649.4405
 20
229.5795
 10
-649.5816
 20
229.6035
 10
-649.7245
 20
229.5904
 10
-649.8653
 20
229.5429
 10
-650.0003
 20
229.4639
 10
-650.1253
 20
229.3561
 10
-650.2366
 20
229.2224
 10
-650.3303
 20
229.0654
 10
-650.4025
 20
228.888
  0
LWPOLYLINE
  5
C5
330
1F
100
AcDbEntity
  8
Layer 1
 62
     7
370
    18
100
AcDbPolyline
 90
       33
 70
     1
 43
0.0
 10
-637.4965
 20
216.8846
 10
-638.359
 20
216.0954
 10
-639.0046
 20
215.2976
 10
-639.4527
 20
214.5085
 10
-639.7228
 20
213.7458
 10
-639.8343
 20
213.0266
 10
-639.8066
 20
212.3685
 10
-639.6591
 20
211.789
 10
-639.4114
 20
211.3053
 10
-639.0418
 20
210.9309
 10
-638.5312
 20
210.6731
 10
-637.9022
 20
210.5399
 10
-637.1776
 20
210.5393
 10
-636.3802
 20
210.6794
 10
-635.5328
 20
210.9683
 10
-634.658
 20
211.4139
 10
-633.7787
 20
212.0244
 10
-632.995
 20
212.7534
 10
-632.3852
 20
213.5291
 10
-631.9396
 20
214.3217
 10
-631.6483
 20
215.1012
 10
-631.5014
 20
215.8377
 10
-631.4891
 20
216.5012
 10
-631.6017
 20
217.0619
 10
-631.8291
 20
217.4898
 10
-632.1813
 20
217.8181
 10
-632.6649
 20
218.0828
 10
-633.2651
 20
218.258
 10
-633.967
 20
218.3178
 10
-634.7559
 20
218.2362
 10
-635.617
 20
217.9874
 10
-636.5355
 20
217.5455
 10
-637.4965
 20
216.8846
  0
LWPOLYLINE
  5
C6
330
1F
100
AcDbEntity
  8
Layer 1
 62
     7
370
    18
100
AcDbPolyline
 90
       33
 70
     1
 43
0.0
 10
-636.1791
 20
215.2767
 10
-636.3521
 20
215.2593
 10
-636.5134
 20
215.2094
 10
-636.6594
 20
215.1305
 10
-636.7868
 20
215.0259
 10
-636.8919
 20
214.8991
 10
-636.9713
 20
214.7535
 10
-637.0215
 20
214.5926
 10
-637.039
 20
214.4197
 10
-637.0215
 20
214.2473
 10
-636.9713
 20
214.0866
 10
-636.8919
 20
213.941
 10
-636.7868
 20
213.8141
 10
-636.6594
 20
213.7094
 10
-636.5134
 20
213.6303
 10
-636.3521
 20
213.5802
 10
-636.1791
 20
213.5628
 10
-636.0057
 20
213.5802
 10
-635.8442
 20
213.6303
 10
-635.6982
 20
213.7094
 10
-635.5709
 20
213.8141
 10
-635.466
 20
213.941
 10
-635.3867
 20
214.0866
 10
-635.3367
 20
214.2473
 10
-635.3192
 20
214.4197
 10
-635.3367
 20
214.5926
 10
-635.3867
 20
214.7535
 10
-635.466
 20
214.8991
 10
-635.5709
 20
215.0259
 10
-635.6982
 20
215.1305
 10
-635.8442
 20
215.2094
 10
-636.0057
 20
215.2593
 10
-636.1791
 20
215.2767
  0
LWPOLYLINE
  5
C7
330
1F
100
AcDbEntity
  8
Layer 1
 62
     7
370
    18
100
AcDbPolyline
 90
       33
 70
     1
 43
0.0
 10
-659.1262
 20
199.9713
 10
-660.0542
 20
199.8666
 10
-660.8987
 20
199.5662
 10
-661.643
 20
199.0909
 10
-662.2704
 20
198.4613
 10
-662.7641
 20
197.6983
 10
-663.1076
 20
196.8224
 10
-663.284
 20
195.8545
 10
-663.2766
 20
194.8152
 10
-663.0805
 20
193.7764
 10
-662.7147
 20
192.8088
 10
-662.2
 20
191.9333
 10
-661.557
 20
191.1704
 10
-660.8066
 20
190.541
 10
-659.9696
 20
190.0657
 10
-659.0667
 20
189.7653
 10
-658.1187
 20
189.6606
 10
-657.1907
 20
189.7653
 10
-656.3462
 20
190.0657
 10
-655.6018
 20
190.541
 10
-654.9744
 20
191.1704
 10
-654.4804
 20
191.9333
 10
-654.1367
 20
192.8088
 10
-653.96
 20
193.7764
 10
-653.9669
 20
194.8152
 10
-654.1634
 20
195.8545
 10
-654.5294
 20
196.8224
 10
-655.0442
 20
197.6983
 10
-655.6872
 20
198.4613
 10
-656.4376
 20
199.0909
 10
-657.2747
 20
199.5662
 10
-658.1778
 20
199.8666
 10
-659.1262
 20
199.9713
  0
LWPOLYLINE
  5
C8
330
1F
100
AcDbEntity
  8
Layer 1
 62
     7
370
    18
100
AcDbPolyline
 90
       33
 70
     1
 43
0.0
 10
-659.9988
 20
193.3982
 10
-660.1282
 20
193.3001
 10
-660.2707
 20
193.2367
 10
-660.4217
 20
193.2074
 10
-660.5767
 20
193.2114
 10
-660.731
 20
193.2483
 10
-660.88
 20
193.3173
 10
-661.0192
 20
193.418
 10
-661.1439
 20
193.5496
 10
-661.2444
 20
193.7039
 10
-661.3151
 20
193.8695
 10
-661.356
 20
194.0414
 10
-661.3672
 20
194.2146
 10
-661.3488
 20
194.3839
 10
-661.3009
 20
194.5443
 10
-661.2236
 20
194.6907
 10
-661.1169
 20
194.8181
 10
-660.9874
 20
194.9162
 10
-660.8448
 20
194.9796
 10
-660.6936
 20
195.009
 10
-660.5386
 20
195.005
 10
-660.3842
 20
194.9681
 10
-660.2352
 20
194.899
 10
-660.0962
 20
194.7984
 10
-659.9719
 20
194.6668
 10
-659.871
 20
194.5124
 10
-659.8001
 20
194.3466
 10
-659.7591
 20
194.1745
 10
-659.748
 20
194.0012
 10
-659.7665
 20
193.8318
 10
-659.8146
 20
193.6714
 10
-659.8921
 20
193.5252
 10
-659.9988
 20
193.3982
  0
LWPOLYLINE
  5
C9
330
1F
100
AcDbEntity
  8
Layer 1
 62
     7
370
    18
100
AcDbPolyline
 90
       33
 70
     1
 43
0.0
 10
-677.6064
 20
210.3993
 10
-678.5339
 20
210.2946
 10
-679.3781
 20
209.9942
 10
-680.1222
 20
209.5189
 10
-680.7495
 20
208.8893
 10
-681.2434
 20
208.1263
 10
-681.587
 20
207.2505
 10
-681.7637
 20
206.2826
 10
-681.7568
 20
205.2433
 10
-681.5607
 20
204.2045
 10
-681.1949
 20
203.2369
 10
-680.6801
 20
202.3613
 10
-680.0371
 20
201.5984
 10
-679.2866
 20
200.969
 10
-678.4493
 20
200.4937
 10
-677.5461
 20
200.1933
 10
-676.5976
 20
200.0886
 10
-675.6696
 20
200.1933
 10
-674.8251
 20
200.4937
 10
-674.0807
 20
200.969
 10
-673.4534
 20
201.5984
 10
-672.9596
 20
202.3613
 10
-672.6162
 20
203.2369
 10
-672.4398
 20
204.2045
 10
-672.4472
 20
205.2433
 10
-672.6433
 20
206.2826
 10
-673.0091
 20
207.2505
 10
-673.5239
 20
208.1263
 10
-674.1669
 20
208.8893
 10
-674.9174
 20
209.5189
 10
-675.7547
 20
209.9942
 10
-676.6579
 20
210.2946
 10
-677.6064
 20
210.3993
  0
LWPOLYLINE
  5
CA
330
1F
100
AcDbEntity
  8
Layer 1
 62
     7
370
    18
100
AcDbPolyline
 90
       33
 70
     1
 43
0.0
 10
-678.4777
 20
203.8263
 10
-678.6071
 20
203.7282
 10
-678.7496
 20
203.6648
 10
-678.9006
 20
203.6354
 10
-679.0555
 20
203.6395
 10
-679.2098
 20
203.6763
 10
-679.3588
 20
203.7454
 10
-679.498
 20
203.846
 10
-679.6227
 20
203.9776
 10
-679.7236
 20
204.1319
 10
-679.7945
 20
204.2977
 10
-679.8355
 20
204.4698
 10
-679.8466
 20
204.6431
 10
-679.8281
 20
204.8125
 10
-679.78
 20
204.9729
 10
-679.7025
 20
205.1191
 10
-679.5958
 20
205.2461
 10
-679.4664
 20
205.3442
 10
-679.3239
 20
205.4076
 10
-679.1729
 20
205.437
 10
-679.0179
 20
205.433
 10
-678.8636
 20
205.3961
 10
-678.7146
 20
205.327
 10
-678.5754
 20
205.2264
 10
-678.4507
 20
205.0948
 10
-678.3502
 20
204.9405
 10
-678.2795
 20
204.7749
 10
-678.2386
 20
204.6029
 10
-678.2274
 20
204.4298
 10
-678.2458
 20
204.2605
 10
-678.2937
 20
204.1001
 10
-678.371
 20
203.9537
 10
-678.4777
 20
203.8263
  0
LWPOLYLINE
  5
CB
330
1F
100
AcDbEntity
  8
Layer 1
 62
     7
370
    18
100
AcDbPolyline
 90
       33
 70
     1
 43
0.0
 10
-694.9388
 20
207.1538
 10
-695.8663
 20
207.0491
 10
-696.7105
 20
206.7487
 10
-697.4546
 20
206.2734
 10
-698.0819
 20
205.644
 10
-698.5757
 20
204.8811
 10
-698.9193
 20
204.0056
 10
-699.096
 20
203.038
 10
-699.0891
 20
201.9992
 10
-698.893
 20
200.9599
 10
-698.5272
 20
199.992
 10
-698.0124
 20
199.1162
 10
-697.3694
 20
198.3531
 10
-696.6189
 20
197.7236
 10
-695.7816
 20
197.2482
 10
-694.8784
 20
196.9478
 10
-693.9299
 20
196.8431
 10
-693.002
 20
196.9478
 10
-692.1576
 20
197.2482
 10
-691.4135
 20
197.7236
 10
-690.7863
 20
198.3531
 10
-690.2926
 20
199.1162
 10
-689.9491
 20
199.992
 10
-689.7725
 20
200.9599
 10
-689.7795
 20
201.9992
 10
-689.9756
 20
203.038
 10
-690.3414
 20
204.0056
 10
-690.8562
 20
204.8811
 10
-691.4992
 20
205.644
 10
-692.2498
 20
206.2734
 10
-693.087
 20
206.7487
 10
-693.9903
 20
207.0491
 10
-694.9388
 20
207.1538
  0
LWPOLYLINE
  5
CC
330
1F
100
AcDbEntity
  8
Layer 1
 62
     7
370
    18
100
AcDbPolyline
 90
       33
 70
     1
 43
0.0
 10
-695.81
 20
200.5822
 10
-695.9394
 20
200.4837
 10
-696.0819
 20
200.4199
 10
-696.2329
 20
200.3903
 10
-696.3878
 20
200.3941
 10
-696.5421
 20
200.4309
 10
-696.6911
 20
200.4999
 10
-696.8303
 20
200.6005
 10
-696.9551
 20
200.7321
 10
-697.056
 20
200.8864
 10
-697.1269
 20
201.0522
 10
-697.1678
 20
201.2243
 10
-697.1789
 20
201.3976
 10
-697.1604
 20
201.567
 10
-697.1123
 20
201.7274
 10
-697.0348
 20
201.8736
 10
-696.9281
 20
202.0006
 10
-696.7987
 20
202.0987
 10
-696.6562
 20
202.1621
 10
-696.5052
 20
202.1915
 10
-696.3502
 20
202.1875
 10
-696.1959
 20
202.1506
 10
-696.0469
 20
202.0815
 10
-695.9077
 20
201.9809
 10
-695.783
 20
201.8493
 10
-695.6825
 20
201.695
 10
-695.6118
 20
201.5294
 10
-695.5709
 20
201.3575
 10
-695.5597
 20
201.1844
 10
-695.5781
 20
201.0153
 10
-695.626
 20
200.8552
 10
-695.7033
 20
200.7091
 10
-695.81
 20
200.5822
  0
LWPOLYLINE
  5
CD
330
1F
100
AcDbEntity
  8
Layer 1
 62
     7
370
    18
100
AcDbPolyline
 90
       33
 70
     1
 43
0.0
 10
-704.8245
 20
191.3463
 10
-705.7171
 20
191.2456
 10
-706.5295
 20
190.9566
 10
-707.2455
 20
190.4994
 10
-707.849
 20
189.8938
 10
-708.324
 20
189.1598
 10
-708.6545
 20
188.3174
 10
-708.8243
 20
187.3864
 10
-708.8174
 20
186.3868
 10
-708.629
 20
185.3873
 10
-708.2773
 20
184.4563
 10
-707.7823
 20
183.6139
 10
-707.1638
 20
182.8799
 10
-706.4419
 20
182.2743
 10
-705.6366
 20
181.8171
 10
-704.7677
 20
181.5281
 10
-703.8554
 20
181.4274
 10
-702.9627
 20
181.5281
 10
-702.1504
 20
181.8171
 10
-701.4344
 20
182.2743
 10
-700.8309
 20
182.8799
 10
-700.3559
 20
183.6139
 10
-700.0254
 20
184.4563
 10
-699.8556
 20
185.3873
 10
-699.8625
 20
186.3868
 10
-700.0513
 20
187.3864
 10
-700.4033
 20
188.3174
 10
-700.8986
 20
189.1598
 10
-701.5171
 20
189.8938
 10
-702.2389
 20
190.4994
 10
-703.0441
 20
190.9566
 10
-703.9126
 20
191.2456
 10
-704.8245
 20
191.3463
  0
LWPOLYLINE
  5
CE
330
1F
100
AcDbEntity
  8
Layer 1
 62
     7
370
    18
100
AcDbPolyline
 90
       33
 70
     1
 43
0.0
 10
-705.6645
 20
185.0236
 10
-705.7888
 20
184.9291
 10
-705.9258
 20
184.868
 10
-706.0709
 20
184.8396
 10
-706.2199
 20
184.8435
 10
-706.3682
 20
184.8789
 10
-706.5115
 20
184.9454
 10
-706.6455
 20
185.0424
 10
-706.7656
 20
185.1692
 10
-706.8624
 20
185.3174
 10
-706.9304
 20
185.4766
 10
-706.9698
 20
185.6419
 10
-706.9806
 20
185.8085
 10
-706.9629
 20
185.9712
 10
-706.9169
 20
186.1254
 10
-706.8426
 20
186.2661
 10
-706.7401
 20
186.3883
 10
-706.6153
 20
186.4828
 10
-706.478
 20
186.5439
 10
-706.3326
 20
186.5722
 10
-706.1835
 20
186.5684
 10
-706.035
 20
186.5329
 10
-705.8916
 20
186.4664
 10
-705.7576
 20
186.3695
 10
-705.6375
 20
186.2426
 10
-705.5407
 20
186.0944
 10
-705.4727
 20
185.9352
 10
-705.4334
 20
185.7699
 10
-705.4227
 20
185.6034
 10
-705.4406
 20
185.4406
 10
-705.4869
 20
185.2865
 10
-705.5615
 20
185.1458
 10
-705.6645
 20
185.0236
  0
LWPOLYLINE
  5
CF
330
1F
100
AcDbEntity
  8
Layer 1
 62
     7
370
    18
100
AcDbPolyline
 90
       33
 70
     1
 43
0.0
 10
-647.1007
 20
179.4773
 10
-648.0286
 20
179.3726
 10
-648.873
 20
179.0722
 10
-649.6171
 20
178.5969
 10
-650.2444
 20
177.9675
 10
-650.738
 20
177.2046
 10
-651.0815
 20
176.329
 10
-651.2581
 20
175.3614
 10
-651.2511
 20
174.3226
 10
-651.055
 20
173.2833
 10
-650.6892
 20
172.3154
 10
-650.1744
 20
171.4396
 10
-649.5313
 20
170.6766
 10
-648.7808
 20
170.047
 10
-647.9435
 20
169.5717
 10
-647.0403
 20
169.2713
 10
-646.0918
 20
169.1666
 10
-645.1639
 20
169.2713
 10
-644.3195
 20
169.5717
 10
-643.5754
 20
170.047
 10
-642.9482
 20
170.6766
 10
-642.4545
 20
171.4396
 10
-642.111
 20
172.3154
 10
-641.9344
 20
173.2833
 10
-641.9414
 20
174.3226
 10
-642.1375
 20
175.3614
 10
-642.5033
 20
176.329
 10
-643.0181
 20
177.2046
 10
-643.6612
 20
177.9675
 10
-644.4117
 20
178.5969
 10
-645.249
 20
179.0722
 10
-646.1522
 20
179.3726
 10
-647.1007
 20
179.4773
  0
LWPOLYLINE
  5
D0
330
1F
100
AcDbEntity
  8
Layer 1
 62
     7
370
    18
100
AcDbPolyline
 90
       33
 70
     1
 43
0.0
 10
-647.9719
 20
172.9056
 10
-648.1014
 20
172.8071
 10
-648.244
 20
172.7433
 10
-648.3952
 20
172.7137
 10
-648.5503
 20
172.7175
 10
-648.7047
 20
172.7543
 10
-648.8537
 20
172.8233
 10
-648.9927
 20
172.9239
 10
-649.117
 20
173.0555
 10
-649.218
 20
173.2099
 10
-649.289
 20
173.3757
 10
-649.3301
 20
173.5478
 10
-649.3415
 20
173.7211
 10
-649.3233
 20
173.8905
 10
-649.2754
 20
174.0509
 10
-649.1981
 20
174.1971
 10
-649.0914
 20
174.3241
 10
-648.9619
 20
174.4222
 10
-648.8193
 20
174.4856
 10
-648.6681
 20
174.5149
 10
-648.5131
 20
174.5109
 10
-648.3587
 20
174.474
 10
-648.2097
 20
174.405
 10
-648.0707
 20
174.3043
 10
-647.9464
 20
174.1727
 10
-647.8454
 20
174.0184
 10
-647.7744
 20
173.8528
 10
-647.7332
 20
173.6809
 10
-647.7218
 20
173.5079
 10
-647.7401
 20
173.3387
 10
-647.7879
 20
173.1786
 10
-647.8652
 20
173.0325
 10
-647.9719
 20
172.9056
  0
LWPOLYLINE
  5
D1
330
1F
100
AcDbEntity
  8
Layer 1
 62
     7
370
    18
100
AcDbPolyline
 90
       33
 70
     1
 43
0.0
 10
-646.3543
 20
157.2693
 10
-647.2822
 20
157.1645
 10
-648.1266
 20
156.864
 10
-648.8707
 20
156.3885
 10
-649.498
 20
155.7588
 10
-649.9916
 20
154.9957
 10
-650.3351
 20
154.1198
 10
-650.5117
 20
153.1521
 10
-650.5047
 20
152.1132
 10
-650.3086
 20
151.0739
 10
-649.9428
 20
150.106
 10
-649.428
 20
149.2302
 10
-648.785
 20
148.4672
 10
-648.0344
 20
147.8376
 10
-647.1972
 20
147.3623
 10
-646.2939
 20
147.0619
 10
-645.3454
 20
146.9572
 10
-644.4175
 20
147.0619
 10
-643.5731
 20
147.3623
 10
-642.829
 20
147.8376
 10
-642.2018
 20
148.4672
 10
-641.7081
 20
149.2302
 10
-641.3647
 20
150.106
 10
-641.1881
 20
151.0739
 10
-641.1951
 20
152.1132
 10
-641.3912
 20
153.1521
 10
-641.757
 20
154.1198
 10
-642.2718
 20
154.9957
 10
-642.9148
 20
155.7588
 10
-643.6653
 20
156.3885
 10
-644.5026
 20
156.864
 10
-645.4058
 20
157.1645
 10
-646.3543
 20
157.2693
  0
LWPOLYLINE
  5
D2
330
1F
100
AcDbEntity
  8
Layer 1
 62
     7
370
    18
100
AcDbPolyline
 90
       33
 70
     1
 43
0.0
 10
-647.2255
 20
150.6963
 10
-647.355
 20
150.5982
 10
-647.4976
 20
150.5348
 10
-647.6488
 20
150.5054
 10
-647.8039
 20
150.5094
 10
-647.9583
 20
150.5463
 10
-648.1073
 20
150.6153
 10
-648.2463
 20
150.716
 10
-648.3706
 20
150.8476
 10
-648.4715
 20
151.0019
 10
-648.5424
 20
151.1675
 10
-648.5834
 20
151.3394
 10
-648.5945
 20
151.5124
 10
-648.576
 20
151.6816
 10
-648.5279
 20
151.8417
 10
-648.4504
 20
151.9878
 10
-648.3437
 20
152.1147
 10
-648.2143
 20
152.2128
 10
-648.0718
 20
152.2762
 10
-647.9207
 20
152.3055
 10
-647.7658
 20
152.3015
 10
-647.6115
 20
152.2646
 10
-647.4625
 20
152.1956
 10
-647.3233
 20
152.0949
 10
-647.1986
 20
151.9633
 10
-647.0981
 20
151.809
 10
-647.0274
 20
151.6434
 10
-646.9865
 20
151.4715
 10
-646.9753
 20
151.2985
 10
-646.9936
 20
151.1293
 10
-647.0415
 20
150.9692
 10
-647.1188
 20
150.8232
 10
-647.2255
 20
150.6963
  0
LWPOLYLINE
  5
D3
330
1F
100
AcDbEntity
  8
Layer 1
 62
     7
370
    18
100
AcDbPolyline
 90
       33
 70
     1
 43
0.0
 10
-656.8587
 20
142.4022
 10
-657.7866
 20
142.2975
 10
-658.631
 20
141.9971
 10
-659.3751
 20
141.5218
 10
-660.0024
 20
140.8924
 10
-660.496
 20
140.1295
 10
-660.8395
 20
139.254
 10
-661.0161
 20
138.2864
 10
-661.0091
 20
137.2476
 10
-660.813
 20
136.2083
 10
-660.4472
 20
135.2404
 10
-659.9324
 20
134.3646
 10
-659.2894
 20
133.6016
 10
-658.5388
 20
132.972
 10
-657.7016
 20
132.4967
 10
-656.7983
 20
132.1963
 10
-655.8498
 20
132.0916
 10
-654.9219
 20
132.1963
 10
-654.0775
 20
132.4967
 10
-653.3334
 20
132.972
 10
-652.7062
 20
133.6016
 10
-652.2125
 20
134.3646
 10
-651.8691
 20
135.2404
 10
-651.6925
 20
136.2083
 10
-651.6995
 20
137.2476
 10
-651.8956
 20
138.2864
 10
-652.2614
 20
139.254
 10
-652.7762
 20
140.1295
 10
-653.4192
 20
140.8924
 10
-654.1697
 20
141.5218
 10
-655.007
 20
141.9971
 10
-655.9102
 20
142.2975
 10
-656.8587
 20
142.4022
  0
LWPOLYLINE
  5
D4
330
1F
100
AcDbEntity
  8
Layer 1
 62
     7
370
    18
100
AcDbPolyline
 90
       33
 70
     1
 43
0.0
 10
-657.7299
 20
135.8306
 10
-657.8594
 20
135.7321
 10
-658.002
 20
135.6683
 10
-658.1532
 20
135.6387
 10
-658.3083
 20
135.6425
 10
-658.4627
 20
135.6793
 10
-658.6117
 20
135.7483
 10
-658.7507
 20
135.8489
 10
-658.875
 20
135.9805
 10
-658.976
 20
136.1348
 10
-659.047
 20
136.3006
 10
-659.0881
 20
136.4727
 10
-659.0994
 20
136.646
 10
-659.081
 20
136.8154
 10
-659.0329
 20
136.9758
 10
-658.9552
 20
137.122
 10
-658.8481
 20
137.249
 10
-658.7187
 20
137.3471
 10
-658.5762
 20
137.4105
 10
-658.4251
 20
137.4399
 10
-658.2702
 20
137.4359
 10
-658.1159
 20
137.399
 10
-657.9669
 20
137.3299
 10
-657.8277
 20
137.2293
 10
-657.703
 20
137.0977
 10
-657.6025
 20
136.9434
 10
-657.5318
 20
136.7778
 10
-657.4909
 20
136.6059
 10
-657.4797
 20
136.4329
 10
-657.498
 20
136.2637
 10
-657.5459
 20
136.1036
 10
-657.6232
 20
135.9575
 10
-657.7299
 20
135.8306
  0
LWPOLYLINE
  5
D5
330
1F
100
AcDbEntity
  8
Layer 1
 62
     7
370
    18
100
AcDbPolyline
 90
       33
 70
     1
 43
0.0
 10
-674.401
 20
139.6814
 10
-675.329
 20
139.5766
 10
-676.1733
 20
139.2761
 10
-676.9175
 20
138.8006
 10
-677.5447
 20
138.1709
 10
-678.0384
 20
137.4077
 10
-678.3818
 20
136.5319
 10
-678.5584
 20
135.5642
 10
-678.5514
 20
134.5253
 10
-678.3553
 20
133.486
 10
-677.9895
 20
132.5181
 10
-677.4747
 20
131.6423
 10
-676.8317
 20
130.8793
 10
-676.0812
 20
130.2497
 10
-675.2439
 20
129.7744
 10
-674.3407
 20
129.474
 10
-673.3922
 20
129.3693
 10
-672.4643
 20
129.474
 10
-671.6199
 20
129.7744
 10
-670.8758
 20
130.2497
 10
-670.2486
 20
130.8793
 10
-669.7549
 20
131.6423
 10
-669.4114
 20
132.5181
 10
-669.2348
 20
133.486
 10
-669.2418
 20
134.5253
 10
-669.4379
 20
135.5642
 10
-669.8037
 20
136.5319
 10
-670.3185
 20
137.4077
 10
-670.9615
 20
138.1709
 10
-671.712
 20
138.8006
 10
-672.5493
 20
139.2761
 10
-673.4525
 20
139.5766
 10
-674.401
 20
139.6814
  0
LWPOLYLINE
  5
D6
330
1F
100
AcDbEntity
  8
Layer 1
 62
     7
370
    18
100
AcDbPolyline
 90
       33
 70
     1
 43
0.0
 10
-675.2723
 20
133.1083
 10
-675.4018
 20
133.0102
 10
-675.5444
 20
132.9468
 10
-675.6956
 20
132.9175
 10
-675.8507
 20
132.9215
 10
-676.005
 20
132.9584
 10
-676.154
 20
133.0274
 10
-676.293
 20
133.1281
 10
-676.4174
 20
133.2597
 10
-676.5184
 20
133.414
 10
-676.5894
 20
133.5796
 10
-676.6305
 20
133.7515
 10
-676.6419
 20
133.9245
 10
-676.6236
 20
134.0937
 10
-676.5758
 20
134.2538
 10
-676.4985
 20
134.3998
 10
-676.3918
 20
134.5267
 10
-676.2619
 20
134.6248
 10
-676.1191
 20
134.6882
 10
-675.9679
 20
134.7176
 10
-675.8129
 20
134.7136
 10
-675.6587
 20
134.6767
 10
-675.5098
 20
134.6077
 10
-675.371
 20
134.507
 10
-675.2467
 20
134.3754
 10
-675.1457
 20
134.2211
 10
-675.0747
 20
134.0555
 10
-675.0336
 20
133.8836
 10
-675.0222
 20
133.7106
 10
-675.0405
 20
133.5414
 10
-675.0883
 20
133.3813
 10
-675.1656
 20
133.2352
 10
-675.2723
 20
133.1083
  0
LWPOLYLINE
  5
D7
330
1F
100
AcDbEntity
  8
Layer 1
 62
     7
370
    18
100
AcDbPolyline
 90
       33
 70
     1
 43
0.0
 10
-692.0484
 20
150.255
 10
-692.9764
 20
150.1502
 10
-693.8209
 20
149.8497
 10
-694.5652
 20
149.3742
 10
-695.1926
 20
148.7445
 10
-695.6863
 20
147.9814
 10
-696.0298
 20
147.1056
 10
-696.2062
 20
146.1379
 10
-696.1988
 20
145.099
 10
-696.0027
 20
144.0597
 10
-695.6369
 20
143.0918
 10
-695.1221
 20
142.216
 10
-694.479
 20
141.453
 10
-693.7285
 20
140.8234
 10
-692.8912
 20
140.3481
 10
-691.988
 20
140.0477
 10
-691.0395
 20
139.943
 10
-690.112
 20
140.0477
 10
-689.2678
 20
140.3481
 10
-688.5237
 20
140.8234
 10
-687.8964
 20
141.453
 10
-687.4025
 20
142.216
 10
-687.0589
 20
143.0918
 10
-686.8822
 20
144.0597
 10
-686.8891
 20
145.099
 10
-687.0852
 20
146.1379
 10
-687.451
 20
147.1056
 10
-687.9658
 20
147.9814
 10
-688.6089
 20
148.7445
 10
-689.3594
 20
149.3742
 10
-690.1967
 20
149.8497
 10
-691.0999
 20
150.1502
 10
-692.0484
 20
150.255
  0
LWPOLYLINE
  5
D8
330
1F
100
AcDbEntity
  8
Layer 1
 62
     7
370
    18
100
AcDbPolyline
 90
       33
 70
     1
 43
0.0
 10
-692.921
 20
143.682
 10
-693.0504
 20
143.5839
 10
-693.1929
 20
143.5205
 10
-693.3439
 20
143.4911
 10
-693.4989
 20
143.4952
 10
-693.6532
 20
143.532
 10
-693.8022
 20
143.6011
 10
-693.9414
 20
143.7017
 10
-694.0661
 20
143.8333
 10
-694.1666
 20
143.9876
 10
-694.2373
 20
144.1532
 10
-694.2782
 20
144.3251
 10
-694.2894
 20
144.4982
 10
-694.271
 20
144.6673
 10
-694.2231
 20
144.8274
 10
-694.1458
 20
144.9735
 10
-694.0391
 20
145.1004
 10
-693.9096
 20
145.1985
 10
-693.767
 20
145.2619
 10
-693.6158
 20
145.2913
 10
-693.4608
 20
145.2873
 10
-693.3064
 20
145.2504
 10
-693.1574
 20
145.1813
 10
-693.0184
 20
145.0807
 10
-692.8941
 20
144.9491
 10
-692.7931
 20
144.7948
 10
-692.7221
 20
144.6292
 10
-692.681
 20
144.4573
 10
-692.6697
 20
144.2843
 10
-692.6881
 20
144.1151
 10
-692.7362
 20
143.955
 10
-692.8139
 20
143.8089
 10
-692.921
 20
143.682
  0
LWPOLYLINE
  5
D9
330
1F
100
AcDbEntity
  8
Layer 1
 62
     7
370
    18
100
AcDbPolyline
 90
       33
 70
     1
 43
0.0
 10
-703.8468
 20
169.3872
 10
-704.7206
 20
169.2886
 10
-705.5158
 20
169.0057
 10
-706.2167
 20
168.5581
 10
-706.8076
 20
167.9653
 10
-707.2728
 20
167.2468
 10
-707.5964
 20
166.4221
 10
-707.7627
 20
165.5108
 10
-707.756
 20
164.5324
 10
-707.5712
 20
163.554
 10
-707.2265
 20
162.6427
 10
-706.7417
 20
161.818
 10
-706.1361
 20
161.0996
 10
-705.4294
 20
160.5067
 10
-704.641
 20
160.0591
 10
-703.7906
 20
159.7762
 10
-702.8976
 20
159.6776
 10
-702.0239
 20
159.7762
 10
-701.2289
 20
160.0591
 10
-700.5281
 20
160.5067
 10
-699.9375
 20
161.0996
 10
-699.4726
 20
161.818
 10
-699.1492
 20
162.6427
 10
-698.9831
 20
163.554
 10
-698.9898
 20
164.5324
 10
-699.1742
 20
165.5108
 10
-699.5184
 20
166.4221
 10
-700.0031
 20
167.2468
 10
-700.6085
 20
167.9653
 10
-701.3151
 20
168.5581
 10
-702.1034
 20
169.0057
 10
-702.9538
 20
169.2886
 10
-703.8468
 20
169.3872
  0
LWPOLYLINE
  5
DA
330
1F
100
AcDbEntity
  8
Layer 1
 62
     7
370
    18
100
AcDbPolyline
 90
       33
 70
     1
 43
0.0
 10
-704.6684
 20
163.1974
 10
-704.7904
 20
163.1052
 10
-704.9247
 20
163.0455
 10
-705.067
 20
163.0179
 10
-705.2129
 20
163.0217
 10
-705.3582
 20
163.0564
 10
-705.4985
 20
163.1215
 10
-705.6295
 20
163.2163
 10
-705.7468
 20
163.3403
 10
-705.8417
 20
163.4857
 10
-705.9084
 20
163.6417
 10
-705.947
 20
163.8037
 10
-705.9575
 20
163.9668
 10
-705.9401
 20
164.1261
 10
-705.8949
 20
164.2769
 10
-705.8219
 20
164.4144
 10
-705.7213
 20
164.5338
 10
-705.5993
 20
164.6264
 10
-705.465
 20
164.6863
 10
-705.3227
 20
164.714
 10
-705.1768
 20
164.7102
 10
-705.0315
 20
164.6755
 10
-704.8912
 20
164.6106
 10
-704.7602
 20
164.516
 10
-704.6429
 20
164.3924
 10
-704.548
 20
164.247
 10
-704.4813
 20
164.0909
 10
-704.4427
 20
163.9289
 10
-704.4322
 20
163.7658
 10
-704.4496
 20
163.6062
 10
-704.4948
 20
163.4551
 10
-704.5678
 20
163.3173
 10
-704.6684
 20
163.1974
  0
LWPOLYLINE
  5
DB
330
1F
100
AcDbEntity
  8
Layer 1
 62
     7
370
    18
100
AcDbPolyline
 90
       33
 70
     1
 43
0.0
 10
-682.34
 20
191.8116
 10
-683.8272
 20
191.4441
 10
-685.1747
 20
190.9357
 10
-686.3561
 20
190.309
 10
-687.3453
 20
189.5867
 10
-688.1161
 20
188.7914
 10
-688.6422
 20
187.9456
 10
-688.8975
 20
187.072
 10
-688.8558
 20
186.1931
 10
-688.5102
 20
185.3706
 10
-687.894
 20
184.6595
 10
-687.0412
 20
184.0712
 10
-685.9858
 20
183.6171
 10
-684.7616
 20
183.3084
 10
-683.4026
 20
183.1566
 10
-681.9427
 20
183.173
 10
-680.4159
 20
183.369
 10
-678.9282
 20
183.736
 10
-677.5804
 20
184.2441
 10
-676.3988
 20
184.8705
 10
-675.4096
 20
185.5926
 10
-674.6389
 20
186.3878
 10
-674.1129
 20
187.2336
 10
-673.858
 20
188.1072
 10
-673.9002
 20
188.9861
 10
-674.2458
 20
189.8086
 10
-674.8619
 20
190.5197
 10
-675.7147
 20
191.1081
 10
-676.7701
 20
191.5623
 10
-677.9943
 20
191.8711
 10
-679.3533
 20
192.0232
 10
-680.8132
 20
192.0071
 10
-682.34
 20
191.8116
  0
LWPOLYLINE
  5
DC
330
1F
100
AcDbEntity
  8
Layer 1
 62
     7
370
    18
100
AcDbPolyline
 90
       33
 70
     1
 43
0.0
 10
-678.3343
 20
189.095
 10
-678.5093
 20
189.0766
 10
-678.6721
 20
189.024
 10
-678.8194
 20
188.9408
 10
-678.9477
 20
188.8305
 10
-679.0534
 20
188.697
 10
-679.1333
 20
188.5437
 10
-679.1837
 20
188.3744
 10
-679.2013
 20
188.1927
 10
-679.1837
 20
188.0105
 10
-679.1333
 20
187.8409
 10
-679.0534
 20
187.6874
 10
-678.9477
 20
187.5537
 10
-678.8194
 20
187.4434
 10
-678.6721
 20
187.3601
 10
-678.5093
 20
187.3075
 10
-678.3343
 20
187.2891
 10
-678.1598
 20
187.3075
 10
-677.9974
 20
187.3601
 10
-677.8503
 20
187.4434
 10
-677.7223
 20
187.5537
 10
-677.6166
 20
187.6874
 10
-677.5368
 20
187.8409
 10
-677.4864
 20
188.0105
 10
-677.4688
 20
188.1927
 10
-677.4864
 20
188.3744
 10
-677.5368
 20
188.5437
 10
-677.6166
 20
188.697
 10
-677.7223
 20
188.8305
 10
-677.8503
 20
188.9408
 10
-677.9974
 20
189.024
 10
-678.1598
 20
189.0766
 10
-678.3343
 20
189.095
  0
LWPOLYLINE
  5
DD
330
1F
100
AcDbEntity
  8
Layer 1
 62
     7
370
    18
100
AcDbPolyline
 90
       33
 70
     1
 43
0.0
 10
-685.6092
 20
187.9042
 10
-685.7842
 20
187.8858
 10
-685.947
 20
187.8332
 10
-686.0943
 20
187.7499
 10
-686.2226
 20
187.6396
 10
-686.3283
 20
187.5059
 10
-686.4082
 20
187.3524
 10
-686.4586
 20
187.1828
 10
-686.4762
 20
187.0006
 10
-686.4586
 20
186.8189
 10
-686.4082
 20
186.6496
 10
-686.3283
 20
186.4964
 10
-686.2226
 20
186.3628
 10
-686.0943
 20
186.2526
 10
-685.947
 20
186.1694
 10
-685.7842
 20
186.1167
 10
-685.6092
 20
186.0984
 10
-685.4347
 20
186.1167
 10
-685.2723
 20
186.1694
 10
-685.1252
 20
186.2526
 10
-684.9972
 20
186.3628
 10
-684.8915
 20
186.4964
 10
-684.8117
 20
186.6496
 10
-684.7613
 20
186.8189
 10
-684.7437
 20
187.0006
 10
-684.7613
 20
187.1828
 10
-684.8117
 20
187.3524
 10
-684.8915
 20
187.5059
 10
-684.9972
 20
187.6396
 10
-685.1252
 20
187.7499
 10
-685.2723
 20
187.8332
 10
-685.4347
 20
187.8858
 10
-685.6092
 20
187.9042
  0
LWPOLYLINE
  5
DE
330
1F
100
AcDbEntity
  8
Layer 1
 62
     7
370
    18
100
AcDbPolyline
 90
       33
 70
     1
 43
0.0
 10
-666.6565
 20
158.0852
 10
-667.3593
 20
156.6847
 10
-667.8588
 20
155.2992
 10
-668.1553
 20
153.9641
 10
-668.2489
 20
152.7148
 10
-668.1399
 20
151.5866
 10
-667.8286
 20
150.6148
 10
-667.3151
 20
149.8349
 10
-666.5997
 20
149.2821
 10
-665.726
 20
149.0035
 10
-664.7594
 20
149.0092
 10
-663.7314
 20
149.2802
 10
-662.6734
 20
149.7979
 10
-661.6169
 20
150.5435
 10
-660.5934
 20
151.4983
 10
-659.6344
 20
152.6434
 10
-658.7714
 20
153.9601
 10
-658.0686
 20
155.3603
 10
-657.5691
 20
156.7456
 10
-657.2726
 20
158.0806
 10
-657.179
 20
159.3299
 10
-657.288
 20
160.4581
 10
-657.5993
 20
161.4298
 10
-658.1128
 20
162.2095
 10
-658.8282
 20
162.7619
 10
-659.7019
 20
163.0409
 10
-660.6685
 20
163.0354
 10
-661.6966
 20
162.7645
 10
-662.7546
 20
162.2468
 10
-663.811
 20
161.5012
 10
-664.8345
 20
160.5465
 10
-665.7935
 20
159.4016
 10
-666.6565
 20
158.0852
  0
LWPOLYLINE
  5
DF
330
1F
100
AcDbEntity
  8
Layer 1
 62
     7
370
    18
100
AcDbPolyline
 90
       33
 70
     1
 43
0.0
 10
-661.8661
 20
159.3891
 10
-661.9682
 20
159.2411
 10
-662.0355
 20
159.0796
 10
-662.0685
 20
158.9097
 10
-662.0676
 20
158.7365
 10
-662.0335
 20
158.5651
 10
-661.9667
 20
158.4007
 10
-661.8677
 20
158.2485
 10
-661.737
 20
158.1135
 10
-661.5829
 20
158.0063
 10
-661.4166
 20
157.9329
 10
-661.2434
 20
157.8928
 10
-661.0683
 20
157.886
 10
-660.8966
 20
157.9121
 10
-660.7333
 20
157.9709
 10
-660.5837
 20
158.0622
 10
-660.4529
 20
158.1857
 10
-660.3512
 20
158.3337
 10
-660.2843
 20
158.4952
 10
-660.2516
 20
158.6651
 10
-660.2526
 20
158.8383
 10
-660.2868
 20
159.0097
 10
-660.3537
 20
159.174
 10
-660.4527
 20
159.3262
 10
-660.5834
 20
159.4612
 10
-660.7375
 20
159.5683
 10
-660.9037
 20
159.6416
 10
-661.0769
 20
159.6815
 10
-661.2519
 20
159.6882
 10
-661.4235
 20
159.662
 10
-661.5865
 20
159.6032
 10
-661.7357
 20
159.5121
 10
-661.8661
 20
159.3891
  0
LWPOLYLINE
  5
E0
330
1F
100
AcDbEntity
  8
Layer 1
 62
     7
370
    18
100
AcDbPolyline
 90
       33
 70
     1
 43
0.0
 10
-665.7767
 20
152.9434
 10
-665.8788
 20
152.7955
 10
-665.9461
 20
152.6341
 10
-665.9791
 20
152.4644
 10
-665.9782
 20
152.2914
 10
-665.9441
 20
152.1203
 10
-665.8773
 20
151.9562
 10
-665.7783
 20
151.8041
 10
-665.6476
 20
151.6692
 10
-665.4935
 20
151.5616
 10
-665.3273
 20
151.488
 10
-665.1541
 20
151.4479
 10
-664.9791
 20
151.4412
 10
-664.8075
 20
151.4674
 10
-664.6445
 20
151.5264
 10
-664.4953
 20
151.6178
 10
-664.3649
 20
151.7413
 10
-664.2628
 20
151.8892
 10
-664.1955
 20
152.0506
 10
-664.1625
 20
152.2203
 10
-664.1634
 20
152.3933
 10
-664.1975
 20
152.5644
 10
-664.2643
 20
152.7285
 10
-664.3633
 20
152.8806
 10
-664.494
 20
153.0155
 10
-664.6481
 20
153.1231
 10
-664.8143
 20
153.1967
 10
-664.9875
 20
153.2368
 10
-665.1625
 20
153.2435
 10
-665.3341
 20
153.2173
 10
-665.4971
 20
153.1583
 10
-665.6463
 20
153.0669
 10
-665.7767
 20
152.9434
  0
LWPOLYLINE
  5
E1
330
1F
100
AcDbEntity
  8
Layer 1
 62
     7
370
    18
100
AcDbPolyline
 90
       33
 70
     1
 43
0.0
 10
-677.4574
 20
156.886
 10
-678.926
 20
157.6869
 10
-680.3813
 20
158.2828
 10
-681.7859
 20
158.6717
 10
-683.1025
 20
158.8512
 10
-684.2937
 20
158.8192
 10
-685.3222
 20
158.5734
 10
-686.1506
 20
158.1117
 10
-686.7415
 20
157.4319
 10
-687.0454
 20
156.5755
 10
-687.0505
 20
155.6063
 10
-686.7764
 20
154.5573
 10
-686.2424
 20
153.4613
 10
-685.4681
 20
152.351
 10
-684.4728
 20
151.2595
 10
-683.2761
 20
150.2194
 10
-681.8973
 20
149.2637
 10
-680.4287
 20
148.4629
 10
-678.9734
 20
147.8671
 10
-677.5688
 20
147.4784
 10
-676.2522
 20
147.2991
 10
-675.061
 20
147.3312
 10
-674.0325
 20
147.5769
 10
-673.2041
 20
148.0384
 10
-672.6132
 20
148.7178
 10
-672.3093
 20
149.5747
 10
-672.3042
 20
150.5442
 10
-672.5783
 20
151.5934
 10
-673.1123
 20
152.6895
 10
-673.8867
 20
153.7997
 10
-674.8819
 20
154.8911
 10
-676.0787
 20
155.9308
 10
-677.4574
 20
156.886
  0
LWPOLYLINE
  5
E2
330
1F
100
AcDbEntity
  8
Layer 1
 62
     7
370
    18
100
AcDbPolyline
 90
       33
 70
     1
 43
0.0
 10
-676.6047
 20
152.0072
 10
-676.7668
 20
152.1144
 10
-676.9429
 20
152.1839
 10
-677.1274
 20
152.2163
 10
-677.3148
 20
152.2124
 10
-677.4996
 20
152.1728
 10
-677.6761
 20
152.0981
 10
-677.8389
 20
151.9889
 10
-677.9824
 20
151.846
 10
-678.0963
 20
151.6783
 10
-678.1732
 20
151.4981
 10
-678.2136
 20
151.311
 10
-678.2178
 20
151.1226
 10
-678.1863
 20
150.9385
 10
-678.1196
 20
150.7641
 10
-678.0179
 20
150.6052
 10
-677.8817
 20
150.4672
 10
-677.7196
 20
150.36
 10
-677.5437
 20
150.2905
 10
-677.3593
 20
150.258
 10
-677.172
 20
150.2619
 10
-676.9873
 20
150.3016
 10
-676.8108
 20
150.3763
 10
-676.6478
 20
150.4854
 10
-676.5039
 20
150.6284
 10
-676.3905
 20
150.7961
 10
-676.3139
 20
150.9763
 10
-676.2738
 20
151.1633
 10
-676.2696
 20
151.3517
 10
-676.301
 20
151.5359
 10
-676.3676
 20
151.7102
 10
-676.469
 20
151.8692
 10
-676.6047
 20
152.0072
  0
LWPOLYLINE
  5
E3
330
1F
100
AcDbEntity
  8
Layer 1
 62
     7
370
    18
100
AcDbPolyline
 90
       33
 70
     1
 43
0.0
 10
-683.6539
 20
156.0998
 10
-683.816
 20
156.2065
 10
-683.9919
 20
156.2756
 10
-684.1763
 20
156.3078
 10
-684.3636
 20
156.3038
 10
-684.5483
 20
156.264
 10
-684.7248
 20
156.1892
 10
-684.8878
 20
156.0801
 10
-685.0317
 20
155.9371
 10
-685.1451
 20
155.7695
 10
-685.2217
 20
155.5894
 10
-685.2618
 20
155.4026
 10
-685.266
 20
155.2143
 10
-685.2346
 20
155.0303
 10
-685.168
 20
154.8559
 10
-685.0667
 20
154.6967
 10
-684.931
 20
154.5583
 10
-684.7689
 20
154.4512
 10
-684.5928
 20
154.3819
 10
-684.4082
 20
154.3497
 10
-684.2208
 20
154.3538
 10
-684.036
 20
154.3937
 10
-683.8595
 20
154.4687
 10
-683.6967
 20
154.578
 10
-683.5532
 20
154.721
 10
-683.4393
 20
154.8882
 10
-683.3624
 20
155.0681
 10
-683.3221
 20
155.2549
 10
-683.3178
 20
155.4433
 10
-683.3493
 20
155.6275
 10
-683.4161
 20
155.802
 10
-683.5178
 20
155.9613
 10
-683.6539
 20
156.0998
  0
LWPOLYLINE
  5
E4
330
1F
100
AcDbEntity
  8
Layer 1
 62
     7
370
    18
100
AcDbPolyline
 90
       33
 70
     1
 43
0.0
 10
-660.355
 20
179.9072
 10
-661.3505
 20
181.4774
 10
-662.4037
 20
182.8468
 10
-663.483
 20
183.9926
 10
-664.5572
 20
184.8919
 10
-665.5946
 20
185.5221
 10
-666.5638
 20
185.8603
 10
-667.4334
 20
185.8837
 10
-668.1719
 20
185.5695
 10
-668.7232
 20
184.929
 10
-669.0551
 20
184.0165
 10
-669.1731
 20
182.8739
 10
-669.083
 20
181.5428
 10
-668.7906
 20
180.0652
 10
-668.3014
 20
178.4828
 10
-667.6212
 20
176.8375
 10
-666.7558
 20
175.1711
 10
-665.7604
 20
173.6005
 10
-664.7073
 20
172.2309
 10
-663.6281
 20
171.0851
 10
-662.5542
 20
170.1858
 10
-661.5169
 20
169.5558
 10
-660.5476
 20
169.2178
 10
-659.6778
 20
169.1946
 10
-658.9389
 20
169.5088
 10
-658.3876
 20
170.1488
 10
-658.0557
 20
171.061
 10
-657.9377
 20
172.2034
 10
-658.0277
 20
173.5344
 10
-658.3202
 20
175.0121
 10
-658.8094
 20
176.5946
 10
-659.4895
 20
178.2403
 10
-660.355
 20
179.9072
  0
LWPOLYLINE
  5
E5
330
1F
100
AcDbEntity
  8
Layer 1
 62
     7
370
    18
100
AcDbPolyline
 90
       33
 70
     1
 43
0.0
 10
-661.0843
 20
173.4374
 10
-661.1725
 20
173.6002
 10
-661.2821
 20
173.7395
 10
-661.4087
 20
173.8529
 10
-661.548
 20
173.9385
 10
-661.6956
 20
173.9941
 10
-661.8474
 20
174.0175
 10
-661.9988
 20
174.0066
 10
-662.1457
 20
173.9592
 10
-662.278
 20
173.8776
 10
-662.3866
 20
173.7684
 10
-662.4704
 20
173.6364
 10
-662.5279
 20
173.4863
 10
-662.558
 20
173.3227
 10
-662.5593
 20
173.1504
 10
-662.5306
 20
172.974
 10
-662.4706
 20
172.7982
 10
-662.382
 20
172.6349
 10
-662.2722
 20
172.4953
 10
-662.1456
 20
172.3816
 10
-662.0063
 20
172.2958
 10
-661.8586
 20
172.2401
 10
-661.7068
 20
172.2167
 10
-661.5551
 20
172.2276
 10
-661.4078
 20
172.2749
 10
-661.2755
 20
172.3565
 10
-661.1669
 20
172.4657
 10
-661.0832
 20
172.5977
 10
-661.0258
 20
172.748
 10
-660.9959
 20
172.9117
 10
-660.9948
 20
173.0843
 10
-661.0238
 20
173.2611
 10
-661.0843
 20
173.4374
  0
LWPOLYLINE
  5
E6
330
1F
100
AcDbEntity
  8
Layer 1
 62
     7
370
    18
100
AcDbPolyline
 90
       33
 70
     1
 43
0.0
 10
-666.1584
 20
182.1005
 10
-666.2422
 20
182.2553
 10
-666.3461
 20
182.3874
 10
-666.4661
 20
182.495
 10
-666.5981
 20
182.576
 10
-666.738
 20
182.6285
 10
-666.8818
 20
182.6506
 10
-667.0253
 20
182.6402
 10
-667.1645
 20
182.5955
 10
-667.2899
 20
182.5183
 10
-667.3927
 20
182.415
 10
-667.4719
 20
182.29
 10
-667.5263
 20
182.1477
 10
-667.5545
 20
181.9927
 10
-667.5555
 20
181.8293
 10
-667.528
 20
181.662
 10
-667.4709
 20
181.4953
 10
-667.3872
 20
181.3405
 10
-667.2834
 20
181.2083
 10
-667.1636
 20
181.1007
 10
-667.0318
 20
181.0197
 10
-666.892
 20
180.9672
 10
-666.7482
 20
180.9452
 10
-666.6045
 20
180.9556
 10
-666.4649
 20
181.0003
 10
-666.3399
 20
181.0775
 10
-666.2372
 20
181.1808
 10
-666.1581
 20
181.3058
 10
-666.1036
 20
181.4481
 10
-666.0752
 20
181.6031
 10
-666.074
 20
181.7665
 10
-666.1013
 20
181.9338
 10
-666.1584
 20
182.1005
  0
LWPOLYLINE
  5
E7
330
1F
100
AcDbEntity
  8
Layer 1
 62
     7
370
    18
100
AcDbPolyline
 90
       33
 70
     1
 43
0.0
 10
-686.9359
 20
173.4091
 10
-687.1234
 20
175.2573
 10
-687.4524
 20
176.9514
 10
-687.905
 20
178.4569
 10
-688.4632
 20
179.7396
 10
-689.1092
 20
180.7651
 10
-689.825
 20
181.499
 10
-690.5927
 20
181.907
 10
-691.3942
 20
181.9549
 10
-692.1745
 20
181.6268
 10
-692.8803
 20
180.9578
 10
-693.4979
 20
179.9878
 10
-694.0136
 20
178.7566
 10
-694.4138
 20
177.3042
 10
-694.685
 20
175.6705
 10
-694.8134
 20
173.8955
 10
-694.7855
 20
172.019
 10
-694.5981
 20
170.1708
 10
-694.2691
 20
168.4767
 10
-693.8164
 20
166.9713
 10
-693.258
 20
165.6887
 10
-692.6118
 20
164.6634
 10
-691.8958
 20
163.9297
 10
-691.1278
 20
163.522
 10
-690.3258
 20
163.4746
 10
-689.546
 20
163.8022
 10
-688.8406
 20
164.471
 10
-688.2232
 20
165.441
 10
-687.7077
 20
166.6722
 10
-687.3075
 20
168.1246
 10
-687.0364
 20
169.7582
 10
-686.908
 20
171.533
 10
-686.9359
 20
173.4091
  0
LWPOLYLINE
  5
E8
330
1F
100
AcDbEntity
  8
Layer 1
 62
     7
370
    18
100
AcDbPolyline
 90
       33
 70
     1
 43
0.0
 10
-690.4861
 20
167.9434
 10
-690.4923
 20
168.129
 10
-690.5281
 20
168.3027
 10
-690.5905
 20
168.4606
 10
-690.6768
 20
168.5992
 10
-690.7841
 20
168.7145
 10
-690.9094
 20
168.8028
 10
-691.0499
 20
168.8605
 10
-691.2027
 20
168.8838
 10
-691.3575
 20
168.8698
 10
-691.5035
 20
168.8207
 10
-691.6375
 20
168.74
 10
-691.7563
 20
168.6314
 10
-691.8565
 20
168.4983
 10
-691.9348
 20
168.3444
 10
-691.988
 20
168.1734
 10
-692.0129
 20
167.9886
 10
-692.0067
 20
167.8033
 10
-691.971
 20
167.6299
 10
-691.9085
 20
167.4719
 10
-691.8222
 20
167.3333
 10
-691.715
 20
167.2178
 10
-691.5897
 20
167.1293
 10
-691.4492
 20
167.0715
 10
-691.2963
 20
167.0482
 10
-691.1415
 20
167.0627
 10
-690.9955
 20
167.1121
 10
-690.8615
 20
167.193
 10
-690.7428
 20
167.3017
 10
-690.6426
 20
167.4347
 10
-690.5642
 20
167.5883
 10
-690.511
 20
167.7591
 10
-690.4861
 20
167.9434
  0
LWPOLYLINE
  5
E9
330
1F
100
AcDbEntity
  8
Layer 1
 62
     7
370
    18
100
AcDbPolyline
 90
       33
 70
     1
 43
0.0
 10
-691.1459
 20
177.9542
 10
-691.1518
 20
178.13
 10
-691.1857
 20
178.2945
 10
-691.2449
 20
178.444
 10
-691.3267
 20
178.5752
 10
-691.4284
 20
178.6844
 10
-691.5472
 20
178.7682
 10
-691.6805
 20
178.8229
 10
-691.8256
 20
178.8451
 10
-691.972
 20
178.8315
 10
-692.1101
 20
178.7847
 10
-692.2369
 20
178.708
 10
-692.3492
 20
178.6049
 10
-692.4439
 20
178.4787
 10
-692.518
 20
178.333
 10
-692.5683
 20
178.1712
 10
-692.5918
 20
177.9966
 10
-692.5864
 20
177.8212
 10
-692.5527
 20
177.6569
 10
-692.4936
 20
177.5074
 10
-692.4118
 20
177.3761
 10
-692.3101
 20
177.2668
 10
-692.1914
 20
177.1828
 10
-692.0583
 20
177.128
 10
-691.9136
 20
177.1057
 10
-691.7672
 20
177.1193
 10
-691.629
 20
177.1661
 10
-691.5022
 20
177.2428
 10
-691.3898
 20
177.3459
 10
-691.2949
 20
177.4721
 10
-691.2206
 20
177.6178
 10
-691.1699
 20
177.7796
 10
-691.1459
 20
177.9542
  0
LWPOLYLINE
  5
EA
330
1F
100
AcDbEntity
  8
Layer 1
 62
     7
370
    18
100
AcDbPolyline
 90
       33
 70
     1
 43
0.0
 10
-677.7653
 20
181.607
 10
-679.8015
 20
181.3584
 10
-681.6103
 20
180.6454
 10
-683.159
 20
179.5173
 10
-684.4152
 20
178.0232
 10
-685.3463
 20
176.2123
 10
-685.9197
 20
174.134
 10
-686.1028
 20
171.8374
 10
-685.8632
 20
169.3717
 10
-685.2039
 20
166.906
 10
-684.1834
 20
164.6094
 10
-682.8522
 20
162.531
 10
-681.2609
 20
160.7202
 10
-679.4599
 20
159.2261
 10
-677.4998
 20
158.0979
 10
-675.431
 20
157.3849
 10
-673.3042
 20
157.1363
 10
-671.268
 20
157.3849
 10
-669.4593
 20
158.0979
 10
-667.9106
 20
159.2261
 10
-666.6544
 20
160.7202
 10
-665.7233
 20
162.531
 10
-665.1499
 20
164.6094
 10
-664.9667
 20
166.906
 10
-665.2063
 20
169.3717
 10
-665.8656
 20
171.8374
 10
-666.8861
 20
174.134
 10
-668.2173
 20
176.2123
 10
-669.8087
 20
178.0232
 10
-671.6096
 20
179.5173
 10
-673.5697
 20
180.6454
 10
-675.6385
 20
181.3584
 10
-677.7653
 20
181.607
  0
LWPOLYLINE
  5
EB
330
1F
100
AcDbEntity
  8
Layer 1
 62
     7
370
    18
100
AcDbPolyline
 90
       16
 70
     1
 43
0.0
 10
-638.6568
 20
88.2237
 10
-647.0273
 20
86.4602
 10
-647.0273
 20
86.4602
 10
-645.9717
 20
49.7145
 10
-649.0486
 20
44.1061
 10
-649.1331
 20
43.952
 10
-649.1333
 20
43.7735
 10
-649.2399
 20
-123.2078
 10
-647.8448
 20
-123.2078
 10
-647.7384
 20
43.5953
 10
-644.656
 20
49.2137
 10
-644.5656
 20
49.3782
 10
-644.5712
 20
49.5653
 10
-645.6157
 20
85.9276
 10
-637.1642
 20
88.474
 10
-638.6568
 20
88.2237
  0
LWPOLYLINE
  5
EC
330
1F
100
AcDbEntity
  8
Layer 1
 62
     7
370
    18
100
AcDbPolyline
 90
        9
 70
     0
 43
0.0
 10
-627.6912
 20
-123.5299
 10
-628.4957
 20
-123.7888
 10
-630.7563
 20
-124.4145
 10
-634.2432
 20
-125.1804
 10
-638.727
 20
-125.8599
 10
-643.9779
 20
-126.2266
 10
-649.7664
 20
-126.0539
 10
-655.8628
 20
-125.1153
 10
-662.0376
 20
-123.1841
  0
LWPOLYLINE
  5
ED
330
1F
100
AcDbEntity
  8
Layer 1
 62
     7
370
    18
100
AcDbPolyline
 90
        9
 70
     0
 43
0.0
 10
-627.6211
 20
-121.4472
 10
-628.428
 20
-121.7322
 10
-630.6948
 20
-122.4267
 10
-634.1906
 20
-123.2898
 10
-638.6845
 20
-124.0809
 10
-643.9455
 20
-124.5592
 10
-649.7428
 20
-124.4837
 10
-655.8455
 20
-123.6139
 10
-662.0227
 20
-121.7088
  0
LWPOLYLINE
  5
EE
330
1F
100
AcDbEntity
  8
Layer 1
 62
     7
370
    18
100
AcDbPolyline
 90
       19
 70
     1
 43
0.0
 10
-627.8415
 20
-126.53
 10
-628.6581
 20
-126.7931
 10
-630.9178
 20
-127.4191
 10
-634.3936
 20
-128.1828
 10
-638.8583
 20
-128.859
 10
-644.0849
 20
-129.2228
 10
-649.8464
 20
-129.0488
 10
-655.9156
 20
-128.1121
 10
-662.0654
 20
-126.1875
 10
-662.1968
 20
-126.5092
 10
-656.0065
 20
-128.4533
 10
-649.9065
 20
-129.4105
 10
-644.1226
 20
-129.6047
 10
-638.8806
 20
-129.26
 10
-634.4062
 20
-128.6005
 10
-630.9251
 20
-127.8501
 10
-628.6632
 20
-127.2329
 10
-627.846
 20
-126.9729
 10
-627.8415
 20
-126.53
  0
LWPOLYLINE
  5
EF
330
1F
100
AcDbEntity
  8
Layer 1
 62
     7
370
    18
100
AcDbPolyline
 90
        9
 70
     0
 43
0.0
 10
-627.8484
 20
-130.2982
 10
-628.6465
 20
-130.5402
 10
-630.8899
 20
-131.1214
 10
-634.3527
 20
-131.8243
 10
-638.8088
 20
-132.4318
 10
-644.032
 20
-132.7264
 10
-649.7963
 20
-132.4907
 10
-655.8756
 20
-131.5076
 10
-662.0439
 20
-129.5595
  0
LWPOLYLINE
  5
F0
330
1F
100
AcDbEntity
  8
Layer 1
 62
     7
370
     9
100
AcDbPolyline
 90
        2
 70
     0
 43
0.0
 10
-541.2195
 20
270.233
 10
-663.2661
 20
270.233
  0
LWPOLYLINE
  5
F1
330
1F
100
AcDbEntity
  8
Layer 1
 62
     7
370
     9
100
AcDbPolyline
 90
        2
 70
     0
 43
0.0
 10
-541.2195
 20
-123.4567
 10
-648.6607
 20
-123.4567
  0
LWPOLYLINE
  5
F2
330
1F
100
AcDbEntity
  8
Layer 1
 62
     7
370
     9
100
AcDbPolyline
 90
        2
 70
     0
 43
0.0
 10
-564.2034
 20
-123.4567
 10
-564.2034
 20
270.233
  0
LWPOLYLINE
  5
F3
330
1F
100
AcDbEntity
  8
Layer 1
 62
     7
370
     9
100
AcDbPolyline
 90
       87
 70
     1
 43
0.0
 10
-520.1369
 20
5.8862
 10
-520.1369
 20
22.6129
 10
-522.5903
 20
22.6129
 10
-522.5903
 20
11.7875
 10
-530.8244
 20
20.0632
 10
-531.4171
 20
20.6036
 10
-532.0394
 20
21.0719
 10
-532.6914
 20
21.4681
 10
-533.3729
 20
21.7922
 10
-534.0841
 20
22.0443
 10
-534.8249
 20
22.2243
 10
-535.5952
 20
22.3323
 10
-536.3951
 20
22.3683
 10
-537.213
 20
22.3315
 10
-537.9981
 20
22.2211
 10
-538.7503
 20
22.037
 10
-539.4696
 20
21.7793
 10
-540.1561
 20
21.4478
 10
-540.8097
 20
21.0426
 10
-541.4305
 20
20.5637
 10
-542.0184
 20
20.0109
 10
-542.5647
 20
19.3974
 10
-543.0381
 20
18.7565
 10
-543.4388
 20
18.0882
 10
-543.7667
 20
17.3925
 10
-544.0217
 20
16.6696
 10
-544.2039
 20
15.9194
 10
-544.3133
 20
15.1419
 10
-544.3497
 20
14.3372
 10
-544.3113
 20
13.5016
 10
-544.1962
 20
12.697
 10
-544.0045
 20
11.9235
 10
-543.736
 20
11.181
 10
-543.391
 20
10.4696
 10
-542.9693
 20
9.7894
 10
-542.4711
 20
9.1402
 10
-541.8964
 20
8.5222
 10
-541.2779
 20
7.972
 10
-540.6273
 20
7.4998
 10
-539.9443
 20
7.1056
 10
-539.2291
 20
6.7894
 10
-538.4816
 20
6.5511
 10
-537.7017
 20
6.391
 10
-536.8894
 20
6.3089
 10
-536.0447
 20
6.3048
 10
-536.0447
 20
8.7838
 10
-536.5924
 20
8.7633
 10
-537.1275
 20
8.8016
 10
-537.6501
 20
8.8988
 10
-538.1601
 20
9.0548
 10
-538.6576
 20
9.2697
 10
-539.1425
 20
9.5437
 10
-539.6147
 20
9.8766
 10
-540.0744
 20
10.2687
 10
-540.485
 20
10.6875
 10
-540.8409
 20
11.1283
 10
-541.1421
 20
11.591
 10
-541.3885
 20
12.0756
 10
-541.5802
 20
12.5821
 10
-541.7172
 20
13.1105
 10
-541.7994
 20
13.6607
 10
-541.8268
 20
14.2326
 10
-541.8021
 20
14.7937
 10
-541.7281
 20
15.3335
 10
-541.6048
 20
15.8521
 10
-541.4322
 20
16.3495
 10
-541.2103
 20
16.8255
 10
-540.9391
 20
17.2803
 10
-540.6187
 20
17.7137
 10
-540.249
 20
18.1258
 10
-539.8406
 20
18.5062
 10
-539.4125
 20
18.8358
 10
-538.9648
 20
19.1149
 10
-538.4973
 20
19.3432
 10
-538.0102
 20
19.5208
 10
-537.5033
 20
19.6477
 10
-536.9768
 20
19.7238
 10
-536.4306
 20
19.7492
 10
-535.8722
 20
19.7247
 10
-535.3355
 20
19.6511
 10
-534.8208
 20
19.5284
 10
-534.3279
 20
19.3566
 10
-533.8569
 20
19.1357
 10
-533.4078
 20
18.8657
 10
-532.9806
 20
18.5465
 10
-532.5753
 20
18.1781
 10
-520.1369
 20
5.8862
  0
LWPOLYLINE
  5
F4
330
1F
100
AcDbEntity
  8
Layer 1
 62
     7
370
     9
100
AcDbPolyline
 90
       87
 70
     1
 43
0.0
 10
-520.1369
 20
27.3631
 10
-520.1369
 20
44.0898
 10
-522.5903
 20
44.0898
 10
-522.5903
 20
33.2644
 10
-530.8244
 20
41.54
 10
-531.4171
 20
42.0804
 10
-532.0394
 20
42.5487
 10
-532.6914
 20
42.9449
 10
-533.3729
 20
43.269
 10
-534.0841
 20
43.5211
 10
-534.8249
 20
43.7011
 10
-535.5952
 20
43.8091
 10
-536.3951
 20
43.8451
 10
-537.213
 20
43.8083
 10
-537.9981
 20
43.6979
 10
-538.7503
 20
43.5139
 10
-539.4696
 20
43.2561
 10
-540.1561
 20
42.9247
 10
-540.8097
 20
42.5195
 10
-541.4305
 20
42.0405
 10
-542.0184
 20
41.4877
 10
-542.5647
 20
40.8742
 10
-543.0381
 20
40.2333
 10
-543.4388
 20
39.565
 10
-543.7667
 20
38.8694
 10
-544.0217
 20
38.1464
 10
-544.2039
 20
37.3962
 10
-544.3133
 20
36.6188
 10
-544.3497
 20
35.8141
 10
-544.3113
 20
34.9785
 10
-544.1962
 20
34.1739
 10
-544.0045
 20
33.4004
 10
-543.736
 20
32.6579
 10
-543.391
 20
31.9465
 10
-542.9693
 20
31.2663
 10
-542.4711
 20
30.6171
 10
-541.8964
 20
29.9991
 10
-541.2779
 20
29.4489
 10
-540.6273
 20
28.9766
 10
-539.9443
 20
28.5824
 10
-539.2291
 20
28.2662
 10
-538.4816
 20
28.028
 10
-537.7017
 20
27.8678
 10
-536.8894
 20
27.7857
 10
-536.0447
 20
27.7817
 10
-536.0447
 20
30.2607
 10
-536.5924
 20
30.2402
 10
-537.1275
 20
30.2785
 10
-537.6501
 20
30.3757
 10
-538.1601
 20
30.5317
 10
-538.6576
 20
30.7466
 10
-539.1425
 20
31.0206
 10
-539.6147
 20
31.3535
 10
-540.0744
 20
31.7456
 10
-540.485
 20
32.1644
 10
-540.8409
 20
32.6051
 10
-541.1421
 20
33.0679
 10
-541.3885
 20
33.5525
 10
-541.5802
 20
34.059
 10
-541.7172
 20
34.5873
 10
-541.7994
 20
35.1375
 10
-541.8268
 20
35.7094
 10
-541.8021
 20
36.2705
 10
-541.7281
 20
36.8103
 10
-541.6048
 20
37.3289
 10
-541.4322
 20
37.8263
 10
-541.2103
 20
38.3023
 10
-540.9391
 20
38.7571
 10
-540.6187
 20
39.1905
 10
-540.249
 20
39.6026
 10
-539.8406
 20
39.983
 10
-539.4125
 20
40.3127
 10
-538.9648
 20
40.5917
 10
-538.4973
 20
40.8201
 10
-538.0102
 20
40.9977
 10
-537.5033
 20
41.1246
 10
-536.9768
 20
41.2007
 10
-536.4306
 20
41.2261
 10
-535.8722
 20
41.2016
 10
-535.3355
 20
41.128
 10
-534.8208
 20
41.0053
 10
-534.3279
 20
40.8335
 10
-533.8569
 20
40.6126
 10
-533.4078
 20
40.3425
 10
-532.9806
 20
40.0233
 10
-532.5753
 20
39.655
 10
-520.1369
 20
27.3631
  0
LWPOLYLINE
  5
F5
330
1F
100
AcDbEntity
  8
Layer 1
 62
     7
370
     9
100
AcDbPolyline
 90
      136
 70
     1
 43
0.0
 10
-535.1337
 20
52.8901
 10
-541.5104
 20
54.4966
 10
-541.5104
 20
63.0876
 10
-543.9637
 20
63.0876
 10
-543.9637
 20
52.6454
 10
-533.2763
 20
49.9218
 10
-532.0858
 20
52.5761
 10
-532.3483
 20
52.9611
 10
-532.5758
 20
53.3652
 10
-532.7685
 20
53.7884
 10
-532.9262
 20
54.2307
 10
-533.0489
 20
54.6921
 10
-533.1366
 20
55.1725
 10
-533.1892
 20
55.6721
 10
-533.2068
 20
56.1907
 10
-533.1811
 20
56.7123
 10
-533.1038
 20
57.2164
 10
-532.9751
 20
57.703
 10
-532.7949
 20
58.1722
 10
-532.5633
 20
58.6239
 10
-532.2801
 20
59.0582
 10
-531.9455
 20
59.4751
 10
-531.5594
 20
59.8746
 10
-531.1289
 20
60.251
 10
-530.6825
 20
60.5772
 10
-530.2202
 20
60.8533
 10
-529.7419
 20
61.0793
 10
-529.2478
 20
61.2551
 10
-528.7377
 20
61.3806
 10
-528.2118
 20
61.456
 10
-527.6701
 20
61.4811
 10
-527.1098
 20
61.4554
 10
-526.5721
 20
61.3785
 10
-526.0567
 20
61.2502
 10
-525.5638
 20
61.0706
 10
-525.0933
 20
60.8398
 10
-524.6453
 20
60.5576
 10
-524.2195
 20
60.2241
 10
-523.8162
 20
59.8393
 10
-523.6368
 20
59.6437
 10
-523.4667
 20
59.441
 10
-523.3059
 20
59.2312
 10
-523.1545
 20
59.0143
 10
-523.0125
 20
58.7903
 10
-522.8798
 20
58.5592
 10
-522.7566
 20
58.321
 10
-522.6428
 20
58.0758
 10
-522.54
 20
57.82
 10
-522.451
 20
57.55
 10
-522.3756
 20
57.2658
 10
-522.3139
 20
56.9675
 10
-522.266
 20
56.6549
 10
-522.2317
 20
56.3282
 10
-522.2112
 20
55.9872
 10
-522.2043
 20
55.6321
 10
-522.2196
 20
55.2701
 10
-522.2655
 20
54.9086
 10
-522.3421
 20
54.5475
 10
-522.4493
 20
54.1869
 10
-522.5871
 20
53.8268
 10
-522.7556
 20
53.4673
 10
-522.9549
 20
53.1084
 10
-523.1848
 20
52.7501
 10
-523.4394
 20
52.4053
 10
-523.7126
 20
52.0866
 10
-524.0045
 20
51.7943
 10
-524.315
 20
51.5281
 10
-524.6441
 20
51.2881
 10
-524.9918
 20
51.0742
 10
-525.3582
 20
50.8866
 10
-525.7432
 20
50.725
 10
-524.9727
 20
48.3506
 10
-524.396
 20
48.5837
 10
-523.8481
 20
48.8557
 10
-523.3292
 20
49.1665
 10
-522.8393
 20
49.5161
 10
-522.3784
 20
49.9044
 10
-521.9465
 20
50.3315
 10
-521.5436
 20
50.7974
 10
-521.1699
 20
51.302
 10
-520.8292
 20
51.8383
 10
-520.534
 20
52.3865
 10
-520.2843
 20
52.9467
 10
-520.08
 20
53.519
 10
-519.9211
 20
54.1034
 10
-519.8077
 20
54.6998
 10
-519.7396
 20
55.3084
 10
-519.7169
 20
55.9291
 10
-519.7544
 20
56.7555
 10
-519.8669
 20
57.5502
 10
-520.0545
 20
58.3134
 10
-520.317
 20
59.045
 10
-520.6544
 20
59.745
 10
-521.0668
 20
60.4134
 10
-521.5542
 20
61.0501
 10
-522.1164
 20
61.6551
 10
-522.7273
 20
62.2035
 10
-523.3682
 20
62.6788
 10
-524.0391
 20
63.0811
 10
-524.7402
 20
63.4102
 10
-525.4713
 20
63.6663
 10
-526.2326
 20
63.8492
 10
-527.0242
 20
63.9589
 10
-527.846
 20
63.9955
 10
-528.6631
 20
63.9595
 10
-529.4457
 20
63.8515
 10
-530.1939
 20
63.6715
 10
-530.9076
 20
63.4194
 10
-531.5867
 20
63.0953
 10
-532.2313
 20
62.6991
 10
-532.8413
 20
62.2308
 10
-533.4168
 20
61.6904
 10
-533.6728
 20
61.4144
 10
-533.9151
 20
61.1275
 10
-534.1437
 20
60.8296
 10
-534.3586
 20
60.5207
 10
-534.5598
 20
60.2009
 10
-534.7473
 20
59.8702
 10
-534.9211
 20
59.5285
 10
-535.0812
 20
59.176
 10
-535.2249
 20
58.8165
 10
-535.3494
 20
58.4538
 10
-535.4547
 20
58.088
 10
-535.5409
 20
57.7191
 10
-535.608
 20
57.3472
 10
-535.6559
 20
56.9722
 10
-535.6846
 20
56.5943
 10
-535.6942
 20
56.2134
 10
-535.6854
 20
55.8256
 10
-535.6591
 20
55.43
 10
-535.6153
 20
55.0266
 10
-535.5539
 20
54.6154
 10
-535.475
 20
54.1961
 10
-535.3787
 20
53.7689
 10
-535.2649
 20
53.3336
 10
-535.1337
 20
52.8901
  0
LWPOLYLINE
  5
F6
330
1F
100
AcDbEntity
  8
Layer 1
 62
     7
370
     9
100
AcDbPolyline
 90
      165
 70
     1
 43
0.0
 10
-520.2065
 20
97.3796
 10
-520.2065
 20
99.8247
 10
-529.8425
 20
99.8247
 10
-530.4824
 20
99.8048
 10
-531.0922
 20
99.7449
 10
-531.6717
 20
99.6453
 10
-532.2212
 20
99.5058
 10
-532.7404
 20
99.3265
 10
-533.2296
 20
99.1076
 10
-533.6887
 20
98.8489
 10
-534.1177
 20
98.5505
 10
-534.3227
 20
98.3836
 10
-534.5173
 20
98.2063
 10
-534.7016
 20
98.0187
 10
-534.8754
 20
97.8208
 10
-535.0389
 20
97.6125
 10
-535.192
 20
97.3939
 10
-535.3347
 20
97.1649
 10
-535.4671
 20
96.9256
 10
-535.5859
 20
96.6713
 10
-535.689
 20
96.3974
 10
-535.7763
 20
96.1039
 10
-535.8478
 20
95.7908
 10
-535.9034
 20
95.458
 10
-535.9432
 20
95.1056
 10
-535.9671
 20
94.7336
 10
-535.9751
 20
94.342
 10
-535.9614
 20
93.9468
 10
-535.9203
 20
93.564
 10
-535.8518
 20
93.1938
 10
-535.7559
 20
92.8361
 10
-535.6326
 20
92.4909
 10
-535.4818
 20
92.1582
 10
-535.3037
 20
91.8381
 10
-535.0982
 20
91.5306
 10
-534.8936
 20
91.264
 10
-534.6738
 20
91.0093
 10
-534.4389
 20
90.7665
 10
-534.189
 20
90.5357
 10
-533.9244
 20
90.3168
 10
-533.6452
 20
90.1099
 10
-533.3515
 20
89.9149
 10
-533.0436
 20
89.7318
 10
-533.3276
 20
89.5902
 10
-533.602
 20
89.4352
 10
-533.8657
 20
89.2668
 10
-534.1177
 20
89.0855
 10
-534.3227
 20
88.9191
 10
-534.5173
 20
88.7422
 10
-534.7016
 20
88.5548
 10
-534.8754
 20
88.3571
 10
-535.0389
 20
88.1489
 10
-535.192
 20
87.9303
 10
-535.3347
 20
87.7014
 10
-535.4671
 20
87.4621
 10
-535.5859
 20
87.2078
 10
-535.689
 20
86.9339
 10
-535.7763
 20
86.6403
 10
-535.8478
 20
86.3272
 10
-535.9034
 20
85.9944
 10
-535.9432
 20
85.642
 10
-535.9671
 20
85.27
 10
-535.9751
 20
84.8784
 10
-535.9614
 20
84.4832
 10
-535.9203
 20
84.1005
 10
-535.8518
 20
83.7302
 10
-535.7559
 20
83.3725
 10
-535.6326
 20
83.0273
 10
-535.4818
 20
82.6946
 10
-535.3037
 20
82.3745
 10
-535.0982
 20
82.067
 10
-534.9033
 20
81.8127
 10
-534.6953
 20
81.5693
 10
-534.474
 20
81.3369
 10
-534.2394
 20
81.1155
 10
-533.9914
 20
80.905
 10
-533.7298
 20
80.7054
 10
-533.4546
 20
80.5167
 10
-533.1656
 20
80.3389
 10
-535.6246
 20
80.3389
 10
-535.6246
 20
77.8939
 10
-520.2065
 20
77.8939
 10
-520.2065
 20
80.3389
 10
-528.0972
 20
80.3389
 10
-528.5565
 20
80.3954
 10
-528.9979
 20
80.4694
 10
-529.4217
 20
80.5609
 10
-529.8279
 20
80.6699
 10
-530.2167
 20
80.7964
 10
-530.5882
 20
80.9403
 10
-530.9426
 20
81.1018
 10
-531.2799
 20
81.2808
 10
-531.5197
 20
81.4268
 10
-531.7484
 20
81.5846
 10
-531.9662
 20
81.7545
 10
-532.1731
 20
81.9362
 10
-532.369
 20
82.1299
 10
-532.5541
 20
82.3355
 10
-532.7284
 20
82.5531
 10
-532.8918
 20
82.7826
 10
-533.0395
 20
83.0207
 10
-533.1674
 20
83.2631
 10
-533.2757
 20
83.5097
 10
-533.3643
 20
83.7607
 10
-533.4332
 20
84.0159
 10
-533.4824
 20
84.2755
 10
-533.512
 20
84.5394
 10
-533.5218
 20
84.8077
 10
-533.5166
 20
85.0699
 10
-533.501
 20
85.3144
 10
-533.4751
 20
85.5415
 10
-533.4388
 20
85.7509
 10
-533.3921
 20
85.9429
 10
-533.335
 20
86.1174
 10
-533.2675
 20
86.2745
 10
-533.1897
 20
86.4142
 10
-532.9284
 20
86.7662
 10
-532.6222
 20
87.0712
 10
-532.2712
 20
87.3294
 10
-531.8753
 20
87.5406
 10
-531.4345
 20
87.7048
 10
-530.9488
 20
87.8221
 10
-530.4181
 20
87.8925
 10
-529.8425
 20
87.916
 10
-520.2065
 20
87.916
 10
-520.2065
 20
90.3611
 10
-529.8425
 20
90.3611
 10
-530.4328
 20
90.3427
 10
-530.6561
 20
90.4337
 10
-530.8712
 20
90.5308
 10
-531.0789
 20
90.6342
 10
-531.2799
 20
90.7443
 10
-531.5197
 20
90.8903
 10
-531.7484
 20
91.0482
 10
-531.9662
 20
91.218
 10
-532.1731
 20
91.3998
 10
-532.369
 20
91.5935
 10
-532.5541
 20
91.7991
 10
-532.7284
 20
92.0167
 10
-532.8918
 20
92.2462
 10
-533.0395
 20
92.4843
 10
-533.1674
 20
92.7267
 10
-533.2757
 20
92.9734
 10
-533.3643
 20
93.2244
 10
-533.4332
 20
93.4798
 10
-533.4824
 20
93.7397
 10
-533.512
 20
94.0039
 10
-533.5218
 20
94.2727
 10
-533.5166
 20
94.5345
 10
-533.501
 20
94.7788
 10
-533.4751
 20
95.0058
 10
-533.4388
 20
95.2152
 10
-533.3921
 20
95.4072
 10
-533.335
 20
95.5816
 10
-533.2675
 20
95.7385
 10
-533.1897
 20
95.8777
 10
-532.9284
 20
96.2297
 10
-532.6222
 20
96.5348
 10
-532.2712
 20
96.7929
 10
-531.8753
 20
97.0041
 10
-531.4345
 20
97.1684
 10
-530.9488
 20
97.2857
 10
-530.4181
 20
97.3561
 10
-529.8425
 20
97.3796
 10
-520.2065
 20
97.3796
  0
LWPOLYLINE
  5
F7
330
1F
100
AcDbEntity
  8
Layer 1
 62
     7
370
     9
100
AcDbPolyline
 90
      165
 70
     1
 43
0.0
 10
-520.2065
 20
124.0252
 10
-520.2065
 20
126.4703
 10
-529.8425
 20
126.4703
 10
-530.4824
 20
126.4504
 10
-531.0922
 20
126.3905
 10
-531.6717
 20
126.2909
 10
-532.2212
 20
126.1514
 10
-532.7404
 20
125.9721
 10
-533.2296
 20
125.7532
 10
-533.6887
 20
125.4945
 10
-534.1177
 20
125.1961
 10
-534.3227
 20
125.0292
 10
-534.5173
 20
124.8519
 10
-534.7016
 20
124.6643
 10
-534.8754
 20
124.4664
 10
-535.0389
 20
124.2581
 10
-535.192
 20
124.0395
 10
-535.3347
 20
123.8105
 10
-535.4671
 20
123.5712
 10
-535.5859
 20
123.3169
 10
-535.689
 20
123.043
 10
-535.7763
 20
122.7495
 10
-535.8478
 20
122.4364
 10
-535.9034
 20
122.1036
 10
-535.9432
 20
121.7512
 10
-535.9671
 20
121.3792
 10
-535.9751
 20
120.9876
 10
-535.9614
 20
120.5924
 10
-535.9203
 20
120.2097
 10
-535.8518
 20
119.8394
 10
-535.7559
 20
119.4817
 10
-535.6326
 20
119.1365
 10
-535.4818
 20
118.8038
 10
-535.3037
 20
118.4837
 10
-535.0982
 20
118.1762
 10
-534.8936
 20
117.9096
 10
-534.6738
 20
117.6549
 10
-534.4389
 20
117.4121
 10
-534.189
 20
117.1813
 10
-533.9244
 20
116.9624
 10
-533.6452
 20
116.7555
 10
-533.3515
 20
116.5605
 10
-533.0436
 20
116.3774
 10
-533.3276
 20
116.2358
 10
-533.602
 20
116.0808
 10
-533.8657
 20
115.9124
 10
-534.1177
 20
115.7311
 10
-534.3227
 20
115.5647
 10
-534.5173
 20
115.3878
 10
-534.7016
 20
115.2004
 10
-534.8754
 20
115.0027
 10
-535.0389
 20
114.7945
 10
-535.192
 20
114.5759
 10
-535.3347
 20
114.347
 10
-535.4671
 20
114.1077
 10
-535.5859
 20
113.8534
 10
-535.689
 20
113.5795
 10
-535.7763
 20
113.286
 10
-535.8478
 20
112.9728
 10
-535.9034
 20
112.64
 10
-535.9432
 20
112.2876
 10
-535.9671
 20
111.9156
 10
-535.9751
 20
111.524
 10
-535.9614
 20
111.1288
 10
-535.9203
 20
110.7461
 10
-535.8518
 20
110.3758
 10
-535.7559
 20
110.0181
 10
-535.6326
 20
109.6729
 10
-535.4818
 20
109.3403
 10
-535.3037
 20
109.0202
 10
-535.0982
 20
108.7127
 10
-534.9033
 20
108.4583
 10
-534.6953
 20
108.215
 10
-534.474
 20
107.9826
 10
-534.2394
 20
107.7611
 10
-533.9914
 20
107.5506
 10
-533.7298
 20
107.3511
 10
-533.4546
 20
107.1624
 10
-533.1656
 20
106.9846
 10
-535.6246
 20
106.9846
 10
-535.6246
 20
104.5395
 10
-520.2065
 20
104.5395
 10
-520.2065
 20
106.9846
 10
-528.0972
 20
106.9846
 10
-528.5565
 20
107.0411
 10
-528.9979
 20
107.115
 10
-529.4217
 20
107.2065
 10
-529.8279
 20
107.3155
 10
-530.2167
 20
107.442
 10
-530.5882
 20
107.5859
 10
-530.9426
 20
107.7474
 10
-531.2799
 20
107.9264
 10
-531.5197
 20
108.0724
 10
-531.7484
 20
108.2302
 10
-531.9662
 20
108.4001
 10
-532.1731
 20
108.5818
 10
-532.369
 20
108.7755
 10
-532.5541
 20
108.9811
 10
-532.7284
 20
109.1987
 10
-532.8918
 20
109.4282
 10
-533.0395
 20
109.6663
 10
-533.1674
 20
109.9087
 10
-533.2757
 20
110.1553
 10
-533.3643
 20
110.4063
 10
-533.4332
 20
110.6615
 10
-533.4824
 20
110.9211
 10
-533.512
 20
111.185
 10
-533.5218
 20
111.4533
 10
-533.5166
 20
111.7155
 10
-533.501
 20
111.96
 10
-533.4751
 20
112.1871
 10
-533.4388
 20
112.3965
 10
-533.3921
 20
112.5885
 10
-533.335
 20
112.763
 10
-533.2675
 20
112.9201
 10
-533.1897
 20
113.0598
 10
-532.9284
 20
113.4118
 10
-532.6222
 20
113.7168
 10
-532.2712
 20
113.975
 10
-531.8753
 20
114.1862
 10
-531.4345
 20
114.3504
 10
-530.9488
 20
114.4677
 10
-530.4181
 20
114.5381
 10
-529.8425
 20
114.5616
 10
-520.2065
 20
114.5616
 10
-520.2065
 20
117.0067
 10
-529.8425
 20
117.0067
 10
-530.4328
 20
116.9883
 10
-530.6561
 20
117.0793
 10
-530.8712
 20
117.1764
 10
-531.0789
 20
117.2798
 10
-531.2799
 20
117.3899
 10
-531.5197
 20
117.5359
 10
-531.7484
 20
117.6938
 10
-531.9662
 20
117.8636
 10
-532.1731
 20
118.0454
 10
-532.369
 20
118.2391
 10
-532.5541
 20
118.4447
 10
-532.7284
 20
118.6623
 10
-532.8918
 20
118.8918
 10
-533.0395
 20
119.1299
 10
-533.1674
 20
119.3723
 10
-533.2757
 20
119.619
 10
-533.3643
 20
119.87
 10
-533.4332
 20
120.1254
 10
-533.4824
 20
120.3853
 10
-533.512
 20
120.6495
 10
-533.5218
 20
120.9183
 10
-533.5166
 20
121.1801
 10
-533.501
 20
121.4244
 10
-533.4751
 20
121.6514
 10
-533.4388
 20
121.8608
 10
-533.3921
 20
122.0528
 10
-533.335
 20
122.2273
 10
-533.2675
 20
122.3841
 10
-533.1897
 20
122.5234
 10
-532.9284
 20
122.8754
 10
-532.6222
 20
123.1804
 10
-532.2712
 20
123.4386
 10
-531.8753
 20
123.6498
 10
-531.4345
 20
123.814
 10
-530.9488
 20
123.9313
 10
-530.4181
 20
124.0017
 10
-529.8425
 20
124.0252
 10
-520.2065
 20
124.0252
  0
ENDSEC
  0
SECTION
  2
OBJECTS
  0
DICTIONARY
  5
C
330
0
100
AcDbDictionary
281
     1
  3
ACAD_DETAILVIEWSTYLE
350
FF
  3
ACAD_GROUP
350
D
  3
ACAD_LAYOUT
350
1A
  3
ACAD_MATERIAL
350
43
  3
ACAD_MLEADERSTYLE
350
5B
  3
ACAD_MLINESTYLE
350
17
  3
ACAD_PLOTSETTINGS
350
19
  3
ACAD_PLOTSTYLENAME
350
E
  3
ACAD_SCALELIST
350
47
  3
ACAD_SECTIONVIEWSTYLE
350
100
  3
ACAD_TABLESTYLE
350
59
  3
ACAD_VISUALSTYLE
350
2A
  3
ACDB_RECOMPOSE_DATA
350
FC
  3
AcDbVariableDictionary
350
F8
  0
SUN
  5
5D
330
29
100
AcDbSun
 90
        1
290
     0
 63
     7
421
 16777215
 40
1.0
291
     1
 91
  2455826
 92
 54000000
292
     0
 70
     2
 71
   256
280
     1
  0
DICTIONARY
  5
FF
102
{ACAD_REACTORS
330
C
102
}
330
C
100
AcDbDictionary
281
     1
  0
DICTIONARY
  5
D
102
{ACAD_REACTORS
330
C
102
}
330
C
100
AcDbDictionary
281
     1
  0
DICTIONARY
  5
1A
102
{ACAD_REACTORS
330
C
102
}
330
C
100
AcDbDictionary
281
     1
  3
Layout1
350
1E
  3
Layout2
350
26
  3
Model
350
22
  0
DICTIONARY
  5
43
102
{ACAD_REACTORS
330
C
102
}
330
C
100
AcDbDictionary
281
     1
  3
ByBlock
350
45
  3
ByLayer
350
44
  3
Global
350
46
  0
DICTIONARY
  5
5B
102
{ACAD_REACTORS
330
C
102
}
330
C
100
AcDbDictionary
281
     1
  3
Standard
350
5C
  0
DICTIONARY
  5
17
102
{ACAD_REACTORS
330
C
102
}
330
C
100
AcDbDictionary
281
     1
  3
Standard
350
18
  0
DICTIONARY
  5
19
102
{ACAD_REACTORS
330
C
102
}
330
C
100
AcDbDictionary
281
     1
  0
ACDBDICTIONARYWDFLT
  5
E
102
{ACAD_REACTORS
330
C
102
}
330
C
100
AcDbDictionary
281
     1
  3
Normal
350
F
100
AcDbDictionaryWithDefault
340
F
  0
DICTIONARY
  5
47
102
{ACAD_REACTORS
330
C
102
}
330
C
100
AcDbDictionary
281
     1
  3
A0
350
48
  3
A1
350
49
  3
A2
350
4A
  3
A3
350
4B
  3
A4
350
4C
  3
A5
350
4D
  3
A6
350
4E
  3
A7
350
4F
  3
A8
350
50
  3
A9
350
51
  3
B1
350
52
  3
B2
350
53
  3
B3
350
54
  3
B4
350
55
  3
B5
350
56
  3
B6
350
57
  3
B7
350
58
  0
DICTIONARY
  5
100
102
{ACAD_REACTORS
330
C
102
}
330
C
100
AcDbDictionary
281
     1
  0
DICTIONARY
  5
59
102
{ACAD_REACTORS
330
C
102
}
330
C
100
AcDbDictionary
281
     1
  3
Standard
350
5A
  0
DICTIONARY
  5
2A
102
{ACAD_REACTORS
330
C
102
}
330
C
100
AcDbDictionary
281
     1
  3
2dWireframe
350
2F
  3
Basic
350
32
  3
Brighten
350
36
  3
ColorChange
350
3A
  3
Conceptual
350
34
  3
Dim
350
35
  3
EdgeColorOff
350
3D
  3
Facepattern
350
39
  3
Flat
350
2B
  3
FlatWithEdges
350
2C
  3
Gouraud
350
2D
  3
GouraudWithEdges
350
2E
  3
Hidden
350
31
  3
JitterOff
350
3B
  3
Linepattern
350
38
  3
OverhangOff
350
3C
  3
Realistic
350
33
  3
Shaded
350
42
  3
Shaded with edges
350
41
  3
Shades of Gray
350
3E
  3
Sketchy
350
3F
  3
Thicken
350
37
  3
Wireframe
350
30
  3
X-Ray
350
40
  0
XRECORD
  5
FC
102
{ACAD_REACTORS
330
C
102
}
330
C
100
AcDbXrecord
280
     1
 90
        1
330
5A
  0
DICTIONARY
  5
F8
102
{ACAD_REACTORS
330
C
102
}
330
C
100
AcDbDictionary
281
     1
  3
CANNOSCALE
350
F9
  3
CMLEADERSTYLE
350
FE
  3
CTABLESTYLE
350
FD
  0
LAYOUT
  5
1E
102
{ACAD_REACTORS
330
1A
102
}
330
1A
100
AcDbPlotSettings
  1

  2
none_device
  4

  6

 40
0.0
 41
0.0
 42
0.0
 43
0.0
 44
0.0
 45
0.0
 46
0.0
 47
0.0
 48
0.0
 49
0.0
140
0.0
141
0.0
142
1.0
143
1.0
 70
   688
 72
     0
 73
     0
 74
     5
  7

 75
    16
 76
     0
 77
     2
 78
   300
147
1.0
148
0.0
149
0.0
100
AcDbLayout
  1
Layout1
 70
     1
 71
     1
 10
0.0
 20
0.0
 11
12.0
 21
9.0
 12
0.0
 22
0.0
 32
0.0
 14
1.000000000000000E+20
 24
1.000000000000000E+20
 34
1.000000000000000E+20
 15
-1.000000000000000E+20
 25
-1.000000000000000E+20
 35
-1.000000000000000E+20
146
0.0
 13
0.0
 23
0.0
 33
0.0
 16
1.0
 26
0.0
 36
0.0
 17
0.0
 27
1.0
 37
0.0
 76
     0
330
1B
  0
LAYOUT
  5
26
102
{ACAD_REACTORS
330
1A
102
}
330
1A
100
AcDbPlotSettings
  1

  2
none_device
  4

  6

 40
0.0
 41
0.0
 42
0.0
 43
0.0
 44
0.0
 45
0.0
 46
0.0
 47
0.0
 48
0.0
 49
0.0
140
0.0
141
0.0
142
1.0
143
1.0
 70
   688
 72
     0
 73
     0
 74
     5
  7

 75
    16
 76
     0
 77
     2
 78
   300
147
1.0
148
0.0
149
0.0
100
AcDbLayout
  1
Layout2
 70
     1
 71
     2
 10
0.0
 20
0.0
 11
0.0
 21
0.0
 12
0.0
 22
0.0
 32
0.0
 14
0.0
 24
0.0
 34
0.0
 15
0.0
 25
0.0
 35
0.0
146
0.0
 13
0.0
 23
0.0
 33
0.0
 16
1.0
 26
0.0
 36
0.0
 17
0.0
 27
1.0
 37
0.0
 76
     0
330
23
  0
LAYOUT
  5
22
102
{ACAD_REACTORS
330
1A
102
}
330
1A
100
AcDbPlotSettings
  1

  2
none_device
  4
Letter_(8.50_x_11.00_Inches)
  6

 40
6.35
 41
6.35
 42
6.35000508
 43
6.35000508
 44
215.9
 45
279.4
 46
0.0
 47
0.0
 48
0.0
 49
0.0
140
0.0
141
0.0
142
1.0
143
1.0
 70
  1712
 72
     0
 73
     0
 74
     0
  7

 75
     0
 76
     0
 77
     2
 78
   300
147
1.0
148
0.0
149
0.0
100
AcDbLayout
  1
Model
 70
     1
 71
     0
 10
0.0
 20
0.0
 11
12.0
 21
9.0
 12
0.0
 22
0.0
 32
0.0
 14
-788.558
 24
-172.2074
 34
0.0
 15
-486.4871
 25
322.3249
 35
0.0
146
0.0
 13
0.0
 23
0.0
 33
0.0
 16
1.0
 26
0.0
 36
0.0
 17
0.0
 27
1.0
 37
0.0
 76
     0
330
1F
331
29
  0
MATERIAL
  5
45
102
{ACAD_REACTORS
330
43
102
}
330
43
100
AcDbMaterial
  1
ByBlock
 72
     1
 94
      127
  0
MATERIAL
  5
44
102
{ACAD_REACTORS
330
43
102
}
330
43
100
AcDbMaterial
  1
ByLayer
 72
     1
 94
      127
  0
MATERIAL
  5
46
102
{ACAD_REACTORS
330
43
102
}
330
43
100
AcDbMaterial
  1
Global
 72
     1
 94
      127
  0
MLEADERSTYLE
  5
5C
102
{ACAD_REACTORS
330
5B
102
}
330
5B
100
AcDbMLeaderStyle
179
     2
170
     2
171
     1
172
     0
 90
        2
 40
0.0
 41
0.0
173
     1
 91
-1056964608
340
14
 92
       -2
290
     1
 42
0.09
291
     1
 43
0.36
  3
Standard
341
0
 44
0.18
300

342
11
174
     1
178
     6
175
     1
176
     0
 93
-1056964608
 45
0.18
292
     0
297
     0
 46
0.18
343
0
 94
-1056964608
 47
1.0
 49
1.0
140
1.0
293
     1
141
0.0
294
     1
177
     0
142
1.0
295
     0
296
     0
143
0.125
271
     0
272
     9
273
     9
298
     0
  0
MLINESTYLE
  5
18
102
{ACAD_REACTORS
330
17
102
}
330
17
100
AcDbMlineStyle
  2
Standard
 70
     0
  3

 62
   256
 51
90.0
 52
90.0
 71
     2
 49
0.5
 62
   256
  6
BYLAYER
 49
-0.5
 62
   256
  6
BYLAYER
  0
ACDBPLACEHOLDER
  5
F
102
{ACAD_REACTORS
330
E
102
}
330
E
  0
SCALE
  5
48
102
{ACAD_REACTORS
330
47
102
}
330
47
100
AcDbScale
 70
     0
300
1:1
140
1.0
141
1.0
290
     1
  0
SCALE
  5
49
102
{ACAD_REACTORS
330
47
102
}
330
47
100
AcDbScale
 70
     0
300
1/128" = 1'-0"
140
0.0078125
141
12.0
290
     0
  0
SCALE
  5
4A
102
{ACAD_REACTORS
330
47
102
}
330
47
100
AcDbScale
 70
     0
300
1/64" = 1'-0"
140
0.015625
141
12.0
290
     0
  0
SCALE
  5
4B
102
{ACAD_REACTORS
330
47
102
}
330
47
100
AcDbScale
 70
     0
300
1/32" = 1'-0"
140
0.03125
141
12.0
290
     0
  0
SCALE
  5
4C
102
{ACAD_REACTORS
330
47
102
}
330
47
100
AcDbScale
 70
     0
300
1/16" = 1'-0"
140
0.0625
141
12.0
290
     0
  0
SCALE
  5
4D
102
{ACAD_REACTORS
330
47
102
}
330
47
100
AcDbScale
 70
     0
300
3/32" = 1'-0"
140
0.09375
141
12.0
290
     0
  0
SCALE
  5
4E
102
{ACAD_REACTORS
330
47
102
}
330
47
100
AcDbScale
 70
     0
300
1/8" = 1'-0"
140
0.125
141
12.0
290
     0
  0
SCALE
  5
4F
102
{ACAD_REACTORS
330
47
102
}
330
47
100
AcDbScale
 70
     0
300
3/16" = 1'-0"
140
0.1875
141
12.0
290
     0
  0
SCALE
  5
50
102
{ACAD_REACTORS
330
47
102
}
330
47
100
AcDbScale
 70
     0
300
1/4" = 1'-0"
140
0.25
141
12.0
290
     0
  0
SCALE
  5
51
102
{ACAD_REACTORS
330
47
102
}
330
47
100
AcDbScale
 70
     0
300
3/8" = 1'-0"
140
0.375
141
12.0
290
     0
  0
SCALE
  5
52
102
{ACAD_REACTORS
330
47
102
}
330
47
100
AcDbScale
 70
     0
300
1/2" = 1'-0"
140
0.5
141
12.0
290
     0
  0
SCALE
  5
53
102
{ACAD_REACTORS
330
47
102
}
330
47
100
AcDbScale
 70
     0
300
3/4" = 1'-0"
140
0.75
141
12.0
290
     0
  0
SCALE
  5
54
102
{ACAD_REACTORS
330
47
102
}
330
47
100
AcDbScale
 70
     0
300
1" = 1'-0"
140
1.0
141
12.0
290
     0
  0
SCALE
  5
55
102
{ACAD_REACTORS
330
47
102
}
330
47
100
AcDbScale
 70
     0
300
1-1/2" = 1'-0"
140
1.5
141
12.0
290
     0
  0
SCALE
  5
56
102
{ACAD_REACTORS
330
47
102
}
330
47
100
AcDbScale
 70
     0
300
3" = 1'-0"
140
3.0
141
12.0
290
     0
  0
SCALE
  5
57
102
{ACAD_REACTORS
330
47
102
}
330
47
100
AcDbScale
 70
     0
300
6" = 1'-0"
140
6.0
141
12.0
290
     0
  0
SCALE
  5
58
102
{ACAD_REACTORS
330
47
102
}
330
47
100
AcDbScale
 70
     0
300
1'-0" = 1'-0"
140
12.0
141
12.0
290
     0
  0
TABLESTYLE
  5
5A
102
{ACAD_REACTORS
330
59
102
}
102
{ACAD_XDICTIONARY
360
FA
102
}
330
59
100
AcDbTableStyle
  3
Standard
 70
     0
 71
     0
 40
0.06
 41
0.06
280
     0
281
     0
  7
Standard
140
0.18
170
     2
 62
     0
 63
   257
283
     0
 90
        4
 91
        0
  1

274
    -2
284
     1
 64
     0
275
    -2
285
     1
 65
     0
276
    -2
286
     1
 66
     0
277
    -2
287
     1
 67
     0
278
    -2
288
     1
 68
     0
279
    -2
289
     1
 69
     0
  7
Standard
140
0.25
170
     5
 62
     0
 63
   257
283
     0
 90
        4
 91
        0
  1

274
    -2
284
     1
 64
     0
275
    -2
285
     1
 65
     0
276
    -2
286
     1
 66
     0
277
    -2
287
     1
 67
     0
278
    -2
288
     1
 68
     0
279
    -2
289
     1
 69
     0
  7
Standard
140
0.18
170
     5
 62
     0
 63
   257
283
     0
 90
        4
 91
        0
  1

274
    -2
284
     1
 64
     0
275
    -2
285
     1
 65
     0
276
    -2
286
     1
 66
     0
277
    -2
287
     1
 67
     0
278
    -2
288
     1
 68
     0
279
    -2
289
     1
 69
     0
  0
VISUALSTYLE
  5
2F
102
{ACAD_REACTORS
330
2A
102
}
330
2A
100
AcDbVisualStyle
  2
2dWireframe
 70
     4
177
     3
291
     0
 70
    58
 90
        0
176
     1
 90
        2
176
     1
 90
        0
176
     1
 90
        0
176
     1
 40
0.6
176
     1
 40
30.0
176
     1
 62
     7
420
 16777215
176
     1
 90
        1
176
     1
 90
        4
176
     1
 62
     7
176
     1
 62
   257
176
     1
 90
        1
176
     1
 90
        1
176
     1
 40
1.0
176
     1
 90
        0
176
     1
 62
   257
176
     1
 40
1.0
176
     1
 90
        1
176
     1
 90
        6
176
     1
 90
        2
176
     1
 62
     7
176
     1
 90
        5
176
     1
 90
        0
176
     1
 90
        0
176
     1
290
     0
176
     1
 90
        1
176
     1
 40
0.0
176
     1
 90
        0
176
     1
290
     1
176
     1
290
     1
176
     1
290
     0
176
     1
290
     0
176
     1
290
     0
176
     1
290
     0
176
     1
290
     0
176
     1
290
     0
176
     1
290
     0
176
     1
 90
       50
176
     1
 40
0.0
176
     1
 40
1.0
176
     1
 90
        0
176
     1
 62
    18
420
        0
176
     1
 90
       50
176
     1
 90
        3
176
     1
 62
     5
420
      255
176
     1
290
     0
176
     1
 90
       50
176
     1
 90
       50
176
     1
 90
       50
176
     1
290
     0
176
     1
 90
       50
176
     1
 62
   256
176
     0
 40
1.0
176
     0
 90
        2
176
     1
  1
strokes_ogs.tif
176
     1
290
     0
176
     1
 40
1.0
176
     1
 40
1.0
176
     1
  0
VISUALSTYLE
  5
32
102
{ACAD_REACTORS
330
2A
102
}
330
2A
100
AcDbVisualStyle
  2
Basic
 70
     7
177
     3
291
     1
 70
    58
 90
        1
176
     1
 90
        0
176
     1
 90
        1
176
     1
 90
        0
176
     1
 40
0.6
176
     1
 40
30.0
176
     1
 62
     7
420
 16777215
176
     1
 90
        0
176
     1
 90
        4
176
     1
 62
     7
176
     1
 62
   257
176
     1
 90
        1
176
     1
 90
        1
176
     1
 40
1.0
176
     1
 90
        8
176
     1
 62
     7
176
     1
 40
1.0
176
     1
 90
        1
176
     1
 90
        6
176
     1
 90
        2
176
     1
 62
     7
176
     1
 90
        5
176
     1
 90
        0
176
     1
 90
        0
176
     1
290
     0
176
     1
 90
        1
176
     1
 40
0.0
176
     1
 90
        0
176
     1
290
     0
176
     1
290
     1
176
     1
290
     1
176
     1
290
     0
176
     1
290
     0
176
     1
290
     0
176
     1
290
     0
176
     1
290
     0
176
     1
290
     0
176
     1
 90
       50
176
     1
 40
0.0
176
     1
 40
1.0
176
     1
 90
        0
176
     1
 62
    18
420
        0
176
     1
 90
       50
176
     1
 90
        3
176
     1
 62
     5
420
      255
176
     1
290
     0
176
     1
 90
       50
176
     1
 90
       50
176
     1
 90
       50
176
     1
290
     0
176
     1
 90
       50
176
     1
 62
   256
176
     0
 40
1.0
176
     0
 90
        2
176
     1
  1
strokes_ogs.tif
176
     1
290
     0
176
     1
 40
1.0
176
     1
 40
1.0
176
     1
  0
VISUALSTYLE
  5
36
102
{ACAD_REACTORS
330
2A
102
}
330
2A
100
AcDbVisualStyle
  2
Brighten
 70
    12
177
     3
291
     1
 70
    58
 90
        2
176
     1
 90
        2
176
     1
 90
        0
176
     1
 90
        0
176
     1
 40
0.6
176
     1
 40
30.0
176
     1
 62
     7
420
 16777215
176
     1
 90
        1
176
     1
 90
        4
176
     1
 62
     7
176
     1
 62
   257
176
     1
 90
        1
176
     1
 90
        1
176
     1
 40
1.0
176
     1
 90
        8
176
     1
 62
     7
176
     1
 40
1.0
176
     1
 90
        1
176
     1
 90
        6
176
     1
 90
        2
176
     1
 62
     7
176
     1
 90
        5
176
     1
 90
        0
176
     1
 90
        0
176
     1
290
     0
176
     1
 90
        1
176
     1
 40
50.0
176
     1
 90
        0
176
     1
290
     0
176
     1
290
     1
176
     1
290
     1
176
     1
290
     0
176
     1
290
     0
176
     1
290
     0
176
     1
290
     0
176
     1
290
     0
176
     1
290
     0
176
     1
 90
       50
176
     1
 40
0.0
176
     1
 40
1.0
176
     1
 90
        0
176
     1
 62
    18
420
        0
176
     1
 90
       50
176
     1
 90
        3
176
     1
 62
     5
420
      255
176
     1
290
     0
176
     1
 90
       50
176
     1
 90
       50
176
     1
 90
       50
176
     1
290
     0
176
     1
 90
       50
176
     1
 62
   256
176
     0
 40
1.0
176
     0
 90
        2
176
     1
  1
strokes_ogs.tif
176
     1
290
     0
176
     1
 40
1.0
176
     1
 40
1.0
176
     1
  0
VISUALSTYLE
  5
3A
102
{ACAD_REACTORS
330
2A
102
}
330
2A
100
AcDbVisualStyle
  2
ColorChange
 70
    16
177
     3
291
     1
 70
    58
 90
        2
176
     1
 90
        2
176
     1
 90
        3
176
     1
 90
        0
176
     1
 40
0.6
176
     1
 40
30.0
176
     1
 62
     8
420
  8421504
176
     1
 90
        1
176
     1
 90
        4
176
     1
 62
     7
176
     1
 62
   257
176
     1
 90
        1
176
     1
 90
        1
176
     1
 40
1.0
176
     1
 90
        8
176
     1
 62
     8
420
  8421504
176
     1
 40
1.0
176
     1
 90
        1
176
     1
 90
        6
176
     1
 90
        2
176
     1
 62
     7
176
     1
 90
        5
176
     1
 90
        0
176
     1
 90
        0
176
     1
290
     0
176
     1
 90
        1
176
     1
 40
0.0
176
     1
 90
        0
176
     1
290
     0
176
     1
290
     1
176
     1
290
     1
176
     1
290
     0
176
     1
290
     0
176
     1
290
     0
176
     1
290
     0
176
     1
290
     0
176
     1
290
     0
176
     1
 90
       50
176
     1
 40
0.0
176
     1
 40
1.0
176
     1
 90
        0
176
     1
 62
    18
420
        0
176
     1
 90
       50
176
     1
 90
        3
176
     1
 62
     5
420
      255
176
     1
290
     0
176
     1
 90
       50
176
     1
 90
       50
176
     1
 90
       50
176
     1
290
     0
176
     1
 90
       50
176
     1
 62
   256
176
     0
 40
1.0
176
     0
 90
        2
176
     1
  1
strokes_ogs.tif
176
     1
290
     0
176
     1
 40
1.0
176
     1
 40
1.0
176
     1
  0
VISUALSTYLE
  5
34
102
{ACAD_REACTORS
330
2A
102
}
330
2A
100
AcDbVisualStyle
  2
Conceptual
 70
     9
177
     3
291
     0
 70
    58
 90
        3
176
     1
 90
        2
176
     1
 90
        0
176
     1
 90
        0
176
     1
 40
0.6
176
     1
 40
30.0
176
     1
 62
     7
420
 16777215
176
     1
 90
        2
176
     1
 90
        2
176
     1
 62
     7
176
     1
 62
   257
176
     1
 90
        1
176
     1
 90
        1
176
     1
 40
179.0
176
     1
 90
        8
176
     1
 62
     7
176
     1
 40
1.0
176
     1
 90
        1
176
     1
 90
        6
176
     1
 90
        2
176
     1
 62
     7
176
     1
 90
        3
176
     1
 90
        0
176
     1
 90
        0
176
     1
290
     0
176
     1
 90
        1
176
     1
 40
0.0
176
     1
 90
        0
176
     1
290
     0
176
     1
290
     1
176
     1
290
     1
176
     1
290
     0
176
     1
290
     0
176
     1
290
     0
176
     1
290
     0
176
     1
290
     0
176
     1
290
     0
176
     1
 90
       50
176
     1
 40
0.0
176
     1
 40
1.0
176
     1
 90
        0
176
     1
 62
    18
420
        0
176
     1
 90
       50
176
     1
 90
        3
176
     1
 62
     5
420
      255
176
     1
290
     0
176
     1
 90
       50
176
     1
 90
       50
176
     1
 90
       50
176
     1
290
     0
176
     1
 90
       50
176
     1
 62
   256
176
     0
 40
1.0
176
     0
 90
        2
176
     1
  1
strokes_ogs.tif
176
     1
290
     0
176
     1
 40
1.0
176
     1
 40
1.0
176
     1
  0
VISUALSTYLE
  5
35
102
{ACAD_REACTORS
330
2A
102
}
330
2A
100
AcDbVisualStyle
  2
Dim
 70
    11
177
     3
291
     1
 70
    58
 90
        2
176
     1
 90
        2
176
     1
 90
        0
176
     1
 90
        0
176
     1
 40
0.6
176
     1
 40
30.0
176
     1
 62
     7
420
 16777215
176
     1
 90
        1
176
     1
 90
        4
176
     1
 62
     7
176
     1
 62
   257
176
     1
 90
        1
176
     1
 90
        1
176
     1
 40
1.0
176
     1
 90
        8
176
     1
 62
     7
176
     1
 40
1.0
176
     1
 90
        1
176
     1
 90
        6
176
     1
 90
        2
176
     1
 62
     7
176
     1
 90
        5
176
     1
 90
        0
176
     1
 90
        0
176
     1
290
     0
176
     1
 90
        1
176
     1
 40
-50.0
176
     1
 90
        0
176
     1
290
     0
176
     1
290
     1
176
     1
290
     1
176
     1
290
     0
176
     1
290
     0
176
     1
290
     0
176
     1
290
     0
176
     1
290
     0
176
     1
290
     0
176
     1
 90
       50
176
     1
 40
0.0
176
     1
 40
1.0
176
     1
 90
        0
176
     1
 62
    18
420
        0
176
     1
 90
       50
176
     1
 90
        3
176
     1
 62
     5
420
      255
176
     1
290
     0
176
     1
 90
       50
176
     1
 90
       50
176
     1
 90
       50
176
     1
290
     0
176
     1
 90
       50
176
     1
 62
   256
176
     0
 40
1.0
176
     0
 90
        2
176
     1
  1
strokes_ogs.tif
176
     1
290
     0
176
     1
 40
1.0
176
     1
 40
1.0
176
     1
  0
VISUALSTYLE
  5
3D
102
{ACAD_REACTORS
330
2A
102
}
330
2A
100
AcDbVisualStyle
  2
EdgeColorOff
 70
    22
177
     3
291
     1
 70
    58
 90
        2
176
     0
 90
        2
176
     0
 90
        0
176
     0
 90
        0
176
     0
 40
0.6
176
     0
 40
30.0
176
     0
 62
     7
420
 16777215
176
     0
 90
        1
176
     0
 90
        4
176
     0
 62
     7
176
     0
 62
   257
176
     0
 90
        1
176
     0
 90
        1
176
     0
 40
1.0
176
     0
 90
        8
176
     2
 62
     7
176
     0
 40
1.0
176
     0
 90
        1
176
     0
 90
        6
176
     0
 90
        2
176
     0
 62
     7
176
     0
 90
        5
176
     0
 90
        0
176
     0
 90
        0
176
     0
290
     0
176
     0
 90
        1
176
     0
 40
0.0
176
     0
 90
        0
176
     0
290
     0
176
     0
290
     1
176
     0
290
     1
176
     0
290
     0
176
     0
290
     0
176
     0
290
     0
176
     0
290
     0
176
     0
290
     0
176
     0
290
     0
176
     0
 90
       50
176
     0
 40
0.0
176
     0
 40
1.0
176
     0
 90
        0
176
     0
 62
    18
420
        0
176
     0
 90
       50
176
     0
 90
        3
176
     0
 62
     5
420
      255
176
     0
290
     0
176
     0
 90
       50
176
     0
 90
       50
176
     0
 90
       50
176
     0
290
     0
176
     0
 90
       50
176
     0
 62
   256
176
     0
 40
1.0
176
     0
 90
        2
176
     0
  1
strokes_ogs.tif
176
     0
290
     0
176
     0
 40
1.0
176
     0
 40
1.0
176
     0
  0
VISUALSTYLE
  5
39
102
{ACAD_REACTORS
330
2A
102
}
330
2A
100
AcDbVisualStyle
  2
Facepattern
 70
    15
177
     3
291
     1
 70
    58
 90
        2
176
     1
 90
        2
176
     1
 90
        0
176
     1
 90
        0
176
     1
 40
0.6
176
     1
 40
30.0
176
     1
 62
     7
420
 16777215
176
     1
 90
        1
176
     1
 90
        4
176
     1
 62
     7
176
     1
 62
   257
176
     1
 90
        1
176
     1
 90
        1
176
     1
 40
1.0
176
     1
 90
        8
176
     1
 62
     7
176
     1
 40
1.0
176
     1
 90
        1
176
     1
 90
        6
176
     1
 90
        2
176
     1
 62
     7
176
     1
 90
        5
176
     1
 90
        0
176
     1
 90
        0
176
     1
290
     0
176
     1
 90
        1
176
     1
 40
0.0
176
     1
 90
        0
176
     1
290
     0
176
     1
290
     1
176
     1
290
     1
176
     1
290
     0
176
     1
290
     0
176
     1
290
     0
176
     1
290
     0
176
     1
290
     0
176
     1
290
     0
176
     1
 90
       50
176
     1
 40
0.0
176
     1
 40
1.0
176
     1
 90
        0
176
     1
 62
    18
420
        0
176
     1
 90
       50
176
     1
 90
        3
176
     1
 62
     5
420
      255
176
     1
290
     0
176
     1
 90
       50
176
     1
 90
       50
176
     1
 90
       50
176
     1
290
     0
176
     1
 90
       50
176
     1
 62
   256
176
     0
 40
1.0
176
     0
 90
        2
176
     1
  1
strokes_ogs.tif
176
     1
290
     0
176
     1
 40
1.0
176
     1
 40
1.0
176
     1
  0
VISUALSTYLE
  5
2B
102
{ACAD_REACTORS
330
2A
102
}
330
2A
100
AcDbVisualStyle
  2
Flat
 70
     0
177
     3
291
     1
 70
    58
 90
        2
176
     1
 90
        1
176
     1
 90
        1
176
     1
 90
        2
176
     1
 40
0.6
176
     1
 40
30.0
176
     1
 62
     7
420
 16777215
176
     1
 90
        0
176
     1
 90
        0
176
     1
 62
     7
176
     1
 62
   257
176
     1
 90
        1
176
     1
 90
        1
176
     1
 40
1.0
176
     1
 90
        8
176
     1
 62
     7
176
     1
 40
1.0
176
     1
 90
        1
176
     1
 90
        6
176
     1
 90
        2
176
     1
 62
     7
176
     1
 90
        5
176
     1
 90
        0
176
     1
 90
        0
176
     1
290
     0
176
     1
 90
       13
176
     1
 40
0.0
176
     1
 90
        0
176
     1
290
     0
176
     1
290
     1
176
     1
290
     1
176
     1
290
     0
176
     1
290
     0
176
     1
290
     0
176
     1
290
     0
176
     1
290
     0
176
     1
290
     0
176
     1
 90
       50
176
     1
 40
0.0
176
     1
 40
1.0
176
     1
 90
        0
176
     1
 62
    18
420
        0
176
     1
 90
       50
176
     1
 90
        3
176
     1
 62
     5
420
      255
176
     1
290
     0
176
     1
 90
       50
176
     1
 90
       50
176
     1
 90
       50
176
     1
290
     0
176
     1
 90
       50
176
     1
 62
   256
176
     0
 40
1.0
176
     0
 90
        2
176
     1
  1
strokes_ogs.tif
176
     1
290
     0
176
     1
 40
1.0
176
     1
 40
1.0
176
     1
  0
VISUALSTYLE
  5
2C
102
{ACAD_REACTORS
330
2A
102
}
330
2A
100
AcDbVisualStyle
  2
FlatWithEdges
 70
     1
177
     3
291
     1
 70
    58
 90
        2
176
     1
 90
        1
176
     1
 90
        1
176
     1
 90
        2
176
     1
 40
0.6
176
     1
 40
30.0
176
     1
 62
     7
420
 16777215
176
     1
 90
        1
176
     1
 90
        0
176
     1
 62
     7
176
     1
 62
   257
176
     1
 90
        1
176
     1
 90
        1
176
     1
 40
1.0
176
     1
 90
        0
176
     1
 62
   257
176
     1
 40
1.0
176
     1
 90
        1
176
     1
 90
        6
176
     1
 90
        2
176
     1
 62
     7
176
     1
 90
        5
176
     1
 90
        0
176
     1
 90
        0
176
     1
290
     0
176
     1
 90
       13
176
     1
 40
0.0
176
     1
 90
        0
176
     1
290
     0
176
     1
290
     1
176
     1
290
     1
176
     1
290
     0
176
     1
290
     0
176
     1
290
     0
176
     1
290
     0
176
     1
290
     0
176
     1
290
     0
176
     1
 90
       50
176
     1
 40
0.0
176
     1
 40
1.0
176
     1
 90
        0
176
     1
 62
    18
420
        0
176
     1
 90
       50
176
     1
 90
        3
176
     1
 62
     5
420
      255
176
     1
290
     0
176
     1
 90
       50
176
     1
 90
       50
176
     1
 90
       50
176
     1
290
     0
176
     1
 90
       50
176
     1
 62
   256
176
     0
 40
1.0
176
     0
 90
        2
176
     1
  1
strokes_ogs.tif
176
     1
290
     0
176
     1
 40
1.0
176
     1
 40
1.0
176
     1
  0
VISUALSTYLE
  5
2D
102
{ACAD_REACTORS
330
2A
102
}
330
2A
100
AcDbVisualStyle
  2
Gouraud
 70
     2
177
     3
291
     1
 70
    58
 90
        2
176
     1
 90
        2
176
     1
 90
        1
176
     1
 90
        2
176
     1
 40
0.6
176
     1
 40
30.0
176
     1
 62
     7
420
 16777215
176
     1
 90
        0
176
     1
 90
        0
176
     1
 62
     7
176
     1
 62
   257
176
     1
 90
        1
176
     1
 90
        1
176
     1
 40
1.0
176
     1
 90
        0
176
     1
 62
     7
176
     1
 40
1.0
176
     1
 90
        1
176
     1
 90
        6
176
     1
 90
        2
176
     1
 62
     7
176
     1
 90
        5
176
     1
 90
        0
176
     1
 90
        0
176
     1
290
     0
176
     1
 90
       13
176
     1
 40
0.0
176
     1
 90
        0
176
     1
290
     0
176
     1
290
     1
176
     1
290
     1
176
     1
290
     0
176
     1
290
     0
176
     1
290
     0
176
     1
290
     0
176
     1
290
     0
176
     1
290
     0
176
     1
 90
       50
176
     1
 40
0.0
176
     1
 40
1.0
176
     1
 90
        0
176
     1
 62
    18
420
        0
176
     1
 90
       50
176
     1
 90
        3
176
     1
 62
     5
420
      255
176
     1
290
     0
176
     1
 90
       50
176
     1
 90
       50
176
     1
 90
       50
176
     1
290
     0
176
     1
 90
       50
176
     1
 62
   256
176
     0
 40
1.0
176
     0
 90
        2
176
     1
  1
strokes_ogs.tif
176
     1
290
     0
176
     1
 40
1.0
176
     1
 40
1.0
176
     1
  0
VISUALSTYLE
  5
2E
102
{ACAD_REACTORS
330
2A
102
}
330
2A
100
AcDbVisualStyle
  2
GouraudWithEdges
 70
     3
177
     3
291
     1
 70
    58
 90
        2
176
     1
 90
        2
176
     1
 90
        1
176
     1
 90
        2
176
     1
 40
0.6
176
     1
 40
30.0
176
     1
 62
     7
420
 16777215
176
     1
 90
        1
176
     1
 90
        0
176
     1
 62
     7
176
     1
 62
   257
176
     1
 90
        1
176
     1
 90
        1
176
     1
 40
1.0
176
     1
 90
        0
176
     1
 62
   257
176
     1
 40
1.0
176
     1
 90
        1
176
     1
 90
        6
176
     1
 90
        2
176
     1
 62
     7
176
     1
 90
        5
176
     1
 90
        0
176
     1
 90
        0
176
     1
290
     0
176
     1
 90
       13
176
     1
 40
0.0
176
     1
 90
        0
176
     1
290
     0
176
     1
290
     1
176
     1
290
     1
176
     1
290
     0
176
     1
290
     0
176
     1
290
     0
176
     1
290
     0
176
     1
290
     0
176
     1
290
     0
176
     1
 90
       50
176
     1
 40
0.0
176
     1
 40
1.0
176
     1
 90
        0
176
     1
 62
    18
420
        0
176
     1
 90
       50
176
     1
 90
        3
176
     1
 62
     5
420
      255
176
     1
290
     0
176
     1
 90
       50
176
     1
 90
       50
176
     1
 90
       50
176
     1
290
     0
176
     1
 90
       50
176
     1
 62
   256
176
     0
 40
1.0
176
     0
 90
        2
176
     1
  1
strokes_ogs.tif
176
     1
290
     0
176
     1
 40
1.0
176
     1
 40
1.0
176
     1
  0
VISUALSTYLE
  5
31
102
{ACAD_REACTORS
330
2A
102
}
330
2A
100
AcDbVisualStyle
  2
Hidden
 70
     6
177
     3
291
     0
 70
    58
 90
        1
176
     1
 90
        2
176
     1
 90
        2
176
     1
 90
        0
176
     1
 40
0.6
176
     1
 40
30.0
176
     1
 62
     7
420
 16777215
176
     1
 90
        2
176
     1
 90
        2
176
     1
 62
     7
176
     1
 62
   257
176
     1
 90
        2
176
     1
 90
        1
176
     1
 40
40.0
176
     1
 90
        0
176
     1
 62
   257
176
     1
 40
1.0
176
     1
 90
        1
176
     1
 90
        6
176
     1
 90
        2
176
     1
 62
     7
176
     1
 90
        3
176
     1
 90
        0
176
     1
 90
        0
176
     1
290
     0
176
     1
 90
        1
176
     1
 40
0.0
176
     1
 90
        0
176
     1
290
     0
176
     1
290
     1
176
     1
290
     1
176
     1
290
     0
176
     1
290
     0
176
     1
290
     0
176
     1
290
     0
176
     1
290
     0
176
     1
290
     0
176
     1
 90
       50
176
     1
 40
0.0
176
     1
 40
1.0
176
     1
 90
        0
176
     1
 62
    18
420
        0
176
     1
 90
       50
176
     1
 90
        3
176
     1
 62
     5
420
      255
176
     1
290
     0
176
     1
 90
       50
176
     1
 90
       50
176
     1
 90
       50
176
     1
290
     0
176
     1
 90
       50
176
     1
 62
   256
176
     0
 40
1.0
176
     0
 90
        2
176
     1
  1
strokes_ogs.tif
176
     1
290
     0
176
     1
 40
1.0
176
     1
 40
1.0
176
     1
  0
VISUALSTYLE
  5
3B
102
{ACAD_REACTORS
330
2A
102
}
330
2A
100
AcDbVisualStyle
  2
JitterOff
 70
    20
177
     3
291
     1
 70
    58
 90
        2
176
     0
 90
        2
176
     0
 90
        0
176
     0
 90
        0
176
     0
 40
0.6
176
     0
 40
30.0
176
     0
 62
     7
420
 16777215
176
     0
 90
        1
176
     0
 90
        4
176
     0
 62
     7
176
     0
 62
   257
176
     0
 90
        1
176
     0
 90
        1
176
     0
 40
1.0
176
     0
 90
       10
176
     2
 62
     7
176
     0
 40
1.0
176
     0
 90
        1
176
     0
 90
        6
176
     0
 90
        2
176
     0
 62
     7
176
     0
 90
        5
176
     0
 90
        0
176
     0
 90
        0
176
     0
290
     0
176
     0
 90
        1
176
     0
 40
0.0
176
     0
 90
        0
176
     0
290
     0
176
     0
290
     1
176
     0
290
     1
176
     0
290
     0
176
     0
290
     0
176
     0
290
     0
176
     0
290
     0
176
     0
290
     0
176
     0
290
     0
176
     0
 90
       50
176
     0
 40
0.0
176
     0
 40
1.0
176
     0
 90
        0
176
     0
 62
    18
420
        0
176
     0
 90
       50
176
     0
 90
        3
176
     0
 62
     5
420
      255
176
     0
290
     0
176
     0
 90
       50
176
     0
 90
       50
176
     0
 90
       50
176
     0
290
     0
176
     0
 90
       50
176
     0
 62
   256
176
     0
 40
1.0
176
     0
 90
        2
176
     0
  1
strokes_ogs.tif
176
     0
290
     0
176
     0
 40
1.0
176
     0
 40
1.0
176
     0
  0
VISUALSTYLE
  5
38
102
{ACAD_REACTORS
330
2A
102
}
330
2A
100
AcDbVisualStyle
  2
Linepattern
 70
    14
177
     3
291
     1
 70
    58
 90
        2
176
     1
 90
        2
176
     1
 90
        0
176
     1
 90
        0
176
     1
 40
0.6
176
     1
 40
30.0
176
     1
 62
     7
420
 16777215
176
     1
 90
        1
176
     1
 90
        4
176
     1
 62
     7
176
     1
 62
   257
176
     1
 90
        7
176
     1
 90
        7
176
     1
 40
1.0
176
     1
 90
        8
176
     1
 62
     7
176
     1
 40
1.0
176
     1
 90
        1
176
     1
 90
        6
176
     1
 90
        2
176
     1
 62
     7
176
     1
 90
        5
176
     1
 90
        0
176
     1
 90
        0
176
     1
290
     0
176
     1
 90
        1
176
     1
 40
0.0
176
     1
 90
        0
176
     1
290
     0
176
     1
290
     1
176
     1
290
     1
176
     1
290
     0
176
     1
290
     0
176
     1
290
     0
176
     1
290
     0
176
     1
290
     0
176
     1
290
     0
176
     1
 90
       50
176
     1
 40
0.0
176
     1
 40
1.0
176
     1
 90
        0
176
     1
 62
    18
420
        0
176
     1
 90
       50
176
     1
 90
        3
176
     1
 62
     5
420
      255
176
     1
290
     0
176
     1
 90
       50
176
     1
 90
       50
176
     1
 90
       50
176
     1
290
     0
176
     1
 90
       50
176
     1
 62
   256
176
     0
 40
1.0
176
     0
 90
        2
176
     1
  1
strokes_ogs.tif
176
     1
290
     0
176
     1
 40
1.0
176
     1
 40
1.0
176
     1
  0
VISUALSTYLE
  5
3C
102
{ACAD_REACTORS
330
2A
102
}
330
2A
100
AcDbVisualStyle
  2
OverhangOff
 70
    21
177
     3
291
     1
 70
    58
 90
        2
176
     0
 90
        2
176
     0
 90
        0
176
     0
 90
        0
176
     0
 40
0.6
176
     0
 40
30.0
176
     0
 62
     7
420
 16777215
176
     0
 90
        1
176
     0
 90
        4
176
     0
 62
     7
176
     0
 62
   257
176
     0
 90
        1
176
     0
 90
        1
176
     0
 40
1.0
176
     0
 90
        9
176
     2
 62
     7
176
     0
 40
1.0
176
     0
 90
        1
176
     0
 90
        6
176
     0
 90
        2
176
     0
 62
     7
176
     0
 90
        5
176
     0
 90
        0
176
     0
 90
        0
176
     0
290
     0
176
     0
 90
        1
176
     0
 40
0.0
176
     0
 90
        0
176
     0
290
     0
176
     0
290
     1
176
     0
290
     1
176
     0
290
     0
176
     0
290
     0
176
     0
290
     0
176
     0
290
     0
176
     0
290
     0
176
     0
290
     0
176
     0
 90
       50
176
     0
 40
0.0
176
     0
 40
1.0
176
     0
 90
        0
176
     0
 62
    18
420
        0
176
     0
 90
       50
176
     0
 90
        3
176
     0
 62
     5
420
      255
176
     0
290
     0
176
     0
 90
       50
176
     0
 90
       50
176
     0
 90
       50
176
     0
290
     0
176
     0
 90
       50
176
     0
 62
   256
176
     0
 40
1.0
176
     0
 90
        2
176
     0
  1
strokes_ogs.tif
176
     0
290
     0
176
     0
 40
1.0
176
     0
 40
1.0
176
     0
  0
VISUALSTYLE
  5
33
102
{ACAD_REACTORS
330
2A
102
}
330
2A
100
AcDbVisualStyle
  2
Realistic
 70
     8
177
     3
291
     0
 70
    58
 90
        2
176
     1
 90
        3
176
     1
 90
        0
176
     1
 90
        2
176
     1
 40
0.6
176
     1
 40
30.0
176
     1
 62
     7
420
 16777215
176
     1
 90
        0
176
     1
 90
        0
176
     1
 62
     7
176
     1
 62
   257
176
     1
 90
        1
176
     1
 90
        1
176
     1
 40
1.0
176
     1
 90
        8
176
     1
 62
   257
176
     1
 40
1.0
176
     1
 90
        1
176
     1
 90
        6
176
     1
 90
        2
176
     1
 62
     7
176
     1
 90
        3
176
     1
 90
        0
176
     1
 90
        0
176
     1
290
     0
176
     1
 90
       13
176
     1
 40
0.0
176
     1
 90
        0
176
     1
290
     0
176
     1
290
     1
176
     1
290
     1
176
     1
290
     0
176
     1
290
     0
176
     1
290
     0
176
     1
290
     0
176
     1
290
     0
176
     1
290
     0
176
     1
 90
       50
176
     1
 40
0.0
176
     1
 40
1.0
176
     1
 90
        0
176
     1
 62
    18
420
        0
176
     1
 90
       50
176
     1
 90
        3
176
     1
 62
     5
420
      255
176
     1
290
     0
176
     1
 90
       50
176
     1
 90
       50
176
     1
 90
       50
176
     1
290
     0
176
     1
 90
       50
176
     1
 62
   256
176
     0
 40
1.0
176
     0
 90
        2
176
     1
  1
strokes_ogs.tif
176
     1
290
     0
176
     1
 40
1.0
176
     1
 40
1.0
176
     1
  0
VISUALSTYLE
  5
42
102
{ACAD_REACTORS
330
2A
102
}
330
2A
100
AcDbVisualStyle
  2
Shaded
 70
    27
177
     3
291
     0
 70
    58
 90
        2
176
     1
 90
        2
176
     1
 90
        1
176
     1
 90
        2
176
     1
 40
0.6
176
     1
 40
30.0
176
     1
 62
     7
420
 16777215
176
     1
 90
        0
176
     1
 90
        4
176
     1
 62
     7
176
     1
 62
   257
176
     1
 90
        1
176
     1
 90
        1
176
     1
 40
1.0
176
     1
 90
        8
176
     1
 62
   257
176
     1
 40
1.0
176
     1
 90
        1
176
     1
 90
        6
176
     1
 90
        2
176
     1
 62
     8
420
  7895160
176
     1
 90
        3
176
     1
 90
        0
176
     1
 90
        0
176
     1
290
     0
176
     1
 90
        5
176
     1
 40
0.0
176
     1
 90
        0
176
     1
290
     0
176
     1
290
     1
176
     1
290
     1
176
     1
290
     0
176
     1
290
     0
176
     1
290
     0
176
     1
290
     0
176
     1
290
     0
176
     1
290
     0
176
     1
 90
       50
176
     1
 40
0.0
176
     1
 40
1.0
176
     1
 90
        0
176
     1
 62
    18
420
        0
176
     1
 90
       50
176
     1
 90
        3
176
     1
 62
     5
420
      255
176
     1
290
     0
176
     1
 90
       50
176
     1
 90
       50
176
     1
 90
       50
176
     1
290
     0
176
     1
 90
       50
176
     1
 62
   256
176
     0
 40
1.0
176
     0
 90
        2
176
     1
  1
strokes_ogs.tif
176
     1
290
     0
176
     1
 40
1.0
176
     1
 40
1.0
176
     1
  0
VISUALSTYLE
  5
41
102
{ACAD_REACTORS
330
2A
102
}
330
2A
100
AcDbVisualStyle
  2
Shaded with edges
 70
    26
177
     3
291
     0
 70
    58
 90
        2
176
     1
 90
        2
176
     1
 90
        1
176
     1
 90
        2
176
     1
 40
0.6
176
     1
 40
30.0
176
     1
 62
     7
420
 16777215
176
     1
 90
        1
176
     1
 90
       10
176
     1
 62
     7
176
     1
 62
   257
176
     1
 90
        2
176
     1
 90
        1
176
     1
 40
1.0
176
     1
 90
        8
176
     1
 62
   257
176
     1
 40
1.0
176
     1
 90
        1
176
     1
 90
        6
176
     1
 90
        2
176
     1
 62
     7
176
     1
 90
        3
176
     1
 90
        0
176
     1
 90
        0
176
     1
290
     0
176
     1
 90
        5
176
     1
 40
0.0
176
     1
 90
        0
176
     1
290
     0
176
     1
290
     1
176
     1
290
     1
176
     1
290
     0
176
     1
290
     0
176
     1
290
     0
176
     1
290
     0
176
     1
290
     0
176
     1
290
     0
176
     1
 90
       50
176
     1
 40
0.0
176
     1
 40
1.0
176
     1
 90
        0
176
     1
 62
    18
420
        0
176
     1
 90
       50
176
     1
 90
        3
176
     1
 62
     5
420
      255
176
     1
290
     0
176
     1
 90
       50
176
     1
 90
       50
176
     1
 90
       50
176
     1
290
     0
176
     1
 90
       50
176
     1
 62
   256
176
     0
 40
1.0
176
     0
 90
        2
176
     1
  1
strokes_ogs.tif
176
     1
290
     0
176
     1
 40
1.0
176
     1
 40
1.0
176
     1
  0
VISUALSTYLE
  5
3E
102
{ACAD_REACTORS
330
2A
102
}
330
2A
100
AcDbVisualStyle
  2
Shades of Gray
 70
    23
177
     3
291
     0
 70
    58
 90
        2
176
     1
 90
        2
176
     1
 90
        3
176
     1
 90
        0
176
     1
 40
0.6
176
     1
 40
30.0
176
     1
 62
     7
420
 16777215
176
     1
 90
        2
176
     1
 90
        2
176
     1
 62
     7
176
     1
 62
     7
176
     1
 90
        1
176
     1
 90
        1
176
     1
 40
40.0
176
     1
 90
        8
176
     1
 62
     7
176
     1
 40
1.0
176
     1
 90
        1
176
     1
 90
        6
176
     1
 90
        2
176
     1
 62
     7
176
     1
 90
        3
176
     1
 90
        0
176
     1
 90
        0
176
     1
290
     0
176
     1
 90
        1
176
     1
 40
0.0
176
     1
 90
        0
176
     1
290
     0
176
     1
290
     1
176
     1
290
     1
176
     1
290
     0
176
     1
290
     0
176
     1
290
     0
176
     1
290
     0
176
     1
290
     0
176
     1
290
     0
176
     1
 90
       50
176
     1
 40
0.0
176
     1
 40
1.0
176
     1
 90
        0
176
     1
 62
    18
420
        0
176
     1
 90
       50
176
     1
 90
        3
176
     1
 62
     5
420
      255
176
     1
290
     0
176
     1
 90
       50
176
     1
 90
       50
176
     1
 90
       50
176
     1
290
     0
176
     1
 90
       50
176
     1
 62
   256
176
     0
 40
1.0
176
     0
 90
        2
176
     1
  1
strokes_ogs.tif
176
     1
290
     0
176
     1
 40
1.0
176
     1
 40
1.0
176
     1
  0
VISUALSTYLE
  5
3F
102
{ACAD_REACTORS
330
2A
102
}
330
2A
100
AcDbVisualStyle
  2
Sketchy
 70
    24
177
     3
291
     0
 70
    58
 90
        1
176
     1
 90
        2
176
     1
 90
        2
176
     1
 90
        0
176
     1
 40
0.6
176
     1
 40
30.0
176
     1
 62
     7
420
 16777215
176
     1
 90
        2
176
     1
 90
        2
176
     1
 62
     7
176
     1
 62
     7
176
     1
 90
        1
176
     1
 90
        1
176
     1
 40
40.0
176
     1
 90
       11
176
     1
 62
     7
176
     1
 40
1.0
176
     1
 90
        1
176
     1
 90
        6
176
     1
 90
        2
176
     1
 62
     7
176
     1
 90
        6
176
     1
 90
        0
176
     1
 90
        0
176
     1
290
     0
176
     1
 90
        1
176
     1
 40
0.0
176
     1
 90
        0
176
     1
290
     0
176
     1
290
     1
176
     1
290
     1
176
     1
290
     0
176
     1
290
     0
176
     1
290
     0
176
     1
290
     0
176
     1
290
     0
176
     1
290
     0
176
     1
 90
       50
176
     1
 40
0.0
176
     1
 40
1.0
176
     1
 90
        0
176
     1
 62
    18
420
        0
176
     1
 90
       50
176
     1
 90
        3
176
     1
 62
     5
420
      255
176
     1
290
     0
176
     1
 90
       50
176
     1
 90
       50
176
     1
 90
       50
176
     1
290
     0
176
     1
 90
       50
176
     1
 62
   256
176
     0
 40
1.0
176
     0
 90
        2
176
     1
  1
strokes_ogs.tif
176
     1
290
     0
176
     1
 40
1.0
176
     1
 40
1.0
176
     1
  0
VISUALSTYLE
  5
37
102
{ACAD_REACTORS
330
2A
102
}
330
2A
100
AcDbVisualStyle
  2
Thicken
 70
    13
177
     3
291
     1
 70
    58
 90
        2
176
     1
 90
        2
176
     1
 90
        0
176
     1
 90
        0
176
     1
 40
0.6
176
     1
 40
30.0
176
     1
 62
     7
420
 16777215
176
     1
 90
        1
176
     1
 90
        4
176
     1
 62
     7
176
     1
 62
   257
176
     1
 90
        1
176
     1
 90
        1
176
     1
 40
1.0
176
     1
 90
       12
176
     1
 62
     7
176
     1
 40
1.0
176
     1
 90
        1
176
     1
 90
        6
176
     1
 90
        2
176
     1
 62
     7
176
     1
 90
        5
176
     1
 90
        0
176
     1
 90
        0
176
     1
290
     0
176
     1
 90
        1
176
     1
 40
0.0
176
     1
 90
        0
176
     1
290
     0
176
     1
290
     1
176
     1
290
     1
176
     1
290
     0
176
     1
290
     0
176
     1
290
     0
176
     1
290
     0
176
     1
290
     0
176
     1
290
     0
176
     1
 90
       50
176
     1
 40
0.0
176
     1
 40
1.0
176
     1
 90
        0
176
     1
 62
    18
420
        0
176
     1
 90
       50
176
     1
 90
        3
176
     1
 62
     5
420
      255
176
     1
290
     0
176
     1
 90
       50
176
     1
 90
       50
176
     1
 90
       50
176
     1
290
     0
176
     1
 90
       50
176
     1
 62
   256
176
     0
 40
1.0
176
     0
 90
        2
176
     1
  1
strokes_ogs.tif
176
     1
290
     0
176
     1
 40
1.0
176
     1
 40
1.0
176
     1
  0
VISUALSTYLE
  5
30
102
{ACAD_REACTORS
330
2A
102
}
330
2A
100
AcDbVisualStyle
  2
Wireframe
 70
     5
177
     3
291
     0
 70
    58
 90
        0
176
     1
 90
        2
176
     1
 90
        0
176
     1
 90
        0
176
     1
 40
0.6
176
     1
 40
30.0
176
     1
 62
     7
420
 16777215
176
     1
 90
        1
176
     1
 90
        4
176
     1
 62
     7
176
     1
 62
   257
176
     1
 90
        1
176
     1
 90
        1
176
     1
 40
1.0
176
     1
 90
        0
176
     1
 62
   257
176
     1
 40
1.0
176
     1
 90
        1
176
     1
 90
        6
176
     1
 90
        2
176
     1
 62
     7
176
     1
 90
        3
176
     1
 90
        0
176
     1
 90
        0
176
     1
290
     0
176
     1
 90
        1
176
     1
 40
0.0
176
     1
 90
        0
176
     1
290
     0
176
     1
290
     1
176
     1
290
     1
176
     1
290
     0
176
     1
290
     0
176
     1
290
     0
176
     1
290
     0
176
     1
290
     0
176
     1
290
     0
176
     1
 90
       50
176
     1
 40
0.0
176
     1
 40
1.0
176
     1
 90
        0
176
     1
 62
    18
420
        0
176
     1
 90
       50
176
     1
 90
        3
176
     1
 62
     5
420
      255
176
     1
290
     0
176
     1
 90
       50
176
     1
 90
       50
176
     1
 90
       50
176
     1
290
     0
176
     1
 90
       50
176
     1
 62
   256
176
     0
 40
1.0
176
     0
 90
        2
176
     1
  1
strokes_ogs.tif
176
     1
290
     0
176
     1
 40
1.0
176
     1
 40
1.0
176
     1
  0
VISUALSTYLE
  5
40
102
{ACAD_REACTORS
330
2A
102
}
330
2A
100
AcDbVisualStyle
  2
X-Ray
 70
    25
177
     3
291
     0
 70
    58
 90
        2
176
     1
 90
        2
176
     1
 90
        1
176
     1
 90
        1
176
     1
 40
0.5
176
     1
 40
30.0
176
     1
 62
     7
420
 16777215
176
     1
 90
        1
176
     1
 90
        0
176
     1
 62
     7
176
     1
 62
   257
176
     1
 90
        1
176
     1
 90
        1
176
     1
 40
1.0
176
     1
 90
        8
176
     1
 62
     7
176
     1
 40
1.0
176
     1
 90
        1
176
     1
 90
        6
176
     1
 90
        2
176
     1
 62
     7
176
     1
 90
        3
176
     1
 90
        0
176
     1
 90
        0
176
     1
290
     0
176
     1
 90
       13
176
     1
 40
0.0
176
     1
 90
        0
176
     1
290
     0
176
     1
290
     1
176
     1
290
     1
176
     1
290
     0
176
     1
290
     0
176
     1
290
     0
176
     1
290
     0
176
     1
290
     0
176
     1
290
     0
176
     1
 90
       50
176
     1
 40
0.0
176
     1
 40
1.0
176
     1
 90
        0
176
     1
 62
    18
420
        0
176
     1
 90
       50
176
     1
 90
        3
176
     1
 62
     5
420
      255
176
     1
290
     0
176
     1
 90
       50
176
     1
 90
       50
176
     1
 90
       50
176
     1
290
     0
176
     1
 90
       50
176
     1
 62
   256
176
     0
 40
1.0
176
     0
 90
        2
176
     1
  1
strokes_ogs.tif
176
     1
290
     0
176
     1
 40
1.0
176
     1
 40
1.0
176
     1
  0
DICTIONARYVAR
  5
F9
102
{ACAD_REACTORS
330
F8
102
}
330
F8
100
DictionaryVariables
280
     0
  1
1:1
  0
DICTIONARYVAR
  5
FE
102
{ACAD_REACTORS
330
F8
102
}
330
F8
100
DictionaryVariables
280
     0
  1
Standard
  0
DICTIONARYVAR
  5
FD
102
{ACAD_REACTORS
330
F8
102
}
330
F8
100
DictionaryVariables
280
     0
  1
Standard
  0
DICTIONARY
  5
FA
330
5A
100
AcDbDictionary
280
     1
281
     1
  3
ACAD_ROUNDTRIP_2008_TABLESTYLE_CELLSTYLEMAP
360
FB
  0
CELLSTYLEMAP
  5
FB
102
{ACAD_REACTORS
330
FA
102
}
330
FA
100
AcDbCellStyleMap
 90
        3
300
CELLSTYLE
  1
TABLEFORMAT_BEGIN
 90
        5
170
     1
 91
        0
 92
    32768
 62
   257
 93
        1
300
CONTENTFORMAT
  1
CONTENTFORMAT_BEGIN
 90
        0
 91
        0
 92
        4
 93
        0
300

 40
0.0
140
1.0
 94
        5
 62
     0
340
11
144
0.25
309
CONTENTFORMAT_END
171
     1
301
MARGIN
  1
CELLMARGIN_BEGIN
 40
0.06
 40
0.06
 40
0.06
 40
0.06
 40
0.06
 40
0.06
309
CELLMARGIN_END
 94
        6
 95
        1
302
GRIDFORMAT
  1
GRIDFORMAT_BEGIN
 90
        0
 91
        1
 62
     0
 92
       -2
340
14
 93
        0
 40
0.045
309
GRIDFORMAT_END
 95
        2
302
GRIDFORMAT
  1
GRIDFORMAT_BEGIN
 90
        0
 91
        1
 62
     0
 92
       -2
340
14
 93
        0
 40
0.045
309
GRIDFORMAT_END
 95
        4
302
GRIDFORMAT
  1
GRIDFORMAT_BEGIN
 90
        0
 91
        1
 62
     0
 92
       -2
340
14
 93
        0
 40
0.045
309
GRIDFORMAT_END
 95
        8
302
GRIDFORMAT
  1
GRIDFORMAT_BEGIN
 90
        0
 91
        1
 62
     0
 92
       -2
340
14
 93
        0
 40
0.045
309
GRIDFORMAT_END
 95
       16
302
GRIDFORMAT
  1
GRIDFORMAT_BEGIN
 90
        0
 91
        1
 62
     0
 92
       -2
340
14
 93
        0
 40
0.045
309
GRIDFORMAT_END
 95
       32
302
GRIDFORMAT
  1
GRIDFORMAT_BEGIN
 90
        0
 91
        1
 62
     0
 92
       -2
340
14
 93
        0
 40
0.045
309
GRIDFORMAT_END
309
TABLEFORMAT_END
  1
CELLSTYLE_BEGIN
 90
        1
 91
        1
300
_TITLE
309
CELLSTYLE_END
300
CELLSTYLE
  1
TABLEFORMAT_BEGIN
 90
        5
170
     1
 91
        0
 92
        0
 62
   257
 93
        1
300
CONTENTFORMAT
  1
CONTENTFORMAT_BEGIN
 90
        0
 91
        0
 92
        4
 93
        0
300

 40
0.0
140
1.0
 94
        5
 62
     0
340
11
144
0.18
309
CONTENTFORMAT_END
171
     1
301
MARGIN
  1
CELLMARGIN_BEGIN
 40
0.06
 40
0.06
 40
0.06
 40
0.06
 40
0.06
 40
0.06
309
CELLMARGIN_END
 94
        6
 95
        1
302
GRIDFORMAT
  1
GRIDFORMAT_BEGIN
 90
        0
 91
        1
 62
     0
 92
       -2
340
14
 93
        0
 40
0.045
309
GRIDFORMAT_END
 95
        2
302
GRIDFORMAT
  1
GRIDFORMAT_BEGIN
 90
        0
 91
        1
 62
     0
 92
       -2
340
14
 93
        0
 40
0.045
309
GRIDFORMAT_END
 95
        4
302
GRIDFORMAT
  1
GRIDFORMAT_BEGIN
 90
        0
 91
        1
 62
     0
 92
       -2
340
14
 93
        0
 40
0.045
309
GRIDFORMAT_END
 95
        8
302
GRIDFORMAT
  1
GRIDFORMAT_BEGIN
 90
        0
 91
        1
 62
     0
 92
       -2
340
14
 93
        0
 40
0.045
309
GRIDFORMAT_END
 95
       16
302
GRIDFORMAT
  1
GRIDFORMAT_BEGIN
 90
        0
 91
        1
 62
     0
 92
       -2
340
14
 93
        0
 40
0.045
309
GRIDFORMAT_END
 95
       32
302
GRIDFORMAT
  1
GRIDFORMAT_BEGIN
 90
        0
 91
        1
 62
     0
 92
       -2
340
14
 93
        0
 40
0.045
309
GRIDFORMAT_END
309
TABLEFORMAT_END
  1
CELLSTYLE_BEGIN
 90
        2
 91
        1
300
_HEADER
309
CELLSTYLE_END
300
CELLSTYLE
  1
TABLEFORMAT_BEGIN
 90
        5
170
     1
 91
        0
 92
        0
 62
   257
 93
        1
300
CONTENTFORMAT
  1
CONTENTFORMAT_BEGIN
 90
        0
 91
        0
 92
        4
 93
        0
300

 40
0.0
140
1.0
 94
        2
 62
     0
340
11
144
0.18
309
CONTENTFORMAT_END
171
     1
301
MARGIN
  1
CELLMARGIN_BEGIN
 40
0.06
 40
0.06
 40
0.06
 40
0.06
 40
0.06
 40
0.06
309
CELLMARGIN_END
 94
        6
 95
        1
302
GRIDFORMAT
  1
GRIDFORMAT_BEGIN
 90
        0
 91
        1
 62
     0
 92
       -2
340
14
 93
        0
 40
0.045
309
GRIDFORMAT_END
 95
        2
302
GRIDFORMAT
  1
GRIDFORMAT_BEGIN
 90
        0
 91
        1
 62
     0
 92
       -2
340
14
 93
        0
 40
0.045
309
GRIDFORMAT_END
 95
        4
302
GRIDFORMAT
  1
GRIDFORMAT_BEGIN
 90
        0
 91
        1
 62
     0
 92
       -2
340
14
 93
        0
 40
0.045
309
GRIDFORMAT_END
 95
        8
302
GRIDFORMAT
  1
GRIDFORMAT_BEGIN
 90
        0
 91
        1
 62
     0
 92
       -2
340
14
 93
        0
 40
0.045
309
GRIDFORMAT_END
 95
       16
302
GRIDFORMAT
  1
GRIDFORMAT_BEGIN
 90
        0
 91
        1
 62
     0
 92
       -2
340
14
 93
        0
 40
0.045
309
GRIDFORMAT_END
 95
       32
302
GRIDFORMAT
  1
GRIDFORMAT_BEGIN
 90
        0
 91
        1
 62
     0
 92
       -2
340
14
 93
        0
 40
0.045
309
GRIDFORMAT_END
309
TABLEFORMAT_END
  1
CELLSTYLE_BEGIN
 90
        3
 91
        2
300
_DATA
309
CELLSTYLE_END
  0
ENDSEC
  0
EOF
