  0
SECTION
  2
HEADER
  9
$ACADVER
  1
AC1027
  9
$ACADMAINTVER
 70
   105
  9
$DWGCODEPAGE
  3
ANSI_1252
  9
$LASTSAVEDBY
  1
Office Desk
  9
$REQUIREDVERSIONS
160
                 0
  9
$INSBASE
 10
0.0
 20
0.0
 30
0.0
  9
$EXTMIN
 10
-447.2667
 20
-177.202
 30
0.0
  9
$EXTMAX
 10
-145.1958
 20
317.3303
 30
0.0
  9
$LIMMIN
 10
0.0
 20
0.0
  9
$LIMMAX
 10
12.0
 20
9.0
  9
$ORTHOMODE
 70
     0
  9
$REGENMODE
 70
     1
  9
$FILLMODE
 70
     1
  9
$QTEXTMODE
 70
     0
  9
$MIRRTEXT
 70
     1
  9
$LTSCALE
 40
1.0
  9
$ATTMODE
 70
     1
  9
$TEXTSIZE
 40
0.2
  9
$TRACEWID
 40
0.05
  9
$TEXTSTYLE
  7
Standard
  9
$CLAYER
  8
0
  9
$CELTYPE
  6
ByLayer
  9
$CECOLOR
 62
   256
  9
$CELTSCALE
 40
1.0
  9
$DISPSILH
 70
     0
  9
$DIMSCALE
 40
1.0
  9
$DIMASZ
 40
0.18
  9
$DIMEXO
 40
0.0625
  9
$DIMDLI
 40
0.38
  9
$DIMRND
 40
0.0
  9
$DIMDLE
 40
0.0
  9
$DIMEXE
 40
0.18
  9
$DIMTP
 40
0.0
  9
$DIMTM
 40
0.0
  9
$DIMTXT
 40
0.18
  9
$DIMCEN
 40
0.09
  9
$DIMTSZ
 40
0.0
  9
$DIMTOL
 70
     0
  9
$DIMLIM
 70
     0
  9
$DIMTIH
 70
     1
  9
$DIMTOH
 70
     1
  9
$DIMSE1
 70
     0
  9
$DIMSE2
 70
     0
  9
$DIMTAD
 70
     0
  9
$DIMZIN
 70
     0
  9
$DIMBLK
  1

  9
$DIMASO
 70
     1
  9
$DIMSHO
 70
     1
  9
$DIMPOST
  1

  9
$DIMAPOST
  1

  9
$DIMALT
 70
     0
  9
$DIMALTD
 70
     2
  9
$DIMALTF
 40
25.4
  9
$DIMLFAC
 40
1.0
  9
$DIMTOFL
 70
     0
  9
$DIMTVP
 40
0.0
  9
$DIMTIX
 70
     0
  9
$DIMSOXD
 70
     0
  9
$DIMSAH
 70
     0
  9
$DIMBLK1
  1

  9
$DIMBLK2
  1

  9
$DIMSTYLE
  2
Standard
  9
$DIMCLRD
 70
     0
  9
$DIMCLRE
 70
     0
  9
$DIMCLRT
 70
     0
  9
$DIMTFAC
 40
1.0
  9
$DIMGAP
 40
0.09
  9
$DIMJUST
 70
     0
  9
$DIMSD1
 70
     0
  9
$DIMSD2
 70
     0
  9
$DIMTOLJ
 70
     1
  9
$DIMTZIN
 70
     0
  9
$DIMALTZ
 70
     0
  9
$DIMALTTZ
 70
     0
  9
$DIMUPT
 70
     0
  9
$DIMDEC
 70
     4
  9
$DIMTDEC
 70
     4
  9
$DIMALTU
 70
     2
  9
$DIMALTTD
 70
     2
  9
$DIMTXSTY
  7
Standard
  9
$DIMAUNIT
 70
     0
  9
$DIMADEC
 70
     0
  9
$DIMALTRND
 40
0.0
  9
$DIMAZIN
 70
     0
  9
$DIMDSEP
 70
    46
  9
$DIMATFIT
 70
     3
  9
$DIMFRAC
 70
     0
  9
$DIMLDRBLK
  1

  9
$DIMLUNIT
 70
     2
  9
$DIMLWD
 70
    -2
  9
$DIMLWE
 70
    -2
  9
$DIMTMOVE
 70
     0
  9
$DIMFXL
 40
1.0
  9
$DIMFXLON
 70
     0
  9
$DIMJOGANG
 40
0.7853981633974483
  9
$DIMTFILL
 70
     0
  9
$DIMTFILLCLR
 70
     0
  9
$DIMARCSYM
 70
     0
  9
$DIMLTYPE
  6

  9
$DIMLTEX1
  6

  9
$DIMLTEX2
  6

  9
$DIMTXTDIRECTION
 70
     0
  9
$LUNITS
 70
     2
  9
$LUPREC
 70
     4
  9
$SKETCHINC
 40
0.1
  9
$FILLETRAD
 40
0.0
  9
$AUNITS
 70
     0
  9
$AUPREC
 70
     0
  9
$MENU
  1
.
  9
$ELEVATION
 40
0.0
  9
$PELEVATION
 40
0.0
  9
$THICKNESS
 40
0.0
  9
$LIMCHECK
 70
     0
  9
$CHAMFERA
 40
0.0
  9
$CHAMFERB
 40
0.0
  9
$CHAMFERC
 40
0.0
  9
$CHAMFERD
 40
0.0
  9
$SKPOLY
 70
     0
  9
$TDCREATE
 40
2461016.759162443
  9
$TDUCREATE
 40
2461016.529995776
  9
$TDUPDATE
 40
2461016.759162465
  9
$TDUUPDATE
 40
2461016.529995799
  9
$TDINDWG
 40
0.0000000116
  9
$TDUSRTIMER
 40
0.0000000116
  9
$USRTIMER
 70
     1
  9
$ANGBASE
 50
0.0
  9
$ANGDIR
 70
     0
  9
$PDMODE
 70
     0
  9
$PDSIZE
 40
0.0
  9
$PLINEWID
 40
0.0
  9
$SPLFRAME
 70
     0
  9
$SPLINETYPE
 70
     6
  9
$SPLINESEGS
 70
     8
  9
$HANDSEED
  5
C3
  9
$SURFTAB1
 70
     6
  9
$SURFTAB2
 70
     6
  9
$SURFTYPE
 70
     6
  9
$SURFU
 70
     6
  9
$SURFV
 70
     6
  9
$UCSBASE
  2

  9
$UCSNAME
  2

  9
$UCSORG
 10
0.0
 20
0.0
 30
0.0
  9
$UCSXDIR
 10
1.0
 20
0.0
 30
0.0
  9
$UCSYDIR
 10
0.0
 20
1.0
 30
0.0
  9
$UCSORTHOREF
  2

  9
$UCSORTHOVIEW
 70
     0
  9
$UCSORGTOP
 10
0.0
 20
0.0
 30
0.0
  9
$UCSORGBOTTOM
 10
0.0
 20
0.0
 30
0.0
  9
$UCSORGLEFT
 10
0.0
 20
0.0
 30
0.0
  9
$UCSORGRIGHT
 10
0.0
 20
0.0
 30
0.0
  9
$UCSORGFRONT
 10
0.0
 20
0.0
 30
0.0
  9
$UCSORGBACK
 10
0.0
 20
0.0
 30
0.0
  9
$PUCSBASE
  2

  9
$PUCSNAME
  2

  9
$PUCSORG
 10
0.0
 20
0.0
 30
0.0
  9
$PUCSXDIR
 10
1.0
 20
0.0
 30
0.0
  9
$PUCSYDIR
 10
0.0
 20
1.0
 30
0.0
  9
$PUCSORTHOREF
  2

  9
$PUCSORTHOVIEW
 70
     0
  9
$PUCSORGTOP
 10
0.0
 20
0.0
 30
0.0
  9
$PUCSORGBOTTOM
 10
0.0
 20
0.0
 30
0.0
  9
$PUCSORGLEFT
 10
0.0
 20
0.0
 30
0.0
  9
$PUCSORGRIGHT
 10
0.0
 20
0.0
 30
0.0
  9
$PUCSORGFRONT
 10
0.0
 20
0.0
 30
0.0
  9
$PUCSORGBACK
 10
0.0
 20
0.0
 30
0.0
  9
$USERI1
 70
     0
  9
$USERI2
 70
     0
  9
$USERI3
 70
     0
  9
$USERI4
 70
     0
  9
$USERI5
 70
     0
  9
$USERR1
 40
0.0
  9
$USERR2
 40
0.0
  9
$USERR3
 40
0.0
  9
$USERR4
 40
0.0
  9
$USERR5
 40
0.0
  9
$WORLDVIEW
 70
     1
  9
$SHADEDGE
 70
     3
  9
$SHADEDIF
 70
    70
  9
$TILEMODE
 70
     1
  9
$MAXACTVP
 70
    64
  9
$PINSBASE
 10
0.0
 20
0.0
 30
0.0
  9
$PLIMCHECK
 70
     0
  9
$PEXTMIN
 10
1.000000000000000E+20
 20
1.000000000000000E+20
 30
1.000000000000000E+20
  9
$PEXTMAX
 10
-1.000000000000000E+20
 20
-1.000000000000000E+20
 30
-1.000000000000000E+20
  9
$PLIMMIN
 10
0.0
 20
0.0
  9
$PLIMMAX
 10
12.0
 20
9.0
  9
$UNITMODE
 70
     0
  9
$VISRETAIN
 70
     1
  9
$PLINEGEN
 70
     0
  9
$PSLTSCALE
 70
     1
  9
$TREEDEPTH
 70
  3020
  9
$CMLSTYLE
  2
Standard
  9
$CMLJUST
 70
     0
  9
$CMLSCALE
 40
1.0
  9
$PROXYGRAPHICS
 70
     1
  9
$MEASUREMENT
 70
     0
  9
$CELWEIGHT
370
    -1
  9
$ENDCAPS
280
     0
  9
$JOINSTYLE
280
     0
  9
$LWDISPLAY
290
     0
  9
$INSUNITS
 70
     4
  9
$HYPERLINKBASE
  1

  9
$STYLESHEET
  1

  9
$XEDIT
290
     1
  9
$CEPSNTYPE
380
     0
  9
$PSTYLEMODE
290
     1
  9
$FINGERPRINTGUID
  2
{b632bc83-8738-4d4d-b20d-7f244acbd5cf}
  9
$VERSIONGUID
  2
{FAEB1C32-E019-11D5-929B-00C0DF256EC4}
  9
$EXTNAMES
290
     1
  9
$PSVPSCALE
 40
0.0
  9
$OLESTARTUP
290
     0
  9
$SORTENTS
280
   127
  9
$INDEXCTL
280
     0
  9
$HIDETEXT
280
     1
  9
$XCLIPFRAME
280
     2
  9
$HALOGAP
280
     0
  9
$OBSCOLOR
 70
   257
  9
$OBSLTYPE
280
     0
  9
$INTERSECTIONDISPLAY
280
     0
  9
$INTERSECTIONCOLOR
 70
   257
  9
$DIMASSOC
280
     2
  9
$PROJECTNAME
  1

  9
$CAMERADISPLAY
290
     0
  9
$LENSLENGTH
 40
50.0
  9
$CAMERAHEIGHT
 40
0.0
  9
$STEPSPERSEC
 40
2.0
  9
$STEPSIZE
 40
6.0
  9
$3DDWFPREC
 40
2.0
  9
$PSOLWIDTH
 40
0.25
  9
$PSOLHEIGHT
 40
4.0
  9
$LOFTANG1
 40
1.570796326794897
  9
$LOFTANG2
 40
1.570796326794897
  9
$LOFTMAG1
 40
0.0
  9
$LOFTMAG2
 40
0.0
  9
$LOFTPARAM
 70
     7
  9
$LOFTNORMALS
280
     1
  9
$LATITUDE
 40
37.795
  9
$LONGITUDE
 40
-122.394
  9
$NORTHDIRECTION
 40
0.0
  9
$TIMEZONE
 70
 -8000
  9
$LIGHTGLYPHDISPLAY
280
     1
  9
$TILEMODELIGHTSYNCH
280
     1
  9
$CMATERIAL
347
44
  9
$SOLIDHIST
280
     0
  9
$SHOWHIST
280
     1
  9
$DWFFRAME
280
     2
  9
$DGNFRAME
280
     2
  9
$REALWORLDSCALE
290
     1
  9
$INTERFERECOLOR
 62
   256
  9
$CSHADOW
280
     0
  9
$SHADOWPLANELOCATION
 40
0.0
  0
ENDSEC
  0
SECTION
  2
CLASSES
  0
CLASS
  1
ACDBDICTIONARYWDFLT
  2
AcDbDictionaryWithDefault
  3
ObjectDBX Classes
 90
        0
 91
        3
280
     0
281
     0
  0
CLASS
  1
VISUALSTYLE
  2
AcDbVisualStyle
  3
ObjectDBX Classes
 90
     4095
 91
        3
280
     0
281
     0
  0
CLASS
  1
MATERIAL
  2
AcDbMaterial
  3
ObjectDBX Classes
 90
     1153
 91
        3
280
     0
281
     0
  0
CLASS
  1
SCALE
  2
AcDbScale
  3
ObjectDBX Classes
 90
     1153
 91
        3
280
     0
281
     0
  0
CLASS
  1
TABLESTYLE
  2
AcDbTableStyle
  3
ObjectDBX Classes
 90
     4095
 91
        3
280
     0
281
     0
  0
CLASS
  1
MLEADERSTYLE
  2
AcDbMLeaderStyle
  3
ACDB_MLEADERSTYLE_CLASS
 90
     4095
 91
        3
280
     0
281
     0
  0
CLASS
  1
SUN
  2
AcDbSun
  3
SCENEOE
 90
     1153
 91
        3
280
     0
281
     0
  0
CLASS
  1
DICTIONARYVAR
  2
AcDbDictionaryVar
  3
ObjectDBX Classes
 90
        0
 91
        3
280
     0
281
     0
  0
CLASS
  1
CELLSTYLEMAP
  2
AcDbCellStyleMap
  3
ObjectDBX Classes
 90
     1152
 91
        3
280
     0
281
     0
  0
ENDSEC
  0
SECTION
  2
TABLES
  0
TABLE
  2
VPORT
  5
8
330
0
100
AcDbSymbolTable
 70
     1
  0
VPORT
  5
29
330
8
100
AcDbSymbolTableRecord
100
AcDbViewportTableRecord
  2
*Active
 70
     0
 10
0.0
 20
0.0
 11
1.0
 21
1.0
 12
10.42990654205607
 22
4.5
 13
0.0
 23
0.0
 14
0.5
 24
0.5
 15
0.5
 25
0.5
 16
0.0
 26
0.0
 36
1.0
 17
0.0
 27
0.0
 37
0.0
 40
9.0
 41
1.972972972850329
 42
50.0
 43
0.0
 44
0.0
 50
0.0
 51
0.0
 71
     0
 72
   100
 73
     1
 74
     3
 75
     0
 76
     0
 77
     0
 78
     0
281
     0
 65
     1
110
0.0
120
0.0
130
0.0
111
1.0
121
0.0
131
0.0
112
0.0
122
1.0
132
0.0
 79
     0
146
0.0
348
2F
 60
     3
 61
     5
292
     1
282
     1
141
0.0
142
0.0
 63
   250
361
5D
  0
ENDTAB
  0
TABLE
  2
LTYPE
  5
5
330
0
100
AcDbSymbolTable
 70
     1
  0
LTYPE
  5
14
330
5
100
AcDbSymbolTableRecord
100
AcDbLinetypeTableRecord
  2
ByBlock
 70
     0
  3

 72
    65
 73
     0
 40
0.0
  0
LTYPE
  5
15
330
5
100
AcDbSymbolTableRecord
100
AcDbLinetypeTableRecord
  2
ByLayer
 70
     0
  3

 72
    65
 73
     0
 40
0.0
  0
LTYPE
  5
16
330
5
100
AcDbSymbolTableRecord
100
AcDbLinetypeTableRecord
  2
Continuous
 70
     0
  3
Solid line
 72
    65
 73
     0
 40
0.0
  0
ENDTAB
  0
TABLE
  2
LAYER
  5
2
330
0
100
AcDbSymbolTable
 70
     2
  0
LAYER
  5
10
330
2
100
AcDbSymbolTableRecord
100
AcDbLayerTableRecord
  2
0
 70
     0
 62
     7
  6
Continuous
370
    -3
390
F
347
46
348
0
  0
LAYER
  5
5F
330
2
100
AcDbSymbolTableRecord
100
AcDbLayerTableRecord
  2
Layer 1
 70
     0
 62
     7
  6
Continuous
370
    -3
390
F
347
46
348
0
  0
ENDTAB
  0
TABLE
  2
STYLE
  5
3
330
0
100
AcDbSymbolTable
 70
     1
  0
STYLE
  5
11
330
3
100
AcDbSymbolTableRecord
100
AcDbTextStyleTableRecord
  2
Standard
 70
     0
 40
0.0
 41
1.0
 50
0.0
 71
     0
 42
0.2
  3
txt
  4

  0
ENDTAB
  0
TABLE
  2
VIEW
  5
6
330
0
100
AcDbSymbolTable
 70
     0
  0
ENDTAB
  0
TABLE
  2
UCS
  5
7
330
0
100
AcDbSymbolTable
 70
     0
  0
ENDTAB
  0
TABLE
  2
APPID
  5
9
330
0
100
AcDbSymbolTable
 70
     2
  0
APPID
  5
12
330
9
100
AcDbSymbolTableRecord
100
AcDbRegAppTableRecord
  2
ACAD
 70
     0
  0
APPID
  5
5E
330
9
100
AcDbSymbolTableRecord
100
AcDbRegAppTableRecord
  2
ODA
 70
     0
  0
ENDTAB
  0
TABLE
  2
DIMSTYLE
  5
A
330
0
100
AcDbSymbolTable
 70
     1
100
AcDbDimStyleTable
  0
DIMSTYLE
105
27
330
A
100
AcDbSymbolTableRecord
100
AcDbDimStyleTableRecord
  2
Standard
 70
     0
178
     0
340
11
  0
ENDTAB
  0
TABLE
  2
BLOCK_RECORD
  5
1
330
0
100
AcDbSymbolTable
 70
     1
  0
BLOCK_RECORD
  5
1F
330
1
100
AcDbSymbolTableRecord
100
AcDbBlockTableRecord
  2
*Model_Space
340
22
 70
     0
280
     1
281
     0
  0
BLOCK_RECORD
  5
1B
330
1
100
AcDbSymbolTableRecord
100
AcDbBlockTableRecord
  2
*Paper_Space
340
1E
 70
     0
280
     1
281
     0
  0
BLOCK_RECORD
  5
23
330
1
100
AcDbSymbolTableRecord
100
AcDbBlockTableRecord
  2
*Paper_Space0
340
26
 70
     0
280
     1
281
     0
  0
ENDTAB
  0
ENDSEC
  0
SECTION
  2
BLOCKS
  0
BLOCK
  5
20
330
1F
100
AcDbEntity
  8
0
100
AcDbBlockBegin
  2
*Model_Space
 70
     0
 10
0.0
 20
0.0
 30
0.0
  3
*Model_Space
  1

  0
ENDBLK
  5
21
330
1F
100
AcDbEntity
  8
0
100
AcDbBlockEnd
  0
BLOCK
  5
1C
330
1B
100
AcDbEntity
 67
     1
  8
0
100
AcDbBlockBegin
  2
*Paper_Space
 70
     0
 10
0.0
 20
0.0
 30
0.0
  3
*Paper_Space
  1

  0
ENDBLK
  5
1D
330
1B
100
AcDbEntity
 67
     1
  8
0
100
AcDbBlockEnd
  0
BLOCK
  5
24
330
23
100
AcDbEntity
  8
0
100
AcDbBlockBegin
  2
*Paper_Space0
 70
     0
 10
0.0
 20
0.0
 30
0.0
  3
*Paper_Space0
  1

  0
ENDBLK
  5
25
330
23
100
AcDbEntity
  8
0
100
AcDbBlockEnd
  0
ENDSEC
  0
SECTION
  2
ENTITIES
  0
LWPOLYLINE
  5
60
330
1F
100
AcDbEntity
  8
Layer 1
 62
   250
370
     9
100
AcDbPolyline
 90
        5
 70
     1
 43
0.0
 10
-447.2286
 20
-177.1638
 10
-145.234
 20
-177.1638
 10
-145.234
 20
317.2922
 10
-447.2286
 20
317.2922
 10
-447.2286
 20
-177.1638
  0
LWPOLYLINE
  5
61
330
1F
100
AcDbEntity
  8
Layer 1
 62
     7
370
    20
100
AcDbPolyline
 90
      129
 70
     1
 43
0.0
 10
-389.3495
 20
153.4791
 10
-389.3072
 20
152.9268
 10
-389.1745
 20
152.2569
 10
-388.9718
 20
151.5082
 10
-388.7198
 20
150.7198
 10
-388.4389
 20
149.9308
 10
-388.1495
 20
149.1802
 10
-387.8722
 20
148.5069
 10
-387.6275
 20
147.95
 10
-386.5394
 20
147.9327
 10
-385.424
 20
147.9884
 10
-384.3103
 20
148.0941
 10
-383.2275
 20
148.2267
 10
-382.2047
 20
148.3631
 10
-381.2712
 20
148.4803
 10
-380.4561
 20
148.5552
 10
-379.7886
 20
148.5648
 10
-378.2176
 20
142.2551
 10
-375.8384
 20
135.7465
 10
-372.762
 20
129.1858
 10
-369.0998
 20
122.7197
 10
-364.9627
 20
116.495
 10
-360.4619
 20
110.6583
 10
-355.7085
 20
105.3564
 10
-350.8136
 20
100.7361
 10
-349.1506
 20
99.4379
 10
-346.8567
 20
97.8417
 10
-344.1286
 20
96.0934
 10
-341.1633
 20
94.3388
 10
-338.1578
 20
92.7237
 10
-335.3089
 20
91.3941
 10
-332.8136
 20
90.4958
 10
-330.8688
 20
90.1747
 10
-330.9195
 20
82.0406
 10
-331.5314
 20
61.2502
 10
-332.5375
 20
31.7207
 10
-333.7704
 20
-2.6307
 10
-335.063
 20
-37.8869
 10
-336.2481
 20
-70.1308
 10
-337.1584
 20
-95.4453
 10
-337.6268
 20
-109.9131
 10
-331.4811
 20
-110.2097
 10
-325.3328
 20
-110.4612
 10
-319.183
 20
-110.6866
 10
-313.0327
 20
-110.9048
 10
-306.8832
 20
-111.135
 10
-300.7354
 20
-111.3959
 10
-294.5906
 20
-111.7068
 10
-288.4498
 20
-112.0864
 10
-287.7312
 20
-112.1475
 10
-287.2261
 20
-112.1708
 10
-286.8968
 20
-112.0891
 10
-286.7052
 20
-111.8355
 10
-286.6136
 20
-111.3428
 10
-286.5841
 20
-110.5439
 10
-286.5789
 20
-109.3719
 10
-286.5601
 20
-107.7595
 10
-287.0873
 20
-82.1671
 10
-287.8371
 20
-56.3559
 10
-288.6982
 20
-30.4071
 10
-289.5594
 20
-4.4024
 10
-290.3096
 20
21.577
 10
-290.8375
 20
47.4494
 10
-291.032
 20
73.1336
 10
-290.7817
 20
98.5481
 10
-289.7931
 20
98.8175
 10
-288.5285
 20
99.5068
 10
-287.0869
 20
100.5079
 10
-285.567
 20
101.7129
 10
-284.0677
 20
103.0136
 10
-282.6877
 20
104.302
 10
-281.5261
 20
105.4701
 10
-280.6815
 20
106.4098
 10
-272.156
 20
122.0282
 10
-268.2312
 20
141.3507
 10
-268.5
 20
162.8443
 10
-272.5549
 20
184.9764
 10
-279.9886
 20
206.2139
 10
-290.3938
 20
225.0242
 10
-303.3632
 20
239.8744
 10
-318.4893
 20
249.2317
 10
-320.0166
 20
249.7841
 10
-321.4927
 20
250.2634
 10
-322.9236
 20
250.6727
 10
-324.3156
 20
251.0152
 10
-325.6746
 20
251.2941
 10
-327.0068
 20
251.5124
 10
-328.3181
 20
251.6733
 10
-329.6147
 20
251.7799
 10
-333.6197
 20
251.7018
 10
-338.2767
 20
251.1398
 10
-343.3522
 20
250.1797
 10
-348.613
 20
248.9072
 10
-353.8256
 20
247.4082
 10
-358.7565
 20
245.7685
 10
-363.1725
 20
244.0737
 10
-366.8401
 20
242.4098
 10
-367.042
 20
242.282
 10
-367.2429
 20
242.1522
 10
-367.4426
 20
242.0205
 10
-367.6411
 20
241.8871
 10
-367.8385
 20
241.7518
 10
-368.0347
 20
241.6147
 10
-368.2297
 20
241.476
 10
-368.4234
 20
241.3356
 10
-373.161
 20
236.9847
 10
-377.1292
 20
231.6128
 10
-380.3744
 20
225.4576
 10
-382.9432
 20
218.7571
 10
-384.882
 20
211.7492
 10
-386.2374
 20
204.6717
 10
-387.0558
 20
197.7625
 10
-387.3837
 20
191.2596
 10
-387.3098
 20
185.2545
 10
-386.9335
 20
179.708
 10
-386.3178
 20
174.6181
 10
-385.5255
 20
169.9831
 10
-384.6195
 20
165.8012
 10
-383.6628
 20
162.0706
 10
-382.7181
 20
158.7895
 10
-381.8484
 20
155.9562
 10
-382.774
 20
155.5719
 10
-383.7274
 20
155.2435
 10
-384.6964
 20
154.9536
 10
-385.6689
 20
154.6851
 10
-386.6326
 20
154.4207
 10
-387.5754
 20
154.1431
 10
-388.4851
 20
153.835
 10
-389.3495
 20
153.4791
  0
LWPOLYLINE
  5
62
330
1F
100
AcDbEntity
  8
Layer 1
 62
     7
370
    20
100
AcDbPolyline
 90
        2
 70
     0
 43
0.0
 10
-337.5319
 20
-106.1073
 10
-286.5601
 20
-107.7595
  0
LWPOLYLINE
  5
63
330
1F
100
AcDbEntity
  8
Layer 1
 62
     7
370
    20
100
AcDbPolyline
 90
       41
 70
     0
 43
0.0
 10
-379.1608
 20
145.644
 10
-378.2219
 20
143.4512
 10
-375.5037
 20
137.6901
 10
-371.1537
 20
129.5864
 10
-365.3195
 20
120.3659
 10
-358.1487
 20
111.2544
 10
-349.7888
 20
103.4777
 10
-340.3873
 20
98.2616
 10
-330.092
 20
96.8319
 10
-321.2758
 20
99.0367
 10
-314.4136
 20
103.7192
 10
-309.3005
 20
110.3937
 10
-305.7314
 20
118.5746
 10
-303.5013
 20
127.7763
 10
-302.4052
 20
137.5132
 10
-302.2382
 20
147.2996
 10
-302.7951
 20
156.6499
 10
-304.2539
 20
166.9731
 10
-306.7847
 20
178.1335
 10
-310.3889
 20
189.635
 10
-315.0676
 20
200.9814
 10
-320.8223
 20
211.6767
 10
-327.6542
 20
221.2248
 10
-335.5646
 20
229.1295
 10
-344.5548
 20
234.8949
 10
-350.1838
 20
237.0049
 10
-355.2943
 20
237.8505
 10
-359.9014
 20
237.6129
 10
-364.02
 20
236.4735
 10
-367.6654
 20
234.6133
 10
-370.8524
 20
232.2137
 10
-373.5962
 20
229.4557
 10
-375.9119
 20
226.5208
 10
-379.8666
 20
219.6715
 10
-382.6552
 20
212.1661
 10
-384.4419
 20
204.1886
 10
-385.3907
 20
195.9231
 10
-385.6655
 20
187.5535
 10
-385.4305
 20
179.2639
 10
-384.8497
 20
171.2384
 10
-384.087
 20
163.6609
  0
LWPOLYLINE
  5
64
330
1F
100
AcDbEntity
  8
Layer 1
 62
     7
370
    20
100
AcDbPolyline
 90
       33
 70
     0
 43
0.0
 10
-368.4234
 20
241.3356
 10
-367.9281
 20
241.6412
 10
-366.497
 20
242.3906
 10
-364.2122
 20
243.3324
 10
-361.156
 20
244.2155
 10
-357.4106
 20
244.7885
 10
-353.0582
 20
244.8002
 10
-348.1809
 20
243.9994
 10
-342.861
 20
242.1348
 10
-332.0781
 20
235.3139
 10
-322.7008
 20
225.625
 10
-314.7297
 20
213.7286
 10
-308.1651
 20
200.2848
 10
-303.0077
 20
185.954
 10
-299.2579
 20
171.3965
 10
-296.9161
 20
157.2726
 10
-295.983
 20
144.2426
 10
-296.312
 20
135.544
 10
-297.6648
 20
126.0118
 10
-300.1406
 20
116.3457
 10
-303.8385
 20
107.2456
 10
-308.8576
 20
99.4113
 10
-315.2971
 20
93.5426
 10
-323.2561
 20
90.3394
 10
-332.8338
 20
90.5013
 10
-328.7972
 20
89.5941
 10
-323.5464
 20
89.8683
 10
-317.5097
 20
91.007
 10
-311.1153
 20
92.6933
 10
-304.7915
 20
94.6104
 10
-298.9665
 20
96.4413
 10
-294.0687
 20
97.8691
 10
-290.5262
 20
98.577
  0
LWPOLYLINE
  5
65
330
1F
100
AcDbEntity
  8
Layer 1
 62
     7
370
    20
100
AcDbPolyline
 90
       83
 70
     1
 43
0.0
 10
-332.4074
 20
-110.931
 10
-332.4053
 20
-110.9908
 10
-332.3883
 20
-111.1511
 10
-332.3401
 20
-111.3835
 10
-332.2443
 20
-111.6595
 10
-332.0846
 20
-111.9507
 10
-331.8449
 20
-112.2285
 10
-331.5088
 20
-112.4644
 10
-331.06
 20
-112.6301
 10
-330.7088
 20
-112.8583
 10
-330.8042
 20
-113.2163
 10
-331.1545
 20
-113.6678
 10
-331.5682
 20
-114.1764
 10
-331.8535
 20
-114.7056
 10
-331.8189
 20
-115.219
 10
-331.2726
 20
-115.6803
 10
-330.023
 20
-116.0531
 10
-329.8594
 20
-116.0878
 10
-329.7248
 20
-116.1241
 10
-329.6177
 20
-116.1619
 10
-329.5366
 20
-116.2013
 10
-329.4798
 20
-116.2423
 10
-329.4458
 20
-116.2851
 10
-329.433
 20
-116.3295
 10
-329.4399
 20
-116.3758
 10
-329.6721
 20
-116.6063
 10
-330.1289
 20
-116.8791
 10
-330.6704
 20
-117.1989
 10
-331.1572
 20
-117.5706
 10
-331.4496
 20
-117.9987
 10
-331.4078
 20
-118.4882
 10
-330.8924
 20
-119.0437
 10
-329.7636
 20
-119.6699
 10
-328.9367
 20
-120.1717
 10
-328.7323
 20
-120.6107
 10
-328.9925
 20
-120.9855
 10
-329.5593
 20
-121.2949
 10
-330.275
 20
-121.5377
 10
-330.9816
 20
-121.7126
 10
-331.5214
 20
-121.8185
 10
-331.7364
 20
-121.8541
 10
-330.7184
 20
-122.3812
 10
-326.868
 20
-122.8249
 10
-321.0879
 20
-123.1577
 10
-314.2807
 20
-123.3519
 10
-307.3489
 20
-123.3798
 10
-301.1951
 20
-123.2137
 10
-296.7218
 20
-122.8261
 10
-294.8316
 20
-122.1892
 10
-294.6429
 20
-122.139
 10
-294.1845
 20
-121.9934
 10
-293.6183
 20
-121.76
 10
-293.106
 20
-121.4463
 10
-292.8094
 20
-121.06
 10
-292.8903
 20
-120.6087
 10
-293.5104
 20
-120.0998
 10
-294.8316
 20
-119.5411
 10
-295.7462
 20
-118.9753
 10
-295.8161
 20
-118.5278
 10
-295.3245
 20
-118.1499
 10
-294.5543
 20
-117.793
 10
-293.7883
 20
-117.4083
 10
-293.3096
 20
-116.9472
 10
-293.4011
 20
-116.3609
 10
-294.3457
 20
-115.6008
 10
-295.0926
 20
-115.2689
 10
-295.247
 20
-114.9568
 10
-294.961
 20
-114.6719
 10
-294.3863
 20
-114.4218
 10
-293.675
 20
-114.2142
 10
-292.9788
 20
-114.0565
 10
-292.4497
 20
-113.9564
 10
-292.2396
 20
-113.9213
 10
-292.1466
 20
-113.8692
 10
-291.9196
 20
-113.7243
 10
-291.6367
 20
-113.5034
 10
-291.3758
 20
-113.2234
 10
-291.2151
 20
-112.9012
 10
-291.2324
 20
-112.5537
 10
-291.5058
 20
-112.1978
 10
-292.1134
 20
-111.8504
 10
-332.4826
 20
-110.1647
 10
-332.4074
 20
-110.931
  0
LWPOLYLINE
  5
66
330
1F
100
AcDbEntity
  8
Layer 1
 62
     7
370
    20
100
AcDbPolyline
 90
        9
 70
     0
 43
0.0
 10
-329.4399
 20
-116.3758
 10
-328.2877
 20
-116.2906
 10
-325.1684
 20
-116.0877
 10
-320.5878
 20
-115.8462
 10
-315.0518
 20
-115.6452
 10
-309.0662
 20
-115.5638
 10
-303.1368
 20
-115.6811
 10
-297.7695
 20
-116.0762
 10
-293.4701
 20
-116.8281
  0
LWPOLYLINE
  5
67
330
1F
100
AcDbEntity
  8
Layer 1
 62
     7
370
    20
100
AcDbPolyline
 90
        9
 70
     0
 43
0.0
 10
-330.9299
 20
-113.7924
 10
-329.9474
 20
-113.6946
 10
-327.2322
 20
-113.4639
 10
-323.1324
 20
-113.1946
 10
-317.9963
 20
-112.9809
 10
-312.1721
 20
-112.9171
 10
-306.0081
 20
-113.0974
 10
-299.8524
 20
-113.6161
 10
-294.0533
 20
-114.5674
  0
LWPOLYLINE
  5
68
330
1F
100
AcDbEntity
  8
Layer 1
 62
     7
370
    20
100
AcDbPolyline
 90
        9
 70
     0
 43
0.0
 10
-330.962
 20
-118.7013
 10
-330.0176
 20
-118.6224
 10
-327.4046
 20
-118.4333
 10
-323.4535
 20
-118.2056
 10
-318.4945
 20
-118.0108
 10
-312.858
 20
-117.9205
 10
-306.8745
 20
-118.0063
 10
-300.8742
 20
-118.3395
 10
-295.1875
 20
-118.9919
  0
LWPOLYLINE
  5
69
330
1F
100
AcDbEntity
  8
Layer 1
 62
     7
370
    20
100
AcDbPolyline
 90
        9
 70
     0
 43
0.0
 10
-329.403
 20
-121.226
 10
-328.277
 20
-121.1579
 10
-325.2182
 20
-120.9915
 10
-320.706
 20
-120.7831
 10
-315.2195
 20
-120.5893
 10
-309.2378
 20
-120.4666
 10
-303.2402
 20
-120.4717
 10
-297.7057
 20
-120.6609
 10
-293.1135
 20
-121.0909
  0
LWPOLYLINE
  5
6A
330
1F
100
AcDbEntity
  8
Layer 1
 62
     7
370
    20
100
AcDbPolyline
 90
        5
 70
     1
 43
0.0
 10
-310.1158
 20
92.9842
 10
-312.0455
 20
-106.934
 10
-309.2157
 20
-107.0255
 10
-306.6237
 20
94.0399
 10
-310.1158
 20
92.9842
  0
LWPOLYLINE
  5
6B
330
1F
100
AcDbEntity
  8
Layer 1
 62
     7
370
    20
100
AcDbPolyline
 90
        4
 70
     0
 43
0.0
 10
-382.6269
 20
155.6279
 10
-374.7376
 20
157.9509
 10
-372.6416
 20
149.3691
 10
-379.789
 20
148.5646
  0
LWPOLYLINE
  5
6C
330
1F
100
AcDbEntity
  8
Layer 1
 62
     7
370
    20
100
AcDbPolyline
 90
       49
 70
     1
 43
0.0
 10
-360.6697
 20
132.4246
 10
-358.2732
 20
129.6094
 10
-355.6889
 20
126.9433
 10
-352.9271
 20
124.5072
 10
-349.9984
 20
122.3818
 10
-346.9131
 20
120.6478
 10
-343.6819
 20
119.386
 10
-340.3152
 20
118.6773
 10
-336.8235
 20
118.6023
 10
-330.4902
 20
120.0737
 10
-325.5606
 20
123.1985
 10
-321.8874
 20
127.6526
 10
-319.3234
 20
133.112
 10
-317.7212
 20
139.2527
 10
-316.9338
 20
145.7504
 10
-316.8137
 20
152.2812
 10
-317.2138
 20
158.521
 10
-318.2618
 20
165.4101
 10
-320.0799
 20
172.8578
 10
-322.669
 20
180.5331
 10
-326.0302
 20
188.1049
 10
-330.1642
 20
195.2423
 10
-335.0722
 20
201.614
 10
-340.7549
 20
206.8892
 10
-347.2134
 20
210.7366
 10
-351.2572
 20
212.1446
 10
-354.9284
 20
212.7089
 10
-358.2381
 20
212.5504
 10
-361.1969
 20
211.79
 10
-363.8156
 20
210.5486
 10
-366.1051
 20
208.9473
 10
-368.0763
 20
207.1068
 10
-369.7398
 20
205.1482
 10
-371.5688
 20
202.4359
 10
-373.0729
 20
199.5448
 10
-374.2783
 20
196.5024
 10
-375.2112
 20
193.3359
 10
-375.8979
 20
190.0729
 10
-376.3647
 20
186.7406
 10
-376.6377
 20
183.3664
 10
-376.7433
 20
179.9777
 10
-376.5912
 20
173.2834
 10
-375.9853
 20
166.9112
 10
-374.887
 20
160.8072
 10
-373.2582
 20
154.9176
 10
-371.0604
 20
149.1884
 10
-368.2553
 20
143.5658
 10
-364.8045
 20
137.9958
 10
-360.6697
 20
132.4246
  0
LWPOLYLINE
  5
6D
330
1F
100
AcDbEntity
  8
Layer 1
 62
     7
370
    20
100
AcDbPolyline
 90
       33
 70
     1
 43
0.0
 10
-361.127
 20
184.142
 10
-359.9201
 20
185.1615
 10
-358.7406
 20
186.0496
 10
-357.6179
 20
186.7914
 10
-356.5809
 20
187.3723
 10
-355.659
 20
187.7776
 10
-354.8812
 20
187.9926
 10
-354.2767
 20
188.0026
 10
-353.8747
 20
187.7929
 10
-353.7098
 20
187.3712
 10
-353.7861
 20
186.7733
 10
-354.0858
 20
186.0262
 10
-354.5912
 20
185.1574
 10
-355.2842
 20
184.194
 10
-356.1472
 20
183.1633
 10
-357.1623
 20
182.0925
 10
-358.3116
 20
181.0089
 10
-359.5185
 20
179.9894
 10
-360.6978
 20
179.1013
 10
-361.8203
 20
178.3596
 10
-362.8571
 20
177.7787
 10
-363.779
 20
177.3734
 10
-364.5568
 20
177.1584
 10
-365.1614
 20
177.1484
 10
-365.5638
 20
177.3581
 10
-365.7288
 20
177.7797
 10
-365.6525
 20
178.3777
 10
-365.3528
 20
179.1247
 10
-364.8474
 20
179.9936
 10
-364.1543
 20
180.957
 10
-363.2914
 20
181.9877
 10
-362.2763
 20
183.0584
 10
-361.127
 20
184.142
  0
LWPOLYLINE
  5
6E
330
1F
100
AcDbEntity
  8
Layer 1
 62
     7
370
    20
100
AcDbPolyline
 90
       33
 70
     1
 43
0.0
 10
-330.8337
 20
175.6279
 10
-329.974
 20
174.304
 10
-329.2419
 20
173.0242
 10
-328.6481
 20
171.8192
 10
-328.2035
 20
170.7197
 10
-327.9188
 20
169.7563
 10
-327.805
 20
168.9598
 10
-327.8727
 20
168.3608
 10
-328.1329
 20
167.9901
 10
-328.5738
 20
167.8814
 10
-329.159
 20
168.0339
 10
-329.8638
 20
168.4263
 10
-330.6634
 20
169.0376
 10
-331.5328
 20
169.8466
 10
-332.4473
 20
170.8322
 10
-333.382
 20
171.9731
 10
-334.312
 20
173.2483
 10
-335.1714
 20
174.5722
 10
-335.9033
 20
175.852
 10
-336.497
 20
177.057
 10
-336.9416
 20
178.1565
 10
-337.2263
 20
179.1199
 10
-337.34
 20
179.9164
 10
-337.2721
 20
180.5154
 10
-337.0116
 20
180.8861
 10
-336.5708
 20
180.9949
 10
-335.9856
 20
180.8425
 10
-335.281
 20
180.4502
 10
-334.4817
 20
179.8391
 10
-333.6125
 20
179.0301
 10
-332.6982
 20
178.0445
 10
-331.7637
 20
176.9034
 10
-330.8337
 20
175.6279
  0
LWPOLYLINE
  5
6F
330
1F
100
AcDbEntity
  8
Layer 1
 62
     7
370
    20
100
AcDbPolyline
 90
       33
 70
     1
 43
0.0
 10
-346.9106
 20
148.2162
 10
-345.4005
 20
147.7473
 10
-344.0164
 20
147.2309
 10
-342.7865
 20
146.6837
 10
-341.7388
 20
146.1225
 10
-340.9013
 20
145.5638
 10
-340.3022
 20
145.0244
 10
-339.9696
 20
144.5209
 10
-339.9314
 20
144.0701
 10
-340.2005
 20
143.7055
 10
-340.7481
 20
143.4495
 10
-341.5417
 20
143.3014
 10
-342.5486
 20
143.2611
 10
-343.7362
 20
143.3281
 10
-345.0718
 20
143.502
 10
-346.5228
 20
143.7825
 10
-348.0566
 20
144.1691
 10
-349.5671
 20
144.6384
 10
-350.9514
 20
145.1549
 10
-352.1813
 20
145.7021
 10
-353.229
 20
146.2633
 10
-354.0662
 20
146.8219
 10
-354.6652
 20
147.3612
 10
-354.9977
 20
147.8645
 10
-355.0359
 20
148.3152
 10
-354.7668
 20
148.6801
 10
-354.2191
 20
148.9364
 10
-353.4255
 20
149.0844
 10
-352.4186
 20
149.1247
 10
-351.231
 20
149.0575
 10
-349.8954
 20
148.8835
 10
-348.4444
 20
148.6029
 10
-346.9106
 20
148.2162
  0
LWPOLYLINE
  5
70
330
1F
100
AcDbEntity
  8
Layer 1
 62
     7
370
    18
100
AcDbPolyline
 90
       33
 70
     1
 43
0.0
 10
-353.9288
 20
218.9483
 10
-353.4014
 20
218.9022
 10
-352.9104
 20
218.7698
 10
-352.4661
 20
218.5605
 10
-352.0791
 20
218.2832
 10
-351.7599
 20
217.9471
 10
-351.5189
 20
217.5615
 10
-351.3666
 20
217.1353
 10
-351.3135
 20
216.6778
 10
-351.3666
 20
216.2203
 10
-351.5189
 20
215.7943
 10
-351.7599
 20
215.4088
 10
-352.0791
 20
215.073
 10
-352.4661
 20
214.7959
 10
-352.9104
 20
214.5868
 10
-353.4014
 20
214.4546
 10
-353.9288
 20
214.4085
 10
-354.4562
 20
214.4546
 10
-354.9472
 20
214.5868
 10
-355.3915
 20
214.7959
 10
-355.7785
 20
215.073
 10
-356.0978
 20
215.4088
 10
-356.3388
 20
215.7943
 10
-356.4911
 20
216.2203
 10
-356.5442
 20
216.6778
 10
-356.4911
 20
217.1353
 10
-356.3388
 20
217.5615
 10
-356.0978
 20
217.9471
 10
-355.7785
 20
218.2832
 10
-355.3915
 20
218.5605
 10
-354.9472
 20
218.7698
 10
-354.4562
 20
218.9022
 10
-353.9288
 20
218.9483
  0
LWPOLYLINE
  5
71
330
1F
100
AcDbEntity
  8
Layer 1
 62
     7
370
    18
100
AcDbPolyline
 90
       33
 70
     1
 43
0.0
 10
-361.7798
 20
218.3603
 10
-361.2524
 20
218.3142
 10
-360.7614
 20
218.182
 10
-360.3171
 20
217.9728
 10
-359.9301
 20
217.6956
 10
-359.6109
 20
217.3597
 10
-359.3699
 20
216.974
 10
-359.2176
 20
216.5477
 10
-359.1645
 20
216.0898
 10
-359.2176
 20
215.6323
 10
-359.3699
 20
215.2063
 10
-359.6109
 20
214.8208
 10
-359.9301
 20
214.485
 10
-360.3171
 20
214.2079
 10
-360.7614
 20
213.9988
 10
-361.2524
 20
213.8666
 10
-361.7798
 20
213.8205
 10
-362.3068
 20
213.8666
 10
-362.7977
 20
213.9988
 10
-363.242
 20
214.2079
 10
-363.6291
 20
214.485
 10
-363.9485
 20
214.8208
 10
-364.1896
 20
215.2063
 10
-364.3421
 20
215.6323
 10
-364.3952
 20
216.0898
 10
-364.3421
 20
216.5477
 10
-364.1896
 20
216.974
 10
-363.9485
 20
217.3597
 10
-363.6291
 20
217.6956
 10
-363.242
 20
217.9728
 10
-362.7977
 20
218.182
 10
-362.3068
 20
218.3142
 10
-361.7798
 20
218.3603
  0
LWPOLYLINE
  5
72
330
1F
100
AcDbEntity
  8
Layer 1
 62
     7
370
    18
100
AcDbPolyline
 90
       33
 70
     1
 43
0.0
 10
-367.7678
 20
215.5419
 10
-367.2404
 20
215.4958
 10
-366.7494
 20
215.3636
 10
-366.3051
 20
215.1544
 10
-365.9181
 20
214.8772
 10
-365.5989
 20
214.5413
 10
-365.3579
 20
214.1556
 10
-365.2056
 20
213.7293
 10
-365.1525
 20
213.2714
 10
-365.2056
 20
212.8139
 10
-365.3579
 20
212.3879
 10
-365.5989
 20
212.0024
 10
-365.9181
 20
211.6666
 10
-366.3051
 20
211.3895
 10
-366.7494
 20
211.1804
 10
-367.2404
 20
211.0482
 10
-367.7678
 20
211.0021
 10
-368.2952
 20
211.0482
 10
-368.7862
 20
211.1804
 10
-369.2305
 20
211.3895
 10
-369.6175
 20
211.6666
 10
-369.9367
 20
212.0024
 10
-370.1777
 20
212.3879
 10
-370.33
 20
212.8139
 10
-370.3831
 20
213.2714
 10
-370.33
 20
213.7293
 10
-370.1777
 20
214.1556
 10
-369.9367
 20
214.5413
 10
-369.6175
 20
214.8772
 10
-369.2305
 20
215.1544
 10
-368.7862
 20
215.3636
 10
-368.2952
 20
215.4958
 10
-367.7678
 20
215.5419
  0
LWPOLYLINE
  5
73
330
1F
100
AcDbEntity
  8
Layer 1
 62
     7
370
    18
100
AcDbPolyline
 90
       33
 70
     1
 43
0.0
 10
-372.6626
 20
210.5796
 10
-372.1352
 20
210.5335
 10
-371.644
 20
210.4013
 10
-371.1995
 20
210.1922
 10
-370.8123
 20
209.9151
 10
-370.4928
 20
209.5793
 10
-370.2516
 20
209.1938
 10
-370.0991
 20
208.7678
 10
-370.046
 20
208.3103
 10
-370.0991
 20
207.8524
 10
-370.2516
 20
207.4261
 10
-370.4928
 20
207.0404
 10
-370.8123
 20
206.7044
 10
-371.1995
 20
206.4273
 10
-371.644
 20
206.2181
 10
-372.1352
 20
206.0859
 10
-372.6626
 20
206.0398
 10
-373.1896
 20
206.0859
 10
-373.6805
 20
206.2181
 10
-374.1247
 20
206.4273
 10
-374.5118
 20
206.7044
 10
-374.8312
 20
207.0404
 10
-375.0723
 20
207.4261
 10
-375.2248
 20
207.8524
 10
-375.2779
 20
208.3103
 10
-375.2248
 20
208.7678
 10
-375.0723
 20
209.1938
 10
-374.8312
 20
209.5793
 10
-374.5118
 20
209.9151
 10
-374.1247
 20
210.1922
 10
-373.6805
 20
210.4013
 10
-373.1896
 20
210.5335
 10
-372.6626
 20
210.5796
  0
LWPOLYLINE
  5
74
330
1F
100
AcDbEntity
  8
Layer 1
 62
     7
370
    18
100
AcDbPolyline
 90
       33
 70
     1
 43
0.0
 10
-376.5862
 20
204.6933
 10
-376.0588
 20
204.6472
 10
-375.5676
 20
204.515
 10
-375.1231
 20
204.3058
 10
-374.7359
 20
204.0287
 10
-374.4164
 20
203.6927
 10
-374.1752
 20
203.307
 10
-374.0227
 20
202.8807
 10
-373.9696
 20
202.4228
 10
-374.0227
 20
201.9653
 10
-374.1752
 20
201.5393
 10
-374.4164
 20
201.1538
 10
-374.7359
 20
200.818
 10
-375.1231
 20
200.5409
 10
-375.5676
 20
200.3318
 10
-376.0588
 20
200.1996
 10
-376.5862
 20
200.1535
 10
-377.1132
 20
200.1996
 10
-377.6041
 20
200.3318
 10
-378.0483
 20
200.5409
 10
-378.4354
 20
200.818
 10
-378.7548
 20
201.1538
 10
-378.9959
 20
201.5393
 10
-379.1484
 20
201.9653
 10
-379.2015
 20
202.4228
 10
-379.1484
 20
202.8807
 10
-378.9959
 20
203.307
 10
-378.7548
 20
203.6927
 10
-378.4354
 20
204.0287
 10
-378.0483
 20
204.3058
 10
-377.6041
 20
204.515
 10
-377.1132
 20
204.6472
 10
-376.5862
 20
204.6933
  0
LWPOLYLINE
  5
75
330
1F
100
AcDbEntity
  8
Layer 1
 62
     7
370
    18
100
AcDbPolyline
 90
       33
 70
     1
 43
0.0
 10
-379.1587
 20
198.3017
 10
-378.6317
 20
198.2556
 10
-378.1408
 20
198.1234
 10
-377.6966
 20
197.9143
 10
-377.3095
 20
197.6372
 10
-376.9901
 20
197.3014
 10
-376.749
 20
196.916
 10
-376.5965
 20
196.49
 10
-376.5434
 20
196.0325
 10
-376.5965
 20
195.5746
 10
-376.749
 20
195.1483
 10
-376.9901
 20
194.7626
 10
-377.3095
 20
194.4266
 10
-377.6966
 20
194.1495
 10
-378.1408
 20
193.9403
 10
-378.6317
 20
193.8081
 10
-379.1587
 20
193.762
 10
-379.6861
 20
193.8081
 10
-380.1774
 20
193.9403
 10
-380.6218
 20
194.1495
 10
-381.0091
 20
194.4266
 10
-381.3285
 20
194.7626
 10
-381.5697
 20
195.1483
 10
-381.7222
 20
195.5746
 10
-381.7753
 20
196.0325
 10
-381.7222
 20
196.49
 10
-381.5697
 20
196.916
 10
-381.3285
 20
197.3014
 10
-381.0091
 20
197.6372
 10
-380.6218
 20
197.9143
 10
-380.1774
 20
198.1234
 10
-379.6861
 20
198.2556
 10
-379.1587
 20
198.3017
  0
LWPOLYLINE
  5
76
330
1F
100
AcDbEntity
  8
Layer 1
 62
     7
370
    18
100
AcDbPolyline
 90
       33
 70
     1
 43
0.0
 10
-380.5098
 20
191.7823
 10
-379.9824
 20
191.7362
 10
-379.4914
 20
191.6038
 10
-379.0471
 20
191.3945
 10
-378.6601
 20
191.1172
 10
-378.3409
 20
190.7811
 10
-378.0999
 20
190.3955
 10
-377.9476
 20
189.9693
 10
-377.8945
 20
189.5118
 10
-377.9476
 20
189.0543
 10
-378.0999
 20
188.6281
 10
-378.3409
 20
188.2424
 10
-378.6601
 20
187.9064
 10
-379.0471
 20
187.6291
 10
-379.4914
 20
187.4198
 10
-379.9824
 20
187.2874
 10
-380.5098
 20
187.2413
 10
-381.0368
 20
187.2874
 10
-381.5277
 20
187.4198
 10
-381.972
 20
187.6291
 10
-382.359
 20
187.9064
 10
-382.6784
 20
188.2424
 10
-382.9196
 20
188.6281
 10
-383.072
 20
189.0543
 10
-383.1251
 20
189.5118
 10
-383.072
 20
189.9693
 10
-382.9196
 20
190.3955
 10
-382.6784
 20
190.7811
 10
-382.359
 20
191.1172
 10
-381.972
 20
191.3945
 10
-381.5277
 20
191.6038
 10
-381.0368
 20
191.7362
 10
-380.5098
 20
191.7823
  0
LWPOLYLINE
  5
77
330
1F
100
AcDbEntity
  8
Layer 1
 62
     7
370
    18
100
AcDbPolyline
 90
       33
 70
     1
 43
0.0
 10
-346.6729
 20
217.7698
 10
-346.1455
 20
217.7237
 10
-345.6544
 20
217.5915
 10
-345.2101
 20
217.3823
 10
-344.8231
 20
217.1053
 10
-344.5039
 20
216.7695
 10
-344.2629
 20
216.384
 10
-344.1106
 20
215.958
 10
-344.0575
 20
215.5005
 10
-344.1106
 20
215.043
 10
-344.2629
 20
214.6168
 10
-344.5039
 20
214.2312
 10
-344.8231
 20
213.8951
 10
-345.2101
 20
213.6178
 10
-345.6544
 20
213.4085
 10
-346.1455
 20
213.2761
 10
-346.6729
 20
213.23
 10
-347.1999
 20
213.2761
 10
-347.6908
 20
213.4085
 10
-348.135
 20
213.6178
 10
-348.5221
 20
213.8951
 10
-348.8415
 20
214.2312
 10
-349.0826
 20
214.6168
 10
-349.2351
 20
215.043
 10
-349.2882
 20
215.5005
 10
-349.2351
 20
215.958
 10
-349.0826
 20
216.384
 10
-348.8415
 20
216.7695
 10
-348.5221
 20
217.1053
 10
-348.135
 20
217.3823
 10
-347.6908
 20
217.5915
 10
-347.1999
 20
217.7237
 10
-346.6729
 20
217.7698
  0
LWPOLYLINE
  5
78
330
1F
100
AcDbEntity
  8
Layer 1
 62
     7
370
    18
100
AcDbPolyline
 90
       33
 70
     1
 43
0.0
 10
-340.5981
 20
214.238
 10
-340.0707
 20
214.1919
 10
-339.5795
 20
214.0597
 10
-339.135
 20
213.8505
 10
-338.7478
 20
213.5734
 10
-338.4283
 20
213.2374
 10
-338.1871
 20
212.8517
 10
-338.0346
 20
212.4254
 10
-337.9815
 20
211.9675
 10
-338.0346
 20
211.51
 10
-338.1871
 20
211.084
 10
-338.4283
 20
210.6985
 10
-338.7478
 20
210.3627
 10
-339.135
 20
210.0856
 10
-339.5795
 20
209.8765
 10
-340.0707
 20
209.7443
 10
-340.5981
 20
209.6982
 10
-341.1251
 20
209.7443
 10
-341.616
 20
209.8765
 10
-342.0603
 20
210.0856
 10
-342.4473
 20
210.3627
 10
-342.7667
 20
210.6985
 10
-343.0079
 20
211.084
 10
-343.1603
 20
211.51
 10
-343.2134
 20
211.9675
 10
-343.1603
 20
212.4254
 10
-343.0079
 20
212.8517
 10
-342.7667
 20
213.2374
 10
-342.4473
 20
213.5734
 10
-342.0603
 20
213.8505
 10
-341.616
 20
214.0597
 10
-341.1251
 20
214.1919
 10
-340.5981
 20
214.238
  0
LWPOLYLINE
  5
79
330
1F
100
AcDbEntity
  8
Layer 1
 62
     7
370
    18
100
AcDbPolyline
 90
       33
 70
     1
 43
0.0
 10
-333.8466
 20
208.9397
 10
-333.3196
 20
208.8936
 10
-332.8287
 20
208.7612
 10
-332.3844
 20
208.5519
 10
-331.9973
 20
208.2746
 10
-331.6779
 20
207.9385
 10
-331.4368
 20
207.5529
 10
-331.2843
 20
207.1267
 10
-331.2312
 20
206.6692
 10
-331.2843
 20
206.2117
 10
-331.4368
 20
205.7855
 10
-331.6779
 20
205.3998
 10
-331.9973
 20
205.0638
 10
-332.3844
 20
204.7865
 10
-332.8287
 20
204.5772
 10
-333.3196
 20
204.4448
 10
-333.8466
 20
204.3987
 10
-334.374
 20
204.4448
 10
-334.865
 20
204.5772
 10
-335.3093
 20
204.7865
 10
-335.6963
 20
205.0638
 10
-336.0155
 20
205.3998
 10
-336.2565
 20
205.7855
 10
-336.4088
 20
206.2117
 10
-336.4619
 20
206.6692
 10
-336.4088
 20
207.1267
 10
-336.2565
 20
207.5529
 10
-336.0155
 20
207.9385
 10
-335.6963
 20
208.2746
 10
-335.3093
 20
208.5519
 10
-334.865
 20
208.7612
 10
-334.374
 20
208.8936
 10
-333.8466
 20
208.9397
  0
LWPOLYLINE
  5
7A
330
1F
100
AcDbEntity
  8
Layer 1
 62
     7
370
    18
100
AcDbPolyline
 90
       33
 70
     1
 43
0.0
 10
-329.1216
 20
203.6427
 10
-328.5946
 20
203.5966
 10
-328.1037
 20
203.4644
 10
-327.6595
 20
203.2552
 10
-327.2724
 20
202.978
 10
-326.953
 20
202.642
 10
-326.7119
 20
202.2563
 10
-326.5594
 20
201.83
 10
-326.5063
 20
201.3721
 10
-326.5594
 20
200.9146
 10
-326.7119
 20
200.4886
 10
-326.953
 20
200.1032
 10
-327.2724
 20
199.7674
 10
-327.6595
 20
199.4903
 10
-328.1037
 20
199.2812
 10
-328.5946
 20
199.149
 10
-329.1216
 20
199.1029
 10
-329.649
 20
199.149
 10
-330.1402
 20
199.2812
 10
-330.5847
 20
199.4903
 10
-330.9719
 20
199.7674
 10
-331.2914
 20
200.1032
 10
-331.5326
 20
200.4886
 10
-331.6851
 20
200.9146
 10
-331.7382
 20
201.3721
 10
-331.6851
 20
201.83
 10
-331.5326
 20
202.2563
 10
-331.2914
 20
202.642
 10
-330.9719
 20
202.978
 10
-330.5847
 20
203.2552
 10
-330.1402
 20
203.4644
 10
-329.649
 20
203.5966
 10
-329.1216
 20
203.6427
  0
LWPOLYLINE
  5
7B
330
1F
100
AcDbEntity
  8
Layer 1
 62
     7
370
    18
100
AcDbPolyline
 90
       33
 70
     1
 43
0.0
 10
-324.9879
 20
198.0084
 10
-324.4609
 20
197.9623
 10
-323.97
 20
197.8299
 10
-323.5258
 20
197.6206
 10
-323.1387
 20
197.3433
 10
-322.8193
 20
197.0072
 10
-322.5782
 20
196.6215
 10
-322.4257
 20
196.1953
 10
-322.3726
 20
195.7378
 10
-322.4257
 20
195.2803
 10
-322.5782
 20
194.8543
 10
-322.8193
 20
194.4689
 10
-323.1387
 20
194.1331
 10
-323.5258
 20
193.856
 10
-323.97
 20
193.6469
 10
-324.4609
 20
193.5147
 10
-324.9879
 20
193.4686
 10
-325.5153
 20
193.5147
 10
-326.0063
 20
193.6469
 10
-326.4506
 20
193.856
 10
-326.8376
 20
194.1331
 10
-327.1568
 20
194.4689
 10
-327.3978
 20
194.8543
 10
-327.5501
 20
195.2803
 10
-327.6032
 20
195.7378
 10
-327.5501
 20
196.1953
 10
-327.3978
 20
196.6215
 10
-327.1568
 20
197.0072
 10
-326.8376
 20
197.3433
 10
-326.4506
 20
197.6206
 10
-326.0063
 20
197.8299
 10
-325.5153
 20
197.9623
 10
-324.9879
 20
198.0084
  0
LWPOLYLINE
  5
7C
330
1F
100
AcDbEntity
  8
Layer 1
 62
     7
370
    18
100
AcDbPolyline
 90
       33
 70
     1
 43
0.0
 10
-363.7989
 20
131.6568
 10
-363.2715
 20
131.6107
 10
-362.7805
 20
131.4785
 10
-362.3362
 20
131.2694
 10
-361.9492
 20
130.9923
 10
-361.63
 20
130.6565
 10
-361.389
 20
130.2711
 10
-361.2367
 20
129.8451
 10
-361.1836
 20
129.3876
 10
-361.2367
 20
128.9297
 10
-361.389
 20
128.5034
 10
-361.63
 20
128.1177
 10
-361.9492
 20
127.7817
 10
-362.3362
 20
127.5045
 10
-362.7805
 20
127.2953
 10
-363.2715
 20
127.1631
 10
-363.7989
 20
127.117
 10
-364.3263
 20
127.1631
 10
-364.8173
 20
127.2953
 10
-365.2616
 20
127.5045
 10
-365.6486
 20
127.7817
 10
-365.9678
 20
128.1177
 10
-366.2088
 20
128.5034
 10
-366.3611
 20
128.9297
 10
-366.4142
 20
129.3876
 10
-366.3611
 20
129.8451
 10
-366.2088
 20
130.2711
 10
-365.9678
 20
130.6565
 10
-365.6486
 20
130.9923
 10
-365.2616
 20
131.2694
 10
-364.8173
 20
131.4785
 10
-364.3263
 20
131.6107
 10
-363.7989
 20
131.6568
  0
LWPOLYLINE
  5
7D
330
1F
100
AcDbEntity
  8
Layer 1
 62
     7
370
    18
100
AcDbPolyline
 90
       33
 70
     1
 43
0.0
 10
-359.7495
 20
125.9385
 10
-359.2225
 20
125.8924
 10
-358.7316
 20
125.7602
 10
-358.2873
 20
125.551
 10
-357.9003
 20
125.2739
 10
-357.5809
 20
124.9379
 10
-357.3398
 20
124.5522
 10
-357.1873
 20
124.1259
 10
-357.1342
 20
123.668
 10
-357.1873
 20
123.2105
 10
-357.3398
 20
122.7845
 10
-357.5809
 20
122.3991
 10
-357.9003
 20
122.0633
 10
-358.2873
 20
121.7862
 10
-358.7316
 20
121.5771
 10
-359.2225
 20
121.4449
 10
-359.7495
 20
121.3988
 10
-360.2769
 20
121.4449
 10
-360.7679
 20
121.5771
 10
-361.2122
 20
121.7862
 10
-361.5992
 20
122.0633
 10
-361.9184
 20
122.3991
 10
-362.1594
 20
122.7845
 10
-362.3117
 20
123.2105
 10
-362.3648
 20
123.668
 10
-362.3117
 20
124.1259
 10
-362.1594
 20
124.5522
 10
-361.9184
 20
124.9379
 10
-361.5992
 20
125.2739
 10
-361.2122
 20
125.551
 10
-360.7679
 20
125.7602
 10
-360.2769
 20
125.8924
 10
-359.7495
 20
125.9385
  0
LWPOLYLINE
  5
7E
330
1F
100
AcDbEntity
  8
Layer 1
 62
     7
370
    18
100
AcDbPolyline
 90
       33
 70
     1
 43
0.0
 10
-354.2647
 20
121.2295
 10
-353.7373
 20
121.1834
 10
-353.2463
 20
121.0512
 10
-352.802
 20
120.842
 10
-352.415
 20
120.5649
 10
-352.0958
 20
120.2289
 10
-351.8548
 20
119.8432
 10
-351.7025
 20
119.4169
 10
-351.6494
 20
118.959
 10
-351.7025
 20
118.5015
 10
-351.8548
 20
118.0755
 10
-352.0958
 20
117.69
 10
-352.415
 20
117.3542
 10
-352.802
 20
117.0771
 10
-353.2463
 20
116.868
 10
-353.7373
 20
116.7358
 10
-354.2647
 20
116.6897
 10
-354.7921
 20
116.7358
 10
-355.2831
 20
116.868
 10
-355.7274
 20
117.0771
 10
-356.1144
 20
117.3542
 10
-356.4336
 20
117.69
 10
-356.6746
 20
118.0755
 10
-356.8269
 20
118.5015
 10
-356.88
 20
118.959
 10
-356.8269
 20
119.4169
 10
-356.6746
 20
119.8432
 10
-356.4336
 20
120.2289
 10
-356.1144
 20
120.5649
 10
-355.7274
 20
120.842
 10
-355.2831
 20
121.0512
 10
-354.7921
 20
121.1834
 10
-354.2647
 20
121.2295
  0
LWPOLYLINE
  5
7F
330
1F
100
AcDbEntity
  8
Layer 1
 62
     7
370
    18
100
AcDbPolyline
 90
       33
 70
     1
 43
0.0
 10
-348.1912
 20
118.203
 10
-347.6638
 20
118.1569
 10
-347.1728
 20
118.0245
 10
-346.7285
 20
117.8152
 10
-346.3415
 20
117.5379
 10
-346.0223
 20
117.2018
 10
-345.7813
 20
116.8162
 10
-345.629
 20
116.39
 10
-345.5759
 20
115.9325
 10
-345.629
 20
115.475
 10
-345.7813
 20
115.049
 10
-346.0223
 20
114.6635
 10
-346.3415
 20
114.3277
 10
-346.7285
 20
114.0506
 10
-347.1728
 20
113.8415
 10
-347.6638
 20
113.7093
 10
-348.1912
 20
113.6632
 10
-348.7182
 20
113.7093
 10
-349.2091
 20
113.8415
 10
-349.6534
 20
114.0506
 10
-350.0405
 20
114.3277
 10
-350.3599
 20
114.6635
 10
-350.601
 20
115.049
 10
-350.7535
 20
115.475
 10
-350.8066
 20
115.9325
 10
-350.7535
 20
116.39
 10
-350.601
 20
116.8162
 10
-350.3599
 20
117.2018
 10
-350.0405
 20
117.5379
 10
-349.6534
 20
117.8152
 10
-349.2091
 20
118.0245
 10
-348.7182
 20
118.1569
 10
-348.1912
 20
118.203
  0
LWPOLYLINE
  5
80
330
1F
100
AcDbEntity
  8
Layer 1
 62
     7
370
    18
100
AcDbPolyline
 90
       33
 70
     1
 43
0.0
 10
-341.1868
 20
116.0165
 10
-340.6598
 20
115.9704
 10
-340.1689
 20
115.838
 10
-339.7247
 20
115.6287
 10
-339.3376
 20
115.3514
 10
-339.0182
 20
115.0153
 10
-338.7771
 20
114.6296
 10
-338.6246
 20
114.2034
 10
-338.5715
 20
113.7459
 10
-338.6246
 20
113.2884
 10
-338.7771
 20
112.8624
 10
-339.0182
 20
112.477
 10
-339.3376
 20
112.1412
 10
-339.7247
 20
111.8641
 10
-340.1689
 20
111.655
 10
-340.6598
 20
111.5228
 10
-341.1868
 20
111.4767
 10
-341.7142
 20
111.5228
 10
-342.2054
 20
111.655
 10
-342.6499
 20
111.8641
 10
-343.0371
 20
112.1412
 10
-343.3566
 20
112.477
 10
-343.5978
 20
112.8624
 10
-343.7503
 20
113.2884
 10
-343.8034
 20
113.7459
 10
-343.7503
 20
114.2034
 10
-343.5978
 20
114.6296
 10
-343.3566
 20
115.0153
 10
-343.0371
 20
115.3514
 10
-342.6499
 20
115.6287
 10
-342.2054
 20
115.838
 10
-341.7142
 20
115.9704
 10
-341.1868
 20
116.0165
  0
LWPOLYLINE
  5
81
330
1F
100
AcDbEntity
  8
Layer 1
 62
     7
370
    18
100
AcDbPolyline
 90
       33
 70
     1
 43
0.0
 10
-334.268
 20
116.6885
 10
-333.741
 20
116.6424
 10
-333.2501
 20
116.5102
 10
-332.8058
 20
116.301
 10
-332.4188
 20
116.0238
 10
-332.0994
 20
115.6878
 10
-331.8583
 20
115.3021
 10
-331.7058
 20
114.8758
 10
-331.6527
 20
114.4179
 10
-331.7058
 20
113.9604
 10
-331.8583
 20
113.5344
 10
-332.0994
 20
113.149
 10
-332.4188
 20
112.8132
 10
-332.8058
 20
112.5361
 10
-333.2501
 20
112.327
 10
-333.741
 20
112.1948
 10
-334.268
 20
112.1487
 10
-334.7954
 20
112.1948
 10
-335.2866
 20
112.327
 10
-335.7311
 20
112.5361
 10
-336.1183
 20
112.8132
 10
-336.4378
 20
113.149
 10
-336.679
 20
113.5344
 10
-336.8315
 20
113.9604
 10
-336.8846
 20
114.4179
 10
-336.8315
 20
114.8758
 10
-336.679
 20
115.3021
 10
-336.4378
 20
115.6878
 10
-336.1183
 20
116.0238
 10
-335.7311
 20
116.301
 10
-335.2866
 20
116.5102
 10
-334.7954
 20
116.6424
 10
-334.268
 20
116.6885
  0
LWPOLYLINE
  5
82
330
1F
100
AcDbEntity
  8
Layer 1
 62
     7
370
    18
100
AcDbPolyline
 90
       33
 70
     1
 43
0.0
 10
-327.7706
 20
118.203
 10
-327.2436
 20
118.1569
 10
-326.7527
 20
118.0245
 10
-326.3084
 20
117.8152
 10
-325.9213
 20
117.5379
 10
-325.6019
 20
117.2018
 10
-325.3608
 20
116.8162
 10
-325.2083
 20
116.39
 10
-325.1552
 20
115.9325
 10
-325.2083
 20
115.475
 10
-325.3608
 20
115.049
 10
-325.6019
 20
114.6635
 10
-325.9213
 20
114.3277
 10
-326.3084
 20
114.0506
 10
-326.7527
 20
113.8415
 10
-327.2436
 20
113.7093
 10
-327.7706
 20
113.6632
 10
-328.298
 20
113.7093
 10
-328.7892
 20
113.8415
 10
-329.2337
 20
114.0506
 10
-329.6209
 20
114.3277
 10
-329.9403
 20
114.6635
 10
-330.1815
 20
115.049
 10
-330.334
 20
115.475
 10
-330.3871
 20
115.9325
 10
-330.334
 20
116.39
 10
-330.1815
 20
116.8162
 10
-329.9403
 20
117.2018
 10
-329.6209
 20
117.5379
 10
-329.2337
 20
117.8152
 10
-328.7892
 20
118.0245
 10
-328.298
 20
118.1569
 10
-327.7706
 20
118.203
  0
LWPOLYLINE
  5
83
330
1F
100
AcDbEntity
  8
Layer 1
 62
     7
370
    18
100
AcDbPolyline
 90
       33
 70
     1
 43
0.0
 10
-322.2871
 20
121.7335
 10
-321.7597
 20
121.6874
 10
-321.2686
 20
121.5552
 10
-320.8243
 20
121.3461
 10
-320.4373
 20
121.069
 10
-320.1181
 20
120.7332
 10
-319.8771
 20
120.3477
 10
-319.7248
 20
119.9217
 10
-319.6717
 20
119.4642
 10
-319.7248
 20
119.0067
 10
-319.8771
 20
118.5805
 10
-320.1181
 20
118.1949
 10
-320.4373
 20
117.8588
 10
-320.8243
 20
117.5815
 10
-321.2686
 20
117.3722
 10
-321.7597
 20
117.2398
 10
-322.2871
 20
117.1937
 10
-322.8145
 20
117.2398
 10
-323.3055
 20
117.3722
 10
-323.7498
 20
117.5815
 10
-324.1368
 20
117.8588
 10
-324.456
 20
118.1949
 10
-324.697
 20
118.5805
 10
-324.8493
 20
119.0067
 10
-324.9024
 20
119.4642
 10
-324.8493
 20
119.9217
 10
-324.697
 20
120.3477
 10
-324.456
 20
120.7332
 10
-324.1368
 20
121.069
 10
-323.7498
 20
121.3461
 10
-323.3055
 20
121.5552
 10
-322.8145
 20
121.6874
 10
-322.2871
 20
121.7335
  0
LWPOLYLINE
  5
84
330
1F
100
AcDbEntity
  8
Layer 1
 62
     7
370
    18
100
AcDbPolyline
 90
       33
 70
     1
 43
0.0
 10
-317.9835
 20
126.6118
 10
-317.4561
 20
126.5657
 10
-316.9651
 20
126.4335
 10
-316.5208
 20
126.2243
 10
-316.1338
 20
125.9472
 10
-315.8146
 20
125.6112
 10
-315.5736
 20
125.2255
 10
-315.4213
 20
124.7992
 10
-315.3682
 20
124.3413
 10
-315.4213
 20
123.8838
 10
-315.5736
 20
123.4578
 10
-315.8146
 20
123.0723
 10
-316.1338
 20
122.7365
 10
-316.5208
 20
122.4594
 10
-316.9651
 20
122.2503
 10
-317.4561
 20
122.1181
 10
-317.9835
 20
122.072
 10
-318.5109
 20
122.1181
 10
-319.0019
 20
122.2503
 10
-319.4462
 20
122.4594
 10
-319.8332
 20
122.7365
 10
-320.1525
 20
123.0723
 10
-320.3935
 20
123.4578
 10
-320.5458
 20
123.8838
 10
-320.5989
 20
124.3413
 10
-320.5458
 20
124.7992
 10
-320.3935
 20
125.2255
 10
-320.1525
 20
125.6112
 10
-319.8332
 20
125.9472
 10
-319.4462
 20
126.2243
 10
-319.0019
 20
126.4335
 10
-318.5109
 20
126.5657
 10
-317.9835
 20
126.6118
  0
LWPOLYLINE
  5
85
330
1F
100
AcDbEntity
  8
Layer 1
 62
     7
370
    18
100
AcDbPolyline
 90
       33
 70
     1
 43
0.0
 10
-315.1153
 20
133.0033
 10
-314.5879
 20
132.9572
 10
-314.0969
 20
132.8249
 10
-313.6526
 20
132.6155
 10
-313.2656
 20
132.3382
 10
-312.9464
 20
132.0022
 10
-312.7054
 20
131.6165
 10
-312.5531
 20
131.1903
 10
-312.5
 20
130.7328
 10
-312.5531
 20
130.2753
 10
-312.7054
 20
129.8491
 10
-312.9464
 20
129.4635
 10
-313.2656
 20
129.1274
 10
-313.6526
 20
128.8501
 10
-314.0969
 20
128.6408
 10
-314.5879
 20
128.5084
 10
-315.1153
 20
128.4623
 10
-315.6423
 20
128.5084
 10
-316.1332
 20
128.6408
 10
-316.5775
 20
128.8501
 10
-316.9646
 20
129.1274
 10
-317.284
 20
129.4635
 10
-317.5251
 20
129.8491
 10
-317.6776
 20
130.2753
 10
-317.7307
 20
130.7328
 10
-317.6776
 20
131.1903
 10
-317.5251
 20
131.6165
 10
-317.284
 20
132.0022
 10
-316.9646
 20
132.3382
 10
-316.5775
 20
132.6155
 10
-316.1332
 20
132.8249
 10
-315.6423
 20
132.9572
 10
-315.1153
 20
133.0033
  0
LWPOLYLINE
  5
86
330
1F
100
AcDbEntity
  8
Layer 1
 62
     7
370
    18
100
AcDbPolyline
 90
       33
 70
     1
 43
0.0
 10
-313.1756
 20
138.5524
 10
-312.6482
 20
138.5063
 10
-312.1571
 20
138.3741
 10
-311.7128
 20
138.165
 10
-311.3258
 20
137.8879
 10
-311.0066
 20
137.5521
 10
-310.7656
 20
137.1666
 10
-310.6133
 20
136.7406
 10
-310.5602
 20
136.2831
 10
-310.6133
 20
135.8252
 10
-310.7656
 20
135.3989
 10
-311.0066
 20
135.0132
 10
-311.3258
 20
134.6772
 10
-311.7128
 20
134.4001
 10
-312.1571
 20
134.1909
 10
-312.6482
 20
134.0587
 10
-313.1756
 20
134.0126
 10
-313.7026
 20
134.0587
 10
-314.1935
 20
134.1909
 10
-314.6377
 20
134.4001
 10
-315.0248
 20
134.6772
 10
-315.3442
 20
135.0132
 10
-315.5853
 20
135.3989
 10
-315.7378
 20
135.8252
 10
-315.7909
 20
136.2831
 10
-315.7378
 20
136.7406
 10
-315.5853
 20
137.1666
 10
-315.3442
 20
137.5521
 10
-315.0248
 20
137.8879
 10
-314.6377
 20
138.165
 10
-314.1935
 20
138.3741
 10
-313.7026
 20
138.5063
 10
-313.1756
 20
138.5524
  0
LWPOLYLINE
  5
87
330
1F
100
AcDbEntity
  8
Layer 1
 62
     7
370
    18
100
AcDbPolyline
 90
       33
 70
     1
 43
0.0
 10
-311.8245
 20
144.5239
 10
-311.2975
 20
144.4778
 10
-310.8066
 20
144.3456
 10
-310.3623
 20
144.1364
 10
-309.9753
 20
143.8593
 10
-309.6559
 20
143.5233
 10
-309.4148
 20
143.1376
 10
-309.2623
 20
142.7113
 10
-309.2092
 20
142.2534
 10
-309.2623
 20
141.7959
 10
-309.4148
 20
141.3699
 10
-309.6559
 20
140.9845
 10
-309.9753
 20
140.6487
 10
-310.3623
 20
140.3716
 10
-310.8066
 20
140.1625
 10
-311.2975
 20
140.0303
 10
-311.8245
 20
139.9842
 10
-312.3519
 20
140.0303
 10
-312.8431
 20
140.1625
 10
-313.2876
 20
140.3716
 10
-313.6748
 20
140.6487
 10
-313.9943
 20
140.9845
 10
-314.2355
 20
141.3699
 10
-314.388
 20
141.7959
 10
-314.4411
 20
142.2534
 10
-314.388
 20
142.7113
 10
-314.2355
 20
143.1376
 10
-313.9943
 20
143.5233
 10
-313.6748
 20
143.8593
 10
-313.2876
 20
144.1364
 10
-312.8431
 20
144.3456
 10
-312.3519
 20
144.4778
 10
-311.8245
 20
144.5239
  0
LWPOLYLINE
  5
88
330
1F
100
AcDbEntity
  8
Layer 1
 62
     7
370
    18
100
AcDbPolyline
 90
       33
 70
     1
 43
0.0
 10
-311.5716
 20
150.5795
 10
-311.0446
 20
150.5334
 10
-310.5537
 20
150.401
 10
-310.1095
 20
150.1917
 10
-309.7224
 20
149.9144
 10
-309.403
 20
149.5783
 10
-309.1619
 20
149.1927
 10
-309.0094
 20
148.7665
 10
-308.9563
 20
148.309
 10
-309.0094
 20
147.8515
 10
-309.1619
 20
147.4255
 10
-309.403
 20
147.04
 10
-309.7224
 20
146.7042
 10
-310.1095
 20
146.4271
 10
-310.5537
 20
146.218
 10
-311.0446
 20
146.0858
 10
-311.5716
 20
146.0397
 10
-312.099
 20
146.0858
 10
-312.5901
 20
146.218
 10
-313.0344
 20
146.4271
 10
-313.4214
 20
146.7042
 10
-313.7406
 20
147.04
 10
-313.9816
 20
147.4255
 10
-314.1339
 20
147.8515
 10
-314.187
 20
148.309
 10
-314.1339
 20
148.7665
 10
-313.9816
 20
149.1927
 10
-313.7406
 20
149.5783
 10
-313.4214
 20
149.9144
 10
-313.0344
 20
150.1917
 10
-312.5901
 20
150.401
 10
-312.099
 20
150.5334
 10
-311.5716
 20
150.5795
  0
LWPOLYLINE
  5
89
330
1F
100
AcDbEntity
  8
Layer 1
 62
     7
370
    18
100
AcDbPolyline
 90
       33
 70
     1
 43
0.0
 10
-374.0023
 20
222.7283
 10
-373.4753
 20
222.6822
 10
-372.9844
 20
222.55
 10
-372.5402
 20
222.3408
 10
-372.1531
 20
222.0637
 10
-371.8337
 20
221.7277
 10
-371.5926
 20
221.342
 10
-371.4401
 20
220.9157
 10
-371.387
 20
220.4578
 10
-371.4401
 20
220.0003
 10
-371.5926
 20
219.5743
 10
-371.8337
 20
219.1888
 10
-372.1531
 20
218.853
 10
-372.5402
 20
218.5759
 10
-372.9844
 20
218.3668
 10
-373.4753
 20
218.2346
 10
-374.0023
 20
218.1885
 10
-374.5297
 20
218.2346
 10
-375.0209
 20
218.3668
 10
-375.4654
 20
218.5759
 10
-375.8526
 20
218.853
 10
-376.1721
 20
219.1888
 10
-376.4133
 20
219.5743
 10
-376.5658
 20
220.0003
 10
-376.6189
 20
220.4578
 10
-376.5658
 20
220.9157
 10
-376.4133
 20
221.342
 10
-376.1721
 20
221.7277
 10
-375.8526
 20
222.0637
 10
-375.4654
 20
222.3408
 10
-375.0209
 20
222.55
 10
-374.5297
 20
222.6822
 10
-374.0023
 20
222.7283
  0
LWPOLYLINE
  5
8A
330
1F
100
AcDbEntity
  8
Layer 1
 62
     7
370
    18
100
AcDbPolyline
 90
       33
 70
     1
 43
0.0
 10
-369.7843
 20
228.9506
 10
-369.2569
 20
228.9045
 10
-368.7659
 20
228.7723
 10
-368.3216
 20
228.5631
 10
-367.9346
 20
228.286
 10
-367.6154
 20
227.95
 10
-367.3744
 20
227.5643
 10
-367.2221
 20
227.138
 10
-367.169
 20
226.6801
 10
-367.2221
 20
226.2226
 10
-367.3744
 20
225.7966
 10
-367.6154
 20
225.4111
 10
-367.9346
 20
225.0753
 10
-368.3216
 20
224.7982
 10
-368.7659
 20
224.5891
 10
-369.2569
 20
224.4569
 10
-369.7843
 20
224.4108
 10
-370.3117
 20
224.4569
 10
-370.8027
 20
224.5891
 10
-371.247
 20
224.7982
 10
-371.634
 20
225.0753
 10
-371.9533
 20
225.4111
 10
-372.1943
 20
225.7966
 10
-372.3466
 20
226.2226
 10
-372.3997
 20
226.6801
 10
-372.3466
 20
227.138
 10
-372.1943
 20
227.5643
 10
-371.9533
 20
227.95
 10
-371.634
 20
228.286
 10
-371.247
 20
228.5631
 10
-370.8027
 20
228.7723
 10
-370.3117
 20
228.9045
 10
-369.7843
 20
228.9506
  0
LWPOLYLINE
  5
8B
330
1F
100
AcDbEntity
  8
Layer 1
 62
     7
370
    18
100
AcDbPolyline
 90
       33
 70
     1
 43
0.0
 10
-362.6957
 20
225.9241
 10
-362.1687
 20
225.878
 10
-361.6778
 20
225.7456
 10
-361.2335
 20
225.5363
 10
-360.8464
 20
225.259
 10
-360.527
 20
224.9229
 10
-360.2859
 20
224.5372
 10
-360.1334
 20
224.111
 10
-360.0803
 20
223.6535
 10
-360.1334
 20
223.196
 10
-360.2859
 20
222.77
 10
-360.527
 20
222.3846
 10
-360.8464
 20
222.0488
 10
-361.2335
 20
221.7717
 10
-361.6778
 20
221.5626
 10
-362.1687
 20
221.4304
 10
-362.6957
 20
221.3843
 10
-363.2231
 20
221.4304
 10
-363.7141
 20
221.5626
 10
-364.1584
 20
221.7717
 10
-364.5454
 20
222.0488
 10
-364.8646
 20
222.3846
 10
-365.1056
 20
222.77
 10
-365.2579
 20
223.196
 10
-365.311
 20
223.6535
 10
-365.2579
 20
224.111
 10
-365.1056
 20
224.5372
 10
-364.8646
 20
224.9229
 10
-364.5454
 20
225.259
 10
-364.1584
 20
225.5363
 10
-363.7141
 20
225.7456
 10
-363.2231
 20
225.878
 10
-362.6957
 20
225.9241
  0
LWPOLYLINE
  5
8C
330
1F
100
AcDbEntity
  8
Layer 1
 62
     7
370
    18
100
AcDbPolyline
 90
       33
 70
     1
 43
0.0
 10
-357.8034
 20
232.1464
 10
-357.276
 20
232.1003
 10
-356.7848
 20
231.9679
 10
-356.3403
 20
231.7586
 10
-355.9531
 20
231.4813
 10
-355.6336
 20
231.1452
 10
-355.3924
 20
230.7595
 10
-355.2399
 20
230.3333
 10
-355.1868
 20
229.8758
 10
-355.2399
 20
229.4183
 10
-355.3924
 20
228.9923
 10
-355.6336
 20
228.6069
 10
-355.9531
 20
228.2711
 10
-356.3403
 20
227.994
 10
-356.7848
 20
227.7849
 10
-357.276
 20
227.6527
 10
-357.8034
 20
227.6066
 10
-358.3304
 20
227.6527
 10
-358.8213
 20
227.7849
 10
-359.2655
 20
227.994
 10
-359.6526
 20
228.2711
 10
-359.972
 20
228.6069
 10
-360.2131
 20
228.9923
 10
-360.3656
 20
229.4183
 10
-360.4187
 20
229.8758
 10
-360.3656
 20
230.3333
 10
-360.2131
 20
230.7595
 10
-359.972
 20
231.1452
 10
-359.6526
 20
231.4813
 10
-359.2655
 20
231.7586
 10
-358.8213
 20
231.9679
 10
-358.3304
 20
232.1003
 10
-357.8034
 20
232.1464
  0
LWPOLYLINE
  5
8D
330
1F
100
AcDbEntity
  8
Layer 1
 62
     7
370
    18
100
AcDbPolyline
 90
       33
 70
     1
 43
0.0
 10
-351.2204
 20
227.6053
 10
-350.6934
 20
227.5592
 10
-350.2025
 20
227.4268
 10
-349.7583
 20
227.2175
 10
-349.3712
 20
226.9402
 10
-349.0518
 20
226.6041
 10
-348.8107
 20
226.2185
 10
-348.6582
 20
225.7923
 10
-348.6051
 20
225.3348
 10
-348.6582
 20
224.8773
 10
-348.8107
 20
224.4513
 10
-349.0518
 20
224.0658
 10
-349.3712
 20
223.73
 10
-349.7583
 20
223.453
 10
-350.2025
 20
223.2438
 10
-350.6934
 20
223.1116
 10
-351.2204
 20
223.0655
 10
-351.7478
 20
223.1116
 10
-352.2388
 20
223.2438
 10
-352.6831
 20
223.453
 10
-353.0701
 20
223.73
 10
-353.3893
 20
224.0658
 10
-353.6303
 20
224.4513
 10
-353.7826
 20
224.8773
 10
-353.8357
 20
225.3348
 10
-353.7826
 20
225.7923
 10
-353.6303
 20
226.2185
 10
-353.3893
 20
226.6041
 10
-353.0701
 20
226.9402
 10
-352.6831
 20
227.2175
 10
-352.2388
 20
227.4268
 10
-351.7478
 20
227.5592
 10
-351.2204
 20
227.6053
  0
LWPOLYLINE
  5
8E
330
1F
100
AcDbEntity
  8
Layer 1
 62
     7
370
    18
100
AcDbPolyline
 90
       33
 70
     1
 43
0.0
 10
-344.9771
 20
232.1464
 10
-344.4501
 20
232.1003
 10
-343.9592
 20
231.9679
 10
-343.515
 20
231.7586
 10
-343.1279
 20
231.4813
 10
-342.8085
 20
231.1452
 10
-342.5674
 20
230.7595
 10
-342.4149
 20
230.3333
 10
-342.3618
 20
229.8758
 10
-342.4149
 20
229.4183
 10
-342.5674
 20
228.9923
 10
-342.8085
 20
228.6069
 10
-343.1279
 20
228.2711
 10
-343.515
 20
227.994
 10
-343.9592
 20
227.7849
 10
-344.4501
 20
227.6527
 10
-344.9771
 20
227.6066
 10
-345.5045
 20
227.6527
 10
-345.9955
 20
227.7849
 10
-346.4398
 20
227.994
 10
-346.8268
 20
228.2711
 10
-347.146
 20
228.6069
 10
-347.387
 20
228.9923
 10
-347.5393
 20
229.4183
 10
-347.5924
 20
229.8758
 10
-347.5393
 20
230.3333
 10
-347.387
 20
230.7595
 10
-347.146
 20
231.1452
 10
-346.8268
 20
231.4813
 10
-346.4398
 20
231.7586
 10
-345.9955
 20
231.9679
 10
-345.5045
 20
232.1003
 10
-344.9771
 20
232.1464
  0
LWPOLYLINE
  5
8F
330
1F
100
AcDbEntity
  8
Layer 1
 62
     7
370
    18
100
AcDbPolyline
 90
       33
 70
     1
 43
0.0
 10
-340.2522
 20
225.5868
 10
-339.7252
 20
225.5407
 10
-339.2343
 20
225.4085
 10
-338.79
 20
225.1994
 10
-338.4029
 20
224.9223
 10
-338.0835
 20
224.5865
 10
-337.8424
 20
224.201
 10
-337.6899
 20
223.775
 10
-337.6368
 20
223.3175
 10
-337.6899
 20
222.86
 10
-337.8424
 20
222.4338
 10
-338.0835
 20
222.0482
 10
-338.4029
 20
221.7121
 10
-338.79
 20
221.4348
 10
-339.2343
 20
221.2255
 10
-339.7252
 20
221.0931
 10
-340.2522
 20
221.047
 10
-340.7796
 20
221.0931
 10
-341.2706
 20
221.2255
 10
-341.7149
 20
221.4348
 10
-342.1019
 20
221.7121
 10
-342.4211
 20
222.0482
 10
-342.6621
 20
222.4338
 10
-342.8144
 20
222.86
 10
-342.8675
 20
223.3175
 10
-342.8144
 20
223.775
 10
-342.6621
 20
224.201
 10
-342.4211
 20
224.5865
 10
-342.1019
 20
224.9223
 10
-341.7149
 20
225.1994
 10
-341.2706
 20
225.4085
 10
-340.7796
 20
225.5407
 10
-340.2522
 20
225.5868
  0
LWPOLYLINE
  5
90
330
1F
100
AcDbEntity
  8
Layer 1
 62
     7
370
    18
100
AcDbPolyline
 90
       33
 70
     1
 43
0.0
 10
-332.3206
 20
225.2508
 10
-331.7932
 20
225.2047
 10
-331.3022
 20
225.0723
 10
-330.8579
 20
224.863
 10
-330.4709
 20
224.5857
 10
-330.1517
 20
224.2496
 10
-329.9107
 20
223.864
 10
-329.7584
 20
223.4378
 10
-329.7053
 20
222.9803
 10
-329.7584
 20
222.5228
 10
-329.9107
 20
222.0968
 10
-330.1517
 20
221.7113
 10
-330.4709
 20
221.3755
 10
-330.8579
 20
221.0985
 10
-331.3022
 20
220.8893
 10
-331.7932
 20
220.7571
 10
-332.3206
 20
220.711
 10
-332.8476
 20
220.7571
 10
-333.3385
 20
220.8893
 10
-333.7828
 20
221.0985
 10
-334.1699
 20
221.3755
 10
-334.4893
 20
221.7113
 10
-334.7304
 20
222.0968
 10
-334.8829
 20
222.5228
 10
-334.936
 20
222.9803
 10
-334.8829
 20
223.4378
 10
-334.7304
 20
223.864
 10
-334.4893
 20
224.2496
 10
-334.1699
 20
224.5857
 10
-333.7828
 20
224.863
 10
-333.3385
 20
225.0723
 10
-332.8476
 20
225.2047
 10
-332.3206
 20
225.2508
  0
LWPOLYLINE
  5
91
330
1F
100
AcDbEntity
  8
Layer 1
 62
     7
370
    18
100
AcDbPolyline
 90
       33
 70
     1
 43
0.0
 10
-333.8403
 20
218.8593
 10
-333.3129
 20
218.8132
 10
-332.8219
 20
218.681
 10
-332.3776
 20
218.4718
 10
-331.9906
 20
218.1948
 10
-331.6713
 20
217.859
 10
-331.4303
 20
217.4735
 10
-331.278
 20
217.0475
 10
-331.2249
 20
216.59
 10
-331.278
 20
216.1321
 10
-331.4303
 20
215.7058
 10
-331.6713
 20
215.3201
 10
-331.9906
 20
214.9841
 10
-332.3776
 20
214.707
 10
-332.8219
 20
214.4978
 10
-333.3129
 20
214.3656
 10
-333.8403
 20
214.3195
 10
-334.3673
 20
214.3656
 10
-334.8582
 20
214.4978
 10
-335.3024
 20
214.707
 10
-335.6895
 20
214.9841
 10
-336.0089
 20
215.3201
 10
-336.25
 20
215.7058
 10
-336.4025
 20
216.1321
 10
-336.4556
 20
216.59
 10
-336.4025
 20
217.0475
 10
-336.25
 20
217.4735
 10
-336.0089
 20
217.859
 10
-335.6895
 20
218.1948
 10
-335.3024
 20
218.4718
 10
-334.8582
 20
218.681
 10
-334.3673
 20
218.8132
 10
-333.8403
 20
218.8593
  0
LWPOLYLINE
  5
92
330
1F
100
AcDbEntity
  8
Layer 1
 62
     7
370
    18
100
AcDbPolyline
 90
       33
 70
     1
 43
0.0
 10
-326.583
 20
216.0007
 10
-326.056
 20
215.9546
 10
-325.5651
 20
215.8224
 10
-325.1209
 20
215.6132
 10
-324.7338
 20
215.3361
 10
-324.4144
 20
215.0001
 10
-324.1733
 20
214.6144
 10
-324.0208
 20
214.1881
 10
-323.9677
 20
213.7302
 10
-324.0208
 20
213.2727
 10
-324.1733
 20
212.8467
 10
-324.4144
 20
212.4613
 10
-324.7338
 20
212.1255
 10
-325.1209
 20
211.8484
 10
-325.5651
 20
211.6393
 10
-326.056
 20
211.5071
 10
-326.583
 20
211.461
 10
-327.1104
 20
211.5071
 10
-327.6014
 20
211.6393
 10
-328.0457
 20
211.8484
 10
-328.4327
 20
212.1255
 10
-328.752
 20
212.4613
 10
-328.993
 20
212.8467
 10
-329.1453
 20
213.2727
 10
-329.1984
 20
213.7302
 10
-329.1453
 20
214.1881
 10
-328.993
 20
214.6144
 10
-328.752
 20
215.0001
 10
-328.4327
 20
215.3361
 10
-328.0457
 20
215.6132
 10
-327.6014
 20
215.8224
 10
-327.1104
 20
215.9546
 10
-326.583
 20
216.0007
  0
LWPOLYLINE
  5
93
330
1F
100
AcDbEntity
  8
Layer 1
 62
     7
370
    18
100
AcDbPolyline
 90
       33
 70
     1
 43
0.0
 10
-322.1109
 20
210.7024
 10
-321.5839
 20
210.6563
 10
-321.093
 20
210.5241
 10
-320.6488
 20
210.315
 10
-320.2617
 20
210.0379
 10
-319.9423
 20
209.7021
 10
-319.7012
 20
209.3167
 10
-319.5487
 20
208.8907
 10
-319.4956
 20
208.4332
 10
-319.5487
 20
207.9753
 10
-319.7012
 20
207.549
 10
-319.9423
 20
207.1633
 10
-320.2617
 20
206.8273
 10
-320.6488
 20
206.5502
 10
-321.093
 20
206.341
 10
-321.5839
 20
206.2088
 10
-322.1109
 20
206.1627
 10
-322.6383
 20
206.2088
 10
-323.1295
 20
206.341
 10
-323.574
 20
206.5502
 10
-323.9612
 20
206.8273
 10
-324.2807
 20
207.1633
 10
-324.5219
 20
207.549
 10
-324.6744
 20
207.9753
 10
-324.7275
 20
208.4332
 10
-324.6744
 20
208.8907
 10
-324.5219
 20
209.3167
 10
-324.2807
 20
209.7021
 10
-323.9612
 20
210.0379
 10
-323.574
 20
210.315
 10
-323.1295
 20
210.5241
 10
-322.6383
 20
210.6563
 10
-322.1109
 20
210.7024
  0
LWPOLYLINE
  5
94
330
1F
100
AcDbEntity
  8
Layer 1
 62
     7
370
    18
100
AcDbPolyline
 90
       33
 70
     1
 43
0.0
 10
-318.7371
 20
203.9761
 10
-318.2097
 20
203.93
 10
-317.7186
 20
203.7978
 10
-317.2743
 20
203.5886
 10
-316.8873
 20
203.3115
 10
-316.5681
 20
202.9755
 10
-316.3271
 20
202.5898
 10
-316.1748
 20
202.1635
 10
-316.1217
 20
201.7056
 10
-316.1748
 20
201.2481
 10
-316.3271
 20
200.8221
 10
-316.5681
 20
200.4367
 10
-316.8873
 20
200.1009
 10
-317.2743
 20
199.8238
 10
-317.7186
 20
199.6147
 10
-318.2097
 20
199.4825
 10
-318.7371
 20
199.4364
 10
-319.2641
 20
199.4825
 10
-319.755
 20
199.6147
 10
-320.1992
 20
199.8238
 10
-320.5863
 20
200.1009
 10
-320.9057
 20
200.4367
 10
-321.1468
 20
200.8221
 10
-321.2993
 20
201.2481
 10
-321.3524
 20
201.7056
 10
-321.2993
 20
202.1635
 10
-321.1468
 20
202.5898
 10
-320.9057
 20
202.9755
 10
-320.5863
 20
203.3115
 10
-320.1992
 20
203.5886
 10
-319.755
 20
203.7978
 10
-319.2641
 20
203.93
 10
-318.7371
 20
203.9761
  0
LWPOLYLINE
  5
95
330
1F
100
AcDbEntity
  8
Layer 1
 62
     7
370
    18
100
AcDbPolyline
 90
       33
 70
     1
 43
0.0
 10
-315.8676
 20
198.5111
 10
-315.3402
 20
198.465
 10
-314.8492
 20
198.3326
 10
-314.4049
 20
198.1233
 10
-314.0179
 20
197.846
 10
-313.6987
 20
197.5099
 10
-313.4577
 20
197.1243
 10
-313.3054
 20
196.6981
 10
-313.2523
 20
196.2406
 10
-313.3054
 20
195.7831
 10
-313.4577
 20
195.3569
 10
-313.6987
 20
194.9713
 10
-314.0179
 20
194.6352
 10
-314.4049
 20
194.3579
 10
-314.8492
 20
194.1486
 10
-315.3402
 20
194.0162
 10
-315.8676
 20
193.9701
 10
-316.3946
 20
194.0162
 10
-316.8855
 20
194.1486
 10
-317.3298
 20
194.3579
 10
-317.7168
 20
194.6352
 10
-318.0362
 20
194.9713
 10
-318.2774
 20
195.3569
 10
-318.4298
 20
195.7831
 10
-318.4829
 20
196.2406
 10
-318.4298
 20
196.6981
 10
-318.2774
 20
197.1243
 10
-318.0362
 20
197.5099
 10
-317.7168
 20
197.846
 10
-317.3298
 20
198.1233
 10
-316.8855
 20
198.3326
 10
-316.3946
 20
198.465
 10
-315.8676
 20
198.5111
  0
LWPOLYLINE
  5
96
330
1F
100
AcDbEntity
  8
Layer 1
 62
     7
370
    18
100
AcDbPolyline
 90
       33
 70
     1
 43
0.0
 10
-313.9115
 20
192.428
 10
-313.3841
 20
192.3819
 10
-312.8929
 20
192.2495
 10
-312.4484
 20
192.0402
 10
-312.0612
 20
191.7629
 10
-311.7417
 20
191.4268
 10
-311.5005
 20
191.0412
 10
-311.348
 20
190.615
 10
-311.2949
 20
190.1575
 10
-311.348
 20
189.7
 10
-311.5005
 20
189.2738
 10
-311.7417
 20
188.8881
 10
-312.0612
 20
188.552
 10
-312.4484
 20
188.2747
 10
-312.8929
 20
188.0654
 10
-313.3841
 20
187.933
 10
-313.9115
 20
187.8869
 10
-314.4385
 20
187.933
 10
-314.9294
 20
188.0654
 10
-315.3736
 20
188.2747
 10
-315.7607
 20
188.552
 10
-316.0801
 20
188.8881
 10
-316.3212
 20
189.2738
 10
-316.4737
 20
189.7
 10
-316.5268
 20
190.1575
 10
-316.4737
 20
190.615
 10
-316.3212
 20
191.0412
 10
-316.0801
 20
191.4268
 10
-315.7607
 20
191.7629
 10
-315.3736
 20
192.0402
 10
-314.9294
 20
192.2495
 10
-314.4385
 20
192.3819
 10
-313.9115
 20
192.428
  0
LWPOLYLINE
  5
97
330
1F
100
AcDbEntity
  8
Layer 1
 62
     7
370
    18
100
AcDbPolyline
 90
       33
 70
     1
 43
0.0
 10
-319.834
 20
194.6421
 10
-319.3066
 20
194.596
 10
-318.8156
 20
194.4636
 10
-318.3713
 20
194.2543
 10
-317.9843
 20
193.977
 10
-317.6651
 20
193.6409
 10
-317.4241
 20
193.2553
 10
-317.2718
 20
192.8291
 10
-317.2187
 20
192.3716
 10
-317.2718
 20
191.9141
 10
-317.4241
 20
191.4879
 10
-317.6651
 20
191.1022
 10
-317.9843
 20
190.7661
 10
-318.3713
 20
190.4888
 10
-318.8156
 20
190.2795
 10
-319.3066
 20
190.1471
 10
-319.834
 20
190.101
 10
-320.3614
 20
190.1471
 10
-320.8524
 20
190.2795
 10
-321.2967
 20
190.4888
 10
-321.6837
 20
190.7661
 10
-322.0029
 20
191.1022
 10
-322.2439
 20
191.4879
 10
-322.3962
 20
191.9141
 10
-322.4493
 20
192.3716
 10
-322.3962
 20
192.8291
 10
-322.2439
 20
193.2553
 10
-322.0029
 20
193.6409
 10
-321.6837
 20
193.977
 10
-321.2967
 20
194.2543
 10
-320.8524
 20
194.4636
 10
-320.3614
 20
194.596
 10
-319.834
 20
194.6421
  0
LWPOLYLINE
  5
98
330
1F
100
AcDbEntity
  8
Layer 1
 62
     7
370
    18
100
AcDbPolyline
 90
       33
 70
     1
 43
0.0
 10
-311.0584
 20
187.3253
 10
-310.5314
 20
187.2792
 10
-310.0405
 20
187.1468
 10
-309.5962
 20
186.9375
 10
-309.2092
 20
186.6602
 10
-308.8898
 20
186.3241
 10
-308.6487
 20
185.9384
 10
-308.4962
 20
185.5122
 10
-308.4431
 20
185.0547
 10
-308.4962
 20
184.5972
 10
-308.6487
 20
184.1712
 10
-308.8898
 20
183.7858
 10
-309.2092
 20
183.45
 10
-309.5962
 20
183.1729
 10
-310.0405
 20
182.9638
 10
-310.5314
 20
182.8316
 10
-311.0584
 20
182.7855
 10
-311.5858
 20
182.8316
 10
-312.0768
 20
182.9638
 10
-312.5211
 20
183.1729
 10
-312.9081
 20
183.45
 10
-313.2273
 20
183.7858
 10
-313.4683
 20
184.1712
 10
-313.6206
 20
184.5972
 10
-313.6737
 20
185.0547
 10
-313.6206
 20
185.5122
 10
-313.4683
 20
185.9384
 10
-313.2273
 20
186.3241
 10
-312.9081
 20
186.6602
 10
-312.5211
 20
186.9375
 10
-312.0768
 20
187.1468
 10
-311.5858
 20
187.2792
 10
-311.0584
 20
187.3253
  0
LWPOLYLINE
  5
99
330
1F
100
AcDbEntity
  8
Layer 1
 62
     7
370
    18
100
AcDbPolyline
 90
       33
 70
     1
 43
0.0
 10
-316.4576
 20
184.4667
 10
-315.9306
 20
184.4206
 10
-315.4397
 20
184.2883
 10
-314.9955
 20
184.0789
 10
-314.6084
 20
183.8016
 10
-314.289
 20
183.4656
 10
-314.0479
 20
183.0799
 10
-313.8954
 20
182.6537
 10
-313.8423
 20
182.1962
 10
-313.8954
 20
181.7387
 10
-314.0479
 20
181.3125
 10
-314.289
 20
180.9269
 10
-314.6084
 20
180.5908
 10
-314.9955
 20
180.3135
 10
-315.4397
 20
180.1042
 10
-315.9306
 20
179.9718
 10
-316.4576
 20
179.9257
 10
-316.985
 20
179.9718
 10
-317.476
 20
180.1042
 10
-317.9203
 20
180.3135
 10
-318.3073
 20
180.5908
 10
-318.6265
 20
180.9269
 10
-318.8675
 20
181.3125
 10
-319.0198
 20
181.7387
 10
-319.0729
 20
182.1962
 10
-319.0198
 20
182.6537
 10
-318.8675
 20
183.0799
 10
-318.6265
 20
183.4656
 10
-318.3073
 20
183.8016
 10
-317.9203
 20
184.0789
 10
-317.476
 20
184.2883
 10
-316.985
 20
184.4206
 10
-316.4576
 20
184.4667
  0
LWPOLYLINE
  5
9A
330
1F
100
AcDbEntity
  8
Layer 1
 62
     7
370
    18
100
AcDbPolyline
 90
       33
 70
     1
 43
0.0
 10
-309.7086
 20
180.7657
 10
-309.1812
 20
180.7196
 10
-308.6902
 20
180.5874
 10
-308.2459
 20
180.3783
 10
-307.8589
 20
180.1012
 10
-307.5397
 20
179.7654
 10
-307.2987
 20
179.3799
 10
-307.1464
 20
178.9539
 10
-307.0933
 20
178.4964
 10
-307.1464
 20
178.0389
 10
-307.2987
 20
177.6127
 10
-307.5397
 20
177.2271
 10
-307.8589
 20
176.891
 10
-308.2459
 20
176.6137
 10
-308.6902
 20
176.4044
 10
-309.1812
 20
176.272
 10
-309.7086
 20
176.2259
 10
-310.236
 20
176.272
 10
-310.727
 20
176.4044
 10
-311.1713
 20
176.6137
 10
-311.5583
 20
176.891
 10
-311.8775
 20
177.2271
 10
-312.1185
 20
177.6127
 10
-312.2708
 20
178.0389
 10
-312.3239
 20
178.4964
 10
-312.2708
 20
178.9539
 10
-312.1185
 20
179.3799
 10
-311.8775
 20
179.7654
 10
-311.5583
 20
180.1012
 10
-311.1713
 20
180.3783
 10
-310.727
 20
180.5874
 10
-310.236
 20
180.7196
 10
-309.7086
 20
180.7657
  0
LWPOLYLINE
  5
9B
330
1F
100
AcDbEntity
  8
Layer 1
 62
     7
370
    18
100
AcDbPolyline
 90
       33
 70
     1
 43
0.0
 10
-314.4335
 20
176.4779
 10
-313.9061
 20
176.4318
 10
-313.4151
 20
176.2995
 10
-312.9708
 20
176.0901
 10
-312.5838
 20
175.8128
 10
-312.2646
 20
175.4768
 10
-312.0236
 20
175.0911
 10
-311.8713
 20
174.6649
 10
-311.8182
 20
174.2074
 10
-311.8713
 20
173.7499
 10
-312.0236
 20
173.3237
 10
-312.2646
 20
172.9381
 10
-312.5838
 20
172.602
 10
-312.9708
 20
172.3247
 10
-313.4151
 20
172.1154
 10
-313.9061
 20
171.983
 10
-314.4335
 20
171.9369
 10
-314.9609
 20
171.983
 10
-315.4519
 20
172.1154
 10
-315.8962
 20
172.3247
 10
-316.2832
 20
172.602
 10
-316.6025
 20
172.9381
 10
-316.8435
 20
173.3237
 10
-316.9958
 20
173.7499
 10
-317.0489
 20
174.2074
 10
-316.9958
 20
174.6649
 10
-316.8435
 20
175.0911
 10
-316.6025
 20
175.4768
 10
-316.2832
 20
175.8128
 10
-315.8962
 20
176.0901
 10
-315.4519
 20
176.2995
 10
-314.9609
 20
176.4318
 10
-314.4335
 20
176.4779
  0
LWPOLYLINE
  5
9C
330
1F
100
AcDbEntity
  8
Layer 1
 62
     7
370
    18
100
AcDbPolyline
 90
       33
 70
     1
 43
0.0
 10
-307.3449
 20
172.6089
 10
-306.8179
 20
172.5628
 10
-306.327
 20
172.4306
 10
-305.8827
 20
172.2215
 10
-305.4956
 20
171.9444
 10
-305.1762
 20
171.6086
 10
-304.9351
 20
171.2231
 10
-304.7826
 20
170.7971
 10
-304.7295
 20
170.3396
 10
-304.7826
 20
169.8821
 10
-304.9351
 20
169.4559
 10
-305.1762
 20
169.0703
 10
-305.4956
 20
168.7342
 10
-305.8827
 20
168.4569
 10
-306.327
 20
168.2476
 10
-306.8179
 20
168.1152
 10
-307.3449
 20
168.0691
 10
-307.8723
 20
168.1152
 10
-308.3633
 20
168.2476
 10
-308.8076
 20
168.4569
 10
-309.1946
 20
168.7342
 10
-309.5138
 20
169.0703
 10
-309.7548
 20
169.4559
 10
-309.9071
 20
169.8821
 10
-309.9602
 20
170.3396
 10
-309.9071
 20
170.7971
 10
-309.7548
 20
171.2231
 10
-309.5138
 20
171.6086
 10
-309.1946
 20
171.9444
 10
-308.8076
 20
172.2215
 10
-308.3633
 20
172.4306
 10
-307.8723
 20
172.5628
 10
-307.3449
 20
172.6089
  0
LWPOLYLINE
  5
9D
330
1F
100
AcDbEntity
  8
Layer 1
 62
     7
370
    18
100
AcDbPolyline
 90
       33
 70
     1
 43
0.0
 10
-312.9152
 20
169.6664
 10
-312.3878
 20
169.6203
 10
-311.8967
 20
169.4879
 10
-311.4524
 20
169.2786
 10
-311.0654
 20
169.0013
 10
-310.7462
 20
168.6652
 10
-310.5052
 20
168.2796
 10
-310.3529
 20
167.8534
 10
-310.2998
 20
167.3959
 10
-310.3529
 20
166.9384
 10
-310.5052
 20
166.5124
 10
-310.7462
 20
166.1269
 10
-311.0654
 20
165.7911
 10
-311.4524
 20
165.514
 10
-311.8967
 20
165.3049
 10
-312.3878
 20
165.1727
 10
-312.9152
 20
165.1266
 10
-313.4426
 20
165.1727
 10
-313.9336
 20
165.3049
 10
-314.3779
 20
165.514
 10
-314.7649
 20
165.7911
 10
-315.0841
 20
166.1269
 10
-315.3251
 20
166.5124
 10
-315.4774
 20
166.9384
 10
-315.5305
 20
167.3959
 10
-315.4774
 20
167.8534
 10
-315.3251
 20
168.2796
 10
-315.0841
 20
168.6652
 10
-314.7649
 20
169.0013
 10
-314.3779
 20
169.2786
 10
-313.9336
 20
169.4879
 10
-313.4426
 20
169.6203
 10
-312.9152
 20
169.6664
  0
LWPOLYLINE
  5
9E
330
1F
100
AcDbEntity
  8
Layer 1
 62
     7
370
    18
100
AcDbPolyline
 90
       33
 70
     1
 43
0.0
 10
-306.1133
 20
164.6489
 10
-305.5859
 20
164.6028
 10
-305.0949
 20
164.4706
 10
-304.6506
 20
164.2615
 10
-304.2636
 20
163.9844
 10
-303.9444
 20
163.6486
 10
-303.7034
 20
163.2632
 10
-303.5511
 20
162.8372
 10
-303.498
 20
162.3797
 10
-303.5511
 20
161.9218
 10
-303.7034
 20
161.4955
 10
-303.9444
 20
161.1098
 10
-304.2636
 20
160.7738
 10
-304.6506
 20
160.4966
 10
-305.0949
 20
160.2874
 10
-305.5859
 20
160.1552
 10
-306.1133
 20
160.1091
 10
-306.6407
 20
160.1552
 10
-307.1317
 20
160.2874
 10
-307.576
 20
160.4966
 10
-307.963
 20
160.7738
 10
-308.2822
 20
161.1098
 10
-308.5232
 20
161.4955
 10
-308.6755
 20
161.9218
 10
-308.7286
 20
162.3797
 10
-308.6755
 20
162.8372
 10
-308.5232
 20
163.2632
 10
-308.2822
 20
163.6486
 10
-307.963
 20
163.9844
 10
-307.576
 20
164.2615
 10
-307.1317
 20
164.4706
 10
-306.6407
 20
164.6028
 10
-306.1133
 20
164.6489
  0
LWPOLYLINE
  5
9F
330
1F
100
AcDbEntity
  8
Layer 1
 62
     7
370
    18
100
AcDbPolyline
 90
       33
 70
     1
 43
0.0
 10
-304.7723
 20
157.4337
 10
-304.2453
 20
157.3876
 10
-303.7544
 20
157.2554
 10
-303.3101
 20
157.0462
 10
-302.9231
 20
156.7692
 10
-302.6037
 20
156.4334
 10
-302.3626
 20
156.0479
 10
-302.2101
 20
155.6219
 10
-302.157
 20
155.1644
 10
-302.2101
 20
154.7069
 10
-302.3626
 20
154.2807
 10
-302.6037
 20
153.8951
 10
-302.9231
 20
153.559
 10
-303.3101
 20
153.2817
 10
-303.7544
 20
153.0724
 10
-304.2453
 20
152.94
 10
-304.7723
 20
152.8939
 10
-305.2997
 20
152.94
 10
-305.7907
 20
153.0724
 10
-306.235
 20
153.2817
 10
-306.622
 20
153.559
 10
-306.9412
 20
153.8951
 10
-307.1822
 20
154.2807
 10
-307.3345
 20
154.7069
 10
-307.3876
 20
155.1644
 10
-307.3345
 20
155.6219
 10
-307.1822
 20
156.0479
 10
-306.9412
 20
156.4334
 10
-306.622
 20
156.7692
 10
-306.235
 20
157.0462
 10
-305.7907
 20
157.2554
 10
-305.2997
 20
157.3876
 10
-304.7723
 20
157.4337
  0
LWPOLYLINE
  5
A0
330
1F
100
AcDbEntity
  8
Layer 1
 62
     7
370
    18
100
AcDbPolyline
 90
       33
 70
     1
 43
0.0
 10
-304.3509
 20
149.2781
 10
-303.8235
 20
149.232
 10
-303.3325
 20
149.0996
 10
-302.8882
 20
148.8903
 10
-302.5012
 20
148.613
 10
-302.182
 20
148.2769
 10
-301.941
 20
147.8913
 10
-301.7887
 20
147.4651
 10
-301.7356
 20
147.0076
 10
-301.7887
 20
146.5501
 10
-301.941
 20
146.1239
 10
-302.182
 20
145.7383
 10
-302.5012
 20
145.4022
 10
-302.8882
 20
145.1249
 10
-303.3325
 20
144.9156
 10
-303.8235
 20
144.7832
 10
-304.3509
 20
144.7371
 10
-304.8783
 20
144.7832
 10
-305.3693
 20
144.9156
 10
-305.8136
 20
145.1249
 10
-306.2006
 20
145.4022
 10
-306.5198
 20
145.7383
 10
-306.7608
 20
146.1239
 10
-306.9131
 20
146.5501
 10
-306.9662
 20
147.0076
 10
-306.9131
 20
147.4651
 10
-306.7608
 20
147.8913
 10
-306.5198
 20
148.2769
 10
-306.2006
 20
148.613
 10
-305.8136
 20
148.8903
 10
-305.3693
 20
149.0996
 10
-304.8783
 20
149.232
 10
-304.3509
 20
149.2781
  0
LWPOLYLINE
  5
A1
330
1F
100
AcDbEntity
  8
Layer 1
 62
     7
370
    18
100
AcDbPolyline
 90
       33
 70
     1
 43
0.0
 10
-305.1497
 20
141.9174
 10
-304.6227
 20
141.8713
 10
-304.1318
 20
141.7389
 10
-303.6875
 20
141.5296
 10
-303.3005
 20
141.2523
 10
-302.9811
 20
140.9162
 10
-302.74
 20
140.5306
 10
-302.5875
 20
140.1044
 10
-302.5344
 20
139.6469
 10
-302.5875
 20
139.1894
 10
-302.74
 20
138.7634
 10
-302.9811
 20
138.3779
 10
-303.3005
 20
138.0421
 10
-303.6875
 20
137.7651
 10
-304.1318
 20
137.5559
 10
-304.6227
 20
137.4237
 10
-305.1497
 20
137.3776
 10
-305.6771
 20
137.4237
 10
-306.1681
 20
137.5559
 10
-306.6124
 20
137.7651
 10
-306.9994
 20
138.0421
 10
-307.3186
 20
138.3779
 10
-307.5596
 20
138.7634
 10
-307.7119
 20
139.1894
 10
-307.765
 20
139.6469
 10
-307.7119
 20
140.1044
 10
-307.5596
 20
140.5306
 10
-307.3186
 20
140.9162
 10
-306.9994
 20
141.2523
 10
-306.6124
 20
141.5296
 10
-306.1681
 20
141.7389
 10
-305.6771
 20
141.8713
 10
-305.1497
 20
141.9174
  0
LWPOLYLINE
  5
A2
330
1F
100
AcDbEntity
  8
Layer 1
 62
     7
370
    18
100
AcDbPolyline
 90
       33
 70
     1
 43
0.0
 10
-305.5724
 20
135.0219
 10
-305.0454
 20
134.9758
 10
-304.5545
 20
134.8434
 10
-304.1102
 20
134.6341
 10
-303.7231
 20
134.3568
 10
-303.4037
 20
134.0207
 10
-303.1626
 20
133.635
 10
-303.0101
 20
133.2088
 10
-302.957
 20
132.7513
 10
-303.0101
 20
132.2938
 10
-303.1626
 20
131.8678
 10
-303.4037
 20
131.4824
 10
-303.7231
 20
131.1466
 10
-304.1102
 20
130.8695
 10
-304.5545
 20
130.6604
 10
-305.0454
 20
130.5282
 10
-305.5724
 20
130.4821
 10
-306.0998
 20
130.5282
 10
-306.5908
 20
130.6604
 10
-307.0351
 20
130.8695
 10
-307.4221
 20
131.1466
 10
-307.7413
 20
131.4824
 10
-307.9823
 20
131.8678
 10
-308.1346
 20
132.2938
 10
-308.1877
 20
132.7513
 10
-308.1346
 20
133.2088
 10
-307.9823
 20
133.635
 10
-307.7413
 20
134.0207
 10
-307.4221
 20
134.3568
 10
-307.0351
 20
134.6341
 10
-306.5908
 20
134.8434
 10
-306.0998
 20
134.9758
 10
-305.5724
 20
135.0219
  0
LWPOLYLINE
  5
A3
330
1F
100
AcDbEntity
  8
Layer 1
 62
     7
370
    18
100
AcDbPolyline
 90
       33
 70
     1
 43
0.0
 10
-308.4405
 20
128.8823
 10
-307.9135
 20
128.8362
 10
-307.4226
 20
128.704
 10
-306.9784
 20
128.4949
 10
-306.5913
 20
128.2178
 10
-306.2719
 20
127.882
 10
-306.0308
 20
127.4965
 10
-305.8783
 20
127.0705
 10
-305.8252
 20
126.613
 10
-305.8783
 20
126.1555
 10
-306.0308
 20
125.7293
 10
-306.2719
 20
125.3437
 10
-306.5913
 20
125.0076
 10
-306.9784
 20
124.7303
 10
-307.4226
 20
124.521
 10
-307.9135
 20
124.3886
 10
-308.4405
 20
124.3425
 10
-308.9679
 20
124.3886
 10
-309.4592
 20
124.521
 10
-309.9036
 20
124.7303
 10
-310.2909
 20
125.0076
 10
-310.6103
 20
125.3437
 10
-310.8515
 20
125.7293
 10
-311.004
 20
126.1555
 10
-311.0571
 20
126.613
 10
-311.004
 20
127.0705
 10
-310.8515
 20
127.4965
 10
-310.6103
 20
127.882
 10
-310.2909
 20
128.2178
 10
-309.9036
 20
128.4949
 10
-309.4592
 20
128.704
 10
-308.9679
 20
128.8362
 10
-308.4405
 20
128.8823
  0
LWPOLYLINE
  5
A4
330
1F
100
AcDbEntity
  8
Layer 1
 62
     7
370
    18
100
AcDbPolyline
 90
       33
 70
     1
 43
0.0
 10
-309.2004
 20
122.0708
 10
-308.673
 20
122.0247
 10
-308.182
 20
121.8923
 10
-307.7377
 20
121.683
 10
-307.3507
 20
121.4057
 10
-307.0314
 20
121.0696
 10
-306.7904
 20
120.6839
 10
-306.6381
 20
120.2577
 10
-306.585
 20
119.8002
 10
-306.6381
 20
119.3427
 10
-306.7904
 20
118.9167
 10
-307.0314
 20
118.5313
 10
-307.3507
 20
118.1955
 10
-307.7377
 20
117.9184
 10
-308.182
 20
117.7093
 10
-308.673
 20
117.5771
 10
-309.2004
 20
117.531
 10
-309.7278
 20
117.5771
 10
-310.2188
 20
117.7093
 10
-310.6631
 20
117.9184
 10
-311.0501
 20
118.1955
 10
-311.3693
 20
118.5313
 10
-311.6103
 20
118.9167
 10
-311.7626
 20
119.3427
 10
-311.8157
 20
119.8002
 10
-311.7626
 20
120.2577
 10
-311.6103
 20
120.6839
 10
-311.3693
 20
121.0696
 10
-311.0501
 20
121.4057
 10
-310.6631
 20
121.683
 10
-310.2188
 20
121.8923
 10
-309.7278
 20
122.0247
 10
-309.2004
 20
122.0708
  0
LWPOLYLINE
  5
A5
330
1F
100
AcDbEntity
  8
Layer 1
 62
     7
370
    18
100
AcDbPolyline
 90
       33
 70
     1
 43
0.0
 10
-314.8537
 20
118.707
 10
-314.3263
 20
118.6609
 10
-313.8353
 20
118.5287
 10
-313.391
 20
118.3196
 10
-313.004
 20
118.0425
 10
-312.6848
 20
117.7067
 10
-312.4438
 20
117.3212
 10
-312.2915
 20
116.8952
 10
-312.2384
 20
116.4377
 10
-312.2915
 20
115.9798
 10
-312.4438
 20
115.5535
 10
-312.6848
 20
115.1678
 10
-313.004
 20
114.8318
 10
-313.391
 20
114.5547
 10
-313.8353
 20
114.3455
 10
-314.3263
 20
114.2133
 10
-314.8537
 20
114.1672
 10
-315.3811
 20
114.2133
 10
-315.8721
 20
114.3455
 10
-316.3164
 20
114.5547
 10
-316.7034
 20
114.8318
 10
-317.0226
 20
115.1678
 10
-317.2636
 20
115.5535
 10
-317.4159
 20
115.9798
 10
-317.469
 20
116.4377
 10
-317.4159
 20
116.8952
 10
-317.2636
 20
117.3212
 10
-317.0226
 20
117.7067
 10
-316.7034
 20
118.0425
 10
-316.3164
 20
118.3196
 10
-315.8721
 20
118.5287
 10
-315.3811
 20
118.6609
 10
-314.8537
 20
118.707
  0
LWPOLYLINE
  5
A6
330
1F
100
AcDbEntity
  8
Layer 1
 62
     7
370
    18
100
AcDbPolyline
 90
       33
 70
     1
 43
0.0
 10
-312.5755
 20
114.0819
 10
-312.0481
 20
114.0358
 10
-311.5571
 20
113.9035
 10
-311.1128
 20
113.6941
 10
-310.7258
 20
113.4168
 10
-310.4066
 20
113.0808
 10
-310.1656
 20
112.6951
 10
-310.0133
 20
112.2689
 10
-309.9602
 20
111.8114
 10
-310.0133
 20
111.3539
 10
-310.1656
 20
110.9279
 10
-310.4066
 20
110.5425
 10
-310.7258
 20
110.2067
 10
-311.1128
 20
109.9296
 10
-311.5571
 20
109.7205
 10
-312.0481
 20
109.5883
 10
-312.5755
 20
109.5422
 10
-313.1025
 20
109.5883
 10
-313.5934
 20
109.7205
 10
-314.0377
 20
109.9296
 10
-314.4247
 20
110.2067
 10
-314.7441
 20
110.5425
 10
-314.9853
 20
110.9279
 10
-315.1377
 20
111.3539
 10
-315.1908
 20
111.8114
 10
-315.1377
 20
112.2689
 10
-314.9853
 20
112.6951
 10
-314.7441
 20
113.0808
 10
-314.4247
 20
113.4168
 10
-314.0377
 20
113.6941
 10
-313.5934
 20
113.9035
 10
-313.1025
 20
114.0358
 10
-312.5755
 20
114.0819
  0
LWPOLYLINE
  5
A7
330
1F
100
AcDbEntity
  8
Layer 1
 62
     7
370
    18
100
AcDbPolyline
 90
       33
 70
     1
 43
0.0
 10
-319.7485
 20
112.7367
 10
-319.2211
 20
112.6906
 10
-318.7301
 20
112.5582
 10
-318.2858
 20
112.3489
 10
-317.8988
 20
112.0716
 10
-317.5795
 20
111.7355
 10
-317.3385
 20
111.3499
 10
-317.1862
 20
110.9237
 10
-317.1331
 20
110.4662
 10
-317.1862
 20
110.0087
 10
-317.3385
 20
109.5825
 10
-317.5795
 20
109.1968
 10
-317.8988
 20
108.8607
 10
-318.2858
 20
108.5834
 10
-318.7301
 20
108.3741
 10
-319.2211
 20
108.2417
 10
-319.7485
 20
108.1956
 10
-320.2755
 20
108.2417
 10
-320.7664
 20
108.3741
 10
-321.2106
 20
108.5834
 10
-321.5977
 20
108.8607
 10
-321.9171
 20
109.1968
 10
-322.1582
 20
109.5825
 10
-322.3107
 20
110.0087
 10
-322.3638
 20
110.4662
 10
-322.3107
 20
110.9237
 10
-322.1582
 20
111.3499
 10
-321.9171
 20
111.7355
 10
-321.5977
 20
112.0716
 10
-321.2106
 20
112.3489
 10
-320.7664
 20
112.5582
 10
-320.2755
 20
112.6906
 10
-319.7485
 20
112.7367
  0
LWPOLYLINE
  5
A8
330
1F
100
AcDbEntity
  8
Layer 1
 62
     7
370
    18
100
AcDbPolyline
 90
       33
 70
     1
 43
0.0
 10
-319.4101
 20
107.1864
 10
-318.8831
 20
107.1403
 10
-318.3922
 20
107.0079
 10
-317.9479
 20
106.7986
 10
-317.5608
 20
106.5213
 10
-317.2414
 20
106.1852
 10
-317.0003
 20
105.7996
 10
-316.8478
 20
105.3734
 10
-316.7947
 20
104.9159
 10
-316.8478
 20
104.4584
 10
-317.0003
 20
104.0324
 10
-317.2414
 20
103.6469
 10
-317.5608
 20
103.3111
 10
-317.9479
 20
103.034
 10
-318.3922
 20
102.8249
 10
-318.8831
 20
102.6927
 10
-319.4101
 20
102.6466
 10
-319.9375
 20
102.6927
 10
-320.4285
 20
102.8249
 10
-320.8728
 20
103.034
 10
-321.2598
 20
103.3111
 10
-321.579
 20
103.6469
 10
-321.82
 20
104.0324
 10
-321.9723
 20
104.4584
 10
-322.0254
 20
104.9159
 10
-321.9723
 20
105.3734
 10
-321.82
 20
105.7996
 10
-321.579
 20
106.1852
 10
-321.2598
 20
106.5213
 10
-320.8728
 20
106.7986
 10
-320.4285
 20
107.0079
 10
-319.9375
 20
107.1403
 10
-319.4101
 20
107.1864
  0
LWPOLYLINE
  5
A9
330
1F
100
AcDbEntity
  8
Layer 1
 62
     7
370
    18
100
AcDbPolyline
 90
       33
 70
     1
 43
0.0
 10
-326.2446
 20
111.3074
 10
-325.7172
 20
111.2613
 10
-325.2262
 20
111.1289
 10
-324.7819
 20
110.9196
 10
-324.3949
 20
110.6423
 10
-324.0757
 20
110.3062
 10
-323.8347
 20
109.9206
 10
-323.6824
 20
109.4944
 10
-323.6293
 20
109.0369
 10
-323.6824
 20
108.5794
 10
-323.8347
 20
108.1534
 10
-324.0757
 20
107.7679
 10
-324.3949
 20
107.4321
 10
-324.7819
 20
107.1551
 10
-325.2262
 20
106.9459
 10
-325.7172
 20
106.8137
 10
-326.2446
 20
106.7676
 10
-326.772
 20
106.8137
 10
-327.263
 20
106.9459
 10
-327.7073
 20
107.1551
 10
-328.0943
 20
107.4321
 10
-328.4136
 20
107.7679
 10
-328.6546
 20
108.1534
 10
-328.8069
 20
108.5794
 10
-328.86
 20
109.0369
 10
-328.8069
 20
109.4944
 10
-328.6546
 20
109.9206
 10
-328.4136
 20
110.3062
 10
-328.0943
 20
110.6423
 10
-327.7073
 20
110.9196
 10
-327.263
 20
111.1289
 10
-326.772
 20
111.2613
 10
-326.2446
 20
111.3074
  0
LWPOLYLINE
  5
AA
330
1F
100
AcDbEntity
  8
Layer 1
 62
     7
370
    18
100
AcDbPolyline
 90
       33
 70
     1
 43
0.0
 10
-325.9062
 20
104.4119
 10
-325.3792
 20
104.3658
 10
-324.8883
 20
104.2334
 10
-324.4441
 20
104.0241
 10
-324.057
 20
103.7468
 10
-323.7376
 20
103.4107
 10
-323.4965
 20
103.0251
 10
-323.344
 20
102.5989
 10
-323.2909
 20
102.1414
 10
-323.344
 20
101.6839
 10
-323.4965
 20
101.2579
 10
-323.7376
 20
100.8724
 10
-324.057
 20
100.5366
 10
-324.4441
 20
100.2595
 10
-324.8883
 20
100.0504
 10
-325.3792
 20
99.9182
 10
-325.9062
 20
99.8721
 10
-326.4336
 20
99.9182
 10
-326.9246
 20
100.0504
 10
-327.3689
 20
100.2595
 10
-327.7559
 20
100.5366
 10
-328.0752
 20
100.8724
 10
-328.3162
 20
101.2579
 10
-328.4685
 20
101.6839
 10
-328.5216
 20
102.1414
 10
-328.4685
 20
102.5989
 10
-328.3162
 20
103.0251
 10
-328.0752
 20
103.4107
 10
-327.7559
 20
103.7468
 10
-327.3689
 20
104.0241
 10
-326.9246
 20
104.2334
 10
-326.4336
 20
104.3658
 10
-325.9062
 20
104.4119
  0
LWPOLYLINE
  5
AB
330
1F
100
AcDbEntity
  8
Layer 1
 62
     7
370
    18
100
AcDbPolyline
 90
       33
 70
     1
 43
0.0
 10
-332.6565
 20
108.4489
 10
-332.1295
 20
108.4028
 10
-331.6386
 20
108.2704
 10
-331.1944
 20
108.0611
 10
-330.8073
 20
107.7838
 10
-330.4879
 20
107.4477
 10
-330.2468
 20
107.0621
 10
-330.0943
 20
106.6359
 10
-330.0412
 20
106.1784
 10
-330.0943
 20
105.7209
 10
-330.2468
 20
105.2947
 10
-330.4879
 20
104.909
 10
-330.8073
 20
104.573
 10
-331.1944
 20
104.2957
 10
-331.6386
 20
104.0864
 10
-332.1295
 20
103.954
 10
-332.6565
 20
103.9079
 10
-333.1839
 20
103.954
 10
-333.6751
 20
104.0864
 10
-334.1196
 20
104.2957
 10
-334.5068
 20
104.573
 10
-334.8263
 20
104.909
 10
-335.0675
 20
105.2947
 10
-335.22
 20
105.7209
 10
-335.2731
 20
106.1784
 10
-335.22
 20
106.6359
 10
-335.0675
 20
107.0621
 10
-334.8263
 20
107.4477
 10
-334.5068
 20
107.7838
 10
-334.1196
 20
108.0611
 10
-333.6751
 20
108.2704
 10
-333.1839
 20
108.4028
 10
-332.6565
 20
108.4489
  0
LWPOLYLINE
  5
AC
330
1F
100
AcDbEntity
  8
Layer 1
 62
     7
370
    18
100
AcDbPolyline
 90
       33
 70
     1
 43
0.0
 10
-336.6229
 20
103.7386
 10
-336.0955
 20
103.6925
 10
-335.6045
 20
103.5601
 10
-335.1602
 20
103.3508
 10
-334.7732
 20
103.0735
 10
-334.454
 20
102.7374
 10
-334.213
 20
102.3518
 10
-334.0607
 20
101.9256
 10
-334.0076
 20
101.4681
 10
-334.0607
 20
101.0106
 10
-334.213
 20
100.5846
 10
-334.454
 20
100.1991
 10
-334.7732
 20
99.8633
 10
-335.1602
 20
99.5863
 10
-335.6045
 20
99.3771
 10
-336.0955
 20
99.2449
 10
-336.6229
 20
99.1988
 10
-337.1503
 20
99.2449
 10
-337.6413
 20
99.3771
 10
-338.0856
 20
99.5863
 10
-338.4726
 20
99.8633
 10
-338.7918
 20
100.1991
 10
-339.0328
 20
100.5846
 10
-339.1851
 20
101.0106
 10
-339.2382
 20
101.4681
 10
-339.1851
 20
101.9256
 10
-339.0328
 20
102.3518
 10
-338.7918
 20
102.7374
 10
-338.4726
 20
103.0735
 10
-338.0856
 20
103.3508
 10
-337.6413
 20
103.5601
 10
-337.1503
 20
103.6925
 10
-336.6229
 20
103.7386
  0
LWPOLYLINE
  5
AD
330
1F
100
AcDbEntity
  8
Layer 1
 62
     7
370
    18
100
AcDbPolyline
 90
       33
 70
     1
 43
0.0
 10
-339.7439
 20
109.2049
 10
-339.2169
 20
109.1588
 10
-338.726
 20
109.0266
 10
-338.2818
 20
108.8174
 10
-337.8947
 20
108.5403
 10
-337.5753
 20
108.2043
 10
-337.3342
 20
107.8186
 10
-337.1817
 20
107.3923
 10
-337.1286
 20
106.9344
 10
-337.1817
 20
106.4769
 10
-337.3342
 20
106.0509
 10
-337.5753
 20
105.6654
 10
-337.8947
 20
105.3296
 10
-338.2818
 20
105.0526
 10
-338.726
 20
104.8434
 10
-339.2169
 20
104.7112
 10
-339.7439
 20
104.6651
 10
-340.2713
 20
104.7112
 10
-340.7623
 20
104.8434
 10
-341.2066
 20
105.0526
 10
-341.5936
 20
105.3296
 10
-341.9129
 20
105.6654
 10
-342.1539
 20
106.0509
 10
-342.3062
 20
106.4769
 10
-342.3593
 20
106.9344
 10
-342.3062
 20
107.3923
 10
-342.1539
 20
107.8186
 10
-341.9129
 20
108.2043
 10
-341.5936
 20
108.5403
 10
-341.2066
 20
108.8174
 10
-340.7623
 20
109.0266
 10
-340.2713
 20
109.1588
 10
-339.7439
 20
109.2049
  0
LWPOLYLINE
  5
AE
330
1F
100
AcDbEntity
  8
Layer 1
 62
     7
370
    18
100
AcDbPolyline
 90
       33
 70
     1
 43
0.0
 10
-343.8789
 20
105.3359
 10
-343.3519
 20
105.2898
 10
-342.861
 20
105.1576
 10
-342.4167
 20
104.9484
 10
-342.0297
 20
104.6714
 10
-341.7103
 20
104.3356
 10
-341.4692
 20
103.9501
 10
-341.3167
 20
103.5241
 10
-341.2636
 20
103.0666
 10
-341.3167
 20
102.6087
 10
-341.4692
 20
102.1824
 10
-341.7103
 20
101.7967
 10
-342.0297
 20
101.4607
 10
-342.4167
 20
101.1836
 10
-342.861
 20
100.9744
 10
-343.3519
 20
100.8422
 10
-343.8789
 20
100.7961
 10
-344.4063
 20
100.8422
 10
-344.8973
 20
100.9744
 10
-345.3416
 20
101.1836
 10
-345.7286
 20
101.4607
 10
-346.0478
 20
101.7967
 10
-346.2888
 20
102.1824
 10
-346.4411
 20
102.6087
 10
-346.4942
 20
103.0666
 10
-346.4411
 20
103.5241
 10
-346.2888
 20
103.9501
 10
-346.0478
 20
104.3356
 10
-345.7286
 20
104.6714
 10
-345.3416
 20
104.9484
 10
-344.8973
 20
105.1576
 10
-344.4063
 20
105.2898
 10
-343.8789
 20
105.3359
  0
LWPOLYLINE
  5
AF
330
1F
100
AcDbEntity
  8
Layer 1
 62
     7
370
    18
100
AcDbPolyline
 90
       33
 70
     1
 43
0.0
 10
-347.5924
 20
111.3074
 10
-347.065
 20
111.2613
 10
-346.5738
 20
111.1289
 10
-346.1293
 20
110.9196
 10
-345.7421
 20
110.6423
 10
-345.4226
 20
110.3062
 10
-345.1814
 20
109.9206
 10
-345.0289
 20
109.4944
 10
-344.9758
 20
109.0369
 10
-345.0289
 20
108.5794
 10
-345.1814
 20
108.1534
 10
-345.4226
 20
107.7679
 10
-345.7421
 20
107.4321
 10
-346.1293
 20
107.1551
 10
-346.5738
 20
106.9459
 10
-347.065
 20
106.8137
 10
-347.5924
 20
106.7676
 10
-348.1194
 20
106.8137
 10
-348.6103
 20
106.9459
 10
-349.0546
 20
107.1551
 10
-349.4417
 20
107.4321
 10
-349.7611
 20
107.7679
 10
-350.0022
 20
108.1534
 10
-350.1547
 20
108.5794
 10
-350.2078
 20
109.0369
 10
-350.1547
 20
109.4944
 10
-350.0022
 20
109.9206
 10
-349.7611
 20
110.3062
 10
-349.4417
 20
110.6423
 10
-349.0546
 20
110.9196
 10
-348.6103
 20
111.1289
 10
-348.1194
 20
111.2613
 10
-347.5924
 20
111.3074
  0
LWPOLYLINE
  5
B0
330
1F
100
AcDbEntity
  8
Layer 1
 62
     7
370
    18
100
AcDbPolyline
 90
       33
 70
     1
 43
0.0
 10
-353.6672
 20
111.5594
 10
-353.1398
 20
111.5133
 10
-352.6488
 20
111.3811
 10
-352.2045
 20
111.1719
 10
-351.8175
 20
110.8948
 10
-351.4983
 20
110.5588
 10
-351.2573
 20
110.1731
 10
-351.105
 20
109.7468
 10
-351.0519
 20
109.2889
 10
-351.105
 20
108.8314
 10
-351.2573
 20
108.4054
 10
-351.4983
 20
108.0199
 10
-351.8175
 20
107.6841
 10
-352.2045
 20
107.4071
 10
-352.6488
 20
107.1979
 10
-353.1398
 20
107.0657
 10
-353.6672
 20
107.0196
 10
-354.1942
 20
107.0657
 10
-354.6851
 20
107.1979
 10
-355.1293
 20
107.4071
 10
-355.5164
 20
107.6841
 10
-355.8358
 20
108.0199
 10
-356.0769
 20
108.4054
 10
-356.2294
 20
108.8314
 10
-356.2825
 20
109.2889
 10
-356.2294
 20
109.7468
 10
-356.0769
 20
110.1731
 10
-355.8358
 20
110.5588
 10
-355.5164
 20
110.8948
 10
-355.1293
 20
111.1719
 10
-354.6851
 20
111.3811
 10
-354.1942
 20
111.5133
 10
-353.6672
 20
111.5594
  0
LWPOLYLINE
  5
B1
330
1F
100
AcDbEntity
  8
Layer 1
 62
     7
370
     9
100
AcDbPolyline
 90
        2
 70
     0
 43
0.0
 10
-310.6694
 20
254.0596
 10
-209.9752
 20
254.0991
  0
LWPOLYLINE
  5
B2
330
1F
100
AcDbEntity
  8
Layer 1
 62
     7
370
     9
100
AcDbPolyline
 90
        2
 70
     0
 43
0.0
 10
-286.3513
 20
-109.7814
 10
-209.8565
 20
-109.7419
  0
LWPOLYLINE
  5
B3
330
1F
100
AcDbEntity
  8
Layer 1
 62
     7
370
     9
100
AcDbPolyline
 90
        2
 70
     0
 43
0.0
 10
-232.8161
 20
-109.7522
 10
-232.9645
 20
254.0891
  0
LWPOLYLINE
  5
B4
330
1F
100
AcDbEntity
  8
Layer 1
 62
     7
370
     9
100
AcDbPolyline
 90
        7
 70
     1
 43
0.0
 10
-194.711
 20
3.9737
 10
-194.7123
 20
6.1402
 10
-216.084
 20
6.1314
 10
-215.5229
 20
0.9309
 10
-213.6284
 20
0.9322
 10
-213.6297
 20
3.9662
 10
-194.711
 20
3.9737
  0
LWPOLYLINE
  5
B5
330
1F
100
AcDbEntity
  8
Layer 1
 62
     7
370
     9
100
AcDbPolyline
 90
       73
 70
     1
 43
0.0
 10
-204.3144
 20
16.1525
 10
-204.3372
 20
15.6586
 10
-204.4055
 20
15.1831
 10
-204.5194
 20
14.7258
 10
-204.6789
 20
14.287
 10
-204.884
 20
13.8664
 10
-205.1348
 20
13.4642
 10
-205.4313
 20
13.0803
 10
-205.7736
 20
12.7148
 10
-206.1436
 20
12.3846
 10
-206.531
 20
12.0984
 10
-206.9358
 20
11.8562
 10
-207.358
 20
11.6579
 10
-207.7977
 20
11.5035
 10
-208.2549
 20
11.3932
 10
-208.7295
 20
11.3268
 10
-209.2217
 20
11.3043
 10
-209.7026
 20
11.3265
 10
-210.1671
 20
11.3932
 10
-210.615
 20
11.5043
 10
-211.0465
 20
11.6599
 10
-211.4616
 20
11.86
 10
-211.8602
 20
12.1046
 10
-212.2424
 20
12.3937
 10
-212.6082
 20
12.7273
 10
-212.9359
 20
13.0858
 10
-213.22
 20
13.4646
 10
-213.4604
 20
13.8636
 10
-213.6572
 20
14.2829
 10
-213.8102
 20
14.7226
 10
-213.9196
 20
15.1826
 10
-213.9852
 20
15.663
 10
-214.0071
 20
16.1638
 10
-213.9849
 20
16.6549
 10
-213.9175
 20
17.1295
 10
-213.8048
 20
17.5877
 10
-213.647
 20
18.0294
 10
-213.4439
 20
18.4546
 10
-213.1958
 20
18.8634
 10
-212.9025
 20
19.2558
 10
-212.5642
 20
19.6317
 10
-212.1981
 20
19.9725
 10
-211.8141
 20
20.268
 10
-211.4121
 20
20.5181
 10
-210.9922
 20
20.7229
 10
-210.5543
 20
20.8823
 10
-210.0983
 20
20.9961
 10
-209.6244
 20
21.0645
 10
-209.1324
 20
21.0873
 10
-208.6548
 20
21.0647
 10
-208.1927
 20
20.9961
 10
-207.7461
 20
20.8814
 10
-207.315
 20
20.7207
 10
-206.8993
 20
20.514
 10
-206.4991
 20
20.2613
 10
-206.1142
 20
19.9626
 10
-205.7447
 20
19.6179
 10
-205.586
 20
19.4479
 10
-205.4355
 20
19.2706
 10
-205.2931
 20
19.0862
 10
-205.159
 20
18.8946
 10
-205.033
 20
18.6957
 10
-204.9152
 20
18.4897
 10
-204.8056
 20
18.2763
 10
-204.7043
 20
18.0557
 10
-204.6132
 20
17.8297
 10
-204.5341
 20
17.6004
 10
-204.4671
 20
17.3676
 10
-204.4122
 20
17.1314
 10
-204.3694
 20
16.8918
 10
-204.3389
 20
16.6488
 10
-204.3205
 20
16.4023
 10
-204.3144
 20
16.1525
  0
LWPOLYLINE
  5
B6
330
1F
100
AcDbEntity
  8
Layer 1
 62
     7
370
     9
100
AcDbPolyline
 90
       69
 70
     1
 43
0.0
 10
-209.0657
 20
9.1065
 10
-208.3176
 20
9.1408
 10
-207.6035
 20
9.2427
 10
-206.9235
 20
9.4122
 10
-206.2776
 20
9.6494
 10
-205.6656
 20
9.9543
 10
-205.0877
 20
10.3269
 10
-204.5438
 20
10.7673
 10
-204.0338
 20
11.2755
 10
-203.6041
 20
11.7948
 10
-203.2274
 20
12.3505
 10
-202.9036
 20
12.9424
 10
-202.6326
 20
13.5706
 10
-202.4146
 20
14.2351
 10
-202.2495
 20
14.9358
 10
-202.1372
 20
15.6728
 10
-202.0777
 20
16.4459
 10
-202.484
 20
17.0653
 10
-194.7135
 20
10.6298
 10
-194.7148
 20
13.4783
 10
-204.6905
 20
21.7091
 10
-205.176
 20
22.0789
 10
-205.6816
 20
22.3995
 10
-206.2071
 20
22.6707
 10
-206.7526
 20
22.8927
 10
-207.3181
 20
23.0652
 10
-207.9034
 20
23.1883
 10
-208.5086
 20
23.262
 10
-209.1337
 20
23.2863
 10
-209.8538
 20
23.2535
 10
-210.5461
 20
23.1558
 10
-211.2107
 20
22.9934
 10
-211.8475
 20
22.7662
 10
-212.4565
 20
22.4741
 10
-213.0379
 20
22.1172
 10
-213.5917
 20
21.6955
 10
-214.1178
 20
21.2089
 10
-214.6017
 20
20.6735
 10
-215.0211
 20
20.1118
 10
-215.376
 20
19.5241
 10
-215.6665
 20
18.9102
 10
-215.8923
 20
18.2702
 10
-216.0536
 20
17.6041
 10
-216.1502
 20
16.912
 10
-216.1821
 20
16.1939
 10
-216.15
 20
15.4652
 10
-216.0536
 20
14.7656
 10
-215.8931
 20
14.095
 10
-215.6685
 20
13.4536
 10
-215.3799
 20
12.8411
 10
-215.0273
 20
12.2577
 10
-214.6107
 20
11.7032
 10
-214.1303
 20
11.1777
 10
-213.8841
 20
10.9446
 10
-213.6283
 20
10.724
 10
-213.3631
 20
10.5159
 10
-213.0883
 20
10.3202
 10
-212.8038
 20
10.1369
 10
-212.5097
 20
9.9661
 10
-212.2059
 20
9.8078
 10
-211.8924
 20
9.6619
 10
-211.5696
 20
9.5319
 10
-211.2381
 20
9.4191
 10
-210.8979
 20
9.3237
 10
-210.5489
 20
9.2455
 10
-210.1912
 20
9.1847
 10
-209.8247
 20
9.1413
 10
-209.4496
 20
9.1152
 10
-209.0657
 20
9.1065
  0
LWPOLYLINE
  5
B7
330
1F
100
AcDbEntity
  8
Layer 1
 62
     7
370
     9
100
AcDbPolyline
 90
      136
 70
     1
 43
0.0
 10
-208.0178
 20
29.6628
 10
-213.6712
 20
31.0858
 10
-213.6749
 20
38.7023
 10
-215.85
 20
38.701
 10
-215.8462
 20
29.4434
 10
-206.3699
 20
27.0325
 10
-205.3157
 20
29.3857
 10
-205.5484
 20
29.727
 10
-205.7502
 20
30.0853
 10
-205.921
 20
30.4605
 10
-206.0609
 20
30.8526
 10
-206.1698
 20
31.2617
 10
-206.2478
 20
31.6876
 10
-206.2948
 20
32.1305
 10
-206.3108
 20
32.5903
 10
-206.288
 20
33.0527
 10
-206.2195
 20
33.4996
 10
-206.1055
 20
33.9311
 10
-205.9458
 20
34.3471
 10
-205.7406
 20
34.7477
 10
-205.4897
 20
35.133
 10
-205.1934
 20
35.5029
 10
-204.8515
 20
35.8575
 10
-204.4699
 20
36.1912
 10
-204.0741
 20
36.4805
 10
-203.6642
 20
36.7253
 10
-203.2402
 20
36.9257
 10
-202.8021
 20
37.0817
 10
-202.3499
 20
37.1932
 10
-201.8837
 20
37.2603
 10
-201.4034
 20
37.283
 10
-200.9067
 20
37.2603
 10
-200.43
 20
37.192
 10
-199.9731
 20
37.0784
 10
-199.5361
 20
36.9193
 10
-199.119
 20
36.7147
 10
-198.7218
 20
36.4648
 10
-198.3444
 20
36.1694
 10
-197.9868
 20
35.8287
 10
-197.8276
 20
35.6553
 10
-197.6767
 20
35.4756
 10
-197.5339
 20
35.2896
 10
-197.3995
 20
35.0973
 10
-197.2733
 20
34.8987
 10
-197.1555
 20
34.6938
 10
-197.0461
 20
34.4827
 10
-196.9452
 20
34.2653
 10
-196.8541
 20
34.0385
 10
-196.7751
 20
33.7991
 10
-196.7082
 20
33.5472
 10
-196.6535
 20
33.2827
 10
-196.6108
 20
33.0056
 10
-196.5802
 20
32.7159
 10
-196.5617
 20
32.4136
 10
-196.5552
 20
32.0988
 10
-196.5688
 20
31.7779
 10
-196.6095
 20
31.4573
 10
-196.6773
 20
31.1372
 10
-196.7724
 20
30.8175
 10
-196.8946
 20
30.4983
 10
-197.044
 20
30.1796
 10
-197.2206
 20
29.8613
 10
-197.4245
 20
29.5437
 10
-197.6498
 20
29.238
 10
-197.8917
 20
28.9555
 10
-198.1502
 20
28.6962
 10
-198.4253
 20
28.4602
 10
-198.717
 20
28.2472
 10
-199.0252
 20
28.0574
 10
-199.35
 20
27.8907
 10
-199.6913
 20
27.7471
 10
-199.007
 20
25.6421
 10
-198.4961
 20
25.8492
 10
-198.0107
 20
26.0906
 10
-197.5509
 20
26.3664
 10
-197.1167
 20
26.6766
 10
-196.7082
 20
27.0211
 10
-196.3253
 20
27.4
 10
-195.9682
 20
27.8134
 10
-195.6369
 20
28.2611
 10
-195.3353
 20
28.7366
 10
-195.0739
 20
29.2226
 10
-194.8527
 20
29.7193
 10
-194.6719
 20
30.2267
 10
-194.5312
 20
30.7447
 10
-194.4309
 20
31.2735
 10
-194.3709
 20
31.8131
 10
-194.3512
 20
32.3634
 10
-194.3845
 20
33.096
 10
-194.4844
 20
33.8006
 10
-194.6509
 20
34.4771
 10
-194.8838
 20
35.1257
 10
-195.1832
 20
35.7461
 10
-195.549
 20
36.3384
 10
-195.9812
 20
36.9025
 10
-196.4797
 20
37.4385
 10
-197.0217
 20
37.9246
 10
-197.5903
 20
38.3459
 10
-198.1853
 20
38.7024
 10
-198.807
 20
38.9939
 10
-199.4553
 20
39.2207
 10
-200.1303
 20
39.3827
 10
-200.8321
 20
39.4798
 10
-201.5607
 20
39.5122
 10
-202.2851
 20
39.4798
 10
-202.9789
 20
39.3836
 10
-203.6422
 20
39.2236
 10
-204.2748
 20
38.9997
 10
-204.8767
 20
38.712
 10
-205.4479
 20
38.3606
 10
-205.9884
 20
37.9452
 10
-206.4982
 20
37.4661
 10
-206.7252
 20
37.2214
 10
-206.94
 20
36.9671
 10
-207.1426
 20
36.7029
 10
-207.3331
 20
36.4291
 10
-207.5113
 20
36.1456
 10
-207.6773
 20
35.8523
 10
-207.8311
 20
35.5494
 10
-207.9726
 20
35.2369
 10
-208.1
 20
34.9177
 10
-208.2104
 20
34.5959
 10
-208.3037
 20
34.2713
 10
-208.3802
 20
33.9442
 10
-208.4396
 20
33.6143
 10
-208.482
 20
33.2818
 10
-208.5075
 20
32.9468
 10
-208.516
 20
32.6091
 10
-208.5078
 20
32.2653
 10
-208.4841
 20
31.9146
 10
-208.445
 20
31.557
 10
-208.3905
 20
31.1924
 10
-208.3205
 20
30.8207
 10
-208.2351
 20
30.4419
 10
-208.1342
 20
30.056
 10
-208.0178
 20
29.6628
  0
LWPOLYLINE
  5
B8
330
1F
100
AcDbEntity
  8
Layer 1
 62
     7
370
     9
100
AcDbPolyline
 90
      165
 70
     1
 43
0.0
 10
-194.8003
 20
69.1116
 10
-194.8003
 20
71.2794
 10
-203.3432
 20
71.2756
 10
-203.9105
 20
71.2579
 10
-204.4511
 20
71.2047
 10
-204.965
 20
71.1161
 10
-205.4521
 20
70.9923
 10
-205.9125
 20
70.8331
 10
-206.3461
 20
70.6388
 10
-206.7532
 20
70.4093
 10
-207.1335
 20
70.1447
 10
-207.3152
 20
69.9967
 10
-207.4878
 20
69.8394
 10
-207.6511
 20
69.6729
 10
-207.8051
 20
69.4972
 10
-207.9499
 20
69.3123
 10
-208.0854
 20
69.1183
 10
-208.2117
 20
68.9151
 10
-208.3286
 20
68.7029
 10
-208.4339
 20
68.4775
 10
-208.5253
 20
68.2347
 10
-208.6027
 20
67.9744
 10
-208.666
 20
67.6968
 10
-208.7154
 20
67.4018
 10
-208.7506
 20
67.0894
 10
-208.7718
 20
66.7596
 10
-208.7789
 20
66.4124
 10
-208.7664
 20
66.062
 10
-208.7296
 20
65.7227
 10
-208.6686
 20
65.3944
 10
-208.5835
 20
65.0773
 10
-208.474
 20
64.7712
 10
-208.3404
 20
64.4763
 10
-208.1824
 20
64.1925
 10
-208.0002
 20
63.9199
 10
-207.8188
 20
63.684
 10
-207.6238
 20
63.4585
 10
-207.4153
 20
63.2435
 10
-207.1935
 20
63.039
 10
-206.9587
 20
62.8451
 10
-206.7109
 20
62.6616
 10
-206.4504
 20
62.4887
 10
-206.1774
 20
62.3264
 10
-206.4291
 20
62.2009
 10
-206.6724
 20
62.0635
 10
-206.9062
 20
61.9142
 10
-207.1297
 20
61.7535
 10
-207.3114
 20
61.6059
 10
-207.484
 20
61.4489
 10
-207.6473
 20
61.2826
 10
-207.8015
 20
61.107
 10
-207.9464
 20
60.9222
 10
-208.0821
 20
60.7282
 10
-208.2087
 20
60.5251
 10
-208.326
 20
60.3129
 10
-208.4313
 20
60.0875
 10
-208.5225
 20
59.8447
 10
-208.5997
 20
59.5844
 10
-208.6628
 20
59.3068
 10
-208.7119
 20
59.0118
 10
-208.747
 20
58.6993
 10
-208.7681
 20
58.3695
 10
-208.7751
 20
58.0223
 10
-208.7629
 20
57.6719
 10
-208.7263
 20
57.3326
 10
-208.6654
 20
57.0044
 10
-208.5801
 20
56.6873
 10
-208.4706
 20
56.3812
 10
-208.3368
 20
56.0863
 10
-208.1787
 20
55.8025
 10
-207.9965
 20
55.5299
 10
-207.8237
 20
55.3048
 10
-207.6392
 20
55.0894
 10
-207.443
 20
54.8836
 10
-207.2351
 20
54.6874
 10
-207.0151
 20
54.5009
 10
-206.7832
 20
54.324
 10
-206.5393
 20
54.1567
 10
-206.2831
 20
53.9991
 10
-208.4632
 20
53.9978
 10
-208.4619
 20
51.8301
 10
-194.7928
 20
51.8364
 10
-194.794
 20
54.0041
 10
-201.7896
 20
54.0016
 10
-202.1968
 20
54.0513
 10
-202.5882
 20
54.1165
 10
-202.9639
 20
54.1974
 10
-203.324
 20
54.2939
 10
-203.6687
 20
54.4059
 10
-203.9981
 20
54.5335
 10
-204.3122
 20
54.6766
 10
-204.6113
 20
54.8353
 10
-204.8239
 20
54.9643
 10
-205.0267
 20
55.104
 10
-205.2198
 20
55.2544
 10
-205.4032
 20
55.4154
 10
-205.5769
 20
55.587
 10
-205.741
 20
55.7693
 10
-205.8954
 20
55.9621
 10
-206.0403
 20
56.1656
 10
-206.1716
 20
56.3767
 10
-206.2854
 20
56.5916
 10
-206.3816
 20
56.8102
 10
-206.4603
 20
57.0327
 10
-206.5215
 20
57.259
 10
-206.5652
 20
57.4891
 10
-206.5914
 20
57.7231
 10
-206.6001
 20
57.9609
 10
-206.5955
 20
58.1933
 10
-206.5817
 20
58.4102
 10
-206.5587
 20
58.6115
 10
-206.5265
 20
58.7972
 10
-206.4851
 20
58.9674
 10
-206.4345
 20
59.1221
 10
-206.3747
 20
59.2614
 10
-206.3057
 20
59.3852
 10
-206.0745
 20
59.6973
 10
-205.8033
 20
59.9679
 10
-205.4923
 20
60.1969
 10
-205.1415
 20
60.3844
 10
-204.7508
 20
60.5303
 10
-204.3202
 20
60.6345
 10
-203.8497
 20
60.697
 10
-203.3394
 20
60.7179
 10
-194.7966
 20
60.7216
 10
-194.7978
 20
62.8894
 10
-203.3407
 20
62.8856
 10
-203.864
 20
62.8693
 10
-204.062
 20
62.95
 10
-204.2527
 20
63.0361
 10
-204.4368
 20
63.1278
 10
-204.615
 20
63.2254
 10
-204.8276
 20
63.3544
 10
-205.0304
 20
63.4941
 10
-205.2236
 20
63.6444
 10
-205.407
 20
63.8054
 10
-205.5807
 20
63.977
 10
-205.7448
 20
64.1593
 10
-205.8992
 20
64.3521
 10
-206.0441
 20
64.5556
 10
-206.175
 20
64.7667
 10
-206.2885
 20
64.9816
 10
-206.3845
 20
65.2003
 10
-206.4631
 20
65.4229
 10
-206.5244
 20
65.6493
 10
-206.5682
 20
65.8796
 10
-206.5947
 20
66.1139
 10
-206.6039
 20
66.3522
 10
-206.5993
 20
66.5843
 10
-206.5855
 20
66.8009
 10
-206.5625
 20
67.0021
 10
-206.5303
 20
67.1878
 10
-206.4889
 20
67.358
 10
-206.4383
 20
67.5126
 10
-206.3785
 20
67.6517
 10
-206.3095
 20
67.7752
 10
-206.0779
 20
68.0873
 10
-205.8066
 20
68.3579
 10
-205.4956
 20
68.5869
 10
-205.1448
 20
68.7744
 10
-204.7542
 20
68.9203
 10
-204.3238
 20
69.0245
 10
-203.8535
 20
69.087
 10
-203.3432
 20
69.1079
 10
-194.8003
 20
69.1116
  0
LWPOLYLINE
  5
B9
330
1F
100
AcDbEntity
  8
Layer 1
 62
     7
370
     9
100
AcDbPolyline
 90
      165
 70
     1
 43
0.0
 10
-194.8091
 20
92.7346
 10
-194.8104
 20
94.9023
 10
-203.3533
 20
94.8985
 10
-203.9206
 20
94.8808
 10
-204.4612
 20
94.8276
 10
-204.975
 20
94.739
 10
-205.4621
 20
94.6152
 10
-205.9225
 20
94.456
 10
-206.3562
 20
94.2617
 10
-206.7632
 20
94.0322
 10
-207.1436
 20
93.7676
 10
-207.3253
 20
93.6196
 10
-207.4977
 20
93.4623
 10
-207.6608
 20
93.2958
 10
-207.8147
 20
93.1201
 10
-207.9594
 20
92.9352
 10
-208.0949
 20
92.7412
 10
-208.2213
 20
92.538
 10
-208.3386
 20
92.3258
 10
-208.4439
 20
92.1004
 10
-208.5353
 20
91.8576
 10
-208.6126
 20
91.5973
 10
-208.6759
 20
91.3197
 10
-208.7251
 20
91.0247
 10
-208.7602
 20
90.7123
 10
-208.7811
 20
90.3825
 10
-208.7877
 20
90.0353
 10
-208.7756
 20
89.6849
 10
-208.7391
 20
89.3456
 10
-208.6784
 20
89.0174
 10
-208.5934
 20
88.7002
 10
-208.484
 20
88.3942
 10
-208.3504
 20
88.0992
 10
-208.1925
 20
87.8155
 10
-208.0103
 20
87.5428
 10
-207.8285
 20
87.3069
 10
-207.6333
 20
87.0814
 10
-207.4248
 20
86.8664
 10
-207.2032
 20
86.6619
 10
-206.9685
 20
86.468
 10
-206.7209
 20
86.2845
 10
-206.4605
 20
86.1116
 10
-206.1875
 20
85.9493
 10
-206.4392
 20
85.8238
 10
-206.6825
 20
85.6864
 10
-206.9163
 20
85.5371
 10
-207.1398
 20
85.3764
 10
-207.3215
 20
85.2288
 10
-207.4941
 20
85.0718
 10
-207.6574
 20
84.9055
 10
-207.8114
 20
84.7299
 10
-207.9562
 20
84.5451
 10
-208.0917
 20
84.3511
 10
-208.218
 20
84.148
 10
-208.3349
 20
83.9358
 10
-208.4402
 20
83.7104
 10
-208.5316
 20
83.4676
 10
-208.609
 20
83.2073
 10
-208.6723
 20
82.9297
 10
-208.7217
 20
82.6347
 10
-208.7569
 20
82.3223
 10
-208.7781
 20
81.9925
 10
-208.7852
 20
81.6453
 10
-208.7726
 20
81.2949
 10
-208.7359
 20
80.9556
 10
-208.6749
 20
80.6274
 10
-208.5897
 20
80.3102
 10
-208.4803
 20
80.0042
 10
-208.3466
 20
79.7092
 10
-208.1887
 20
79.4255
 10
-208.0065
 20
79.1528
 10
-207.8337
 20
78.9277
 10
-207.6493
 20
78.7123
 10
-207.4531
 20
78.5065
 10
-207.245
 20
78.3103
 10
-207.0249
 20
78.1238
 10
-206.7928
 20
77.9469
 10
-206.5485
 20
77.7796
 10
-206.2919
 20
77.622
 10
-208.472
 20
77.6208
 10
-208.472
 20
75.4531
 10
-194.8028
 20
75.4593
 10
-194.8028
 20
77.627
 10
-201.7984
 20
77.6245
 10
-202.2056
 20
77.6742
 10
-202.597
 20
77.7394
 10
-202.9727
 20
77.8203
 10
-203.333
 20
77.9168
 10
-203.6778
 20
78.0288
 10
-204.0074
 20
78.1564
 10
-204.3218
 20
78.2996
 10
-204.6213
 20
78.4583
 10
-204.8339
 20
78.5873
 10
-205.0367
 20
78.727
 10
-205.2298
 20
78.8773
 10
-205.4132
 20
79.0383
 10
-205.5869
 20
79.2099
 10
-205.751
 20
79.3922
 10
-205.9055
 20
79.585
 10
-206.0504
 20
79.7885
 10
-206.1813
 20
79.9996
 10
-206.2948
 20
80.2145
 10
-206.3908
 20
80.4331
 10
-206.4694
 20
80.6556
 10
-206.5307
 20
80.8819
 10
-206.5745
 20
81.112
 10
-206.601
 20
81.346
 10
-206.6102
 20
81.5838
 10
-206.6056
 20
81.8162
 10
-206.5918
 20
82.0331
 10
-206.5688
 20
82.2344
 10
-206.5366
 20
82.4201
 10
-206.4952
 20
82.5903
 10
-206.4446
 20
82.745
 10
-206.3848
 20
82.8843
 10
-206.3158
 20
83.0081
 10
-206.0842
 20
83.3202
 10
-205.8129
 20
83.5908
 10
-205.5019
 20
83.8198
 10
-205.1511
 20
84.0073
 10
-204.7605
 20
84.1532
 10
-204.3301
 20
84.2574
 10
-203.8598
 20
84.3199
 10
-203.3495
 20
84.3408
 10
-194.8066
 20
84.3446
 10
-194.8066
 20
86.5123
 10
-203.3495
 20
86.5085
 10
-203.8728
 20
86.4922
 10
-204.0708
 20
86.5729
 10
-204.2615
 20
86.659
 10
-204.4456
 20
86.7507
 10
-204.6238
 20
86.8483
 10
-204.8365
 20
86.9773
 10
-205.0394
 20
87.117
 10
-205.2327
 20
87.2673
 10
-205.4164
 20
87.4283
 10
-205.5903
 20
87.5999
 10
-205.7546
 20
87.7822
 10
-205.9092
 20
87.975
 10
-206.0541
 20
88.1785
 10
-206.185
 20
88.3896
 10
-206.2985
 20
88.6045
 10
-206.3945
 20
88.8232
 10
-206.4731
 20
89.0458
 10
-206.5341
 20
89.2722
 10
-206.5778
 20
89.5025
 10
-206.604
 20
89.7368
 10
-206.6127
 20
89.9751
 10
-206.6085
 20
90.2072
 10
-206.595
 20
90.4238
 10
-206.5722
 20
90.625
 10
-206.5402
 20
90.8107
 10
-206.4989
 20
90.9809
 10
-206.4483
 20
91.1356
 10
-206.3886
 20
91.2746
 10
-206.3196
 20
91.3981
 10
-206.0879
 20
91.7102
 10
-205.8165
 20
91.9808
 10
-205.5053
 20
92.2098
 10
-205.1543
 20
92.3973
 10
-204.7634
 20
92.5432
 10
-204.3328
 20
92.6474
 10
-203.8623
 20
92.7099
 10
-203.352
 20
92.7308
 10
-194.8091
 20
92.7346
  0
ENDSEC
  0
SECTION
  2
OBJECTS
  0
DICTIONARY
  5
C
330
0
100
AcDbDictionary
281
     1
  3
ACAD_DETAILVIEWSTYLE
350
C1
  3
ACAD_GROUP
350
D
  3
ACAD_LAYOUT
350
1A
  3
ACAD_MATERIAL
350
43
  3
ACAD_MLEADERSTYLE
350
5B
  3
ACAD_MLINESTYLE
350
17
  3
ACAD_PLOTSETTINGS
350
19
  3
ACAD_PLOTSTYLENAME
350
E
  3
ACAD_SCALELIST
350
47
  3
ACAD_SECTIONVIEWSTYLE
350
C2
  3
ACAD_TABLESTYLE
350
59
  3
ACAD_VISUALSTYLE
350
2A
  3
ACDB_RECOMPOSE_DATA
350
BE
  3
AcDbVariableDictionary
350
BA
  0
SUN
  5
5D
330
29
100
AcDbSun
 90
        1
290
     0
 63
     7
421
 16777215
 40
1.0
291
     1
 91
  2455826
 92
 54000000
292
     0
 70
     2
 71
   256
280
     1
  0
DICTIONARY
  5
C1
102
{ACAD_REACTORS
330
C
102
}
330
C
100
AcDbDictionary
281
     1
  0
DICTIONARY
  5
D
102
{ACAD_REACTORS
330
C
102
}
330
C
100
AcDbDictionary
281
     1
  0
DICTIONARY
  5
1A
102
{ACAD_REACTORS
330
C
102
}
330
C
100
AcDbDictionary
281
     1
  3
Layout1
350
1E
  3
Layout2
350
26
  3
Model
350
22
  0
DICTIONARY
  5
43
102
{ACAD_REACTORS
330
C
102
}
330
C
100
AcDbDictionary
281
     1
  3
ByBlock
350
45
  3
ByLayer
350
44
  3
Global
350
46
  0
DICTIONARY
  5
5B
102
{ACAD_REACTORS
330
C
102
}
330
C
100
AcDbDictionary
281
     1
  3
Standard
350
5C
  0
DICTIONARY
  5
17
102
{ACAD_REACTORS
330
C
102
}
330
C
100
AcDbDictionary
281
     1
  3
Standard
350
18
  0
DICTIONARY
  5
19
102
{ACAD_REACTORS
330
C
102
}
330
C
100
AcDbDictionary
281
     1
  0
ACDBDICTIONARYWDFLT
  5
E
102
{ACAD_REACTORS
330
C
102
}
330
C
100
AcDbDictionary
281
     1
  3
Normal
350
F
100
AcDbDictionaryWithDefault
340
F
  0
DICTIONARY
  5
47
102
{ACAD_REACTORS
330
C
102
}
330
C
100
AcDbDictionary
281
     1
  3
A0
350
48
  3
A1
350
49
  3
A2
350
4A
  3
A3
350
4B
  3
A4
350
4C
  3
A5
350
4D
  3
A6
350
4E
  3
A7
350
4F
  3
A8
350
50
  3
A9
350
51
  3
B1
350
52
  3
B2
350
53
  3
B3
350
54
  3
B4
350
55
  3
B5
350
56
  3
B6
350
57
  3
B7
350
58
  0
DICTIONARY
  5
C2
102
{ACAD_REACTORS
330
C
102
}
330
C
100
AcDbDictionary
281
     1
  0
DICTIONARY
  5
59
102
{ACAD_REACTORS
330
C
102
}
330
C
100
AcDbDictionary
281
     1
  3
Standard
350
5A
  0
DICTIONARY
  5
2A
102
{ACAD_REACTORS
330
C
102
}
330
C
100
AcDbDictionary
281
     1
  3
2dWireframe
350
2F
  3
Basic
350
32
  3
Brighten
350
36
  3
ColorChange
350
3A
  3
Conceptual
350
34
  3
Dim
350
35
  3
EdgeColorOff
350
3D
  3
Facepattern
350
39
  3
Flat
350
2B
  3
FlatWithEdges
350
2C
  3
Gouraud
350
2D
  3
GouraudWithEdges
350
2E
  3
Hidden
350
31
  3
JitterOff
350
3B
  3
Linepattern
350
38
  3
OverhangOff
350
3C
  3
Realistic
350
33
  3
Shaded
350
42
  3
Shaded with edges
350
41
  3
Shades of Gray
350
3E
  3
Sketchy
350
3F
  3
Thicken
350
37
  3
Wireframe
350
30
  3
X-Ray
350
40
  0
XRECORD
  5
BE
102
{ACAD_REACTORS
330
C
102
}
330
C
100
AcDbXrecord
280
     1
 90
        1
330
5A
  0
DICTIONARY
  5
BA
102
{ACAD_REACTORS
330
C
102
}
330
C
100
AcDbDictionary
281
     1
  3
CANNOSCALE
350
BB
  3
CMLEADERSTYLE
350
C0
  3
CTABLESTYLE
350
BF
  0
LAYOUT
  5
1E
102
{ACAD_REACTORS
330
1A
102
}
330
1A
100
AcDbPlotSettings
  1

  2
none_device
  4

  6

 40
0.0
 41
0.0
 42
0.0
 43
0.0
 44
0.0
 45
0.0
 46
0.0
 47
0.0
 48
0.0
 49
0.0
140
0.0
141
0.0
142
1.0
143
1.0
 70
   688
 72
     0
 73
     0
 74
     5
  7

 75
    16
 76
     0
 77
     2
 78
   300
147
1.0
148
0.0
149
0.0
100
AcDbLayout
  1
Layout1
 70
     1
 71
     1
 10
0.0
 20
0.0
 11
12.0
 21
9.0
 12
0.0
 22
0.0
 32
0.0
 14
1.000000000000000E+20
 24
1.000000000000000E+20
 34
1.000000000000000E+20
 15
-1.000000000000000E+20
 25
-1.000000000000000E+20
 35
-1.000000000000000E+20
146
0.0
 13
0.0
 23
0.0
 33
0.0
 16
1.0
 26
0.0
 36
0.0
 17
0.0
 27
1.0
 37
0.0
 76
     0
330
1B
  0
LAYOUT
  5
26
102
{ACAD_REACTORS
330
1A
102
}
330
1A
100
AcDbPlotSettings
  1

  2
none_device
  4

  6

 40
0.0
 41
0.0
 42
0.0
 43
0.0
 44
0.0
 45
0.0
 46
0.0
 47
0.0
 48
0.0
 49
0.0
140
0.0
141
0.0
142
1.0
143
1.0
 70
   688
 72
     0
 73
     0
 74
     5
  7

 75
    16
 76
     0
 77
     2
 78
   300
147
1.0
148
0.0
149
0.0
100
AcDbLayout
  1
Layout2
 70
     1
 71
     2
 10
0.0
 20
0.0
 11
0.0
 21
0.0
 12
0.0
 22
0.0
 32
0.0
 14
0.0
 24
0.0
 34
0.0
 15
0.0
 25
0.0
 35
0.0
146
0.0
 13
0.0
 23
0.0
 33
0.0
 16
1.0
 26
0.0
 36
0.0
 17
0.0
 27
1.0
 37
0.0
 76
     0
330
23
  0
LAYOUT
  5
22
102
{ACAD_REACTORS
330
1A
102
}
330
1A
100
AcDbPlotSettings
  1

  2
none_device
  4
Letter_(8.50_x_11.00_Inches)
  6

 40
6.35
 41
6.35
 42
6.35000508
 43
6.35000508
 44
215.9
 45
279.4
 46
0.0
 47
0.0
 48
0.0
 49
0.0
140
0.0
141
0.0
142
1.0
143
1.0
 70
  1712
 72
     0
 73
     0
 74
     0
  7

 75
     0
 76
     0
 77
     2
 78
   300
147
1.0
148
0.0
149
0.0
100
AcDbLayout
  1
Model
 70
     1
 71
     0
 10
0.0
 20
0.0
 11
12.0
 21
9.0
 12
0.0
 22
0.0
 32
0.0
 14
-447.2667
 24
-177.202
 34
0.0
 15
-145.1958
 25
317.3303
 35
0.0
146
0.0
 13
0.0
 23
0.0
 33
0.0
 16
1.0
 26
0.0
 36
0.0
 17
0.0
 27
1.0
 37
0.0
 76
     0
330
1F
331
29
  0
MATERIAL
  5
45
102
{ACAD_REACTORS
330
43
102
}
330
43
100
AcDbMaterial
  1
ByBlock
 72
     1
 94
      127
  0
MATERIAL
  5
44
102
{ACAD_REACTORS
330
43
102
}
330
43
100
AcDbMaterial
  1
ByLayer
 72
     1
 94
      127
  0
MATERIAL
  5
46
102
{ACAD_REACTORS
330
43
102
}
330
43
100
AcDbMaterial
  1
Global
 72
     1
 94
      127
  0
MLEADERSTYLE
  5
5C
102
{ACAD_REACTORS
330
5B
102
}
330
5B
100
AcDbMLeaderStyle
179
     2
170
     2
171
     1
172
     0
 90
        2
 40
0.0
 41
0.0
173
     1
 91
-1056964608
340
14
 92
       -2
290
     1
 42
0.09
291
     1
 43
0.36
  3
Standard
341
0
 44
0.18
300

342
11
174
     1
178
     6
175
     1
176
     0
 93
-1056964608
 45
0.18
292
     0
297
     0
 46
0.18
343
0
 94
-1056964608
 47
1.0
 49
1.0
140
1.0
293
     1
141
0.0
294
     1
177
     0
142
1.0
295
     0
296
     0
143
0.125
271
     0
272
     9
273
     9
298
     0
  0
MLINESTYLE
  5
18
102
{ACAD_REACTORS
330
17
102
}
330
17
100
AcDbMlineStyle
  2
Standard
 70
     0
  3

 62
   256
 51
90.0
 52
90.0
 71
     2
 49
0.5
 62
   256
  6
BYLAYER
 49
-0.5
 62
   256
  6
BYLAYER
  0
ACDBPLACEHOLDER
  5
F
102
{ACAD_REACTORS
330
E
102
}
330
E
  0
SCALE
  5
48
102
{ACAD_REACTORS
330
47
102
}
330
47
100
AcDbScale
 70
     0
300
1:1
140
1.0
141
1.0
290
     1
  0
SCALE
  5
49
102
{ACAD_REACTORS
330
47
102
}
330
47
100
AcDbScale
 70
     0
300
1/128" = 1'-0"
140
0.0078125
141
12.0
290
     0
  0
SCALE
  5
4A
102
{ACAD_REACTORS
330
47
102
}
330
47
100
AcDbScale
 70
     0
300
1/64" = 1'-0"
140
0.015625
141
12.0
290
     0
  0
SCALE
  5
4B
102
{ACAD_REACTORS
330
47
102
}
330
47
100
AcDbScale
 70
     0
300
1/32" = 1'-0"
140
0.03125
141
12.0
290
     0
  0
SCALE
  5
4C
102
{ACAD_REACTORS
330
47
102
}
330
47
100
AcDbScale
 70
     0
300
1/16" = 1'-0"
140
0.0625
141
12.0
290
     0
  0
SCALE
  5
4D
102
{ACAD_REACTORS
330
47
102
}
330
47
100
AcDbScale
 70
     0
300
3/32" = 1'-0"
140
0.09375
141
12.0
290
     0
  0
SCALE
  5
4E
102
{ACAD_REACTORS
330
47
102
}
330
47
100
AcDbScale
 70
     0
300
1/8" = 1'-0"
140
0.125
141
12.0
290
     0
  0
SCALE
  5
4F
102
{ACAD_REACTORS
330
47
102
}
330
47
100
AcDbScale
 70
     0
300
3/16" = 1'-0"
140
0.1875
141
12.0
290
     0
  0
SCALE
  5
50
102
{ACAD_REACTORS
330
47
102
}
330
47
100
AcDbScale
 70
     0
300
1/4" = 1'-0"
140
0.25
141
12.0
290
     0
  0
SCALE
  5
51
102
{ACAD_REACTORS
330
47
102
}
330
47
100
AcDbScale
 70
     0
300
3/8" = 1'-0"
140
0.375
141
12.0
290
     0
  0
SCALE
  5
52
102
{ACAD_REACTORS
330
47
102
}
330
47
100
AcDbScale
 70
     0
300
1/2" = 1'-0"
140
0.5
141
12.0
290
     0
  0
SCALE
  5
53
102
{ACAD_REACTORS
330
47
102
}
330
47
100
AcDbScale
 70
     0
300
3/4" = 1'-0"
140
0.75
141
12.0
290
     0
  0
SCALE
  5
54
102
{ACAD_REACTORS
330
47
102
}
330
47
100
AcDbScale
 70
     0
300
1" = 1'-0"
140
1.0
141
12.0
290
     0
  0
SCALE
  5
55
102
{ACAD_REACTORS
330
47
102
}
330
47
100
AcDbScale
 70
     0
300
1-1/2" = 1'-0"
140
1.5
141
12.0
290
     0
  0
SCALE
  5
56
102
{ACAD_REACTORS
330
47
102
}
330
47
100
AcDbScale
 70
     0
300
3" = 1'-0"
140
3.0
141
12.0
290
     0
  0
SCALE
  5
57
102
{ACAD_REACTORS
330
47
102
}
330
47
100
AcDbScale
 70
     0
300
6" = 1'-0"
140
6.0
141
12.0
290
     0
  0
SCALE
  5
58
102
{ACAD_REACTORS
330
47
102
}
330
47
100
AcDbScale
 70
     0
300
1'-0" = 1'-0"
140
12.0
141
12.0
290
     0
  0
TABLESTYLE
  5
5A
102
{ACAD_REACTORS
330
59
102
}
102
{ACAD_XDICTIONARY
360
BC
102
}
330
59
100
AcDbTableStyle
  3
Standard
 70
     0
 71
     0
 40
0.06
 41
0.06
280
     0
281
     0
  7
Standard
140
0.18
170
     2
 62
     0
 63
   257
283
     0
 90
        4
 91
        0
  1

274
    -2
284
     1
 64
     0
275
    -2
285
     1
 65
     0
276
    -2
286
     1
 66
     0
277
    -2
287
     1
 67
     0
278
    -2
288
     1
 68
     0
279
    -2
289
     1
 69
     0
  7
Standard
140
0.25
170
     5
 62
     0
 63
   257
283
     0
 90
        4
 91
        0
  1

274
    -2
284
     1
 64
     0
275
    -2
285
     1
 65
     0
276
    -2
286
     1
 66
     0
277
    -2
287
     1
 67
     0
278
    -2
288
     1
 68
     0
279
    -2
289
     1
 69
     0
  7
Standard
140
0.18
170
     5
 62
     0
 63
   257
283
     0
 90
        4
 91
        0
  1

274
    -2
284
     1
 64
     0
275
    -2
285
     1
 65
     0
276
    -2
286
     1
 66
     0
277
    -2
287
     1
 67
     0
278
    -2
288
     1
 68
     0
279
    -2
289
     1
 69
     0
  0
VISUALSTYLE
  5
2F
102
{ACAD_REACTORS
330
2A
102
}
330
2A
100
AcDbVisualStyle
  2
2dWireframe
 70
     4
177
     3
291
     0
 70
    58
 90
        0
176
     1
 90
        2
176
     1
 90
        0
176
     1
 90
        0
176
     1
 40
0.6
176
     1
 40
30.0
176
     1
 62
     7
420
 16777215
176
     1
 90
        1
176
     1
 90
        4
176
     1
 62
     7
176
     1
 62
   257
176
     1
 90
        1
176
     1
 90
        1
176
     1
 40
1.0
176
     1
 90
        0
176
     1
 62
   257
176
     1
 40
1.0
176
     1
 90
        1
176
     1
 90
        6
176
     1
 90
        2
176
     1
 62
     7
176
     1
 90
        5
176
     1
 90
        0
176
     1
 90
        0
176
     1
290
     0
176
     1
 90
        1
176
     1
 40
0.0
176
     1
 90
        0
176
     1
290
     1
176
     1
290
     1
176
     1
290
     0
176
     1
290
     0
176
     1
290
     0
176
     1
290
     0
176
     1
290
     0
176
     1
290
     0
176
     1
290
     0
176
     1
 90
       50
176
     1
 40
0.0
176
     1
 40
1.0
176
     1
 90
        0
176
     1
 62
    18
420
        0
176
     1
 90
       50
176
     1
 90
        3
176
     1
 62
     5
420
      255
176
     1
290
     0
176
     1
 90
       50
176
     1
 90
       50
176
     1
 90
       50
176
     1
290
     0
176
     1
 90
       50
176
     1
 62
   256
176
     0
 40
1.0
176
     0
 90
        2
176
     1
  1
strokes_ogs.tif
176
     1
290
     0
176
     1
 40
1.0
176
     1
 40
1.0
176
     1
  0
VISUALSTYLE
  5
32
102
{ACAD_REACTORS
330
2A
102
}
330
2A
100
AcDbVisualStyle
  2
Basic
 70
     7
177
     3
291
     1
 70
    58
 90
        1
176
     1
 90
        0
176
     1
 90
        1
176
     1
 90
        0
176
     1
 40
0.6
176
     1
 40
30.0
176
     1
 62
     7
420
 16777215
176
     1
 90
        0
176
     1
 90
        4
176
     1
 62
     7
176
     1
 62
   257
176
     1
 90
        1
176
     1
 90
        1
176
     1
 40
1.0
176
     1
 90
        8
176
     1
 62
     7
176
     1
 40
1.0
176
     1
 90
        1
176
     1
 90
        6
176
     1
 90
        2
176
     1
 62
     7
176
     1
 90
        5
176
     1
 90
        0
176
     1
 90
        0
176
     1
290
     0
176
     1
 90
        1
176
     1
 40
0.0
176
     1
 90
        0
176
     1
290
     0
176
     1
290
     1
176
     1
290
     1
176
     1
290
     0
176
     1
290
     0
176
     1
290
     0
176
     1
290
     0
176
     1
290
     0
176
     1
290
     0
176
     1
 90
       50
176
     1
 40
0.0
176
     1
 40
1.0
176
     1
 90
        0
176
     1
 62
    18
420
        0
176
     1
 90
       50
176
     1
 90
        3
176
     1
 62
     5
420
      255
176
     1
290
     0
176
     1
 90
       50
176
     1
 90
       50
176
     1
 90
       50
176
     1
290
     0
176
     1
 90
       50
176
     1
 62
   256
176
     0
 40
1.0
176
     0
 90
        2
176
     1
  1
strokes_ogs.tif
176
     1
290
     0
176
     1
 40
1.0
176
     1
 40
1.0
176
     1
  0
VISUALSTYLE
  5
36
102
{ACAD_REACTORS
330
2A
102
}
330
2A
100
AcDbVisualStyle
  2
Brighten
 70
    12
177
     3
291
     1
 70
    58
 90
        2
176
     1
 90
        2
176
     1
 90
        0
176
     1
 90
        0
176
     1
 40
0.6
176
     1
 40
30.0
176
     1
 62
     7
420
 16777215
176
     1
 90
        1
176
     1
 90
        4
176
     1
 62
     7
176
     1
 62
   257
176
     1
 90
        1
176
     1
 90
        1
176
     1
 40
1.0
176
     1
 90
        8
176
     1
 62
     7
176
     1
 40
1.0
176
     1
 90
        1
176
     1
 90
        6
176
     1
 90
        2
176
     1
 62
     7
176
     1
 90
        5
176
     1
 90
        0
176
     1
 90
        0
176
     1
290
     0
176
     1
 90
        1
176
     1
 40
50.0
176
     1
 90
        0
176
     1
290
     0
176
     1
290
     1
176
     1
290
     1
176
     1
290
     0
176
     1
290
     0
176
     1
290
     0
176
     1
290
     0
176
     1
290
     0
176
     1
290
     0
176
     1
 90
       50
176
     1
 40
0.0
176
     1
 40
1.0
176
     1
 90
        0
176
     1
 62
    18
420
        0
176
     1
 90
       50
176
     1
 90
        3
176
     1
 62
     5
420
      255
176
     1
290
     0
176
     1
 90
       50
176
     1
 90
       50
176
     1
 90
       50
176
     1
290
     0
176
     1
 90
       50
176
     1
 62
   256
176
     0
 40
1.0
176
     0
 90
        2
176
     1
  1
strokes_ogs.tif
176
     1
290
     0
176
     1
 40
1.0
176
     1
 40
1.0
176
     1
  0
VISUALSTYLE
  5
3A
102
{ACAD_REACTORS
330
2A
102
}
330
2A
100
AcDbVisualStyle
  2
ColorChange
 70
    16
177
     3
291
     1
 70
    58
 90
        2
176
     1
 90
        2
176
     1
 90
        3
176
     1
 90
        0
176
     1
 40
0.6
176
     1
 40
30.0
176
     1
 62
     8
420
  8421504
176
     1
 90
        1
176
     1
 90
        4
176
     1
 62
     7
176
     1
 62
   257
176
     1
 90
        1
176
     1
 90
        1
176
     1
 40
1.0
176
     1
 90
        8
176
     1
 62
     8
420
  8421504
176
     1
 40
1.0
176
     1
 90
        1
176
     1
 90
        6
176
     1
 90
        2
176
     1
 62
     7
176
     1
 90
        5
176
     1
 90
        0
176
     1
 90
        0
176
     1
290
     0
176
     1
 90
        1
176
     1
 40
0.0
176
     1
 90
        0
176
     1
290
     0
176
     1
290
     1
176
     1
290
     1
176
     1
290
     0
176
     1
290
     0
176
     1
290
     0
176
     1
290
     0
176
     1
290
     0
176
     1
290
     0
176
     1
 90
       50
176
     1
 40
0.0
176
     1
 40
1.0
176
     1
 90
        0
176
     1
 62
    18
420
        0
176
     1
 90
       50
176
     1
 90
        3
176
     1
 62
     5
420
      255
176
     1
290
     0
176
     1
 90
       50
176
     1
 90
       50
176
     1
 90
       50
176
     1
290
     0
176
     1
 90
       50
176
     1
 62
   256
176
     0
 40
1.0
176
     0
 90
        2
176
     1
  1
strokes_ogs.tif
176
     1
290
     0
176
     1
 40
1.0
176
     1
 40
1.0
176
     1
  0
VISUALSTYLE
  5
34
102
{ACAD_REACTORS
330
2A
102
}
330
2A
100
AcDbVisualStyle
  2
Conceptual
 70
     9
177
     3
291
     0
 70
    58
 90
        3
176
     1
 90
        2
176
     1
 90
        0
176
     1
 90
        0
176
     1
 40
0.6
176
     1
 40
30.0
176
     1
 62
     7
420
 16777215
176
     1
 90
        2
176
     1
 90
        2
176
     1
 62
     7
176
     1
 62
   257
176
     1
 90
        1
176
     1
 90
        1
176
     1
 40
179.0
176
     1
 90
        8
176
     1
 62
     7
176
     1
 40
1.0
176
     1
 90
        1
176
     1
 90
        6
176
     1
 90
        2
176
     1
 62
     7
176
     1
 90
        3
176
     1
 90
        0
176
     1
 90
        0
176
     1
290
     0
176
     1
 90
        1
176
     1
 40
0.0
176
     1
 90
        0
176
     1
290
     0
176
     1
290
     1
176
     1
290
     1
176
     1
290
     0
176
     1
290
     0
176
     1
290
     0
176
     1
290
     0
176
     1
290
     0
176
     1
290
     0
176
     1
 90
       50
176
     1
 40
0.0
176
     1
 40
1.0
176
     1
 90
        0
176
     1
 62
    18
420
        0
176
     1
 90
       50
176
     1
 90
        3
176
     1
 62
     5
420
      255
176
     1
290
     0
176
     1
 90
       50
176
     1
 90
       50
176
     1
 90
       50
176
     1
290
     0
176
     1
 90
       50
176
     1
 62
   256
176
     0
 40
1.0
176
     0
 90
        2
176
     1
  1
strokes_ogs.tif
176
     1
290
     0
176
     1
 40
1.0
176
     1
 40
1.0
176
     1
  0
VISUALSTYLE
  5
35
102
{ACAD_REACTORS
330
2A
102
}
330
2A
100
AcDbVisualStyle
  2
Dim
 70
    11
177
     3
291
     1
 70
    58
 90
        2
176
     1
 90
        2
176
     1
 90
        0
176
     1
 90
        0
176
     1
 40
0.6
176
     1
 40
30.0
176
     1
 62
     7
420
 16777215
176
     1
 90
        1
176
     1
 90
        4
176
     1
 62
     7
176
     1
 62
   257
176
     1
 90
        1
176
     1
 90
        1
176
     1
 40
1.0
176
     1
 90
        8
176
     1
 62
     7
176
     1
 40
1.0
176
     1
 90
        1
176
     1
 90
        6
176
     1
 90
        2
176
     1
 62
     7
176
     1
 90
        5
176
     1
 90
        0
176
     1
 90
        0
176
     1
290
     0
176
     1
 90
        1
176
     1
 40
-50.0
176
     1
 90
        0
176
     1
290
     0
176
     1
290
     1
176
     1
290
     1
176
     1
290
     0
176
     1
290
     0
176
     1
290
     0
176
     1
290
     0
176
     1
290
     0
176
     1
290
     0
176
     1
 90
       50
176
     1
 40
0.0
176
     1
 40
1.0
176
     1
 90
        0
176
     1
 62
    18
420
        0
176
     1
 90
       50
176
     1
 90
        3
176
     1
 62
     5
420
      255
176
     1
290
     0
176
     1
 90
       50
176
     1
 90
       50
176
     1
 90
       50
176
     1
290
     0
176
     1
 90
       50
176
     1
 62
   256
176
     0
 40
1.0
176
     0
 90
        2
176
     1
  1
strokes_ogs.tif
176
     1
290
     0
176
     1
 40
1.0
176
     1
 40
1.0
176
     1
  0
VISUALSTYLE
  5
3D
102
{ACAD_REACTORS
330
2A
102
}
330
2A
100
AcDbVisualStyle
  2
EdgeColorOff
 70
    22
177
     3
291
     1
 70
    58
 90
        2
176
     0
 90
        2
176
     0
 90
        0
176
     0
 90
        0
176
     0
 40
0.6
176
     0
 40
30.0
176
     0
 62
     7
420
 16777215
176
     0
 90
        1
176
     0
 90
        4
176
     0
 62
     7
176
     0
 62
   257
176
     0
 90
        1
176
     0
 90
        1
176
     0
 40
1.0
176
     0
 90
        8
176
     2
 62
     7
176
     0
 40
1.0
176
     0
 90
        1
176
     0
 90
        6
176
     0
 90
        2
176
     0
 62
     7
176
     0
 90
        5
176
     0
 90
        0
176
     0
 90
        0
176
     0
290
     0
176
     0
 90
        1
176
     0
 40
0.0
176
     0
 90
        0
176
     0
290
     0
176
     0
290
     1
176
     0
290
     1
176
     0
290
     0
176
     0
290
     0
176
     0
290
     0
176
     0
290
     0
176
     0
290
     0
176
     0
290
     0
176
     0
 90
       50
176
     0
 40
0.0
176
     0
 40
1.0
176
     0
 90
        0
176
     0
 62
    18
420
        0
176
     0
 90
       50
176
     0
 90
        3
176
     0
 62
     5
420
      255
176
     0
290
     0
176
     0
 90
       50
176
     0
 90
       50
176
     0
 90
       50
176
     0
290
     0
176
     0
 90
       50
176
     0
 62
   256
176
     0
 40
1.0
176
     0
 90
        2
176
     0
  1
strokes_ogs.tif
176
     0
290
     0
176
     0
 40
1.0
176
     0
 40
1.0
176
     0
  0
VISUALSTYLE
  5
39
102
{ACAD_REACTORS
330
2A
102
}
330
2A
100
AcDbVisualStyle
  2
Facepattern
 70
    15
177
     3
291
     1
 70
    58
 90
        2
176
     1
 90
        2
176
     1
 90
        0
176
     1
 90
        0
176
     1
 40
0.6
176
     1
 40
30.0
176
     1
 62
     7
420
 16777215
176
     1
 90
        1
176
     1
 90
        4
176
     1
 62
     7
176
     1
 62
   257
176
     1
 90
        1
176
     1
 90
        1
176
     1
 40
1.0
176
     1
 90
        8
176
     1
 62
     7
176
     1
 40
1.0
176
     1
 90
        1
176
     1
 90
        6
176
     1
 90
        2
176
     1
 62
     7
176
     1
 90
        5
176
     1
 90
        0
176
     1
 90
        0
176
     1
290
     0
176
     1
 90
        1
176
     1
 40
0.0
176
     1
 90
        0
176
     1
290
     0
176
     1
290
     1
176
     1
290
     1
176
     1
290
     0
176
     1
290
     0
176
     1
290
     0
176
     1
290
     0
176
     1
290
     0
176
     1
290
     0
176
     1
 90
       50
176
     1
 40
0.0
176
     1
 40
1.0
176
     1
 90
        0
176
     1
 62
    18
420
        0
176
     1
 90
       50
176
     1
 90
        3
176
     1
 62
     5
420
      255
176
     1
290
     0
176
     1
 90
       50
176
     1
 90
       50
176
     1
 90
       50
176
     1
290
     0
176
     1
 90
       50
176
     1
 62
   256
176
     0
 40
1.0
176
     0
 90
        2
176
     1
  1
strokes_ogs.tif
176
     1
290
     0
176
     1
 40
1.0
176
     1
 40
1.0
176
     1
  0
VISUALSTYLE
  5
2B
102
{ACAD_REACTORS
330
2A
102
}
330
2A
100
AcDbVisualStyle
  2
Flat
 70
     0
177
     3
291
     1
 70
    58
 90
        2
176
     1
 90
        1
176
     1
 90
        1
176
     1
 90
        2
176
     1
 40
0.6
176
     1
 40
30.0
176
     1
 62
     7
420
 16777215
176
     1
 90
        0
176
     1
 90
        0
176
     1
 62
     7
176
     1
 62
   257
176
     1
 90
        1
176
     1
 90
        1
176
     1
 40
1.0
176
     1
 90
        8
176
     1
 62
     7
176
     1
 40
1.0
176
     1
 90
        1
176
     1
 90
        6
176
     1
 90
        2
176
     1
 62
     7
176
     1
 90
        5
176
     1
 90
        0
176
     1
 90
        0
176
     1
290
     0
176
     1
 90
       13
176
     1
 40
0.0
176
     1
 90
        0
176
     1
290
     0
176
     1
290
     1
176
     1
290
     1
176
     1
290
     0
176
     1
290
     0
176
     1
290
     0
176
     1
290
     0
176
     1
290
     0
176
     1
290
     0
176
     1
 90
       50
176
     1
 40
0.0
176
     1
 40
1.0
176
     1
 90
        0
176
     1
 62
    18
420
        0
176
     1
 90
       50
176
     1
 90
        3
176
     1
 62
     5
420
      255
176
     1
290
     0
176
     1
 90
       50
176
     1
 90
       50
176
     1
 90
       50
176
     1
290
     0
176
     1
 90
       50
176
     1
 62
   256
176
     0
 40
1.0
176
     0
 90
        2
176
     1
  1
strokes_ogs.tif
176
     1
290
     0
176
     1
 40
1.0
176
     1
 40
1.0
176
     1
  0
VISUALSTYLE
  5
2C
102
{ACAD_REACTORS
330
2A
102
}
330
2A
100
AcDbVisualStyle
  2
FlatWithEdges
 70
     1
177
     3
291
     1
 70
    58
 90
        2
176
     1
 90
        1
176
     1
 90
        1
176
     1
 90
        2
176
     1
 40
0.6
176
     1
 40
30.0
176
     1
 62
     7
420
 16777215
176
     1
 90
        1
176
     1
 90
        0
176
     1
 62
     7
176
     1
 62
   257
176
     1
 90
        1
176
     1
 90
        1
176
     1
 40
1.0
176
     1
 90
        0
176
     1
 62
   257
176
     1
 40
1.0
176
     1
 90
        1
176
     1
 90
        6
176
     1
 90
        2
176
     1
 62
     7
176
     1
 90
        5
176
     1
 90
        0
176
     1
 90
        0
176
     1
290
     0
176
     1
 90
       13
176
     1
 40
0.0
176
     1
 90
        0
176
     1
290
     0
176
     1
290
     1
176
     1
290
     1
176
     1
290
     0
176
     1
290
     0
176
     1
290
     0
176
     1
290
     0
176
     1
290
     0
176
     1
290
     0
176
     1
 90
       50
176
     1
 40
0.0
176
     1
 40
1.0
176
     1
 90
        0
176
     1
 62
    18
420
        0
176
     1
 90
       50
176
     1
 90
        3
176
     1
 62
     5
420
      255
176
     1
290
     0
176
     1
 90
       50
176
     1
 90
       50
176
     1
 90
       50
176
     1
290
     0
176
     1
 90
       50
176
     1
 62
   256
176
     0
 40
1.0
176
     0
 90
        2
176
     1
  1
strokes_ogs.tif
176
     1
290
     0
176
     1
 40
1.0
176
     1
 40
1.0
176
     1
  0
VISUALSTYLE
  5
2D
102
{ACAD_REACTORS
330
2A
102
}
330
2A
100
AcDbVisualStyle
  2
Gouraud
 70
     2
177
     3
291
     1
 70
    58
 90
        2
176
     1
 90
        2
176
     1
 90
        1
176
     1
 90
        2
176
     1
 40
0.6
176
     1
 40
30.0
176
     1
 62
     7
420
 16777215
176
     1
 90
        0
176
     1
 90
        0
176
     1
 62
     7
176
     1
 62
   257
176
     1
 90
        1
176
     1
 90
        1
176
     1
 40
1.0
176
     1
 90
        0
176
     1
 62
     7
176
     1
 40
1.0
176
     1
 90
        1
176
     1
 90
        6
176
     1
 90
        2
176
     1
 62
     7
176
     1
 90
        5
176
     1
 90
        0
176
     1
 90
        0
176
     1
290
     0
176
     1
 90
       13
176
     1
 40
0.0
176
     1
 90
        0
176
     1
290
     0
176
     1
290
     1
176
     1
290
     1
176
     1
290
     0
176
     1
290
     0
176
     1
290
     0
176
     1
290
     0
176
     1
290
     0
176
     1
290
     0
176
     1
 90
       50
176
     1
 40
0.0
176
     1
 40
1.0
176
     1
 90
        0
176
     1
 62
    18
420
        0
176
     1
 90
       50
176
     1
 90
        3
176
     1
 62
     5
420
      255
176
     1
290
     0
176
     1
 90
       50
176
     1
 90
       50
176
     1
 90
       50
176
     1
290
     0
176
     1
 90
       50
176
     1
 62
   256
176
     0
 40
1.0
176
     0
 90
        2
176
     1
  1
strokes_ogs.tif
176
     1
290
     0
176
     1
 40
1.0
176
     1
 40
1.0
176
     1
  0
VISUALSTYLE
  5
2E
102
{ACAD_REACTORS
330
2A
102
}
330
2A
100
AcDbVisualStyle
  2
GouraudWithEdges
 70
     3
177
     3
291
     1
 70
    58
 90
        2
176
     1
 90
        2
176
     1
 90
        1
176
     1
 90
        2
176
     1
 40
0.6
176
     1
 40
30.0
176
     1
 62
     7
420
 16777215
176
     1
 90
        1
176
     1
 90
        0
176
     1
 62
     7
176
     1
 62
   257
176
     1
 90
        1
176
     1
 90
        1
176
     1
 40
1.0
176
     1
 90
        0
176
     1
 62
   257
176
     1
 40
1.0
176
     1
 90
        1
176
     1
 90
        6
176
     1
 90
        2
176
     1
 62
     7
176
     1
 90
        5
176
     1
 90
        0
176
     1
 90
        0
176
     1
290
     0
176
     1
 90
       13
176
     1
 40
0.0
176
     1
 90
        0
176
     1
290
     0
176
     1
290
     1
176
     1
290
     1
176
     1
290
     0
176
     1
290
     0
176
     1
290
     0
176
     1
290
     0
176
     1
290
     0
176
     1
290
     0
176
     1
 90
       50
176
     1
 40
0.0
176
     1
 40
1.0
176
     1
 90
        0
176
     1
 62
    18
420
        0
176
     1
 90
       50
176
     1
 90
        3
176
     1
 62
     5
420
      255
176
     1
290
     0
176
     1
 90
       50
176
     1
 90
       50
176
     1
 90
       50
176
     1
290
     0
176
     1
 90
       50
176
     1
 62
   256
176
     0
 40
1.0
176
     0
 90
        2
176
     1
  1
strokes_ogs.tif
176
     1
290
     0
176
     1
 40
1.0
176
     1
 40
1.0
176
     1
  0
VISUALSTYLE
  5
31
102
{ACAD_REACTORS
330
2A
102
}
330
2A
100
AcDbVisualStyle
  2
Hidden
 70
     6
177
     3
291
     0
 70
    58
 90
        1
176
     1
 90
        2
176
     1
 90
        2
176
     1
 90
        0
176
     1
 40
0.6
176
     1
 40
30.0
176
     1
 62
     7
420
 16777215
176
     1
 90
        2
176
     1
 90
        2
176
     1
 62
     7
176
     1
 62
   257
176
     1
 90
        2
176
     1
 90
        1
176
     1
 40
40.0
176
     1
 90
        0
176
     1
 62
   257
176
     1
 40
1.0
176
     1
 90
        1
176
     1
 90
        6
176
     1
 90
        2
176
     1
 62
     7
176
     1
 90
        3
176
     1
 90
        0
176
     1
 90
        0
176
     1
290
     0
176
     1
 90
        1
176
     1
 40
0.0
176
     1
 90
        0
176
     1
290
     0
176
     1
290
     1
176
     1
290
     1
176
     1
290
     0
176
     1
290
     0
176
     1
290
     0
176
     1
290
     0
176
     1
290
     0
176
     1
290
     0
176
     1
 90
       50
176
     1
 40
0.0
176
     1
 40
1.0
176
     1
 90
        0
176
     1
 62
    18
420
        0
176
     1
 90
       50
176
     1
 90
        3
176
     1
 62
     5
420
      255
176
     1
290
     0
176
     1
 90
       50
176
     1
 90
       50
176
     1
 90
       50
176
     1
290
     0
176
     1
 90
       50
176
     1
 62
   256
176
     0
 40
1.0
176
     0
 90
        2
176
     1
  1
strokes_ogs.tif
176
     1
290
     0
176
     1
 40
1.0
176
     1
 40
1.0
176
     1
  0
VISUALSTYLE
  5
3B
102
{ACAD_REACTORS
330
2A
102
}
330
2A
100
AcDbVisualStyle
  2
JitterOff
 70
    20
177
     3
291
     1
 70
    58
 90
        2
176
     0
 90
        2
176
     0
 90
        0
176
     0
 90
        0
176
     0
 40
0.6
176
     0
 40
30.0
176
     0
 62
     7
420
 16777215
176
     0
 90
        1
176
     0
 90
        4
176
     0
 62
     7
176
     0
 62
   257
176
     0
 90
        1
176
     0
 90
        1
176
     0
 40
1.0
176
     0
 90
       10
176
     2
 62
     7
176
     0
 40
1.0
176
     0
 90
        1
176
     0
 90
        6
176
     0
 90
        2
176
     0
 62
     7
176
     0
 90
        5
176
     0
 90
        0
176
     0
 90
        0
176
     0
290
     0
176
     0
 90
        1
176
     0
 40
0.0
176
     0
 90
        0
176
     0
290
     0
176
     0
290
     1
176
     0
290
     1
176
     0
290
     0
176
     0
290
     0
176
     0
290
     0
176
     0
290
     0
176
     0
290
     0
176
     0
290
     0
176
     0
 90
       50
176
     0
 40
0.0
176
     0
 40
1.0
176
     0
 90
        0
176
     0
 62
    18
420
        0
176
     0
 90
       50
176
     0
 90
        3
176
     0
 62
     5
420
      255
176
     0
290
     0
176
     0
 90
       50
176
     0
 90
       50
176
     0
 90
       50
176
     0
290
     0
176
     0
 90
       50
176
     0
 62
   256
176
     0
 40
1.0
176
     0
 90
        2
176
     0
  1
strokes_ogs.tif
176
     0
290
     0
176
     0
 40
1.0
176
     0
 40
1.0
176
     0
  0
VISUALSTYLE
  5
38
102
{ACAD_REACTORS
330
2A
102
}
330
2A
100
AcDbVisualStyle
  2
Linepattern
 70
    14
177
     3
291
     1
 70
    58
 90
        2
176
     1
 90
        2
176
     1
 90
        0
176
     1
 90
        0
176
     1
 40
0.6
176
     1
 40
30.0
176
     1
 62
     7
420
 16777215
176
     1
 90
        1
176
     1
 90
        4
176
     1
 62
     7
176
     1
 62
   257
176
     1
 90
        7
176
     1
 90
        7
176
     1
 40
1.0
176
     1
 90
        8
176
     1
 62
     7
176
     1
 40
1.0
176
     1
 90
        1
176
     1
 90
        6
176
     1
 90
        2
176
     1
 62
     7
176
     1
 90
        5
176
     1
 90
        0
176
     1
 90
        0
176
     1
290
     0
176
     1
 90
        1
176
     1
 40
0.0
176
     1
 90
        0
176
     1
290
     0
176
     1
290
     1
176
     1
290
     1
176
     1
290
     0
176
     1
290
     0
176
     1
290
     0
176
     1
290
     0
176
     1
290
     0
176
     1
290
     0
176
     1
 90
       50
176
     1
 40
0.0
176
     1
 40
1.0
176
     1
 90
        0
176
     1
 62
    18
420
        0
176
     1
 90
       50
176
     1
 90
        3
176
     1
 62
     5
420
      255
176
     1
290
     0
176
     1
 90
       50
176
     1
 90
       50
176
     1
 90
       50
176
     1
290
     0
176
     1
 90
       50
176
     1
 62
   256
176
     0
 40
1.0
176
     0
 90
        2
176
     1
  1
strokes_ogs.tif
176
     1
290
     0
176
     1
 40
1.0
176
     1
 40
1.0
176
     1
  0
VISUALSTYLE
  5
3C
102
{ACAD_REACTORS
330
2A
102
}
330
2A
100
AcDbVisualStyle
  2
OverhangOff
 70
    21
177
     3
291
     1
 70
    58
 90
        2
176
     0
 90
        2
176
     0
 90
        0
176
     0
 90
        0
176
     0
 40
0.6
176
     0
 40
30.0
176
     0
 62
     7
420
 16777215
176
     0
 90
        1
176
     0
 90
        4
176
     0
 62
     7
176
     0
 62
   257
176
     0
 90
        1
176
     0
 90
        1
176
     0
 40
1.0
176
     0
 90
        9
176
     2
 62
     7
176
     0
 40
1.0
176
     0
 90
        1
176
     0
 90
        6
176
     0
 90
        2
176
     0
 62
     7
176
     0
 90
        5
176
     0
 90
        0
176
     0
 90
        0
176
     0
290
     0
176
     0
 90
        1
176
     0
 40
0.0
176
     0
 90
        0
176
     0
290
     0
176
     0
290
     1
176
     0
290
     1
176
     0
290
     0
176
     0
290
     0
176
     0
290
     0
176
     0
290
     0
176
     0
290
     0
176
     0
290
     0
176
     0
 90
       50
176
     0
 40
0.0
176
     0
 40
1.0
176
     0
 90
        0
176
     0
 62
    18
420
        0
176
     0
 90
       50
176
     0
 90
        3
176
     0
 62
     5
420
      255
176
     0
290
     0
176
     0
 90
       50
176
     0
 90
       50
176
     0
 90
       50
176
     0
290
     0
176
     0
 90
       50
176
     0
 62
   256
176
     0
 40
1.0
176
     0
 90
        2
176
     0
  1
strokes_ogs.tif
176
     0
290
     0
176
     0
 40
1.0
176
     0
 40
1.0
176
     0
  0
VISUALSTYLE
  5
33
102
{ACAD_REACTORS
330
2A
102
}
330
2A
100
AcDbVisualStyle
  2
Realistic
 70
     8
177
     3
291
     0
 70
    58
 90
        2
176
     1
 90
        3
176
     1
 90
        0
176
     1
 90
        2
176
     1
 40
0.6
176
     1
 40
30.0
176
     1
 62
     7
420
 16777215
176
     1
 90
        0
176
     1
 90
        0
176
     1
 62
     7
176
     1
 62
   257
176
     1
 90
        1
176
     1
 90
        1
176
     1
 40
1.0
176
     1
 90
        8
176
     1
 62
   257
176
     1
 40
1.0
176
     1
 90
        1
176
     1
 90
        6
176
     1
 90
        2
176
     1
 62
     7
176
     1
 90
        3
176
     1
 90
        0
176
     1
 90
        0
176
     1
290
     0
176
     1
 90
       13
176
     1
 40
0.0
176
     1
 90
        0
176
     1
290
     0
176
     1
290
     1
176
     1
290
     1
176
     1
290
     0
176
     1
290
     0
176
     1
290
     0
176
     1
290
     0
176
     1
290
     0
176
     1
290
     0
176
     1
 90
       50
176
     1
 40
0.0
176
     1
 40
1.0
176
     1
 90
        0
176
     1
 62
    18
420
        0
176
     1
 90
       50
176
     1
 90
        3
176
     1
 62
     5
420
      255
176
     1
290
     0
176
     1
 90
       50
176
     1
 90
       50
176
     1
 90
       50
176
     1
290
     0
176
     1
 90
       50
176
     1
 62
   256
176
     0
 40
1.0
176
     0
 90
        2
176
     1
  1
strokes_ogs.tif
176
     1
290
     0
176
     1
 40
1.0
176
     1
 40
1.0
176
     1
  0
VISUALSTYLE
  5
42
102
{ACAD_REACTORS
330
2A
102
}
330
2A
100
AcDbVisualStyle
  2
Shaded
 70
    27
177
     3
291
     0
 70
    58
 90
        2
176
     1
 90
        2
176
     1
 90
        1
176
     1
 90
        2
176
     1
 40
0.6
176
     1
 40
30.0
176
     1
 62
     7
420
 16777215
176
     1
 90
        0
176
     1
 90
        4
176
     1
 62
     7
176
     1
 62
   257
176
     1
 90
        1
176
     1
 90
        1
176
     1
 40
1.0
176
     1
 90
        8
176
     1
 62
   257
176
     1
 40
1.0
176
     1
 90
        1
176
     1
 90
        6
176
     1
 90
        2
176
     1
 62
     8
420
  7895160
176
     1
 90
        3
176
     1
 90
        0
176
     1
 90
        0
176
     1
290
     0
176
     1
 90
        5
176
     1
 40
0.0
176
     1
 90
        0
176
     1
290
     0
176
     1
290
     1
176
     1
290
     1
176
     1
290
     0
176
     1
290
     0
176
     1
290
     0
176
     1
290
     0
176
     1
290
     0
176
     1
290
     0
176
     1
 90
       50
176
     1
 40
0.0
176
     1
 40
1.0
176
     1
 90
        0
176
     1
 62
    18
420
        0
176
     1
 90
       50
176
     1
 90
        3
176
     1
 62
     5
420
      255
176
     1
290
     0
176
     1
 90
       50
176
     1
 90
       50
176
     1
 90
       50
176
     1
290
     0
176
     1
 90
       50
176
     1
 62
   256
176
     0
 40
1.0
176
     0
 90
        2
176
     1
  1
strokes_ogs.tif
176
     1
290
     0
176
     1
 40
1.0
176
     1
 40
1.0
176
     1
  0
VISUALSTYLE
  5
41
102
{ACAD_REACTORS
330
2A
102
}
330
2A
100
AcDbVisualStyle
  2
Shaded with edges
 70
    26
177
     3
291
     0
 70
    58
 90
        2
176
     1
 90
        2
176
     1
 90
        1
176
     1
 90
        2
176
     1
 40
0.6
176
     1
 40
30.0
176
     1
 62
     7
420
 16777215
176
     1
 90
        1
176
     1
 90
       10
176
     1
 62
     7
176
     1
 62
   257
176
     1
 90
        2
176
     1
 90
        1
176
     1
 40
1.0
176
     1
 90
        8
176
     1
 62
   257
176
     1
 40
1.0
176
     1
 90
        1
176
     1
 90
        6
176
     1
 90
        2
176
     1
 62
     7
176
     1
 90
        3
176
     1
 90
        0
176
     1
 90
        0
176
     1
290
     0
176
     1
 90
        5
176
     1
 40
0.0
176
     1
 90
        0
176
     1
290
     0
176
     1
290
     1
176
     1
290
     1
176
     1
290
     0
176
     1
290
     0
176
     1
290
     0
176
     1
290
     0
176
     1
290
     0
176
     1
290
     0
176
     1
 90
       50
176
     1
 40
0.0
176
     1
 40
1.0
176
     1
 90
        0
176
     1
 62
    18
420
        0
176
     1
 90
       50
176
     1
 90
        3
176
     1
 62
     5
420
      255
176
     1
290
     0
176
     1
 90
       50
176
     1
 90
       50
176
     1
 90
       50
176
     1
290
     0
176
     1
 90
       50
176
     1
 62
   256
176
     0
 40
1.0
176
     0
 90
        2
176
     1
  1
strokes_ogs.tif
176
     1
290
     0
176
     1
 40
1.0
176
     1
 40
1.0
176
     1
  0
VISUALSTYLE
  5
3E
102
{ACAD_REACTORS
330
2A
102
}
330
2A
100
AcDbVisualStyle
  2
Shades of Gray
 70
    23
177
     3
291
     0
 70
    58
 90
        2
176
     1
 90
        2
176
     1
 90
        3
176
     1
 90
        0
176
     1
 40
0.6
176
     1
 40
30.0
176
     1
 62
     7
420
 16777215
176
     1
 90
        2
176
     1
 90
        2
176
     1
 62
     7
176
     1
 62
     7
176
     1
 90
        1
176
     1
 90
        1
176
     1
 40
40.0
176
     1
 90
        8
176
     1
 62
     7
176
     1
 40
1.0
176
     1
 90
        1
176
     1
 90
        6
176
     1
 90
        2
176
     1
 62
     7
176
     1
 90
        3
176
     1
 90
        0
176
     1
 90
        0
176
     1
290
     0
176
     1
 90
        1
176
     1
 40
0.0
176
     1
 90
        0
176
     1
290
     0
176
     1
290
     1
176
     1
290
     1
176
     1
290
     0
176
     1
290
     0
176
     1
290
     0
176
     1
290
     0
176
     1
290
     0
176
     1
290
     0
176
     1
 90
       50
176
     1
 40
0.0
176
     1
 40
1.0
176
     1
 90
        0
176
     1
 62
    18
420
        0
176
     1
 90
       50
176
     1
 90
        3
176
     1
 62
     5
420
      255
176
     1
290
     0
176
     1
 90
       50
176
     1
 90
       50
176
     1
 90
       50
176
     1
290
     0
176
     1
 90
       50
176
     1
 62
   256
176
     0
 40
1.0
176
     0
 90
        2
176
     1
  1
strokes_ogs.tif
176
     1
290
     0
176
     1
 40
1.0
176
     1
 40
1.0
176
     1
  0
VISUALSTYLE
  5
3F
102
{ACAD_REACTORS
330
2A
102
}
330
2A
100
AcDbVisualStyle
  2
Sketchy
 70
    24
177
     3
291
     0
 70
    58
 90
        1
176
     1
 90
        2
176
     1
 90
        2
176
     1
 90
        0
176
     1
 40
0.6
176
     1
 40
30.0
176
     1
 62
     7
420
 16777215
176
     1
 90
        2
176
     1
 90
        2
176
     1
 62
     7
176
     1
 62
     7
176
     1
 90
        1
176
     1
 90
        1
176
     1
 40
40.0
176
     1
 90
       11
176
     1
 62
     7
176
     1
 40
1.0
176
     1
 90
        1
176
     1
 90
        6
176
     1
 90
        2
176
     1
 62
     7
176
     1
 90
        6
176
     1
 90
        0
176
     1
 90
        0
176
     1
290
     0
176
     1
 90
        1
176
     1
 40
0.0
176
     1
 90
        0
176
     1
290
     0
176
     1
290
     1
176
     1
290
     1
176
     1
290
     0
176
     1
290
     0
176
     1
290
     0
176
     1
290
     0
176
     1
290
     0
176
     1
290
     0
176
     1
 90
       50
176
     1
 40
0.0
176
     1
 40
1.0
176
     1
 90
        0
176
     1
 62
    18
420
        0
176
     1
 90
       50
176
     1
 90
        3
176
     1
 62
     5
420
      255
176
     1
290
     0
176
     1
 90
       50
176
     1
 90
       50
176
     1
 90
       50
176
     1
290
     0
176
     1
 90
       50
176
     1
 62
   256
176
     0
 40
1.0
176
     0
 90
        2
176
     1
  1
strokes_ogs.tif
176
     1
290
     0
176
     1
 40
1.0
176
     1
 40
1.0
176
     1
  0
VISUALSTYLE
  5
37
102
{ACAD_REACTORS
330
2A
102
}
330
2A
100
AcDbVisualStyle
  2
Thicken
 70
    13
177
     3
291
     1
 70
    58
 90
        2
176
     1
 90
        2
176
     1
 90
        0
176
     1
 90
        0
176
     1
 40
0.6
176
     1
 40
30.0
176
     1
 62
     7
420
 16777215
176
     1
 90
        1
176
     1
 90
        4
176
     1
 62
     7
176
     1
 62
   257
176
     1
 90
        1
176
     1
 90
        1
176
     1
 40
1.0
176
     1
 90
       12
176
     1
 62
     7
176
     1
 40
1.0
176
     1
 90
        1
176
     1
 90
        6
176
     1
 90
        2
176
     1
 62
     7
176
     1
 90
        5
176
     1
 90
        0
176
     1
 90
        0
176
     1
290
     0
176
     1
 90
        1
176
     1
 40
0.0
176
     1
 90
        0
176
     1
290
     0
176
     1
290
     1
176
     1
290
     1
176
     1
290
     0
176
     1
290
     0
176
     1
290
     0
176
     1
290
     0
176
     1
290
     0
176
     1
290
     0
176
     1
 90
       50
176
     1
 40
0.0
176
     1
 40
1.0
176
     1
 90
        0
176
     1
 62
    18
420
        0
176
     1
 90
       50
176
     1
 90
        3
176
     1
 62
     5
420
      255
176
     1
290
     0
176
     1
 90
       50
176
     1
 90
       50
176
     1
 90
       50
176
     1
290
     0
176
     1
 90
       50
176
     1
 62
   256
176
     0
 40
1.0
176
     0
 90
        2
176
     1
  1
strokes_ogs.tif
176
     1
290
     0
176
     1
 40
1.0
176
     1
 40
1.0
176
     1
  0
VISUALSTYLE
  5
30
102
{ACAD_REACTORS
330
2A
102
}
330
2A
100
AcDbVisualStyle
  2
Wireframe
 70
     5
177
     3
291
     0
 70
    58
 90
        0
176
     1
 90
        2
176
     1
 90
        0
176
     1
 90
        0
176
     1
 40
0.6
176
     1
 40
30.0
176
     1
 62
     7
420
 16777215
176
     1
 90
        1
176
     1
 90
        4
176
     1
 62
     7
176
     1
 62
   257
176
     1
 90
        1
176
     1
 90
        1
176
     1
 40
1.0
176
     1
 90
        0
176
     1
 62
   257
176
     1
 40
1.0
176
     1
 90
        1
176
     1
 90
        6
176
     1
 90
        2
176
     1
 62
     7
176
     1
 90
        3
176
     1
 90
        0
176
     1
 90
        0
176
     1
290
     0
176
     1
 90
        1
176
     1
 40
0.0
176
     1
 90
        0
176
     1
290
     0
176
     1
290
     1
176
     1
290
     1
176
     1
290
     0
176
     1
290
     0
176
     1
290
     0
176
     1
290
     0
176
     1
290
     0
176
     1
290
     0
176
     1
 90
       50
176
     1
 40
0.0
176
     1
 40
1.0
176
     1
 90
        0
176
     1
 62
    18
420
        0
176
     1
 90
       50
176
     1
 90
        3
176
     1
 62
     5
420
      255
176
     1
290
     0
176
     1
 90
       50
176
     1
 90
       50
176
     1
 90
       50
176
     1
290
     0
176
     1
 90
       50
176
     1
 62
   256
176
     0
 40
1.0
176
     0
 90
        2
176
     1
  1
strokes_ogs.tif
176
     1
290
     0
176
     1
 40
1.0
176
     1
 40
1.0
176
     1
  0
VISUALSTYLE
  5
40
102
{ACAD_REACTORS
330
2A
102
}
330
2A
100
AcDbVisualStyle
  2
X-Ray
 70
    25
177
     3
291
     0
 70
    58
 90
        2
176
     1
 90
        2
176
     1
 90
        1
176
     1
 90
        1
176
     1
 40
0.5
176
     1
 40
30.0
176
     1
 62
     7
420
 16777215
176
     1
 90
        1
176
     1
 90
        0
176
     1
 62
     7
176
     1
 62
   257
176
     1
 90
        1
176
     1
 90
        1
176
     1
 40
1.0
176
     1
 90
        8
176
     1
 62
     7
176
     1
 40
1.0
176
     1
 90
        1
176
     1
 90
        6
176
     1
 90
        2
176
     1
 62
     7
176
     1
 90
        3
176
     1
 90
        0
176
     1
 90
        0
176
     1
290
     0
176
     1
 90
       13
176
     1
 40
0.0
176
     1
 90
        0
176
     1
290
     0
176
     1
290
     1
176
     1
290
     1
176
     1
290
     0
176
     1
290
     0
176
     1
290
     0
176
     1
290
     0
176
     1
290
     0
176
     1
290
     0
176
     1
 90
       50
176
     1
 40
0.0
176
     1
 40
1.0
176
     1
 90
        0
176
     1
 62
    18
420
        0
176
     1
 90
       50
176
     1
 90
        3
176
     1
 62
     5
420
      255
176
     1
290
     0
176
     1
 90
       50
176
     1
 90
       50
176
     1
 90
       50
176
     1
290
     0
176
     1
 90
       50
176
     1
 62
   256
176
     0
 40
1.0
176
     0
 90
        2
176
     1
  1
strokes_ogs.tif
176
     1
290
     0
176
     1
 40
1.0
176
     1
 40
1.0
176
     1
  0
DICTIONARYVAR
  5
BB
102
{ACAD_REACTORS
330
BA
102
}
330
BA
100
DictionaryVariables
280
     0
  1
1:1
  0
DICTIONARYVAR
  5
C0
102
{ACAD_REACTORS
330
BA
102
}
330
BA
100
DictionaryVariables
280
     0
  1
Standard
  0
DICTIONARYVAR
  5
BF
102
{ACAD_REACTORS
330
BA
102
}
330
BA
100
DictionaryVariables
280
     0
  1
Standard
  0
DICTIONARY
  5
BC
330
5A
100
AcDbDictionary
280
     1
281
     1
  3
ACAD_ROUNDTRIP_2008_TABLESTYLE_CELLSTYLEMAP
360
BD
  0
CELLSTYLEMAP
  5
BD
102
{ACAD_REACTORS
330
BC
102
}
330
BC
100
AcDbCellStyleMap
 90
        3
300
CELLSTYLE
  1
TABLEFORMAT_BEGIN
 90
        5
170
     1
 91
        0
 92
    32768
 62
   257
 93
        1
300
CONTENTFORMAT
  1
CONTENTFORMAT_BEGIN
 90
        0
 91
        0
 92
        4
 93
        0
300

 40
0.0
140
1.0
 94
        5
 62
     0
340
11
144
0.25
309
CONTENTFORMAT_END
171
     1
301
MARGIN
  1
CELLMARGIN_BEGIN
 40
0.06
 40
0.06
 40
0.06
 40
0.06
 40
0.06
 40
0.06
309
CELLMARGIN_END
 94
        6
 95
        1
302
GRIDFORMAT
  1
GRIDFORMAT_BEGIN
 90
        0
 91
        1
 62
     0
 92
       -2
340
14
 93
        0
 40
0.045
309
GRIDFORMAT_END
 95
        2
302
GRIDFORMAT
  1
GRIDFORMAT_BEGIN
 90
        0
 91
        1
 62
     0
 92
       -2
340
14
 93
        0
 40
0.045
309
GRIDFORMAT_END
 95
        4
302
GRIDFORMAT
  1
GRIDFORMAT_BEGIN
 90
        0
 91
        1
 62
     0
 92
       -2
340
14
 93
        0
 40
0.045
309
GRIDFORMAT_END
 95
        8
302
GRIDFORMAT
  1
GRIDFORMAT_BEGIN
 90
        0
 91
        1
 62
     0
 92
       -2
340
14
 93
        0
 40
0.045
309
GRIDFORMAT_END
 95
       16
302
GRIDFORMAT
  1
GRIDFORMAT_BEGIN
 90
        0
 91
        1
 62
     0
 92
       -2
340
14
 93
        0
 40
0.045
309
GRIDFORMAT_END
 95
       32
302
GRIDFORMAT
  1
GRIDFORMAT_BEGIN
 90
        0
 91
        1
 62
     0
 92
       -2
340
14
 93
        0
 40
0.045
309
GRIDFORMAT_END
309
TABLEFORMAT_END
  1
CELLSTYLE_BEGIN
 90
        1
 91
        1
300
_TITLE
309
CELLSTYLE_END
300
CELLSTYLE
  1
TABLEFORMAT_BEGIN
 90
        5
170
     1
 91
        0
 92
        0
 62
   257
 93
        1
300
CONTENTFORMAT
  1
CONTENTFORMAT_BEGIN
 90
        0
 91
        0
 92
        4
 93
        0
300

 40
0.0
140
1.0
 94
        5
 62
     0
340
11
144
0.18
309
CONTENTFORMAT_END
171
     1
301
MARGIN
  1
CELLMARGIN_BEGIN
 40
0.06
 40
0.06
 40
0.06
 40
0.06
 40
0.06
 40
0.06
309
CELLMARGIN_END
 94
        6
 95
        1
302
GRIDFORMAT
  1
GRIDFORMAT_BEGIN
 90
        0
 91
        1
 62
     0
 92
       -2
340
14
 93
        0
 40
0.045
309
GRIDFORMAT_END
 95
        2
302
GRIDFORMAT
  1
GRIDFORMAT_BEGIN
 90
        0
 91
        1
 62
     0
 92
       -2
340
14
 93
        0
 40
0.045
309
GRIDFORMAT_END
 95
        4
302
GRIDFORMAT
  1
GRIDFORMAT_BEGIN
 90
        0
 91
        1
 62
     0
 92
       -2
340
14
 93
        0
 40
0.045
309
GRIDFORMAT_END
 95
        8
302
GRIDFORMAT
  1
GRIDFORMAT_BEGIN
 90
        0
 91
        1
 62
     0
 92
       -2
340
14
 93
        0
 40
0.045
309
GRIDFORMAT_END
 95
       16
302
GRIDFORMAT
  1
GRIDFORMAT_BEGIN
 90
        0
 91
        1
 62
     0
 92
       -2
340
14
 93
        0
 40
0.045
309
GRIDFORMAT_END
 95
       32
302
GRIDFORMAT
  1
GRIDFORMAT_BEGIN
 90
        0
 91
        1
 62
     0
 92
       -2
340
14
 93
        0
 40
0.045
309
GRIDFORMAT_END
309
TABLEFORMAT_END
  1
CELLSTYLE_BEGIN
 90
        2
 91
        1
300
_HEADER
309
CELLSTYLE_END
300
CELLSTYLE
  1
TABLEFORMAT_BEGIN
 90
        5
170
     1
 91
        0
 92
        0
 62
   257
 93
        1
300
CONTENTFORMAT
  1
CONTENTFORMAT_BEGIN
 90
        0
 91
        0
 92
        4
 93
        0
300

 40
0.0
140
1.0
 94
        2
 62
     0
340
11
144
0.18
309
CONTENTFORMAT_END
171
     1
301
MARGIN
  1
CELLMARGIN_BEGIN
 40
0.06
 40
0.06
 40
0.06
 40
0.06
 40
0.06
 40
0.06
309
CELLMARGIN_END
 94
        6
 95
        1
302
GRIDFORMAT
  1
GRIDFORMAT_BEGIN
 90
        0
 91
        1
 62
     0
 92
       -2
340
14
 93
        0
 40
0.045
309
GRIDFORMAT_END
 95
        2
302
GRIDFORMAT
  1
GRIDFORMAT_BEGIN
 90
        0
 91
        1
 62
     0
 92
       -2
340
14
 93
        0
 40
0.045
309
GRIDFORMAT_END
 95
        4
302
GRIDFORMAT
  1
GRIDFORMAT_BEGIN
 90
        0
 91
        1
 62
     0
 92
       -2
340
14
 93
        0
 40
0.045
309
GRIDFORMAT_END
 95
        8
302
GRIDFORMAT
  1
GRIDFORMAT_BEGIN
 90
        0
 91
        1
 62
     0
 92
       -2
340
14
 93
        0
 40
0.045
309
GRIDFORMAT_END
 95
       16
302
GRIDFORMAT
  1
GRIDFORMAT_BEGIN
 90
        0
 91
        1
 62
     0
 92
       -2
340
14
 93
        0
 40
0.045
309
GRIDFORMAT_END
 95
       32
302
GRIDFORMAT
  1
GRIDFORMAT_BEGIN
 90
        0
 91
        1
 62
     0
 92
       -2
340
14
 93
        0
 40
0.045
309
GRIDFORMAT_END
309
TABLEFORMAT_END
  1
CELLSTYLE_BEGIN
 90
        3
 91
        2
300
_DATA
309
CELLSTYLE_END
  0
ENDSEC
  0
EOF
