  0
SECTION
  2
HEADER
  9
$ACADVER
  1
AC1027
  9
$ACADMAINTVER
 70
   105
  9
$DWGCODEPAGE
  3
ANSI_1252
  9
$LASTSAVEDBY
  1
Office Desk
  9
$REQUIREDVERSIONS
160
                 0
  9
$INSBASE
 10
0.0
 20
0.0
 30
0.0
  9
$EXTMIN
 10
578.9312
 20
-180.5317
 30
0.0
  9
$EXTMAX
 10
933.0613
 20
363.9457
 30
0.0
  9
$LIMMIN
 10
0.0
 20
0.0
  9
$LIMMAX
 10
12.0
 20
9.0
  9
$ORTHOMODE
 70
     0
  9
$REGENMODE
 70
     1
  9
$FILLMODE
 70
     1
  9
$QTEXTMODE
 70
     0
  9
$MIRRTEXT
 70
     1
  9
$LTSCALE
 40
1.0
  9
$ATTMODE
 70
     1
  9
$TEXTSIZE
 40
0.2
  9
$TRACEWID
 40
0.05
  9
$TEXTSTYLE
  7
Standard
  9
$CLAYER
  8
0
  9
$CELTYPE
  6
ByLayer
  9
$CECOLOR
 62
   256
  9
$CELTSCALE
 40
1.0
  9
$DISPSILH
 70
     0
  9
$DIMSCALE
 40
1.0
  9
$DIMASZ
 40
0.18
  9
$DIMEXO
 40
0.0625
  9
$DIMDLI
 40
0.38
  9
$DIMRND
 40
0.0
  9
$DIMDLE
 40
0.0
  9
$DIMEXE
 40
0.18
  9
$DIMTP
 40
0.0
  9
$DIMTM
 40
0.0
  9
$DIMTXT
 40
0.18
  9
$DIMCEN
 40
0.09
  9
$DIMTSZ
 40
0.0
  9
$DIMTOL
 70
     0
  9
$DIMLIM
 70
     0
  9
$DIMTIH
 70
     1
  9
$DIMTOH
 70
     1
  9
$DIMSE1
 70
     0
  9
$DIMSE2
 70
     0
  9
$DIMTAD
 70
     0
  9
$DIMZIN
 70
     0
  9
$DIMBLK
  1

  9
$DIMASO
 70
     1
  9
$DIMSHO
 70
     1
  9
$DIMPOST
  1

  9
$DIMAPOST
  1

  9
$DIMALT
 70
     0
  9
$DIMALTD
 70
     2
  9
$DIMALTF
 40
25.4
  9
$DIMLFAC
 40
1.0
  9
$DIMTOFL
 70
     0
  9
$DIMTVP
 40
0.0
  9
$DIMTIX
 70
     0
  9
$DIMSOXD
 70
     0
  9
$DIMSAH
 70
     0
  9
$DIMBLK1
  1

  9
$DIMBLK2
  1

  9
$DIMSTYLE
  2
Standard
  9
$DIMCLRD
 70
     0
  9
$DIMCLRE
 70
     0
  9
$DIMCLRT
 70
     0
  9
$DIMTFAC
 40
1.0
  9
$DIMGAP
 40
0.09
  9
$DIMJUST
 70
     0
  9
$DIMSD1
 70
     0
  9
$DIMSD2
 70
     0
  9
$DIMTOLJ
 70
     1
  9
$DIMTZIN
 70
     0
  9
$DIMALTZ
 70
     0
  9
$DIMALTTZ
 70
     0
  9
$DIMUPT
 70
     0
  9
$DIMDEC
 70
     4
  9
$DIMTDEC
 70
     4
  9
$DIMALTU
 70
     2
  9
$DIMALTTD
 70
     2
  9
$DIMTXSTY
  7
Standard
  9
$DIMAUNIT
 70
     0
  9
$DIMADEC
 70
     0
  9
$DIMALTRND
 40
0.0
  9
$DIMAZIN
 70
     0
  9
$DIMDSEP
 70
    46
  9
$DIMATFIT
 70
     3
  9
$DIMFRAC
 70
     0
  9
$DIMLDRBLK
  1

  9
$DIMLUNIT
 70
     2
  9
$DIMLWD
 70
    -2
  9
$DIMLWE
 70
    -2
  9
$DIMTMOVE
 70
     0
  9
$DIMFXL
 40
1.0
  9
$DIMFXLON
 70
     0
  9
$DIMJOGANG
 40
0.7853981633974483
  9
$DIMTFILL
 70
     0
  9
$DIMTFILLCLR
 70
     0
  9
$DIMARCSYM
 70
     0
  9
$DIMLTYPE
  6

  9
$DIMLTEX1
  6

  9
$DIMLTEX2
  6

  9
$DIMTXTDIRECTION
 70
     0
  9
$LUNITS
 70
     2
  9
$LUPREC
 70
     4
  9
$SKETCHINC
 40
0.1
  9
$FILLETRAD
 40
0.0
  9
$AUNITS
 70
     0
  9
$AUPREC
 70
     0
  9
$MENU
  1
.
  9
$ELEVATION
 40
0.0
  9
$PELEVATION
 40
0.0
  9
$THICKNESS
 40
0.0
  9
$LIMCHECK
 70
     0
  9
$CHAMFERA
 40
0.0
  9
$CHAMFERB
 40
0.0
  9
$CHAMFERC
 40
0.0
  9
$CHAMFERD
 40
0.0
  9
$SKPOLY
 70
     0
  9
$TDCREATE
 40
2461016.758322442
  9
$TDUCREATE
 40
2461016.529155776
  9
$TDUPDATE
 40
2461016.758322512
  9
$TDUUPDATE
 40
2461016.529155845
  9
$TDINDWG
 40
0.0000000116
  9
$TDUSRTIMER
 40
0.0000000116
  9
$USRTIMER
 70
     1
  9
$ANGBASE
 50
0.0
  9
$ANGDIR
 70
     0
  9
$PDMODE
 70
     0
  9
$PDSIZE
 40
0.0
  9
$PLINEWID
 40
0.0
  9
$SPLFRAME
 70
     0
  9
$SPLINETYPE
 70
     6
  9
$SPLINESEGS
 70
     8
  9
$HANDSEED
  5
F9
  9
$SURFTAB1
 70
     6
  9
$SURFTAB2
 70
     6
  9
$SURFTYPE
 70
     6
  9
$SURFU
 70
     6
  9
$SURFV
 70
     6
  9
$UCSBASE
  2

  9
$UCSNAME
  2

  9
$UCSORG
 10
0.0
 20
0.0
 30
0.0
  9
$UCSXDIR
 10
1.0
 20
0.0
 30
0.0
  9
$UCSYDIR
 10
0.0
 20
1.0
 30
0.0
  9
$UCSORTHOREF
  2

  9
$UCSORTHOVIEW
 70
     0
  9
$UCSORGTOP
 10
0.0
 20
0.0
 30
0.0
  9
$UCSORGBOTTOM
 10
0.0
 20
0.0
 30
0.0
  9
$UCSORGLEFT
 10
0.0
 20
0.0
 30
0.0
  9
$UCSORGRIGHT
 10
0.0
 20
0.0
 30
0.0
  9
$UCSORGFRONT
 10
0.0
 20
0.0
 30
0.0
  9
$UCSORGBACK
 10
0.0
 20
0.0
 30
0.0
  9
$PUCSBASE
  2

  9
$PUCSNAME
  2

  9
$PUCSORG
 10
0.0
 20
0.0
 30
0.0
  9
$PUCSXDIR
 10
1.0
 20
0.0
 30
0.0
  9
$PUCSYDIR
 10
0.0
 20
1.0
 30
0.0
  9
$PUCSORTHOREF
  2

  9
$PUCSORTHOVIEW
 70
     0
  9
$PUCSORGTOP
 10
0.0
 20
0.0
 30
0.0
  9
$PUCSORGBOTTOM
 10
0.0
 20
0.0
 30
0.0
  9
$PUCSORGLEFT
 10
0.0
 20
0.0
 30
0.0
  9
$PUCSORGRIGHT
 10
0.0
 20
0.0
 30
0.0
  9
$PUCSORGFRONT
 10
0.0
 20
0.0
 30
0.0
  9
$PUCSORGBACK
 10
0.0
 20
0.0
 30
0.0
  9
$USERI1
 70
     0
  9
$USERI2
 70
     0
  9
$USERI3
 70
     0
  9
$USERI4
 70
     0
  9
$USERI5
 70
     0
  9
$USERR1
 40
0.0
  9
$USERR2
 40
0.0
  9
$USERR3
 40
0.0
  9
$USERR4
 40
0.0
  9
$USERR5
 40
0.0
  9
$WORLDVIEW
 70
     1
  9
$SHADEDGE
 70
     3
  9
$SHADEDIF
 70
    70
  9
$TILEMODE
 70
     1
  9
$MAXACTVP
 70
    64
  9
$PINSBASE
 10
0.0
 20
0.0
 30
0.0
  9
$PLIMCHECK
 70
     0
  9
$PEXTMIN
 10
1.000000000000000E+20
 20
1.000000000000000E+20
 30
1.000000000000000E+20
  9
$PEXTMAX
 10
-1.000000000000000E+20
 20
-1.000000000000000E+20
 30
-1.000000000000000E+20
  9
$PLIMMIN
 10
0.0
 20
0.0
  9
$PLIMMAX
 10
12.0
 20
9.0
  9
$UNITMODE
 70
     0
  9
$VISRETAIN
 70
     1
  9
$PLINEGEN
 70
     0
  9
$PSLTSCALE
 70
     1
  9
$TREEDEPTH
 70
  3020
  9
$CMLSTYLE
  2
Standard
  9
$CMLJUST
 70
     0
  9
$CMLSCALE
 40
1.0
  9
$PROXYGRAPHICS
 70
     1
  9
$MEASUREMENT
 70
     0
  9
$CELWEIGHT
370
    -1
  9
$ENDCAPS
280
     0
  9
$JOINSTYLE
280
     0
  9
$LWDISPLAY
290
     0
  9
$INSUNITS
 70
     4
  9
$HYPERLINKBASE
  1

  9
$STYLESHEET
  1

  9
$XEDIT
290
     1
  9
$CEPSNTYPE
380
     0
  9
$PSTYLEMODE
290
     1
  9
$FINGERPRINTGUID
  2
{e41d7ecd-9b9c-4c71-b7af-0ea7b32e1d4c}
  9
$VERSIONGUID
  2
{FAEB1C32-E019-11D5-929B-00C0DF256EC4}
  9
$EXTNAMES
290
     1
  9
$PSVPSCALE
 40
0.0
  9
$OLESTARTUP
290
     0
  9
$SORTENTS
280
   127
  9
$INDEXCTL
280
     0
  9
$HIDETEXT
280
     1
  9
$XCLIPFRAME
280
     2
  9
$HALOGAP
280
     0
  9
$OBSCOLOR
 70
   257
  9
$OBSLTYPE
280
     0
  9
$INTERSECTIONDISPLAY
280
     0
  9
$INTERSECTIONCOLOR
 70
   257
  9
$DIMASSOC
280
     2
  9
$PROJECTNAME
  1

  9
$CAMERADISPLAY
290
     0
  9
$LENSLENGTH
 40
50.0
  9
$CAMERAHEIGHT
 40
0.0
  9
$STEPSPERSEC
 40
2.0
  9
$STEPSIZE
 40
6.0
  9
$3DDWFPREC
 40
2.0
  9
$PSOLWIDTH
 40
0.25
  9
$PSOLHEIGHT
 40
4.0
  9
$LOFTANG1
 40
1.570796326794897
  9
$LOFTANG2
 40
1.570796326794897
  9
$LOFTMAG1
 40
0.0
  9
$LOFTMAG2
 40
0.0
  9
$LOFTPARAM
 70
     7
  9
$LOFTNORMALS
280
     1
  9
$LATITUDE
 40
37.795
  9
$LONGITUDE
 40
-122.394
  9
$NORTHDIRECTION
 40
0.0
  9
$TIMEZONE
 70
 -8000
  9
$LIGHTGLYPHDISPLAY
280
     1
  9
$TILEMODELIGHTSYNCH
280
     1
  9
$CMATERIAL
347
44
  9
$SOLIDHIST
280
     0
  9
$SHOWHIST
280
     1
  9
$DWFFRAME
280
     2
  9
$DGNFRAME
280
     2
  9
$REALWORLDSCALE
290
     1
  9
$INTERFERECOLOR
 62
   256
  9
$CSHADOW
280
     0
  9
$SHADOWPLANELOCATION
 40
0.0
  0
ENDSEC
  0
SECTION
  2
CLASSES
  0
CLASS
  1
ACDBDICTIONARYWDFLT
  2
AcDbDictionaryWithDefault
  3
ObjectDBX Classes
 90
        0
 91
        3
280
     0
281
     0
  0
CLASS
  1
VISUALSTYLE
  2
AcDbVisualStyle
  3
ObjectDBX Classes
 90
     4095
 91
        3
280
     0
281
     0
  0
CLASS
  1
MATERIAL
  2
AcDbMaterial
  3
ObjectDBX Classes
 90
     1153
 91
        3
280
     0
281
     0
  0
CLASS
  1
SCALE
  2
AcDbScale
  3
ObjectDBX Classes
 90
     1153
 91
        3
280
     0
281
     0
  0
CLASS
  1
TABLESTYLE
  2
AcDbTableStyle
  3
ObjectDBX Classes
 90
     4095
 91
        3
280
     0
281
     0
  0
CLASS
  1
MLEADERSTYLE
  2
AcDbMLeaderStyle
  3
ACDB_MLEADERSTYLE_CLASS
 90
     4095
 91
        3
280
     0
281
     0
  0
CLASS
  1
SUN
  2
AcDbSun
  3
SCENEOE
 90
     1153
 91
        3
280
     0
281
     0
  0
CLASS
  1
DICTIONARYVAR
  2
AcDbDictionaryVar
  3
ObjectDBX Classes
 90
        0
 91
        3
280
     0
281
     0
  0
CLASS
  1
CELLSTYLEMAP
  2
AcDbCellStyleMap
  3
ObjectDBX Classes
 90
     1152
 91
        3
280
     0
281
     0
  0
ENDSEC
  0
SECTION
  2
TABLES
  0
TABLE
  2
VPORT
  5
8
330
0
100
AcDbSymbolTable
 70
     1
  0
VPORT
  5
29
330
8
100
AcDbSymbolTableRecord
100
AcDbViewportTableRecord
  2
*Active
 70
     0
 10
0.0
 20
0.0
 11
1.0
 21
1.0
 12
10.42990654205607
 22
4.5
 13
0.0
 23
0.0
 14
0.5
 24
0.5
 15
0.5
 25
0.5
 16
0.0
 26
0.0
 36
1.0
 17
0.0
 27
0.0
 37
0.0
 40
9.0
 41
1.972972972850329
 42
50.0
 43
0.0
 44
0.0
 50
0.0
 51
0.0
 71
     0
 72
   100
 73
     1
 74
     3
 75
     0
 76
     0
 77
     0
 78
     0
281
     0
 65
     1
110
0.0
120
0.0
130
0.0
111
1.0
121
0.0
131
0.0
112
0.0
122
1.0
132
0.0
 79
     0
146
0.0
348
2F
 60
     3
 61
     5
292
     1
282
     1
141
0.0
142
0.0
 63
   250
361
5D
  0
ENDTAB
  0
TABLE
  2
LTYPE
  5
5
330
0
100
AcDbSymbolTable
 70
     1
  0
LTYPE
  5
14
330
5
100
AcDbSymbolTableRecord
100
AcDbLinetypeTableRecord
  2
ByBlock
 70
     0
  3

 72
    65
 73
     0
 40
0.0
  0
LTYPE
  5
15
330
5
100
AcDbSymbolTableRecord
100
AcDbLinetypeTableRecord
  2
ByLayer
 70
     0
  3

 72
    65
 73
     0
 40
0.0
  0
LTYPE
  5
16
330
5
100
AcDbSymbolTableRecord
100
AcDbLinetypeTableRecord
  2
Continuous
 70
     0
  3
Solid line
 72
    65
 73
     0
 40
0.0
  0
ENDTAB
  0
TABLE
  2
LAYER
  5
2
330
0
100
AcDbSymbolTable
 70
     2
  0
LAYER
  5
10
330
2
100
AcDbSymbolTableRecord
100
AcDbLayerTableRecord
  2
0
 70
     0
 62
     7
  6
Continuous
370
    -3
390
F
347
46
348
0
  0
LAYER
  5
5F
330
2
100
AcDbSymbolTableRecord
100
AcDbLayerTableRecord
  2
Layer 1
 70
     0
 62
     7
  6
Continuous
370
    -3
390
F
347
46
348
0
  0
ENDTAB
  0
TABLE
  2
STYLE
  5
3
330
0
100
AcDbSymbolTable
 70
     1
  0
STYLE
  5
11
330
3
100
AcDbSymbolTableRecord
100
AcDbTextStyleTableRecord
  2
Standard
 70
     0
 40
0.0
 41
1.0
 50
0.0
 71
     0
 42
0.2
  3
txt
  4

  0
ENDTAB
  0
TABLE
  2
VIEW
  5
6
330
0
100
AcDbSymbolTable
 70
     0
  0
ENDTAB
  0
TABLE
  2
UCS
  5
7
330
0
100
AcDbSymbolTable
 70
     0
  0
ENDTAB
  0
TABLE
  2
APPID
  5
9
330
0
100
AcDbSymbolTable
 70
     2
  0
APPID
  5
12
330
9
100
AcDbSymbolTableRecord
100
AcDbRegAppTableRecord
  2
ACAD
 70
     0
  0
APPID
  5
5E
330
9
100
AcDbSymbolTableRecord
100
AcDbRegAppTableRecord
  2
ODA
 70
     0
  0
ENDTAB
  0
TABLE
  2
DIMSTYLE
  5
A
330
0
100
AcDbSymbolTable
 70
     1
100
AcDbDimStyleTable
  0
DIMSTYLE
105
27
330
A
100
AcDbSymbolTableRecord
100
AcDbDimStyleTableRecord
  2
Standard
 70
     0
178
     0
340
11
  0
ENDTAB
  0
TABLE
  2
BLOCK_RECORD
  5
1
330
0
100
AcDbSymbolTable
 70
     1
  0
BLOCK_RECORD
  5
1F
330
1
100
AcDbSymbolTableRecord
100
AcDbBlockTableRecord
  2
*Model_Space
340
22
 70
     0
280
     1
281
     0
  0
BLOCK_RECORD
  5
1B
330
1
100
AcDbSymbolTableRecord
100
AcDbBlockTableRecord
  2
*Paper_Space
340
1E
 70
     0
280
     1
281
     0
  0
BLOCK_RECORD
  5
23
330
1
100
AcDbSymbolTableRecord
100
AcDbBlockTableRecord
  2
*Paper_Space0
340
26
 70
     0
280
     1
281
     0
  0
ENDTAB
  0
ENDSEC
  0
SECTION
  2
BLOCKS
  0
BLOCK
  5
20
330
1F
100
AcDbEntity
  8
0
100
AcDbBlockBegin
  2
*Model_Space
 70
     0
 10
0.0
 20
0.0
 30
0.0
  3
*Model_Space
  1

  0
ENDBLK
  5
21
330
1F
100
AcDbEntity
  8
0
100
AcDbBlockEnd
  0
BLOCK
  5
1C
330
1B
100
AcDbEntity
 67
     1
  8
0
100
AcDbBlockBegin
  2
*Paper_Space
 70
     0
 10
0.0
 20
0.0
 30
0.0
  3
*Paper_Space
  1

  0
ENDBLK
  5
1D
330
1B
100
AcDbEntity
 67
     1
  8
0
100
AcDbBlockEnd
  0
BLOCK
  5
24
330
23
100
AcDbEntity
  8
0
100
AcDbBlockBegin
  2
*Paper_Space0
 70
     0
 10
0.0
 20
0.0
 30
0.0
  3
*Paper_Space0
  1

  0
ENDBLK
  5
25
330
23
100
AcDbEntity
  8
0
100
AcDbBlockEnd
  0
ENDSEC
  0
SECTION
  2
ENTITIES
  0
LWPOLYLINE
  5
60
330
1F
100
AcDbEntity
  8
Layer 1
 62
   250
370
     9
100
AcDbPolyline
 90
        5
 70
     1
 43
0.0
 10
578.9693
 20
-180.4936
 10
933.0231
 20
-180.4936
 10
933.0231
 20
363.9076
 10
578.9693
 20
363.9076
 10
578.9693
 20
-180.4936
  0
LWPOLYLINE
  5
61
330
1F
100
AcDbEntity
  8
Layer 1
 62
     7
370
     9
100
AcDbPolyline
 90
        2
 70
     0
 43
0.0
 10
708.2843
 20
325.278
 10
829.5682
 20
325.278
  0
LWPOLYLINE
  5
62
330
1F
100
AcDbEntity
  8
Layer 1
 62
     7
370
     9
100
AcDbPolyline
 90
        2
 70
     0
 43
0.0
 10
745.3981
 20
-124.4199
 10
829.5682
 20
-124.4199
  0
LWPOLYLINE
  5
63
330
1F
100
AcDbEntity
  8
Layer 1
 62
     7
370
     9
100
AcDbPolyline
 90
        2
 70
     0
 43
0.0
 10
811.1223
 20
-124.4199
 10
811.1223
 20
325.2819
  0
LWPOLYLINE
  5
64
330
1F
100
AcDbEntity
  8
Layer 1
 62
     7
370
    20
100
AcDbPolyline
 90
      289
 70
     1
 43
0.0
 10
693.6248
 20
127.0063
 10
695.6967
 20
125.6382
 10
697.5419
 20
124.2321
 10
699.1701
 20
122.753
 10
700.5907
 20
121.1663
 10
701.8135
 20
119.4371
 10
702.8478
 20
117.5306
 10
703.7034
 20
115.4121
 10
704.3898
 20
113.0467
 10
704.8195
 20
110.7261
 10
705.0881
 20
108.1289
 10
705.2294
 20
105.3401
 10
705.2771
 20
102.4445
 10
705.265
 20
99.5271
 10
705.2267
 20
96.6727
 10
705.1959
 20
93.9662
 10
705.2065
 20
91.4925
 10
705.6262
 20
69.5315
 10
706.0856
 20
47.5604
 10
706.5748
 20
25.5824
 10
707.0839
 20
3.6004
 10
707.6028
 20
-18.3826
 10
708.1218
 20
-40.3635
 10
708.6307
 20
-62.3394
 10
709.1196
 20
-84.3071
 10
709.1506
 20
-86.6728
 10
709.1466
 20
-89.9264
 10
709.1335
 20
-93.8084
 10
709.1376
 20
-98.0593
 10
709.1846
 20
-102.4195
 10
709.3008
 20
-106.6297
 10
709.5121
 20
-110.4302
 10
709.8446
 20
-113.5616
 10
710.0225
 20
-114.6218
 10
710.2336
 20
-115.4956
 10
710.51
 20
-116.2088
 10
710.8837
 20
-116.787
 10
711.3869
 20
-117.256
 10
712.0515
 20
-117.6415
 10
712.9098
 20
-117.9692
 10
713.9936
 20
-118.2649
 10
714.8237
 20
-118.4467
 10
715.6777
 20
-118.6103
 10
716.5336
 20
-118.7631
 10
717.3692
 20
-118.9121
 10
718.1623
 20
-119.0647
 10
718.8908
 20
-119.2281
 10
719.5324
 20
-119.4095
 10
720.0651
 20
-119.6162
 10
720.2694
 20
-121.8977
 10
720.3014
 20
-124.1623
 10
720.2486
 20
-126.3585
 10
720.1984
 20
-128.4347
 10
720.2384
 20
-130.3394
 10
720.456
 20
-132.0211
 10
720.9387
 20
-133.4283
 10
721.7738
 20
-134.5093
 10
722.4634
 20
-135.2045
 10
722.8685
 20
-135.8323
 10
723.0534
 20
-136.4207
 10
723.0825
 20
-136.9982
 10
723.0202
 20
-137.5928
 10
722.9308
 20
-138.2328
 10
722.8786
 20
-138.9465
 10
722.928
 20
-139.762
 10
722.9883
 20
-140.0863
 10
723.0447
 20
-140.2295
 10
723.0932
 20
-140.2606
 10
723.1297
 20
-140.2488
 10
723.1504
 20
-140.2634
 10
723.1512
 20
-140.3733
 10
723.1282
 20
-140.6479
 10
723.0775
 20
-141.1562
 10
722.9888
 20
-141.7531
 10
722.8882
 20
-142.1073
 10
722.7953
 20
-142.3074
 10
722.7298
 20
-142.4418
 10
722.7113
 20
-142.599
 10
722.7595
 20
-142.8677
 10
722.8941
 20
-143.3363
 10
723.1347
 20
-144.0934
 10
723.0962
 20
-144.7842
 10
723.0955
 20
-145.3514
 10
723.1435
 20
-145.8193
 10
723.2511
 20
-146.2124
 10
723.4293
 20
-146.5552
 10
723.6888
 20
-146.8721
 10
724.0407
 20
-147.1875
 10
724.4958
 20
-147.5258
 10
724.8393
 20
-147.7626
 10
725.161
 20
-147.9729
 10
725.4727
 20
-148.161
 10
725.7862
 20
-148.3311
 10
726.1133
 20
-148.4874
 10
726.4658
 20
-148.634
 10
726.8555
 20
-148.7752
 10
727.2943
 20
-148.9152
 10
728.1789
 20
-149.158
 10
729.1178
 20
-149.3729
 10
730.0966
 20
-149.5585
 10
731.101
 20
-149.7137
 10
732.1166
 20
-149.8373
 10
733.129
 20
-149.928
 10
734.1239
 20
-149.9845
 10
735.087
 20
-150.0058
 10
735.916
 20
-149.9792
 10
736.7805
 20
-149.9882
 10
737.6713
 20
-150.023
 10
738.5792
 20
-150.0742
 10
739.4951
 20
-150.1318
 10
740.4097
 20
-150.1864
 10
741.3139
 20
-150.2283
 10
742.1985
 20
-150.2478
 10
743.1739
 20
-150.2405
 10
744.1417
 20
-150.2121
 10
745.1033
 20
-150.1688
 10
746.0599
 20
-150.117
 10
747.0131
 20
-150.063
 10
747.9641
 20
-150.013
 10
748.9144
 20
-149.9734
 10
749.8654
 20
-149.9505
 10
750.7265
 20
-149.8709
 10
751.5532
 20
-149.7716
 10
752.3562
 20
-149.6541
 10
753.1464
 20
-149.5205
 10
753.9345
 20
-149.3723
 10
754.7313
 20
-149.2115
 10
755.5476
 20
-149.0397
 10
756.3941
 20
-148.8587
 10
757.4786
 20
-148.6202
 10
758.3104
 20
-148.4052
 10
758.9276
 20
-148.179
 10
759.3684
 20
-147.9067
 10
759.671
 20
-147.5535
 10
759.8735
 20
-147.0845
 10
760.0142
 20
-146.465
 10
760.1311
 20
-145.66
 10
760.277
 20
-144.3259
 10
760.3174
 20
-143.4684
 10
760.2827
 20
-142.9716
 10
760.203
 20
-142.7197
 10
760.1083
 20
-142.5968
 10
760.0291
 20
-142.4871
 10
759.9953
 20
-142.2748
 10
760.0372
 20
-141.844
 10
760.1089
 20
-141.509
 10
760.1848
 20
-141.337
 10
760.2595
 20
-141.2661
 10
760.3273
 20
-141.2341
 10
760.3828
 20
-141.1791
 10
760.4204
 20
-141.0392
 10
760.4348
 20
-140.7523
 10
760.4202
 20
-140.2564
 10
760.3882
 20
-139.7766
 10
760.3511
 20
-139.4988
 10
760.3085
 20
-139.3671
 10
760.2599
 20
-139.3257
 10
760.2048
 20
-139.3188
 10
760.1427
 20
-139.2904
 10
760.0732
 20
-139.1848
 10
759.9959
 20
-138.9461
 10
759.8759
 20
-138.4972
 10
759.8052
 20
-138.2682
 10
759.7781
 20
-138.1932
 10
759.7888
 20
-138.206
 10
759.8318
 20
-138.2406
 10
759.9013
 20
-138.2308
 10
759.9917
 20
-138.1105
 10
760.0973
 20
-137.8138
 10
760.3114
 20
-137.0007
 10
760.4147
 20
-136.5084
 10
760.4241
 20
-136.2416
 10
760.3565
 20
-136.1051
 10
760.229
 20
-136.0037
 10
760.0585
 20
-135.8423
 10
759.8619
 20
-135.5257
 10
759.6563
 20
-134.9586
 10
760.3466
 20
-134.119
 10
760.9563
 20
-133.6312
 10
761.4796
 20
-133.3312
 10
761.9104
 20
-133.0551
 10
762.2428
 20
-132.639
 10
762.4709
 20
-131.9191
 10
762.5885
 20
-130.7313
 10
762.5899
 20
-128.9119
 10
762.5534
 20
-127.8692
 10
762.5025
 20
-126.6793
 10
762.4482
 20
-125.3947
 10
762.4014
 20
-124.0678
 10
762.3732
 20
-122.7513
 10
762.3745
 20
-121.4976
 10
762.4164
 20
-120.3593
 10
762.5098
 20
-119.3889
 10
762.8483
 20
-116.2915
 10
762.9982
 20
-113.3993
 10
763.0153
 20
-110.7227
 10
762.9553
 20
-108.2718
 10
762.8738
 20
-106.0568
 10
762.8265
 20
-104.088
 10
762.8691
 20
-102.3757
 10
763.0573
 20
-100.9301
 10
763.2915
 20
-99.5151
 10
763.3721
 20
-97.8968
 10
763.3356
 20
-96.1375
 10
763.2186
 20
-94.2997
 10
763.0577
 20
-92.4458
 10
762.8895
 20
-90.6382
 10
762.7506
 20
-88.9394
 10
762.6776
 20
-87.4117
 10
762.2136
 20
-64.5715
 10
761.7199
 20
-41.7291
 10
761.2089
 20
-18.8861
 10
760.6931
 20
3.956
 10
760.185
 20
26.7955
 10
759.697
 20
49.6309
 10
759.2416
 20
72.4606
 10
758.8312
 20
95.283
 10
758.7651
 20
98.2609
 10
758.6832
 20
100.9063
 10
758.5997
 20
103.336
 10
758.5287
 20
105.6669
 10
758.4844
 20
108.016
 10
758.4809
 20
110.5
 10
758.5323
 20
113.2359
 10
758.6528
 20
116.3406
 10
758.8032
 20
119.0749
 10
759.035
 20
121.6691
 10
759.4251
 20
124.1232
 10
760.0505
 20
126.4375
 10
760.9883
 20
128.6121
 10
762.3155
 20
130.6472
 10
764.1091
 20
132.5429
 10
766.4461
 20
134.2994
 10
768.0228
 20
135.3314
 10
769.509
 20
136.3567
 10
770.9105
 20
137.387
 10
772.2334
 20
138.4339
 10
773.4835
 20
139.5091
 10
774.6667
 20
140.6242
 10
775.7891
 20
141.7908
 10
776.8564
 20
143.0207
 10
786.2459
 20
157.7141
 10
792.2711
 20
174.2642
 10
795.2094
 20
192.0567
 10
795.3384
 20
210.4771
 10
792.9355
 20
228.9109
 10
788.2783
 20
246.7437
 10
781.6442
 20
263.3609
 10
773.3107
 20
278.1482
 10
767.0894
 20
286.6548
 10
759.9706
 20
294.8469
 10
752.1306
 20
302.5082
 10
743.7457
 20
309.4222
 10
734.9923
 20
315.3727
 10
726.0467
 20
320.1431
 10
717.0852
 20
323.5173
 10
708.2841
 20
325.2787
 10
703.5142
 20
325.08
 10
697.8382
 20
324.3848
 10
691.5425
 20
323.2737
 10
684.9136
 20
321.8274
 10
678.2378
 20
320.1263
 10
671.8017
 20
318.251
 10
665.8915
 20
316.2822
 10
660.7939
 20
314.3003
 10
654.691
 20
309.7024
 10
649.3065
 20
304.595
 10
644.615
 20
299.0284
 10
640.5907
 20
293.0524
 10
637.2082
 20
286.717
 10
634.4419
 20
280.0722
 10
632.2661
 20
273.1681
 10
630.6553
 20
266.0546
 10
628.7881
 20
247.2204
 10
629.9344
 20
228.1397
 10
633.8702
 20
209.2156
 10
640.3715
 20
190.8512
 10
649.2141
 20
173.4495
 10
660.1741
 20
157.4136
 10
673.0275
 20
143.1468
 10
687.55
 20
131.0519
 10
688.2976
 20
130.5245
 10
689.0486
 20
130.0031
 10
689.803
 20
129.4879
 10
690.5607
 20
128.9789
 10
691.3218
 20
128.4761
 10
692.0862
 20
127.9797
 10
692.8539
 20
127.4898
 10
693.6248
 20
127.0063
  0
LWPOLYLINE
  5
65
330
1F
100
AcDbEntity
  8
Layer 1
 62
     7
370
    18
100
AcDbPolyline
 90
       39
 70
     1
 43
0.0
 10
759.3404
 20
123.6975
 10
759.677
 20
125.1966
 10
758.7669
 20
124.9206
 10
756.3646
 20
124.1229
 10
752.9621
 20
122.8495
 10
749.0515
 20
121.1461
 10
745.1247
 20
119.0584
 10
741.6738
 20
116.6323
 10
739.1908
 20
113.9136
 10
738.1677
 20
110.9479
 10
738.0645
 20
107.0224
 10
738.0065
 20
101.7732
 10
737.984
 20
95.7696
 10
737.9874
 20
89.5809
 10
738.007
 20
83.7764
 10
738.033
 20
78.9255
 10
738.0557
 20
75.5975
 10
738.0654
 20
74.3616
 10
742.3426
 20
-124.4207
 10
746.1093
 20
-123.4813
 10
744.6869
 20
-119.6679
 10
741.0229
 20
53.6856
 10
739.6359
 20
103.1679
 10
739.5885
 20
103.3983
 10
739.4768
 20
104.0403
 10
739.3467
 20
105.0201
 10
739.2441
 20
106.2639
 10
739.2148
 20
107.6979
 10
739.3047
 20
109.2483
 10
739.5597
 20
110.8413
 10
740.0256
 20
112.403
 10
741.3047
 20
114.0533
 10
743.7035
 20
115.8795
 10
746.8244
 20
117.7597
 10
750.2697
 20
119.5718
 10
753.6416
 20
121.1937
 10
756.5425
 20
122.5033
 10
758.5746
 20
123.3786
 10
759.3404
 20
123.6975
  0
LWPOLYLINE
  5
66
330
1F
100
AcDbEntity
  8
Layer 1
 62
     7
370
    20
100
AcDbPolyline
 90
       41
 70
     0
 43
0.0
 10
660.7939
 20
314.3003
 10
661.9288
 20
314.9379
 10
665.224
 20
316.3956
 10
670.5149
 20
317.9909
 10
677.6373
 20
319.0413
 10
686.4266
 20
318.8643
 10
696.7186
 20
316.7773
 10
708.3487
 20
312.0979
 10
721.1526
 20
304.1435
 10
731.1957
 20
295.6559
 10
740.6039
 20
285.5783
 10
749.2258
 20
274.2142
 10
756.9099
 20
261.8673
 10
763.5047
 20
248.841
 10
768.8589
 20
235.4392
 10
772.8208
 20
221.9653
 10
775.2391
 20
208.7229
 10
775.7587
 20
203.5251
 10
776.0566
 20
198.1595
 10
776.1176
 20
192.6664
 10
775.9262
 20
187.0857
 10
775.4674
 20
181.4575
 10
774.7256
 20
175.822
 10
773.6857
 20
170.2192
 10
772.3323
 20
164.6892
 10
770.48
 20
158.7853
 10
768.216
 20
153.0678
 10
765.5206
 20
147.5887
 10
762.3738
 20
142.4002
 10
758.7557
 20
137.5545
 10
754.6465
 20
133.1035
 10
750.0262
 20
129.0995
 10
744.8749
 20
125.5946
 10
742.373
 20
121.6506
 10
740.6731
 20
118.1807
 10
739.6306
 20
115.2008
 10
739.1015
 20
112.727
 10
738.9411
 20
110.7751
 10
739.0053
 20
109.3612
 10
739.1497
 20
108.5011
 10
739.2299
 20
108.2109
  0
LWPOLYLINE
  5
67
330
1F
100
AcDbEntity
  8
Layer 1
 62
     7
370
    18
100
AcDbPolyline
 90
       49
 70
     1
 43
0.0
 10
762.011
 20
147.3446
 10
769.0735
 20
168.5908
 10
771.5475
 20
191.1135
 10
769.7534
 20
214.1067
 10
764.0117
 20
236.7644
 10
754.6427
 20
258.2809
 10
741.9668
 20
277.8501
 10
726.3045
 20
294.6661
 10
707.9762
 20
307.9229
 10
698.6005
 20
312.2764
 10
689.8969
 20
314.5745
 10
682.0436
 20
315.2717
 10
675.2187
 20
314.8226
 10
669.6003
 20
313.682
 10
665.3667
 20
312.3044
 10
662.6959
 20
311.1444
 10
661.766
 20
310.6567
 10
660.9649
 20
310.2056
 10
658.7769
 20
308.7845
 10
655.5253
 20
306.2916
 10
651.5333
 20
302.6251
 10
647.1241
 20
297.6833
 10
642.6208
 20
291.3643
 10
638.3467
 20
283.5664
 10
634.625
 20
274.1878
 10
632.0765
 20
263.719
 10
630.8953
 20
253.0467
 10
630.7647
 20
242.664
 10
631.368
 20
233.0638
 10
632.3886
 20
224.7388
 10
633.5097
 20
218.1822
 10
634.4146
 20
213.8868
 10
634.7866
 20
212.3454
 10
635.3197
 20
209.7683
 10
637.1813
 20
202.7372
 10
640.7643
 20
192.3025
 10
646.4619
 20
179.5144
 10
654.6673
 20
165.4232
 10
665.7736
 20
151.0794
 10
680.1739
 20
137.5332
 10
698.2613
 20
125.8349
 10
714.1258
 20
121.1922
 10
727.5083
 20
121.0158
 10
738.5218
 20
124.1199
 10
747.2794
 20
129.3187
 10
753.894
 20
135.4263
 10
758.4788
 20
141.257
 10
761.1468
 20
145.6251
 10
762.011
 20
147.3446
  0
LWPOLYLINE
  5
68
330
1F
100
AcDbEntity
  8
Layer 1
 62
     7
370
     9
100
AcDbPolyline
 90
       17
 70
     1
 43
0.0
 10
677.5047
 20
254.8355
 10
691.1868
 20
256.1286
 10
703.4064
 20
250.5943
 10
713.5919
 20
240.0265
 10
721.1712
 20
226.2191
 10
725.5726
 20
210.9661
 10
726.2242
 20
196.0613
 10
722.5543
 20
183.2988
 10
713.9908
 20
174.4723
 10
701.6989
 20
171.8428
 10
689.8235
 20
176.4038
 10
679.2608
 20
186.3709
 10
670.907
 20
199.9594
 10
665.6583
 20
215.3847
 10
664.4109
 20
230.8622
 10
668.0609
 20
244.6073
 10
677.5047
 20
254.8355
  0
LWPOLYLINE
  5
69
330
1F
100
AcDbEntity
  8
Layer 1
 62
     7
370
     9
100
AcDbPolyline
 90
       17
 70
     1
 43
0.0
 10
680.5552
 20
247.8909
 10
691.9023
 20
248.9633
 10
702.0366
 20
244.3734
 10
710.4838
 20
235.6091
 10
716.7697
 20
224.158
 10
720.4199
 20
211.508
 10
720.9603
 20
199.1469
 10
717.9166
 20
188.5623
 10
710.8146
 20
181.2422
 10
700.6204
 20
179.0614
 10
690.7717
 20
182.8441
 10
682.0116
 20
191.1102
 10
675.0834
 20
202.3797
 10
670.7304
 20
215.1726
 10
669.6959
 20
228.0088
 10
672.7231
 20
239.4082
 10
680.5552
 20
247.8909
  0
LWPOLYLINE
  5
6A
330
1F
100
AcDbEntity
  8
Layer 1
 62
     7
370
    18
100
AcDbPolyline
 90
       33
 70
     1
 43
0.0
 10
677.4218
 20
301.2054
 10
678.031
 20
301.0477
 10
678.5798
 20
300.7801
 10
679.0577
 20
300.4169
 10
679.4543
 20
299.9724
 10
679.7591
 20
299.4609
 10
679.9615
 20
298.8968
 10
680.051
 20
298.2943
 10
680.0173
 20
297.6678
 10
679.8591
 20
297.0602
 10
679.5906
 20
296.5128
 10
679.2261
 20
296.0362
 10
678.7801
 20
295.6408
 10
678.2669
 20
295.337
 10
677.7008
 20
295.1352
 10
677.0963
 20
295.0459
 10
676.4677
 20
295.0795
 10
675.858
 20
295.2376
 10
675.3088
 20
295.5055
 10
674.8306
 20
295.8688
 10
674.4339
 20
296.3133
 10
674.129
 20
296.8248
 10
673.9266
 20
297.3891
 10
673.837
 20
297.9918
 10
673.8707
 20
298.6187
 10
674.0294
 20
299.2258
 10
674.2981
 20
299.7728
 10
674.6627
 20
300.2491
 10
675.1087
 20
300.6444
 10
675.6219
 20
300.948
 10
676.188
 20
301.1498
 10
676.7927
 20
301.239
 10
677.4218
 20
301.2054
  0
LWPOLYLINE
  5
6B
330
1F
100
AcDbEntity
  8
Layer 1
 62
     7
370
    18
100
AcDbPolyline
 90
       33
 70
     1
 43
0.0
 10
690.0459
 20
300.2991
 10
690.6556
 20
300.141
 10
691.2048
 20
299.8731
 10
691.683
 20
299.5098
 10
692.0797
 20
299.0653
 10
692.3846
 20
298.5538
 10
692.587
 20
297.9896
 10
692.6766
 20
297.3869
 10
692.6429
 20
296.7599
 10
692.4842
 20
296.1523
 10
692.2155
 20
295.6049
 10
691.8509
 20
295.1283
 10
691.4049
 20
294.7329
 10
690.8917
 20
294.4291
 10
690.3256
 20
294.2273
 10
689.7209
 20
294.138
 10
689.0918
 20
294.1716
 10
688.4821
 20
294.3297
 10
687.9331
 20
294.5976
 10
687.4551
 20
294.9609
 10
687.0585
 20
295.4054
 10
686.7537
 20
295.9169
 10
686.5512
 20
296.4812
 10
686.4614
 20
297.0839
 10
686.4947
 20
297.7108
 10
686.6535
 20
298.3185
 10
686.9224
 20
298.8658
 10
687.2871
 20
299.3424
 10
687.7333
 20
299.7379
 10
688.2466
 20
300.0417
 10
688.8127
 20
300.2434
 10
689.4173
 20
300.3327
 10
690.0459
 20
300.2991
  0
LWPOLYLINE
  5
6C
330
1F
100
AcDbEntity
  8
Layer 1
 62
     7
370
    18
100
AcDbPolyline
 90
       33
 70
     1
 43
0.0
 10
702.6795
 20
295.3232
 10
703.2892
 20
295.1651
 10
703.8384
 20
294.8972
 10
704.3166
 20
294.5339
 10
704.7134
 20
294.0894
 10
705.0182
 20
293.5779
 10
705.2207
 20
293.0137
 10
705.3102
 20
292.411
 10
705.2765
 20
291.784
 10
705.1178
 20
291.1764
 10
704.8491
 20
290.629
 10
704.4846
 20
290.1524
 10
704.0386
 20
289.757
 10
703.5253
 20
289.4532
 10
702.9592
 20
289.2514
 10
702.3545
 20
289.1621
 10
701.7254
 20
289.1957
 10
701.1157
 20
289.3538
 10
700.5665
 20
289.6217
 10
700.0882
 20
289.985
 10
699.6915
 20
290.4295
 10
699.3866
 20
290.941
 10
699.1842
 20
291.5053
 10
699.0946
 20
292.108
 10
699.1283
 20
292.7349
 10
699.287
 20
293.3426
 10
699.5557
 20
293.8899
 10
699.9203
 20
294.3665
 10
700.3663
 20
294.762
 10
700.8795
 20
295.0658
 10
701.4457
 20
295.2675
 10
702.0504
 20
295.3568
 10
702.6795
 20
295.3232
  0
LWPOLYLINE
  5
6D
330
1F
100
AcDbEntity
  8
Layer 1
 62
     7
370
    18
100
AcDbPolyline
 90
       33
 70
     1
 43
0.0
 10
715.7782
 20
287.7192
 10
716.3879
 20
287.5611
 10
716.9369
 20
287.2932
 10
717.4149
 20
286.9299
 10
717.8115
 20
286.4854
 10
718.1162
 20
285.9739
 10
718.3187
 20
285.4096
 10
718.4085
 20
284.8069
 10
718.3752
 20
284.18
 10
718.2165
 20
283.5723
 10
717.9476
 20
283.025
 10
717.5828
 20
282.5484
 10
717.1367
 20
282.153
 10
716.6233
 20
281.8491
 10
716.0573
 20
281.6474
 10
715.4527
 20
281.5581
 10
714.8241
 20
281.5917
 10
714.2144
 20
281.7498
 10
713.6652
 20
282.0177
 10
713.1869
 20
282.381
 10
712.7902
 20
282.8255
 10
712.4853
 20
283.337
 10
712.2829
 20
283.9012
 10
712.1933
 20
284.5039
 10
712.227
 20
285.1309
 10
712.3857
 20
285.7385
 10
712.6544
 20
286.2859
 10
713.019
 20
286.7625
 10
713.465
 20
287.1579
 10
713.9782
 20
287.4617
 10
714.5444
 20
287.6635
 10
715.1491
 20
287.7528
 10
715.7782
 20
287.7192
  0
LWPOLYLINE
  5
6E
330
1F
100
AcDbEntity
  8
Layer 1
 62
     7
370
    18
100
AcDbPolyline
 90
       33
 70
     1
 43
0.0
 10
726.8951
 20
276.0057
 10
727.5048
 20
275.848
 10
728.054
 20
275.5804
 10
728.5323
 20
275.2171
 10
728.929
 20
274.7725
 10
729.2339
 20
274.2608
 10
729.4363
 20
273.6964
 10
729.5259
 20
273.0935
 10
729.4922
 20
272.4665
 10
729.3335
 20
271.8594
 10
729.0648
 20
271.3124
 10
728.7002
 20
270.8361
 10
728.2542
 20
270.4409
 10
727.741
 20
270.1372
 10
727.1748
 20
269.9355
 10
726.5701
 20
269.8462
 10
725.941
 20
269.8798
 10
725.3313
 20
270.0375
 10
724.7821
 20
270.3051
 10
724.3039
 20
270.6684
 10
723.9072
 20
271.113
 10
723.6023
 20
271.6247
 10
723.3999
 20
272.1891
 10
723.3103
 20
272.792
 10
723.344
 20
273.419
 10
723.5027
 20
274.0261
 10
723.7714
 20
274.5731
 10
724.136
 20
275.0494
 10
724.582
 20
275.4447
 10
725.0952
 20
275.7484
 10
725.6613
 20
275.9501
 10
726.266
 20
276.0394
 10
726.8951
 20
276.0057
  0
LWPOLYLINE
  5
6F
330
1F
100
AcDbEntity
  8
Layer 1
 62
     7
370
    18
100
AcDbPolyline
 90
       33
 70
     1
 43
0.0
 10
737.7244
 20
262.0719
 10
738.3341
 20
261.9138
 10
738.8833
 20
261.6459
 10
739.3616
 20
261.2826
 10
739.7583
 20
260.8381
 10
740.0632
 20
260.3266
 10
740.2656
 20
259.7624
 10
740.3552
 20
259.1597
 10
740.3215
 20
258.5327
 10
740.1628
 20
257.9251
 10
739.8941
 20
257.3777
 10
739.5295
 20
256.9011
 10
739.0835
 20
256.5057
 10
738.5703
 20
256.2019
 10
738.0041
 20
256.0001
 10
737.3994
 20
255.9108
 10
736.7703
 20
255.9444
 10
736.1611
 20
256.1025
 10
735.6123
 20
256.3704
 10
735.1343
 20
256.7337
 10
734.7376
 20
257.1782
 10
734.4327
 20
257.6897
 10
734.2301
 20
258.254
 10
734.1401
 20
258.8567
 10
734.1733
 20
259.4836
 10
734.3321
 20
260.0913
 10
734.601
 20
260.6386
 10
734.9657
 20
261.1152
 10
735.4119
 20
261.5107
 10
735.9252
 20
261.8145
 10
736.4913
 20
262.0162
 10
737.0958
 20
262.1055
 10
737.7244
 20
262.0719
  0
LWPOLYLINE
  5
70
330
1F
100
AcDbEntity
  8
Layer 1
 62
     7
370
    18
100
AcDbPolyline
 90
       33
 70
     1
 43
0.0
 10
746.1037
 20
246.2506
 10
746.7134
 20
246.0925
 10
747.2626
 20
245.8246
 10
747.7408
 20
245.4613
 10
748.1376
 20
245.0168
 10
748.4424
 20
244.5053
 10
748.6449
 20
243.9411
 10
748.7344
 20
243.3384
 10
748.7007
 20
242.7114
 10
748.542
 20
242.1038
 10
748.2733
 20
241.5564
 10
747.9087
 20
241.0798
 10
747.4627
 20
240.6844
 10
746.9495
 20
240.3806
 10
746.3834
 20
240.1788
 10
745.7787
 20
240.0895
 10
745.1496
 20
240.1231
 10
744.5399
 20
240.2812
 10
743.9907
 20
240.5491
 10
743.5124
 20
240.9124
 10
743.1157
 20
241.3569
 10
742.8108
 20
241.8684
 10
742.6084
 20
242.4327
 10
742.5188
 20
243.0354
 10
742.5525
 20
243.6623
 10
742.7112
 20
244.27
 10
742.9799
 20
244.8173
 10
743.3445
 20
245.2939
 10
743.7905
 20
245.6894
 10
744.3037
 20
245.9932
 10
744.8699
 20
246.1949
 10
745.4746
 20
246.2842
 10
746.1037
 20
246.2506
  0
LWPOLYLINE
  5
71
330
1F
100
AcDbEntity
  8
Layer 1
 62
     7
370
    18
100
AcDbPolyline
 90
       33
 70
     1
 43
0.0
 10
752.5875
 20
228.7473
 10
753.1972
 20
228.5896
 10
753.7464
 20
228.322
 10
754.2247
 20
227.9587
 10
754.6214
 20
227.5141
 10
754.9263
 20
227.0024
 10
755.1287
 20
226.438
 10
755.2183
 20
225.8351
 10
755.1846
 20
225.2081
 10
755.0259
 20
224.601
 10
754.7572
 20
224.054
 10
754.3926
 20
223.5777
 10
753.9466
 20
223.1825
 10
753.4334
 20
222.8788
 10
752.8672
 20
222.6771
 10
752.2625
 20
222.5878
 10
751.6334
 20
222.6214
 10
751.0237
 20
222.7791
 10
750.4745
 20
223.0468
 10
749.9963
 20
223.4101
 10
749.5995
 20
223.8547
 10
749.2947
 20
224.3663
 10
749.0923
 20
224.9307
 10
749.0027
 20
225.5336
 10
749.0364
 20
226.1606
 10
749.1951
 20
226.7677
 10
749.4638
 20
227.3147
 10
749.8283
 20
227.791
 10
750.2744
 20
228.1863
 10
750.7876
 20
228.49
 10
751.3537
 20
228.6917
 10
751.9584
 20
228.781
 10
752.5875
 20
228.7473
  0
LWPOLYLINE
  5
72
330
1F
100
AcDbEntity
  8
Layer 1
 62
     7
370
    18
100
AcDbPolyline
 90
       33
 70
     1
 43
0.0
 10
756.233
 20
210.986
 10
756.8427
 20
210.8279
 10
757.3919
 20
210.56
 10
757.8701
 20
210.1967
 10
758.2668
 20
209.7522
 10
758.5717
 20
209.2407
 10
758.7741
 20
208.6765
 10
758.8637
 20
208.0738
 10
758.83
 20
207.4468
 10
758.6713
 20
206.8392
 10
758.4026
 20
206.2918
 10
758.038
 20
205.8152
 10
757.592
 20
205.4198
 10
757.0788
 20
205.116
 10
756.5127
 20
204.9142
 10
755.908
 20
204.8249
 10
755.2789
 20
204.8585
 10
754.6697
 20
205.0166
 10
754.1209
 20
205.2845
 10
753.6429
 20
205.6478
 10
753.2462
 20
206.0923
 10
752.9412
 20
206.6038
 10
752.7386
 20
207.1681
 10
752.6486
 20
207.7708
 10
752.6818
 20
208.3977
 10
752.8406
 20
209.0054
 10
753.1095
 20
209.5527
 10
753.4742
 20
210.0293
 10
753.9204
 20
210.4248
 10
754.4337
 20
210.7286
 10
754.9998
 20
210.9303
 10
755.6044
 20
211.0196
 10
756.233
 20
210.986
  0
LWPOLYLINE
  5
73
330
1F
100
AcDbEntity
  8
Layer 1
 62
     7
370
    18
100
AcDbPolyline
 90
       33
 70
     1
 43
0.0
 10
757.0896
 20
193.6564
 10
757.6993
 20
193.4982
 10
758.2485
 20
193.2304
 10
758.7267
 20
192.867
 10
759.1235
 20
192.4225
 10
759.4283
 20
191.911
 10
759.6308
 20
191.3468
 10
759.7203
 20
190.7441
 10
759.6866
 20
190.1172
 10
759.5279
 20
189.5096
 10
759.2592
 20
188.9624
 10
758.8946
 20
188.486
 10
758.4486
 20
188.0907
 10
757.9354
 20
187.787
 10
757.3693
 20
187.5852
 10
756.7646
 20
187.4957
 10
756.1355
 20
187.5289
 10
755.5258
 20
187.6871
 10
754.9766
 20
187.9551
 10
754.4983
 20
188.3186
 10
754.1016
 20
188.7633
 10
753.7967
 20
189.2749
 10
753.5943
 20
189.8391
 10
753.5047
 20
190.4416
 10
753.5384
 20
191.0681
 10
753.6971
 20
191.6757
 10
753.9658
 20
192.2231
 10
754.3304
 20
192.6997
 10
754.7764
 20
193.0951
 10
755.2896
 20
193.3989
 10
755.8558
 20
193.6007
 10
756.4605
 20
193.69
 10
757.0896
 20
193.6564
  0
LWPOLYLINE
  5
74
330
1F
100
AcDbEntity
  8
Layer 1
 62
     7
370
    18
100
AcDbPolyline
 90
       33
 70
     1
 43
0.0
 10
755.2996
 20
177.6662
 10
755.9088
 20
177.5081
 10
756.4576
 20
177.2402
 10
756.9355
 20
176.8769
 10
757.3321
 20
176.4324
 10
757.6369
 20
175.9209
 10
757.8393
 20
175.3567
 10
757.9288
 20
174.754
 10
757.8951
 20
174.127
 10
757.7369
 20
173.5194
 10
757.4683
 20
172.972
 10
757.1038
 20
172.4954
 10
756.6577
 20
172.1
 10
756.1443
 20
171.7962
 10
755.578
 20
171.5944
 10
754.9731
 20
171.5051
 10
754.3439
 20
171.5387
 10
753.7347
 20
171.6968
 10
753.1859
 20
171.9647
 10
752.708
 20
172.328
 10
752.3114
 20
172.7725
 10
752.0067
 20
173.284
 10
751.8043
 20
173.8483
 10
751.7148
 20
174.451
 10
751.7485
 20
175.0779
 10
751.9067
 20
175.6856
 10
752.1753
 20
176.2329
 10
752.5398
 20
176.7095
 10
752.9859
 20
177.105
 10
753.4993
 20
177.4088
 10
754.0656
 20
177.6105
 10
754.6705
 20
177.6998
 10
755.2996
 20
177.6662
  0
LWPOLYLINE
  5
75
330
1F
100
AcDbEntity
  8
Layer 1
 62
     7
370
    18
100
AcDbPolyline
 90
       33
 70
     1
 43
0.0
 10
750.716
 20
163.9666
 10
751.3257
 20
163.8084
 10
751.8749
 20
163.5406
 10
752.3532
 20
163.1772
 10
752.7499
 20
162.7327
 10
753.0548
 20
162.2212
 10
753.2572
 20
161.657
 10
753.3468
 20
161.0543
 10
753.3131
 20
160.4273
 10
753.1544
 20
159.8197
 10
752.8857
 20
159.2723
 10
752.5211
 20
158.7957
 10
752.0751
 20
158.4003
 10
751.5619
 20
158.0965
 10
750.9957
 20
157.8947
 10
750.391
 20
157.8054
 10
749.7619
 20
157.839
 10
749.1522
 20
157.9972
 10
748.603
 20
158.265
 10
748.1248
 20
158.6284
 10
747.7281
 20
159.0729
 10
747.4232
 20
159.5844
 10
747.2208
 20
160.1486
 10
747.1312
 20
160.7513
 10
747.1649
 20
161.3782
 10
747.3236
 20
161.9859
 10
747.5923
 20
162.5332
 10
747.9569
 20
163.0099
 10
748.4029
 20
163.4053
 10
748.9161
 20
163.7091
 10
749.4822
 20
163.9109
 10
750.0869
 20
164.0002
 10
750.716
 20
163.9666
  0
LWPOLYLINE
  5
76
330
1F
100
AcDbEntity
  8
Layer 1
 62
     7
370
    18
100
AcDbPolyline
 90
       33
 70
     1
 43
0.0
 10
744.6653
 20
152.8185
 10
745.275
 20
152.6603
 10
745.8242
 20
152.3923
 10
746.3025
 20
152.0288
 10
746.6992
 20
151.5841
 10
747.0041
 20
151.0725
 10
747.2065
 20
150.5083
 10
747.2961
 20
149.9058
 10
747.2624
 20
149.2793
 10
747.1037
 20
148.6717
 10
746.835
 20
148.1243
 10
746.4704
 20
147.6477
 10
746.0244
 20
147.2523
 10
745.5112
 20
146.9485
 10
744.945
 20
146.7467
 10
744.3403
 20
146.6574
 10
743.7112
 20
146.691
 10
743.1015
 20
146.8491
 10
742.5523
 20
147.117
 10
742.0741
 20
147.4803
 10
741.6773
 20
147.9248
 10
741.3725
 20
148.4363
 10
741.1701
 20
149.0006
 10
741.0805
 20
149.6033
 10
741.1142
 20
150.2302
 10
741.2729
 20
150.8373
 10
741.5416
 20
151.3843
 10
741.9062
 20
151.8607
 10
742.3522
 20
152.2561
 10
742.8654
 20
152.56
 10
743.4315
 20
152.762
 10
744.0362
 20
152.8516
 10
744.6653
 20
152.8185
  0
LWPOLYLINE
  5
77
330
1F
100
AcDbEntity
  8
Layer 1
 62
     7
370
    18
100
AcDbPolyline
 90
       33
 70
     1
 43
0.0
 10
735.8354
 20
144.7733
 10
736.4446
 20
144.6151
 10
736.9933
 20
144.3471
 10
737.4713
 20
143.9836
 10
737.8678
 20
143.5389
 10
738.1726
 20
143.0273
 10
738.375
 20
142.4631
 10
738.4645
 20
141.8606
 10
738.4308
 20
141.2341
 10
738.2726
 20
140.6264
 10
738.0041
 20
140.0791
 10
737.6396
 20
139.6025
 10
737.1936
 20
139.2071
 10
736.6804
 20
138.9032
 10
736.1144
 20
138.7015
 10
735.5099
 20
138.6122
 10
734.8813
 20
138.6458
 10
734.2716
 20
138.8039
 10
733.7224
 20
139.0718
 10
733.2441
 20
139.4351
 10
732.8474
 20
139.8796
 10
732.5425
 20
140.3911
 10
732.3401
 20
140.9553
 10
732.2505
 20
141.558
 10
732.2842
 20
142.185
 10
732.4429
 20
142.7921
 10
732.7116
 20
143.3391
 10
733.0762
 20
143.8155
 10
733.5222
 20
144.2109
 10
734.0354
 20
144.5147
 10
734.6016
 20
144.7167
 10
735.2063
 20
144.8064
 10
735.8354
 20
144.7733
  0
LWPOLYLINE
  5
78
330
1F
100
AcDbEntity
  8
Layer 1
 62
     7
370
    18
100
AcDbPolyline
 90
       33
 70
     1
 43
0.0
 10
725.1851
 20
140.0284
 10
725.7948
 20
139.8702
 10
726.344
 20
139.6024
 10
726.8222
 20
139.239
 10
727.219
 20
138.7945
 10
727.5238
 20
138.283
 10
727.7263
 20
137.7188
 10
727.8158
 20
137.1161
 10
727.7821
 20
136.4891
 10
727.6234
 20
135.8815
 10
727.3547
 20
135.3341
 10
726.9901
 20
134.8575
 10
726.5441
 20
134.4621
 10
726.0309
 20
134.1583
 10
725.4648
 20
133.9565
 10
724.8601
 20
133.8672
 10
724.231
 20
133.9008
 10
723.6213
 20
134.059
 10
723.0723
 20
134.3268
 10
722.5943
 20
134.6902
 10
722.1977
 20
135.1347
 10
721.8929
 20
135.6462
 10
721.6904
 20
136.2104
 10
721.6006
 20
136.8131
 10
721.6339
 20
137.44
 10
721.7927
 20
138.0477
 10
722.0616
 20
138.595
 10
722.4263
 20
139.0717
 10
722.8725
 20
139.4671
 10
723.3858
 20
139.7709
 10
723.9519
 20
139.9727
 10
724.5565
 20
140.062
 10
725.1851
 20
140.0284
  0
LWPOLYLINE
  5
79
330
1F
100
AcDbEntity
  8
Layer 1
 62
     7
370
    18
100
AcDbPolyline
 90
       33
 70
     1
 43
0.0
 10
714.0841
 20
138.3766
 10
714.6938
 20
138.2185
 10
715.243
 20
137.9506
 10
715.7213
 20
137.5873
 10
716.118
 20
137.1428
 10
716.4229
 20
136.6313
 10
716.6253
 20
136.0671
 10
716.7149
 20
135.4644
 10
716.6812
 20
134.8374
 10
716.5225
 20
134.2298
 10
716.2538
 20
133.6824
 10
715.8892
 20
133.2058
 10
715.4432
 20
132.8104
 10
714.93
 20
132.5066
 10
714.3638
 20
132.3048
 10
713.7591
 20
132.2155
 10
713.13
 20
132.2491
 10
712.5203
 20
132.4072
 10
711.9713
 20
132.6751
 10
711.4933
 20
133.0384
 10
711.0967
 20
133.4829
 10
710.792
 20
133.9944
 10
710.5895
 20
134.5587
 10
710.4997
 20
135.1614
 10
710.533
 20
135.7883
 10
710.6918
 20
136.396
 10
710.9607
 20
136.9433
 10
711.3254
 20
137.4199
 10
711.7716
 20
137.8154
 10
712.2849
 20
138.1192
 10
712.851
 20
138.3209
 10
713.4555
 20
138.4102
 10
714.0841
 20
138.3766
  0
LWPOLYLINE
  5
7A
330
1F
100
AcDbEntity
  8
Layer 1
 62
     7
370
    18
100
AcDbPolyline
 90
       33
 70
     1
 43
0.0
 10
702.0706
 20
140.5842
 10
702.6798
 20
140.4261
 10
703.2286
 20
140.1582
 10
703.7065
 20
139.7949
 10
704.1031
 20
139.3504
 10
704.4078
 20
138.8389
 10
704.6102
 20
138.2747
 10
704.6997
 20
137.672
 10
704.666
 20
137.045
 10
704.5078
 20
136.4374
 10
704.2393
 20
135.89
 10
703.8748
 20
135.4134
 10
703.4289
 20
135.018
 10
702.9157
 20
134.7142
 10
702.3496
 20
134.5124
 10
701.7451
 20
134.4231
 10
701.1165
 20
134.4567
 10
700.5068
 20
134.6148
 10
699.9576
 20
134.8827
 10
699.4793
 20
135.246
 10
699.0826
 20
135.6905
 10
698.7777
 20
136.202
 10
698.5753
 20
136.7663
 10
698.4857
 20
137.369
 10
698.5194
 20
137.9959
 10
698.6781
 20
138.6036
 10
698.9468
 20
139.1509
 10
699.3114
 20
139.6275
 10
699.7574
 20
140.023
 10
700.2706
 20
140.3268
 10
700.8368
 20
140.5285
 10
701.4415
 20
140.6178
 10
702.0706
 20
140.5842
  0
LWPOLYLINE
  5
7B
330
1F
100
AcDbEntity
  8
Layer 1
 62
     7
370
    18
100
AcDbPolyline
 90
       33
 70
     1
 43
0.0
 10
690.0075
 20
145.471
 10
690.6172
 20
145.3133
 10
691.1664
 20
145.0457
 10
691.6447
 20
144.6824
 10
692.0414
 20
144.2379
 10
692.3463
 20
143.7264
 10
692.5487
 20
143.1623
 10
692.6383
 20
142.5598
 10
692.6046
 20
141.9333
 10
692.4459
 20
141.3257
 10
692.1772
 20
140.7783
 10
691.8126
 20
140.3017
 10
691.3666
 20
139.9063
 10
690.8534
 20
139.6025
 10
690.2872
 20
139.4007
 10
689.6825
 20
139.3114
 10
689.0534
 20
139.345
 10
688.4437
 20
139.5032
 10
687.8945
 20
139.771
 10
687.4163
 20
140.1344
 10
687.0195
 20
140.5789
 10
686.7147
 20
141.0904
 10
686.5123
 20
141.6546
 10
686.4227
 20
142.2573
 10
686.4564
 20
142.8842
 10
686.6151
 20
143.4913
 10
686.8838
 20
144.0383
 10
687.2484
 20
144.5146
 10
687.6944
 20
144.9099
 10
688.2076
 20
145.2136
 10
688.7737
 20
145.4153
 10
689.3784
 20
145.5046
 10
690.0075
 20
145.471
  0
LWPOLYLINE
  5
7C
330
1F
100
AcDbEntity
  8
Layer 1
 62
     7
370
    18
100
AcDbPolyline
 90
       33
 70
     1
 43
0.0
 10
678.5454
 20
154.217
 10
679.1546
 20
154.0588
 10
679.7033
 20
153.7908
 10
680.1813
 20
153.4273
 10
680.5778
 20
152.9826
 10
680.8826
 20
152.471
 10
681.085
 20
151.9068
 10
681.1745
 20
151.3043
 10
681.1408
 20
150.6778
 10
680.9826
 20
150.0702
 10
680.714
 20
149.5228
 10
680.3495
 20
149.0462
 10
679.9034
 20
148.6508
 10
679.39
 20
148.347
 10
678.8237
 20
148.1452
 10
678.2188
 20
148.0559
 10
677.5896
 20
148.0895
 10
676.9804
 20
148.2476
 10
676.4317
 20
148.5155
 10
675.9537
 20
148.8788
 10
675.5572
 20
149.3233
 10
675.2524
 20
149.8348
 10
675.05
 20
150.3991
 10
674.9605
 20
151.0018
 10
674.9942
 20
151.6287
 10
675.1524
 20
152.2363
 10
675.421
 20
152.7835
 10
675.7855
 20
153.2599
 10
676.2316
 20
153.6552
 10
676.745
 20
153.9589
 10
677.3113
 20
154.1607
 10
677.9162
 20
154.2502
 10
678.5454
 20
154.217
  0
LWPOLYLINE
  5
7D
330
1F
100
AcDbEntity
  8
Layer 1
 62
     7
370
    18
100
AcDbPolyline
 90
       33
 70
     1
 43
0.0
 10
668.5567
 20
164.9413
 10
669.1664
 20
164.7832
 10
669.7154
 20
164.5153
 10
670.1934
 20
164.152
 10
670.59
 20
163.7075
 10
670.8948
 20
163.196
 10
671.0973
 20
162.6318
 10
671.1871
 20
162.0291
 10
671.1538
 20
161.4021
 10
670.995
 20
160.7945
 10
670.7261
 20
160.2471
 10
670.3614
 20
159.7705
 10
669.9152
 20
159.3751
 10
669.4019
 20
159.0713
 10
668.8358
 20
158.8695
 10
668.2312
 20
158.7802
 10
667.6026
 20
158.8138
 10
666.9929
 20
158.972
 10
666.4437
 20
159.2398
 10
665.9655
 20
159.6032
 10
665.5687
 20
160.0477
 10
665.2639
 20
160.5592
 10
665.0615
 20
161.1234
 10
664.9719
 20
161.7261
 10
665.0056
 20
162.353
 10
665.1643
 20
162.9607
 10
665.433
 20
163.508
 10
665.7976
 20
163.9847
 10
666.2436
 20
164.3801
 10
666.7568
 20
164.6839
 10
667.3229
 20
164.8857
 10
667.9276
 20
164.9749
 10
668.5567
 20
164.9413
  0
LWPOLYLINE
  5
7E
330
1F
100
AcDbEntity
  8
Layer 1
 62
     7
370
    18
100
AcDbPolyline
 90
       33
 70
     1
 43
0.0
 10
658.6752
 20
177.8574
 10
659.2849
 20
177.6993
 10
659.8341
 20
177.4314
 10
660.3123
 20
177.0681
 10
660.709
 20
176.6236
 10
661.0139
 20
176.1121
 10
661.2163
 20
175.5478
 10
661.3059
 20
174.9451
 10
661.2722
 20
174.3182
 10
661.1135
 20
173.7105
 10
660.8448
 20
173.1632
 10
660.4802
 20
172.6865
 10
660.0342
 20
172.2911
 10
659.521
 20
171.9873
 10
658.9549
 20
171.7855
 10
658.3502
 20
171.6963
 10
657.7211
 20
171.7299
 10
657.1119
 20
171.888
 10
656.5631
 20
172.1559
 10
656.0852
 20
172.5192
 10
655.6886
 20
172.9637
 10
655.3838
 20
173.4752
 10
655.1814
 20
174.0394
 10
655.0919
 20
174.6421
 10
655.1256
 20
175.2691
 10
655.2838
 20
175.8767
 10
655.5523
 20
176.4241
 10
655.9168
 20
176.9007
 10
656.3628
 20
177.2961
 10
656.876
 20
177.5999
 10
657.4421
 20
177.8017
 10
658.0466
 20
177.891
 10
658.6752
 20
177.8574
  0
LWPOLYLINE
  5
7F
330
1F
100
AcDbEntity
  8
Layer 1
 62
     7
370
    18
100
AcDbPolyline
 90
       33
 70
     1
 43
0.0
 10
650.5932
 20
192.5876
 10
651.2029
 20
192.4294
 10
651.7521
 20
192.1614
 10
652.2303
 20
191.7979
 10
652.627
 20
191.3532
 10
652.9319
 20
190.8416
 10
653.1343
 20
190.2774
 10
653.2239
 20
189.6749
 10
653.1902
 20
189.0484
 10
653.0315
 20
188.4407
 10
652.7628
 20
187.8934
 10
652.3982
 20
187.4168
 10
651.9522
 20
187.0214
 10
651.439
 20
186.7175
 10
650.8728
 20
186.5158
 10
650.2681
 20
186.4265
 10
649.639
 20
186.4601
 10
649.0294
 20
186.6182
 10
648.4804
 20
186.8861
 10
648.0023
 20
187.2494
 10
647.6058
 20
187.6939
 10
647.301
 20
188.2054
 10
647.0985
 20
188.7696
 10
647.0087
 20
189.3723
 10
647.042
 20
189.9993
 10
647.2008
 20
190.6069
 10
647.4697
 20
191.1541
 10
647.8344
 20
191.6305
 10
648.2806
 20
192.0257
 10
648.7939
 20
192.3294
 10
649.36
 20
192.5312
 10
649.9646
 20
192.6208
 10
650.5932
 20
192.5876
  0
LWPOLYLINE
  5
80
330
1F
100
AcDbEntity
  8
Layer 1
 62
     7
370
    18
100
AcDbPolyline
 90
       33
 70
     1
 43
0.0
 10
644.6415
 20
208.2655
 10
645.2512
 20
208.1073
 10
645.8002
 20
207.8393
 10
646.2782
 20
207.4758
 10
646.6748
 20
207.0311
 10
646.9796
 20
206.5195
 10
647.1821
 20
205.9553
 10
647.2719
 20
205.3528
 10
647.2386
 20
204.7263
 10
647.0798
 20
204.1187
 10
646.8109
 20
203.5713
 10
646.4462
 20
203.0947
 10
646.0
 20
202.6993
 10
645.4867
 20
202.3955
 10
644.9206
 20
202.1937
 10
644.316
 20
202.1044
 10
643.6874
 20
202.138
 10
643.0777
 20
202.2961
 10
642.5285
 20
202.564
 10
642.0503
 20
202.9273
 10
641.6536
 20
203.3718
 10
641.3487
 20
203.8833
 10
641.1463
 20
204.4476
 10
641.0567
 20
205.0503
 10
641.0904
 20
205.6772
 10
641.2491
 20
206.2848
 10
641.5178
 20
206.832
 10
641.8824
 20
207.3084
 10
642.3284
 20
207.7037
 10
642.8416
 20
208.0074
 10
643.4077
 20
208.2092
 10
644.0124
 20
208.2987
 10
644.6415
 20
208.2655
  0
LWPOLYLINE
  5
81
330
1F
100
AcDbEntity
  8
Layer 1
 62
     7
370
    18
100
AcDbPolyline
 90
       33
 70
     1
 43
0.0
 10
641.7296
 20
224.751
 10
642.3388
 20
224.5929
 10
642.8876
 20
224.325
 10
643.3655
 20
223.9617
 10
643.7621
 20
223.5172
 10
644.0669
 20
223.0057
 10
644.2693
 20
222.4415
 10
644.3588
 20
221.8388
 10
644.3251
 20
221.2118
 10
644.1669
 20
220.6042
 10
643.8983
 20
220.0568
 10
643.5338
 20
219.5802
 10
643.0877
 20
219.1848
 10
642.5743
 20
218.881
 10
642.008
 20
218.6792
 10
641.4031
 20
218.5899
 10
640.7739
 20
218.6235
 10
640.1647
 20
218.7816
 10
639.616
 20
219.0495
 10
639.138
 20
219.4128
 10
638.7415
 20
219.8573
 10
638.4367
 20
220.3688
 10
638.2343
 20
220.9331
 10
638.1448
 20
221.5358
 10
638.1785
 20
222.1627
 10
638.3367
 20
222.7704
 10
638.6053
 20
223.3177
 10
638.9698
 20
223.7943
 10
639.4159
 20
224.1898
 10
639.9293
 20
224.4936
 10
640.4956
 20
224.6953
 10
641.1005
 20
224.7846
 10
641.7296
 20
224.751
  0
LWPOLYLINE
  5
82
330
1F
100
AcDbEntity
  8
Layer 1
 62
     7
370
    18
100
AcDbPolyline
 90
       33
 70
     1
 43
0.0
 10
639.6936
 20
240.8686
 10
640.3028
 20
240.7109
 10
640.8515
 20
240.4432
 10
641.3295
 20
240.0799
 10
641.726
 20
239.6353
 10
642.0308
 20
239.1237
 10
642.2332
 20
238.5593
 10
642.3227
 20
237.9564
 10
642.289
 20
237.3294
 10
642.1308
 20
236.7223
 10
641.8622
 20
236.1753
 10
641.4977
 20
235.699
 10
641.0516
 20
235.3037
 10
640.5382
 20
235.0
 10
639.9719
 20
234.7983
 10
639.367
 20
234.709
 10
638.7379
 20
234.7426
 10
638.1287
 20
234.9003
 10
637.5799
 20
235.168
 10
637.102
 20
235.5313
 10
636.7054
 20
235.9759
 10
636.4006
 20
236.4875
 10
636.1982
 20
237.0519
 10
636.1087
 20
237.6548
 10
636.1424
 20
238.2818
 10
636.3006
 20
238.8889
 10
636.5692
 20
239.4359
 10
636.9337
 20
239.9122
 10
637.3798
 20
240.3075
 10
637.8932
 20
240.6112
 10
638.4595
 20
240.8129
 10
639.0644
 20
240.9022
 10
639.6936
 20
240.8686
  0
LWPOLYLINE
  5
83
330
1F
100
AcDbEntity
  8
Layer 1
 62
     7
370
    18
100
AcDbPolyline
 90
       33
 70
     1
 43
0.0
 10
639.652
 20
256.3283
 10
640.2617
 20
256.1706
 10
640.8109
 20
255.903
 10
641.2892
 20
255.5397
 10
641.6859
 20
255.0951
 10
641.9908
 20
254.5834
 10
642.1932
 20
254.019
 10
642.2828
 20
253.4161
 10
642.2491
 20
252.7891
 10
642.0904
 20
252.182
 10
641.8217
 20
251.635
 10
641.4571
 20
251.1587
 10
641.0111
 20
250.7635
 10
640.4979
 20
250.4598
 10
639.9317
 20
250.258
 10
639.327
 20
250.1688
 10
638.6979
 20
250.2024
 10
638.0882
 20
250.3601
 10
637.5392
 20
250.6277
 10
637.0612
 20
250.991
 10
636.6646
 20
251.4356
 10
636.3599
 20
251.9473
 10
636.1574
 20
252.5117
 10
636.0676
 20
253.1146
 10
636.1009
 20
253.7416
 10
636.2596
 20
254.3487
 10
636.5286
 20
254.8957
 10
636.8933
 20
255.372
 10
637.3395
 20
255.7672
 10
637.8528
 20
256.0709
 10
638.4189
 20
256.2726
 10
639.0234
 20
256.3619
 10
639.652
 20
256.3283
  0
LWPOLYLINE
  5
84
330
1F
100
AcDbEntity
  8
Layer 1
 62
     7
370
    18
100
AcDbPolyline
 90
       33
 70
     1
 43
0.0
 10
643.4381
 20
270.1522
 10
644.0478
 20
269.9941
 10
644.597
 20
269.7262
 10
645.0753
 20
269.3629
 10
645.472
 20
268.9184
 10
645.7769
 20
268.4069
 10
645.9793
 20
267.8426
 10
646.0689
 20
267.2399
 10
646.0352
 20
266.613
 10
645.8765
 20
266.0053
 10
645.6078
 20
265.458
 10
645.2432
 20
264.9814
 10
644.7972
 20
264.586
 10
644.284
 20
264.2821
 10
643.7178
 20
264.0804
 10
643.1131
 20
263.9911
 10
642.484
 20
264.0247
 10
641.8743
 20
264.1828
 10
641.3253
 20
264.4507
 10
640.8473
 20
264.814
 10
640.4507
 20
265.2585
 10
640.1459
 20
265.77
 10
639.9434
 20
266.3342
 10
639.8536
 20
266.9369
 10
639.8869
 20
267.5639
 10
640.0457
 20
268.1715
 10
640.3146
 20
268.7189
 10
640.6793
 20
269.1955
 10
641.1255
 20
269.5909
 10
641.6388
 20
269.8947
 10
642.2049
 20
270.0965
 10
642.8095
 20
270.1858
 10
643.4381
 20
270.1522
  0
LWPOLYLINE
  5
85
330
1F
100
AcDbEntity
  8
Layer 1
 62
     7
370
    18
100
AcDbPolyline
 90
       33
 70
     1
 43
0.0
 10
648.4564
 20
282.1571
 10
649.0661
 20
281.999
 10
649.6153
 20
281.7311
 10
650.0935
 20
281.3678
 10
650.4903
 20
280.9233
 10
650.7951
 20
280.4118
 10
650.9976
 20
279.8476
 10
651.0871
 20
279.2449
 10
651.0534
 20
278.6179
 10
650.8947
 20
278.0103
 10
650.626
 20
277.4631
 10
650.2614
 20
276.9867
 10
649.8154
 20
276.5915
 10
649.3022
 20
276.2878
 10
648.7361
 20
276.086
 10
648.1314
 20
275.9964
 10
647.5023
 20
276.0296
 10
646.8926
 20
276.1878
 10
646.3434
 20
276.4558
 10
645.8651
 20
276.8193
 10
645.4684
 20
277.264
 10
645.1635
 20
277.7756
 10
644.9611
 20
278.3398
 10
644.8715
 20
278.9423
 10
644.9052
 20
279.5688
 10
645.0639
 20
280.1765
 10
645.3326
 20
280.7238
 10
645.6972
 20
281.2004
 10
646.1432
 20
281.5959
 10
646.6564
 20
281.8997
 10
647.2226
 20
282.1014
 10
647.8273
 20
282.1907
 10
648.4564
 20
282.1571
  0
LWPOLYLINE
  5
86
330
1F
100
AcDbEntity
  8
Layer 1
 62
     7
370
    18
100
AcDbPolyline
 90
       33
 70
     1
 43
0.0
 10
656.3786
 20
291.8541
 10
656.9883
 20
291.696
 10
657.5375
 20
291.4281
 10
658.0157
 20
291.0648
 10
658.4125
 20
290.6203
 10
658.7173
 20
290.1088
 10
658.9198
 20
289.5446
 10
659.0093
 20
288.9419
 10
658.9756
 20
288.3149
 10
658.8169
 20
287.7072
 10
658.5482
 20
287.1599
 10
658.1836
 20
286.6833
 10
657.7376
 20
286.2879
 10
657.2244
 20
285.984
 10
656.6583
 20
285.7823
 10
656.0536
 20
285.693
 10
655.4245
 20
285.7266
 10
654.8153
 20
285.8847
 10
654.2665
 20
286.1526
 10
653.7886
 20
286.5159
 10
653.392
 20
286.9604
 10
653.0872
 20
287.4719
 10
652.8848
 20
288.0361
 10
652.7953
 20
288.6388
 10
652.829
 20
289.2658
 10
652.9872
 20
289.8735
 10
653.2557
 20
290.4208
 10
653.6202
 20
290.8974
 10
654.0662
 20
291.2929
 10
654.5794
 20
291.5967
 10
655.1455
 20
291.7984
 10
655.75
 20
291.8877
 10
656.3786
 20
291.8541
  0
LWPOLYLINE
  5
87
330
1F
100
AcDbEntity
  8
Layer 1
 62
     7
370
    18
100
AcDbPolyline
 90
       33
 70
     1
 43
0.0
 10
666.4871
 20
297.6105
 10
667.0967
 20
297.4528
 10
667.6457
 20
297.1852
 10
668.1238
 20
296.8219
 10
668.5203
 20
296.3773
 10
668.8251
 20
295.8656
 10
669.0276
 20
295.3012
 10
669.1174
 20
294.6983
 10
669.0841
 20
294.0713
 10
668.9253
 20
293.4642
 10
668.6564
 20
292.9172
 10
668.2917
 20
292.4409
 10
667.8455
 20
292.0457
 10
667.3322
 20
291.742
 10
666.7661
 20
291.5402
 10
666.1616
 20
291.451
 10
665.533
 20
291.4846
 10
664.9233
 20
291.6423
 10
664.3741
 20
291.9099
 10
663.8958
 20
292.2732
 10
663.4991
 20
292.7178
 10
663.1942
 20
293.2295
 10
662.9918
 20
293.7939
 10
662.9022
 20
294.3968
 10
662.9359
 20
295.0238
 10
663.0946
 20
295.6309
 10
663.3633
 20
296.1779
 10
663.7279
 20
296.6542
 10
664.1739
 20
297.0494
 10
664.6871
 20
297.3531
 10
665.2533
 20
297.5548
 10
665.858
 20
297.6441
 10
666.4871
 20
297.6105
  0
LWPOLYLINE
  5
88
330
1F
100
AcDbEntity
  8
Layer 1
 62
     7
370
    18
100
AcDbPolyline
 90
       33
 70
     1
 43
0.0
 10
674.7513
 20
281.8067
 10
675.361
 20
281.649
 10
675.9102
 20
281.3814
 10
676.3884
 20
281.0182
 10
676.7851
 20
280.5737
 10
677.09
 20
280.0622
 10
677.2924
 20
279.4981
 10
677.382
 20
278.8956
 10
677.3483
 20
278.2691
 10
677.1896
 20
277.6615
 10
676.9209
 20
277.1141
 10
676.5563
 20
276.6375
 10
676.1103
 20
276.2421
 10
675.5971
 20
275.9383
 10
675.031
 20
275.7365
 10
674.4263
 20
275.6472
 10
673.7972
 20
275.6808
 10
673.1875
 20
275.8389
 10
672.6383
 20
276.1068
 10
672.16
 20
276.4701
 10
671.7633
 20
276.9146
 10
671.4584
 20
277.4261
 10
671.256
 20
277.9904
 10
671.1664
 20
278.5931
 10
671.2001
 20
279.22
 10
671.3588
 20
279.8271
 10
671.6275
 20
280.3741
 10
671.9921
 20
280.8504
 10
672.4381
 20
281.2457
 10
672.9513
 20
281.5493
 10
673.5175
 20
281.7511
 10
674.1222
 20
281.8403
 10
674.7513
 20
281.8067
  0
LWPOLYLINE
  5
89
330
1F
100
AcDbEntity
  8
Layer 1
 62
     7
370
    18
100
AcDbPolyline
 90
       33
 70
     1
 43
0.0
 10
683.5237
 20
264.7638
 10
684.1329
 20
264.6056
 10
684.6817
 20
264.3378
 10
685.1596
 20
263.9744
 10
685.5562
 20
263.5299
 10
685.8609
 20
263.0184
 10
686.0633
 20
262.4542
 10
686.1528
 20
261.8515
 10
686.1191
 20
261.2245
 10
685.9609
 20
260.6174
 10
685.6924
 20
260.0704
 10
685.3279
 20
259.594
 10
684.8818
 20
259.1987
 10
684.3684
 20
258.8948
 10
683.8021
 20
258.6928
 10
683.1971
 20
258.6031
 10
682.568
 20
258.6362
 10
681.9588
 20
258.7944
 10
681.41
 20
259.0625
 10
680.9321
 20
259.426
 10
680.5355
 20
259.8707
 10
680.2307
 20
260.3823
 10
680.0283
 20
260.9465
 10
679.9388
 20
261.549
 10
679.9725
 20
262.1755
 10
680.1307
 20
262.7831
 10
680.3993
 20
263.3305
 10
680.7638
 20
263.8071
 10
681.2099
 20
264.2025
 10
681.7233
 20
264.5063
 10
682.2896
 20
264.7081
 10
682.8945
 20
264.7974
 10
683.5237
 20
264.7638
  0
LWPOLYLINE
  5
8A
330
1F
100
AcDbEntity
  8
Layer 1
 62
     7
370
    18
100
AcDbPolyline
 90
       33
 70
     1
 43
0.0
 10
695.4765
 20
262.9145
 10
696.0862
 20
262.7564
 10
696.6354
 20
262.4885
 10
697.1136
 20
262.1252
 10
697.5104
 20
261.6807
 10
697.8152
 20
261.1692
 10
698.0177
 20
260.605
 10
698.1072
 20
260.0023
 10
698.0735
 20
259.3753
 10
697.9148
 20
258.7677
 10
697.6461
 20
258.2205
 10
697.2816
 20
257.7441
 10
696.8356
 20
257.3489
 10
696.3223
 20
257.0452
 10
695.7562
 20
256.8434
 10
695.1515
 20
256.7538
 10
694.5224
 20
256.787
 10
693.9127
 20
256.9452
 10
693.3637
 20
257.2132
 10
692.8857
 20
257.5767
 10
692.4891
 20
258.0214
 10
692.1843
 20
258.533
 10
691.9818
 20
259.0972
 10
691.892
 20
259.6997
 10
691.9253
 20
260.3262
 10
692.0841
 20
260.9339
 10
692.353
 20
261.4812
 10
692.7177
 20
261.9578
 10
693.1639
 20
262.3533
 10
693.6772
 20
262.6571
 10
694.2433
 20
262.8588
 10
694.8479
 20
262.9481
 10
695.4765
 20
262.9145
  0
LWPOLYLINE
  5
8B
330
1F
100
AcDbEntity
  8
Layer 1
 62
     7
370
    18
100
AcDbPolyline
 90
       33
 70
     1
 43
0.0
 10
709.1042
 20
255.3455
 10
709.7139
 20
255.1874
 10
710.2631
 20
254.9195
 10
710.7413
 20
254.5562
 10
711.1381
 20
254.1117
 10
711.4429
 20
253.6002
 10
711.6454
 20
253.036
 10
711.7349
 20
252.4333
 10
711.7012
 20
251.8063
 10
711.5425
 20
251.1987
 10
711.2738
 20
250.6515
 10
710.9092
 20
250.1751
 10
710.4632
 20
249.7799
 10
709.95
 20
249.4762
 10
709.3839
 20
249.2744
 10
708.7792
 20
249.1848
 10
708.1501
 20
249.218
 10
707.5409
 20
249.3762
 10
706.9921
 20
249.6442
 10
706.5142
 20
250.0077
 10
706.1176
 20
250.4524
 10
705.8128
 20
250.964
 10
705.6104
 20
251.5282
 10
705.5209
 20
252.1307
 10
705.5546
 20
252.7572
 10
705.7128
 20
253.3649
 10
705.9813
 20
253.9122
 10
706.3458
 20
254.3888
 10
706.7918
 20
254.7843
 10
707.305
 20
255.0881
 10
707.8711
 20
255.2898
 10
708.4756
 20
255.3791
 10
709.1042
 20
255.3455
  0
LWPOLYLINE
  5
8C
330
1F
100
AcDbEntity
  8
Layer 1
 62
     7
370
    18
100
AcDbPolyline
 90
       33
 70
     1
 43
0.0
 10
720.2291
 20
242.9344
 10
720.8388
 20
242.7763
 10
721.388
 20
242.5084
 10
721.8663
 20
242.1451
 10
722.263
 20
241.7006
 10
722.5679
 20
241.1891
 10
722.7703
 20
240.6249
 10
722.8599
 20
240.0222
 10
722.8262
 20
239.3952
 10
722.6675
 20
238.7876
 10
722.3988
 20
238.2402
 10
722.0342
 20
237.7636
 10
721.5882
 20
237.3682
 10
721.075
 20
237.0644
 10
720.5088
 20
236.8626
 10
719.9041
 20
236.7733
 10
719.275
 20
236.8069
 10
718.6653
 20
236.965
 10
718.1161
 20
237.2329
 10
717.6379
 20
237.5962
 10
717.2412
 20
238.0407
 10
716.9363
 20
238.5522
 10
716.7339
 20
239.1165
 10
716.6443
 20
239.7192
 10
716.678
 20
240.3461
 10
716.8367
 20
240.9538
 10
717.1054
 20
241.5011
 10
717.47
 20
241.9777
 10
717.916
 20
242.3732
 10
718.4292
 20
242.677
 10
718.9953
 20
242.8787
 10
719.6
 20
242.968
 10
720.2291
 20
242.9344
  0
LWPOLYLINE
  5
8D
330
1F
100
AcDbEntity
  8
Layer 1
 62
     7
370
    18
100
AcDbPolyline
 90
       33
 70
     1
 43
0.0
 10
727.5999
 20
227.3855
 10
728.2096
 20
227.2273
 10
728.7588
 20
226.9593
 10
729.2371
 20
226.5958
 10
729.6338
 20
226.1511
 10
729.9387
 20
225.6395
 10
730.1411
 20
225.0753
 10
730.2307
 20
224.4728
 10
730.197
 20
223.8463
 10
730.0383
 20
223.2386
 10
729.7696
 20
222.6913
 10
729.405
 20
222.2147
 10
728.959
 20
221.8193
 10
728.4458
 20
221.5154
 10
727.8796
 20
221.3137
 10
727.2749
 20
221.2244
 10
726.6458
 20
221.258
 10
726.0361
 20
221.4161
 10
725.4869
 20
221.684
 10
725.0087
 20
222.0473
 10
724.612
 20
222.4918
 10
724.3071
 20
223.0033
 10
724.1047
 20
223.5675
 10
724.0151
 20
224.1702
 10
724.0488
 20
224.7972
 10
724.2075
 20
225.4049
 10
724.4762
 20
225.9522
 10
724.8408
 20
226.4288
 10
725.2868
 20
226.8243
 10
725.8
 20
227.1281
 10
726.3661
 20
227.3298
 10
726.9708
 20
227.4191
 10
727.5999
 20
227.3855
  0
LWPOLYLINE
  5
8E
330
1F
100
AcDbEntity
  8
Layer 1
 62
     7
370
    18
100
AcDbPolyline
 90
       33
 70
     1
 43
0.0
 10
730.4064
 20
210.2183
 10
731.0161
 20
210.0602
 10
731.5653
 20
209.7923
 10
732.0435
 20
209.429
 10
732.4402
 20
208.9845
 10
732.7451
 20
208.473
 10
732.9475
 20
207.9087
 10
733.0371
 20
207.306
 10
733.0034
 20
206.6791
 10
732.8447
 20
206.0715
 10
732.576
 20
205.5243
 10
732.2114
 20
205.0479
 10
731.7654
 20
204.6527
 10
731.2522
 20
204.3489
 10
730.686
 20
204.1471
 10
730.0813
 20
204.0576
 10
729.4522
 20
204.0908
 10
728.8425
 20
204.249
 10
728.2933
 20
204.517
 10
727.8151
 20
204.8805
 10
727.4184
 20
205.3252
 10
727.1135
 20
205.8368
 10
726.9111
 20
206.401
 10
726.8215
 20
207.0035
 10
726.8552
 20
207.63
 10
727.0139
 20
208.2376
 10
727.2826
 20
208.785
 10
727.6472
 20
209.2616
 10
728.0932
 20
209.657
 10
728.6064
 20
209.9608
 10
729.1726
 20
210.1626
 10
729.7773
 20
210.2519
 10
730.4064
 20
210.2183
  0
LWPOLYLINE
  5
8F
330
1F
100
AcDbEntity
  8
Layer 1
 62
     7
370
    18
100
AcDbPolyline
 90
       33
 70
     1
 43
0.0
 10
729.9205
 20
194.3731
 10
730.5302
 20
194.2154
 10
731.0794
 20
193.9478
 10
731.5577
 20
193.5845
 10
731.9544
 20
193.1399
 10
732.2593
 20
192.6282
 10
732.4617
 20
192.0638
 10
732.5513
 20
191.4609
 10
732.5176
 20
190.8339
 10
732.3589
 20
190.2268
 10
732.0902
 20
189.6798
 10
731.7256
 20
189.2035
 10
731.2796
 20
188.8083
 10
730.7664
 20
188.5046
 10
730.2002
 20
188.3029
 10
729.5955
 20
188.2136
 10
728.9664
 20
188.2472
 10
728.3567
 20
188.4049
 10
727.8075
 20
188.6725
 10
727.3292
 20
189.0358
 10
726.9325
 20
189.4804
 10
726.6276
 20
189.9921
 10
726.4252
 20
190.5565
 10
726.3356
 20
191.1594
 10
726.3693
 20
191.7864
 10
726.528
 20
192.3935
 10
726.7967
 20
192.9405
 10
727.1613
 20
193.4168
 10
727.6073
 20
193.8121
 10
728.1205
 20
194.1157
 10
728.6867
 20
194.3175
 10
729.2914
 20
194.4067
 10
729.9205
 20
194.3731
  0
LWPOLYLINE
  5
90
330
1F
100
AcDbEntity
  8
Layer 1
 62
     7
370
    18
100
AcDbPolyline
 90
       33
 70
     1
 43
0.0
 10
724.6369
 20
180.6671
 10
725.2466
 20
180.509
 10
725.7958
 20
180.2411
 10
726.2741
 20
179.8778
 10
726.6708
 20
179.4333
 10
726.9757
 20
178.9218
 10
727.1781
 20
178.3575
 10
727.2677
 20
177.7548
 10
727.234
 20
177.1279
 10
727.0753
 20
176.5202
 10
726.8066
 20
175.9729
 10
726.442
 20
175.4962
 10
725.996
 20
175.1008
 10
725.4828
 20
174.797
 10
724.9166
 20
174.5952
 10
724.3119
 20
174.506
 10
723.6828
 20
174.5396
 10
723.0736
 20
174.6977
 10
722.5248
 20
174.9656
 10
722.0468
 20
175.3289
 10
721.6501
 20
175.7734
 10
721.3452
 20
176.2849
 10
721.1426
 20
176.8491
 10
721.0526
 20
177.4518
 10
721.0858
 20
178.0788
 10
721.2445
 20
178.6864
 10
721.5135
 20
179.2338
 10
721.8782
 20
179.7104
 10
722.3244
 20
180.1058
 10
722.8377
 20
180.4096
 10
723.4038
 20
180.6114
 10
724.0083
 20
180.7007
 10
724.6369
 20
180.6671
  0
LWPOLYLINE
  5
91
330
1F
100
AcDbEntity
  8
Layer 1
 62
     7
370
    18
100
AcDbPolyline
 90
       33
 70
     1
 43
0.0
 10
715.8773
 20
173.0742
 10
716.4865
 20
172.9165
 10
717.0353
 20
172.6489
 10
717.5133
 20
172.2856
 10
717.91
 20
171.841
 10
718.2149
 20
171.3293
 10
718.4176
 20
170.7649
 10
718.5075
 20
170.162
 10
718.4743
 20
169.535
 10
718.3155
 20
168.9279
 10
718.0466
 20
168.3809
 10
717.6819
 20
167.9046
 10
717.2357
 20
167.5094
 10
716.7224
 20
167.2057
 10
716.1563
 20
167.0039
 10
715.5518
 20
166.9147
 10
714.9232
 20
166.9483
 10
714.3135
 20
167.106
 10
713.7643
 20
167.3736
 10
713.286
 20
167.7369
 10
712.8893
 20
168.1815
 10
712.5844
 20
168.6932
 10
712.382
 20
169.2576
 10
712.2924
 20
169.8605
 10
712.3261
 20
170.4875
 10
712.4848
 20
171.0946
 10
712.7535
 20
171.6416
 10
713.1181
 20
172.1179
 10
713.5641
 20
172.5131
 10
714.0773
 20
172.8168
 10
714.6435
 20
173.0185
 10
715.2482
 20
173.1078
 10
715.8773
 20
173.0742
  0
LWPOLYLINE
  5
92
330
1F
100
AcDbEntity
  8
Layer 1
 62
     7
370
    18
100
AcDbPolyline
 90
       33
 70
     1
 43
0.0
 10
704.5206
 20
170.5321
 10
705.1303
 20
170.374
 10
705.6795
 20
170.1061
 10
706.1578
 20
169.7428
 10
706.5545
 20
169.2983
 10
706.8594
 20
168.7868
 10
707.0618
 20
168.2225
 10
707.1514
 20
167.6198
 10
707.1177
 20
166.9929
 10
706.959
 20
166.3852
 10
706.6903
 20
165.8379
 10
706.3257
 20
165.3613
 10
705.8797
 20
164.9659
 10
705.3665
 20
164.662
 10
704.8003
 20
164.4603
 10
704.1956
 20
164.371
 10
703.5665
 20
164.4046
 10
702.9568
 20
164.5627
 10
702.4076
 20
164.8306
 10
701.9293
 20
165.1939
 10
701.5326
 20
165.6384
 10
701.2277
 20
166.1499
 10
701.0253
 20
166.7141
 10
700.9357
 20
167.3168
 10
700.9694
 20
167.9438
 10
701.1281
 20
168.5514
 10
701.3968
 20
169.0988
 10
701.7614
 20
169.5754
 10
702.2074
 20
169.9708
 10
702.7206
 20
170.2746
 10
703.2868
 20
170.4764
 10
703.8915
 20
170.5657
 10
704.5206
 20
170.5321
  0
LWPOLYLINE
  5
93
330
1F
100
AcDbEntity
  8
Layer 1
 62
     7
370
    18
100
AcDbPolyline
 90
       33
 70
     1
 43
0.0
 10
693.5219
 20
173.2797
 10
694.1316
 20
173.1215
 10
694.6808
 20
172.8537
 10
695.1591
 20
172.4903
 10
695.5558
 20
172.0458
 10
695.8607
 20
171.5343
 10
696.0631
 20
170.9701
 10
696.1527
 20
170.3674
 10
696.119
 20
169.7405
 10
695.9603
 20
169.1328
 10
695.6916
 20
168.5855
 10
695.327
 20
168.1088
 10
694.881
 20
167.7134
 10
694.3678
 20
167.4096
 10
693.8016
 20
167.2078
 10
693.1969
 20
167.1186
 10
692.5678
 20
167.1522
 10
691.9586
 20
167.3103
 10
691.4098
 20
167.5782
 10
690.9319
 20
167.9415
 10
690.5353
 20
168.386
 10
690.2306
 20
168.8975
 10
690.0282
 20
169.4617
 10
689.9387
 20
170.0644
 10
689.9724
 20
170.6914
 10
690.1306
 20
171.299
 10
690.3991
 20
171.8464
 10
690.7636
 20
172.323
 10
691.2096
 20
172.7184
 10
691.7228
 20
173.0222
 10
692.2888
 20
173.224
 10
692.8933
 20
173.3133
 10
693.5219
 20
173.2797
  0
LWPOLYLINE
  5
94
330
1F
100
AcDbEntity
  8
Layer 1
 62
     7
370
    18
100
AcDbPolyline
 90
       33
 70
     1
 43
0.0
 10
681.6123
 20
181.3966
 10
682.222
 20
181.2389
 10
682.7712
 20
180.9712
 10
683.2494
 20
180.6079
 10
683.6461
 20
180.1633
 10
683.951
 20
179.6517
 10
684.1534
 20
179.0873
 10
684.243
 20
178.4844
 10
684.2093
 20
177.8574
 10
684.0506
 20
177.2503
 10
683.7819
 20
176.7033
 10
683.4173
 20
176.227
 10
682.9713
 20
175.8317
 10
682.4581
 20
175.528
 10
681.892
 20
175.3263
 10
681.2873
 20
175.237
 10
680.6582
 20
175.2707
 10
680.0485
 20
175.4284
 10
679.4993
 20
175.696
 10
679.021
 20
176.0593
 10
678.6243
 20
176.5039
 10
678.3194
 20
177.0156
 10
678.117
 20
177.58
 10
678.0274
 20
178.1829
 10
678.0611
 20
178.8099
 10
678.2198
 20
179.417
 10
678.4885
 20
179.964
 10
678.8531
 20
180.4403
 10
679.2991
 20
180.8355
 10
679.8123
 20
181.1392
 10
680.3785
 20
181.3409
 10
680.9832
 20
181.4302
 10
681.6123
 20
181.3966
  0
LWPOLYLINE
  5
95
330
1F
100
AcDbEntity
  8
Layer 1
 62
     7
370
    18
100
AcDbPolyline
 90
       33
 70
     1
 43
0.0
 10
672.1606
 20
193.3171
 10
672.7698
 20
193.159
 10
673.3186
 20
192.8911
 10
673.7966
 20
192.5278
 10
674.1933
 20
192.0833
 10
674.4983
 20
191.5718
 10
674.7009
 20
191.0075
 10
674.7909
 20
190.4048
 10
674.7577
 20
189.7779
 10
674.5989
 20
189.1702
 10
674.33
 20
188.6229
 10
673.9653
 20
188.1463
 10
673.5191
 20
187.7509
 10
673.0058
 20
187.447
 10
672.4397
 20
187.2453
 10
671.8351
 20
187.156
 10
671.2065
 20
187.1896
 10
670.5968
 20
187.3477
 10
670.0476
 20
187.6156
 10
669.5694
 20
187.9789
 10
669.1726
 20
188.4234
 10
668.8678
 20
188.9349
 10
668.6654
 20
189.4991
 10
668.5758
 20
190.1018
 10
668.6095
 20
190.7288
 10
668.7682
 20
191.3364
 10
669.0369
 20
191.8838
 10
669.4015
 20
192.3604
 10
669.8475
 20
192.7558
 10
670.3607
 20
193.0596
 10
670.9268
 20
193.2614
 10
671.5315
 20
193.3507
 10
672.1606
 20
193.3171
  0
LWPOLYLINE
  5
96
330
1F
100
AcDbEntity
  8
Layer 1
 62
     7
370
    18
100
AcDbPolyline
 90
       33
 70
     1
 43
0.0
 10
664.8569
 20
207.81
 10
665.4666
 20
207.6519
 10
666.0158
 20
207.384
 10
666.4941
 20
207.0207
 10
666.8908
 20
206.5762
 10
667.1957
 20
206.0647
 10
667.3981
 20
205.5004
 10
667.4877
 20
204.8977
 10
667.454
 20
204.2708
 10
667.2953
 20
203.6631
 10
667.0266
 20
203.1158
 10
666.662
 20
202.6392
 10
666.216
 20
202.2438
 10
665.7028
 20
201.9399
 10
665.1366
 20
201.7382
 10
664.5319
 20
201.6489
 10
663.9028
 20
201.6825
 10
663.2931
 20
201.8406
 10
662.7439
 20
202.1085
 10
662.2657
 20
202.4718
 10
661.869
 20
202.9163
 10
661.5641
 20
203.4278
 10
661.3617
 20
203.992
 10
661.2721
 20
204.5947
 10
661.3058
 20
205.2217
 10
661.4645
 20
205.8293
 10
661.7332
 20
206.3767
 10
662.0978
 20
206.8533
 10
662.5438
 20
207.2487
 10
663.057
 20
207.5525
 10
663.6231
 20
207.7543
 10
664.2278
 20
207.8436
 10
664.8569
 20
207.81
  0
LWPOLYLINE
  5
97
330
1F
100
AcDbEntity
  8
Layer 1
 62
     7
370
    18
100
AcDbPolyline
 90
       33
 70
     1
 43
0.0
 10
661.4368
 20
224.0247
 10
662.0465
 20
223.867
 10
662.5957
 20
223.5994
 10
663.074
 20
223.2361
 10
663.4707
 20
222.7915
 10
663.7756
 20
222.2798
 10
663.978
 20
221.7154
 10
664.0676
 20
221.1125
 10
664.0339
 20
220.4855
 10
663.8751
 20
219.8784
 10
663.6062
 20
219.3314
 10
663.2415
 20
218.8551
 10
662.7953
 20
218.4599
 10
662.282
 20
218.1562
 10
661.7159
 20
217.9544
 10
661.1113
 20
217.8652
 10
660.4827
 20
217.8988
 10
659.873
 20
218.0565
 10
659.3238
 20
218.3241
 10
658.8456
 20
218.6874
 10
658.4488
 20
219.132
 10
658.144
 20
219.6437
 10
657.9416
 20
220.2081
 10
657.852
 20
220.811
 10
657.8857
 20
221.438
 10
658.0444
 20
222.0451
 10
658.3131
 20
222.5921
 10
658.6777
 20
223.0684
 10
659.1237
 20
223.4636
 10
659.6369
 20
223.7673
 10
660.203
 20
223.969
 10
660.8077
 20
224.0583
 10
661.4368
 20
224.0247
  0
LWPOLYLINE
  5
98
330
1F
100
AcDbEntity
  8
Layer 1
 62
     7
370
    18
100
AcDbPolyline
 90
       33
 70
     1
 43
0.0
 10
661.0197
 20
239.3124
 10
661.6294
 20
239.1543
 10
662.1786
 20
238.8864
 10
662.6568
 20
238.5231
 10
663.0536
 20
238.0786
 10
663.3584
 20
237.5671
 10
663.5609
 20
237.0028
 10
663.6504
 20
236.4001
 10
663.6167
 20
235.7732
 10
663.458
 20
235.1655
 10
663.1893
 20
234.6182
 10
662.8248
 20
234.1416
 10
662.3788
 20
233.7462
 10
661.8655
 20
233.4423
 10
661.2994
 20
233.2406
 10
660.6947
 20
233.1513
 10
660.0656
 20
233.1849
 10
659.4559
 20
233.343
 10
658.9067
 20
233.6109
 10
658.4284
 20
233.9742
 10
658.0317
 20
234.4187
 10
657.7268
 20
234.9302
 10
657.5244
 20
235.4944
 10
657.4348
 20
236.0971
 10
657.4685
 20
236.7241
 10
657.6272
 20
237.3317
 10
657.8959
 20
237.8791
 10
658.2605
 20
238.3557
 10
658.7065
 20
238.7511
 10
659.2197
 20
239.0549
 10
659.7859
 20
239.2567
 10
660.3906
 20
239.346
 10
661.0197
 20
239.3124
  0
LWPOLYLINE
  5
99
330
1F
100
AcDbEntity
  8
Layer 1
 62
     7
370
    18
100
AcDbPolyline
 90
       33
 70
     1
 43
0.0
 10
665.5745
 20
252.0867
 10
666.1837
 20
251.9285
 10
666.7325
 20
251.6607
 10
667.2104
 20
251.2973
 10
667.607
 20
250.8528
 10
667.9118
 20
250.3413
 10
668.1142
 20
249.7771
 10
668.2037
 20
249.1744
 10
668.17
 20
248.5474
 10
668.0118
 20
247.9398
 10
667.7432
 20
247.3924
 10
667.3787
 20
246.9158
 10
666.9326
 20
246.5204
 10
666.4192
 20
246.2166
 10
665.8529
 20
246.0148
 10
665.248
 20
245.9255
 10
664.6188
 20
245.9591
 10
664.0096
 20
246.1173
 10
663.4608
 20
246.3851
 10
662.9829
 20
246.7485
 10
662.5863
 20
247.193
 10
662.2816
 20
247.7045
 10
662.0792
 20
248.2687
 10
661.9897
 20
248.8714
 10
662.0234
 20
249.4984
 10
662.1816
 20
250.106
 10
662.4502
 20
250.6534
 10
662.8146
 20
251.13
 10
663.2608
 20
251.5254
 10
663.7741
 20
251.8292
 10
664.3405
 20
252.031
 10
664.9454
 20
252.1203
 10
665.5745
 20
252.0867
  0
LWPOLYLINE
  5
9A
330
1F
100
AcDbEntity
  8
Layer 1
 62
     7
370
    18
100
AcDbPolyline
 90
       33
 70
     1
 43
0.0
 10
674.3805
 20
260.7164
 10
674.9902
 20
260.5587
 10
675.5392
 20
260.2911
 10
676.0172
 20
259.9279
 10
676.4138
 20
259.4834
 10
676.7185
 20
258.9719
 10
676.921
 20
258.4078
 10
677.0108
 20
257.8053
 10
676.9775
 20
257.1788
 10
676.8188
 20
256.5712
 10
676.5499
 20
256.0238
 10
676.1851
 20
255.5472
 10
675.739
 20
255.1518
 10
675.2256
 20
254.848
 10
674.6596
 20
254.6462
 10
674.055
 20
254.5569
 10
673.4264
 20
254.5905
 10
672.8167
 20
254.7482
 10
672.2675
 20
255.0159
 10
671.7892
 20
255.3792
 10
671.3925
 20
255.8238
 10
671.0876
 20
256.3354
 10
670.8852
 20
256.8998
 10
670.7956
 20
257.5027
 10
670.8293
 20
258.1297
 10
670.988
 20
258.7368
 10
671.2567
 20
259.2838
 10
671.6213
 20
259.7601
 10
672.0673
 20
260.1554
 10
672.5805
 20
260.4591
 10
673.1467
 20
260.6608
 10
673.7514
 20
260.7501
 10
674.3805
 20
260.7164
  0
LWPOLYLINE
  5
9B
330
1F
100
AcDbEntity
  8
Layer 1
 62
     7
370
    18
100
AcDbPolyline
 90
       33
 70
     1
 43
0.0
 10
686.4995
 20
283.1287
 10
687.1092
 20
282.9705
 10
687.6584
 20
282.7025
 10
688.1367
 20
282.339
 10
688.5334
 20
281.8943
 10
688.8383
 20
281.3827
 10
689.0407
 20
280.8185
 10
689.1303
 20
280.216
 10
689.0966
 20
279.5895
 10
688.9379
 20
278.9819
 10
688.6692
 20
278.4345
 10
688.3046
 20
277.9579
 10
687.8586
 20
277.5625
 10
687.3454
 20
277.2587
 10
686.7792
 20
277.0569
 10
686.1745
 20
276.9676
 10
685.5454
 20
277.0012
 10
684.9357
 20
277.1594
 10
684.3865
 20
277.4272
 10
683.9083
 20
277.7906
 10
683.5115
 20
278.2351
 10
683.2067
 20
278.7466
 10
683.0043
 20
279.3108
 10
682.9147
 20
279.9135
 10
682.9484
 20
280.5404
 10
683.1071
 20
281.1481
 10
683.3758
 20
281.6954
 10
683.7403
 20
282.1721
 10
684.1864
 20
282.5675
 10
684.6996
 20
282.8713
 10
685.2657
 20
283.0731
 10
685.8704
 20
283.1623
 10
686.4995
 20
283.1287
  0
LWPOLYLINE
  5
9C
330
1F
100
AcDbEntity
  8
Layer 1
 62
     7
370
    18
100
AcDbPolyline
 90
       33
 70
     1
 43
0.0
 10
698.8902
 20
279.5848
 10
699.4994
 20
279.4266
 10
700.0482
 20
279.1588
 10
700.5261
 20
278.7954
 10
700.9227
 20
278.3509
 10
701.2275
 20
277.8394
 10
701.4299
 20
277.2752
 10
701.5194
 20
276.6725
 10
701.4857
 20
276.0456
 10
701.3275
 20
275.4379
 10
701.0589
 20
274.8906
 10
700.6944
 20
274.4139
 10
700.2483
 20
274.0185
 10
699.7349
 20
273.7147
 10
699.1686
 20
273.5129
 10
698.5637
 20
273.4237
 10
697.9345
 20
273.4573
 10
697.3253
 20
273.6154
 10
696.7765
 20
273.8833
 10
696.2986
 20
274.2466
 10
695.902
 20
274.6911
 10
695.5973
 20
275.2026
 10
695.3949
 20
275.7668
 10
695.3054
 20
276.3695
 10
695.3391
 20
276.9965
 10
695.4973
 20
277.6041
 10
695.7659
 20
278.1515
 10
696.1303
 20
278.6281
 10
696.5765
 20
279.0235
 10
697.0898
 20
279.3273
 10
697.6562
 20
279.5291
 10
698.2611
 20
279.6184
 10
698.8902
 20
279.5848
  0
LWPOLYLINE
  5
9D
330
1F
100
AcDbEntity
  8
Layer 1
 62
     7
370
    18
100
AcDbPolyline
 90
       33
 70
     1
 43
0.0
 10
710.7471
 20
271.127
 10
711.3568
 20
270.9689
 10
711.906
 20
270.701
 10
712.3843
 20
270.3377
 10
712.781
 20
269.8932
 10
713.0859
 20
269.3817
 10
713.2883
 20
268.8174
 10
713.3779
 20
268.2147
 10
713.3442
 20
267.5878
 10
713.1854
 20
266.9801
 10
712.9165
 20
266.4328
 10
712.5518
 20
265.9562
 10
712.1056
 20
265.5608
 10
711.5923
 20
265.2569
 10
711.0262
 20
265.0552
 10
710.4216
 20
264.9659
 10
709.793
 20
264.9995
 10
709.1833
 20
265.1576
 10
708.6341
 20
265.4255
 10
708.1559
 20
265.7888
 10
707.7591
 20
266.2333
 10
707.4543
 20
266.7448
 10
707.2519
 20
267.309
 10
707.1623
 20
267.9117
 10
707.196
 20
268.5387
 10
707.3547
 20
269.1463
 10
707.6234
 20
269.6937
 10
707.988
 20
270.1703
 10
708.434
 20
270.5657
 10
708.9472
 20
270.8695
 10
709.5133
 20
271.0713
 10
710.118
 20
271.1606
 10
710.7471
 20
271.127
  0
LWPOLYLINE
  5
9E
330
1F
100
AcDbEntity
  8
Layer 1
 62
     7
370
    18
100
AcDbPolyline
 90
       33
 70
     1
 43
0.0
 10
722.5817
 20
259.5362
 10
723.1914
 20
259.3781
 10
723.7406
 20
259.1102
 10
724.2188
 20
258.7469
 10
724.6155
 20
258.3024
 10
724.9204
 20
257.7909
 10
725.1228
 20
257.2266
 10
725.2124
 20
256.6239
 10
725.1787
 20
255.997
 10
725.02
 20
255.3894
 10
724.7513
 20
254.8422
 10
724.3867
 20
254.3658
 10
723.9407
 20
253.9706
 10
723.4275
 20
253.6668
 10
722.8613
 20
253.465
 10
722.2566
 20
253.3755
 10
721.6275
 20
253.4087
 10
721.0178
 20
253.5669
 10
720.4686
 20
253.8349
 10
719.9904
 20
254.1984
 10
719.5937
 20
254.6431
 10
719.2888
 20
255.1547
 10
719.0864
 20
255.7189
 10
718.9968
 20
256.3214
 10
719.0305
 20
256.9479
 10
719.1892
 20
257.5555
 10
719.4579
 20
258.1029
 10
719.8225
 20
258.5795
 10
720.2685
 20
258.9749
 10
720.7817
 20
259.2787
 10
721.3479
 20
259.4805
 10
721.9526
 20
259.5698
 10
722.5817
 20
259.5362
  0
LWPOLYLINE
  5
9F
330
1F
100
AcDbEntity
  8
Layer 1
 62
     7
370
    18
100
AcDbPolyline
 90
       33
 70
     1
 43
0.0
 10
732.329
 20
245.0146
 10
732.9382
 20
244.8565
 10
733.4869
 20
244.5886
 10
733.9649
 20
244.2253
 10
734.3614
 20
243.7808
 10
734.6662
 20
243.2693
 10
734.8686
 20
242.7051
 10
734.9581
 20
242.1024
 10
734.9244
 20
241.4754
 10
734.7662
 20
240.8678
 10
734.4976
 20
240.3204
 10
734.1331
 20
239.8438
 10
733.687
 20
239.4484
 10
733.1736
 20
239.1446
 10
732.6073
 20
238.9428
 10
732.0024
 20
238.8535
 10
731.3733
 20
238.8871
 10
730.7641
 20
239.0452
 10
730.2153
 20
239.3131
 10
729.7374
 20
239.6764
 10
729.3408
 20
240.1209
 10
729.036
 20
240.6324
 10
728.8336
 20
241.1967
 10
728.7441
 20
241.7994
 10
728.7778
 20
242.4263
 10
728.936
 20
243.034
 10
729.2046
 20
243.5813
 10
729.5691
 20
244.0579
 10
730.0152
 20
244.4534
 10
730.5286
 20
244.7572
 10
731.0949
 20
244.9589
 10
731.6998
 20
245.0482
 10
732.329
 20
245.0146
  0
LWPOLYLINE
  5
A0
330
1F
100
AcDbEntity
  8
Layer 1
 62
     7
370
    18
100
AcDbPolyline
 90
       33
 70
     1
 43
0.0
 10
738.5587
 20
228.1309
 10
739.1684
 20
227.9728
 10
739.7176
 20
227.7049
 10
740.1958
 20
227.3416
 10
740.5925
 20
226.8971
 10
740.8974
 20
226.3856
 10
741.0998
 20
225.8214
 10
741.1894
 20
225.2187
 10
741.1557
 20
224.5917
 10
740.997
 20
223.9841
 10
740.7283
 20
223.4367
 10
740.3637
 20
222.9601
 10
739.9177
 20
222.5647
 10
739.4045
 20
222.2609
 10
738.8384
 20
222.0591
 10
738.2337
 20
221.9698
 10
737.6046
 20
222.0034
 10
736.9949
 20
222.1615
 10
736.4459
 20
222.4294
 10
735.9679
 20
222.7927
 10
735.5713
 20
223.2372
 10
735.2665
 20
223.7487
 10
735.064
 20
224.313
 10
734.9742
 20
224.9157
 10
735.0075
 20
225.5426
 10
735.1663
 20
226.1503
 10
735.4352
 20
226.6976
 10
735.7999
 20
227.1742
 10
736.2461
 20
227.5697
 10
736.7594
 20
227.8735
 10
737.3255
 20
228.0752
 10
737.9301
 20
228.1645
 10
738.5587
 20
228.1309
  0
LWPOLYLINE
  5
A1
330
1F
100
AcDbEntity
  8
Layer 1
 62
     7
370
    18
100
AcDbPolyline
 90
       33
 70
     1
 43
0.0
 10
743.5035
 20
211.2154
 10
744.1132
 20
211.0573
 10
744.6624
 20
210.7894
 10
745.1406
 20
210.4261
 10
745.5373
 20
209.9816
 10
745.8422
 20
209.4701
 10
746.0446
 20
208.9058
 10
746.1342
 20
208.3031
 10
746.1005
 20
207.6762
 10
745.9418
 20
207.0685
 10
745.6731
 20
206.5212
 10
745.3085
 20
206.0446
 10
744.8625
 20
205.6492
 10
744.3493
 20
205.3453
 10
743.7831
 20
205.1436
 10
743.1784
 20
205.0543
 10
742.5493
 20
205.0879
 10
741.9396
 20
205.246
 10
741.3904
 20
205.5139
 10
740.9122
 20
205.8772
 10
740.5155
 20
206.3217
 10
740.2106
 20
206.8332
 10
740.0082
 20
207.3974
 10
739.9186
 20
208.0001
 10
739.9523
 20
208.6271
 10
740.111
 20
209.2347
 10
740.3797
 20
209.7821
 10
740.7443
 20
210.2587
 10
741.1903
 20
210.6541
 10
741.7035
 20
210.9579
 10
742.2697
 20
211.1597
 10
742.8744
 20
211.249
 10
743.5035
 20
211.2154
  0
LWPOLYLINE
  5
A2
330
1F
100
AcDbEntity
  8
Layer 1
 62
     7
370
    18
100
AcDbPolyline
 90
       33
 70
     1
 43
0.0
 10
743.35
 20
194.5069
 10
743.9592
 20
194.3487
 10
744.508
 20
194.0807
 10
744.9859
 20
193.7172
 10
745.3825
 20
193.2725
 10
745.6873
 20
192.7609
 10
745.8897
 20
192.1967
 10
745.9792
 20
191.5942
 10
745.9455
 20
190.9677
 10
745.7873
 20
190.3601
 10
745.5187
 20
189.8127
 10
745.1542
 20
189.3361
 10
744.7081
 20
188.9407
 10
744.1947
 20
188.6369
 10
743.6284
 20
188.4351
 10
743.0235
 20
188.3458
 10
742.3943
 20
188.3794
 10
741.7851
 20
188.5375
 10
741.2363
 20
188.8054
 10
740.7584
 20
189.1687
 10
740.3618
 20
189.6132
 10
740.0571
 20
190.1247
 10
739.8547
 20
190.689
 10
739.7652
 20
191.2917
 10
739.7989
 20
191.9186
 10
739.9571
 20
192.5257
 10
740.2257
 20
193.0727
 10
740.5902
 20
193.5491
 10
741.0363
 20
193.9445
 10
741.5497
 20
194.2483
 10
742.116
 20
194.4503
 10
742.7209
 20
194.54
 10
743.35
 20
194.5069
  0
LWPOLYLINE
  5
A3
330
1F
100
AcDbEntity
  8
Layer 1
 62
     7
370
    18
100
AcDbPolyline
 90
       33
 70
     1
 43
0.0
 10
740.5244
 20
179.3721
 10
741.1341
 20
179.2144
 10
741.6833
 20
178.9468
 10
742.1616
 20
178.5835
 10
742.5583
 20
178.1389
 10
742.8632
 20
177.6272
 10
743.0656
 20
177.0628
 10
743.1552
 20
176.4599
 10
743.1215
 20
175.8329
 10
742.9628
 20
175.2258
 10
742.6941
 20
174.6788
 10
742.3295
 20
174.2025
 10
741.8835
 20
173.8073
 10
741.3703
 20
173.5036
 10
740.8041
 20
173.3019
 10
740.1994
 20
173.2126
 10
739.5703
 20
173.2462
 10
738.9611
 20
173.4039
 10
738.4123
 20
173.6715
 10
737.9343
 20
174.0348
 10
737.5377
 20
174.4794
 10
737.2327
 20
174.9911
 10
737.0301
 20
175.5555
 10
736.9401
 20
176.1584
 10
736.9733
 20
176.7854
 10
737.1321
 20
177.3925
 10
737.401
 20
177.9395
 10
737.7657
 20
178.4158
 10
738.2119
 20
178.8111
 10
738.7252
 20
179.1147
 10
739.2913
 20
179.3165
 10
739.8958
 20
179.4057
 10
740.5244
 20
179.3721
  0
LWPOLYLINE
  5
A4
330
1F
100
AcDbEntity
  8
Layer 1
 62
     7
370
    18
100
AcDbPolyline
 90
       33
 70
     1
 43
0.0
 10
734.5968
 20
167.5089
 10
735.2065
 20
167.3507
 10
735.7557
 20
167.0827
 10
736.2339
 20
166.7192
 10
736.6307
 20
166.2745
 10
736.9355
 20
165.7629
 10
737.138
 20
165.1987
 10
737.2275
 20
164.5962
 10
737.1938
 20
163.9697
 10
737.0351
 20
163.3621
 10
736.7664
 20
162.8147
 10
736.4018
 20
162.3381
 10
735.9558
 20
161.9427
 10
735.4426
 20
161.6389
 10
734.8765
 20
161.4371
 10
734.2718
 20
161.3478
 10
733.6427
 20
161.3814
 10
733.033
 20
161.5395
 10
732.4838
 20
161.8074
 10
732.0055
 20
162.1707
 10
731.6088
 20
162.6152
 10
731.3039
 20
163.1267
 10
731.1015
 20
163.691
 10
731.0119
 20
164.2937
 10
731.0456
 20
164.9206
 10
731.2043
 20
165.5282
 10
731.473
 20
166.0754
 10
731.8376
 20
166.5518
 10
732.2836
 20
166.9471
 10
732.7968
 20
167.2508
 10
733.363
 20
167.4526
 10
733.9677
 20
167.5421
 10
734.5968
 20
167.5089
  0
LWPOLYLINE
  5
A5
330
1F
100
AcDbEntity
  8
Layer 1
 62
     7
370
    18
100
AcDbPolyline
 90
       33
 70
     1
 43
0.0
 10
726.3518
 20
159.4892
 10
726.9615
 20
159.331
 10
727.5107
 20
159.063
 10
727.9889
 20
158.6995
 10
728.3856
 20
158.2548
 10
728.6905
 20
157.7432
 10
728.8929
 20
157.179
 10
728.9825
 20
156.5765
 10
728.9488
 20
155.95
 10
728.7901
 20
155.3423
 10
728.5214
 20
154.795
 10
728.1568
 20
154.3184
 10
727.7108
 20
153.923
 10
727.1976
 20
153.6191
 10
726.6315
 20
153.4174
 10
726.0268
 20
153.3281
 10
725.3977
 20
153.3617
 10
724.788
 20
153.5198
 10
724.2388
 20
153.7877
 10
723.7605
 20
154.151
 10
723.3638
 20
154.5955
 10
723.0589
 20
155.107
 10
722.8565
 20
155.6712
 10
722.7669
 20
156.2739
 10
722.8006
 20
156.9009
 10
722.9593
 20
157.5085
 10
723.228
 20
158.0557
 10
723.5926
 20
158.5321
 10
724.0386
 20
158.9273
 10
724.5518
 20
159.231
 10
725.118
 20
159.4328
 10
725.7227
 20
159.5224
 10
726.3518
 20
159.4892
  0
LWPOLYLINE
  5
A6
330
1F
100
AcDbEntity
  8
Layer 1
 62
     7
370
    18
100
AcDbPolyline
 90
       33
 70
     1
 43
0.0
 10
715.9045
 20
155.2953
 10
716.5142
 20
155.1371
 10
717.0634
 20
154.8691
 10
717.5416
 20
154.5056
 10
717.9383
 20
154.0609
 10
718.2432
 20
153.5493
 10
718.4456
 20
152.9851
 10
718.5352
 20
152.3826
 10
718.5015
 20
151.7561
 10
718.3428
 20
151.1485
 10
718.0741
 20
150.6011
 10
717.7095
 20
150.1245
 10
717.2635
 20
149.7291
 10
716.7503
 20
149.4253
 10
716.1841
 20
149.2235
 10
715.5794
 20
149.1342
 10
714.9503
 20
149.1678
 10
714.3406
 20
149.326
 10
713.7914
 20
149.5938
 10
713.3132
 20
149.9572
 10
712.9165
 20
150.4017
 10
712.6116
 20
150.9132
 10
712.4092
 20
151.4774
 10
712.3196
 20
152.0801
 10
712.3533
 20
152.707
 10
712.512
 20
153.3141
 10
712.7807
 20
153.8611
 10
713.1453
 20
154.3375
 10
713.5913
 20
154.7329
 10
714.1045
 20
155.0368
 10
714.6707
 20
155.2388
 10
715.2754
 20
155.3284
 10
715.9045
 20
155.2953
  0
LWPOLYLINE
  5
A7
330
1F
100
AcDbEntity
  8
Layer 1
 62
     7
370
    18
100
AcDbPolyline
 90
       33
 70
     1
 43
0.0
 10
704.1418
 20
155.3718
 10
704.7515
 20
155.2137
 10
705.3005
 20
154.9458
 10
705.7785
 20
154.5825
 10
706.1751
 20
154.138
 10
706.4799
 20
153.6265
 10
706.6824
 20
153.0623
 10
706.7722
 20
152.4596
 10
706.7389
 20
151.8326
 10
706.5801
 20
151.2249
 10
706.3112
 20
150.6776
 10
705.9465
 20
150.201
 10
705.5003
 20
149.8056
 10
704.987
 20
149.5017
 10
704.4209
 20
149.3
 10
703.8163
 20
149.2107
 10
703.1877
 20
149.2443
 10
702.578
 20
149.4024
 10
702.0288
 20
149.6703
 10
701.5506
 20
150.0336
 10
701.1539
 20
150.4781
 10
700.849
 20
150.9896
 10
700.6466
 20
151.5538
 10
700.557
 20
152.1565
 10
700.5907
 20
152.7835
 10
700.7494
 20
153.3912
 10
701.0181
 20
153.9385
 10
701.3827
 20
154.4151
 10
701.8287
 20
154.8106
 10
702.3419
 20
155.1144
 10
702.908
 20
155.3161
 10
703.5127
 20
155.4054
 10
704.1418
 20
155.3718
  0
LWPOLYLINE
  5
A8
330
1F
100
AcDbEntity
  8
Layer 1
 62
     7
370
    18
100
AcDbPolyline
 90
       33
 70
     1
 43
0.0
 10
693.1463
 20
159.6294
 10
693.7555
 20
159.4712
 10
694.3043
 20
159.2034
 10
694.7823
 20
158.84
 10
695.179
 20
158.3955
 10
695.484
 20
157.884
 10
695.6866
 20
157.3198
 10
695.7766
 20
156.7171
 10
695.7434
 20
156.0902
 10
695.5846
 20
155.4825
 10
695.3157
 20
154.9352
 10
694.951
 20
154.4585
 10
694.5048
 20
154.0631
 10
693.9915
 20
153.7593
 10
693.4254
 20
153.5575
 10
692.8208
 20
153.4683
 10
692.1922
 20
153.5019
 10
691.5825
 20
153.66
 10
691.0333
 20
153.9279
 10
690.5551
 20
154.2912
 10
690.1584
 20
154.7357
 10
689.8535
 20
155.2472
 10
689.6511
 20
155.8114
 10
689.5615
 20
156.4141
 10
689.5952
 20
157.0411
 10
689.7539
 20
157.6487
 10
690.0226
 20
158.1961
 10
690.3872
 20
158.6727
 10
690.8332
 20
159.0681
 10
691.3464
 20
159.3719
 10
691.9125
 20
159.5737
 10
692.5172
 20
159.663
 10
693.1463
 20
159.6294
  0
LWPOLYLINE
  5
A9
330
1F
100
AcDbEntity
  8
Layer 1
 62
     7
370
    18
100
AcDbPolyline
 90
       33
 70
     1
 43
0.0
 10
681.2958
 20
167.3879
 10
681.9055
 20
167.2298
 10
682.4547
 20
166.9619
 10
682.933
 20
166.5986
 10
683.3297
 20
166.1541
 10
683.6346
 20
165.6426
 10
683.837
 20
165.0783
 10
683.9266
 20
164.4756
 10
683.8929
 20
163.8487
 10
683.7342
 20
163.2416
 10
683.4655
 20
162.6946
 10
683.1009
 20
162.2182
 10
682.6549
 20
161.8229
 10
682.1417
 20
161.519
 10
681.5755
 20
161.317
 10
680.9708
 20
161.2273
 10
680.3417
 20
161.2604
 10
679.732
 20
161.4186
 10
679.1828
 20
161.6866
 10
678.7046
 20
162.0501
 10
678.3078
 20
162.4948
 10
678.003
 20
163.0064
 10
677.8006
 20
163.5706
 10
677.711
 20
164.1731
 10
677.7447
 20
164.7996
 10
677.9034
 20
165.4072
 10
678.1721
 20
165.9546
 10
678.5367
 20
166.4312
 10
678.9827
 20
166.8266
 10
679.4959
 20
167.1304
 10
680.062
 20
167.3322
 10
680.6667
 20
167.4215
 10
681.2958
 20
167.3879
  0
LWPOLYLINE
  5
AA
330
1F
100
AcDbEntity
  8
Layer 1
 62
     7
370
    18
100
AcDbPolyline
 90
       33
 70
     1
 43
0.0
 10
671.0723
 20
178.8465
 10
671.682
 20
178.6888
 10
672.2312
 20
178.4212
 10
672.7094
 20
178.0579
 10
673.1061
 20
177.6133
 10
673.411
 20
177.1016
 10
673.6134
 20
176.5372
 10
673.703
 20
175.9343
 10
673.6693
 20
175.3073
 10
673.5106
 20
174.7002
 10
673.2419
 20
174.1532
 10
672.8773
 20
173.6769
 10
672.4313
 20
173.2817
 10
671.9181
 20
172.978
 10
671.3519
 20
172.7762
 10
670.7472
 20
172.687
 10
670.1181
 20
172.7206
 10
669.5084
 20
172.8783
 10
668.9592
 20
173.1459
 10
668.481
 20
173.5092
 10
668.0843
 20
173.9538
 10
667.7794
 20
174.4655
 10
667.577
 20
175.0299
 10
667.4874
 20
175.6328
 10
667.5211
 20
176.2598
 10
667.6798
 20
176.8669
 10
667.9485
 20
177.4139
 10
668.3131
 20
177.8902
 10
668.7591
 20
178.2854
 10
669.2723
 20
178.5891
 10
669.8385
 20
178.7908
 10
670.4432
 20
178.8801
 10
671.0723
 20
178.8465
  0
LWPOLYLINE
  5
AB
330
1F
100
AcDbEntity
  8
Layer 1
 62
     7
370
    18
100
AcDbPolyline
 90
       33
 70
     1
 43
0.0
 10
662.2439
 20
192.5302
 10
662.8536
 20
192.3721
 10
663.4026
 20
192.1042
 10
663.8806
 20
191.7409
 10
664.2772
 20
191.2964
 10
664.582
 20
190.7849
 10
664.7845
 20
190.2207
 10
664.8743
 20
189.618
 10
664.841
 20
188.991
 10
664.6822
 20
188.3834
 10
664.4133
 20
187.836
 10
664.0486
 20
187.3594
 10
663.6024
 20
186.964
 10
663.0891
 20
186.6602
 10
662.523
 20
186.4584
 10
661.9184
 20
186.3691
 10
661.2898
 20
186.4027
 10
660.6801
 20
186.5609
 10
660.1309
 20
186.8287
 10
659.6526
 20
187.1921
 10
659.2559
 20
187.6366
 10
658.951
 20
188.1481
 10
658.7486
 20
188.7123
 10
658.659
 20
189.315
 10
658.6927
 20
189.9419
 10
658.8514
 20
190.5496
 10
659.1201
 20
191.0969
 10
659.4847
 20
191.5736
 10
659.9307
 20
191.969
 10
660.4439
 20
192.2728
 10
661.0101
 20
192.4746
 10
661.6148
 20
192.5638
 10
662.2439
 20
192.5302
  0
LWPOLYLINE
  5
AC
330
1F
100
AcDbEntity
  8
Layer 1
 62
     7
370
    18
100
AcDbPolyline
 90
       33
 70
     1
 43
0.0
 10
656.0637
 20
208.2432
 10
656.6734
 20
208.0851
 10
657.2226
 20
207.8172
 10
657.7009
 20
207.4539
 10
658.0976
 20
207.0094
 10
658.4025
 20
206.4979
 10
658.6049
 20
205.9337
 10
658.6945
 20
205.331
 10
658.6608
 20
204.704
 10
658.5021
 20
204.0964
 10
658.2334
 20
203.549
 10
657.8688
 20
203.0724
 10
657.4228
 20
202.677
 10
656.9096
 20
202.3732
 10
656.3434
 20
202.1714
 10
655.7387
 20
202.0821
 10
655.1096
 20
202.1157
 10
654.4999
 20
202.2738
 10
653.9507
 20
202.5417
 10
653.4725
 20
202.905
 10
653.0758
 20
203.3495
 10
652.7709
 20
203.861
 10
652.5685
 20
204.4253
 10
652.4789
 20
205.028
 10
652.5126
 20
205.6549
 10
652.6713
 20
206.2626
 10
652.94
 20
206.8099
 10
653.3046
 20
207.2865
 10
653.7506
 20
207.682
 10
654.2638
 20
207.9858
 10
654.8299
 20
208.1875
 10
655.4346
 20
208.2768
 10
656.0637
 20
208.2432
  0
LWPOLYLINE
  5
AD
330
1F
100
AcDbEntity
  8
Layer 1
 62
     7
370
    18
100
AcDbPolyline
 90
       33
 70
     1
 43
0.0
 10
652.1354
 20
224.1887
 10
652.7451
 20
224.0306
 10
653.2943
 20
223.7627
 10
653.7726
 20
223.3994
 10
654.1693
 20
222.9549
 10
654.4742
 20
222.4434
 10
654.6766
 20
221.8792
 10
654.7662
 20
221.2765
 10
654.7325
 20
220.6495
 10
654.5738
 20
220.0419
 10
654.3051
 20
219.4947
 10
653.9405
 20
219.0183
 10
653.4945
 20
218.6231
 10
652.9813
 20
218.3194
 10
652.4151
 20
218.1176
 10
651.8104
 20
218.028
 10
651.1813
 20
218.0612
 10
650.5716
 20
218.2194
 10
650.0224
 20
218.4875
 10
649.5441
 20
218.851
 10
649.1474
 20
219.2957
 10
648.8425
 20
219.8073
 10
648.6401
 20
220.3714
 10
648.5505
 20
220.9739
 10
648.5842
 20
221.6004
 10
648.7429
 20
222.2081
 10
649.0116
 20
222.7554
 10
649.3762
 20
223.2321
 10
649.8222
 20
223.6275
 10
650.3354
 20
223.9313
 10
650.9016
 20
224.1331
 10
651.5063
 20
224.2223
 10
652.1354
 20
224.1887
  0
LWPOLYLINE
  5
AE
330
1F
100
AcDbEntity
  8
Layer 1
 62
     7
370
    18
100
AcDbPolyline
 90
       33
 70
     1
 43
0.0
 10
651.0886
 20
239.9224
 10
651.6978
 20
239.7643
 10
652.2466
 20
239.4964
 10
652.7245
 20
239.1331
 10
653.1211
 20
238.6886
 10
653.4258
 20
238.1771
 10
653.6282
 20
237.6129
 10
653.7177
 20
237.0102
 10
653.684
 20
236.3832
 10
653.5258
 20
235.7756
 10
653.2573
 20
235.2282
 10
652.8928
 20
234.7516
 10
652.4467
 20
234.3562
 10
651.9333
 20
234.0524
 10
651.367
 20
233.8506
 10
650.762
 20
233.7613
 10
650.1329
 20
233.7949
 10
649.5237
 20
233.953
 10
648.9749
 20
234.2209
 10
648.497
 20
234.5842
 10
648.1004
 20
235.0287
 10
647.7956
 20
235.5402
 10
647.5932
 20
236.1045
 10
647.5037
 20
236.7072
 10
647.5374
 20
237.3341
 10
647.6956
 20
237.9418
 10
647.9642
 20
238.4891
 10
648.3287
 20
238.9657
 10
648.7748
 20
239.3612
 10
649.2882
 20
239.665
 10
649.8545
 20
239.8667
 10
650.4594
 20
239.956
 10
651.0886
 20
239.9224
  0
LWPOLYLINE
  5
AF
330
1F
100
AcDbEntity
  8
Layer 1
 62
     7
370
    18
100
AcDbPolyline
 90
       33
 70
     1
 43
0.0
 10
652.4215
 20
254.4727
 10
653.0312
 20
254.3145
 10
653.5804
 20
254.0465
 10
654.0586
 20
253.683
 10
654.4554
 20
253.2383
 10
654.7602
 20
252.7267
 10
654.9627
 20
252.1625
 10
655.0522
 20
251.56
 10
655.0185
 20
250.9335
 10
654.8598
 20
250.3258
 10
654.5911
 20
249.7785
 10
654.2265
 20
249.3019
 10
653.7805
 20
248.9065
 10
653.2673
 20
248.6026
 10
652.7012
 20
248.4009
 10
652.0965
 20
248.3116
 10
651.4674
 20
248.3452
 10
650.8577
 20
248.5033
 10
650.3085
 20
248.7712
 10
649.8302
 20
249.1345
 10
649.4335
 20
249.579
 10
649.1286
 20
250.0905
 10
648.9262
 20
250.6547
 10
648.8366
 20
251.2574
 10
648.8703
 20
251.8844
 10
649.029
 20
252.492
 10
649.2977
 20
253.0392
 10
649.6623
 20
253.5156
 10
650.1083
 20
253.9108
 10
650.6215
 20
254.2145
 10
651.1877
 20
254.4163
 10
651.7924
 20
254.5059
 10
652.4215
 20
254.4727
  0
LWPOLYLINE
  5
B0
330
1F
100
AcDbEntity
  8
Layer 1
 62
     7
370
    18
100
AcDbPolyline
 90
       33
 70
     1
 43
0.0
 10
657.7546
 20
267.0096
 10
658.3643
 20
266.8515
 10
658.9135
 20
266.5836
 10
659.3918
 20
266.2203
 10
659.7885
 20
265.7758
 10
660.0934
 20
265.2643
 10
660.2958
 20
264.7001
 10
660.3854
 20
264.0974
 10
660.3517
 20
263.4704
 10
660.193
 20
262.8628
 10
659.9243
 20
262.3156
 10
659.5597
 20
261.8392
 10
659.1137
 20
261.444
 10
658.6005
 20
261.1402
 10
658.0343
 20
260.9384
 10
657.4296
 20
260.8489
 10
656.8005
 20
260.8821
 10
656.1908
 20
261.0403
 10
655.6418
 20
261.3083
 10
655.1638
 20
261.6718
 10
654.7672
 20
262.1165
 10
654.4625
 20
262.6281
 10
654.26
 20
263.1923
 10
654.1702
 20
263.7948
 10
654.2035
 20
264.4213
 10
654.3622
 20
265.029
 10
654.6312
 20
265.5763
 10
654.9959
 20
266.0529
 10
655.4421
 20
266.4484
 10
655.9554
 20
266.7522
 10
656.5215
 20
266.9539
 10
657.126
 20
267.0432
 10
657.7546
 20
267.0096
  0
LWPOLYLINE
  5
B1
330
1F
100
AcDbEntity
  8
Layer 1
 62
     7
370
    18
100
AcDbPolyline
 90
       33
 70
     1
 43
0.0
 10
665.4626
 20
276.4501
 10
666.0723
 20
276.292
 10
666.6215
 20
276.0241
 10
667.0998
 20
275.6608
 10
667.4965
 20
275.2163
 10
667.8014
 20
274.7048
 10
668.0038
 20
274.1406
 10
668.0934
 20
273.5379
 10
668.0597
 20
272.9109
 10
667.901
 20
272.3033
 10
667.6323
 20
271.7559
 10
667.2677
 20
271.2793
 10
666.8217
 20
270.8839
 10
666.3085
 20
270.5801
 10
665.7423
 20
270.3783
 10
665.1376
 20
270.289
 10
664.5085
 20
270.3226
 10
663.8988
 20
270.4807
 10
663.3496
 20
270.7486
 10
662.8714
 20
271.1119
 10
662.4747
 20
271.5564
 10
662.1698
 20
272.0679
 10
661.9674
 20
272.6322
 10
661.8778
 20
273.2349
 10
661.9115
 20
273.8618
 10
662.0702
 20
274.4695
 10
662.3389
 20
275.0168
 10
662.7035
 20
275.4934
 10
663.1495
 20
275.8889
 10
663.6627
 20
276.1927
 10
664.2288
 20
276.3944
 10
664.8335
 20
276.4837
 10
665.4626
 20
276.4501
  0
LWPOLYLINE
  5
B2
330
1F
100
AcDbEntity
  8
Layer 1
 62
     7
370
    18
100
AcDbPolyline
 90
       33
 70
     1
 43
0.0
 10
693.4772
 20
246.754
 10
694.0869
 20
246.5958
 10
694.6361
 20
246.328
 10
695.1143
 20
245.9646
 10
695.511
 20
245.5201
 10
695.8159
 20
245.0086
 10
696.0183
 20
244.4444
 10
696.1079
 20
243.8417
 10
696.0742
 20
243.2148
 10
695.9155
 20
242.6077
 10
695.6468
 20
242.0607
 10
695.2822
 20
241.5844
 10
694.8362
 20
241.1891
 10
694.323
 20
240.8854
 10
693.7569
 20
240.6837
 10
693.1522
 20
240.5944
 10
692.5231
 20
240.628
 10
691.9134
 20
240.7857
 10
691.3642
 20
241.0533
 10
690.8859
 20
241.4166
 10
690.4892
 20
241.8611
 10
690.1843
 20
242.3726
 10
689.9819
 20
242.9367
 10
689.8923
 20
243.5392
 10
689.926
 20
244.1657
 10
690.0847
 20
244.7733
 10
690.3534
 20
245.3207
 10
690.718
 20
245.7973
 10
691.164
 20
246.1927
 10
691.6772
 20
246.4965
 10
692.2434
 20
246.6983
 10
692.8481
 20
246.7876
 10
693.4772
 20
246.754
  0
LWPOLYLINE
  5
B3
330
1F
100
AcDbEntity
  8
Layer 1
 62
     7
370
    18
100
AcDbPolyline
 90
       33
 70
     1
 43
0.0
 10
704.6021
 20
239.2232
 10
705.2118
 20
239.0651
 10
705.761
 20
238.7972
 10
706.2393
 20
238.4339
 10
706.636
 20
237.9894
 10
706.9409
 20
237.4779
 10
707.1433
 20
236.9136
 10
707.2329
 20
236.3109
 10
707.1992
 20
235.684
 10
707.0405
 20
235.0763
 10
706.7718
 20
234.529
 10
706.4072
 20
234.0524
 10
705.9612
 20
233.657
 10
705.448
 20
233.3531
 10
704.8818
 20
233.1514
 10
704.2771
 20
233.0621
 10
703.648
 20
233.0957
 10
703.0388
 20
233.2538
 10
702.49
 20
233.5217
 10
702.012
 20
233.885
 10
701.6153
 20
234.3295
 10
701.3104
 20
234.841
 10
701.1078
 20
235.4052
 10
701.0178
 20
236.0079
 10
701.051
 20
236.6349
 10
701.2097
 20
237.2425
 10
701.4787
 20
237.7899
 10
701.8434
 20
238.2665
 10
702.2896
 20
238.6619
 10
702.8029
 20
238.9657
 10
703.369
 20
239.1675
 10
703.9735
 20
239.2568
 10
704.6021
 20
239.2232
  0
LWPOLYLINE
  5
B4
330
1F
100
AcDbEntity
  8
Layer 1
 62
     7
370
    18
100
AcDbPolyline
 90
       33
 70
     1
 43
0.0
 10
713.0757
 20
225.1301
 10
713.6854
 20
224.972
 10
714.2346
 20
224.7041
 10
714.7128
 20
224.3408
 10
715.1095
 20
223.8963
 10
715.4144
 20
223.3848
 10
715.6168
 20
222.8205
 10
715.7064
 20
222.2178
 10
715.6727
 20
221.5909
 10
715.514
 20
220.9838
 10
715.2453
 20
220.4368
 10
714.8807
 20
219.9604
 10
714.4347
 20
219.5651
 10
713.9215
 20
219.2612
 10
713.3554
 20
219.0592
 10
712.7507
 20
218.9695
 10
712.1216
 20
219.0026
 10
711.5119
 20
219.1608
 10
710.9627
 20
219.4288
 10
710.4844
 20
219.7923
 10
710.0877
 20
220.237
 10
709.7828
 20
220.7486
 10
709.5804
 20
221.3128
 10
709.4908
 20
221.9153
 10
709.5245
 20
222.5418
 10
709.6832
 20
223.1494
 10
709.9519
 20
223.6968
 10
710.3165
 20
224.1734
 10
710.7625
 20
224.5688
 10
711.2757
 20
224.8726
 10
711.8419
 20
225.0744
 10
712.4466
 20
225.1637
 10
713.0757
 20
225.1301
  0
LWPOLYLINE
  5
B5
330
1F
100
AcDbEntity
  8
Layer 1
 62
     7
370
    18
100
AcDbPolyline
 90
       33
 70
     1
 43
0.0
 10
716.6396
 20
209.2451
 10
717.2493
 20
209.087
 10
717.7985
 20
208.8191
 10
718.2768
 20
208.4558
 10
718.6735
 20
208.0113
 10
718.9784
 20
207.4998
 10
719.1808
 20
206.9355
 10
719.2704
 20
206.3328
 10
719.2367
 20
205.7059
 10
719.078
 20
205.0982
 10
718.8093
 20
204.5509
 10
718.4447
 20
204.0743
 10
717.9987
 20
203.6789
 10
717.4855
 20
203.375
 10
716.9193
 20
203.1733
 10
716.3146
 20
203.084
 10
715.6855
 20
203.1176
 10
715.0758
 20
203.2757
 10
714.5266
 20
203.5436
 10
714.0484
 20
203.9069
 10
713.6516
 20
204.3514
 10
713.3468
 20
204.8629
 10
713.1444
 20
205.4271
 10
713.0548
 20
206.0298
 10
713.0885
 20
206.6568
 10
713.2472
 20
207.2644
 10
713.5159
 20
207.8118
 10
713.8804
 20
208.2884
 10
714.3265
 20
208.6838
 10
714.8397
 20
208.9876
 10
715.4058
 20
209.1894
 10
716.0105
 20
209.2787
 10
716.6396
 20
209.2451
  0
LWPOLYLINE
  5
B6
330
1F
100
AcDbEntity
  8
Layer 1
 62
     7
370
    18
100
AcDbPolyline
 90
       33
 70
     1
 43
0.0
 10
714.6115
 20
195.848
 10
715.2207
 20
195.6898
 10
715.7695
 20
195.4218
 10
716.2474
 20
195.0583
 10
716.644
 20
194.6136
 10
716.9488
 20
194.102
 10
717.1512
 20
193.5378
 10
717.2407
 20
192.9353
 10
717.207
 20
192.3088
 10
717.0488
 20
191.7012
 10
716.7803
 20
191.1538
 10
716.4158
 20
190.6772
 10
715.9698
 20
190.2818
 10
715.4566
 20
189.978
 10
714.8905
 20
189.7762
 10
714.286
 20
189.6869
 10
713.6574
 20
189.7205
 10
713.0477
 20
189.8787
 10
712.4985
 20
190.1465
 10
712.0203
 20
190.5099
 10
711.6235
 20
190.9544
 10
711.3187
 20
191.4659
 10
711.1163
 20
192.0301
 10
711.0267
 20
192.6328
 10
711.0604
 20
193.2597
 10
711.2191
 20
193.8673
 10
711.4878
 20
194.4145
 10
711.8524
 20
194.8909
 10
712.2984
 20
195.2862
 10
712.8116
 20
195.5899
 10
713.3777
 20
195.7917
 10
713.9824
 20
195.8812
 10
714.6115
 20
195.848
  0
LWPOLYLINE
  5
B7
330
1F
100
AcDbEntity
  8
Layer 1
 62
     7
370
    18
100
AcDbPolyline
 90
       33
 70
     1
 43
0.0
 10
706.6558
 20
188.1899
 10
707.2655
 20
188.0317
 10
707.8147
 20
187.7637
 10
708.2929
 20
187.4002
 10
708.6896
 20
186.9555
 10
708.9945
 20
186.4439
 10
709.1969
 20
185.8797
 10
709.2865
 20
185.2772
 10
709.2528
 20
184.6507
 10
709.0941
 20
184.043
 10
708.8254
 20
183.4957
 10
708.4608
 20
183.019
 10
708.0148
 20
182.6236
 10
707.5016
 20
182.3198
 10
706.9355
 20
182.118
 10
706.3308
 20
182.0288
 10
705.7017
 20
182.0624
 10
705.092
 20
182.2205
 10
704.5428
 20
182.4884
 10
704.0645
 20
182.8517
 10
703.6678
 20
183.2962
 10
703.3629
 20
183.8077
 10
703.1605
 20
184.3719
 10
703.0709
 20
184.9746
 10
703.1046
 20
185.6016
 10
703.2633
 20
186.2092
 10
703.532
 20
186.7564
 10
703.8966
 20
187.2328
 10
704.3426
 20
187.628
 10
704.8558
 20
187.9317
 10
705.422
 20
188.1335
 10
706.0267
 20
188.2231
 10
706.6558
 20
188.1899
  0
LWPOLYLINE
  5
B8
330
1F
100
AcDbEntity
  8
Layer 1
 62
     7
370
    18
100
AcDbPolyline
 90
       33
 70
     1
 43
0.0
 10
695.1744
 20
188.7983
 10
695.7841
 20
188.6402
 10
696.3333
 20
188.3723
 10
696.8116
 20
188.009
 10
697.2083
 20
187.5645
 10
697.5132
 20
187.053
 10
697.7156
 20
186.4888
 10
697.8052
 20
185.8861
 10
697.7715
 20
185.2591
 10
697.6128
 20
184.6515
 10
697.3441
 20
184.1041
 10
696.9795
 20
183.6275
 10
696.5335
 20
183.2321
 10
696.0203
 20
182.9283
 10
695.4541
 20
182.7265
 10
694.8494
 20
182.6372
 10
694.2203
 20
182.6708
 10
693.6106
 20
182.8289
 10
693.0614
 20
183.0968
 10
692.5832
 20
183.4601
 10
692.1865
 20
183.9046
 10
691.8816
 20
184.4161
 10
691.6792
 20
184.9804
 10
691.5896
 20
185.5831
 10
691.6233
 20
186.21
 10
691.782
 20
186.8177
 10
692.0507
 20
187.365
 10
692.4153
 20
187.8416
 10
692.8613
 20
188.2371
 10
693.3745
 20
188.5409
 10
693.9406
 20
188.7426
 10
694.5453
 20
188.8319
 10
695.1744
 20
188.7983
  0
LWPOLYLINE
  5
B9
330
1F
100
AcDbEntity
  8
Layer 1
 62
     7
370
    18
100
AcDbPolyline
 90
       33
 70
     1
 43
0.0
 10
685.4623
 20
196.8085
 10
686.072
 20
196.6504
 10
686.6212
 20
196.3825
 10
687.0994
 20
196.0192
 10
687.4962
 20
195.5747
 10
687.801
 20
195.0632
 10
688.0035
 20
194.499
 10
688.093
 20
193.8963
 10
688.0593
 20
193.2693
 10
687.9006
 20
192.6616
 10
687.6319
 20
192.1143
 10
687.2673
 20
191.6377
 10
686.8213
 20
191.2423
 10
686.3081
 20
190.9384
 10
685.742
 20
190.7367
 10
685.1373
 20
190.6474
 10
684.5082
 20
190.681
 10
683.8985
 20
190.8391
 10
683.3493
 20
191.107
 10
682.871
 20
191.4703
 10
682.4743
 20
191.9148
 10
682.1694
 20
192.4263
 10
681.967
 20
192.9906
 10
681.8774
 20
193.5933
 10
681.9111
 20
194.2202
 10
682.0698
 20
194.8279
 10
682.3385
 20
195.3752
 10
682.7031
 20
195.8518
 10
683.1491
 20
196.2473
 10
683.6623
 20
196.5511
 10
684.2285
 20
196.7528
 10
684.8332
 20
196.8421
 10
685.4623
 20
196.8085
  0
LWPOLYLINE
  5
BA
330
1F
100
AcDbEntity
  8
Layer 1
 62
     7
370
    18
100
AcDbPolyline
 90
       33
 70
     1
 43
0.0
 10
677.8022
 20
210.1371
 10
678.4119
 20
209.9789
 10
678.9611
 20
209.7108
 10
679.4394
 20
209.3473
 10
679.8361
 20
208.9026
 10
680.141
 20
208.391
 10
680.3434
 20
207.8269
 10
680.433
 20
207.2244
 10
680.3993
 20
206.5979
 10
680.2406
 20
205.9902
 10
679.9719
 20
205.4429
 10
679.6073
 20
204.9662
 10
679.1613
 20
204.5708
 10
678.6481
 20
204.267
 10
678.0819
 20
204.0652
 10
677.4772
 20
203.976
 10
676.8481
 20
204.0096
 10
676.2384
 20
204.1677
 10
675.6894
 20
204.4356
 10
675.2114
 20
204.7989
 10
674.8148
 20
205.2434
 10
674.51
 20
205.7549
 10
674.3075
 20
206.3191
 10
674.2177
 20
206.9218
 10
674.251
 20
207.5488
 10
674.4098
 20
208.1564
 10
674.6787
 20
208.7036
 10
675.0434
 20
209.18
 10
675.4896
 20
209.5752
 10
676.0029
 20
209.8789
 10
676.569
 20
210.0807
 10
677.1736
 20
210.1703
 10
677.8022
 20
210.1371
  0
LWPOLYLINE
  5
BB
330
1F
100
AcDbEntity
  8
Layer 1
 62
     7
370
    18
100
AcDbPolyline
 90
       33
 70
     1
 43
0.0
 10
673.9953
 20
225.3658
 10
674.605
 20
225.2081
 10
675.1542
 20
224.9405
 10
675.6325
 20
224.5772
 10
676.0292
 20
224.1326
 10
676.3341
 20
223.6209
 10
676.5365
 20
223.0565
 10
676.6261
 20
222.4536
 10
676.5924
 20
221.8266
 10
676.4337
 20
221.2195
 10
676.165
 20
220.6725
 10
675.8004
 20
220.1962
 10
675.3544
 20
219.801
 10
674.8412
 20
219.4973
 10
674.275
 20
219.2956
 10
673.6703
 20
219.2063
 10
673.0412
 20
219.2399
 10
672.4315
 20
219.3976
 10
671.8823
 20
219.6652
 10
671.4041
 20
220.0285
 10
671.0074
 20
220.4731
 10
670.7025
 20
220.9848
 10
670.5001
 20
221.5492
 10
670.4105
 20
222.1521
 10
670.4442
 20
222.7791
 10
670.6029
 20
223.3862
 10
670.8716
 20
223.9332
 10
671.2362
 20
224.4095
 10
671.6822
 20
224.8048
 10
672.1954
 20
225.1084
 10
672.7615
 20
225.3102
 10
673.3662
 20
225.3994
 10
673.9953
 20
225.3658
  0
LWPOLYLINE
  5
BC
330
1F
100
AcDbEntity
  8
Layer 1
 62
     7
370
    18
100
AcDbPolyline
 90
       33
 70
     1
 43
0.0
 10
676.1065
 20
238.1719
 10
676.7157
 20
238.0137
 10
677.2645
 20
237.7457
 10
677.7424
 20
237.3822
 10
678.139
 20
236.9375
 10
678.4438
 20
236.4259
 10
678.6462
 20
235.8617
 10
678.7357
 20
235.2592
 10
678.702
 20
234.6327
 10
678.5438
 20
234.0251
 10
678.2752
 20
233.4777
 10
677.9107
 20
233.0011
 10
677.4646
 20
232.6057
 10
676.9512
 20
232.3019
 10
676.3849
 20
232.1001
 10
675.78
 20
232.0108
 10
675.1508
 20
232.0444
 10
674.5416
 20
232.2026
 10
673.9929
 20
232.4704
 10
673.5149
 20
232.8338
 10
673.1184
 20
233.2783
 10
672.8136
 20
233.7898
 10
672.6112
 20
234.354
 10
672.5217
 20
234.9567
 10
672.5554
 20
235.5836
 10
672.7136
 20
236.1907
 10
672.9822
 20
236.7377
 10
673.3467
 20
237.2141
 10
673.7928
 20
237.6095
 10
674.3062
 20
237.9134
 10
674.8725
 20
238.1154
 10
675.4774
 20
238.205
 10
676.1065
 20
238.1719
  0
LWPOLYLINE
  5
BD
330
1F
100
AcDbEntity
  8
Layer 1
 62
     7
370
    18
100
AcDbPolyline
 90
       33
 70
     1
 43
0.0
 10
682.5552
 20
246.6441
 10
683.1649
 20
246.4859
 10
683.7141
 20
246.2181
 10
684.1923
 20
245.8547
 10
684.5891
 20
245.4102
 10
684.8939
 20
244.8987
 10
685.0964
 20
244.3345
 10
685.1859
 20
243.7318
 10
685.1522
 20
243.1048
 10
684.9935
 20
242.4972
 10
684.7248
 20
241.9498
 10
684.3603
 20
241.4732
 10
683.9143
 20
241.0778
 10
683.401
 20
240.774
 10
682.8349
 20
240.5722
 10
682.2302
 20
240.4829
 10
681.6011
 20
240.5165
 10
680.9914
 20
240.6747
 10
680.4422
 20
240.9425
 10
679.9639
 20
241.3059
 10
679.5672
 20
241.7504
 10
679.2623
 20
242.2619
 10
679.0599
 20
242.8261
 10
678.9703
 20
243.4288
 10
679.004
 20
244.0558
 10
679.1627
 20
244.6634
 10
679.4314
 20
245.2108
 10
679.796
 20
245.6874
 10
680.242
 20
246.0828
 10
680.7552
 20
246.3866
 10
681.3214
 20
246.5884
 10
681.9261
 20
246.6777
 10
682.5552
 20
246.6441
  0
LWPOLYLINE
  5
BE
330
1F
100
AcDbEntity
  8
Layer 1
 62
     7
370
    18
100
AcDbPolyline
 90
       33
 70
     1
 43
0.0
 10
690.9217
 20
230.3593
 10
691.5309
 20
230.2011
 10
692.0797
 20
229.9333
 10
692.5576
 20
229.5699
 10
692.9542
 20
229.1254
 10
693.2589
 20
228.6139
 10
693.4613
 20
228.0497
 10
693.5508
 20
227.447
 10
693.5171
 20
226.8201
 10
693.3589
 20
226.2125
 10
693.0903
 20
225.6653
 10
692.7258
 20
225.1889
 10
692.2797
 20
224.7936
 10
691.7663
 20
224.4899
 10
691.2
 20
224.2881
 10
690.5951
 20
224.1986
 10
689.966
 20
224.2318
 10
689.3568
 20
224.39
 10
688.808
 20
224.658
 10
688.3301
 20
225.0215
 10
687.9335
 20
225.4662
 10
687.6287
 20
225.9778
 10
687.4263
 20
226.542
 10
687.3368
 20
227.1445
 10
687.3705
 20
227.771
 10
687.5287
 20
228.3786
 10
687.7973
 20
228.926
 10
688.1618
 20
229.4026
 10
688.6079
 20
229.798
 10
689.1213
 20
230.1018
 10
689.6876
 20
230.3036
 10
690.2925
 20
230.3929
 10
690.9217
 20
230.3593
  0
LWPOLYLINE
  5
BF
330
1F
100
AcDbEntity
  8
Layer 1
 62
     7
370
    18
100
AcDbPolyline
 90
       33
 70
     1
 43
0.0
 10
701.2699
 20
223.8208
 10
701.8796
 20
223.6627
 10
702.4286
 20
223.3948
 10
702.9066
 20
223.0315
 10
703.3032
 20
222.587
 10
703.608
 20
222.0755
 10
703.8105
 20
221.5113
 10
703.9003
 20
220.9086
 10
703.867
 20
220.2816
 10
703.7082
 20
219.674
 10
703.4393
 20
219.1266
 10
703.0746
 20
218.65
 10
702.6284
 20
218.2546
 10
702.1151
 20
217.9508
 10
701.549
 20
217.749
 10
700.9444
 20
217.6597
 10
700.3158
 20
217.6933
 10
699.7061
 20
217.8514
 10
699.1569
 20
218.1193
 10
698.6786
 20
218.4826
 10
698.2819
 20
218.9271
 10
697.977
 20
219.4386
 10
697.7746
 20
220.0029
 10
697.685
 20
220.6056
 10
697.7187
 20
221.2325
 10
697.8774
 20
221.8402
 10
698.1461
 20
222.3875
 10
698.5107
 20
222.8641
 10
698.9567
 20
223.2596
 10
699.4699
 20
223.5634
 10
700.0361
 20
223.7651
 10
700.6408
 20
223.8544
 10
701.2699
 20
223.8208
  0
LWPOLYLINE
  5
C0
330
1F
100
AcDbEntity
  8
Layer 1
 62
     7
370
    18
100
AcDbPolyline
 90
       33
 70
     1
 43
0.0
 10
703.3443
 20
210.196
 10
703.954
 20
210.0378
 10
704.5032
 20
209.7698
 10
704.9815
 20
209.4063
 10
705.3782
 20
208.9616
 10
705.6831
 20
208.45
 10
705.8855
 20
207.8858
 10
705.9751
 20
207.2833
 10
705.9414
 20
206.6568
 10
705.7827
 20
206.0491
 10
705.514
 20
205.5018
 10
705.1494
 20
205.0252
 10
704.7034
 20
204.6298
 10
704.1902
 20
204.3259
 10
703.624
 20
204.1242
 10
703.0193
 20
204.0349
 10
702.3902
 20
204.0685
 10
701.781
 20
204.2266
 10
701.2322
 20
204.4945
 10
700.7542
 20
204.8578
 10
700.3576
 20
205.3023
 10
700.0526
 20
205.8138
 10
699.85
 20
206.378
 10
699.76
 20
206.9807
 10
699.7932
 20
207.6077
 10
699.952
 20
208.2153
 10
700.2209
 20
208.7625
 10
700.5856
 20
209.2389
 10
701.0318
 20
209.6341
 10
701.5451
 20
209.9378
 10
702.1112
 20
210.1396
 10
702.7157
 20
210.2292
 10
703.3443
 20
210.196
  0
LWPOLYLINE
  5
C1
330
1F
100
AcDbEntity
  8
Layer 1
 62
     7
370
    18
100
AcDbPolyline
 90
       33
 70
     1
 43
0.0
 10
696.7135
 20
203.5524
 10
697.3232
 20
203.3942
 10
697.8722
 20
203.1262
 10
698.3502
 20
202.7627
 10
698.7468
 20
202.318
 10
699.0515
 20
201.8064
 10
699.254
 20
201.2422
 10
699.3438
 20
200.6397
 10
699.3105
 20
200.0132
 10
699.1517
 20
199.4056
 10
698.8828
 20
198.8582
 10
698.5181
 20
198.3816
 10
698.0719
 20
197.9862
 10
697.5586
 20
197.6824
 10
696.9925
 20
197.4806
 10
696.388
 20
197.3913
 10
695.7594
 20
197.4249
 10
695.1497
 20
197.583
 10
694.6005
 20
197.8509
 10
694.1222
 20
198.2142
 10
693.7255
 20
198.6587
 10
693.4206
 20
199.1702
 10
693.2182
 20
199.7345
 10
693.1286
 20
200.3372
 10
693.1623
 20
200.9641
 10
693.321
 20
201.5717
 10
693.5897
 20
202.1189
 10
693.9543
 20
202.5953
 10
694.4003
 20
202.9906
 10
694.9135
 20
203.2943
 10
695.4797
 20
203.4961
 10
696.0844
 20
203.5856
 10
696.7135
 20
203.5524
  0
LWPOLYLINE
  5
C2
330
1F
100
AcDbEntity
  8
Layer 1
 62
     7
370
    18
100
AcDbPolyline
 90
       33
 70
     1
 43
0.0
 10
688.721
 20
210.2502
 10
689.3302
 20
210.092
 10
689.879
 20
209.8242
 10
690.3569
 20
209.4608
 10
690.7535
 20
209.0163
 10
691.0582
 20
208.5048
 10
691.2606
 20
207.9406
 10
691.3501
 20
207.3379
 10
691.3164
 20
206.7109
 10
691.1582
 20
206.1033
 10
690.8896
 20
205.5559
 10
690.5251
 20
205.0793
 10
690.079
 20
204.6839
 10
689.5656
 20
204.3801
 10
688.9993
 20
204.1783
 10
688.3944
 20
204.089
 10
687.7653
 20
204.1226
 10
687.1561
 20
204.2808
 10
686.6073
 20
204.5486
 10
686.1294
 20
204.912
 10
685.7328
 20
205.3565
 10
685.428
 20
205.868
 10
685.2256
 20
206.4322
 10
685.1361
 20
207.0349
 10
685.1698
 20
207.6618
 10
685.328
 20
208.2695
 10
685.5966
 20
208.8168
 10
685.9611
 20
209.2935
 10
686.4072
 20
209.6889
 10
686.9206
 20
209.9927
 10
687.4869
 20
210.1945
 10
688.0918
 20
210.2838
 10
688.721
 20
210.2502
  0
LWPOLYLINE
  5
C3
330
1F
100
AcDbEntity
  8
Layer 1
 62
     7
370
    18
100
AcDbPolyline
 90
       33
 70
     1
 43
0.0
 10
684.8502
 20
223.5723
 10
685.4594
 20
223.4146
 10
686.0082
 20
223.147
 10
686.4861
 20
222.7838
 10
686.8827
 20
222.3393
 10
687.1874
 20
221.8278
 10
687.3898
 20
221.2637
 10
687.4793
 20
220.6612
 10
687.4456
 20
220.0347
 10
687.2874
 20
219.4271
 10
687.0188
 20
218.8797
 10
686.6543
 20
218.4031
 10
686.2082
 20
218.0077
 10
685.6948
 20
217.7039
 10
685.1285
 20
217.5021
 10
684.5236
 20
217.4128
 10
683.8945
 20
217.4464
 10
683.2853
 20
217.6045
 10
682.7365
 20
217.8724
 10
682.2586
 20
218.2357
 10
681.862
 20
218.6802
 10
681.5572
 20
219.1917
 10
681.3548
 20
219.756
 10
681.2653
 20
220.3587
 10
681.299
 20
220.9856
 10
681.4572
 20
221.5927
 10
681.7258
 20
222.1397
 10
682.0903
 20
222.616
 10
682.5364
 20
223.0113
 10
683.0498
 20
223.3149
 10
683.6161
 20
223.5167
 10
684.221
 20
223.6059
 10
684.8502
 20
223.5723
  0
LWPOLYLINE
  5
C4
330
1F
100
AcDbEntity
  8
Layer 1
 62
     7
370
    18
100
AcDbPolyline
 90
       33
 70
     1
 43
0.0
 10
684.8294
 20
254.6988
 10
685.1992
 20
254.6029
 10
685.5323
 20
254.4404
 10
685.8224
 20
254.22
 10
686.0632
 20
253.9502
 10
686.2482
 20
253.6399
 10
686.3711
 20
253.2976
 10
686.4256
 20
252.9319
 10
686.4052
 20
252.5517
 10
686.309
 20
252.1833
 10
686.1459
 20
251.8515
 10
685.9247
 20
251.5626
 10
685.6541
 20
251.3229
 10
685.3427
 20
251.1388
 10
684.9992
 20
251.0165
 10
684.6324
 20
250.9624
 10
684.2509
 20
250.9828
 10
683.8812
 20
251.0787
 10
683.5482
 20
251.2412
 10
683.2583
 20
251.4616
 10
683.0179
 20
251.7313
 10
682.8331
 20
252.0414
 10
682.7105
 20
252.3834
 10
682.6562
 20
252.7486
 10
682.6767
 20
253.1283
 10
682.7729
 20
253.4968
 10
682.9357
 20
253.8289
 10
683.1567
 20
254.118
 10
683.427
 20
254.358
 10
683.7381
 20
254.5424
 10
684.0813
 20
254.6649
 10
684.448
 20
254.7191
 10
684.8294
 20
254.6988
  0
LWPOLYLINE
  5
C5
330
1F
100
AcDbEntity
  8
Layer 1
 62
     7
370
    18
100
AcDbPolyline
 90
       33
 70
     1
 43
0.0
 10
690.4119
 20
254.7944
 10
690.7816
 20
254.6985
 10
691.1145
 20
254.536
 10
691.4044
 20
254.3155
 10
691.6449
 20
254.0458
 10
691.8296
 20
253.7354
 10
691.9523
 20
253.3931
 10
692.0066
 20
253.0275
 10
691.9861
 20
252.6473
 10
691.8899
 20
252.2789
 10
691.727
 20
251.947
 10
691.5061
 20
251.6581
 10
691.2357
 20
251.4185
 10
690.9246
 20
251.2344
 10
690.5814
 20
251.1121
 10
690.2147
 20
251.058
 10
689.8333
 20
251.0784
 10
689.4636
 20
251.1743
 10
689.1307
 20
251.3368
 10
688.8408
 20
251.5572
 10
688.6003
 20
251.8268
 10
688.4156
 20
252.137
 10
688.2929
 20
252.479
 10
688.2386
 20
252.8442
 10
688.2591
 20
253.2239
 10
688.3553
 20
253.5924
 10
688.5181
 20
253.9245
 10
688.7391
 20
254.2136
 10
689.0094
 20
254.4536
 10
689.3205
 20
254.638
 10
689.6638
 20
254.7605
 10
690.0304
 20
254.8147
 10
690.4119
 20
254.7944
  0
LWPOLYLINE
  5
C6
330
1F
100
AcDbEntity
  8
Layer 1
 62
     7
370
    18
100
AcDbPolyline
 90
       33
 70
     1
 43
0.0
 10
696.0007
 20
253.4342
 10
696.3704
 20
253.3383
 10
696.7033
 20
253.176
 10
696.9932
 20
252.9558
 10
697.2337
 20
252.6864
 10
697.4184
 20
252.3763
 10
697.5411
 20
252.0343
 10
697.5954
 20
251.6688
 10
697.5749
 20
251.2887
 10
697.4792
 20
250.9202
 10
697.3165
 20
250.5884
 10
697.0956
 20
250.2995
 10
696.8252
 20
250.0598
 10
696.5139
 20
249.8757
 10
696.1705
 20
249.7534
 10
695.8037
 20
249.6993
 10
695.4222
 20
249.7197
 10
695.0525
 20
249.8156
 10
694.7195
 20
249.9779
 10
694.4296
 20
250.1981
 10
694.1891
 20
250.4676
 10
694.0044
 20
250.7776
 10
693.8817
 20
251.1197
 10
693.8274
 20
251.4851
 10
693.8479
 20
251.8653
 10
693.9441
 20
252.2337
 10
694.107
 20
252.5655
 10
694.328
 20
252.8544
 10
694.5983
 20
253.0941
 10
694.9094
 20
253.2782
 10
695.2526
 20
253.4005
 10
695.6193
 20
253.4546
 10
696.0007
 20
253.4342
  0
LWPOLYLINE
  5
C7
330
1F
100
AcDbEntity
  8
Layer 1
 62
     7
370
    18
100
AcDbPolyline
 90
       33
 70
     1
 43
0.0
 10
701.6311
 20
250.4716
 10
702.0008
 20
250.3757
 10
702.3337
 20
250.2132
 10
702.6236
 20
249.9928
 10
702.8641
 20
249.7231
 10
703.0488
 20
249.413
 10
703.1715
 20
249.0709
 10
703.2258
 20
248.7057
 10
703.2053
 20
248.326
 10
703.1091
 20
247.9575
 10
702.9463
 20
247.6255
 10
702.7253
 20
247.3364
 10
702.455
 20
247.0964
 10
702.1439
 20
246.912
 10
701.8007
 20
246.7895
 10
701.434
 20
246.7352
 10
701.0526
 20
246.7555
 10
700.6829
 20
246.8514
 10
700.3499
 20
247.014
 10
700.06
 20
247.2344
 10
699.8195
 20
247.5042
 10
699.6348
 20
247.8145
 10
699.5121
 20
248.1568
 10
699.4578
 20
248.5224
 10
699.4783
 20
248.9026
 10
699.5745
 20
249.2706
 10
699.7374
 20
249.6022
 10
699.9584
 20
249.8911
 10
700.2287
 20
250.1309
 10
700.5398
 20
250.3152
 10
700.883
 20
250.4376
 10
701.2497
 20
250.4919
 10
701.6311
 20
250.4716
  0
LWPOLYLINE
  5
C8
330
1F
100
AcDbEntity
  8
Layer 1
 62
     7
370
    18
100
AcDbPolyline
 90
       33
 70
     1
 43
0.0
 10
707.4389
 20
245.6517
 10
707.8081
 20
245.5558
 10
708.1409
 20
245.3933
 10
708.4307
 20
245.1729
 10
708.6713
 20
244.9031
 10
708.8562
 20
244.5928
 10
708.9791
 20
244.2505
 10
709.0335
 20
243.8848
 10
709.0131
 20
243.5046
 10
708.9169
 20
243.1362
 10
708.7538
 20
242.8044
 10
708.5326
 20
242.5155
 10
708.262
 20
242.2758
 10
707.9506
 20
242.0917
 10
707.6071
 20
241.9694
 10
707.2402
 20
241.9153
 10
706.8587
 20
241.9357
 10
706.4895
 20
242.0316
 10
706.1567
 20
242.1941
 10
705.8669
 20
242.4145
 10
705.6263
 20
242.6842
 10
705.4414
 20
242.9943
 10
705.3185
 20
243.3363
 10
705.2641
 20
243.7015
 10
705.2845
 20
244.0812
 10
705.3808
 20
244.4497
 10
705.5439
 20
244.7818
 10
705.7651
 20
245.0709
 10
706.0357
 20
245.3109
 10
706.3471
 20
245.4953
 10
706.6906
 20
245.6178
 10
707.0574
 20
245.672
 10
707.4389
 20
245.6517
  0
LWPOLYLINE
  5
C9
330
1F
100
AcDbEntity
  8
Layer 1
 62
     7
370
    18
100
AcDbPolyline
 90
       33
 70
     1
 43
0.0
 10
712.5738
 20
239.5115
 10
712.9435
 20
239.4156
 10
713.2765
 20
239.2533
 10
713.5664
 20
239.0331
 10
713.8069
 20
238.7637
 10
713.9916
 20
238.4536
 10
714.1143
 20
238.1116
 10
714.1686
 20
237.7462
 10
714.1481
 20
237.366
 10
714.0519
 20
236.9975
 10
713.889
 20
236.6657
 10
713.668
 20
236.3768
 10
713.3977
 20
236.1371
 10
713.0866
 20
235.953
 10
712.7434
 20
235.8308
 10
712.3767
 20
235.7767
 10
711.9953
 20
235.7971
 10
711.6255
 20
235.893
 10
711.2924
 20
236.0553
 10
711.0023
 20
236.2755
 10
710.7615
 20
236.5449
 10
710.5765
 20
236.855
 10
710.4536
 20
237.197
 10
710.3991
 20
237.5624
 10
710.4195
 20
237.9426
 10
710.5157
 20
238.311
 10
710.6788
 20
238.6429
 10
710.9
 20
238.9318
 10
711.1706
 20
239.1714
 10
711.482
 20
239.3555
 10
711.8255
 20
239.4778
 10
712.1923
 20
239.5319
 10
712.5738
 20
239.5115
  0
LWPOLYLINE
  5
CA
330
1F
100
AcDbEntity
  8
Layer 1
 62
     7
370
    18
100
AcDbPolyline
 90
       33
 70
     1
 43
0.0
 10
716.5677
 20
232.9683
 10
716.9369
 20
232.8724
 10
717.2697
 20
232.7099
 10
717.5595
 20
232.4894
 10
717.8001
 20
232.2197
 10
717.985
 20
231.9093
 10
718.1079
 20
231.567
 10
718.1623
 20
231.2014
 10
718.1419
 20
230.8212
 10
718.0457
 20
230.4532
 10
717.8826
 20
230.1216
 10
717.6614
 20
229.8327
 10
717.3908
 20
229.5929
 10
717.0794
 20
229.4087
 10
716.7359
 20
229.2862
 10
716.3691
 20
229.232
 10
715.9876
 20
229.2523
 10
715.6183
 20
229.3482
 10
715.2856
 20
229.5107
 10
714.9957
 20
229.7311
 10
714.7552
 20
230.0009
 10
714.5702
 20
230.3112
 10
714.4474
 20
230.6535
 10
714.393
 20
231.0192
 10
714.4134
 20
231.3994
 10
714.5096
 20
231.7674
 10
714.6727
 20
232.099
 10
714.8939
 20
232.3878
 10
715.1645
 20
232.6276
 10
715.4759
 20
232.8119
 10
715.8194
 20
232.9343
 10
716.1862
 20
232.9886
 10
716.5677
 20
232.9683
  0
LWPOLYLINE
  5
CB
330
1F
100
AcDbEntity
  8
Layer 1
 62
     7
370
    18
100
AcDbPolyline
 90
       33
 70
     1
 43
0.0
 10
719.9798
 20
225.498
 10
720.349
 20
225.4021
 10
720.6818
 20
225.2396
 10
720.9716
 20
225.0192
 10
721.2122
 20
224.7494
 10
721.3971
 20
224.4391
 10
721.52
 20
224.0968
 10
721.5744
 20
223.7311
 10
721.554
 20
223.3509
 10
721.4578
 20
222.9829
 10
721.2947
 20
222.6513
 10
721.0736
 20
222.3624
 10
720.8031
 20
222.1227
 10
720.4919
 20
221.9384
 10
720.1487
 20
221.8159
 10
719.7823
 20
221.7617
 10
719.4013
 20
221.782
 10
719.0315
 20
221.8779
 10
718.6984
 20
222.0405
 10
718.4082
 20
222.2609
 10
718.1675
 20
222.5307
 10
717.9825
 20
222.841
 10
717.8596
 20
223.1833
 10
717.8051
 20
223.5489
 10
717.8255
 20
223.9291
 10
717.9217
 20
224.2971
 10
718.0848
 20
224.6287
 10
718.306
 20
224.9176
 10
718.5766
 20
225.1574
 10
718.888
 20
225.3416
 10
719.2315
 20
225.4641
 10
719.5983
 20
225.5183
 10
719.9798
 20
225.498
  0
LWPOLYLINE
  5
CC
330
1F
100
AcDbEntity
  8
Layer 1
 62
     7
370
    18
100
AcDbPolyline
 90
       33
 70
     1
 43
0.0
 10
722.4202
 20
217.5961
 10
722.79
 20
217.5003
 10
723.1231
 20
217.338
 10
723.4133
 20
217.1178
 10
723.6541
 20
216.8483
 10
723.8391
 20
216.5383
 10
723.962
 20
216.1962
 10
724.0164
 20
215.8308
 10
723.996
 20
215.4506
 10
723.8998
 20
215.0821
 10
723.7367
 20
214.7501
 10
723.5155
 20
214.461
 10
723.2449
 20
214.221
 10
722.9335
 20
214.0366
 10
722.59
 20
213.9141
 10
722.2232
 20
213.8598
 10
721.8417
 20
213.8801
 10
721.472
 20
213.976
 10
721.1391
 20
214.1386
 10
720.8492
 20
214.359
 10
720.6087
 20
214.6288
 10
720.424
 20
214.9391
 10
720.3013
 20
215.2814
 10
720.247
 20
215.647
 10
720.2675
 20
216.0272
 10
720.3637
 20
216.3957
 10
720.5268
 20
216.7275
 10
720.7479
 20
217.0164
 10
721.0184
 20
217.2561
 10
721.3296
 20
217.4402
 10
721.6728
 20
217.5624
 10
722.0392
 20
217.6165
 10
722.4202
 20
217.5961
  0
LWPOLYLINE
  5
CD
330
1F
100
AcDbEntity
  8
Layer 1
 62
     7
370
    18
100
AcDbPolyline
 90
       33
 70
     1
 43
0.0
 10
723.7931
 20
209.1925
 10
724.1628
 20
209.0966
 10
724.4957
 20
208.9341
 10
724.7856
 20
208.7137
 10
725.0261
 20
208.4441
 10
725.2108
 20
208.134
 10
725.3335
 20
207.7919
 10
725.3878
 20
207.4267
 10
725.3673
 20
207.047
 10
725.2711
 20
206.6785
 10
725.1083
 20
206.3465
 10
724.8873
 20
206.0573
 10
724.617
 20
205.8174
 10
724.3059
 20
205.633
 10
723.9626
 20
205.5104
 10
723.596
 20
205.4562
 10
723.2145
 20
205.4765
 10
722.8448
 20
205.5724
 10
722.5119
 20
205.735
 10
722.222
 20
205.9554
 10
721.9815
 20
206.2252
 10
721.7968
 20
206.5355
 10
721.6741
 20
206.8778
 10
721.6198
 20
207.2434
 10
721.6403
 20
207.6236
 10
721.736
 20
207.9921
 10
721.8987
 20
208.3239
 10
722.1196
 20
208.6128
 10
722.3901
 20
208.8525
 10
722.7014
 20
209.0366
 10
723.0448
 20
209.1588
 10
723.4116
 20
209.2129
 10
723.7931
 20
209.1925
  0
LWPOLYLINE
  5
CE
330
1F
100
AcDbEntity
  8
Layer 1
 62
     7
370
    18
100
AcDbPolyline
 90
       33
 70
     1
 43
0.0
 10
724.1383
 20
201.6729
 10
724.5075
 20
201.577
 10
724.8403
 20
201.4147
 10
725.1301
 20
201.1945
 10
725.3707
 20
200.9251
 10
725.5556
 20
200.615
 10
725.6785
 20
200.273
 10
725.7329
 20
199.9076
 10
725.7125
 20
199.5274
 10
725.6163
 20
199.159
 10
725.4532
 20
198.8271
 10
725.232
 20
198.5382
 10
724.9614
 20
198.2986
 10
724.65
 20
198.1145
 10
724.3065
 20
197.9922
 10
723.9396
 20
197.9381
 10
723.5581
 20
197.9585
 10
723.1889
 20
198.0544
 10
722.8561
 20
198.2167
 10
722.5663
 20
198.4369
 10
722.3257
 20
198.7063
 10
722.1408
 20
199.0164
 10
722.0179
 20
199.3584
 10
721.9635
 20
199.7238
 10
721.9839
 20
200.104
 10
722.0802
 20
200.4725
 10
722.2433
 20
200.8043
 10
722.4645
 20
201.0932
 10
722.7351
 20
201.3329
 10
723.0465
 20
201.517
 10
723.39
 20
201.6392
 10
723.7568
 20
201.6933
 10
724.1383
 20
201.6729
  0
LWPOLYLINE
  5
CF
330
1F
100
AcDbEntity
  8
Layer 1
 62
     7
370
    18
100
AcDbPolyline
 90
       33
 70
     1
 43
0.0
 10
723.0643
 20
194.8796
 10
723.434
 20
194.7837
 10
723.7669
 20
194.6212
 10
724.0568
 20
194.4008
 10
724.2973
 20
194.1312
 10
724.482
 20
193.821
 10
724.6047
 20
193.479
 10
724.659
 20
193.1138
 10
724.6385
 20
192.7341
 10
724.5423
 20
192.3656
 10
724.3795
 20
192.0336
 10
724.1585
 20
191.7444
 10
723.8882
 20
191.5045
 10
723.5771
 20
191.3201
 10
723.2339
 20
191.1975
 10
722.8672
 20
191.1433
 10
722.4858
 20
191.1636
 10
722.1161
 20
191.2595
 10
721.7831
 20
191.4221
 10
721.4932
 20
191.6425
 10
721.2528
 20
191.9123
 10
721.068
 20
192.2226
 10
720.9454
 20
192.5649
 10
720.8911
 20
192.9305
 10
720.9116
 20
193.3107
 10
721.0078
 20
193.6787
 10
721.1706
 20
194.0103
 10
721.3916
 20
194.2992
 10
721.6619
 20
194.539
 10
721.973
 20
194.7232
 10
722.3162
 20
194.8457
 10
722.6829
 20
194.8999
 10
723.0643
 20
194.8796
  0
LWPOLYLINE
  5
D0
330
1F
100
AcDbEntity
  8
Layer 1
 62
     7
370
    18
100
AcDbPolyline
 90
       33
 70
     1
 43
0.0
 10
720.8109
 20
188.459
 10
721.1806
 20
188.3632
 10
721.5135
 20
188.2009
 10
721.8034
 20
187.9807
 10
722.0439
 20
187.7112
 10
722.2286
 20
187.4012
 10
722.3513
 20
187.0591
 10
722.4056
 20
186.6937
 10
722.3851
 20
186.3135
 10
722.2889
 20
185.9451
 10
722.1258
 20
185.6133
 10
721.9047
 20
185.3244
 10
721.6342
 20
185.0847
 10
721.323
 20
184.9006
 10
720.9798
 20
184.7783
 10
720.6133
 20
184.7242
 10
720.2323
 20
184.7446
 10
719.8625
 20
184.8405
 10
719.5294
 20
185.0028
 10
719.2393
 20
185.223
 10
718.9985
 20
185.4925
 10
718.8135
 20
185.8025
 10
718.6906
 20
186.1446
 10
718.6361
 20
186.51
 10
718.6565
 20
186.8901
 10
718.7527
 20
187.2586
 10
718.9158
 20
187.5904
 10
719.137
 20
187.8793
 10
719.4076
 20
188.119
 10
719.719
 20
188.3031
 10
720.0625
 20
188.4253
 10
720.4294
 20
188.4794
 10
720.8109
 20
188.459
  0
LWPOLYLINE
  5
D1
330
1F
100
AcDbEntity
  8
Layer 1
 62
     7
370
    18
100
AcDbPolyline
 90
       33
 70
     1
 43
0.0
 10
717.0935
 20
183.6886
 10
717.4632
 20
183.5927
 10
717.7961
 20
183.4304
 10
718.086
 20
183.2102
 10
718.3265
 20
182.9408
 10
718.5112
 20
182.6307
 10
718.6339
 20
182.2887
 10
718.6882
 20
181.9233
 10
718.6677
 20
181.5431
 10
718.572
 20
181.1746
 10
718.4093
 20
180.8428
 10
718.1884
 20
180.5539
 10
717.918
 20
180.3142
 10
717.6067
 20
180.1301
 10
717.2633
 20
180.0079
 10
716.8965
 20
179.9538
 10
716.515
 20
179.9742
 10
716.1453
 20
180.0701
 10
715.8123
 20
180.2324
 10
715.5224
 20
180.4526
 10
715.282
 20
180.722
 10
715.0972
 20
181.0321
 10
714.9746
 20
181.3741
 10
714.9203
 20
181.7395
 10
714.9408
 20
182.1197
 10
715.037
 20
182.4882
 10
715.1998
 20
182.82
 10
715.4208
 20
183.1089
 10
715.6911
 20
183.3486
 10
716.0022
 20
183.5327
 10
716.3454
 20
183.6549
 10
716.7121
 20
183.709
 10
717.0935
 20
183.6886
  0
LWPOLYLINE
  5
D2
330
1F
100
AcDbEntity
  8
Layer 1
 62
     7
370
    18
100
AcDbPolyline
 90
       33
 70
     1
 43
0.0
 10
712.3821
 20
180.2052
 10
712.7519
 20
180.1093
 10
713.085
 20
179.947
 10
713.3751
 20
179.7268
 10
713.6159
 20
179.4574
 10
713.8009
 20
179.1473
 10
713.9238
 20
178.8053
 10
713.9783
 20
178.4398
 10
713.9579
 20
178.0597
 10
713.8617
 20
177.6912
 10
713.6986
 20
177.3594
 10
713.4774
 20
177.0705
 10
713.2067
 20
176.8308
 10
712.8953
 20
176.6467
 10
712.5518
 20
176.5244
 10
712.185
 20
176.4703
 10
711.8035
 20
176.4907
 10
711.4338
 20
176.5866
 10
711.1009
 20
176.7489
 10
710.811
 20
176.9691
 10
710.5705
 20
177.2386
 10
710.3858
 20
177.5486
 10
710.2631
 20
177.8907
 10
710.2088
 20
178.2561
 10
710.2293
 20
178.6362
 10
710.3255
 20
179.0047
 10
710.4886
 20
179.3365
 10
710.7097
 20
179.6254
 10
710.9802
 20
179.8651
 10
711.2914
 20
180.0492
 10
711.6346
 20
180.1715
 10
712.0011
 20
180.2256
 10
712.3821
 20
180.2052
  0
LWPOLYLINE
  5
D3
330
1F
100
AcDbEntity
  8
Layer 1
 62
     7
370
    18
100
AcDbPolyline
 90
       33
 70
     1
 43
0.0
 10
706.5695
 20
177.8797
 10
706.9392
 20
177.7843
 10
707.2721
 20
177.6222
 10
707.562
 20
177.402
 10
707.8025
 20
177.1325
 10
707.9872
 20
176.8222
 10
708.1099
 20
176.48
 10
708.1642
 20
176.1144
 10
708.1437
 20
175.7342
 10
708.0475
 20
175.3657
 10
707.8847
 20
175.0339
 10
707.6637
 20
174.745
 10
707.3934
 20
174.5053
 10
707.0823
 20
174.3212
 10
706.739
 20
174.199
 10
706.3724
 20
174.1449
 10
705.9909
 20
174.1653
 10
705.6212
 20
174.2611
 10
705.2883
 20
174.4234
 10
704.9984
 20
174.6436
 10
704.7579
 20
174.9131
 10
704.5732
 20
175.2231
 10
704.4505
 20
175.5652
 10
704.3962
 20
175.9306
 10
704.4167
 20
176.3108
 10
704.5129
 20
176.6792
 10
704.6757
 20
177.011
 10
704.8967
 20
177.2999
 10
705.167
 20
177.5396
 10
705.4781
 20
177.7237
 10
705.8214
 20
177.846
 10
706.188
 20
177.9001
 10
706.5695
 20
177.8797
  0
LWPOLYLINE
  5
D4
330
1F
100
AcDbEntity
  8
Layer 1
 62
     7
370
    18
100
AcDbPolyline
 90
       33
 70
     1
 43
0.0
 10
701.1133
 20
177.4751
 10
701.4831
 20
177.3792
 10
701.8162
 20
177.2169
 10
702.1063
 20
176.9967
 10
702.3471
 20
176.7273
 10
702.5321
 20
176.4172
 10
702.655
 20
176.0752
 10
702.7095
 20
175.7098
 10
702.6891
 20
175.3296
 10
702.5929
 20
174.9611
 10
702.4298
 20
174.6293
 10
702.2086
 20
174.3404
 10
701.938
 20
174.1007
 10
701.6266
 20
173.9166
 10
701.2831
 20
173.7944
 10
700.9162
 20
173.7403
 10
700.5347
 20
173.7607
 10
700.165
 20
173.8566
 10
699.8321
 20
174.0189
 10
699.5422
 20
174.2391
 10
699.3017
 20
174.5085
 10
699.117
 20
174.8186
 10
698.9943
 20
175.1606
 10
698.94
 20
175.526
 10
698.9605
 20
175.9062
 10
699.0567
 20
176.2746
 10
699.2196
 20
176.6065
 10
699.4406
 20
176.8954
 10
699.7109
 20
177.135
 10
700.022
 20
177.3191
 10
700.3652
 20
177.4414
 10
700.7319
 20
177.4955
 10
701.1133
 20
177.4751
  0
LWPOLYLINE
  5
D5
330
1F
100
AcDbEntity
  8
Layer 1
 62
     7
370
    18
100
AcDbPolyline
 90
       33
 70
     1
 43
0.0
 10
694.834
 20
178.8831
 10
695.2033
 20
178.7872
 10
695.536
 20
178.6247
 10
695.8259
 20
178.4042
 10
696.0665
 20
178.1345
 10
696.2514
 20
177.8241
 10
696.3742
 20
177.4818
 10
696.4286
 20
177.1162
 10
696.4082
 20
176.736
 10
696.312
 20
176.368
 10
696.1489
 20
176.0364
 10
695.9278
 20
175.7475
 10
695.6573
 20
175.5078
 10
695.3461
 20
175.3235
 10
695.0029
 20
175.201
 10
694.6365
 20
175.1468
 10
694.2555
 20
175.1671
 10
693.8857
 20
175.263
 10
693.5526
 20
175.4256
 10
693.2625
 20
175.646
 10
693.0217
 20
175.9158
 10
692.8367
 20
176.2261
 10
692.7138
 20
176.5684
 10
692.6593
 20
176.934
 10
692.6797
 20
177.3142
 10
692.7759
 20
177.6822
 10
692.939
 20
178.0138
 10
693.1602
 20
178.3027
 10
693.4308
 20
178.5425
 10
693.7422
 20
178.7267
 10
694.0857
 20
178.8492
 10
694.4525
 20
178.9034
 10
694.834
 20
178.8831
  0
LWPOLYLINE
  5
D6
330
1F
100
AcDbEntity
  8
Layer 1
 62
     7
370
    18
100
AcDbPolyline
 90
       33
 70
     1
 43
0.0
 10
688.9975
 20
182.4
 10
689.3673
 20
182.3042
 10
689.7004
 20
182.1419
 10
689.9905
 20
181.9217
 10
690.2313
 20
181.6522
 10
690.4163
 20
181.3422
 10
690.5392
 20
181.0001
 10
690.5937
 20
180.6347
 10
690.5733
 20
180.2545
 10
690.4771
 20
179.8861
 10
690.314
 20
179.5542
 10
690.0928
 20
179.2653
 10
689.8222
 20
179.0257
 10
689.5108
 20
178.8416
 10
689.1673
 20
178.7193
 10
688.8004
 20
178.6652
 10
688.4189
 20
178.6856
 10
688.0492
 20
178.7815
 10
687.7163
 20
178.9438
 10
687.4264
 20
179.164
 10
687.1859
 20
179.4335
 10
687.0012
 20
179.7435
 10
686.8785
 20
180.0856
 10
686.8242
 20
180.451
 10
686.8447
 20
180.8311
 10
686.9409
 20
181.1996
 10
687.1037
 20
181.5314
 10
687.3247
 20
181.8203
 10
687.595
 20
182.06
 10
687.9061
 20
182.2441
 10
688.2494
 20
182.3663
 10
688.616
 20
182.4204
 10
688.9975
 20
182.4
  0
LWPOLYLINE
  5
D7
330
1F
100
AcDbEntity
  8
Layer 1
 62
     7
370
    18
100
AcDbPolyline
 90
       33
 70
     1
 43
0.0
 10
683.5429
 20
187.6021
 10
683.9121
 20
187.5062
 10
684.2449
 20
187.3437
 10
684.5347
 20
187.1232
 10
684.7753
 20
186.8535
 10
684.9602
 20
186.5431
 10
685.0831
 20
186.2008
 10
685.1375
 20
185.8352
 10
685.1171
 20
185.455
 10
685.0209
 20
185.087
 10
684.8578
 20
184.7554
 10
684.6366
 20
184.4665
 10
684.366
 20
184.2268
 10
684.0546
 20
184.0425
 10
683.7111
 20
183.92
 10
683.3442
 20
183.8658
 10
682.9627
 20
183.8861
 10
682.5935
 20
183.982
 10
682.2607
 20
184.1445
 10
681.9709
 20
184.365
 10
681.7303
 20
184.6347
 10
681.5454
 20
184.9451
 10
681.4225
 20
185.2874
 10
681.3681
 20
185.653
 10
681.3885
 20
186.0332
 10
681.4847
 20
186.4012
 10
681.6478
 20
186.7328
 10
681.869
 20
187.0217
 10
682.1396
 20
187.2615
 10
682.451
 20
187.4457
 10
682.7945
 20
187.5682
 10
683.1614
 20
187.6224
 10
683.5429
 20
187.6021
  0
LWPOLYLINE
  5
D8
330
1F
100
AcDbEntity
  8
Layer 1
 62
     7
370
    18
100
AcDbPolyline
 90
       33
 70
     1
 43
0.0
 10
679.4371
 20
192.6816
 10
679.8068
 20
192.5857
 10
680.1398
 20
192.4232
 10
680.4297
 20
192.2028
 10
680.6702
 20
191.9332
 10
680.8549
 20
191.623
 10
680.9776
 20
191.281
 10
681.0319
 20
190.9158
 10
681.0114
 20
190.5361
 10
680.9152
 20
190.1676
 10
680.7523
 20
189.8355
 10
680.5313
 20
189.5464
 10
680.261
 20
189.3064
 10
679.9499
 20
189.122
 10
679.6067
 20
188.9995
 10
679.24
 20
188.9453
 10
678.8586
 20
188.9656
 10
678.4888
 20
189.0615
 10
678.1557
 20
189.224
 10
677.8656
 20
189.4444
 10
677.6248
 20
189.7142
 10
677.4398
 20
190.0245
 10
677.3169
 20
190.3668
 10
677.2624
 20
190.7325
 10
677.2828
 20
191.1127
 10
677.379
 20
191.4811
 10
677.5421
 20
191.8129
 10
677.7633
 20
192.1018
 10
678.0339
 20
192.3415
 10
678.3453
 20
192.5256
 10
678.6888
 20
192.6479
 10
679.0556
 20
192.702
 10
679.4371
 20
192.6816
  0
LWPOLYLINE
  5
D9
330
1F
100
AcDbEntity
  8
Layer 1
 62
     7
370
    18
100
AcDbPolyline
 90
       33
 70
     1
 43
0.0
 10
675.1077
 20
199.4557
 10
675.4774
 20
199.3599
 10
675.8104
 20
199.1976
 10
676.1003
 20
198.9774
 10
676.3409
 20
198.7079
 10
676.5258
 20
198.3979
 10
676.6488
 20
198.0558
 10
676.7034
 20
197.6904
 10
676.6835
 20
197.3102
 10
676.5873
 20
196.9418
 10
676.4242
 20
196.61
 10
676.203
 20
196.3211
 10
675.9324
 20
196.0814
 10
675.621
 20
195.8973
 10
675.2775
 20
195.775
 10
674.9106
 20
195.7209
 10
674.5291
 20
195.7413
 10
674.1594
 20
195.8372
 10
673.8265
 20
195.9995
 10
673.5366
 20
196.2197
 10
673.2961
 20
196.4892
 10
673.1114
 20
196.7992
 10
672.9887
 20
197.1413
 10
672.9344
 20
197.5067
 10
672.9549
 20
197.8868
 10
673.0511
 20
198.2553
 10
673.2139
 20
198.5871
 10
673.4349
 20
198.876
 10
673.7052
 20
199.1157
 10
674.0163
 20
199.2998
 10
674.3596
 20
199.422
 10
674.7262
 20
199.4761
 10
675.1077
 20
199.4557
  0
LWPOLYLINE
  5
DA
330
1F
100
AcDbEntity
  8
Layer 1
 62
     7
370
    18
100
AcDbPolyline
 90
       33
 70
     1
 43
0.0
 10
671.4223
 20
207.2302
 10
671.792
 20
207.1343
 10
672.1249
 20
206.972
 10
672.4148
 20
206.7518
 10
672.6553
 20
206.4824
 10
672.84
 20
206.1723
 10
672.9627
 20
205.8303
 10
673.017
 20
205.4649
 10
672.9965
 20
205.0847
 10
672.9003
 20
204.7162
 10
672.7375
 20
204.3844
 10
672.5165
 20
204.0955
 10
672.2462
 20
203.8558
 10
671.9351
 20
203.6717
 10
671.5918
 20
203.5495
 10
671.2252
 20
203.4954
 10
670.8437
 20
203.5158
 10
670.474
 20
203.6117
 10
670.1411
 20
203.774
 10
669.8512
 20
203.9942
 10
669.6107
 20
204.2636
 10
669.426
 20
204.5737
 10
669.3033
 20
204.9157
 10
669.249
 20
205.2811
 10
669.2695
 20
205.6613
 10
669.3657
 20
206.0298
 10
669.5285
 20
206.3616
 10
669.7495
 20
206.6505
 10
670.0198
 20
206.8902
 10
670.3309
 20
207.0743
 10
670.6742
 20
207.1965
 10
671.0408
 20
207.2506
 10
671.4223
 20
207.2302
  0
LWPOLYLINE
  5
DB
330
1F
100
AcDbEntity
  8
Layer 1
 62
     7
370
    18
100
AcDbPolyline
 90
       33
 70
     1
 43
0.0
 10
669.033
 20
215.0955
 10
669.4027
 20
214.9996
 10
669.7356
 20
214.8371
 10
670.0255
 20
214.6167
 10
670.266
 20
214.347
 10
670.4507
 20
214.0369
 10
670.5734
 20
213.6948
 10
670.6277
 20
213.3296
 10
670.6072
 20
212.9499
 10
670.511
 20
212.5814
 10
670.3482
 20
212.2494
 10
670.1272
 20
211.9603
 10
669.8569
 20
211.7203
 10
669.5458
 20
211.5359
 10
669.2025
 20
211.4134
 10
668.8359
 20
211.3591
 10
668.4544
 20
211.3794
 10
668.0847
 20
211.4753
 10
667.7518
 20
211.6379
 10
667.4619
 20
211.8583
 10
667.2214
 20
212.1281
 10
667.0367
 20
212.4384
 10
666.914
 20
212.7807
 10
666.8597
 20
213.1463
 10
666.8802
 20
213.5265
 10
666.9764
 20
213.8945
 10
667.1393
 20
214.2261
 10
667.3603
 20
214.515
 10
667.6306
 20
214.7548
 10
667.9417
 20
214.9391
 10
668.2849
 20
215.0615
 10
668.6516
 20
215.1158
 10
669.033
 20
215.0955
  0
LWPOLYLINE
  5
DC
330
1F
100
AcDbEntity
  8
Layer 1
 62
     7
370
    18
100
AcDbPolyline
 90
       33
 70
     1
 43
0.0
 10
667.6202
 20
223.2442
 10
667.99
 20
223.1483
 10
668.3231
 20
222.986
 10
668.6132
 20
222.7658
 10
668.854
 20
222.4964
 10
669.039
 20
222.1863
 10
669.1619
 20
221.8443
 10
669.2164
 20
221.4789
 10
669.196
 20
221.0987
 10
669.0998
 20
220.7302
 10
668.9367
 20
220.3982
 10
668.7155
 20
220.109
 10
668.4449
 20
219.8691
 10
668.1335
 20
219.6847
 10
667.79
 20
219.5621
 10
667.4231
 20
219.5079
 10
667.0416
 20
219.5282
 10
666.6719
 20
219.6241
 10
666.339
 20
219.7866
 10
666.0491
 20
220.0071
 10
665.8086
 20
220.2768
 10
665.6239
 20
220.5872
 10
665.5012
 20
220.9295
 10
665.4469
 20
221.2951
 10
665.4674
 20
221.6753
 10
665.5636
 20
222.0438
 10
665.7265
 20
222.3756
 10
665.9475
 20
222.6645
 10
666.2178
 20
222.9042
 10
666.5289
 20
223.0883
 10
666.8721
 20
223.2105
 10
667.2388
 20
223.2646
 10
667.6202
 20
223.2442
  0
LWPOLYLINE
  5
DD
330
1F
100
AcDbEntity
  8
Layer 1
 62
     7
370
    18
100
AcDbPolyline
 90
       33
 70
     1
 43
0.0
 10
667.5403
 20
231.3325
 10
667.91
 20
231.2366
 10
668.2429
 20
231.0741
 10
668.5328
 20
230.8537
 10
668.7733
 20
230.5841
 10
668.958
 20
230.2739
 10
669.0807
 20
229.9319
 10
669.135
 20
229.5667
 10
669.1145
 20
229.187
 10
669.0183
 20
228.8185
 10
668.8555
 20
228.4864
 10
668.6345
 20
228.1973
 10
668.3642
 20
227.9573
 10
668.0531
 20
227.7729
 10
667.7098
 20
227.6504
 10
667.3432
 20
227.5962
 10
666.9617
 20
227.6165
 10
666.5919
 20
227.7124
 10
666.2588
 20
227.8749
 10
665.9687
 20
228.0953
 10
665.7279
 20
228.3651
 10
665.5429
 20
228.6754
 10
665.42
 20
229.0177
 10
665.3655
 20
229.3834
 10
665.3859
 20
229.7636
 10
665.4822
 20
230.1316
 10
665.6453
 20
230.4632
 10
665.8665
 20
230.752
 10
666.1371
 20
230.9918
 10
666.4485
 20
231.1761
 10
666.792
 20
231.2985
 10
667.1588
 20
231.3528
 10
667.5403
 20
231.3325
  0
LWPOLYLINE
  5
DE
330
1F
100
AcDbEntity
  8
Layer 1
 62
     7
370
    18
100
AcDbPolyline
 90
       33
 70
     1
 43
0.0
 10
668.7949
 20
238.4586
 10
669.1646
 20
238.3627
 10
669.4976
 20
238.2002
 10
669.7875
 20
237.9798
 10
670.0281
 20
237.71
 10
670.213
 20
237.3997
 10
670.336
 20
237.0574
 10
670.3906
 20
236.6918
 10
670.3707
 20
236.3116
 10
670.2744
 20
235.9431
 10
670.1113
 20
235.6113
 10
669.8901
 20
235.3224
 10
669.6195
 20
235.0827
 10
669.3081
 20
234.8986
 10
668.9646
 20
234.7763
 10
668.5978
 20
234.7222
 10
668.2163
 20
234.7426
 10
667.8466
 20
234.8385
 10
667.5137
 20
235.001
 10
667.2238
 20
235.2214
 10
666.9833
 20
235.4911
 10
666.7986
 20
235.8012
 10
666.6759
 20
236.1432
 10
666.6216
 20
236.5084
 10
666.6421
 20
236.8881
 10
666.7383
 20
237.2566
 10
666.9011
 20
237.5887
 10
667.1221
 20
237.8778
 10
667.3924
 20
238.1178
 10
667.7035
 20
238.3022
 10
668.0468
 20
238.4247
 10
668.4134
 20
238.4789
 10
668.7949
 20
238.4586
  0
LWPOLYLINE
  5
DF
330
1F
100
AcDbEntity
  8
Layer 1
 62
     7
370
    18
100
AcDbPolyline
 90
       33
 70
     1
 43
0.0
 10
671.678
 20
244.4317
 10
672.0478
 20
244.3358
 10
672.3809
 20
244.1735
 10
672.671
 20
243.9533
 10
672.9118
 20
243.6838
 10
673.0968
 20
243.3738
 10
673.2197
 20
243.0317
 10
673.2742
 20
242.6663
 10
673.2538
 20
242.2861
 10
673.1576
 20
241.9177
 10
672.9945
 20
241.5858
 10
672.7733
 20
241.2969
 10
672.5027
 20
241.0571
 10
672.1913
 20
240.8728
 10
671.8478
 20
240.7503
 10
671.4809
 20
240.6958
 10
671.0994
 20
240.7156
 10
670.7297
 20
240.8115
 10
670.3968
 20
240.9741
 10
670.1069
 20
241.1945
 10
669.8664
 20
241.4643
 10
669.6817
 20
241.7746
 10
669.559
 20
242.1169
 10
669.5047
 20
242.4825
 10
669.5252
 20
242.8627
 10
669.6214
 20
243.2312
 10
669.7845
 20
243.563
 10
670.0056
 20
243.8519
 10
670.2761
 20
244.0916
 10
670.5873
 20
244.2757
 10
670.9305
 20
244.398
 10
671.297
 20
244.4521
 10
671.678
 20
244.4317
  0
LWPOLYLINE
  5
E0
330
1F
100
AcDbEntity
  8
Layer 1
 62
     7
370
    18
100
AcDbPolyline
 90
       33
 70
     1
 43
0.0
 10
675.3985
 20
249.9109
 10
675.7683
 20
249.815
 10
676.1014
 20
249.6527
 10
676.3916
 20
249.4325
 10
676.6324
 20
249.1631
 10
676.8174
 20
248.853
 10
676.9403
 20
248.511
 10
676.9947
 20
248.1455
 10
676.9743
 20
247.7654
 10
676.8781
 20
247.3969
 10
676.715
 20
247.0651
 10
676.4938
 20
246.7762
 10
676.2232
 20
246.5365
 10
675.9118
 20
246.3524
 10
675.5683
 20
246.2302
 10
675.2015
 20
246.1761
 10
674.82
 20
246.1965
 10
674.4503
 20
246.2924
 10
674.1174
 20
246.4547
 10
673.8275
 20
246.6749
 10
673.587
 20
246.9443
 10
673.4023
 20
247.2544
 10
673.2796
 20
247.5964
 10
673.2253
 20
247.9618
 10
673.2458
 20
248.342
 10
673.342
 20
248.7104
 10
673.5048
 20
249.0423
 10
673.7258
 20
249.3312
 10
673.9961
 20
249.5708
 10
674.3072
 20
249.7549
 10
674.6504
 20
249.8772
 10
675.0171
 20
249.9313
 10
675.3985
 20
249.9109
  0
LWPOLYLINE
  5
E1
330
1F
100
AcDbEntity
  8
Layer 1
 62
     7
370
    18
100
AcDbPolyline
 90
       33
 70
     1
 43
0.0
 10
679.5922
 20
253.0678
 10
679.9619
 20
252.9724
 10
680.2948
 20
252.8103
 10
680.5847
 20
252.5901
 10
680.8252
 20
252.3206
 10
681.0099
 20
252.0104
 10
681.1326
 20
251.6681
 10
681.1869
 20
251.3025
 10
681.1664
 20
250.9223
 10
681.0702
 20
250.5539
 10
680.9074
 20
250.222
 10
680.6864
 20
249.9331
 10
680.4161
 20
249.6935
 10
680.105
 20
249.5094
 10
679.7617
 20
249.3871
 10
679.3951
 20
249.333
 10
679.0136
 20
249.3534
 10
678.6439
 20
249.4493
 10
678.311
 20
249.6116
 10
678.0211
 20
249.8318
 10
677.7806
 20
250.1012
 10
677.5959
 20
250.4113
 10
677.4732
 20
250.7533
 10
677.4189
 20
251.1187
 10
677.4394
 20
251.4989
 10
677.5356
 20
251.8674
 10
677.6984
 20
252.1992
 10
677.9194
 20
252.4881
 10
678.1897
 20
252.7278
 10
678.5008
 20
252.9119
 10
678.8441
 20
253.0341
 10
679.2107
 20
253.0882
 10
679.5922
 20
253.0678
  0
LWPOLYLINE
  5
E2
330
1F
100
AcDbEntity
  8
Layer 1
 62
     7
370
    20
100
AcDbPolyline
 90
        9
 70
     0
 43
0.0
 10
684.6452
 20
133.1851
 10
685.8722
 20
132.2712
 10
689.3897
 20
129.9839
 10
694.9527
 20
127.005
 10
702.3163
 20
124.0161
 10
711.2353
 20
121.6989
 10
721.4648
 20
120.7351
 10
732.7596
 20
121.8064
 10
744.8749
 20
125.5946
  0
LWPOLYLINE
  5
E3
330
1F
100
AcDbEntity
  8
Layer 1
 62
     7
370
    18
100
AcDbPolyline
 90
        5
 70
     1
 43
0.0
 10
766.0736
 20
287.9098
 10
774.5321
 20
276.2693
 10
751.7864
 20
270.3672
 10
745.1103
 20
279.9226
 10
766.0736
 20
287.9098
  0
LWPOLYLINE
  5
E4
330
1F
100
AcDbEntity
  8
Layer 1
 62
     7
370
    18
100
AcDbPolyline
 90
        5
 70
     1
 43
0.0
 10
791.8117
 20
172.5423
 10
772.3323
 20
164.6892
 10
771.751
 20
162.6772
 10
790.9437
 20
169.5945
 10
791.8117
 20
172.5423
  0
LWPOLYLINE
  5
E5
330
1F
100
AcDbEntity
  8
Layer 1
 62
     7
370
    20
100
AcDbPolyline
 90
        3
 70
     0
 43
0.0
 10
720.0651
 20
-119.6162
 10
742.3426
 20
-124.4207
 10
762.5098
 20
-119.3889
  0
LWPOLYLINE
  5
E6
330
1F
100
AcDbEntity
  8
Layer 1
 62
     7
370
    20
100
AcDbPolyline
 90
        9
 70
     0
 43
0.0
 10
722.8358
 20
-135.7653
 10
723.5975
 20
-135.9809
 10
725.7762
 20
-136.4972
 10
729.212
 20
-137.1187
 10
733.7452
 20
-137.6498
 10
739.216
 20
-137.8949
 10
745.4647
 20
-137.6584
 10
752.3314
 20
-136.7449
 10
759.6563
 20
-134.9586
  0
LWPOLYLINE
  5
E7
330
1F
100
AcDbEntity
  8
Layer 1
 62
     7
370
    20
100
AcDbPolyline
 90
        9
 70
     0
 43
0.0
 10
722.8856
 20
-138.7331
 10
724.417
 20
-139.4805
 10
727.0297
 20
-140.422
 10
730.6271
 20
-141.3575
 10
735.1124
 20
-142.0871
 10
740.3886
 20
-142.4108
 10
746.3592
 20
-142.1285
 10
752.9272
 20
-141.0403
 10
759.9959
 20
-138.9461
  0
LWPOLYLINE
  5
E8
330
1F
100
AcDbEntity
  8
Layer 1
 62
     7
370
    20
100
AcDbPolyline
 90
        9
 70
     0
 43
0.0
 10
722.7131
 20
-142.6246
 10
723.7319
 20
-142.9853
 10
726.5391
 20
-143.8583
 10
730.7606
 20
-144.9298
 10
736.0225
 20
-145.8859
 10
741.9509
 20
-146.413
 10
748.1719
 20
-146.1972
 10
754.3113
 20
-144.9248
 10
759.9954
 20
-142.282
  0
LWPOLYLINE
  5
E9
330
1F
100
AcDbEntity
  8
Layer 1
 62
     7
370
     9
100
AcDbPolyline
 90
       87
 70
     1
 43
0.0
 10
868.4141
 20
3.3613
 10
868.4141
 20
22.2009
 10
865.6509
 20
22.2009
 10
865.6509
 20
10.008
 10
856.3766
 20
19.3291
 10
855.709
 20
19.9378
 10
855.0081
 20
20.4652
 10
854.2738
 20
20.9115
 10
853.5061
 20
21.2765
 10
852.7051
 20
21.5604
 10
851.8708
 20
21.7632
 10
851.0031
 20
21.8849
 10
850.1022
 20
21.9254
 10
849.181
 20
21.884
 10
848.2967
 20
21.7596
 10
847.4495
 20
21.5523
 10
846.6393
 20
21.262
 10
845.8661
 20
20.8887
 10
845.1299
 20
20.4323
 10
844.4308
 20
19.8928
 10
843.7686
 20
19.2702
 10
843.1533
 20
18.5792
 10
842.62
 20
17.8573
 10
842.1687
 20
17.1046
 10
841.7995
 20
16.3211
 10
841.5122
 20
15.5068
 10
841.307
 20
14.6618
 10
841.1839
 20
13.7862
 10
841.1428
 20
12.8799
 10
841.186
 20
11.9387
 10
841.3156
 20
11.0324
 10
841.5316
 20
10.1612
 10
841.834
 20
9.3249
 10
842.2226
 20
8.5237
 10
842.6975
 20
7.7575
 10
843.2587
 20
7.0264
 10
843.906
 20
6.3303
 10
844.6026
 20
5.7106
 10
845.3355
 20
5.1787
 10
846.1047
 20
4.7347
 10
846.9102
 20
4.3785
 10
847.7522
 20
4.1102
 10
848.6306
 20
3.9298
 10
849.5455
 20
3.8373
 10
850.4969
 20
3.8327
 10
850.4969
 20
6.6249
 10
849.8801
 20
6.6018
 10
849.2773
 20
6.645
 10
848.6887
 20
6.7544
 10
848.1142
 20
6.9302
 10
847.5539
 20
7.1723
 10
847.0078
 20
7.4808
 10
846.4758
 20
7.8558
 10
845.9581
 20
8.2974
 10
845.4957
 20
8.7691
 10
845.0948
 20
9.2655
 10
844.7556
 20
9.7867
 10
844.478
 20
10.3326
 10
844.262
 20
10.9031
 10
844.1077
 20
11.4982
 10
844.0152
 20
12.1178
 10
843.9843
 20
12.762
 10
844.0121
 20
13.3939
 10
844.0955
 20
14.002
 10
844.2344
 20
14.586
 10
844.4288
 20
15.1462
 10
844.6788
 20
15.6824
 10
844.9842
 20
16.1946
 10
845.3451
 20
16.6828
 10
845.7615
 20
17.147
 10
846.2215
 20
17.5754
 10
846.7036
 20
17.9468
 10
847.2079
 20
18.261
 10
847.7344
 20
18.5182
 10
848.2831
 20
18.7182
 10
848.854
 20
18.8611
 10
849.447
 20
18.9469
 10
850.0622
 20
18.9755
 10
850.6912
 20
18.9479
 10
851.2956
 20
18.865
 10
851.8754
 20
18.7268
 10
852.4305
 20
18.5333
 10
852.961
 20
18.2845
 10
853.4669
 20
17.9803
 10
853.948
 20
17.6208
 10
854.4045
 20
17.2059
 10
868.4141
 20
3.3613
  0
LWPOLYLINE
  5
EA
330
1F
100
AcDbEntity
  8
Layer 1
 62
     7
370
     9
100
AcDbPolyline
 90
      165
 70
     1
 43
0.0
 10
868.3358
 20
106.4123
 10
868.3358
 20
109.1662
 10
857.4826
 20
109.1662
 10
856.7618
 20
109.1437
 10
856.0751
 20
109.0764
 10
855.4222
 20
108.9641
 10
854.8034
 20
108.807
 10
854.2185
 20
108.6052
 10
853.6675
 20
108.3585
 10
853.1504
 20
108.0672
 10
852.6672
 20
107.7311
 10
852.4363
 20
107.5431
 10
852.2171
 20
107.3435
 10
852.0096
 20
107.1322
 10
851.8138
 20
106.9092
 10
851.6297
 20
106.6747
 10
851.4572
 20
106.4284
 10
851.2965
 20
106.1705
 10
851.1474
 20
105.901
 10
851.0136
 20
105.6146
 10
850.8975
 20
105.3061
 10
850.7992
 20
104.9755
 10
850.7187
 20
104.6228
 10
850.6559
 20
104.248
 10
850.6111
 20
103.8511
 10
850.5842
 20
103.4321
 10
850.5752
 20
102.991
 10
850.5906
 20
102.5458
 10
850.6369
 20
102.1148
 10
850.7141
 20
101.6978
 10
850.8222
 20
101.2948
 10
850.961
 20
100.906
 10
851.1308
 20
100.5314
 10
851.3314
 20
100.1709
 10
851.5629
 20
99.8245
 10
851.7933
 20
99.5242
 10
852.0409
 20
99.2373
 10
852.3055
 20
98.9639
 10
852.5869
 20
98.7039
 10
852.885
 20
98.4574
 10
853.1995
 20
98.2243
 10
853.5303
 20
98.0046
 10
853.8771
 20
97.7984
 10
853.5573
 20
97.639
 10
853.2482
 20
97.4643
 10
852.9511
 20
97.2747
 10
852.6672
 20
97.0705
 10
852.4363
 20
96.883
 10
852.2171
 20
96.6838
 10
852.0096
 20
96.4728
 10
851.8138
 20
96.25
 10
851.6297
 20
96.0156
 10
851.4572
 20
95.7694
 10
851.2965
 20
95.5115
 10
851.1474
 20
95.242
 10
851.0136
 20
94.9556
 10
850.8975
 20
94.6471
 10
850.7992
 20
94.3165
 10
850.7187
 20
93.9638
 10
850.6559
 20
93.589
 10
850.6111
 20
93.192
 10
850.5842
 20
92.773
 10
850.5752
 20
92.3319
 10
850.5906
 20
91.8868
 10
850.6369
 20
91.4557
 10
850.7141
 20
91.0387
 10
850.8222
 20
90.6358
 10
850.961
 20
90.247
 10
851.1308
 20
89.8723
 10
851.3314
 20
89.5118
 10
851.5629
 20
89.1654
 10
851.7824
 20
88.8789
 10
852.0167
 20
88.6048
 10
852.266
 20
88.3431
 10
852.5302
 20
88.0937
 10
852.8096
 20
87.8566
 10
853.1042
 20
87.6318
 10
853.4142
 20
87.4193
 10
853.7396
 20
87.219
 10
850.97
 20
87.219
 10
850.97
 20
84.4651
 10
868.3358
 20
84.4651
 10
868.3358
 20
87.219
 10
859.4483
 20
87.219
 10
858.931
 20
87.2826
 10
858.4338
 20
87.366
 10
857.9565
 20
87.469
 10
857.4989
 20
87.5918
 10
857.061
 20
87.7342
 10
856.6426
 20
87.8964
 10
856.2435
 20
88.0783
 10
855.8636
 20
88.2799
 10
855.5935
 20
88.4443
 10
855.3359
 20
88.6221
 10
855.0906
 20
88.8134
 10
854.8576
 20
89.0181
 10
854.6369
 20
89.2363
 10
854.4284
 20
89.4679
 10
854.2322
 20
89.7129
 10
854.0481
 20
89.9714
 10
853.8818
 20
90.2396
 10
853.7376
 20
90.5126
 10
853.6157
 20
90.7904
 10
853.5159
 20
91.073
 10
853.4383
 20
91.3605
 10
853.3828
 20
91.6529
 10
853.3496
 20
91.9501
 10
853.3385
 20
92.2523
 10
853.3443
 20
92.5476
 10
853.3619
 20
92.8231
 10
853.3911
 20
93.0787
 10
853.432
 20
93.3147
 10
853.4846
 20
93.5309
 10
853.5488
 20
93.7275
 10
853.6248
 20
93.9044
 10
853.7125
 20
94.0617
 10
854.0068
 20
94.4582
 10
854.3517
 20
94.8018
 10
854.747
 20
95.0925
 10
855.193
 20
95.3304
 10
855.6895
 20
95.5154
 10
856.2366
 20
95.6476
 10
856.8343
 20
95.7269
 10
857.4826
 20
95.7533
 10
868.3358
 20
95.7533
 10
868.3358
 20
98.5072
 10
857.4826
 20
98.5072
 10
856.8177
 20
98.4865
 10
856.5661
 20
98.589
 10
856.3239
 20
98.6983
 10
856.09
 20
98.8149
 10
855.8636
 20
98.9389
 10
855.5935
 20
99.1033
 10
855.3359
 20
99.2811
 10
855.0906
 20
99.4724
 10
854.8576
 20
99.6771
 10
854.6369
 20
99.8953
 10
854.4284
 20
100.1269
 10
854.2322
 20
100.3719
 10
854.0481
 20
100.6304
 10
853.8818
 20
100.8986
 10
853.7376
 20
101.1716
 10
853.6157
 20
101.4495
 10
853.5159
 20
101.7322
 10
853.4383
 20
102.0199
 10
853.3828
 20
102.3126
 10
853.3496
 20
102.6102
 10
853.3385
 20
102.9129
 10
853.3443
 20
103.2077
 10
853.3619
 20
103.483
 10
853.3911
 20
103.7386
 10
853.432
 20
103.9745
 10
853.4846
 20
104.1907
 10
853.5488
 20
104.3872
 10
853.6248
 20
104.5638
 10
853.7125
 20
104.7207
 10
854.0068
 20
105.1172
 10
854.3517
 20
105.4608
 10
854.747
 20
105.7515
 10
855.193
 20
105.9894
 10
855.6895
 20
106.1744
 10
856.2366
 20
106.3066
 10
856.8343
 20
106.3859
 10
857.4826
 20
106.4123
 10
868.3358
 20
106.4123
  0
LWPOLYLINE
  5
EB
330
1F
100
AcDbEntity
  8
Layer 1
 62
     7
370
     9
100
AcDbPolyline
 90
      165
 70
     1
 43
0.0
 10
868.3358
 20
136.4238
 10
868.3358
 20
139.1778
 10
857.4826
 20
139.1778
 10
856.7618
 20
139.1553
 10
856.0751
 20
139.088
 10
855.4222
 20
138.9757
 10
854.8034
 20
138.8186
 10
854.2185
 20
138.6168
 10
853.6675
 20
138.3701
 10
853.1504
 20
138.0788
 10
852.6672
 20
137.7427
 10
852.4363
 20
137.5547
 10
852.2171
 20
137.355
 10
852.0096
 20
137.1437
 10
851.8138
 20
136.9208
 10
851.6297
 20
136.6862
 10
851.4572
 20
136.44
 10
851.2965
 20
136.1821
 10
851.1474
 20
135.9126
 10
851.0136
 20
135.6262
 10
850.8975
 20
135.3177
 10
850.7992
 20
134.9871
 10
850.7187
 20
134.6344
 10
850.6559
 20
134.2596
 10
850.6111
 20
133.8626
 10
850.5842
 20
133.4436
 10
850.5752
 20
133.0025
 10
850.5906
 20
132.5574
 10
850.6369
 20
132.1263
 10
850.7141
 20
131.7093
 10
850.8222
 20
131.3064
 10
850.961
 20
130.9176
 10
851.1308
 20
130.5429
 10
851.3314
 20
130.1824
 10
851.5629
 20
129.836
 10
851.7933
 20
129.5357
 10
852.0409
 20
129.2489
 10
852.3055
 20
128.9755
 10
852.5869
 20
128.7155
 10
852.885
 20
128.469
 10
853.1995
 20
128.2359
 10
853.5303
 20
128.0162
 10
853.8771
 20
127.81
 10
853.5573
 20
127.6506
 10
853.2482
 20
127.4759
 10
852.9511
 20
127.2863
 10
852.6672
 20
127.0821
 10
852.4363
 20
126.8946
 10
852.2171
 20
126.6954
 10
852.0096
 20
126.4844
 10
851.8138
 20
126.2616
 10
851.6297
 20
126.0271
 10
851.4572
 20
125.7809
 10
851.2965
 20
125.523
 10
851.1474
 20
125.2535
 10
851.0136
 20
124.9671
 10
850.8975
 20
124.6586
 10
850.7992
 20
124.328
 10
850.7187
 20
123.9753
 10
850.6559
 20
123.6005
 10
850.6111
 20
123.2036
 10
850.5842
 20
122.7846
 10
850.5752
 20
122.3435
 10
850.5906
 20
121.8983
 10
850.6369
 20
121.4673
 10
850.7141
 20
121.0503
 10
850.8222
 20
120.6473
 10
850.961
 20
120.2585
 10
851.1308
 20
119.8839
 10
851.3314
 20
119.5234
 10
851.5629
 20
119.177
 10
851.7824
 20
118.8905
 10
852.0167
 20
118.6164
 10
852.266
 20
118.3547
 10
852.5302
 20
118.1053
 10
852.8096
 20
117.8682
 10
853.1042
 20
117.6434
 10
853.4142
 20
117.4309
 10
853.7396
 20
117.2306
 10
850.97
 20
117.2306
 10
850.97
 20
114.4766
 10
868.3358
 20
114.4766
 10
868.3358
 20
117.2306
 10
859.4483
 20
117.2306
 10
858.931
 20
117.2942
 10
858.4338
 20
117.3775
 10
857.9565
 20
117.4805
 10
857.4989
 20
117.6033
 10
857.061
 20
117.7457
 10
856.6426
 20
117.9079
 10
856.2435
 20
118.0898
 10
855.8636
 20
118.2914
 10
855.5935
 20
118.4558
 10
855.3359
 20
118.6337
 10
855.0906
 20
118.825
 10
854.8576
 20
119.0297
 10
854.6369
 20
119.2479
 10
854.4284
 20
119.4795
 10
854.2322
 20
119.7245
 10
854.0481
 20
119.983
 10
853.8818
 20
120.2512
 10
853.7376
 20
120.5242
 10
853.6157
 20
120.802
 10
853.5159
 20
121.0846
 10
853.4383
 20
121.3721
 10
853.3828
 20
121.6644
 10
853.3496
 20
121.9616
 10
853.3385
 20
122.2638
 10
853.3443
 20
122.5591
 10
853.3619
 20
122.8346
 10
853.3911
 20
123.0903
 10
853.432
 20
123.3262
 10
853.4846
 20
123.5425
 10
853.5488
 20
123.739
 10
853.6248
 20
123.916
 10
853.7125
 20
124.0733
 10
854.0068
 20
124.4698
 10
854.3517
 20
124.8133
 10
854.747
 20
125.1041
 10
855.193
 20
125.3419
 10
855.6895
 20
125.5269
 10
856.2366
 20
125.6591
 10
856.8343
 20
125.7384
 10
857.4826
 20
125.7648
 10
868.3358
 20
125.7648
 10
868.3358
 20
128.5188
 10
857.4826
 20
128.5188
 10
856.8177
 20
128.4981
 10
856.5661
 20
128.6006
 10
856.3239
 20
128.7099
 10
856.09
 20
128.8264
 10
855.8636
 20
128.9504
 10
855.5935
 20
129.1148
 10
855.3359
 20
129.2927
 10
855.0906
 20
129.484
 10
854.8576
 20
129.6887
 10
854.6369
 20
129.9069
 10
854.4284
 20
130.1385
 10
854.2322
 20
130.3835
 10
854.0481
 20
130.642
 10
853.8818
 20
130.9102
 10
853.7376
 20
131.1832
 10
853.6157
 20
131.4611
 10
853.5159
 20
131.7438
 10
853.4383
 20
132.0315
 10
853.3828
 20
132.3241
 10
853.3496
 20
132.6218
 10
853.3385
 20
132.9245
 10
853.3443
 20
133.2193
 10
853.3619
 20
133.4946
 10
853.3911
 20
133.7502
 10
853.432
 20
133.9861
 10
853.4846
 20
134.2023
 10
853.5488
 20
134.3988
 10
853.6248
 20
134.5754
 10
853.7125
 20
134.7323
 10
854.0068
 20
135.1288
 10
854.3517
 20
135.4723
 10
854.747
 20
135.7631
 10
855.193
 20
136.0009
 10
855.6895
 20
136.1859
 10
856.2366
 20
136.3181
 10
856.8343
 20
136.3974
 10
857.4826
 20
136.4238
 10
868.3358
 20
136.4238
  0
LWPOLYLINE
  5
EC
330
1F
100
AcDbEntity
  8
Layer 1
 62
     7
370
     9
100
AcDbPolyline
 90
        4
 70
     1
 43
0.0
 10
844.5773
 20
40.7666
 10
860.0876
 20
40.7666
 10
860.0876
 20
30.5392
 10
844.5773
 20
40.7666
  0
LWPOLYLINE
  5
ED
330
1F
100
AcDbEntity
  8
Layer 1
 62
     7
370
     9
100
AcDbPolyline
 90
       11
 70
     1
 43
0.0
 10
862.9292
 20
43.6384
 10
862.9292
 20
47.0199
 10
860.0876
 20
47.0199
 10
860.0876
 20
43.6384
 10
841.5775
 20
43.5986
 10
841.5775
 20
39.744
 10
862.9292
 20
25.6621
 10
862.9292
 20
40.7666
 10
868.4141
 20
40.7666
 10
868.4141
 20
43.6384
 10
862.9292
 20
43.6384
  0
LWPOLYLINE
  5
EE
330
1F
100
AcDbEntity
  8
Layer 1
 62
     7
370
     9
100
AcDbPolyline
 90
      129
 70
     1
 43
0.0
 10
844.6955
 20
62.0257
 10
845.0048
 20
62.4799
 10
845.3562
 20
62.9034
 10
845.7496
 20
63.2963
 10
846.185
 20
63.6584
 10
846.6624
 20
63.9897
 10
847.1817
 20
64.2903
 10
847.7428
 20
64.56
 10
848.3458
 20
64.7988
 10
849.1458
 20
65.0659
 10
849.9576
 20
65.2975
 10
850.7812
 20
65.4935
 10
851.6165
 20
65.6539
 10
852.4634
 20
65.7787
 10
853.3221
 20
65.8679
 10
854.1923
 20
65.9214
 10
855.0741
 20
65.9392
 10
855.2861
 20
65.9374
 10
855.5074
 20
65.932
 10
855.7379
 20
65.9229
 10
855.9777
 20
65.9102
 10
856.2266
 20
65.8937
 10
856.4848
 20
65.8734
 10
856.7522
 20
65.8493
 10
857.0287
 20
65.8214
 10
858.0896
 20
65.6852
 10
859.0919
 20
65.507
 10
860.0356
 20
65.2869
 10
860.9207
 20
65.025
 10
861.7472
 20
64.7213
 10
862.5152
 20
64.3758
 10
863.2245
 20
63.9885
 10
863.8753
 20
63.5596
 10
864.3658
 20
63.1681
 10
864.7908
 20
62.7557
 10
865.1503
 20
62.3224
 10
865.4445
 20
61.8683
 10
865.6733
 20
61.3933
 10
865.8366
 20
60.8975
 10
865.9346
 20
60.3809
 10
865.9673
 20
59.8436
 10
865.9349
 20
59.2434
 10
865.8379
 20
58.672
 10
865.676
 20
58.1295
 10
865.4495
 20
57.6159
 10
865.1582
 20
57.1311
 10
864.8023
 20
56.6753
 10
864.3815
 20
56.2484
 10
863.8961
 20
55.8504
 10
863.6604
 20
55.682
 10
863.4173
 20
55.521
 10
863.1667
 20
55.3674
 10
862.9088
 20
55.2211
 10
862.6436
 20
55.0822
 10
862.371
 20
54.9507
 10
862.0912
 20
54.8266
 10
861.8041
 20
54.71
 10
861.5119
 20
54.6005
 10
861.2179
 20
54.4976
 10
860.9221
 20
54.4015
 10
860.6246
 20
54.3122
 10
860.3252
 20
54.2295
 10
860.0241
 20
54.1536
 10
859.7211
 20
54.0844
 10
859.4164
 20
54.0219
 10
859.1115
 20
53.9649
 10
858.8092
 20
53.9123
 10
858.5095
 20
53.864
 10
858.2124
 20
53.82
 10
857.9177
 20
53.7804
 10
857.6254
 20
53.745
 10
857.3355
 20
53.7141
 10
857.0479
 20
53.6874
 10
856.7564
 20
53.6644
 10
856.4538
 20
53.6444
 10
856.1402
 20
53.6275
 10
855.8157
 20
53.6136
 10
855.4804
 20
53.6027
 10
855.1344
 20
53.5949
 10
854.7779
 20
53.5903
 10
854.4109
 20
53.5887
 10
854.0271
 20
53.5955
 10
853.6211
 20
53.6158
 10
853.1929
 20
53.6498
 10
852.7424
 20
53.6972
 10
852.2693
 20
53.7581
 10
851.7737
 20
53.8326
 10
851.2554
 20
53.9205
 10
850.7143
 20
54.0219
 10
850.4137
 20
54.0841
 10
850.1138
 20
54.1524
 10
849.8144
 20
54.2269
 10
849.5157
 20
54.3074
 10
849.2175
 20
54.3941
 10
848.9199
 20
54.4869
 10
848.623
 20
54.5858
 10
848.3266
 20
54.6909
 10
848.0342
 20
54.803
 10
847.7492
 20
54.923
 10
847.4715
 20
55.0509
 10
847.2013
 20
55.1869
 10
846.9384
 20
55.3308
 10
846.683
 20
55.4827
 10
846.4351
 20
55.6426
 10
846.1946
 20
55.8106
 10
845.9637
 20
55.9874
 10
845.7445
 20
56.1726
 10
845.5371
 20
56.3663
 10
845.3414
 20
56.5686
 10
845.1574
 20
56.7794
 10
844.9852
 20
56.9988
 10
844.8249
 20
57.227
 10
844.6763
 20
57.4639
 10
844.542
 20
57.7101
 10
844.4255
 20
57.9675
 10
844.327
 20
58.2359
 10
844.2462
 20
58.5154
 10
844.1834
 20
58.806
 10
844.1385
 20
59.1078
 10
844.1116
 20
59.4207
 10
844.1026
 20
59.7448
 10
844.1119
 20
60.0685
 10
844.1397
 20
60.3812
 10
844.1861
 20
60.6829
 10
844.251
 20
60.9737
 10
844.3345
 20
61.2533
 10
844.4363
 20
61.5219
 10
844.5567
 20
61.7794
 10
844.6955
 20
62.0257
  0
LWPOLYLINE
  5
EF
330
1F
100
AcDbEntity
  8
Layer 1
 62
     7
370
     9
100
AcDbPolyline
 90
       65
 70
     1
 43
0.0
 10
868.7689
 20
59.8818
 10
868.6959
 20
61.0303
 10
868.4767
 20
62.1055
 10
868.1114
 20
63.1077
 10
867.6
 20
64.0366
 10
866.9425
 20
64.8924
 10
866.1387
 20
65.675
 10
865.1888
 20
66.3844
 10
864.0926
 20
67.0207
 10
863.136
 20
67.4681
 10
862.1265
 20
67.8558
 10
861.064
 20
68.1838
 10
859.9486
 20
68.4521
 10
858.78
 20
68.6607
 10
857.5584
 20
68.8097
 10
856.2837
 20
68.8991
 10
854.9558
 20
68.9289
 10
853.6284
 20
68.8991
 10
852.354
 20
68.8097
 10
851.1324
 20
68.6607
 10
849.9639
 20
68.4521
 10
848.8484
 20
68.1838
 10
847.786
 20
67.8558
 10
846.7767
 20
67.4681
 10
845.8206
 20
67.0207
 10
844.7244
 20
66.3844
 10
843.7743
 20
65.675
 10
842.9703
 20
64.8924
 10
842.3125
 20
64.0366
 10
841.8008
 20
63.1077
 10
841.4352
 20
62.1055
 10
841.2159
 20
61.0303
 10
841.1428
 20
59.8818
 10
841.2159
 20
58.7339
 10
841.4352
 20
57.659
 10
841.8008
 20
56.6571
 10
842.3125
 20
55.7282
 10
842.9703
 20
54.8723
 10
843.7743
 20
54.0895
 10
844.7244
 20
53.3797
 10
845.8206
 20
52.7429
 10
846.7767
 20
52.296
 10
847.786
 20
51.9087
 10
848.8484
 20
51.5811
 10
849.9639
 20
51.3129
 10
851.1324
 20
51.1044
 10
852.354
 20
50.9555
 10
853.6284
 20
50.8661
 10
854.9558
 20
50.8363
 10
856.2837
 20
50.8661
 10
857.5584
 20
50.9555
 10
858.78
 20
51.1044
 10
859.9486
 20
51.3129
 10
861.064
 20
51.5811
 10
862.1265
 20
51.9087
 10
863.136
 20
52.296
 10
864.0926
 20
52.7429
 10
865.1888
 20
53.3797
 10
866.1387
 20
54.0895
 10
866.9425
 20
54.8723
 10
867.6
 20
55.7282
 10
868.1114
 20
56.6571
 10
868.4767
 20
57.659
 10
868.6959
 20
58.7339
 10
868.7689
 20
59.8818
  0
ENDSEC
  0
SECTION
  2
OBJECTS
  0
DICTIONARY
  5
C
330
0
100
AcDbDictionary
281
     1
  3
ACAD_DETAILVIEWSTYLE
350
F7
  3
ACAD_GROUP
350
D
  3
ACAD_LAYOUT
350
1A
  3
ACAD_MATERIAL
350
43
  3
ACAD_MLEADERSTYLE
350
5B
  3
ACAD_MLINESTYLE
350
17
  3
ACAD_PLOTSETTINGS
350
19
  3
ACAD_PLOTSTYLENAME
350
E
  3
ACAD_SCALELIST
350
47
  3
ACAD_SECTIONVIEWSTYLE
350
F8
  3
ACAD_TABLESTYLE
350
59
  3
ACAD_VISUALSTYLE
350
2A
  3
ACDB_RECOMPOSE_DATA
350
F4
  3
AcDbVariableDictionary
350
F0
  0
SUN
  5
5D
330
29
100
AcDbSun
 90
        1
290
     0
 63
     7
421
 16777215
 40
1.0
291
     1
 91
  2455826
 92
 54000000
292
     0
 70
     2
 71
   256
280
     1
  0
DICTIONARY
  5
F7
102
{ACAD_REACTORS
330
C
102
}
330
C
100
AcDbDictionary
281
     1
  0
DICTIONARY
  5
D
102
{ACAD_REACTORS
330
C
102
}
330
C
100
AcDbDictionary
281
     1
  0
DICTIONARY
  5
1A
102
{ACAD_REACTORS
330
C
102
}
330
C
100
AcDbDictionary
281
     1
  3
Layout1
350
1E
  3
Layout2
350
26
  3
Model
350
22
  0
DICTIONARY
  5
43
102
{ACAD_REACTORS
330
C
102
}
330
C
100
AcDbDictionary
281
     1
  3
ByBlock
350
45
  3
ByLayer
350
44
  3
Global
350
46
  0
DICTIONARY
  5
5B
102
{ACAD_REACTORS
330
C
102
}
330
C
100
AcDbDictionary
281
     1
  3
Standard
350
5C
  0
DICTIONARY
  5
17
102
{ACAD_REACTORS
330
C
102
}
330
C
100
AcDbDictionary
281
     1
  3
Standard
350
18
  0
DICTIONARY
  5
19
102
{ACAD_REACTORS
330
C
102
}
330
C
100
AcDbDictionary
281
     1
  0
ACDBDICTIONARYWDFLT
  5
E
102
{ACAD_REACTORS
330
C
102
}
330
C
100
AcDbDictionary
281
     1
  3
Normal
350
F
100
AcDbDictionaryWithDefault
340
F
  0
DICTIONARY
  5
47
102
{ACAD_REACTORS
330
C
102
}
330
C
100
AcDbDictionary
281
     1
  3
A0
350
48
  3
A1
350
49
  3
A2
350
4A
  3
A3
350
4B
  3
A4
350
4C
  3
A5
350
4D
  3
A6
350
4E
  3
A7
350
4F
  3
A8
350
50
  3
A9
350
51
  3
B1
350
52
  3
B2
350
53
  3
B3
350
54
  3
B4
350
55
  3
B5
350
56
  3
B6
350
57
  3
B7
350
58
  0
DICTIONARY
  5
F8
102
{ACAD_REACTORS
330
C
102
}
330
C
100
AcDbDictionary
281
     1
  0
DICTIONARY
  5
59
102
{ACAD_REACTORS
330
C
102
}
330
C
100
AcDbDictionary
281
     1
  3
Standard
350
5A
  0
DICTIONARY
  5
2A
102
{ACAD_REACTORS
330
C
102
}
330
C
100
AcDbDictionary
281
     1
  3
2dWireframe
350
2F
  3
Basic
350
32
  3
Brighten
350
36
  3
ColorChange
350
3A
  3
Conceptual
350
34
  3
Dim
350
35
  3
EdgeColorOff
350
3D
  3
Facepattern
350
39
  3
Flat
350
2B
  3
FlatWithEdges
350
2C
  3
Gouraud
350
2D
  3
GouraudWithEdges
350
2E
  3
Hidden
350
31
  3
JitterOff
350
3B
  3
Linepattern
350
38
  3
OverhangOff
350
3C
  3
Realistic
350
33
  3
Shaded
350
42
  3
Shaded with edges
350
41
  3
Shades of Gray
350
3E
  3
Sketchy
350
3F
  3
Thicken
350
37
  3
Wireframe
350
30
  3
X-Ray
350
40
  0
XRECORD
  5
F4
102
{ACAD_REACTORS
330
C
102
}
330
C
100
AcDbXrecord
280
     1
 90
        1
330
5A
  0
DICTIONARY
  5
F0
102
{ACAD_REACTORS
330
C
102
}
330
C
100
AcDbDictionary
281
     1
  3
CANNOSCALE
350
F1
  3
CMLEADERSTYLE
350
F6
  3
CTABLESTYLE
350
F5
  0
LAYOUT
  5
1E
102
{ACAD_REACTORS
330
1A
102
}
330
1A
100
AcDbPlotSettings
  1

  2
none_device
  4

  6

 40
0.0
 41
0.0
 42
0.0
 43
0.0
 44
0.0
 45
0.0
 46
0.0
 47
0.0
 48
0.0
 49
0.0
140
0.0
141
0.0
142
1.0
143
1.0
 70
   688
 72
     0
 73
     0
 74
     5
  7

 75
    16
 76
     0
 77
     2
 78
   300
147
1.0
148
0.0
149
0.0
100
AcDbLayout
  1
Layout1
 70
     1
 71
     1
 10
0.0
 20
0.0
 11
12.0
 21
9.0
 12
0.0
 22
0.0
 32
0.0
 14
1.000000000000000E+20
 24
1.000000000000000E+20
 34
1.000000000000000E+20
 15
-1.000000000000000E+20
 25
-1.000000000000000E+20
 35
-1.000000000000000E+20
146
0.0
 13
0.0
 23
0.0
 33
0.0
 16
1.0
 26
0.0
 36
0.0
 17
0.0
 27
1.0
 37
0.0
 76
     0
330
1B
  0
LAYOUT
  5
26
102
{ACAD_REACTORS
330
1A
102
}
330
1A
100
AcDbPlotSettings
  1

  2
none_device
  4

  6

 40
0.0
 41
0.0
 42
0.0
 43
0.0
 44
0.0
 45
0.0
 46
0.0
 47
0.0
 48
0.0
 49
0.0
140
0.0
141
0.0
142
1.0
143
1.0
 70
   688
 72
     0
 73
     0
 74
     5
  7

 75
    16
 76
     0
 77
     2
 78
   300
147
1.0
148
0.0
149
0.0
100
AcDbLayout
  1
Layout2
 70
     1
 71
     2
 10
0.0
 20
0.0
 11
0.0
 21
0.0
 12
0.0
 22
0.0
 32
0.0
 14
0.0
 24
0.0
 34
0.0
 15
0.0
 25
0.0
 35
0.0
146
0.0
 13
0.0
 23
0.0
 33
0.0
 16
1.0
 26
0.0
 36
0.0
 17
0.0
 27
1.0
 37
0.0
 76
     0
330
23
  0
LAYOUT
  5
22
102
{ACAD_REACTORS
330
1A
102
}
330
1A
100
AcDbPlotSettings
  1

  2
none_device
  4
Letter_(8.50_x_11.00_Inches)
  6

 40
6.35
 41
6.35
 42
6.35000508
 43
6.35000508
 44
215.9
 45
279.4
 46
0.0
 47
0.0
 48
0.0
 49
0.0
140
0.0
141
0.0
142
1.0
143
1.0
 70
  1712
 72
     0
 73
     0
 74
     0
  7

 75
     0
 76
     0
 77
     2
 78
   300
147
1.0
148
0.0
149
0.0
100
AcDbLayout
  1
Model
 70
     1
 71
     0
 10
0.0
 20
0.0
 11
12.0
 21
9.0
 12
0.0
 22
0.0
 32
0.0
 14
578.9312
 24
-180.5317
 34
0.0
 15
933.0613
 25
363.9457
 35
0.0
146
0.0
 13
0.0
 23
0.0
 33
0.0
 16
1.0
 26
0.0
 36
0.0
 17
0.0
 27
1.0
 37
0.0
 76
     0
330
1F
331
29
  0
MATERIAL
  5
45
102
{ACAD_REACTORS
330
43
102
}
330
43
100
AcDbMaterial
  1
ByBlock
 72
     1
 94
      127
  0
MATERIAL
  5
44
102
{ACAD_REACTORS
330
43
102
}
330
43
100
AcDbMaterial
  1
ByLayer
 72
     1
 94
      127
  0
MATERIAL
  5
46
102
{ACAD_REACTORS
330
43
102
}
330
43
100
AcDbMaterial
  1
Global
 72
     1
 94
      127
  0
MLEADERSTYLE
  5
5C
102
{ACAD_REACTORS
330
5B
102
}
330
5B
100
AcDbMLeaderStyle
179
     2
170
     2
171
     1
172
     0
 90
        2
 40
0.0
 41
0.0
173
     1
 91
-1056964608
340
14
 92
       -2
290
     1
 42
0.09
291
     1
 43
0.36
  3
Standard
341
0
 44
0.18
300

342
11
174
     1
178
     6
175
     1
176
     0
 93
-1056964608
 45
0.18
292
     0
297
     0
 46
0.18
343
0
 94
-1056964608
 47
1.0
 49
1.0
140
1.0
293
     1
141
0.0
294
     1
177
     0
142
1.0
295
     0
296
     0
143
0.125
271
     0
272
     9
273
     9
298
     0
  0
MLINESTYLE
  5
18
102
{ACAD_REACTORS
330
17
102
}
330
17
100
AcDbMlineStyle
  2
Standard
 70
     0
  3

 62
   256
 51
90.0
 52
90.0
 71
     2
 49
0.5
 62
   256
  6
BYLAYER
 49
-0.5
 62
   256
  6
BYLAYER
  0
ACDBPLACEHOLDER
  5
F
102
{ACAD_REACTORS
330
E
102
}
330
E
  0
SCALE
  5
48
102
{ACAD_REACTORS
330
47
102
}
330
47
100
AcDbScale
 70
     0
300
1:1
140
1.0
141
1.0
290
     1
  0
SCALE
  5
49
102
{ACAD_REACTORS
330
47
102
}
330
47
100
AcDbScale
 70
     0
300
1/128" = 1'-0"
140
0.0078125
141
12.0
290
     0
  0
SCALE
  5
4A
102
{ACAD_REACTORS
330
47
102
}
330
47
100
AcDbScale
 70
     0
300
1/64" = 1'-0"
140
0.015625
141
12.0
290
     0
  0
SCALE
  5
4B
102
{ACAD_REACTORS
330
47
102
}
330
47
100
AcDbScale
 70
     0
300
1/32" = 1'-0"
140
0.03125
141
12.0
290
     0
  0
SCALE
  5
4C
102
{ACAD_REACTORS
330
47
102
}
330
47
100
AcDbScale
 70
     0
300
1/16" = 1'-0"
140
0.0625
141
12.0
290
     0
  0
SCALE
  5
4D
102
{ACAD_REACTORS
330
47
102
}
330
47
100
AcDbScale
 70
     0
300
3/32" = 1'-0"
140
0.09375
141
12.0
290
     0
  0
SCALE
  5
4E
102
{ACAD_REACTORS
330
47
102
}
330
47
100
AcDbScale
 70
     0
300
1/8" = 1'-0"
140
0.125
141
12.0
290
     0
  0
SCALE
  5
4F
102
{ACAD_REACTORS
330
47
102
}
330
47
100
AcDbScale
 70
     0
300
3/16" = 1'-0"
140
0.1875
141
12.0
290
     0
  0
SCALE
  5
50
102
{ACAD_REACTORS
330
47
102
}
330
47
100
AcDbScale
 70
     0
300
1/4" = 1'-0"
140
0.25
141
12.0
290
     0
  0
SCALE
  5
51
102
{ACAD_REACTORS
330
47
102
}
330
47
100
AcDbScale
 70
     0
300
3/8" = 1'-0"
140
0.375
141
12.0
290
     0
  0
SCALE
  5
52
102
{ACAD_REACTORS
330
47
102
}
330
47
100
AcDbScale
 70
     0
300
1/2" = 1'-0"
140
0.5
141
12.0
290
     0
  0
SCALE
  5
53
102
{ACAD_REACTORS
330
47
102
}
330
47
100
AcDbScale
 70
     0
300
3/4" = 1'-0"
140
0.75
141
12.0
290
     0
  0
SCALE
  5
54
102
{ACAD_REACTORS
330
47
102
}
330
47
100
AcDbScale
 70
     0
300
1" = 1'-0"
140
1.0
141
12.0
290
     0
  0
SCALE
  5
55
102
{ACAD_REACTORS
330
47
102
}
330
47
100
AcDbScale
 70
     0
300
1-1/2" = 1'-0"
140
1.5
141
12.0
290
     0
  0
SCALE
  5
56
102
{ACAD_REACTORS
330
47
102
}
330
47
100
AcDbScale
 70
     0
300
3" = 1'-0"
140
3.0
141
12.0
290
     0
  0
SCALE
  5
57
102
{ACAD_REACTORS
330
47
102
}
330
47
100
AcDbScale
 70
     0
300
6" = 1'-0"
140
6.0
141
12.0
290
     0
  0
SCALE
  5
58
102
{ACAD_REACTORS
330
47
102
}
330
47
100
AcDbScale
 70
     0
300
1'-0" = 1'-0"
140
12.0
141
12.0
290
     0
  0
TABLESTYLE
  5
5A
102
{ACAD_REACTORS
330
59
102
}
102
{ACAD_XDICTIONARY
360
F2
102
}
330
59
100
AcDbTableStyle
  3
Standard
 70
     0
 71
     0
 40
0.06
 41
0.06
280
     0
281
     0
  7
Standard
140
0.18
170
     2
 62
     0
 63
   257
283
     0
 90
        4
 91
        0
  1

274
    -2
284
     1
 64
     0
275
    -2
285
     1
 65
     0
276
    -2
286
     1
 66
     0
277
    -2
287
     1
 67
     0
278
    -2
288
     1
 68
     0
279
    -2
289
     1
 69
     0
  7
Standard
140
0.25
170
     5
 62
     0
 63
   257
283
     0
 90
        4
 91
        0
  1

274
    -2
284
     1
 64
     0
275
    -2
285
     1
 65
     0
276
    -2
286
     1
 66
     0
277
    -2
287
     1
 67
     0
278
    -2
288
     1
 68
     0
279
    -2
289
     1
 69
     0
  7
Standard
140
0.18
170
     5
 62
     0
 63
   257
283
     0
 90
        4
 91
        0
  1

274
    -2
284
     1
 64
     0
275
    -2
285
     1
 65
     0
276
    -2
286
     1
 66
     0
277
    -2
287
     1
 67
     0
278
    -2
288
     1
 68
     0
279
    -2
289
     1
 69
     0
  0
VISUALSTYLE
  5
2F
102
{ACAD_REACTORS
330
2A
102
}
330
2A
100
AcDbVisualStyle
  2
2dWireframe
 70
     4
177
     3
291
     0
 70
    58
 90
        0
176
     1
 90
        2
176
     1
 90
        0
176
     1
 90
        0
176
     1
 40
0.6
176
     1
 40
30.0
176
     1
 62
     7
420
 16777215
176
     1
 90
        1
176
     1
 90
        4
176
     1
 62
     7
176
     1
 62
   257
176
     1
 90
        1
176
     1
 90
        1
176
     1
 40
1.0
176
     1
 90
        0
176
     1
 62
   257
176
     1
 40
1.0
176
     1
 90
        1
176
     1
 90
        6
176
     1
 90
        2
176
     1
 62
     7
176
     1
 90
        5
176
     1
 90
        0
176
     1
 90
        0
176
     1
290
     0
176
     1
 90
        1
176
     1
 40
0.0
176
     1
 90
        0
176
     1
290
     1
176
     1
290
     1
176
     1
290
     0
176
     1
290
     0
176
     1
290
     0
176
     1
290
     0
176
     1
290
     0
176
     1
290
     0
176
     1
290
     0
176
     1
 90
       50
176
     1
 40
0.0
176
     1
 40
1.0
176
     1
 90
        0
176
     1
 62
    18
420
        0
176
     1
 90
       50
176
     1
 90
        3
176
     1
 62
     5
420
      255
176
     1
290
     0
176
     1
 90
       50
176
     1
 90
       50
176
     1
 90
       50
176
     1
290
     0
176
     1
 90
       50
176
     1
 62
   256
176
     0
 40
1.0
176
     0
 90
        2
176
     1
  1
strokes_ogs.tif
176
     1
290
     0
176
     1
 40
1.0
176
     1
 40
1.0
176
     1
  0
VISUALSTYLE
  5
32
102
{ACAD_REACTORS
330
2A
102
}
330
2A
100
AcDbVisualStyle
  2
Basic
 70
     7
177
     3
291
     1
 70
    58
 90
        1
176
     1
 90
        0
176
     1
 90
        1
176
     1
 90
        0
176
     1
 40
0.6
176
     1
 40
30.0
176
     1
 62
     7
420
 16777215
176
     1
 90
        0
176
     1
 90
        4
176
     1
 62
     7
176
     1
 62
   257
176
     1
 90
        1
176
     1
 90
        1
176
     1
 40
1.0
176
     1
 90
        8
176
     1
 62
     7
176
     1
 40
1.0
176
     1
 90
        1
176
     1
 90
        6
176
     1
 90
        2
176
     1
 62
     7
176
     1
 90
        5
176
     1
 90
        0
176
     1
 90
        0
176
     1
290
     0
176
     1
 90
        1
176
     1
 40
0.0
176
     1
 90
        0
176
     1
290
     0
176
     1
290
     1
176
     1
290
     1
176
     1
290
     0
176
     1
290
     0
176
     1
290
     0
176
     1
290
     0
176
     1
290
     0
176
     1
290
     0
176
     1
 90
       50
176
     1
 40
0.0
176
     1
 40
1.0
176
     1
 90
        0
176
     1
 62
    18
420
        0
176
     1
 90
       50
176
     1
 90
        3
176
     1
 62
     5
420
      255
176
     1
290
     0
176
     1
 90
       50
176
     1
 90
       50
176
     1
 90
       50
176
     1
290
     0
176
     1
 90
       50
176
     1
 62
   256
176
     0
 40
1.0
176
     0
 90
        2
176
     1
  1
strokes_ogs.tif
176
     1
290
     0
176
     1
 40
1.0
176
     1
 40
1.0
176
     1
  0
VISUALSTYLE
  5
36
102
{ACAD_REACTORS
330
2A
102
}
330
2A
100
AcDbVisualStyle
  2
Brighten
 70
    12
177
     3
291
     1
 70
    58
 90
        2
176
     1
 90
        2
176
     1
 90
        0
176
     1
 90
        0
176
     1
 40
0.6
176
     1
 40
30.0
176
     1
 62
     7
420
 16777215
176
     1
 90
        1
176
     1
 90
        4
176
     1
 62
     7
176
     1
 62
   257
176
     1
 90
        1
176
     1
 90
        1
176
     1
 40
1.0
176
     1
 90
        8
176
     1
 62
     7
176
     1
 40
1.0
176
     1
 90
        1
176
     1
 90
        6
176
     1
 90
        2
176
     1
 62
     7
176
     1
 90
        5
176
     1
 90
        0
176
     1
 90
        0
176
     1
290
     0
176
     1
 90
        1
176
     1
 40
50.0
176
     1
 90
        0
176
     1
290
     0
176
     1
290
     1
176
     1
290
     1
176
     1
290
     0
176
     1
290
     0
176
     1
290
     0
176
     1
290
     0
176
     1
290
     0
176
     1
290
     0
176
     1
 90
       50
176
     1
 40
0.0
176
     1
 40
1.0
176
     1
 90
        0
176
     1
 62
    18
420
        0
176
     1
 90
       50
176
     1
 90
        3
176
     1
 62
     5
420
      255
176
     1
290
     0
176
     1
 90
       50
176
     1
 90
       50
176
     1
 90
       50
176
     1
290
     0
176
     1
 90
       50
176
     1
 62
   256
176
     0
 40
1.0
176
     0
 90
        2
176
     1
  1
strokes_ogs.tif
176
     1
290
     0
176
     1
 40
1.0
176
     1
 40
1.0
176
     1
  0
VISUALSTYLE
  5
3A
102
{ACAD_REACTORS
330
2A
102
}
330
2A
100
AcDbVisualStyle
  2
ColorChange
 70
    16
177
     3
291
     1
 70
    58
 90
        2
176
     1
 90
        2
176
     1
 90
        3
176
     1
 90
        0
176
     1
 40
0.6
176
     1
 40
30.0
176
     1
 62
     8
420
  8421504
176
     1
 90
        1
176
     1
 90
        4
176
     1
 62
     7
176
     1
 62
   257
176
     1
 90
        1
176
     1
 90
        1
176
     1
 40
1.0
176
     1
 90
        8
176
     1
 62
     8
420
  8421504
176
     1
 40
1.0
176
     1
 90
        1
176
     1
 90
        6
176
     1
 90
        2
176
     1
 62
     7
176
     1
 90
        5
176
     1
 90
        0
176
     1
 90
        0
176
     1
290
     0
176
     1
 90
        1
176
     1
 40
0.0
176
     1
 90
        0
176
     1
290
     0
176
     1
290
     1
176
     1
290
     1
176
     1
290
     0
176
     1
290
     0
176
     1
290
     0
176
     1
290
     0
176
     1
290
     0
176
     1
290
     0
176
     1
 90
       50
176
     1
 40
0.0
176
     1
 40
1.0
176
     1
 90
        0
176
     1
 62
    18
420
        0
176
     1
 90
       50
176
     1
 90
        3
176
     1
 62
     5
420
      255
176
     1
290
     0
176
     1
 90
       50
176
     1
 90
       50
176
     1
 90
       50
176
     1
290
     0
176
     1
 90
       50
176
     1
 62
   256
176
     0
 40
1.0
176
     0
 90
        2
176
     1
  1
strokes_ogs.tif
176
     1
290
     0
176
     1
 40
1.0
176
     1
 40
1.0
176
     1
  0
VISUALSTYLE
  5
34
102
{ACAD_REACTORS
330
2A
102
}
330
2A
100
AcDbVisualStyle
  2
Conceptual
 70
     9
177
     3
291
     0
 70
    58
 90
        3
176
     1
 90
        2
176
     1
 90
        0
176
     1
 90
        0
176
     1
 40
0.6
176
     1
 40
30.0
176
     1
 62
     7
420
 16777215
176
     1
 90
        2
176
     1
 90
        2
176
     1
 62
     7
176
     1
 62
   257
176
     1
 90
        1
176
     1
 90
        1
176
     1
 40
179.0
176
     1
 90
        8
176
     1
 62
     7
176
     1
 40
1.0
176
     1
 90
        1
176
     1
 90
        6
176
     1
 90
        2
176
     1
 62
     7
176
     1
 90
        3
176
     1
 90
        0
176
     1
 90
        0
176
     1
290
     0
176
     1
 90
        1
176
     1
 40
0.0
176
     1
 90
        0
176
     1
290
     0
176
     1
290
     1
176
     1
290
     1
176
     1
290
     0
176
     1
290
     0
176
     1
290
     0
176
     1
290
     0
176
     1
290
     0
176
     1
290
     0
176
     1
 90
       50
176
     1
 40
0.0
176
     1
 40
1.0
176
     1
 90
        0
176
     1
 62
    18
420
        0
176
     1
 90
       50
176
     1
 90
        3
176
     1
 62
     5
420
      255
176
     1
290
     0
176
     1
 90
       50
176
     1
 90
       50
176
     1
 90
       50
176
     1
290
     0
176
     1
 90
       50
176
     1
 62
   256
176
     0
 40
1.0
176
     0
 90
        2
176
     1
  1
strokes_ogs.tif
176
     1
290
     0
176
     1
 40
1.0
176
     1
 40
1.0
176
     1
  0
VISUALSTYLE
  5
35
102
{ACAD_REACTORS
330
2A
102
}
330
2A
100
AcDbVisualStyle
  2
Dim
 70
    11
177
     3
291
     1
 70
    58
 90
        2
176
     1
 90
        2
176
     1
 90
        0
176
     1
 90
        0
176
     1
 40
0.6
176
     1
 40
30.0
176
     1
 62
     7
420
 16777215
176
     1
 90
        1
176
     1
 90
        4
176
     1
 62
     7
176
     1
 62
   257
176
     1
 90
        1
176
     1
 90
        1
176
     1
 40
1.0
176
     1
 90
        8
176
     1
 62
     7
176
     1
 40
1.0
176
     1
 90
        1
176
     1
 90
        6
176
     1
 90
        2
176
     1
 62
     7
176
     1
 90
        5
176
     1
 90
        0
176
     1
 90
        0
176
     1
290
     0
176
     1
 90
        1
176
     1
 40
-50.0
176
     1
 90
        0
176
     1
290
     0
176
     1
290
     1
176
     1
290
     1
176
     1
290
     0
176
     1
290
     0
176
     1
290
     0
176
     1
290
     0
176
     1
290
     0
176
     1
290
     0
176
     1
 90
       50
176
     1
 40
0.0
176
     1
 40
1.0
176
     1
 90
        0
176
     1
 62
    18
420
        0
176
     1
 90
       50
176
     1
 90
        3
176
     1
 62
     5
420
      255
176
     1
290
     0
176
     1
 90
       50
176
     1
 90
       50
176
     1
 90
       50
176
     1
290
     0
176
     1
 90
       50
176
     1
 62
   256
176
     0
 40
1.0
176
     0
 90
        2
176
     1
  1
strokes_ogs.tif
176
     1
290
     0
176
     1
 40
1.0
176
     1
 40
1.0
176
     1
  0
VISUALSTYLE
  5
3D
102
{ACAD_REACTORS
330
2A
102
}
330
2A
100
AcDbVisualStyle
  2
EdgeColorOff
 70
    22
177
     3
291
     1
 70
    58
 90
        2
176
     0
 90
        2
176
     0
 90
        0
176
     0
 90
        0
176
     0
 40
0.6
176
     0
 40
30.0
176
     0
 62
     7
420
 16777215
176
     0
 90
        1
176
     0
 90
        4
176
     0
 62
     7
176
     0
 62
   257
176
     0
 90
        1
176
     0
 90
        1
176
     0
 40
1.0
176
     0
 90
        8
176
     2
 62
     7
176
     0
 40
1.0
176
     0
 90
        1
176
     0
 90
        6
176
     0
 90
        2
176
     0
 62
     7
176
     0
 90
        5
176
     0
 90
        0
176
     0
 90
        0
176
     0
290
     0
176
     0
 90
        1
176
     0
 40
0.0
176
     0
 90
        0
176
     0
290
     0
176
     0
290
     1
176
     0
290
     1
176
     0
290
     0
176
     0
290
     0
176
     0
290
     0
176
     0
290
     0
176
     0
290
     0
176
     0
290
     0
176
     0
 90
       50
176
     0
 40
0.0
176
     0
 40
1.0
176
     0
 90
        0
176
     0
 62
    18
420
        0
176
     0
 90
       50
176
     0
 90
        3
176
     0
 62
     5
420
      255
176
     0
290
     0
176
     0
 90
       50
176
     0
 90
       50
176
     0
 90
       50
176
     0
290
     0
176
     0
 90
       50
176
     0
 62
   256
176
     0
 40
1.0
176
     0
 90
        2
176
     0
  1
strokes_ogs.tif
176
     0
290
     0
176
     0
 40
1.0
176
     0
 40
1.0
176
     0
  0
VISUALSTYLE
  5
39
102
{ACAD_REACTORS
330
2A
102
}
330
2A
100
AcDbVisualStyle
  2
Facepattern
 70
    15
177
     3
291
     1
 70
    58
 90
        2
176
     1
 90
        2
176
     1
 90
        0
176
     1
 90
        0
176
     1
 40
0.6
176
     1
 40
30.0
176
     1
 62
     7
420
 16777215
176
     1
 90
        1
176
     1
 90
        4
176
     1
 62
     7
176
     1
 62
   257
176
     1
 90
        1
176
     1
 90
        1
176
     1
 40
1.0
176
     1
 90
        8
176
     1
 62
     7
176
     1
 40
1.0
176
     1
 90
        1
176
     1
 90
        6
176
     1
 90
        2
176
     1
 62
     7
176
     1
 90
        5
176
     1
 90
        0
176
     1
 90
        0
176
     1
290
     0
176
     1
 90
        1
176
     1
 40
0.0
176
     1
 90
        0
176
     1
290
     0
176
     1
290
     1
176
     1
290
     1
176
     1
290
     0
176
     1
290
     0
176
     1
290
     0
176
     1
290
     0
176
     1
290
     0
176
     1
290
     0
176
     1
 90
       50
176
     1
 40
0.0
176
     1
 40
1.0
176
     1
 90
        0
176
     1
 62
    18
420
        0
176
     1
 90
       50
176
     1
 90
        3
176
     1
 62
     5
420
      255
176
     1
290
     0
176
     1
 90
       50
176
     1
 90
       50
176
     1
 90
       50
176
     1
290
     0
176
     1
 90
       50
176
     1
 62
   256
176
     0
 40
1.0
176
     0
 90
        2
176
     1
  1
strokes_ogs.tif
176
     1
290
     0
176
     1
 40
1.0
176
     1
 40
1.0
176
     1
  0
VISUALSTYLE
  5
2B
102
{ACAD_REACTORS
330
2A
102
}
330
2A
100
AcDbVisualStyle
  2
Flat
 70
     0
177
     3
291
     1
 70
    58
 90
        2
176
     1
 90
        1
176
     1
 90
        1
176
     1
 90
        2
176
     1
 40
0.6
176
     1
 40
30.0
176
     1
 62
     7
420
 16777215
176
     1
 90
        0
176
     1
 90
        0
176
     1
 62
     7
176
     1
 62
   257
176
     1
 90
        1
176
     1
 90
        1
176
     1
 40
1.0
176
     1
 90
        8
176
     1
 62
     7
176
     1
 40
1.0
176
     1
 90
        1
176
     1
 90
        6
176
     1
 90
        2
176
     1
 62
     7
176
     1
 90
        5
176
     1
 90
        0
176
     1
 90
        0
176
     1
290
     0
176
     1
 90
       13
176
     1
 40
0.0
176
     1
 90
        0
176
     1
290
     0
176
     1
290
     1
176
     1
290
     1
176
     1
290
     0
176
     1
290
     0
176
     1
290
     0
176
     1
290
     0
176
     1
290
     0
176
     1
290
     0
176
     1
 90
       50
176
     1
 40
0.0
176
     1
 40
1.0
176
     1
 90
        0
176
     1
 62
    18
420
        0
176
     1
 90
       50
176
     1
 90
        3
176
     1
 62
     5
420
      255
176
     1
290
     0
176
     1
 90
       50
176
     1
 90
       50
176
     1
 90
       50
176
     1
290
     0
176
     1
 90
       50
176
     1
 62
   256
176
     0
 40
1.0
176
     0
 90
        2
176
     1
  1
strokes_ogs.tif
176
     1
290
     0
176
     1
 40
1.0
176
     1
 40
1.0
176
     1
  0
VISUALSTYLE
  5
2C
102
{ACAD_REACTORS
330
2A
102
}
330
2A
100
AcDbVisualStyle
  2
FlatWithEdges
 70
     1
177
     3
291
     1
 70
    58
 90
        2
176
     1
 90
        1
176
     1
 90
        1
176
     1
 90
        2
176
     1
 40
0.6
176
     1
 40
30.0
176
     1
 62
     7
420
 16777215
176
     1
 90
        1
176
     1
 90
        0
176
     1
 62
     7
176
     1
 62
   257
176
     1
 90
        1
176
     1
 90
        1
176
     1
 40
1.0
176
     1
 90
        0
176
     1
 62
   257
176
     1
 40
1.0
176
     1
 90
        1
176
     1
 90
        6
176
     1
 90
        2
176
     1
 62
     7
176
     1
 90
        5
176
     1
 90
        0
176
     1
 90
        0
176
     1
290
     0
176
     1
 90
       13
176
     1
 40
0.0
176
     1
 90
        0
176
     1
290
     0
176
     1
290
     1
176
     1
290
     1
176
     1
290
     0
176
     1
290
     0
176
     1
290
     0
176
     1
290
     0
176
     1
290
     0
176
     1
290
     0
176
     1
 90
       50
176
     1
 40
0.0
176
     1
 40
1.0
176
     1
 90
        0
176
     1
 62
    18
420
        0
176
     1
 90
       50
176
     1
 90
        3
176
     1
 62
     5
420
      255
176
     1
290
     0
176
     1
 90
       50
176
     1
 90
       50
176
     1
 90
       50
176
     1
290
     0
176
     1
 90
       50
176
     1
 62
   256
176
     0
 40
1.0
176
     0
 90
        2
176
     1
  1
strokes_ogs.tif
176
     1
290
     0
176
     1
 40
1.0
176
     1
 40
1.0
176
     1
  0
VISUALSTYLE
  5
2D
102
{ACAD_REACTORS
330
2A
102
}
330
2A
100
AcDbVisualStyle
  2
Gouraud
 70
     2
177
     3
291
     1
 70
    58
 90
        2
176
     1
 90
        2
176
     1
 90
        1
176
     1
 90
        2
176
     1
 40
0.6
176
     1
 40
30.0
176
     1
 62
     7
420
 16777215
176
     1
 90
        0
176
     1
 90
        0
176
     1
 62
     7
176
     1
 62
   257
176
     1
 90
        1
176
     1
 90
        1
176
     1
 40
1.0
176
     1
 90
        0
176
     1
 62
     7
176
     1
 40
1.0
176
     1
 90
        1
176
     1
 90
        6
176
     1
 90
        2
176
     1
 62
     7
176
     1
 90
        5
176
     1
 90
        0
176
     1
 90
        0
176
     1
290
     0
176
     1
 90
       13
176
     1
 40
0.0
176
     1
 90
        0
176
     1
290
     0
176
     1
290
     1
176
     1
290
     1
176
     1
290
     0
176
     1
290
     0
176
     1
290
     0
176
     1
290
     0
176
     1
290
     0
176
     1
290
     0
176
     1
 90
       50
176
     1
 40
0.0
176
     1
 40
1.0
176
     1
 90
        0
176
     1
 62
    18
420
        0
176
     1
 90
       50
176
     1
 90
        3
176
     1
 62
     5
420
      255
176
     1
290
     0
176
     1
 90
       50
176
     1
 90
       50
176
     1
 90
       50
176
     1
290
     0
176
     1
 90
       50
176
     1
 62
   256
176
     0
 40
1.0
176
     0
 90
        2
176
     1
  1
strokes_ogs.tif
176
     1
290
     0
176
     1
 40
1.0
176
     1
 40
1.0
176
     1
  0
VISUALSTYLE
  5
2E
102
{ACAD_REACTORS
330
2A
102
}
330
2A
100
AcDbVisualStyle
  2
GouraudWithEdges
 70
     3
177
     3
291
     1
 70
    58
 90
        2
176
     1
 90
        2
176
     1
 90
        1
176
     1
 90
        2
176
     1
 40
0.6
176
     1
 40
30.0
176
     1
 62
     7
420
 16777215
176
     1
 90
        1
176
     1
 90
        0
176
     1
 62
     7
176
     1
 62
   257
176
     1
 90
        1
176
     1
 90
        1
176
     1
 40
1.0
176
     1
 90
        0
176
     1
 62
   257
176
     1
 40
1.0
176
     1
 90
        1
176
     1
 90
        6
176
     1
 90
        2
176
     1
 62
     7
176
     1
 90
        5
176
     1
 90
        0
176
     1
 90
        0
176
     1
290
     0
176
     1
 90
       13
176
     1
 40
0.0
176
     1
 90
        0
176
     1
290
     0
176
     1
290
     1
176
     1
290
     1
176
     1
290
     0
176
     1
290
     0
176
     1
290
     0
176
     1
290
     0
176
     1
290
     0
176
     1
290
     0
176
     1
 90
       50
176
     1
 40
0.0
176
     1
 40
1.0
176
     1
 90
        0
176
     1
 62
    18
420
        0
176
     1
 90
       50
176
     1
 90
        3
176
     1
 62
     5
420
      255
176
     1
290
     0
176
     1
 90
       50
176
     1
 90
       50
176
     1
 90
       50
176
     1
290
     0
176
     1
 90
       50
176
     1
 62
   256
176
     0
 40
1.0
176
     0
 90
        2
176
     1
  1
strokes_ogs.tif
176
     1
290
     0
176
     1
 40
1.0
176
     1
 40
1.0
176
     1
  0
VISUALSTYLE
  5
31
102
{ACAD_REACTORS
330
2A
102
}
330
2A
100
AcDbVisualStyle
  2
Hidden
 70
     6
177
     3
291
     0
 70
    58
 90
        1
176
     1
 90
        2
176
     1
 90
        2
176
     1
 90
        0
176
     1
 40
0.6
176
     1
 40
30.0
176
     1
 62
     7
420
 16777215
176
     1
 90
        2
176
     1
 90
        2
176
     1
 62
     7
176
     1
 62
   257
176
     1
 90
        2
176
     1
 90
        1
176
     1
 40
40.0
176
     1
 90
        0
176
     1
 62
   257
176
     1
 40
1.0
176
     1
 90
        1
176
     1
 90
        6
176
     1
 90
        2
176
     1
 62
     7
176
     1
 90
        3
176
     1
 90
        0
176
     1
 90
        0
176
     1
290
     0
176
     1
 90
        1
176
     1
 40
0.0
176
     1
 90
        0
176
     1
290
     0
176
     1
290
     1
176
     1
290
     1
176
     1
290
     0
176
     1
290
     0
176
     1
290
     0
176
     1
290
     0
176
     1
290
     0
176
     1
290
     0
176
     1
 90
       50
176
     1
 40
0.0
176
     1
 40
1.0
176
     1
 90
        0
176
     1
 62
    18
420
        0
176
     1
 90
       50
176
     1
 90
        3
176
     1
 62
     5
420
      255
176
     1
290
     0
176
     1
 90
       50
176
     1
 90
       50
176
     1
 90
       50
176
     1
290
     0
176
     1
 90
       50
176
     1
 62
   256
176
     0
 40
1.0
176
     0
 90
        2
176
     1
  1
strokes_ogs.tif
176
     1
290
     0
176
     1
 40
1.0
176
     1
 40
1.0
176
     1
  0
VISUALSTYLE
  5
3B
102
{ACAD_REACTORS
330
2A
102
}
330
2A
100
AcDbVisualStyle
  2
JitterOff
 70
    20
177
     3
291
     1
 70
    58
 90
        2
176
     0
 90
        2
176
     0
 90
        0
176
     0
 90
        0
176
     0
 40
0.6
176
     0
 40
30.0
176
     0
 62
     7
420
 16777215
176
     0
 90
        1
176
     0
 90
        4
176
     0
 62
     7
176
     0
 62
   257
176
     0
 90
        1
176
     0
 90
        1
176
     0
 40
1.0
176
     0
 90
       10
176
     2
 62
     7
176
     0
 40
1.0
176
     0
 90
        1
176
     0
 90
        6
176
     0
 90
        2
176
     0
 62
     7
176
     0
 90
        5
176
     0
 90
        0
176
     0
 90
        0
176
     0
290
     0
176
     0
 90
        1
176
     0
 40
0.0
176
     0
 90
        0
176
     0
290
     0
176
     0
290
     1
176
     0
290
     1
176
     0
290
     0
176
     0
290
     0
176
     0
290
     0
176
     0
290
     0
176
     0
290
     0
176
     0
290
     0
176
     0
 90
       50
176
     0
 40
0.0
176
     0
 40
1.0
176
     0
 90
        0
176
     0
 62
    18
420
        0
176
     0
 90
       50
176
     0
 90
        3
176
     0
 62
     5
420
      255
176
     0
290
     0
176
     0
 90
       50
176
     0
 90
       50
176
     0
 90
       50
176
     0
290
     0
176
     0
 90
       50
176
     0
 62
   256
176
     0
 40
1.0
176
     0
 90
        2
176
     0
  1
strokes_ogs.tif
176
     0
290
     0
176
     0
 40
1.0
176
     0
 40
1.0
176
     0
  0
VISUALSTYLE
  5
38
102
{ACAD_REACTORS
330
2A
102
}
330
2A
100
AcDbVisualStyle
  2
Linepattern
 70
    14
177
     3
291
     1
 70
    58
 90
        2
176
     1
 90
        2
176
     1
 90
        0
176
     1
 90
        0
176
     1
 40
0.6
176
     1
 40
30.0
176
     1
 62
     7
420
 16777215
176
     1
 90
        1
176
     1
 90
        4
176
     1
 62
     7
176
     1
 62
   257
176
     1
 90
        7
176
     1
 90
        7
176
     1
 40
1.0
176
     1
 90
        8
176
     1
 62
     7
176
     1
 40
1.0
176
     1
 90
        1
176
     1
 90
        6
176
     1
 90
        2
176
     1
 62
     7
176
     1
 90
        5
176
     1
 90
        0
176
     1
 90
        0
176
     1
290
     0
176
     1
 90
        1
176
     1
 40
0.0
176
     1
 90
        0
176
     1
290
     0
176
     1
290
     1
176
     1
290
     1
176
     1
290
     0
176
     1
290
     0
176
     1
290
     0
176
     1
290
     0
176
     1
290
     0
176
     1
290
     0
176
     1
 90
       50
176
     1
 40
0.0
176
     1
 40
1.0
176
     1
 90
        0
176
     1
 62
    18
420
        0
176
     1
 90
       50
176
     1
 90
        3
176
     1
 62
     5
420
      255
176
     1
290
     0
176
     1
 90
       50
176
     1
 90
       50
176
     1
 90
       50
176
     1
290
     0
176
     1
 90
       50
176
     1
 62
   256
176
     0
 40
1.0
176
     0
 90
        2
176
     1
  1
strokes_ogs.tif
176
     1
290
     0
176
     1
 40
1.0
176
     1
 40
1.0
176
     1
  0
VISUALSTYLE
  5
3C
102
{ACAD_REACTORS
330
2A
102
}
330
2A
100
AcDbVisualStyle
  2
OverhangOff
 70
    21
177
     3
291
     1
 70
    58
 90
        2
176
     0
 90
        2
176
     0
 90
        0
176
     0
 90
        0
176
     0
 40
0.6
176
     0
 40
30.0
176
     0
 62
     7
420
 16777215
176
     0
 90
        1
176
     0
 90
        4
176
     0
 62
     7
176
     0
 62
   257
176
     0
 90
        1
176
     0
 90
        1
176
     0
 40
1.0
176
     0
 90
        9
176
     2
 62
     7
176
     0
 40
1.0
176
     0
 90
        1
176
     0
 90
        6
176
     0
 90
        2
176
     0
 62
     7
176
     0
 90
        5
176
     0
 90
        0
176
     0
 90
        0
176
     0
290
     0
176
     0
 90
        1
176
     0
 40
0.0
176
     0
 90
        0
176
     0
290
     0
176
     0
290
     1
176
     0
290
     1
176
     0
290
     0
176
     0
290
     0
176
     0
290
     0
176
     0
290
     0
176
     0
290
     0
176
     0
290
     0
176
     0
 90
       50
176
     0
 40
0.0
176
     0
 40
1.0
176
     0
 90
        0
176
     0
 62
    18
420
        0
176
     0
 90
       50
176
     0
 90
        3
176
     0
 62
     5
420
      255
176
     0
290
     0
176
     0
 90
       50
176
     0
 90
       50
176
     0
 90
       50
176
     0
290
     0
176
     0
 90
       50
176
     0
 62
   256
176
     0
 40
1.0
176
     0
 90
        2
176
     0
  1
strokes_ogs.tif
176
     0
290
     0
176
     0
 40
1.0
176
     0
 40
1.0
176
     0
  0
VISUALSTYLE
  5
33
102
{ACAD_REACTORS
330
2A
102
}
330
2A
100
AcDbVisualStyle
  2
Realistic
 70
     8
177
     3
291
     0
 70
    58
 90
        2
176
     1
 90
        3
176
     1
 90
        0
176
     1
 90
        2
176
     1
 40
0.6
176
     1
 40
30.0
176
     1
 62
     7
420
 16777215
176
     1
 90
        0
176
     1
 90
        0
176
     1
 62
     7
176
     1
 62
   257
176
     1
 90
        1
176
     1
 90
        1
176
     1
 40
1.0
176
     1
 90
        8
176
     1
 62
   257
176
     1
 40
1.0
176
     1
 90
        1
176
     1
 90
        6
176
     1
 90
        2
176
     1
 62
     7
176
     1
 90
        3
176
     1
 90
        0
176
     1
 90
        0
176
     1
290
     0
176
     1
 90
       13
176
     1
 40
0.0
176
     1
 90
        0
176
     1
290
     0
176
     1
290
     1
176
     1
290
     1
176
     1
290
     0
176
     1
290
     0
176
     1
290
     0
176
     1
290
     0
176
     1
290
     0
176
     1
290
     0
176
     1
 90
       50
176
     1
 40
0.0
176
     1
 40
1.0
176
     1
 90
        0
176
     1
 62
    18
420
        0
176
     1
 90
       50
176
     1
 90
        3
176
     1
 62
     5
420
      255
176
     1
290
     0
176
     1
 90
       50
176
     1
 90
       50
176
     1
 90
       50
176
     1
290
     0
176
     1
 90
       50
176
     1
 62
   256
176
     0
 40
1.0
176
     0
 90
        2
176
     1
  1
strokes_ogs.tif
176
     1
290
     0
176
     1
 40
1.0
176
     1
 40
1.0
176
     1
  0
VISUALSTYLE
  5
42
102
{ACAD_REACTORS
330
2A
102
}
330
2A
100
AcDbVisualStyle
  2
Shaded
 70
    27
177
     3
291
     0
 70
    58
 90
        2
176
     1
 90
        2
176
     1
 90
        1
176
     1
 90
        2
176
     1
 40
0.6
176
     1
 40
30.0
176
     1
 62
     7
420
 16777215
176
     1
 90
        0
176
     1
 90
        4
176
     1
 62
     7
176
     1
 62
   257
176
     1
 90
        1
176
     1
 90
        1
176
     1
 40
1.0
176
     1
 90
        8
176
     1
 62
   257
176
     1
 40
1.0
176
     1
 90
        1
176
     1
 90
        6
176
     1
 90
        2
176
     1
 62
     8
420
  7895160
176
     1
 90
        3
176
     1
 90
        0
176
     1
 90
        0
176
     1
290
     0
176
     1
 90
        5
176
     1
 40
0.0
176
     1
 90
        0
176
     1
290
     0
176
     1
290
     1
176
     1
290
     1
176
     1
290
     0
176
     1
290
     0
176
     1
290
     0
176
     1
290
     0
176
     1
290
     0
176
     1
290
     0
176
     1
 90
       50
176
     1
 40
0.0
176
     1
 40
1.0
176
     1
 90
        0
176
     1
 62
    18
420
        0
176
     1
 90
       50
176
     1
 90
        3
176
     1
 62
     5
420
      255
176
     1
290
     0
176
     1
 90
       50
176
     1
 90
       50
176
     1
 90
       50
176
     1
290
     0
176
     1
 90
       50
176
     1
 62
   256
176
     0
 40
1.0
176
     0
 90
        2
176
     1
  1
strokes_ogs.tif
176
     1
290
     0
176
     1
 40
1.0
176
     1
 40
1.0
176
     1
  0
VISUALSTYLE
  5
41
102
{ACAD_REACTORS
330
2A
102
}
330
2A
100
AcDbVisualStyle
  2
Shaded with edges
 70
    26
177
     3
291
     0
 70
    58
 90
        2
176
     1
 90
        2
176
     1
 90
        1
176
     1
 90
        2
176
     1
 40
0.6
176
     1
 40
30.0
176
     1
 62
     7
420
 16777215
176
     1
 90
        1
176
     1
 90
       10
176
     1
 62
     7
176
     1
 62
   257
176
     1
 90
        2
176
     1
 90
        1
176
     1
 40
1.0
176
     1
 90
        8
176
     1
 62
   257
176
     1
 40
1.0
176
     1
 90
        1
176
     1
 90
        6
176
     1
 90
        2
176
     1
 62
     7
176
     1
 90
        3
176
     1
 90
        0
176
     1
 90
        0
176
     1
290
     0
176
     1
 90
        5
176
     1
 40
0.0
176
     1
 90
        0
176
     1
290
     0
176
     1
290
     1
176
     1
290
     1
176
     1
290
     0
176
     1
290
     0
176
     1
290
     0
176
     1
290
     0
176
     1
290
     0
176
     1
290
     0
176
     1
 90
       50
176
     1
 40
0.0
176
     1
 40
1.0
176
     1
 90
        0
176
     1
 62
    18
420
        0
176
     1
 90
       50
176
     1
 90
        3
176
     1
 62
     5
420
      255
176
     1
290
     0
176
     1
 90
       50
176
     1
 90
       50
176
     1
 90
       50
176
     1
290
     0
176
     1
 90
       50
176
     1
 62
   256
176
     0
 40
1.0
176
     0
 90
        2
176
     1
  1
strokes_ogs.tif
176
     1
290
     0
176
     1
 40
1.0
176
     1
 40
1.0
176
     1
  0
VISUALSTYLE
  5
3E
102
{ACAD_REACTORS
330
2A
102
}
330
2A
100
AcDbVisualStyle
  2
Shades of Gray
 70
    23
177
     3
291
     0
 70
    58
 90
        2
176
     1
 90
        2
176
     1
 90
        3
176
     1
 90
        0
176
     1
 40
0.6
176
     1
 40
30.0
176
     1
 62
     7
420
 16777215
176
     1
 90
        2
176
     1
 90
        2
176
     1
 62
     7
176
     1
 62
     7
176
     1
 90
        1
176
     1
 90
        1
176
     1
 40
40.0
176
     1
 90
        8
176
     1
 62
     7
176
     1
 40
1.0
176
     1
 90
        1
176
     1
 90
        6
176
     1
 90
        2
176
     1
 62
     7
176
     1
 90
        3
176
     1
 90
        0
176
     1
 90
        0
176
     1
290
     0
176
     1
 90
        1
176
     1
 40
0.0
176
     1
 90
        0
176
     1
290
     0
176
     1
290
     1
176
     1
290
     1
176
     1
290
     0
176
     1
290
     0
176
     1
290
     0
176
     1
290
     0
176
     1
290
     0
176
     1
290
     0
176
     1
 90
       50
176
     1
 40
0.0
176
     1
 40
1.0
176
     1
 90
        0
176
     1
 62
    18
420
        0
176
     1
 90
       50
176
     1
 90
        3
176
     1
 62
     5
420
      255
176
     1
290
     0
176
     1
 90
       50
176
     1
 90
       50
176
     1
 90
       50
176
     1
290
     0
176
     1
 90
       50
176
     1
 62
   256
176
     0
 40
1.0
176
     0
 90
        2
176
     1
  1
strokes_ogs.tif
176
     1
290
     0
176
     1
 40
1.0
176
     1
 40
1.0
176
     1
  0
VISUALSTYLE
  5
3F
102
{ACAD_REACTORS
330
2A
102
}
330
2A
100
AcDbVisualStyle
  2
Sketchy
 70
    24
177
     3
291
     0
 70
    58
 90
        1
176
     1
 90
        2
176
     1
 90
        2
176
     1
 90
        0
176
     1
 40
0.6
176
     1
 40
30.0
176
     1
 62
     7
420
 16777215
176
     1
 90
        2
176
     1
 90
        2
176
     1
 62
     7
176
     1
 62
     7
176
     1
 90
        1
176
     1
 90
        1
176
     1
 40
40.0
176
     1
 90
       11
176
     1
 62
     7
176
     1
 40
1.0
176
     1
 90
        1
176
     1
 90
        6
176
     1
 90
        2
176
     1
 62
     7
176
     1
 90
        6
176
     1
 90
        0
176
     1
 90
        0
176
     1
290
     0
176
     1
 90
        1
176
     1
 40
0.0
176
     1
 90
        0
176
     1
290
     0
176
     1
290
     1
176
     1
290
     1
176
     1
290
     0
176
     1
290
     0
176
     1
290
     0
176
     1
290
     0
176
     1
290
     0
176
     1
290
     0
176
     1
 90
       50
176
     1
 40
0.0
176
     1
 40
1.0
176
     1
 90
        0
176
     1
 62
    18
420
        0
176
     1
 90
       50
176
     1
 90
        3
176
     1
 62
     5
420
      255
176
     1
290
     0
176
     1
 90
       50
176
     1
 90
       50
176
     1
 90
       50
176
     1
290
     0
176
     1
 90
       50
176
     1
 62
   256
176
     0
 40
1.0
176
     0
 90
        2
176
     1
  1
strokes_ogs.tif
176
     1
290
     0
176
     1
 40
1.0
176
     1
 40
1.0
176
     1
  0
VISUALSTYLE
  5
37
102
{ACAD_REACTORS
330
2A
102
}
330
2A
100
AcDbVisualStyle
  2
Thicken
 70
    13
177
     3
291
     1
 70
    58
 90
        2
176
     1
 90
        2
176
     1
 90
        0
176
     1
 90
        0
176
     1
 40
0.6
176
     1
 40
30.0
176
     1
 62
     7
420
 16777215
176
     1
 90
        1
176
     1
 90
        4
176
     1
 62
     7
176
     1
 62
   257
176
     1
 90
        1
176
     1
 90
        1
176
     1
 40
1.0
176
     1
 90
       12
176
     1
 62
     7
176
     1
 40
1.0
176
     1
 90
        1
176
     1
 90
        6
176
     1
 90
        2
176
     1
 62
     7
176
     1
 90
        5
176
     1
 90
        0
176
     1
 90
        0
176
     1
290
     0
176
     1
 90
        1
176
     1
 40
0.0
176
     1
 90
        0
176
     1
290
     0
176
     1
290
     1
176
     1
290
     1
176
     1
290
     0
176
     1
290
     0
176
     1
290
     0
176
     1
290
     0
176
     1
290
     0
176
     1
290
     0
176
     1
 90
       50
176
     1
 40
0.0
176
     1
 40
1.0
176
     1
 90
        0
176
     1
 62
    18
420
        0
176
     1
 90
       50
176
     1
 90
        3
176
     1
 62
     5
420
      255
176
     1
290
     0
176
     1
 90
       50
176
     1
 90
       50
176
     1
 90
       50
176
     1
290
     0
176
     1
 90
       50
176
     1
 62
   256
176
     0
 40
1.0
176
     0
 90
        2
176
     1
  1
strokes_ogs.tif
176
     1
290
     0
176
     1
 40
1.0
176
     1
 40
1.0
176
     1
  0
VISUALSTYLE
  5
30
102
{ACAD_REACTORS
330
2A
102
}
330
2A
100
AcDbVisualStyle
  2
Wireframe
 70
     5
177
     3
291
     0
 70
    58
 90
        0
176
     1
 90
        2
176
     1
 90
        0
176
     1
 90
        0
176
     1
 40
0.6
176
     1
 40
30.0
176
     1
 62
     7
420
 16777215
176
     1
 90
        1
176
     1
 90
        4
176
     1
 62
     7
176
     1
 62
   257
176
     1
 90
        1
176
     1
 90
        1
176
     1
 40
1.0
176
     1
 90
        0
176
     1
 62
   257
176
     1
 40
1.0
176
     1
 90
        1
176
     1
 90
        6
176
     1
 90
        2
176
     1
 62
     7
176
     1
 90
        3
176
     1
 90
        0
176
     1
 90
        0
176
     1
290
     0
176
     1
 90
        1
176
     1
 40
0.0
176
     1
 90
        0
176
     1
290
     0
176
     1
290
     1
176
     1
290
     1
176
     1
290
     0
176
     1
290
     0
176
     1
290
     0
176
     1
290
     0
176
     1
290
     0
176
     1
290
     0
176
     1
 90
       50
176
     1
 40
0.0
176
     1
 40
1.0
176
     1
 90
        0
176
     1
 62
    18
420
        0
176
     1
 90
       50
176
     1
 90
        3
176
     1
 62
     5
420
      255
176
     1
290
     0
176
     1
 90
       50
176
     1
 90
       50
176
     1
 90
       50
176
     1
290
     0
176
     1
 90
       50
176
     1
 62
   256
176
     0
 40
1.0
176
     0
 90
        2
176
     1
  1
strokes_ogs.tif
176
     1
290
     0
176
     1
 40
1.0
176
     1
 40
1.0
176
     1
  0
VISUALSTYLE
  5
40
102
{ACAD_REACTORS
330
2A
102
}
330
2A
100
AcDbVisualStyle
  2
X-Ray
 70
    25
177
     3
291
     0
 70
    58
 90
        2
176
     1
 90
        2
176
     1
 90
        1
176
     1
 90
        1
176
     1
 40
0.5
176
     1
 40
30.0
176
     1
 62
     7
420
 16777215
176
     1
 90
        1
176
     1
 90
        0
176
     1
 62
     7
176
     1
 62
   257
176
     1
 90
        1
176
     1
 90
        1
176
     1
 40
1.0
176
     1
 90
        8
176
     1
 62
     7
176
     1
 40
1.0
176
     1
 90
        1
176
     1
 90
        6
176
     1
 90
        2
176
     1
 62
     7
176
     1
 90
        3
176
     1
 90
        0
176
     1
 90
        0
176
     1
290
     0
176
     1
 90
       13
176
     1
 40
0.0
176
     1
 90
        0
176
     1
290
     0
176
     1
290
     1
176
     1
290
     1
176
     1
290
     0
176
     1
290
     0
176
     1
290
     0
176
     1
290
     0
176
     1
290
     0
176
     1
290
     0
176
     1
 90
       50
176
     1
 40
0.0
176
     1
 40
1.0
176
     1
 90
        0
176
     1
 62
    18
420
        0
176
     1
 90
       50
176
     1
 90
        3
176
     1
 62
     5
420
      255
176
     1
290
     0
176
     1
 90
       50
176
     1
 90
       50
176
     1
 90
       50
176
     1
290
     0
176
     1
 90
       50
176
     1
 62
   256
176
     0
 40
1.0
176
     0
 90
        2
176
     1
  1
strokes_ogs.tif
176
     1
290
     0
176
     1
 40
1.0
176
     1
 40
1.0
176
     1
  0
DICTIONARYVAR
  5
F1
102
{ACAD_REACTORS
330
F0
102
}
330
F0
100
DictionaryVariables
280
     0
  1
1:1
  0
DICTIONARYVAR
  5
F6
102
{ACAD_REACTORS
330
F0
102
}
330
F0
100
DictionaryVariables
280
     0
  1
Standard
  0
DICTIONARYVAR
  5
F5
102
{ACAD_REACTORS
330
F0
102
}
330
F0
100
DictionaryVariables
280
     0
  1
Standard
  0
DICTIONARY
  5
F2
330
5A
100
AcDbDictionary
280
     1
281
     1
  3
ACAD_ROUNDTRIP_2008_TABLESTYLE_CELLSTYLEMAP
360
F3
  0
CELLSTYLEMAP
  5
F3
102
{ACAD_REACTORS
330
F2
102
}
330
F2
100
AcDbCellStyleMap
 90
        3
300
CELLSTYLE
  1
TABLEFORMAT_BEGIN
 90
        5
170
     1
 91
        0
 92
    32768
 62
   257
 93
        1
300
CONTENTFORMAT
  1
CONTENTFORMAT_BEGIN
 90
        0
 91
        0
 92
        4
 93
        0
300

 40
0.0
140
1.0
 94
        5
 62
     0
340
11
144
0.25
309
CONTENTFORMAT_END
171
     1
301
MARGIN
  1
CELLMARGIN_BEGIN
 40
0.06
 40
0.06
 40
0.06
 40
0.06
 40
0.06
 40
0.06
309
CELLMARGIN_END
 94
        6
 95
        1
302
GRIDFORMAT
  1
GRIDFORMAT_BEGIN
 90
        0
 91
        1
 62
     0
 92
       -2
340
14
 93
        0
 40
0.045
309
GRIDFORMAT_END
 95
        2
302
GRIDFORMAT
  1
GRIDFORMAT_BEGIN
 90
        0
 91
        1
 62
     0
 92
       -2
340
14
 93
        0
 40
0.045
309
GRIDFORMAT_END
 95
        4
302
GRIDFORMAT
  1
GRIDFORMAT_BEGIN
 90
        0
 91
        1
 62
     0
 92
       -2
340
14
 93
        0
 40
0.045
309
GRIDFORMAT_END
 95
        8
302
GRIDFORMAT
  1
GRIDFORMAT_BEGIN
 90
        0
 91
        1
 62
     0
 92
       -2
340
14
 93
        0
 40
0.045
309
GRIDFORMAT_END
 95
       16
302
GRIDFORMAT
  1
GRIDFORMAT_BEGIN
 90
        0
 91
        1
 62
     0
 92
       -2
340
14
 93
        0
 40
0.045
309
GRIDFORMAT_END
 95
       32
302
GRIDFORMAT
  1
GRIDFORMAT_BEGIN
 90
        0
 91
        1
 62
     0
 92
       -2
340
14
 93
        0
 40
0.045
309
GRIDFORMAT_END
309
TABLEFORMAT_END
  1
CELLSTYLE_BEGIN
 90
        1
 91
        1
300
_TITLE
309
CELLSTYLE_END
300
CELLSTYLE
  1
TABLEFORMAT_BEGIN
 90
        5
170
     1
 91
        0
 92
        0
 62
   257
 93
        1
300
CONTENTFORMAT
  1
CONTENTFORMAT_BEGIN
 90
        0
 91
        0
 92
        4
 93
        0
300

 40
0.0
140
1.0
 94
        5
 62
     0
340
11
144
0.18
309
CONTENTFORMAT_END
171
     1
301
MARGIN
  1
CELLMARGIN_BEGIN
 40
0.06
 40
0.06
 40
0.06
 40
0.06
 40
0.06
 40
0.06
309
CELLMARGIN_END
 94
        6
 95
        1
302
GRIDFORMAT
  1
GRIDFORMAT_BEGIN
 90
        0
 91
        1
 62
     0
 92
       -2
340
14
 93
        0
 40
0.045
309
GRIDFORMAT_END
 95
        2
302
GRIDFORMAT
  1
GRIDFORMAT_BEGIN
 90
        0
 91
        1
 62
     0
 92
       -2
340
14
 93
        0
 40
0.045
309
GRIDFORMAT_END
 95
        4
302
GRIDFORMAT
  1
GRIDFORMAT_BEGIN
 90
        0
 91
        1
 62
     0
 92
       -2
340
14
 93
        0
 40
0.045
309
GRIDFORMAT_END
 95
        8
302
GRIDFORMAT
  1
GRIDFORMAT_BEGIN
 90
        0
 91
        1
 62
     0
 92
       -2
340
14
 93
        0
 40
0.045
309
GRIDFORMAT_END
 95
       16
302
GRIDFORMAT
  1
GRIDFORMAT_BEGIN
 90
        0
 91
        1
 62
     0
 92
       -2
340
14
 93
        0
 40
0.045
309
GRIDFORMAT_END
 95
       32
302
GRIDFORMAT
  1
GRIDFORMAT_BEGIN
 90
        0
 91
        1
 62
     0
 92
       -2
340
14
 93
        0
 40
0.045
309
GRIDFORMAT_END
309
TABLEFORMAT_END
  1
CELLSTYLE_BEGIN
 90
        2
 91
        1
300
_HEADER
309
CELLSTYLE_END
300
CELLSTYLE
  1
TABLEFORMAT_BEGIN
 90
        5
170
     1
 91
        0
 92
        0
 62
   257
 93
        1
300
CONTENTFORMAT
  1
CONTENTFORMAT_BEGIN
 90
        0
 91
        0
 92
        4
 93
        0
300

 40
0.0
140
1.0
 94
        2
 62
     0
340
11
144
0.18
309
CONTENTFORMAT_END
171
     1
301
MARGIN
  1
CELLMARGIN_BEGIN
 40
0.06
 40
0.06
 40
0.06
 40
0.06
 40
0.06
 40
0.06
309
CELLMARGIN_END
 94
        6
 95
        1
302
GRIDFORMAT
  1
GRIDFORMAT_BEGIN
 90
        0
 91
        1
 62
     0
 92
       -2
340
14
 93
        0
 40
0.045
309
GRIDFORMAT_END
 95
        2
302
GRIDFORMAT
  1
GRIDFORMAT_BEGIN
 90
        0
 91
        1
 62
     0
 92
       -2
340
14
 93
        0
 40
0.045
309
GRIDFORMAT_END
 95
        4
302
GRIDFORMAT
  1
GRIDFORMAT_BEGIN
 90
        0
 91
        1
 62
     0
 92
       -2
340
14
 93
        0
 40
0.045
309
GRIDFORMAT_END
 95
        8
302
GRIDFORMAT
  1
GRIDFORMAT_BEGIN
 90
        0
 91
        1
 62
     0
 92
       -2
340
14
 93
        0
 40
0.045
309
GRIDFORMAT_END
 95
       16
302
GRIDFORMAT
  1
GRIDFORMAT_BEGIN
 90
        0
 91
        1
 62
     0
 92
       -2
340
14
 93
        0
 40
0.045
309
GRIDFORMAT_END
 95
       32
302
GRIDFORMAT
  1
GRIDFORMAT_BEGIN
 90
        0
 91
        1
 62
     0
 92
       -2
340
14
 93
        0
 40
0.045
309
GRIDFORMAT_END
309
TABLEFORMAT_END
  1
CELLSTYLE_BEGIN
 90
        3
 91
        2
300
_DATA
309
CELLSTYLE_END
  0
ENDSEC
  0
EOF
