  0
SECTION
  2
HEADER
  9
$ACADVER
  1
AC1027
  9
$ACADMAINTVER
 70
   105
  9
$DWGCODEPAGE
  3
ANSI_1252
  9
$LASTSAVEDBY
  1
Office Desk
  9
$REQUIREDVERSIONS
160
                 0
  9
$INSBASE
 10
0.0
 20
0.0
 30
0.0
  9
$EXTMIN
 10
156.063
 20
-190.5207
 30
0.0
  9
$EXTMAX
 10
497.4305
 20
353.9567
 30
0.0
  9
$LIMMIN
 10
0.0
 20
0.0
  9
$LIMMAX
 10
12.0
 20
9.0
  9
$ORTHOMODE
 70
     0
  9
$REGENMODE
 70
     1
  9
$FILLMODE
 70
     1
  9
$QTEXTMODE
 70
     0
  9
$MIRRTEXT
 70
     1
  9
$LTSCALE
 40
1.0
  9
$ATTMODE
 70
     1
  9
$TEXTSIZE
 40
0.2
  9
$TRACEWID
 40
0.05
  9
$TEXTSTYLE
  7
Standard
  9
$CLAYER
  8
0
  9
$CELTYPE
  6
ByLayer
  9
$CECOLOR
 62
   256
  9
$CELTSCALE
 40
1.0
  9
$DISPSILH
 70
     0
  9
$DIMSCALE
 40
1.0
  9
$DIMASZ
 40
0.18
  9
$DIMEXO
 40
0.0625
  9
$DIMDLI
 40
0.38
  9
$DIMRND
 40
0.0
  9
$DIMDLE
 40
0.0
  9
$DIMEXE
 40
0.18
  9
$DIMTP
 40
0.0
  9
$DIMTM
 40
0.0
  9
$DIMTXT
 40
0.18
  9
$DIMCEN
 40
0.09
  9
$DIMTSZ
 40
0.0
  9
$DIMTOL
 70
     0
  9
$DIMLIM
 70
     0
  9
$DIMTIH
 70
     1
  9
$DIMTOH
 70
     1
  9
$DIMSE1
 70
     0
  9
$DIMSE2
 70
     0
  9
$DIMTAD
 70
     0
  9
$DIMZIN
 70
     0
  9
$DIMBLK
  1

  9
$DIMASO
 70
     1
  9
$DIMSHO
 70
     1
  9
$DIMPOST
  1

  9
$DIMAPOST
  1

  9
$DIMALT
 70
     0
  9
$DIMALTD
 70
     2
  9
$DIMALTF
 40
25.4
  9
$DIMLFAC
 40
1.0
  9
$DIMTOFL
 70
     0
  9
$DIMTVP
 40
0.0
  9
$DIMTIX
 70
     0
  9
$DIMSOXD
 70
     0
  9
$DIMSAH
 70
     0
  9
$DIMBLK1
  1

  9
$DIMBLK2
  1

  9
$DIMSTYLE
  2
Standard
  9
$DIMCLRD
 70
     0
  9
$DIMCLRE
 70
     0
  9
$DIMCLRT
 70
     0
  9
$DIMTFAC
 40
1.0
  9
$DIMGAP
 40
0.09
  9
$DIMJUST
 70
     0
  9
$DIMSD1
 70
     0
  9
$DIMSD2
 70
     0
  9
$DIMTOLJ
 70
     1
  9
$DIMTZIN
 70
     0
  9
$DIMALTZ
 70
     0
  9
$DIMALTTZ
 70
     0
  9
$DIMUPT
 70
     0
  9
$DIMDEC
 70
     4
  9
$DIMTDEC
 70
     4
  9
$DIMALTU
 70
     2
  9
$DIMALTTD
 70
     2
  9
$DIMTXSTY
  7
Standard
  9
$DIMAUNIT
 70
     0
  9
$DIMADEC
 70
     0
  9
$DIMALTRND
 40
0.0
  9
$DIMAZIN
 70
     0
  9
$DIMDSEP
 70
    46
  9
$DIMATFIT
 70
     3
  9
$DIMFRAC
 70
     0
  9
$DIMLDRBLK
  1

  9
$DIMLUNIT
 70
     2
  9
$DIMLWD
 70
    -2
  9
$DIMLWE
 70
    -2
  9
$DIMTMOVE
 70
     0
  9
$DIMFXL
 40
1.0
  9
$DIMFXLON
 70
     0
  9
$DIMJOGANG
 40
0.7853981633974483
  9
$DIMTFILL
 70
     0
  9
$DIMTFILLCLR
 70
     0
  9
$DIMARCSYM
 70
     0
  9
$DIMLTYPE
  6

  9
$DIMLTEX1
  6

  9
$DIMLTEX2
  6

  9
$DIMTXTDIRECTION
 70
     0
  9
$LUNITS
 70
     2
  9
$LUPREC
 70
     4
  9
$SKETCHINC
 40
0.1
  9
$FILLETRAD
 40
0.0
  9
$AUNITS
 70
     0
  9
$AUPREC
 70
     0
  9
$MENU
  1
.
  9
$ELEVATION
 40
0.0
  9
$PELEVATION
 40
0.0
  9
$THICKNESS
 40
0.0
  9
$LIMCHECK
 70
     0
  9
$CHAMFERA
 40
0.0
  9
$CHAMFERB
 40
0.0
  9
$CHAMFERC
 40
0.0
  9
$CHAMFERD
 40
0.0
  9
$SKPOLY
 70
     0
  9
$TDCREATE
 40
2461016.758045208
  9
$TDUCREATE
 40
2461016.528878542
  9
$TDUPDATE
 40
2461016.758045278
  9
$TDUUPDATE
 40
2461016.528878611
  9
$TDINDWG
 40
0.0000000116
  9
$TDUSRTIMER
 40
0.0000000116
  9
$USRTIMER
 70
     1
  9
$ANGBASE
 50
0.0
  9
$ANGDIR
 70
     0
  9
$PDMODE
 70
     0
  9
$PDSIZE
 40
0.0
  9
$PLINEWID
 40
0.0
  9
$SPLFRAME
 70
     0
  9
$SPLINETYPE
 70
     6
  9
$SPLINESEGS
 70
     8
  9
$HANDSEED
  5
FC
  9
$SURFTAB1
 70
     6
  9
$SURFTAB2
 70
     6
  9
$SURFTYPE
 70
     6
  9
$SURFU
 70
     6
  9
$SURFV
 70
     6
  9
$UCSBASE
  2

  9
$UCSNAME
  2

  9
$UCSORG
 10
0.0
 20
0.0
 30
0.0
  9
$UCSXDIR
 10
1.0
 20
0.0
 30
0.0
  9
$UCSYDIR
 10
0.0
 20
1.0
 30
0.0
  9
$UCSORTHOREF
  2

  9
$UCSORTHOVIEW
 70
     0
  9
$UCSORGTOP
 10
0.0
 20
0.0
 30
0.0
  9
$UCSORGBOTTOM
 10
0.0
 20
0.0
 30
0.0
  9
$UCSORGLEFT
 10
0.0
 20
0.0
 30
0.0
  9
$UCSORGRIGHT
 10
0.0
 20
0.0
 30
0.0
  9
$UCSORGFRONT
 10
0.0
 20
0.0
 30
0.0
  9
$UCSORGBACK
 10
0.0
 20
0.0
 30
0.0
  9
$PUCSBASE
  2

  9
$PUCSNAME
  2

  9
$PUCSORG
 10
0.0
 20
0.0
 30
0.0
  9
$PUCSXDIR
 10
1.0
 20
0.0
 30
0.0
  9
$PUCSYDIR
 10
0.0
 20
1.0
 30
0.0
  9
$PUCSORTHOREF
  2

  9
$PUCSORTHOVIEW
 70
     0
  9
$PUCSORGTOP
 10
0.0
 20
0.0
 30
0.0
  9
$PUCSORGBOTTOM
 10
0.0
 20
0.0
 30
0.0
  9
$PUCSORGLEFT
 10
0.0
 20
0.0
 30
0.0
  9
$PUCSORGRIGHT
 10
0.0
 20
0.0
 30
0.0
  9
$PUCSORGFRONT
 10
0.0
 20
0.0
 30
0.0
  9
$PUCSORGBACK
 10
0.0
 20
0.0
 30
0.0
  9
$USERI1
 70
     0
  9
$USERI2
 70
     0
  9
$USERI3
 70
     0
  9
$USERI4
 70
     0
  9
$USERI5
 70
     0
  9
$USERR1
 40
0.0
  9
$USERR2
 40
0.0
  9
$USERR3
 40
0.0
  9
$USERR4
 40
0.0
  9
$USERR5
 40
0.0
  9
$WORLDVIEW
 70
     1
  9
$SHADEDGE
 70
     3
  9
$SHADEDIF
 70
    70
  9
$TILEMODE
 70
     1
  9
$MAXACTVP
 70
    64
  9
$PINSBASE
 10
0.0
 20
0.0
 30
0.0
  9
$PLIMCHECK
 70
     0
  9
$PEXTMIN
 10
1.000000000000000E+20
 20
1.000000000000000E+20
 30
1.000000000000000E+20
  9
$PEXTMAX
 10
-1.000000000000000E+20
 20
-1.000000000000000E+20
 30
-1.000000000000000E+20
  9
$PLIMMIN
 10
0.0
 20
0.0
  9
$PLIMMAX
 10
12.0
 20
9.0
  9
$UNITMODE
 70
     0
  9
$VISRETAIN
 70
     1
  9
$PLINEGEN
 70
     0
  9
$PSLTSCALE
 70
     1
  9
$TREEDEPTH
 70
  3020
  9
$CMLSTYLE
  2
Standard
  9
$CMLJUST
 70
     0
  9
$CMLSCALE
 40
1.0
  9
$PROXYGRAPHICS
 70
     1
  9
$MEASUREMENT
 70
     0
  9
$CELWEIGHT
370
    -1
  9
$ENDCAPS
280
     0
  9
$JOINSTYLE
280
     0
  9
$LWDISPLAY
290
     0
  9
$INSUNITS
 70
     4
  9
$HYPERLINKBASE
  1

  9
$STYLESHEET
  1

  9
$XEDIT
290
     1
  9
$CEPSNTYPE
380
     0
  9
$PSTYLEMODE
290
     1
  9
$FINGERPRINTGUID
  2
{c6486f0d-7eaf-44c0-8a9c-0b812d26b539}
  9
$VERSIONGUID
  2
{FAEB1C32-E019-11D5-929B-00C0DF256EC4}
  9
$EXTNAMES
290
     1
  9
$PSVPSCALE
 40
0.0
  9
$OLESTARTUP
290
     0
  9
$SORTENTS
280
   127
  9
$INDEXCTL
280
     0
  9
$HIDETEXT
280
     1
  9
$XCLIPFRAME
280
     2
  9
$HALOGAP
280
     0
  9
$OBSCOLOR
 70
   257
  9
$OBSLTYPE
280
     0
  9
$INTERSECTIONDISPLAY
280
     0
  9
$INTERSECTIONCOLOR
 70
   257
  9
$DIMASSOC
280
     2
  9
$PROJECTNAME
  1

  9
$CAMERADISPLAY
290
     0
  9
$LENSLENGTH
 40
50.0
  9
$CAMERAHEIGHT
 40
0.0
  9
$STEPSPERSEC
 40
2.0
  9
$STEPSIZE
 40
6.0
  9
$3DDWFPREC
 40
2.0
  9
$PSOLWIDTH
 40
0.25
  9
$PSOLHEIGHT
 40
4.0
  9
$LOFTANG1
 40
1.570796326794897
  9
$LOFTANG2
 40
1.570796326794897
  9
$LOFTMAG1
 40
0.0
  9
$LOFTMAG2
 40
0.0
  9
$LOFTPARAM
 70
     7
  9
$LOFTNORMALS
280
     1
  9
$LATITUDE
 40
37.795
  9
$LONGITUDE
 40
-122.394
  9
$NORTHDIRECTION
 40
0.0
  9
$TIMEZONE
 70
 -8000
  9
$LIGHTGLYPHDISPLAY
280
     1
  9
$TILEMODELIGHTSYNCH
280
     1
  9
$CMATERIAL
347
44
  9
$SOLIDHIST
280
     0
  9
$SHOWHIST
280
     1
  9
$DWFFRAME
280
     2
  9
$DGNFRAME
280
     2
  9
$REALWORLDSCALE
290
     1
  9
$INTERFERECOLOR
 62
   256
  9
$CSHADOW
280
     0
  9
$SHADOWPLANELOCATION
 40
0.0
  0
ENDSEC
  0
SECTION
  2
CLASSES
  0
CLASS
  1
ACDBDICTIONARYWDFLT
  2
AcDbDictionaryWithDefault
  3
ObjectDBX Classes
 90
        0
 91
        3
280
     0
281
     0
  0
CLASS
  1
VISUALSTYLE
  2
AcDbVisualStyle
  3
ObjectDBX Classes
 90
     4095
 91
        3
280
     0
281
     0
  0
CLASS
  1
MATERIAL
  2
AcDbMaterial
  3
ObjectDBX Classes
 90
     1153
 91
        3
280
     0
281
     0
  0
CLASS
  1
SCALE
  2
AcDbScale
  3
ObjectDBX Classes
 90
     1153
 91
        3
280
     0
281
     0
  0
CLASS
  1
TABLESTYLE
  2
AcDbTableStyle
  3
ObjectDBX Classes
 90
     4095
 91
        3
280
     0
281
     0
  0
CLASS
  1
MLEADERSTYLE
  2
AcDbMLeaderStyle
  3
ACDB_MLEADERSTYLE_CLASS
 90
     4095
 91
        3
280
     0
281
     0
  0
CLASS
  1
SUN
  2
AcDbSun
  3
SCENEOE
 90
     1153
 91
        3
280
     0
281
     0
  0
CLASS
  1
DICTIONARYVAR
  2
AcDbDictionaryVar
  3
ObjectDBX Classes
 90
        0
 91
        3
280
     0
281
     0
  0
CLASS
  1
CELLSTYLEMAP
  2
AcDbCellStyleMap
  3
ObjectDBX Classes
 90
     1152
 91
        3
280
     0
281
     0
  0
ENDSEC
  0
SECTION
  2
TABLES
  0
TABLE
  2
VPORT
  5
8
330
0
100
AcDbSymbolTable
 70
     1
  0
VPORT
  5
29
330
8
100
AcDbSymbolTableRecord
100
AcDbViewportTableRecord
  2
*Active
 70
     0
 10
0.0
 20
0.0
 11
1.0
 21
1.0
 12
10.42990654205607
 22
4.5
 13
0.0
 23
0.0
 14
0.5
 24
0.5
 15
0.5
 25
0.5
 16
0.0
 26
0.0
 36
1.0
 17
0.0
 27
0.0
 37
0.0
 40
9.0
 41
1.972972972850329
 42
50.0
 43
0.0
 44
0.0
 50
0.0
 51
0.0
 71
     0
 72
   100
 73
     1
 74
     3
 75
     0
 76
     0
 77
     0
 78
     0
281
     0
 65
     1
110
0.0
120
0.0
130
0.0
111
1.0
121
0.0
131
0.0
112
0.0
122
1.0
132
0.0
 79
     0
146
0.0
348
2F
 60
     3
 61
     5
292
     1
282
     1
141
0.0
142
0.0
 63
   250
361
5D
  0
ENDTAB
  0
TABLE
  2
LTYPE
  5
5
330
0
100
AcDbSymbolTable
 70
     1
  0
LTYPE
  5
14
330
5
100
AcDbSymbolTableRecord
100
AcDbLinetypeTableRecord
  2
ByBlock
 70
     0
  3

 72
    65
 73
     0
 40
0.0
  0
LTYPE
  5
15
330
5
100
AcDbSymbolTableRecord
100
AcDbLinetypeTableRecord
  2
ByLayer
 70
     0
  3

 72
    65
 73
     0
 40
0.0
  0
LTYPE
  5
16
330
5
100
AcDbSymbolTableRecord
100
AcDbLinetypeTableRecord
  2
Continuous
 70
     0
  3
Solid line
 72
    65
 73
     0
 40
0.0
  0
ENDTAB
  0
TABLE
  2
LAYER
  5
2
330
0
100
AcDbSymbolTable
 70
     2
  0
LAYER
  5
10
330
2
100
AcDbSymbolTableRecord
100
AcDbLayerTableRecord
  2
0
 70
     0
 62
     7
  6
Continuous
370
    -3
390
F
347
46
348
0
  0
LAYER
  5
5F
330
2
100
AcDbSymbolTableRecord
100
AcDbLayerTableRecord
  2
Layer 1
 70
     0
 62
     7
  6
Continuous
370
    -3
390
F
347
46
348
0
  0
ENDTAB
  0
TABLE
  2
STYLE
  5
3
330
0
100
AcDbSymbolTable
 70
     1
  0
STYLE
  5
11
330
3
100
AcDbSymbolTableRecord
100
AcDbTextStyleTableRecord
  2
Standard
 70
     0
 40
0.0
 41
1.0
 50
0.0
 71
     0
 42
0.2
  3
txt
  4

  0
ENDTAB
  0
TABLE
  2
VIEW
  5
6
330
0
100
AcDbSymbolTable
 70
     0
  0
ENDTAB
  0
TABLE
  2
UCS
  5
7
330
0
100
AcDbSymbolTable
 70
     0
  0
ENDTAB
  0
TABLE
  2
APPID
  5
9
330
0
100
AcDbSymbolTable
 70
     2
  0
APPID
  5
12
330
9
100
AcDbSymbolTableRecord
100
AcDbRegAppTableRecord
  2
ACAD
 70
     0
  0
APPID
  5
5E
330
9
100
AcDbSymbolTableRecord
100
AcDbRegAppTableRecord
  2
ODA
 70
     0
  0
ENDTAB
  0
TABLE
  2
DIMSTYLE
  5
A
330
0
100
AcDbSymbolTable
 70
     1
100
AcDbDimStyleTable
  0
DIMSTYLE
105
27
330
A
100
AcDbSymbolTableRecord
100
AcDbDimStyleTableRecord
  2
Standard
 70
     0
178
     0
340
11
  0
ENDTAB
  0
TABLE
  2
BLOCK_RECORD
  5
1
330
0
100
AcDbSymbolTable
 70
     1
  0
BLOCK_RECORD
  5
1F
330
1
100
AcDbSymbolTableRecord
100
AcDbBlockTableRecord
  2
*Model_Space
340
22
 70
     0
280
     1
281
     0
  0
BLOCK_RECORD
  5
1B
330
1
100
AcDbSymbolTableRecord
100
AcDbBlockTableRecord
  2
*Paper_Space
340
1E
 70
     0
280
     1
281
     0
  0
BLOCK_RECORD
  5
23
330
1
100
AcDbSymbolTableRecord
100
AcDbBlockTableRecord
  2
*Paper_Space0
340
26
 70
     0
280
     1
281
     0
  0
ENDTAB
  0
ENDSEC
  0
SECTION
  2
BLOCKS
  0
BLOCK
  5
20
330
1F
100
AcDbEntity
  8
0
100
AcDbBlockBegin
  2
*Model_Space
 70
     0
 10
0.0
 20
0.0
 30
0.0
  3
*Model_Space
  1

  0
ENDBLK
  5
21
330
1F
100
AcDbEntity
  8
0
100
AcDbBlockEnd
  0
BLOCK
  5
1C
330
1B
100
AcDbEntity
 67
     1
  8
0
100
AcDbBlockBegin
  2
*Paper_Space
 70
     0
 10
0.0
 20
0.0
 30
0.0
  3
*Paper_Space
  1

  0
ENDBLK
  5
1D
330
1B
100
AcDbEntity
 67
     1
  8
0
100
AcDbBlockEnd
  0
BLOCK
  5
24
330
23
100
AcDbEntity
  8
0
100
AcDbBlockBegin
  2
*Paper_Space0
 70
     0
 10
0.0
 20
0.0
 30
0.0
  3
*Paper_Space0
  1

  0
ENDBLK
  5
25
330
23
100
AcDbEntity
  8
0
100
AcDbBlockEnd
  0
ENDSEC
  0
SECTION
  2
ENTITIES
  0
LWPOLYLINE
  5
60
330
1F
100
AcDbEntity
  8
Layer 1
 62
   250
370
     9
100
AcDbPolyline
 90
        5
 70
     1
 43
0.0
 10
156.1011
 20
-190.4826
 10
497.3923
 20
-190.4826
 10
497.3923
 20
353.9186
 10
156.1011
 20
353.9186
 10
156.1011
 20
-190.4826
  0
LWPOLYLINE
  5
61
330
1F
100
AcDbEntity
  8
Layer 1
 62
     7
370
    18
100
AcDbPolyline
 90
      246
 70
     1
 43
0.0
 10
261.3013
 20
296.3061
 10
261.6672
 20
296.4014
 10
262.6494
 20
296.6569
 10
264.0746
 20
297.0267
 10
265.7695
 20
297.4651
 10
267.5607
 20
297.9264
 10
269.2751
 20
298.3649
 10
270.7392
 20
298.7347
 10
271.7799
 20
298.9902
 10
272.8842
 20
299.2237
 10
274.61
 20
299.5224
 10
276.8901
 20
299.8326
 10
279.6573
 20
300.1004
 10
282.8446
 20
300.2722
 10
286.3848
 20
300.2941
 10
290.2108
 20
300.1124
 10
294.2553
 20
299.6734
 10
298.5278
 20
298.9755
 10
303.0958
 20
297.979
 10
307.9795
 20
296.5731
 10
313.1989
 20
294.6468
 10
318.774
 20
292.0891
 10
324.725
 20
288.7891
 10
331.0719
 20
284.6359
 10
337.8348
 20
279.5185
 10
344.3403
 20
273.8984
 10
349.9783
 20
268.2852
 10
354.8634
 20
262.64
 10
359.1105
 20
256.9238
 10
362.8342
 20
251.0978
 10
366.1494
 20
245.1232
 10
369.1707
 20
238.961
 10
372.013
 20
232.5723
 10
374.5676
 20
225.8325
 10
376.6587
 20
218.7679
 10
378.2998
 20
211.566
 10
379.5048
 20
204.4144
 10
380.2875
 20
197.5007
 10
380.6617
 20
191.0126
 10
380.641
 20
185.1374
 10
380.2393
 20
180.0629
 10
379.6027
 20
175.3475
 10
378.8193
 20
170.449
 10
377.8155
 20
165.4042
 10
376.5179
 20
160.2495
 10
374.8531
 20
155.0217
 10
372.7476
 20
149.7573
 10
370.128
 20
144.4929
 10
366.9208
 20
139.2651
 10
366.6665
 20
138.8636
 10
365.9417
 20
137.7638
 10
364.8039
 20
136.123
 10
363.3104
 20
134.0985
 10
361.5184
 20
131.8475
 10
359.4855
 20
129.5273
 10
357.2688
 20
127.2952
 10
354.9258
 20
125.3083
 10
352.6489
 20
123.5468
 10
350.5917
 20
121.886
 10
348.7539
 20
120.3259
 10
347.1346
 20
118.8663
 10
345.7334
 20
117.5075
 10
344.5497
 20
116.2493
 10
343.5828
 20
115.0918
 10
342.8322
 20
114.035
 10
342.1361
 20
112.9775
 10
341.358
 20
111.7879
 10
340.5352
 20
110.421
 10
339.7049
 20
108.8317
 10
338.9044
 20
106.9746
 10
338.1711
 20
104.8048
 10
337.5422
 20
102.2769
 10
337.0549
 20
99.3459
 10
336.7035
 20
93.0735
 10
336.4474
 20
81.7594
 10
336.2717
 20
67.2154
 10
336.1615
 20
51.2532
 10
336.1017
 20
35.6844
 10
336.0775
 20
22.3208
 10
336.074
 20
12.974
 10
336.0761
 20
9.4558
 10
337.4475
 20
-104.3474
 10
338.0353
 20
-125.0386
 10
338.0559
 20
-125.1136
 10
338.0896
 20
-125.3184
 10
338.0947
 20
-125.6227
 10
338.0292
 20
-125.9962
 10
337.8513
 20
-126.4086
 10
337.5189
 20
-126.8296
 10
336.9903
 20
-127.2289
 10
336.2236
 20
-127.5762
 10
335.2423
 20
-127.9067
 10
334.1479
 20
-128.2617
 10
333.0157
 20
-128.6202
 10
331.9207
 20
-128.961
 10
330.9382
 20
-129.2628
 10
330.1434
 20
-129.5047
 10
329.6113
 20
-129.6653
 10
329.4173
 20
-129.7235
 10
329.4153
 20
-129.7773
 10
329.4013
 20
-129.9248
 10
329.3632
 20
-130.1455
 10
329.289
 20
-130.4189
 10
329.1665
 20
-130.7243
 10
328.9838
 20
-131.0411
 10
328.7288
 20
-131.3488
 10
328.3893
 20
-131.6268
 10
328.4738
 20
-131.6711
 10
328.6801
 20
-131.8075
 10
328.9368
 20
-132.0411
 10
329.1728
 20
-132.3771
 10
329.317
 20
-132.8205
 10
329.2983
 20
-133.3767
 10
329.0455
 20
-134.0507
 10
328.4873
 20
-134.8476
 10
328.5911
 20
-134.9514
 10
328.8308
 20
-135.2388
 10
329.0993
 20
-135.6737
 10
329.2891
 20
-136.2202
 10
329.293
 20
-136.8422
 10
329.0037
 20
-137.5036
 10
328.3138
 20
-138.1684
 10
327.1161
 20
-138.8006
 10
325.4403
 20
-139.3611
 10
323.4047
 20
-139.8353
 10
321.0353
 20
-140.2236
 10
318.3577
 20
-140.5268
 10
315.3978
 20
-140.7453
 10
312.1814
 20
-140.8798
 10
308.7343
 20
-140.9307
 10
305.0823
 20
-140.8988
 10
304.3928
 20
-140.8226
 10
302.6142
 20
-140.5816
 10
300.1815
 20
-140.1577
 10
297.5295
 20
-139.5324
 10
295.0933
 20
-138.6876
 10
293.3079
 20
-137.6048
 10
292.608
 20
-136.2659
 10
293.4287
 20
-134.6524
 10
293.3778
 20
-134.5505
 10
293.2561
 20
-134.2719
 10
293.1096
 20
-133.8572
 10
292.9846
 20
-133.347
 10
292.9273
 20
-132.7819
 10
292.984
 20
-132.2024
 10
293.2008
 20
-131.6493
 10
293.6239
 20
-131.1631
 10
293.5568
 20
-131.1047
 10
293.3856
 20
-130.9382
 10
293.1553
 20
-130.6768
 10
292.9109
 20
-130.3336
 10
292.6975
 20
-129.9217
 10
292.5601
 20
-129.4544
 10
292.5438
 20
-128.9448
 10
292.6936
 20
-128.4059
 10
292.3995
 20
-128.3587
 10
291.6027
 20
-128.2297
 10
290.4319
 20
-128.0378
 10
289.0155
 20
-127.8018
 10
287.482
 20
-127.5407
 10
285.96
 20
-127.2733
 10
284.578
 20
-127.0185
 10
283.4644
 20
-126.7951
 10
282.4833
 20
-126.5728
 10
281.4506
 20
-126.3207
 10
280.4225
 20
-126.0573
 10
279.4552
 20
-125.8007
 10
278.605
 20
-125.5693
 10
277.928
 20
-125.3813
 10
277.4806
 20
-125.2551
 10
277.319
 20
-125.209
 10
277.2555
 20
-125.1764
 10
277.0912
 20
-125.0625
 10
276.8649
 20
-124.8434
 10
276.6157
 20
-124.4951
 10
276.3825
 20
-123.9935
 10
276.2044
 20
-123.3146
 10
276.1203
 20
-122.4344
 10
276.1693
 20
-121.3289
 10
277.7363
 20
-70.4781
 10
280.2829
 20
36.1024
 10
281.2621
 20
79.4373
 10
281.2888
 20
80.2185
 10
281.3195
 20
82.338
 10
281.2801
 20
85.4594
 10
281.0968
 20
89.2466
 10
280.6954
 20
93.3631
 10
280.0019
 20
97.4728
 10
278.9424
 20
101.2392
 10
277.4427
 20
104.3263
 10
277.3031
 20
104.5572
 10
276.9128
 20
105.185
 10
276.315
 20
106.1125
 10
275.5525
 20
107.2424
 10
274.6683
 20
108.4776
 10
273.7055
 20
109.7207
 10
272.707
 20
110.8747
 10
271.7158
 20
111.8421
 10
271.3955
 20
111.9809
 10
270.4849
 20
112.3942
 10
269.059
 20
113.0775
 10
267.193
 20
114.0261
 10
264.962
 20
115.2355
 10
262.4412
 20
116.7011
 10
259.7058
 20
118.4183
 10
256.8309
 20
120.3826
 10
254.0168
 20
122.4822
 10
251.4132
 20
124.5886
 10
249.0197
 20
126.6722
 10
246.8357
 20
128.7031
 10
244.8605
 20
130.6516
 10
243.0936
 20
132.4881
 10
241.5345
 20
134.1827
 10
240.1825
 20
135.7058
 10
238.7617
 20
137.3132
 10
237.0426
 20
139.2682
 10
235.094
 20
141.5526
 10
232.9848
 20
144.148
 10
230.7837
 20
147.0363
 10
228.5597
 20
150.1992
 10
226.3816
 20
153.6182
 10
224.3182
 20
157.2753
 10
222.2086
 20
161.3919
 10
219.9268
 20
166.1433
 10
217.5946
 20
171.4414
 10
215.3335
 20
177.1981
 10
213.2652
 20
183.3254
 10
211.5113
 20
189.7352
 10
210.1935
 20
196.3395
 10
209.4334
 20
203.0502
 10
209.0818
 20
209.959
 10
209.008
 20
217.1994
 10
209.3611
 20
224.7463
 10
210.2904
 20
232.5746
 10
211.945
 20
240.6591
 10
214.4741
 20
248.9746
 10
218.0268
 20
257.496
 10
222.7524
 20
266.1981
 10
228.5139
 20
274.2171
 10
234.8076
 20
280.7846
 10
241.2328
 20
286.0183
 10
247.3886
 20
290.0362
 10
252.8741
 20
292.956
 10
257.2887
 20
294.8958
 10
260.2313
 20
295.9732
 10
261.3013
 20
296.3061
  0
LWPOLYLINE
  5
62
330
1F
100
AcDbEntity
  8
Layer 1
 62
     7
370
    18
100
AcDbPolyline
 90
       33
 70
     0
 43
0.0
 10
254.7025
 20
293.5751
 10
256.2534
 20
294.135
 10
260.6511
 20
295.373
 10
267.5127
 20
296.6271
 10
276.4555
 20
297.235
 10
287.0968
 20
296.5343
 10
299.0539
 20
293.863
 10
311.944
 20
288.5588
 10
325.3844
 20
279.9594
 10
327.3469
 20
278.4908
 10
332.5273
 20
274.0301
 10
339.8654
 20
266.495
 10
348.3005
 20
255.8032
 10
356.7724
 20
241.8721
 10
364.2207
 20
224.6197
 10
369.5847
 20
203.9633
 10
371.8043
 20
179.8208
 10
371.755
 20
178.2828
 10
371.4095
 20
174.0317
 10
370.4719
 20
167.6119
 10
368.646
 20
159.568
 10
365.6358
 20
150.4444
 10
361.1451
 20
140.7856
 10
354.8779
 20
131.1359
 10
346.5381
 20
122.0399
 10
345.7959
 20
121.3834
 10
343.6257
 20
119.6386
 10
340.1116
 20
117.1422
 10
335.3381
 20
114.2312
 10
329.3894
 20
111.2424
 10
322.3497
 20
108.5127
 10
314.3035
 20
106.3789
 10
305.335
 20
105.178
  0
LWPOLYLINE
  5
63
330
1F
100
AcDbEntity
  8
Layer 1
 62
     7
370
    18
100
AcDbPolyline
 90
       33
 70
     1
 43
0.0
 10
269.3462
 20
278.6013
 10
256.1901
 20
276.9025
 10
244.3746
 20
272.0411
 10
234.1484
 20
264.3692
 10
225.7602
 20
254.2392
 10
219.4584
 20
242.0032
 10
215.4918
 20
228.0137
 10
214.109
 20
212.6228
 10
215.5585
 20
196.1829
 10
219.8935
 20
179.6949
 10
226.7328
 20
164.2064
 10
235.6739
 20
150.1397
 10
246.3145
 20
137.917
 10
258.2519
 20
127.9606
 10
271.0837
 20
120.6927
 10
284.4075
 20
116.5356
 10
297.8207
 20
115.9115
 10
310.4879
 20
118.537
 10
321.7306
 20
123.7147
 10
331.3824
 20
131.2461
 10
339.2766
 20
140.9325
 10
345.2464
 20
152.5753
 10
349.1253
 20
165.976
 10
350.7466
 20
180.9359
 10
349.9437
 20
197.2564
 10
345.7262
 20
213.6502
 10
339.187
 20
228.9194
 10
330.6502
 20
242.737
 10
320.4399
 20
254.7759
 10
308.8802
 20
264.7088
 10
296.2953
 20
272.2088
 10
283.0093
 20
276.9487
 10
269.3462
 20
278.6013
  0
LWPOLYLINE
  5
64
330
1F
100
AcDbEntity
  8
Layer 1
 62
     7
370
    18
100
AcDbPolyline
 90
       33
 70
     1
 43
0.0
 10
269.0853
 20
241.3769
 10
261.4694
 20
240.3884
 10
254.6296
 20
237.5595
 10
248.7098
 20
233.0951
 10
243.854
 20
227.2004
 10
240.206
 20
220.0803
 10
237.9098
 20
211.9397
 10
237.1093
 20
202.9837
 10
237.9484
 20
193.4172
 10
240.3453
 20
183.8708
 10
244.0314
 20
174.9747
 10
248.8698
 20
166.9334
 10
254.7242
 20
159.9513
 10
261.4579
 20
154.2331
 10
268.9342
 20
149.9832
 10
277.0168
 20
147.4063
 10
285.5688
 20
146.7068
 10
292.9017
 20
148.2347
 10
299.41
 20
151.2477
 10
304.9973
 20
155.6302
 10
309.5671
 20
161.2668
 10
313.023
 20
168.0418
 10
315.2684
 20
175.8396
 10
316.207
 20
184.5448
 10
315.7422
 20
194.0417
 10
313.3007
 20
203.5814
 10
309.5153
 20
212.4667
 10
304.5734
 20
220.5073
 10
298.6628
 20
227.5127
 10
291.971
 20
233.2928
 10
284.6858
 20
237.6571
 10
276.9947
 20
240.4152
 10
269.0853
 20
241.3769
  0
LWPOLYLINE
  5
65
330
1F
100
AcDbEntity
  8
Layer 1
 62
     7
370
    18
100
AcDbPolyline
 90
       33
 70
     1
 43
0.0
 10
270.5358
 20
223.6913
 10
265.6548
 20
223.0578
 10
261.2712
 20
221.2447
 10
257.4772
 20
218.3835
 10
254.3652
 20
214.6056
 10
252.0272
 20
210.0424
 10
250.5555
 20
204.8251
 10
250.0425
 20
199.0852
 10
250.5803
 20
192.9541
 10
252.1165
 20
186.8359
 10
254.4789
 20
181.1344
 10
257.5798
 20
175.9807
 10
261.3319
 20
171.5059
 10
265.6475
 20
167.8411
 10
270.4391
 20
165.1174
 10
275.6191
 20
163.4659
 10
281.1001
 20
163.0176
 10
285.7997
 20
163.9968
 10
289.9708
 20
165.9278
 10
293.5517
 20
168.7366
 10
296.4805
 20
172.3491
 10
298.6954
 20
176.6911
 10
300.1345
 20
181.6887
 10
300.736
 20
187.2679
 10
300.4381
 20
193.3544
 10
298.8734
 20
199.4683
 10
296.4473
 20
205.1629
 10
293.2801
 20
210.316
 10
289.492
 20
214.8058
 10
285.2032
 20
218.5102
 10
280.5341
 20
221.3073
 10
275.6049
 20
223.075
 10
270.5358
 20
223.6913
  0
LWPOLYLINE
  5
66
330
1F
100
AcDbEntity
  8
Layer 1
 62
     7
370
    18
100
AcDbPolyline
 90
       38
 70
     1
 43
0.0
 10
341.7763
 20
118.4025
 10
341.331
 20
118.1593
 10
340.1463
 20
117.3959
 10
338.4158
 20
116.0441
 10
336.3333
 20
114.0355
 10
334.0925
 20
111.3019
 10
331.887
 20
107.775
 10
329.9105
 20
103.3865
 10
328.3567
 20
98.0681
 10
327.2521
 20
91.772
 10
326.4132
 20
84.5917
 10
325.8036
 20
77.0537
 10
325.3867
 20
69.6847
 10
325.126
 20
63.0113
 10
324.9848
 20
57.5602
 10
324.9268
 20
53.858
 10
324.9153
 20
52.4313
 10
322.1744
 20
-131.0343
 10
323.7596
 20
-131.0278
 10
326.4761
 20
52.4132
 10
326.4761
 20
52.4192
 10
326.4868
 20
53.7737
 10
326.543
 20
57.4192
 10
326.6814
 20
62.8259
 10
326.9386
 20
69.4642
 10
327.3511
 20
76.8043
 10
327.9556
 20
84.3165
 10
328.7886
 20
91.4713
 10
329.8868
 20
97.7388
 10
331.3787
 20
102.8411
 10
333.2893
 20
107.1015
 10
335.4286
 20
110.5702
 10
337.6068
 20
113.297
 10
339.6338
 20
115.332
 10
341.3198
 20
116.7253
 10
342.4748
 20
117.5267
 10
342.9089
 20
117.7864
 10
341.7763
 20
118.4025
  0
LWPOLYLINE
  5
67
330
1F
100
AcDbEntity
  8
Layer 1
 62
     7
370
    18
100
AcDbPolyline
 90
        3
 70
     0
 43
0.0
 10
329.3722
 20
-129.7733
 10
323.7412
 20
-131.1398
 10
292.8622
 20
-128.3887
  0
LWPOLYLINE
  5
68
330
1F
100
AcDbEntity
  8
Layer 1
 62
     7
370
    18
100
AcDbPolyline
 90
       42
 70
     0
 43
0.0
 10
305.3388
 20
105.2442
 10
305.361
 20
104.8987
 10
305.4061
 20
103.9716
 10
305.4421
 20
102.627
 10
305.4367
 20
101.0291
 10
305.3579
 20
99.3419
 10
305.1735
 20
97.7297
 10
304.8514
 20
96.3565
 10
304.3594
 20
95.3865
 10
303.8241
 20
94.7393
 10
303.364
 20
94.2168
 10
302.9348
 20
93.8064
 10
302.4925
 20
93.4955
 10
301.9928
 20
93.2715
 10
301.3915
 20
93.1218
 10
300.6445
 20
93.0339
 10
299.7075
 20
92.9952
 10
298.6873
 20
92.9895
 10
297.7343
 20
93.0051
 10
296.8696
 20
93.0355
 10
296.1146
 20
93.0745
 10
295.4904
 20
93.1157
 10
295.0182
 20
93.153
 10
294.7193
 20
93.18
 10
294.615
 20
93.1904
 10
294.4562
 20
93.2624
 10
294.042
 20
93.5007
 10
293.466
 20
93.9392
 10
292.8218
 20
94.6116
 10
292.2027
 20
95.5517
 10
291.7025
 20
96.7932
 10
291.4145
 20
98.3698
 10
291.4324
 20
100.3153
 10
291.5304
 20
106.1715
 10
291.0547
 20
106.2421
 10
289.7263
 20
106.462
 10
287.6933
 20
106.8431
 10
285.1037
 20
107.3975
 10
282.1055
 20
108.1372
 10
278.8469
 20
109.0742
 10
275.4757
 20
110.2205
 10
272.1402
 20
111.5882
  0
LWPOLYLINE
  5
69
330
1F
100
AcDbEntity
  8
Layer 1
 62
     7
370
    18
100
AcDbPolyline
 90
       33
 70
     1
 43
0.0
 10
309.3806
 20
256.7213
 10
308.4676
 20
256.639
 10
307.6173
 20
256.4031
 10
306.8479
 20
256.0298
 10
306.1775
 20
255.5354
 10
305.6245
 20
254.936
 10
305.2069
 20
254.2481
 10
304.943
 20
253.4878
 10
304.851
 20
252.6714
 10
304.943
 20
251.855
 10
305.2069
 20
251.0947
 10
305.6245
 20
250.4068
 10
306.1775
 20
249.8074
 10
306.8479
 20
249.313
 10
307.6173
 20
248.9397
 10
308.4676
 20
248.7038
 10
309.3806
 20
248.6215
 10
310.2936
 20
248.7038
 10
311.1439
 20
248.9397
 10
311.9134
 20
249.313
 10
312.5837
 20
249.8074
 10
313.1368
 20
250.4068
 10
313.5544
 20
251.0947
 10
313.8183
 20
251.855
 10
313.9103
 20
252.6714
 10
313.8183
 20
253.4878
 10
313.5544
 20
254.2481
 10
313.1368
 20
254.936
 10
312.5837
 20
255.5354
 10
311.9134
 20
256.0298
 10
311.1439
 20
256.4031
 10
310.2936
 20
256.639
 10
309.3806
 20
256.7213
  0
LWPOLYLINE
  5
6A
330
1F
100
AcDbEntity
  8
Layer 1
 62
     7
370
    18
100
AcDbPolyline
 90
       33
 70
     1
 43
0.0
 10
306.9567
 20
252.8173
 10
306.769
 20
252.7985
 10
306.5943
 20
252.7445
 10
306.4362
 20
252.659
 10
306.2985
 20
252.5459
 10
306.1848
 20
252.4088
 10
306.0991
 20
252.2515
 10
306.0449
 20
252.0777
 10
306.026
 20
251.8911
 10
306.0449
 20
251.7041
 10
306.0991
 20
251.5299
 10
306.1848
 20
251.3724
 10
306.2985
 20
251.2351
 10
306.4362
 20
251.1219
 10
306.5943
 20
251.0364
 10
306.769
 20
250.9824
 10
306.9567
 20
250.9636
 10
307.1443
 20
250.9824
 10
307.3191
 20
251.0364
 10
307.4772
 20
251.1219
 10
307.6149
 20
251.2351
 10
307.7285
 20
251.3724
 10
307.8142
 20
251.5299
 10
307.8684
 20
251.7041
 10
307.8873
 20
251.8911
 10
307.8684
 20
252.0777
 10
307.8142
 20
252.2515
 10
307.7285
 20
252.4088
 10
307.6149
 20
252.5459
 10
307.4772
 20
252.659
 10
307.3191
 20
252.7445
 10
307.1443
 20
252.7985
 10
306.9567
 20
252.8173
  0
LWPOLYLINE
  5
6B
330
1F
100
AcDbEntity
  8
Layer 1
 62
     7
370
    18
100
AcDbPolyline
 90
       33
 70
     1
 43
0.0
 10
292.5365
 20
267.2625
 10
291.6239
 20
267.1802
 10
290.7738
 20
266.9443
 10
290.0043
 20
266.571
 10
289.3339
 20
266.0765
 10
288.7807
 20
265.4772
 10
288.3629
 20
264.7893
 10
288.0989
 20
264.029
 10
288.0068
 20
263.2126
 10
288.0989
 20
262.3962
 10
288.3629
 20
261.6359
 10
288.7807
 20
260.9479
 10
289.3339
 20
260.3486
 10
290.0043
 20
259.8541
 10
290.7738
 20
259.4808
 10
291.6239
 20
259.2449
 10
292.5365
 20
259.1626
 10
293.4495
 20
259.2449
 10
294.2998
 20
259.4808
 10
295.0693
 20
259.8541
 10
295.7396
 20
260.3486
 10
296.2927
 20
260.9479
 10
296.7103
 20
261.6359
 10
296.9742
 20
262.3962
 10
297.0662
 20
263.2126
 10
296.9742
 20
264.029
 10
296.7103
 20
264.7893
 10
296.2927
 20
265.4772
 10
295.7396
 20
266.0765
 10
295.0693
 20
266.571
 10
294.2998
 20
266.9443
 10
293.4495
 20
267.1802
 10
292.5365
 20
267.2625
  0
LWPOLYLINE
  5
6C
330
1F
100
AcDbEntity
  8
Layer 1
 62
     7
370
    18
100
AcDbPolyline
 90
       33
 70
     1
 43
0.0
 10
290.1125
 20
263.3584
 10
289.9253
 20
263.3396
 10
289.7507
 20
263.2856
 10
289.5927
 20
263.2002
 10
289.4549
 20
263.0871
 10
289.3411
 20
262.95
 10
289.2552
 20
262.7927
 10
289.2008
 20
262.6189
 10
289.1819
 20
262.4323
 10
289.2008
 20
262.2453
 10
289.2552
 20
262.0711
 10
289.3411
 20
261.9136
 10
289.4549
 20
261.7763
 10
289.5927
 20
261.6631
 10
289.7507
 20
261.5776
 10
289.9253
 20
261.5236
 10
290.1125
 20
261.5048
 10
290.3002
 20
261.5236
 10
290.4749
 20
261.5776
 10
290.633
 20
261.6631
 10
290.7708
 20
261.7763
 10
290.8844
 20
261.9136
 10
290.9701
 20
262.0711
 10
291.0243
 20
262.2453
 10
291.0432
 20
262.4323
 10
291.0243
 20
262.6189
 10
290.9701
 20
262.7927
 10
290.8844
 20
262.95
 10
290.7708
 20
263.0871
 10
290.633
 20
263.2002
 10
290.4749
 20
263.2856
 10
290.3002
 20
263.3396
 10
290.1125
 20
263.3584
  0
LWPOLYLINE
  5
6D
330
1F
100
AcDbEntity
  8
Layer 1
 62
     7
370
    18
100
AcDbPolyline
 90
       33
 70
     1
 43
0.0
 10
274.9095
 20
272.7285
 10
273.9965
 20
272.6462
 10
273.1462
 20
272.4101
 10
272.3767
 20
272.0366
 10
271.7064
 20
271.542
 10
271.1533
 20
270.9426
 10
270.7357
 20
270.2547
 10
270.4718
 20
269.4946
 10
270.3798
 20
268.6786
 10
270.4718
 20
267.8621
 10
270.7357
 20
267.1017
 10
271.1533
 20
266.4135
 10
271.7064
 20
265.8139
 10
272.3767
 20
265.3191
 10
273.1462
 20
264.9456
 10
273.9965
 20
264.7095
 10
274.9095
 20
264.6272
 10
275.822
 20
264.7095
 10
276.672
 20
264.9456
 10
277.4412
 20
265.3191
 10
278.1114
 20
265.8139
 10
278.6643
 20
266.4135
 10
279.0818
 20
267.1017
 10
279.3457
 20
267.8621
 10
279.4377
 20
268.6786
 10
279.3457
 20
269.4946
 10
279.0818
 20
270.2547
 10
278.6643
 20
270.9426
 10
278.1114
 20
271.542
 10
277.4412
 20
272.0366
 10
276.672
 20
272.4101
 10
275.822
 20
272.6462
 10
274.9095
 20
272.7285
  0
LWPOLYLINE
  5
6E
330
1F
100
AcDbEntity
  8
Layer 1
 62
     7
370
    18
100
AcDbPolyline
 90
       33
 70
     1
 43
0.0
 10
272.4855
 20
268.8244
 10
272.2979
 20
268.8056
 10
272.1231
 20
268.7516
 10
271.965
 20
268.6661
 10
271.8273
 20
268.5529
 10
271.7137
 20
268.4156
 10
271.628
 20
268.2581
 10
271.5738
 20
268.0839
 10
271.5549
 20
267.8969
 10
271.5738
 20
267.7103
 10
271.628
 20
267.5365
 10
271.7137
 20
267.3792
 10
271.8273
 20
267.2422
 10
271.965
 20
267.129
 10
272.1231
 20
267.0436
 10
272.2979
 20
266.9896
 10
272.4855
 20
266.9708
 10
272.6732
 20
266.9896
 10
272.8479
 20
267.0436
 10
273.006
 20
267.129
 10
273.1438
 20
267.2422
 10
273.2574
 20
267.3792
 10
273.3431
 20
267.5365
 10
273.3973
 20
267.7103
 10
273.4162
 20
267.8969
 10
273.3973
 20
268.0839
 10
273.3431
 20
268.2581
 10
273.2574
 20
268.4156
 10
273.1438
 20
268.5529
 10
273.006
 20
268.6661
 10
272.8479
 20
268.7516
 10
272.6732
 20
268.8056
 10
272.4855
 20
268.8244
  0
LWPOLYLINE
  5
6F
330
1F
100
AcDbEntity
  8
Layer 1
 62
     7
370
    18
100
AcDbPolyline
 90
       33
 70
     1
 43
0.0
 10
257.4771
 20
271.5574
 10
256.5645
 20
271.4751
 10
255.7144
 20
271.239
 10
254.9449
 20
270.8656
 10
254.2745
 20
270.371
 10
253.7213
 20
269.7715
 10
253.3035
 20
269.0836
 10
253.0395
 20
268.3235
 10
252.9474
 20
267.5075
 10
253.0395
 20
266.691
 10
253.3035
 20
265.9306
 10
253.7213
 20
265.2424
 10
254.2745
 20
264.6428
 10
254.9449
 20
264.148
 10
255.7144
 20
263.7745
 10
256.5645
 20
263.5384
 10
257.4771
 20
263.4561
 10
258.3901
 20
263.5384
 10
259.2404
 20
263.7745
 10
260.0099
 20
264.148
 10
260.6802
 20
264.6428
 10
261.2333
 20
265.2424
 10
261.6509
 20
265.9306
 10
261.9148
 20
266.691
 10
262.0068
 20
267.5075
 10
261.9148
 20
268.3235
 10
261.6509
 20
269.0836
 10
261.2333
 20
269.7715
 10
260.6802
 20
270.371
 10
260.0099
 20
270.8656
 10
259.2404
 20
271.239
 10
258.3901
 20
271.4751
 10
257.4771
 20
271.5574
  0
LWPOLYLINE
  5
70
330
1F
100
AcDbEntity
  8
Layer 1
 62
     7
370
    18
100
AcDbPolyline
 90
       33
 70
     1
 43
0.0
 10
255.0531
 20
267.6533
 10
254.8659
 20
267.6345
 10
254.6915
 20
267.5805
 10
254.5337
 20
267.495
 10
254.3962
 20
267.3818
 10
254.2827
 20
267.2445
 10
254.197
 20
267.087
 10
254.1428
 20
266.9128
 10
254.1239
 20
266.7258
 10
254.1428
 20
266.5392
 10
254.197
 20
266.3654
 10
254.2827
 20
266.2081
 10
254.3962
 20
266.0711
 10
254.5337
 20
265.9579
 10
254.6915
 20
265.8725
 10
254.8659
 20
265.8185
 10
255.0531
 20
265.7997
 10
255.2408
 20
265.8185
 10
255.4155
 20
265.8725
 10
255.5736
 20
265.9579
 10
255.7114
 20
266.0711
 10
255.825
 20
266.2081
 10
255.9107
 20
266.3654
 10
255.9649
 20
266.5392
 10
255.9838
 20
266.7258
 10
255.9649
 20
266.9128
 10
255.9107
 20
267.087
 10
255.825
 20
267.2445
 10
255.7114
 20
267.3818
 10
255.5736
 20
267.495
 10
255.4155
 20
267.5805
 10
255.2408
 20
267.6345
 10
255.0531
 20
267.6533
  0
LWPOLYLINE
  5
71
330
1F
100
AcDbEntity
  8
Layer 1
 62
     7
370
    18
100
AcDbPolyline
 90
       33
 70
     1
 43
0.0
 10
244.4408
 20
257.1462
 10
243.6721
 20
256.7795
 10
242.8801
 20
256.5654
 10
242.0873
 20
256.4996
 10
241.3158
 20
256.5774
 10
240.5882
 20
256.7946
 10
239.9266
 20
257.1467
 10
239.3534
 20
257.6293
 10
238.891
 20
258.2379
 10
238.5752
 20
258.9341
 10
238.4235
 20
259.6668
 10
238.4291
 20
260.4144
 10
238.5852
 20
261.1554
 10
238.885
 20
261.8681
 10
239.3218
 20
262.5309
 10
239.8887
 20
263.1222
 10
240.579
 20
263.6204
 10
241.3477
 20
263.9867
 10
242.1397
 20
264.2005
 10
242.9326
 20
264.2663
 10
243.7041
 20
264.1884
 10
244.432
 20
263.9712
 10
245.0938
 20
263.619
 10
245.6673
 20
263.1362
 10
246.1302
 20
262.5272
 10
246.4456
 20
261.8314
 10
246.597
 20
261.099
 10
246.5911
 20
260.3514
 10
246.4348
 20
259.6105
 10
246.1349
 20
258.8978
 10
245.698
 20
258.2351
 10
245.1311
 20
257.644
 10
244.4408
 20
257.1462
  0
LWPOLYLINE
  5
72
330
1F
100
AcDbEntity
  8
Layer 1
 62
     7
370
    18
100
AcDbPolyline
 90
       33
 70
     1
 43
0.0
 10
240.6429
 20
259.1187
 10
240.4841
 20
259.0449
 10
240.3189
 20
259.0053
 10
240.152
 20
258.9988
 10
239.9881
 20
259.024
 10
239.832
 20
259.0799
 10
239.6884
 20
259.1651
 10
239.5621
 20
259.2785
 10
239.4579
 20
259.4189
 10
239.3838
 20
259.5772
 10
239.3441
 20
259.7419
 10
239.3375
 20
259.9082
 10
239.3629
 20
260.0716
 10
239.4189
 20
260.2271
 10
239.5044
 20
260.3702
 10
239.6182
 20
260.496
 10
239.7591
 20
260.5999
 10
239.9179
 20
260.6737
 10
240.0832
 20
260.7133
 10
240.2501
 20
260.7199
 10
240.414
 20
260.6946
 10
240.57
 20
260.6388
 10
240.7136
 20
260.5535
 10
240.8399
 20
260.4401
 10
240.9441
 20
260.2997
 10
241.0182
 20
260.1414
 10
241.0579
 20
259.9766
 10
241.0645
 20
259.8101
 10
241.0391
 20
259.6466
 10
240.9831
 20
259.4909
 10
240.8976
 20
259.3479
 10
240.7838
 20
259.2222
 10
240.6429
 20
259.1187
  0
LWPOLYLINE
  5
73
330
1F
100
AcDbEntity
  8
Layer 1
 62
     7
370
    18
100
AcDbPolyline
 90
       33
 70
     1
 43
0.0
 10
230.0832
 20
252.037
 10
229.2936
 20
251.9547
 10
228.5582
 20
251.7188
 10
227.8928
 20
251.3455
 10
227.3131
 20
250.851
 10
226.8348
 20
250.2517
 10
226.4737
 20
249.5638
 10
226.2455
 20
248.8035
 10
226.1659
 20
247.9871
 10
226.2455
 20
247.1706
 10
226.4737
 20
246.4102
 10
226.8348
 20
245.722
 10
227.3131
 20
245.1224
 10
227.8928
 20
244.6276
 10
228.5582
 20
244.2541
 10
229.2936
 20
244.018
 10
230.0832
 20
243.9357
 10
230.8724
 20
244.018
 10
231.6076
 20
244.2541
 10
232.273
 20
244.6276
 10
232.8528
 20
245.1224
 10
233.3312
 20
245.722
 10
233.6925
 20
246.4102
 10
233.9209
 20
247.1706
 10
234.0005
 20
247.9871
 10
233.9209
 20
248.8035
 10
233.6925
 20
249.5638
 10
233.3312
 20
250.2517
 10
232.8528
 20
250.851
 10
232.273
 20
251.3455
 10
231.6076
 20
251.7188
 10
230.8724
 20
251.9547
 10
230.0832
 20
252.037
  0
LWPOLYLINE
  5
74
330
1F
100
AcDbEntity
  8
Layer 1
 62
     7
370
    18
100
AcDbPolyline
 90
       33
 70
     1
 43
0.0
 10
227.986
 20
248.1329
 10
227.8238
 20
248.1141
 10
227.6727
 20
248.0601
 10
227.5361
 20
247.9746
 10
227.4171
 20
247.8614
 10
227.319
 20
247.7241
 10
227.2449
 20
247.5666
 10
227.1981
 20
247.3924
 10
227.1818
 20
247.2054
 10
227.1981
 20
247.0188
 10
227.2449
 20
246.845
 10
227.319
 20
246.6877
 10
227.4171
 20
246.5507
 10
227.5361
 20
246.4375
 10
227.6727
 20
246.3521
 10
227.8238
 20
246.2981
 10
227.986
 20
246.2793
 10
228.1482
 20
246.2981
 10
228.2993
 20
246.3521
 10
228.4359
 20
246.4375
 10
228.5549
 20
246.5507
 10
228.653
 20
246.6877
 10
228.7271
 20
246.845
 10
228.7739
 20
247.0188
 10
228.7902
 20
247.2054
 10
228.7739
 20
247.3924
 10
228.7271
 20
247.5666
 10
228.653
 20
247.7241
 10
228.5549
 20
247.8614
 10
228.4359
 20
247.9746
 10
228.2993
 20
248.0601
 10
228.1482
 20
248.1141
 10
227.986
 20
248.1329
  0
LWPOLYLINE
  5
75
330
1F
100
AcDbEntity
  8
Layer 1
 62
     7
370
    18
100
AcDbPolyline
 90
       33
 70
     1
 43
0.0
 10
222.7033
 20
235.6886
 10
221.9665
 20
235.6117
 10
221.2801
 20
235.3913
 10
220.6589
 20
235.0426
 10
220.1175
 20
234.5807
 10
219.6708
 20
234.0209
 10
219.3335
 20
233.3784
 10
219.1203
 20
232.6685
 10
219.046
 20
231.9063
 10
219.1203
 20
231.1442
 10
219.3335
 20
230.4344
 10
219.6708
 20
229.7921
 10
220.1175
 20
229.2326
 10
220.6589
 20
228.771
 10
221.2801
 20
228.4224
 10
221.9665
 20
228.2022
 10
222.7033
 20
228.1254
 10
223.4405
 20
228.2022
 10
224.1271
 20
228.4224
 10
224.7484
 20
228.771
 10
225.2896
 20
229.2326
 10
225.7361
 20
229.7921
 10
226.0733
 20
230.4344
 10
226.2863
 20
231.1442
 10
226.3606
 20
231.9063
 10
226.2863
 20
232.6685
 10
226.0733
 20
233.3784
 10
225.7361
 20
234.0209
 10
225.2896
 20
234.5807
 10
224.7484
 20
235.0426
 10
224.1271
 20
235.3913
 10
223.4405
 20
235.6117
 10
222.7033
 20
235.6886
  0
LWPOLYLINE
  5
76
330
1F
100
AcDbEntity
  8
Layer 1
 62
     7
370
    18
100
AcDbPolyline
 90
       33
 70
     1
 43
0.0
 10
220.7468
 20
232.0436
 10
220.5954
 20
232.026
 10
220.4543
 20
231.9755
 10
220.3267
 20
231.8956
 10
220.2154
 20
231.7898
 10
220.1236
 20
231.6615
 10
220.0543
 20
231.5143
 10
220.0105
 20
231.3516
 10
219.9952
 20
231.177
 10
220.0105
 20
231.0028
 10
220.0543
 20
230.8405
 10
220.1236
 20
230.6935
 10
220.2154
 20
230.5655
 10
220.3267
 20
230.4597
 10
220.4543
 20
230.3799
 10
220.5954
 20
230.3294
 10
220.7468
 20
230.3118
 10
220.8982
 20
230.3294
 10
221.0393
 20
230.3799
 10
221.1669
 20
230.4597
 10
221.2782
 20
230.5655
 10
221.37
 20
230.6935
 10
221.4393
 20
230.8405
 10
221.4831
 20
231.0028
 10
221.4984
 20
231.177
 10
221.4831
 20
231.3516
 10
221.4393
 20
231.5143
 10
221.37
 20
231.6615
 10
221.2782
 20
231.7898
 10
221.1669
 20
231.8956
 10
221.0393
 20
231.9755
 10
220.8982
 20
232.026
 10
220.7468
 20
232.0436
  0
LWPOLYLINE
  5
77
330
1F
100
AcDbEntity
  8
Layer 1
 62
     7
370
    18
100
AcDbPolyline
 90
       33
 70
     1
 43
0.0
 10
219.1782
 20
216.753
 10
218.4409
 20
216.6762
 10
217.7543
 20
216.456
 10
217.1331
 20
216.1074
 10
216.5919
 20
215.6458
 10
216.1453
 20
215.0863
 10
215.8082
 20
214.444
 10
215.5952
 20
213.7342
 10
215.5209
 20
212.9721
 10
215.5952
 20
212.2099
 10
215.8082
 20
211.4999
 10
216.1453
 20
210.8575
 10
216.5919
 20
210.2977
 10
217.1331
 20
209.8358
 10
217.7543
 20
209.4871
 10
218.4409
 20
209.2667
 10
219.1782
 20
209.1898
 10
219.9154
 20
209.2667
 10
220.602
 20
209.4871
 10
221.2232
 20
209.8358
 10
221.7645
 20
210.2977
 10
222.211
 20
210.8575
 10
222.5481
 20
211.4999
 10
222.7611
 20
212.2099
 10
222.8354
 20
212.9721
 10
222.7611
 20
213.7342
 10
222.5481
 20
214.444
 10
222.211
 20
215.0863
 10
221.7645
 20
215.6458
 10
221.2232
 20
216.1074
 10
220.602
 20
216.456
 10
219.9154
 20
216.6762
 10
219.1782
 20
216.753
  0
LWPOLYLINE
  5
78
330
1F
100
AcDbEntity
  8
Layer 1
 62
     7
370
    18
100
AcDbPolyline
 90
       33
 70
     1
 43
0.0
 10
217.2217
 20
213.108
 10
217.0699
 20
213.0905
 10
216.9286
 20
213.0401
 10
216.8009
 20
212.9604
 10
216.6897
 20
212.8549
 10
216.5981
 20
212.7269
 10
216.5289
 20
212.5799
 10
216.4852
 20
212.4174
 10
216.47
 20
212.2428
 10
216.4852
 20
212.0682
 10
216.5289
 20
211.9057
 10
216.5981
 20
211.7587
 10
216.6897
 20
211.6307
 10
216.8009
 20
211.5252
 10
216.9286
 20
211.4455
 10
217.0699
 20
211.3951
 10
217.2217
 20
211.3776
 10
217.3731
 20
211.3951
 10
217.514
 20
211.4455
 10
217.6414
 20
211.5252
 10
217.7524
 20
211.6307
 10
217.8439
 20
211.7587
 10
217.913
 20
211.9057
 10
217.9567
 20
212.0682
 10
217.9719
 20
212.2428
 10
217.9567
 20
212.4174
 10
217.913
 20
212.5799
 10
217.8439
 20
212.7269
 10
217.7524
 20
212.8549
 10
217.6414
 20
212.9604
 10
217.514
 20
213.0401
 10
217.3731
 20
213.0905
 10
217.2217
 20
213.108
  0
LWPOLYLINE
  5
79
330
1F
100
AcDbEntity
  8
Layer 1
 62
     7
370
    18
100
AcDbPolyline
 90
       33
 70
     1
 43
0.0
 10
220.3532
 20
196.6477
 10
219.6164
 20
196.5708
 10
218.93
 20
196.3504
 10
218.3088
 20
196.0017
 10
217.7675
 20
195.5398
 10
217.3208
 20
194.98
 10
216.9835
 20
194.3376
 10
216.7703
 20
193.6276
 10
216.696
 20
192.8654
 10
216.7703
 20
192.1033
 10
216.9835
 20
191.3935
 10
217.3208
 20
190.7512
 10
217.7675
 20
190.1917
 10
218.3088
 20
189.7301
 10
218.93
 20
189.3815
 10
219.6164
 20
189.1613
 10
220.3532
 20
189.0845
 10
221.0905
 20
189.1613
 10
221.7771
 20
189.3815
 10
222.3983
 20
189.7301
 10
222.9395
 20
190.1917
 10
223.3861
 20
190.7512
 10
223.7232
 20
191.3935
 10
223.9362
 20
192.1033
 10
224.0105
 20
192.8654
 10
223.9362
 20
193.6276
 10
223.7232
 20
194.3376
 10
223.3861
 20
194.98
 10
222.9395
 20
195.5398
 10
222.3983
 20
196.0017
 10
221.7771
 20
196.3504
 10
221.0905
 20
196.5708
 10
220.3532
 20
196.6477
  0
LWPOLYLINE
  5
7A
330
1F
100
AcDbEntity
  8
Layer 1
 62
     7
370
    18
100
AcDbPolyline
 90
       33
 70
     1
 43
0.0
 10
218.3967
 20
193.0028
 10
218.2453
 20
192.9852
 10
218.1042
 20
192.9347
 10
217.9766
 20
192.8549
 10
217.8653
 20
192.7491
 10
217.7735
 20
192.621
 10
217.7042
 20
192.4741
 10
217.6604
 20
192.3117
 10
217.6451
 20
192.1375
 10
217.6604
 20
191.9629
 10
217.7042
 20
191.8002
 10
217.7735
 20
191.653
 10
217.8653
 20
191.5247
 10
217.9766
 20
191.4189
 10
218.1042
 20
191.339
 10
218.2453
 20
191.2885
 10
218.3967
 20
191.2709
 10
218.5481
 20
191.2885
 10
218.689
 20
191.339
 10
218.8164
 20
191.4189
 10
218.9274
 20
191.5247
 10
219.0189
 20
191.653
 10
219.088
 20
191.8002
 10
219.1317
 20
191.9629
 10
219.1469
 20
192.1375
 10
219.1317
 20
192.3117
 10
219.088
 20
192.4741
 10
219.0189
 20
192.621
 10
218.9274
 20
192.7491
 10
218.8164
 20
192.8549
 10
218.689
 20
192.9347
 10
218.5481
 20
192.9852
 10
218.3967
 20
193.0028
  0
LWPOLYLINE
  5
7B
330
1F
100
AcDbEntity
  8
Layer 1
 62
     7
370
    18
100
AcDbPolyline
 90
       33
 70
     1
 43
0.0
 10
226.9005
 20
176.7364
 10
226.2197
 20
176.6596
 10
225.5855
 20
176.4394
 10
225.0116
 20
176.0909
 10
224.5115
 20
175.6293
 10
224.0989
 20
175.0698
 10
223.7873
 20
174.4275
 10
223.5904
 20
173.7177
 10
223.5217
 20
172.9556
 10
223.5904
 20
172.1934
 10
223.7873
 20
171.4834
 10
224.0989
 20
170.841
 10
224.5115
 20
170.2812
 10
225.0116
 20
169.8193
 10
225.5855
 20
169.4706
 10
226.2197
 20
169.2502
 10
226.9005
 20
169.1733
 10
227.5812
 20
169.2502
 10
228.2153
 20
169.4706
 10
228.7889
 20
169.8193
 10
229.2888
 20
170.2812
 10
229.7011
 20
170.841
 10
230.0124
 20
171.4834
 10
230.2092
 20
172.1934
 10
230.2778
 20
172.9556
 10
230.2092
 20
173.7177
 10
230.0124
 20
174.4275
 10
229.7011
 20
175.0698
 10
229.2888
 20
175.6293
 10
228.7889
 20
176.0909
 10
228.2153
 20
176.4394
 10
227.5812
 20
176.6596
 10
226.9005
 20
176.7364
  0
LWPOLYLINE
  5
7C
330
1F
100
AcDbEntity
  8
Layer 1
 62
     7
370
    18
100
AcDbPolyline
 90
       33
 70
     1
 43
0.0
 10
225.0917
 20
173.0915
 10
224.9522
 20
173.074
 10
224.8221
 20
173.0236
 10
224.7044
 20
172.9439
 10
224.6017
 20
172.8384
 10
224.517
 20
172.7104
 10
224.453
 20
172.5634
 10
224.4125
 20
172.4009
 10
224.3984
 20
172.2263
 10
224.4125
 20
172.0517
 10
224.453
 20
171.8892
 10
224.517
 20
171.7422
 10
224.6017
 20
171.6142
 10
224.7044
 20
171.5087
 10
224.8221
 20
171.429
 10
224.9522
 20
171.3786
 10
225.0917
 20
171.3611
 10
225.2317
 20
171.3786
 10
225.3621
 20
171.429
 10
225.4802
 20
171.5087
 10
225.583
 20
171.6142
 10
225.6678
 20
171.7422
 10
225.7319
 20
171.8892
 10
225.7724
 20
172.0517
 10
225.7865
 20
172.2263
 10
225.7724
 20
172.4009
 10
225.7319
 20
172.5634
 10
225.6678
 20
172.7104
 10
225.583
 20
172.8384
 10
225.4802
 20
172.9439
 10
225.3621
 20
173.0236
 10
225.2317
 20
173.074
 10
225.0917
 20
173.0915
  0
LWPOLYLINE
  5
7D
330
1F
100
AcDbEntity
  8
Layer 1
 62
     7
370
    18
100
AcDbPolyline
 90
       33
 70
     1
 43
0.0
 10
236.693
 20
158.7779
 10
236.0122
 20
158.7011
 10
235.3782
 20
158.4809
 10
234.8045
 20
158.1323
 10
234.3047
 20
157.6707
 10
233.8923
 20
157.1112
 10
233.581
 20
156.469
 10
233.3842
 20
155.7592
 10
233.3156
 20
154.9971
 10
233.3842
 20
154.2349
 10
233.581
 20
153.5249
 10
233.8923
 20
152.8824
 10
234.3047
 20
152.3226
 10
234.8045
 20
151.8607
 10
235.3782
 20
151.512
 10
236.0122
 20
151.2916
 10
236.693
 20
151.2147
 10
237.3738
 20
151.2916
 10
238.0079
 20
151.512
 10
238.5818
 20
151.8607
 10
239.0819
 20
152.3226
 10
239.4945
 20
152.8824
 10
239.8061
 20
153.5249
 10
240.003
 20
154.2349
 10
240.0717
 20
154.9971
 10
240.003
 20
155.7592
 10
239.8061
 20
156.469
 10
239.4945
 20
157.1112
 10
239.0819
 20
157.6707
 10
238.5818
 20
158.1323
 10
238.0079
 20
158.4809
 10
237.3738
 20
158.7011
 10
236.693
 20
158.7779
  0
LWPOLYLINE
  5
7E
330
1F
100
AcDbEntity
  8
Layer 1
 62
     7
370
    18
100
AcDbPolyline
 90
       33
 70
     1
 43
0.0
 10
234.8856
 20
155.133
 10
234.7456
 20
155.1155
 10
234.6152
 20
155.0651
 10
234.4972
 20
154.9854
 10
234.3944
 20
154.8799
 10
234.3095
 20
154.7519
 10
234.2454
 20
154.6049
 10
234.2049
 20
154.4424
 10
234.1908
 20
154.2678
 10
234.2049
 20
154.0932
 10
234.2454
 20
153.9307
 10
234.3095
 20
153.7837
 10
234.3944
 20
153.6557
 10
234.4972
 20
153.5501
 10
234.6152
 20
153.4705
 10
234.7456
 20
153.4201
 10
234.8856
 20
153.4026
 10
235.0256
 20
153.4201
 10
235.1558
 20
153.4705
 10
235.2736
 20
153.5501
 10
235.3762
 20
153.6557
 10
235.4608
 20
153.7837
 10
235.5246
 20
153.9307
 10
235.5649
 20
154.0932
 10
235.579
 20
154.2678
 10
235.5649
 20
154.4424
 10
235.5246
 20
154.6049
 10
235.4608
 20
154.7519
 10
235.3762
 20
154.8799
 10
235.2736
 20
154.9854
 10
235.1558
 20
155.0651
 10
235.0256
 20
155.1155
 10
234.8856
 20
155.133
  0
LWPOLYLINE
  5
7F
330
1F
100
AcDbEntity
  8
Layer 1
 62
     7
370
    18
100
AcDbPolyline
 90
       33
 70
     1
 43
0.0
 10
249.8159
 20
143.7478
 10
249.1351
 20
143.6709
 10
248.5009
 20
143.4505
 10
247.927
 20
143.1018
 10
247.4269
 20
142.6399
 10
247.0143
 20
142.0801
 10
246.7027
 20
141.4377
 10
246.5058
 20
140.7277
 10
246.4371
 20
139.9655
 10
246.5058
 20
139.2034
 10
246.7027
 20
138.4936
 10
247.0143
 20
137.8514
 10
247.4269
 20
137.2919
 10
247.927
 20
136.8303
 10
248.5009
 20
136.4817
 10
249.1351
 20
136.2615
 10
249.8159
 20
136.1847
 10
250.4967
 20
136.2615
 10
251.1307
 20
136.4817
 10
251.7044
 20
136.8303
 10
252.2042
 20
137.2919
 10
252.6166
 20
137.8514
 10
252.9279
 20
138.4936
 10
253.1247
 20
139.2034
 10
253.1933
 20
139.9655
 10
253.1247
 20
140.7277
 10
252.9279
 20
141.4377
 10
252.6166
 20
142.0801
 10
252.2042
 20
142.6399
 10
251.7044
 20
143.1018
 10
251.1307
 20
143.4505
 10
250.4967
 20
143.6709
 10
249.8159
 20
143.7478
  0
LWPOLYLINE
  5
80
330
1F
100
AcDbEntity
  8
Layer 1
 62
     7
370
    18
100
AcDbPolyline
 90
       33
 70
     1
 43
0.0
 10
248.0086
 20
140.1029
 10
247.8686
 20
140.0853
 10
247.7382
 20
140.0348
 10
247.6202
 20
139.955
 10
247.5174
 20
139.8493
 10
247.4325
 20
139.7212
 10
247.3684
 20
139.5742
 10
247.3279
 20
139.4119
 10
247.3138
 20
139.2377
 10
247.3279
 20
139.0631
 10
247.3684
 20
138.9004
 10
247.4325
 20
138.7532
 10
247.5174
 20
138.6249
 10
247.6202
 20
138.5191
 10
247.7382
 20
138.4392
 10
247.8686
 20
138.3887
 10
248.0086
 20
138.3711
 10
248.1481
 20
138.3887
 10
248.2782
 20
138.4392
 10
248.396
 20
138.5191
 10
248.4986
 20
138.6249
 10
248.5834
 20
138.7532
 10
248.6474
 20
138.9004
 10
248.6879
 20
139.0631
 10
248.702
 20
139.2377
 10
248.6879
 20
139.4119
 10
248.6474
 20
139.5742
 10
248.5834
 20
139.7212
 10
248.4986
 20
139.8493
 10
248.396
 20
139.955
 10
248.2782
 20
140.0348
 10
248.1481
 20
140.0853
 10
248.0086
 20
140.1029
  0
LWPOLYLINE
  5
81
330
1F
100
AcDbEntity
  8
Layer 1
 62
     7
370
    18
100
AcDbPolyline
 90
       33
 70
     1
 43
0.0
 10
265.2889
 20
133.0113
 10
264.6081
 20
132.9345
 10
263.9739
 20
132.7143
 10
263.4
 20
132.3657
 10
262.8999
 20
131.9041
 10
262.4873
 20
131.3446
 10
262.1757
 20
130.7023
 10
261.9788
 20
129.9925
 10
261.9101
 20
129.2304
 10
261.9788
 20
128.4682
 10
262.1757
 20
127.7582
 10
262.4873
 20
127.1158
 10
262.8999
 20
126.556
 10
263.4
 20
126.0941
 10
263.9739
 20
125.7454
 10
264.6081
 20
125.525
 10
265.2889
 20
125.4481
 10
265.9697
 20
125.525
 10
266.6039
 20
125.7454
 10
267.1778
 20
126.0941
 10
267.6779
 20
126.556
 10
268.0905
 20
127.1158
 10
268.4021
 20
127.7582
 10
268.599
 20
128.4682
 10
268.6677
 20
129.2304
 10
268.599
 20
129.9925
 10
268.4021
 20
130.7023
 10
268.0905
 20
131.3446
 10
267.6779
 20
131.9041
 10
267.1778
 20
132.3657
 10
266.6039
 20
132.7143
 10
265.9697
 20
132.9345
 10
265.2889
 20
133.0113
  0
LWPOLYLINE
  5
82
330
1F
100
AcDbEntity
  8
Layer 1
 62
     7
370
    18
100
AcDbPolyline
 90
       33
 70
     1
 43
0.0
 10
263.4816
 20
129.3663
 10
263.3416
 20
129.3488
 10
263.2112
 20
129.2984
 10
263.0932
 20
129.2187
 10
262.9904
 20
129.1132
 10
262.9055
 20
128.9852
 10
262.8414
 20
128.8382
 10
262.8009
 20
128.6757
 10
262.7868
 20
128.5011
 10
262.8009
 20
128.3265
 10
262.8414
 20
128.164
 10
262.9055
 20
128.017
 10
262.9904
 20
127.889
 10
263.0932
 20
127.7835
 10
263.2112
 20
127.7038
 10
263.3416
 20
127.6534
 10
263.4816
 20
127.6359
 10
263.6211
 20
127.6534
 10
263.7512
 20
127.7038
 10
263.869
 20
127.7835
 10
263.9716
 20
127.889
 10
264.0564
 20
128.017
 10
264.1204
 20
128.164
 10
264.1609
 20
128.3265
 10
264.175
 20
128.5011
 10
264.1609
 20
128.6757
 10
264.1204
 20
128.8382
 10
264.0564
 20
128.9852
 10
263.9716
 20
129.1132
 10
263.869
 20
129.2187
 10
263.7512
 20
129.2984
 10
263.6211
 20
129.3488
 10
263.4816
 20
129.3663
  0
LWPOLYLINE
  5
83
330
1F
100
AcDbEntity
  8
Layer 1
 62
     7
370
    18
100
AcDbPolyline
 90
       33
 70
     1
 43
0.0
 10
282.3291
 20
127.1558
 10
281.6483
 20
127.0789
 10
281.0142
 20
126.8585
 10
280.4403
 20
126.5098
 10
279.9402
 20
126.0479
 10
279.5276
 20
125.4881
 10
279.216
 20
124.8457
 10
279.0191
 20
124.1357
 10
278.9504
 20
123.3735
 10
279.0191
 20
122.6114
 10
279.216
 20
121.9016
 10
279.5276
 20
121.2593
 10
279.9402
 20
120.6998
 10
280.4403
 20
120.2382
 10
281.0142
 20
119.8896
 10
281.6483
 20
119.6694
 10
282.3291
 20
119.5926
 10
283.0099
 20
119.6694
 10
283.6441
 20
119.8896
 10
284.218
 20
120.2382
 10
284.7181
 20
120.6998
 10
285.1307
 20
121.2593
 10
285.4423
 20
121.9016
 10
285.6392
 20
122.6114
 10
285.7079
 20
123.3735
 10
285.6392
 20
124.1357
 10
285.4423
 20
124.8457
 10
285.1307
 20
125.4881
 10
284.7181
 20
126.0479
 10
284.218
 20
126.5098
 10
283.6441
 20
126.8585
 10
283.0099
 20
127.0789
 10
282.3291
 20
127.1558
  0
LWPOLYLINE
  5
84
330
1F
100
AcDbEntity
  8
Layer 1
 62
     7
370
    18
100
AcDbPolyline
 90
       33
 70
     1
 43
0.0
 10
280.5218
 20
123.5109
 10
280.3818
 20
123.4933
 10
280.2514
 20
123.4428
 10
280.1334
 20
123.3629
 10
280.0306
 20
123.2571
 10
279.9457
 20
123.1288
 10
279.8816
 20
122.9816
 10
279.8411
 20
122.8189
 10
279.827
 20
122.6443
 10
279.8411
 20
122.4701
 10
279.8816
 20
122.3078
 10
279.9457
 20
122.1608
 10
280.0306
 20
122.0328
 10
280.1334
 20
121.927
 10
280.2514
 20
121.8472
 10
280.3818
 20
121.7967
 10
280.5218
 20
121.7791
 10
280.6613
 20
121.7967
 10
280.7914
 20
121.8472
 10
280.9092
 20
121.927
 10
281.0118
 20
122.0328
 10
281.0966
 20
122.1608
 10
281.1606
 20
122.3078
 10
281.2011
 20
122.4701
 10
281.2152
 20
122.6443
 10
281.2011
 20
122.8189
 10
281.1606
 20
122.9816
 10
281.0966
 20
123.1288
 10
281.0118
 20
123.2571
 10
280.9092
 20
123.3629
 10
280.7914
 20
123.4428
 10
280.6613
 20
123.4933
 10
280.5218
 20
123.5109
  0
LWPOLYLINE
  5
85
330
1F
100
AcDbEntity
  8
Layer 1
 62
     7
370
    18
100
AcDbPolyline
 90
       33
 70
     1
 43
0.0
 10
299.125
 20
127.3513
 10
298.2565
 20
127.2744
 10
297.4476
 20
127.054
 10
296.7155
 20
126.7053
 10
296.0778
 20
126.2434
 10
295.5515
 20
125.6836
 10
295.1542
 20
125.0411
 10
294.9031
 20
124.3312
 10
294.8155
 20
123.569
 10
294.9031
 20
122.8069
 10
295.1542
 20
122.0971
 10
295.5515
 20
121.4548
 10
296.0778
 20
120.8953
 10
296.7155
 20
120.4337
 10
297.4476
 20
120.0851
 10
298.2565
 20
119.8649
 10
299.125
 20
119.7881
 10
299.9935
 20
119.8649
 10
300.8024
 20
120.0851
 10
301.5344
 20
120.4337
 10
302.1722
 20
120.8953
 10
302.6984
 20
121.4548
 10
303.0957
 20
122.0971
 10
303.3468
 20
122.8069
 10
303.4344
 20
123.569
 10
303.3468
 20
124.3312
 10
303.0957
 20
125.0411
 10
302.6984
 20
125.6836
 10
302.1722
 20
126.2434
 10
301.5344
 20
126.7053
 10
300.8024
 20
127.054
 10
299.9935
 20
127.2744
 10
299.125
 20
127.3513
  0
LWPOLYLINE
  5
86
330
1F
100
AcDbEntity
  8
Layer 1
 62
     7
370
    18
100
AcDbPolyline
 90
       33
 70
     1
 43
0.0
 10
296.8189
 20
123.7063
 10
296.6406
 20
123.6887
 10
296.4744
 20
123.6382
 10
296.3241
 20
123.5583
 10
296.193
 20
123.4525
 10
296.0849
 20
123.3242
 10
296.0033
 20
123.177
 10
295.9517
 20
123.0143
 10
295.9337
 20
122.8397
 10
295.9517
 20
122.6655
 10
296.0033
 20
122.5032
 10
296.0849
 20
122.3562
 10
296.193
 20
122.2282
 10
296.3241
 20
122.1224
 10
296.4744
 20
122.0426
 10
296.6406
 20
121.9921
 10
296.8189
 20
121.9745
 10
296.9973
 20
121.9921
 10
297.1634
 20
122.0426
 10
297.3138
 20
122.1224
 10
297.4448
 20
122.2282
 10
297.5529
 20
122.3562
 10
297.6345
 20
122.5032
 10
297.6861
 20
122.6655
 10
297.7041
 20
122.8397
 10
297.6861
 20
123.0143
 10
297.6345
 20
123.177
 10
297.5529
 20
123.3242
 10
297.4448
 20
123.4525
 10
297.3138
 20
123.5583
 10
297.1634
 20
123.6382
 10
296.9973
 20
123.6887
 10
296.8189
 20
123.7063
  0
LWPOLYLINE
  5
87
330
1F
100
AcDbEntity
  8
Layer 1
 62
     7
370
    18
100
AcDbPolyline
 90
       33
 70
     1
 43
0.0
 10
314.9901
 20
132.6218
 10
314.1216
 20
132.5449
 10
313.3127
 20
132.3245
 10
312.5807
 20
131.9758
 10
311.9429
 20
131.5139
 10
311.4167
 20
130.9541
 10
311.0194
 20
130.3117
 10
310.7683
 20
129.6017
 10
310.6807
 20
128.8395
 10
310.7683
 20
128.0774
 10
311.0194
 20
127.3676
 10
311.4167
 20
126.7253
 10
311.9429
 20
126.1658
 10
312.5807
 20
125.7042
 10
313.3127
 20
125.3557
 10
314.1216
 20
125.1355
 10
314.9901
 20
125.0587
 10
315.8586
 20
125.1355
 10
316.6675
 20
125.3557
 10
317.3996
 20
125.7042
 10
318.0374
 20
126.1658
 10
318.5636
 20
126.7253
 10
318.9609
 20
127.3676
 10
319.212
 20
128.0774
 10
319.2996
 20
128.8395
 10
319.212
 20
129.6017
 10
318.9609
 20
130.3117
 10
318.5636
 20
130.9541
 10
318.0374
 20
131.5139
 10
317.3996
 20
131.9758
 10
316.6675
 20
132.3245
 10
315.8586
 20
132.5449
 10
314.9901
 20
132.6218
  0
LWPOLYLINE
  5
88
330
1F
100
AcDbEntity
  8
Layer 1
 62
     7
370
    18
100
AcDbPolyline
 90
       33
 70
     1
 43
0.0
 10
312.6841
 20
128.9769
 10
312.5057
 20
128.9593
 10
312.3396
 20
128.9088
 10
312.1892
 20
128.8289
 10
312.0582
 20
128.7231
 10
311.9501
 20
128.5948
 10
311.8685
 20
128.4476
 10
311.8169
 20
128.2849
 10
311.7989
 20
128.1103
 10
311.8169
 20
127.9361
 10
311.8685
 20
127.7738
 10
311.9501
 20
127.6268
 10
312.0582
 20
127.4988
 10
312.1892
 20
127.393
 10
312.3396
 20
127.3132
 10
312.5057
 20
127.2627
 10
312.6841
 20
127.2451
 10
312.8625
 20
127.2627
 10
313.0286
 20
127.3132
 10
313.179
 20
127.393
 10
313.31
 20
127.4988
 10
313.4181
 20
127.6268
 10
313.4997
 20
127.7738
 10
313.5513
 20
127.9361
 10
313.5693
 20
128.1103
 10
313.5513
 20
128.2849
 10
313.4997
 20
128.4476
 10
313.4181
 20
128.5948
 10
313.31
 20
128.7231
 10
313.179
 20
128.8289
 10
313.0286
 20
128.9088
 10
312.8625
 20
128.9593
 10
312.6841
 20
128.9769
  0
LWPOLYLINE
  5
89
330
1F
100
AcDbEntity
  8
Layer 1
 62
     7
370
    18
100
AcDbPolyline
 90
       33
 70
     1
 43
0.0
 10
327.7209
 20
143.7478
 10
326.8524
 20
143.671
 10
326.0435
 20
143.4506
 10
325.3115
 20
143.1019
 10
324.6737
 20
142.6401
 10
324.1475
 20
142.0805
 10
323.7502
 20
141.4383
 10
323.4991
 20
140.7287
 10
323.4115
 20
139.967
 10
323.4991
 20
139.2048
 10
323.7502
 20
138.4948
 10
324.1475
 20
137.8524
 10
324.6737
 20
137.2926
 10
325.3115
 20
136.8307
 10
326.0435
 20
136.482
 10
326.8524
 20
136.2616
 10
327.7209
 20
136.1847
 10
328.5894
 20
136.2616
 10
329.3983
 20
136.482
 10
330.1303
 20
136.8307
 10
330.7681
 20
137.2926
 10
331.2944
 20
137.8524
 10
331.6917
 20
138.4948
 10
331.9428
 20
139.2048
 10
332.0304
 20
139.967
 10
331.9428
 20
140.7287
 10
331.6917
 20
141.4383
 10
331.2944
 20
142.0805
 10
330.7681
 20
142.6401
 10
330.1303
 20
143.1019
 10
329.3983
 20
143.4506
 10
328.5894
 20
143.671
 10
327.7209
 20
143.7478
  0
LWPOLYLINE
  5
8A
330
1F
100
AcDbEntity
  8
Layer 1
 62
     7
370
    18
100
AcDbPolyline
 90
       33
 70
     1
 43
0.0
 10
325.4149
 20
140.1029
 10
325.2365
 20
140.0853
 10
325.0704
 20
140.0348
 10
324.92
 20
139.955
 10
324.789
 20
139.8493
 10
324.6809
 20
139.7212
 10
324.5993
 20
139.5742
 10
324.5477
 20
139.4119
 10
324.5297
 20
139.2377
 10
324.5477
 20
139.0631
 10
324.5993
 20
138.9004
 10
324.6809
 20
138.7532
 10
324.789
 20
138.6249
 10
324.92
 20
138.5191
 10
325.0704
 20
138.4392
 10
325.2365
 20
138.3887
 10
325.4149
 20
138.3711
 10
325.5933
 20
138.3887
 10
325.7594
 20
138.4392
 10
325.9098
 20
138.5191
 10
326.0408
 20
138.6249
 10
326.1489
 20
138.7532
 10
326.2305
 20
138.9004
 10
326.2821
 20
139.0631
 10
326.3001
 20
139.2377
 10
326.2821
 20
139.4119
 10
326.2305
 20
139.5742
 10
326.1489
 20
139.7212
 10
326.0408
 20
139.8493
 10
325.9098
 20
139.955
 10
325.7594
 20
140.0348
 10
325.5933
 20
140.0853
 10
325.4149
 20
140.1029
  0
LWPOLYLINE
  5
8B
330
1F
100
AcDbEntity
  8
Layer 1
 62
     7
370
    18
100
AcDbPolyline
 90
       33
 70
     1
 43
0.0
 10
336.7305
 20
159.5596
 10
335.862
 20
159.4827
 10
335.0531
 20
159.2623
 10
334.3211
 20
158.9136
 10
333.6833
 20
158.4517
 10
333.1571
 20
157.8919
 10
332.7598
 20
157.2495
 10
332.5087
 20
156.5395
 10
332.4211
 20
155.7773
 10
332.5087
 20
155.0152
 10
332.7598
 20
154.3054
 10
333.1571
 20
153.6631
 10
333.6833
 20
153.1036
 10
334.3211
 20
152.642
 10
335.0531
 20
152.2934
 10
335.862
 20
152.0732
 10
336.7305
 20
151.9964
 10
337.599
 20
152.0732
 10
338.4079
 20
152.2934
 10
339.1399
 20
152.642
 10
339.7777
 20
153.1036
 10
340.3039
 20
153.6631
 10
340.7012
 20
154.3054
 10
340.9523
 20
155.0152
 10
341.0399
 20
155.7773
 10
340.9523
 20
156.5395
 10
340.7012
 20
157.2495
 10
340.3039
 20
157.8919
 10
339.7777
 20
158.4517
 10
339.1399
 20
158.9136
 10
338.4079
 20
159.2623
 10
337.599
 20
159.4827
 10
336.7305
 20
159.5596
  0
LWPOLYLINE
  5
8C
330
1F
100
AcDbEntity
  8
Layer 1
 62
     7
370
    18
100
AcDbPolyline
 90
       33
 70
     1
 43
0.0
 10
334.4245
 20
155.9147
 10
334.2461
 20
155.8971
 10
334.08
 20
155.8466
 10
333.9296
 20
155.7668
 10
333.7986
 20
155.661
 10
333.6905
 20
155.5329
 10
333.6089
 20
155.386
 10
333.5573
 20
155.2236
 10
333.5393
 20
155.0494
 10
333.5573
 20
154.8748
 10
333.6089
 20
154.7121
 10
333.6905
 20
154.5649
 10
333.7986
 20
154.4366
 10
333.9296
 20
154.3308
 10
334.08
 20
154.2509
 10
334.2461
 20
154.2004
 10
334.4245
 20
154.1828
 10
334.6029
 20
154.2004
 10
334.769
 20
154.2509
 10
334.9194
 20
154.3308
 10
335.0504
 20
154.4366
 10
335.1585
 20
154.5649
 10
335.2401
 20
154.7121
 10
335.2917
 20
154.8748
 10
335.3097
 20
155.0494
 10
335.2917
 20
155.2236
 10
335.2401
 20
155.386
 10
335.1585
 20
155.5329
 10
335.0504
 20
155.661
 10
334.9194
 20
155.7668
 10
334.769
 20
155.8466
 10
334.6029
 20
155.8971
 10
334.4245
 20
155.9147
  0
LWPOLYLINE
  5
8D
330
1F
100
AcDbEntity
  8
Layer 1
 62
     7
370
    18
100
AcDbPolyline
 90
       33
 70
     1
 43
0.0
 10
341.0399
 20
178.8846
 10
340.1714
 20
178.8077
 10
339.3625
 20
178.5873
 10
338.6305
 20
178.2386
 10
337.9927
 20
177.7767
 10
337.4665
 20
177.2169
 10
337.0692
 20
176.5745
 10
336.8181
 20
175.8645
 10
336.7305
 20
175.1023
 10
336.8181
 20
174.3402
 10
337.0692
 20
173.6304
 10
337.4665
 20
172.9881
 10
337.9927
 20
172.4286
 10
338.6305
 20
171.967
 10
339.3625
 20
171.6184
 10
340.1714
 20
171.3982
 10
341.0399
 20
171.3214
 10
341.9084
 20
171.3982
 10
342.7173
 20
171.6184
 10
343.4494
 20
171.967
 10
344.0872
 20
172.4286
 10
344.6134
 20
172.9881
 10
345.0107
 20
173.6304
 10
345.2618
 20
174.3402
 10
345.3494
 20
175.1023
 10
345.2618
 20
175.8645
 10
345.0107
 20
176.5745
 10
344.6134
 20
177.2169
 10
344.0872
 20
177.7767
 10
343.4494
 20
178.2386
 10
342.7173
 20
178.5873
 10
341.9084
 20
178.8077
 10
341.0399
 20
178.8846
  0
LWPOLYLINE
  5
8E
330
1F
100
AcDbEntity
  8
Layer 1
 62
     7
370
    18
100
AcDbPolyline
 90
       33
 70
     1
 43
0.0
 10
338.7339
 20
175.2397
 10
338.5551
 20
175.2221
 10
338.3888
 20
175.1716
 10
338.2384
 20
175.0917
 10
338.1075
 20
174.9859
 10
337.9995
 20
174.8576
 10
337.9181
 20
174.7104
 10
337.8666
 20
174.5477
 10
337.8487
 20
174.373
 10
337.8666
 20
174.1988
 10
337.9181
 20
174.0365
 10
337.9995
 20
173.8895
 10
338.1075
 20
173.7615
 10
338.2384
 20
173.6557
 10
338.3888
 20
173.5759
 10
338.5551
 20
173.5254
 10
338.7339
 20
173.5078
 10
338.9123
 20
173.5254
 10
339.0784
 20
173.5759
 10
339.2288
 20
173.6557
 10
339.3598
 20
173.7615
 10
339.4679
 20
173.8895
 10
339.5495
 20
174.0365
 10
339.6011
 20
174.1988
 10
339.6191
 20
174.373
 10
339.6011
 20
174.5477
 10
339.5495
 20
174.7104
 10
339.4679
 20
174.8576
 10
339.3598
 20
174.9859
 10
339.2288
 20
175.0917
 10
339.0784
 20
175.1716
 10
338.9123
 20
175.2221
 10
338.7339
 20
175.2397
  0
LWPOLYLINE
  5
8F
330
1F
100
AcDbEntity
  8
Layer 1
 62
     7
370
    18
100
AcDbPolyline
 90
       33
 70
     1
 43
0.0
 10
340.2556
 20
199.7715
 10
339.3871
 20
199.6946
 10
338.5782
 20
199.4742
 10
337.8462
 20
199.1255
 10
337.2084
 20
198.6636
 10
336.6822
 20
198.1038
 10
336.2849
 20
197.4614
 10
336.0338
 20
196.7514
 10
335.9462
 20
195.9892
 10
336.0338
 20
195.2271
 10
336.2849
 20
194.5173
 10
336.6822
 20
193.875
 10
337.2084
 20
193.3155
 10
337.8462
 20
192.8539
 10
338.5782
 20
192.5053
 10
339.3871
 20
192.2851
 10
340.2556
 20
192.2083
 10
341.1241
 20
192.2851
 10
341.933
 20
192.5053
 10
342.6651
 20
192.8539
 10
343.3029
 20
193.3155
 10
343.8291
 20
193.875
 10
344.2264
 20
194.5173
 10
344.4775
 20
195.2271
 10
344.5651
 20
195.9892
 10
344.4775
 20
196.7514
 10
344.2264
 20
197.4614
 10
343.8291
 20
198.1038
 10
343.3029
 20
198.6636
 10
342.6651
 20
199.1255
 10
341.933
 20
199.4742
 10
341.1241
 20
199.6946
 10
340.2556
 20
199.7715
  0
LWPOLYLINE
  5
90
330
1F
100
AcDbEntity
  8
Layer 1
 62
     7
370
    18
100
AcDbPolyline
 90
       33
 70
     1
 43
0.0
 10
337.9496
 20
196.1266
 10
337.7712
 20
196.109
 10
337.6051
 20
196.0585
 10
337.4547
 20
195.9786
 10
337.3237
 20
195.8728
 10
337.2156
 20
195.7445
 10
337.134
 20
195.5973
 10
337.0824
 20
195.4346
 10
337.0644
 20
195.26
 10
337.0824
 20
195.0858
 10
337.134
 20
194.9235
 10
337.2156
 20
194.7765
 10
337.3237
 20
194.6484
 10
337.4547
 20
194.5427
 10
337.6051
 20
194.4628
 10
337.7712
 20
194.4123
 10
337.9496
 20
194.3947
 10
338.128
 20
194.4123
 10
338.2941
 20
194.4628
 10
338.4445
 20
194.5427
 10
338.5755
 20
194.6484
 10
338.6836
 20
194.7765
 10
338.7652
 20
194.9235
 10
338.8168
 20
195.0858
 10
338.8348
 20
195.26
 10
338.8168
 20
195.4346
 10
338.7652
 20
195.5973
 10
338.6836
 20
195.7445
 10
338.5755
 20
195.8728
 10
338.4445
 20
195.9786
 10
338.2941
 20
196.0585
 10
338.128
 20
196.109
 10
337.9496
 20
196.1266
  0
LWPOLYLINE
  5
91
330
1F
100
AcDbEntity
  8
Layer 1
 62
     7
370
    18
100
AcDbPolyline
 90
       33
 70
     1
 43
0.0
 10
334.5765
 20
221.0479
 10
333.708
 20
220.9711
 10
332.8991
 20
220.7509
 10
332.1671
 20
220.4023
 10
331.5293
 20
219.9407
 10
331.0031
 20
219.3812
 10
330.6058
 20
218.7389
 10
330.3547
 20
218.0291
 10
330.2671
 20
217.267
 10
330.3547
 20
216.5048
 10
330.6058
 20
215.7948
 10
331.0031
 20
215.1524
 10
331.5293
 20
214.5926
 10
332.1671
 20
214.1307
 10
332.8991
 20
213.782
 10
333.708
 20
213.5616
 10
334.5765
 20
213.4847
 10
335.445
 20
213.5616
 10
336.2539
 20
213.782
 10
336.9859
 20
214.1307
 10
337.6237
 20
214.5926
 10
338.1499
 20
215.1524
 10
338.5472
 20
215.7948
 10
338.7983
 20
216.5048
 10
338.8859
 20
217.267
 10
338.7983
 20
218.0291
 10
338.5472
 20
218.7389
 10
338.1499
 20
219.3812
 10
337.6237
 20
219.9407
 10
336.9859
 20
220.4023
 10
336.2539
 20
220.7509
 10
335.445
 20
220.9711
 10
334.5765
 20
221.0479
  0
LWPOLYLINE
  5
92
330
1F
100
AcDbEntity
  8
Layer 1
 62
     7
370
    18
100
AcDbPolyline
 90
       33
 70
     1
 43
0.0
 10
332.2705
 20
217.4029
 10
332.0921
 20
217.3854
 10
331.926
 20
217.335
 10
331.7756
 20
217.2554
 10
331.6446
 20
217.1498
 10
331.5365
 20
217.0218
 10
331.4549
 20
216.8748
 10
331.4033
 20
216.7123
 10
331.3853
 20
216.5377
 10
331.4033
 20
216.3631
 10
331.4549
 20
216.2006
 10
331.5365
 20
216.0536
 10
331.6446
 20
215.9256
 10
331.7756
 20
215.8201
 10
331.926
 20
215.7404
 10
332.0921
 20
215.69
 10
332.2705
 20
215.6725
 10
332.4488
 20
215.69
 10
332.615
 20
215.7404
 10
332.7653
 20
215.8201
 10
332.8964
 20
215.9256
 10
333.0045
 20
216.0536
 10
333.0861
 20
216.2006
 10
333.1377
 20
216.3631
 10
333.1557
 20
216.5377
 10
333.1377
 20
216.7123
 10
333.0861
 20
216.8748
 10
333.0045
 20
217.0218
 10
332.8964
 20
217.1498
 10
332.7653
 20
217.2554
 10
332.615
 20
217.335
 10
332.4488
 20
217.3854
 10
332.2705
 20
217.4029
  0
LWPOLYLINE
  5
93
330
1F
100
AcDbEntity
  8
Layer 1
 62
     7
370
    18
100
AcDbPolyline
 90
       33
 70
     1
 43
0.0
 10
323.9997
 20
240.1775
 10
323.1312
 20
240.1007
 10
322.3223
 20
239.8805
 10
321.5903
 20
239.5319
 10
320.9525
 20
239.0703
 10
320.4263
 20
238.5108
 10
320.029
 20
237.8685
 10
319.7779
 20
237.1587
 10
319.6903
 20
236.3966
 10
319.7779
 20
235.6345
 10
320.029
 20
234.9247
 10
320.4263
 20
234.2824
 10
320.9525
 20
233.7229
 10
321.5903
 20
233.2613
 10
322.3223
 20
232.9127
 10
323.1312
 20
232.6925
 10
323.9997
 20
232.6157
 10
324.8682
 20
232.6925
 10
325.6771
 20
232.9127
 10
326.4091
 20
233.2613
 10
327.0469
 20
233.7229
 10
327.5732
 20
234.2824
 10
327.9705
 20
234.9247
 10
328.2216
 20
235.6345
 10
328.3092
 20
236.3966
 10
328.2216
 20
237.1587
 10
327.9705
 20
237.8685
 10
327.5732
 20
238.5108
 10
327.0469
 20
239.0703
 10
326.4091
 20
239.5319
 10
325.6771
 20
239.8805
 10
324.8682
 20
240.1007
 10
323.9997
 20
240.1775
  0
LWPOLYLINE
  5
94
330
1F
100
AcDbEntity
  8
Layer 1
 62
     7
370
    18
100
AcDbPolyline
 90
       33
 70
     1
 43
0.0
 10
321.6937
 20
236.5325
 10
321.5153
 20
236.515
 10
321.3492
 20
236.4646
 10
321.1988
 20
236.3849
 10
321.0678
 20
236.2794
 10
320.9597
 20
236.1514
 10
320.8781
 20
236.0044
 10
320.8265
 20
235.8419
 10
320.8085
 20
235.6673
 10
320.8265
 20
235.4927
 10
320.8781
 20
235.3302
 10
320.9597
 20
235.1832
 10
321.0678
 20
235.0552
 10
321.1988
 20
234.9497
 10
321.3492
 20
234.87
 10
321.5153
 20
234.8196
 10
321.6937
 20
234.8021
 10
321.8721
 20
234.8196
 10
322.0382
 20
234.87
 10
322.1886
 20
234.9497
 10
322.3196
 20
235.0552
 10
322.4277
 20
235.1832
 10
322.5093
 20
235.3302
 10
322.5609
 20
235.4927
 10
322.5789
 20
235.6673
 10
322.5609
 20
235.8419
 10
322.5093
 20
236.0044
 10
322.4277
 20
236.1514
 10
322.3196
 20
236.2794
 10
322.1886
 20
236.3849
 10
322.0382
 20
236.4646
 10
321.8721
 20
236.515
 10
321.6937
 20
236.5325
  0
LWPOLYLINE
  5
95
330
1F
100
AcDbEntity
  8
Layer 1
 62
     7
370
    18
100
AcDbPolyline
 90
       33
 70
     1
 43
0.0
 10
291.9255
 20
160.1444
 10
291.2448
 20
160.0676
 10
290.6108
 20
159.8474
 10
290.0371
 20
159.4988
 10
289.5373
 20
159.0372
 10
289.1249
 20
158.4777
 10
288.8136
 20
157.8355
 10
288.6168
 20
157.1257
 10
288.5482
 20
156.3636
 10
288.6168
 20
155.6014
 10
288.8136
 20
154.8914
 10
289.1249
 20
154.2489
 10
289.5373
 20
153.6891
 10
290.0371
 20
153.2272
 10
290.6108
 20
152.8785
 10
291.2448
 20
152.6581
 10
291.9255
 20
152.5812
 10
292.6067
 20
152.6581
 10
293.2411
 20
152.8785
 10
293.815
 20
153.2272
 10
294.315
 20
153.6891
 10
294.7275
 20
154.2489
 10
295.0389
 20
154.8914
 10
295.2357
 20
155.6014
 10
295.3043
 20
156.3636
 10
295.2357
 20
157.1257
 10
295.0389
 20
157.8355
 10
294.7275
 20
158.4777
 10
294.315
 20
159.0372
 10
293.815
 20
159.4988
 10
293.2411
 20
159.8474
 10
292.6067
 20
160.0676
 10
291.9255
 20
160.1444
  0
LWPOLYLINE
  5
96
330
1F
100
AcDbEntity
  8
Layer 1
 62
     7
370
    18
100
AcDbPolyline
 90
       33
 70
     1
 43
0.0
 10
290.1182
 20
156.4995
 10
289.9783
 20
156.482
 10
289.848
 20
156.4316
 10
289.7302
 20
156.3519
 10
289.6277
 20
156.2464
 10
289.5431
 20
156.1184
 10
289.4792
 20
155.9714
 10
289.4389
 20
155.8089
 10
289.4248
 20
155.6343
 10
289.4389
 20
155.4597
 10
289.4792
 20
155.2972
 10
289.5431
 20
155.1502
 10
289.6277
 20
155.0222
 10
289.7302
 20
154.9167
 10
289.848
 20
154.837
 10
289.9783
 20
154.7866
 10
290.1182
 20
154.7691
 10
290.2582
 20
154.7866
 10
290.3886
 20
154.837
 10
290.5066
 20
154.9167
 10
290.6095
 20
155.0222
 10
290.6943
 20
155.1502
 10
290.7584
 20
155.2972
 10
290.7989
 20
155.4597
 10
290.813
 20
155.6343
 10
290.7989
 20
155.8089
 10
290.7584
 20
155.9714
 10
290.6943
 20
156.1184
 10
290.6095
 20
156.2464
 10
290.5066
 20
156.3519
 10
290.3886
 20
156.4316
 10
290.2582
 20
156.482
 10
290.1182
 20
156.4995
  0
LWPOLYLINE
  5
97
330
1F
100
AcDbEntity
  8
Layer 1
 62
     7
370
    18
100
AcDbPolyline
 90
       33
 70
     1
 43
0.0
 10
272.3406
 20
160.1444
 10
271.6594
 20
160.0676
 10
271.025
 20
159.8474
 10
270.4511
 20
159.4988
 10
269.9511
 20
159.0372
 10
269.5386
 20
158.4777
 10
269.2272
 20
157.8355
 10
269.0304
 20
157.1257
 10
268.9618
 20
156.3636
 10
269.0304
 20
155.6014
 10
269.2272
 20
154.8914
 10
269.5386
 20
154.2489
 10
269.9511
 20
153.6891
 10
270.4511
 20
153.2272
 10
271.025
 20
152.8785
 10
271.6594
 20
152.6581
 10
272.3406
 20
152.5812
 10
273.0213
 20
152.6581
 10
273.6554
 20
152.8785
 10
274.229
 20
153.2272
 10
274.7289
 20
153.6891
 10
275.1412
 20
154.2489
 10
275.4525
 20
154.8914
 10
275.6493
 20
155.6014
 10
275.7179
 20
156.3636
 10
275.6493
 20
157.1257
 10
275.4525
 20
157.8355
 10
275.1412
 20
158.4777
 10
274.7289
 20
159.0372
 10
274.229
 20
159.4988
 10
273.6554
 20
159.8474
 10
273.0213
 20
160.0676
 10
272.3406
 20
160.1444
  0
LWPOLYLINE
  5
98
330
1F
100
AcDbEntity
  8
Layer 1
 62
     7
370
    18
100
AcDbPolyline
 90
       33
 70
     1
 43
0.0
 10
270.5318
 20
156.4995
 10
270.3919
 20
156.482
 10
270.2616
 20
156.4316
 10
270.1439
 20
156.3519
 10
270.0413
 20
156.2464
 10
269.9567
 20
156.1184
 10
269.8929
 20
155.9714
 10
269.8526
 20
155.8089
 10
269.8385
 20
155.6343
 10
269.8526
 20
155.4597
 10
269.8929
 20
155.2972
 10
269.9567
 20
155.1502
 10
270.0413
 20
155.0222
 10
270.1439
 20
154.9167
 10
270.2616
 20
154.837
 10
270.3919
 20
154.7866
 10
270.5318
 20
154.7691
 10
270.6718
 20
154.7866
 10
270.8022
 20
154.837
 10
270.9203
 20
154.9167
 10
271.0231
 20
155.0222
 10
271.1079
 20
155.1502
 10
271.172
 20
155.2972
 10
271.2125
 20
155.4597
 10
271.2266
 20
155.6343
 10
271.2125
 20
155.8089
 10
271.172
 20
155.9714
 10
271.1079
 20
156.1184
 10
271.0231
 20
156.2464
 10
270.9203
 20
156.3519
 10
270.8022
 20
156.4316
 10
270.6718
 20
156.482
 10
270.5318
 20
156.4995
  0
LWPOLYLINE
  5
99
330
1F
100
AcDbEntity
  8
Layer 1
 62
     7
370
    18
100
AcDbPolyline
 90
       33
 70
     1
 43
0.0
 10
253.9293
 20
173.614
 10
253.2485
 20
173.5371
 10
252.6143
 20
173.3167
 10
252.0404
 20
172.968
 10
251.5403
 20
172.5061
 10
251.1277
 20
171.9463
 10
250.8161
 20
171.3039
 10
250.6192
 20
170.5939
 10
250.5505
 20
169.8317
 10
250.6192
 20
169.0696
 10
250.8161
 20
168.3598
 10
251.1277
 20
167.7175
 10
251.5403
 20
167.158
 10
252.0404
 20
166.6964
 10
252.6143
 20
166.3478
 10
253.2485
 20
166.1276
 10
253.9293
 20
166.0508
 10
254.61
 20
166.1276
 10
255.244
 20
166.3478
 10
255.8177
 20
166.6964
 10
256.3175
 20
167.158
 10
256.7299
 20
167.7175
 10
257.0412
 20
168.3598
 10
257.238
 20
169.0696
 10
257.3066
 20
169.8317
 10
257.238
 20
170.5939
 10
257.0412
 20
171.3039
 10
256.7299
 20
171.9463
 10
256.3175
 20
172.5061
 10
255.8177
 20
172.968
 10
255.244
 20
173.3167
 10
254.61
 20
173.5371
 10
253.9293
 20
173.614
  0
LWPOLYLINE
  5
9A
330
1F
100
AcDbEntity
  8
Layer 1
 62
     7
370
    18
100
AcDbPolyline
 90
       33
 70
     1
 43
0.0
 10
252.1205
 20
169.9691
 10
251.981
 20
169.9515
 10
251.8509
 20
169.901
 10
251.7331
 20
169.8211
 10
251.6305
 20
169.7153
 10
251.5457
 20
169.587
 10
251.4817
 20
169.4398
 10
251.4412
 20
169.2771
 10
251.4271
 20
169.1025
 10
251.4412
 20
168.9283
 10
251.4817
 20
168.7659
 10
251.5457
 20
168.619
 10
251.6305
 20
168.4909
 10
251.7331
 20
168.3851
 10
251.8509
 20
168.3053
 10
251.981
 20
168.2548
 10
252.1205
 20
168.2372
 10
252.2605
 20
168.2548
 10
252.3909
 20
168.3053
 10
252.5089
 20
168.3851
 10
252.6118
 20
168.4909
 10
252.6966
 20
168.619
 10
252.7607
 20
168.7659
 10
252.8012
 20
168.9283
 10
252.8153
 20
169.1025
 10
252.8012
 20
169.2771
 10
252.7607
 20
169.4398
 10
252.6966
 20
169.587
 10
252.6118
 20
169.7153
 10
252.5089
 20
169.8211
 10
252.3909
 20
169.901
 10
252.2605
 20
169.9515
 10
252.1205
 20
169.9691
  0
LWPOLYLINE
  5
9B
330
1F
100
AcDbEntity
  8
Layer 1
 62
     7
370
    18
100
AcDbPolyline
 90
       33
 70
     1
 43
0.0
 10
244.5275
 20
195.8675
 10
243.8468
 20
195.7906
 10
243.2127
 20
195.5702
 10
242.6391
 20
195.2215
 10
242.1393
 20
194.7596
 10
241.7269
 20
194.1998
 10
241.4156
 20
193.5573
 10
241.2188
 20
192.8474
 10
241.1502
 20
192.0852
 10
241.2188
 20
191.3231
 10
241.4156
 20
190.6133
 10
241.7269
 20
189.971
 10
242.1393
 20
189.4115
 10
242.6391
 20
188.9499
 10
243.2127
 20
188.6013
 10
243.8468
 20
188.3811
 10
244.5275
 20
188.3043
 10
245.2083
 20
188.3811
 10
245.8425
 20
188.6013
 10
246.4164
 20
188.9499
 10
246.9165
 20
189.4115
 10
247.3291
 20
189.971
 10
247.6407
 20
190.6133
 10
247.8376
 20
191.3231
 10
247.9063
 20
192.0852
 10
247.8376
 20
192.8474
 10
247.6407
 20
193.5573
 10
247.3291
 20
194.1998
 10
246.9165
 20
194.7596
 10
246.4164
 20
195.2215
 10
245.8425
 20
195.5702
 10
245.2083
 20
195.7906
 10
244.5275
 20
195.8675
  0
LWPOLYLINE
  5
9C
330
1F
100
AcDbEntity
  8
Layer 1
 62
     7
370
    18
100
AcDbPolyline
 90
       33
 70
     1
 43
0.0
 10
242.7202
 20
192.2225
 10
242.5802
 20
192.2049
 10
242.4498
 20
192.1544
 10
242.3318
 20
192.0745
 10
242.229
 20
191.9687
 10
242.1441
 20
191.8404
 10
242.08
 20
191.6932
 10
242.0395
 20
191.5305
 10
242.0254
 20
191.3559
 10
242.0395
 20
191.1817
 10
242.08
 20
191.0194
 10
242.1441
 20
190.8724
 10
242.229
 20
190.7444
 10
242.3318
 20
190.6386
 10
242.4498
 20
190.5588
 10
242.5802
 20
190.5083
 10
242.7202
 20
190.4907
 10
242.8601
 20
190.5083
 10
242.9904
 20
190.5588
 10
243.1082
 20
190.6386
 10
243.2108
 20
190.7444
 10
243.2953
 20
190.8724
 10
243.3592
 20
191.0194
 10
243.3995
 20
191.1817
 10
243.4136
 20
191.3559
 10
243.3995
 20
191.5305
 10
243.3592
 20
191.6932
 10
243.2953
 20
191.8404
 10
243.2108
 20
191.9687
 10
243.1082
 20
192.0745
 10
242.9904
 20
192.1544
 10
242.8601
 20
192.2049
 10
242.7202
 20
192.2225
  0
LWPOLYLINE
  5
9D
330
1F
100
AcDbEntity
  8
Layer 1
 62
     7
370
    18
100
AcDbPolyline
 90
       33
 70
     1
 43
0.0
 10
245.8986
 20
219.0965
 10
245.2178
 20
219.0196
 10
244.5837
 20
218.7992
 10
244.0098
 20
218.4505
 10
243.5097
 20
217.9886
 10
243.0971
 20
217.4288
 10
242.7855
 20
216.7864
 10
242.5886
 20
216.0764
 10
242.5199
 20
215.3142
 10
242.5886
 20
214.5521
 10
242.7855
 20
213.8423
 10
243.0971
 20
213.2001
 10
243.5097
 20
212.6406
 10
244.0098
 20
212.179
 10
244.5837
 20
211.8304
 10
245.2178
 20
211.6102
 10
245.8986
 20
211.5334
 10
246.5794
 20
211.6102
 10
247.2134
 20
211.8304
 10
247.7871
 20
212.179
 10
248.2869
 20
212.6406
 10
248.6993
 20
213.2001
 10
249.0106
 20
213.8423
 10
249.2074
 20
214.5521
 10
249.276
 20
215.3142
 10
249.2074
 20
216.0764
 10
249.0106
 20
216.7864
 10
248.6993
 20
217.4288
 10
248.2869
 20
217.9886
 10
247.7871
 20
218.4505
 10
247.2134
 20
218.7992
 10
246.5794
 20
219.0196
 10
245.8986
 20
219.0965
  0
LWPOLYLINE
  5
9E
330
1F
100
AcDbEntity
  8
Layer 1
 62
     7
370
    18
100
AcDbPolyline
 90
       33
 70
     1
 43
0.0
 10
244.0913
 20
215.4502
 10
243.9513
 20
215.4327
 10
243.8209
 20
215.3823
 10
243.7029
 20
215.3026
 10
243.6001
 20
215.1971
 10
243.5152
 20
215.0691
 10
243.4511
 20
214.9221
 10
243.4106
 20
214.7596
 10
243.3965
 20
214.585
 10
243.4106
 20
214.4108
 10
243.4511
 20
214.2485
 10
243.5152
 20
214.1015
 10
243.6001
 20
213.9735
 10
243.7029
 20
213.8677
 10
243.8209
 20
213.7879
 10
243.9513
 20
213.7374
 10
244.0913
 20
213.7198
 10
244.2308
 20
213.7374
 10
244.3609
 20
213.7879
 10
244.4787
 20
213.8677
 10
244.5813
 20
213.9735
 10
244.6661
 20
214.1015
 10
244.7301
 20
214.2485
 10
244.7706
 20
214.4108
 10
244.7847
 20
214.585
 10
244.7706
 20
214.7596
 10
244.7301
 20
214.9221
 10
244.6661
 20
215.0691
 10
244.5813
 20
215.1971
 10
244.4787
 20
215.3026
 10
244.3609
 20
215.3823
 10
244.2308
 20
215.4327
 10
244.0913
 20
215.4502
  0
LWPOLYLINE
  5
9F
330
1F
100
AcDbEntity
  8
Layer 1
 62
     7
370
    18
100
AcDbPolyline
 90
       33
 70
     1
 43
0.0
 10
259.0216
 20
234.0289
 10
258.3408
 20
233.952
 10
257.7066
 20
233.7316
 10
257.1327
 20
233.3829
 10
256.6326
 20
232.921
 10
256.22
 20
232.3612
 10
255.9084
 20
231.7188
 10
255.7115
 20
231.0088
 10
255.6428
 20
230.2466
 10
255.7115
 20
229.4845
 10
255.9084
 20
228.7747
 10
256.22
 20
228.1324
 10
256.6326
 20
227.5729
 10
257.1327
 20
227.1113
 10
257.7066
 20
226.7627
 10
258.3408
 20
226.5425
 10
259.0216
 20
226.4657
 10
259.7023
 20
226.5425
 10
260.3363
 20
226.7627
 10
260.91
 20
227.1113
 10
261.4098
 20
227.5729
 10
261.8222
 20
228.1324
 10
262.1335
 20
228.7747
 10
262.3303
 20
229.4845
 10
262.3989
 20
230.2466
 10
262.3303
 20
231.0088
 10
262.1335
 20
231.7188
 10
261.8222
 20
232.3612
 10
261.4098
 20
232.921
 10
260.91
 20
233.3829
 10
260.3363
 20
233.7316
 10
259.7023
 20
233.952
 10
259.0216
 20
234.0289
  0
LWPOLYLINE
  5
A0
330
1F
100
AcDbEntity
  8
Layer 1
 62
     7
370
    18
100
AcDbPolyline
 90
       33
 70
     1
 43
0.0
 10
257.2128
 20
230.384
 10
257.0733
 20
230.3664
 10
256.9432
 20
230.3159
 10
256.8255
 20
230.236
 10
256.7228
 20
230.1302
 10
256.6381
 20
230.0019
 10
256.5741
 20
229.8547
 10
256.5336
 20
229.692
 10
256.5195
 20
229.5174
 10
256.5336
 20
229.3432
 10
256.5741
 20
229.1808
 10
256.6381
 20
229.0339
 10
256.7228
 20
228.9058
 10
256.8255
 20
228.8
 10
256.9432
 20
228.7202
 10
257.0733
 20
228.6697
 10
257.2128
 20
228.6521
 10
257.3528
 20
228.6697
 10
257.4832
 20
228.7202
 10
257.6013
 20
228.8
 10
257.7041
 20
228.9058
 10
257.7889
 20
229.0339
 10
257.853
 20
229.1808
 10
257.8935
 20
229.3432
 10
257.9076
 20
229.5174
 10
257.8935
 20
229.692
 10
257.853
 20
229.8547
 10
257.7889
 20
230.0019
 10
257.7041
 20
230.1302
 10
257.6013
 20
230.236
 10
257.4832
 20
230.3159
 10
257.3528
 20
230.3664
 10
257.2128
 20
230.384
  0
LWPOLYLINE
  5
A1
330
1F
100
AcDbEntity
  8
Layer 1
 62
     7
370
    18
100
AcDbPolyline
 90
       33
 70
     1
 43
0.0
 10
279.0967
 20
235.0046
 10
278.416
 20
234.9278
 10
277.7819
 20
234.7076
 10
277.2083
 20
234.359
 10
276.7085
 20
233.8974
 10
276.2961
 20
233.3379
 10
275.9848
 20
232.6956
 10
275.788
 20
231.9858
 10
275.7194
 20
231.2237
 10
275.788
 20
230.4615
 10
275.9848
 20
229.7515
 10
276.2961
 20
229.1091
 10
276.7085
 20
228.5493
 10
277.2083
 20
228.0874
 10
277.7819
 20
227.7387
 10
278.416
 20
227.5183
 10
279.0967
 20
227.4414
 10
279.7775
 20
227.5183
 10
280.4117
 20
227.7387
 10
280.9856
 20
228.0874
 10
281.4857
 20
228.5493
 10
281.8983
 20
229.1091
 10
282.2099
 20
229.7515
 10
282.4068
 20
230.4615
 10
282.4755
 20
231.2237
 10
282.4068
 20
231.9858
 10
282.2099
 20
232.6956
 10
281.8983
 20
233.3379
 10
281.4857
 20
233.8974
 10
280.9856
 20
234.359
 10
280.4117
 20
234.7076
 10
279.7775
 20
234.9278
 10
279.0967
 20
235.0046
  0
LWPOLYLINE
  5
A2
330
1F
100
AcDbEntity
  8
Layer 1
 62
     7
370
    18
100
AcDbPolyline
 90
       33
 70
     1
 43
0.0
 10
277.2894
 20
231.3597
 10
277.1495
 20
231.3421
 10
277.0192
 20
231.2916
 10
276.9014
 20
231.2118
 10
276.7989
 20
231.106
 10
276.7143
 20
230.9779
 10
276.6504
 20
230.831
 10
276.6101
 20
230.6686
 10
276.596
 20
230.4944
 10
276.6101
 20
230.3198
 10
276.6504
 20
230.1571
 10
276.7143
 20
230.0099
 10
276.7989
 20
229.8816
 10
276.9014
 20
229.7758
 10
277.0192
 20
229.6959
 10
277.1495
 20
229.6454
 10
277.2894
 20
229.6278
 10
277.4293
 20
229.6454
 10
277.5596
 20
229.6959
 10
277.6774
 20
229.7758
 10
277.78
 20
229.8816
 10
277.8645
 20
230.0099
 10
277.9284
 20
230.1571
 10
277.9687
 20
230.3198
 10
277.9828
 20
230.4944
 10
277.9687
 20
230.6686
 10
277.9284
 20
230.831
 10
277.8645
 20
230.9779
 10
277.78
 20
231.106
 10
277.6774
 20
231.2118
 10
277.5596
 20
231.2916
 10
277.4293
 20
231.3421
 10
277.2894
 20
231.3597
  0
LWPOLYLINE
  5
A3
330
1F
100
AcDbEntity
  8
Layer 1
 62
     7
370
    18
100
AcDbPolyline
 90
       33
 70
     1
 43
0.0
 10
297.7041
 20
220.7548
 10
297.0233
 20
220.678
 10
296.3891
 20
220.4578
 10
295.8152
 20
220.1092
 10
295.3151
 20
219.6476
 10
294.9025
 20
219.0881
 10
294.5909
 20
218.4458
 10
294.394
 20
217.736
 10
294.3253
 20
216.9739
 10
294.394
 20
216.2117
 10
294.5909
 20
215.5017
 10
294.9025
 20
214.8593
 10
295.3151
 20
214.2995
 10
295.8152
 20
213.8376
 10
296.3891
 20
213.4889
 10
297.0233
 20
213.2685
 10
297.7041
 20
213.1916
 10
298.3849
 20
213.2685
 10
299.0191
 20
213.4889
 10
299.593
 20
213.8376
 10
300.0931
 20
214.2995
 10
300.5057
 20
214.8593
 10
300.8173
 20
215.5017
 10
301.0142
 20
216.2117
 10
301.0829
 20
216.9739
 10
301.0142
 20
217.736
 10
300.8173
 20
218.4458
 10
300.5057
 20
219.0881
 10
300.0931
 20
219.6476
 10
299.593
 20
220.1092
 10
299.0191
 20
220.4578
 10
298.3849
 20
220.678
 10
297.7041
 20
220.7548
  0
LWPOLYLINE
  5
A4
330
1F
100
AcDbEntity
  8
Layer 1
 62
     7
370
    18
100
AcDbPolyline
 90
       33
 70
     1
 43
0.0
 10
295.8968
 20
217.1098
 10
295.7568
 20
217.0922
 10
295.6264
 20
217.0417
 10
295.5084
 20
216.9619
 10
295.4056
 20
216.8562
 10
295.3207
 20
216.7281
 10
295.2566
 20
216.5811
 10
295.2161
 20
216.4188
 10
295.202
 20
216.2446
 10
295.2161
 20
216.07
 10
295.2566
 20
215.9075
 10
295.3207
 20
215.7605
 10
295.4056
 20
215.6325
 10
295.5084
 20
215.527
 10
295.6264
 20
215.4473
 10
295.7568
 20
215.3969
 10
295.8968
 20
215.3794
 10
296.0363
 20
215.3969
 10
296.1664
 20
215.4473
 10
296.2842
 20
215.527
 10
296.3868
 20
215.6325
 10
296.4716
 20
215.7605
 10
296.5356
 20
215.9075
 10
296.5761
 20
216.07
 10
296.5902
 20
216.2446
 10
296.5761
 20
216.4188
 10
296.5356
 20
216.5811
 10
296.4716
 20
216.7281
 10
296.3868
 20
216.8562
 10
296.2842
 20
216.9619
 10
296.1664
 20
217.0417
 10
296.0363
 20
217.0922
 10
295.8968
 20
217.1098
  0
LWPOLYLINE
  5
A5
330
1F
100
AcDbEntity
  8
Layer 1
 62
     7
370
    18
100
AcDbPolyline
 90
       33
 70
     1
 43
0.0
 10
308.2809
 20
197.9165
 10
307.6001
 20
197.8396
 10
306.9659
 20
197.6192
 10
306.392
 20
197.2705
 10
305.8919
 20
196.8086
 10
305.4793
 20
196.2488
 10
305.1677
 20
195.6064
 10
304.9708
 20
194.8964
 10
304.9021
 20
194.1342
 10
304.9708
 20
193.3721
 10
305.1677
 20
192.6623
 10
305.4793
 20
192.02
 10
305.8919
 20
191.4605
 10
306.392
 20
190.9989
 10
306.9659
 20
190.6503
 10
307.6001
 20
190.4301
 10
308.2809
 20
190.3533
 10
308.9617
 20
190.4301
 10
309.5957
 20
190.6503
 10
310.1694
 20
190.9989
 10
310.6692
 20
191.4605
 10
311.0816
 20
192.02
 10
311.3929
 20
192.6623
 10
311.5897
 20
193.3721
 10
311.6583
 20
194.1342
 10
311.5897
 20
194.8964
 10
311.3929
 20
195.6064
 10
311.0816
 20
196.2488
 10
310.6692
 20
196.8086
 10
310.1694
 20
197.2705
 10
309.5957
 20
197.6192
 10
308.9617
 20
197.8396
 10
308.2809
 20
197.9165
  0
LWPOLYLINE
  5
A6
330
1F
100
AcDbEntity
  8
Layer 1
 62
     7
370
    18
100
AcDbPolyline
 90
       33
 70
     1
 43
0.0
 10
306.4722
 20
194.2716
 10
306.3327
 20
194.254
 10
306.2026
 20
194.2035
 10
306.0848
 20
194.1236
 10
305.9822
 20
194.0178
 10
305.8974
 20
193.8895
 10
305.8334
 20
193.7423
 10
305.7929
 20
193.5796
 10
305.7788
 20
193.4049
 10
305.7929
 20
193.2307
 10
305.8334
 20
193.0684
 10
305.8974
 20
192.9214
 10
305.9822
 20
192.7934
 10
306.0848
 20
192.6876
 10
306.2026
 20
192.6078
 10
306.3327
 20
192.5573
 10
306.4722
 20
192.5397
 10
306.6122
 20
192.5573
 10
306.7426
 20
192.6078
 10
306.8606
 20
192.6876
 10
306.9635
 20
192.7934
 10
307.0483
 20
192.9214
 10
307.1124
 20
193.0684
 10
307.1529
 20
193.2307
 10
307.167
 20
193.4049
 10
307.1529
 20
193.5796
 10
307.1124
 20
193.7423
 10
307.0483
 20
193.8895
 10
306.9635
 20
194.0178
 10
306.8606
 20
194.1236
 10
306.7426
 20
194.2035
 10
306.6122
 20
194.254
 10
306.4722
 20
194.2716
  0
LWPOLYLINE
  5
A7
330
1F
100
AcDbEntity
  8
Layer 1
 62
     7
370
    18
100
AcDbPolyline
 90
       33
 70
     1
 43
0.0
 10
305.5387
 20
174.8828
 10
304.8579
 20
174.8059
 10
304.2237
 20
174.5855
 10
303.6498
 20
174.2368
 10
303.1497
 20
173.7749
 10
302.7371
 20
173.2151
 10
302.4255
 20
172.5727
 10
302.2286
 20
171.8627
 10
302.1599
 20
171.1005
 10
302.2286
 20
170.3384
 10
302.4255
 20
169.6286
 10
302.7371
 20
168.9863
 10
303.1497
 20
168.4268
 10
303.6498
 20
167.9652
 10
304.2237
 20
167.6166
 10
304.8579
 20
167.3964
 10
305.5387
 20
167.3196
 10
306.2194
 20
167.3964
 10
306.8534
 20
167.6166
 10
307.4271
 20
167.9652
 10
307.9269
 20
168.4268
 10
308.3393
 20
168.9863
 10
308.6506
 20
169.6286
 10
308.8474
 20
170.3384
 10
308.916
 20
171.1005
 10
308.8474
 20
171.8627
 10
308.6506
 20
172.5727
 10
308.3393
 20
173.2151
 10
307.9269
 20
173.7749
 10
307.4271
 20
174.2368
 10
306.8534
 20
174.5855
 10
306.2194
 20
174.8059
 10
305.5387
 20
174.8828
  0
LWPOLYLINE
  5
A8
330
1F
100
AcDbEntity
  8
Layer 1
 62
     7
370
    18
100
AcDbPolyline
 90
       33
 70
     1
 43
0.0
 10
303.7299
 20
171.2379
 10
303.5904
 20
171.2203
 10
303.4603
 20
171.1698
 10
303.3426
 20
171.0899
 10
303.2399
 20
170.9841
 10
303.1552
 20
170.8558
 10
303.0912
 20
170.7086
 10
303.0507
 20
170.5459
 10
303.0366
 20
170.3712
 10
303.0507
 20
170.197
 10
303.0912
 20
170.0347
 10
303.1552
 20
169.8877
 10
303.2399
 20
169.7597
 10
303.3426
 20
169.6539
 10
303.4603
 20
169.5741
 10
303.5904
 20
169.5236
 10
303.7299
 20
169.506
 10
303.8699
 20
169.5236
 10
304.0003
 20
169.5741
 10
304.1184
 20
169.6539
 10
304.2212
 20
169.7597
 10
304.306
 20
169.8877
 10
304.3701
 20
170.0347
 10
304.4106
 20
170.197
 10
304.4247
 20
170.3712
 10
304.4106
 20
170.5459
 10
304.3701
 20
170.7086
 10
304.306
 20
170.8558
 10
304.2212
 20
170.9841
 10
304.1184
 20
171.0899
 10
304.0003
 20
171.1698
 10
303.8699
 20
171.2203
 10
303.7299
 20
171.2379
  0
LWPOLYLINE
  5
A9
330
1F
100
AcDbEntity
  8
Layer 1
 62
     7
370
    18
100
AcDbPolyline
 90
       33
 70
     1
 43
0.0
 10
305.5884
 20
236.0794
 10
304.7199
 20
236.0025
 10
303.911
 20
235.7821
 10
303.179
 20
235.4334
 10
302.5412
 20
234.9715
 10
302.015
 20
234.4117
 10
301.6177
 20
233.7693
 10
301.3666
 20
233.0593
 10
301.279
 20
232.2971
 10
301.3666
 20
231.535
 10
301.6177
 20
230.8252
 10
302.015
 20
230.1829
 10
302.5412
 20
229.6234
 10
303.179
 20
229.1618
 10
303.911
 20
228.8132
 10
304.7199
 20
228.593
 10
305.5884
 20
228.5162
 10
306.4569
 20
228.593
 10
307.2658
 20
228.8132
 10
307.9978
 20
229.1618
 10
308.6356
 20
229.6234
 10
309.1618
 20
230.1829
 10
309.5591
 20
230.8252
 10
309.8102
 20
231.535
 10
309.8978
 20
232.2971
 10
309.8102
 20
233.0593
 10
309.5591
 20
233.7693
 10
309.1618
 20
234.4117
 10
308.6356
 20
234.9715
 10
307.9978
 20
235.4334
 10
307.2658
 20
235.7821
 10
306.4569
 20
236.0025
 10
305.5884
 20
236.0794
  0
LWPOLYLINE
  5
AA
330
1F
100
AcDbEntity
  8
Layer 1
 62
     7
370
    18
100
AcDbPolyline
 90
       33
 70
     1
 43
0.0
 10
303.2824
 20
232.4344
 10
303.104
 20
232.4168
 10
302.9379
 20
232.3663
 10
302.7875
 20
232.2864
 10
302.6565
 20
232.1806
 10
302.5484
 20
232.0523
 10
302.4668
 20
231.9051
 10
302.4152
 20
231.7424
 10
302.3972
 20
231.5678
 10
302.4152
 20
231.3936
 10
302.4668
 20
231.2313
 10
302.5484
 20
231.0843
 10
302.6565
 20
230.9563
 10
302.7875
 20
230.8505
 10
302.9379
 20
230.7707
 10
303.104
 20
230.7202
 10
303.2824
 20
230.7026
 10
303.4607
 20
230.7202
 10
303.6269
 20
230.7707
 10
303.7772
 20
230.8505
 10
303.9082
 20
230.9563
 10
304.0163
 20
231.0843
 10
304.0979
 20
231.2313
 10
304.1495
 20
231.3936
 10
304.1675
 20
231.5678
 10
304.1495
 20
231.7424
 10
304.0979
 20
231.9051
 10
304.0163
 20
232.0523
 10
303.9082
 20
232.1806
 10
303.7772
 20
232.2864
 10
303.6269
 20
232.3663
 10
303.4607
 20
232.4168
 10
303.2824
 20
232.4344
  0
LWPOLYLINE
  5
AB
330
1F
100
AcDbEntity
  8
Layer 1
 62
     7
370
    18
100
AcDbPolyline
 90
       33
 70
     1
 43
0.0
 10
293.4458
 20
246.4251
 10
292.5769
 20
246.3482
 10
291.7678
 20
246.1278
 10
291.0358
 20
245.7791
 10
290.3981
 20
245.3172
 10
289.872
 20
244.7574
 10
289.4749
 20
244.115
 10
289.2239
 20
243.405
 10
289.1364
 20
242.6428
 10
289.2239
 20
241.8807
 10
289.4749
 20
241.1709
 10
289.872
 20
240.5286
 10
290.3981
 20
239.9691
 10
291.0358
 20
239.5075
 10
291.7678
 20
239.159
 10
292.5769
 20
238.9388
 10
293.4458
 20
238.862
 10
294.3143
 20
238.9388
 10
295.1232
 20
239.159
 10
295.8553
 20
239.5075
 10
296.4931
 20
239.9691
 10
297.0193
 20
240.5286
 10
297.4166
 20
241.1709
 10
297.6677
 20
241.8807
 10
297.7553
 20
242.6428
 10
297.6677
 20
243.405
 10
297.4166
 20
244.115
 10
297.0193
 20
244.7574
 10
296.4931
 20
245.3172
 10
295.8553
 20
245.7791
 10
295.1232
 20
246.1278
 10
294.3143
 20
246.3482
 10
293.4458
 20
246.4251
  0
LWPOLYLINE
  5
AC
330
1F
100
AcDbEntity
  8
Layer 1
 62
     7
370
    18
100
AcDbPolyline
 90
       33
 70
     1
 43
0.0
 10
291.1384
 20
242.7802
 10
290.9601
 20
242.7626
 10
290.7941
 20
242.7121
 10
290.644
 20
242.6322
 10
290.5132
 20
242.5264
 10
290.4054
 20
242.3981
 10
290.324
 20
242.2509
 10
290.2725
 20
242.0882
 10
290.2546
 20
241.9136
 10
290.2725
 20
241.7394
 10
290.324
 20
241.5771
 10
290.4054
 20
241.4301
 10
290.5132
 20
241.3021
 10
290.644
 20
241.1963
 10
290.7941
 20
241.1165
 10
290.9601
 20
241.066
 10
291.1384
 20
241.0484
 10
291.3172
 20
241.066
 10
291.4835
 20
241.1165
 10
291.6339
 20
241.1963
 10
291.7648
 20
241.3021
 10
291.8728
 20
241.4301
 10
291.9542
 20
241.5771
 10
292.0057
 20
241.7394
 10
292.0236
 20
241.9136
 10
292.0057
 20
242.0882
 10
291.9542
 20
242.2509
 10
291.8728
 20
242.3981
 10
291.7648
 20
242.5264
 10
291.6339
 20
242.6322
 10
291.4835
 20
242.7121
 10
291.3172
 20
242.7626
 10
291.1384
 20
242.7802
  0
LWPOLYLINE
  5
AD
330
1F
100
AcDbEntity
  8
Layer 1
 62
     7
370
    18
100
AcDbPolyline
 90
       33
 70
     1
 43
0.0
 10
279.7347
 20
252.6714
 10
278.8662
 20
252.5945
 10
278.0573
 20
252.3741
 10
277.3253
 20
252.0254
 10
276.6875
 20
251.5635
 10
276.1612
 20
251.0037
 10
275.7639
 20
250.3613
 10
275.5128
 20
249.6513
 10
275.4252
 20
248.8891
 10
275.5128
 20
248.127
 10
275.7639
 20
247.4172
 10
276.1612
 20
246.7749
 10
276.6875
 20
246.2154
 10
277.3253
 20
245.7538
 10
278.0573
 20
245.4052
 10
278.8662
 20
245.185
 10
279.7347
 20
245.1082
 10
280.6032
 20
245.185
 10
281.4121
 20
245.4052
 10
282.1441
 20
245.7538
 10
282.7819
 20
246.2154
 10
283.3081
 20
246.7749
 10
283.7054
 20
247.4172
 10
283.9565
 20
248.127
 10
284.0441
 20
248.8891
 10
283.9565
 20
249.6513
 10
283.7054
 20
250.3613
 10
283.3081
 20
251.0037
 10
282.7819
 20
251.5635
 10
282.1441
 20
252.0254
 10
281.4121
 20
252.3741
 10
280.6032
 20
252.5945
 10
279.7347
 20
252.6714
  0
LWPOLYLINE
  5
AE
330
1F
100
AcDbEntity
  8
Layer 1
 62
     7
370
    18
100
AcDbPolyline
 90
       33
 70
     1
 43
0.0
 10
277.4286
 20
249.0265
 10
277.2503
 20
249.0089
 10
277.0841
 20
248.9584
 10
276.9338
 20
248.8785
 10
276.8027
 20
248.7727
 10
276.6946
 20
248.6444
 10
276.613
 20
248.4972
 10
276.5614
 20
248.3345
 10
276.5434
 20
248.1598
 10
276.5614
 20
247.9856
 10
276.613
 20
247.8233
 10
276.6946
 20
247.6763
 10
276.8027
 20
247.5483
 10
276.9338
 20
247.4425
 10
277.0841
 20
247.3627
 10
277.2503
 20
247.3122
 10
277.4286
 20
247.2946
 10
277.607
 20
247.3122
 10
277.7731
 20
247.3627
 10
277.9235
 20
247.4425
 10
278.0545
 20
247.5483
 10
278.1626
 20
247.6763
 10
278.2442
 20
247.8233
 10
278.2958
 20
247.9856
 10
278.3138
 20
248.1598
 10
278.2958
 20
248.3345
 10
278.2442
 20
248.4972
 10
278.1626
 20
248.6444
 10
278.0545
 20
248.7727
 10
277.9235
 20
248.8785
 10
277.7731
 20
248.9584
 10
277.607
 20
249.0089
 10
277.4286
 20
249.0265
  0
LWPOLYLINE
  5
AF
330
1F
100
AcDbEntity
  8
Layer 1
 62
     7
370
    18
100
AcDbPolyline
 90
       33
 70
     1
 43
0.0
 10
266.6117
 20
254.4273
 10
265.7432
 20
254.3505
 10
264.9343
 20
254.1303
 10
264.2023
 20
253.7817
 10
263.5645
 20
253.3201
 10
263.0383
 20
252.7606
 10
262.641
 20
252.1183
 10
262.3899
 20
251.4085
 10
262.3023
 20
250.6464
 10
262.3899
 20
249.8842
 10
262.641
 20
249.1742
 10
263.0383
 20
248.5318
 10
263.5645
 20
247.972
 10
264.2023
 20
247.5101
 10
264.9343
 20
247.1614
 10
265.7432
 20
246.941
 10
266.6117
 20
246.8641
 10
267.4802
 20
246.941
 10
268.2891
 20
247.1614
 10
269.0211
 20
247.5101
 10
269.6589
 20
247.972
 10
270.1852
 20
248.5318
 10
270.5825
 20
249.1742
 10
270.8336
 20
249.8842
 10
270.9212
 20
250.6464
 10
270.8336
 20
251.4085
 10
270.5825
 20
252.1183
 10
270.1852
 20
252.7606
 10
269.6589
 20
253.3201
 10
269.0211
 20
253.7817
 10
268.2891
 20
254.1303
 10
267.4802
 20
254.3505
 10
266.6117
 20
254.4273
  0
LWPOLYLINE
  5
B0
330
1F
100
AcDbEntity
  8
Layer 1
 62
     7
370
    18
100
AcDbPolyline
 90
       33
 70
     1
 43
0.0
 10
264.3057
 20
250.7824
 10
264.1273
 20
250.7649
 10
263.9612
 20
250.7145
 10
263.8108
 20
250.6348
 10
263.6798
 20
250.5293
 10
263.5717
 20
250.4013
 10
263.4901
 20
250.2543
 10
263.4385
 20
250.0918
 10
263.4205
 20
249.9172
 10
263.4385
 20
249.7426
 10
263.4901
 20
249.58
 10
263.5717
 20
249.433
 10
263.6798
 20
249.305
 10
263.8108
 20
249.1995
 10
263.9612
 20
249.1198
 10
264.1273
 20
249.0694
 10
264.3057
 20
249.0519
 10
264.4841
 20
249.0694
 10
264.6502
 20
249.1198
 10
264.8006
 20
249.1995
 10
264.9316
 20
249.305
 10
265.0397
 20
249.433
 10
265.1213
 20
249.58
 10
265.1729
 20
249.7426
 10
265.1909
 20
249.9172
 10
265.1729
 20
250.0918
 10
265.1213
 20
250.2543
 10
265.0397
 20
250.4013
 10
264.9316
 20
250.5293
 10
264.8006
 20
250.6348
 10
264.6502
 20
250.7145
 10
264.4841
 20
250.7649
 10
264.3057
 20
250.7824
  0
LWPOLYLINE
  5
B1
330
1F
100
AcDbEntity
  8
Layer 1
 62
     7
370
    18
100
AcDbPolyline
 90
       33
 70
     1
 43
0.0
 10
254.077
 20
251.1095
 10
253.2085
 20
251.0327
 10
252.3996
 20
250.8123
 10
251.6676
 20
250.4636
 10
251.0298
 20
250.0018
 10
250.5036
 20
249.4422
 10
250.1063
 20
248.7999
 10
249.8552
 20
248.0903
 10
249.7676
 20
247.3286
 10
249.8552
 20
246.5664
 10
250.1063
 20
245.8564
 10
250.5036
 20
245.214
 10
251.0298
 20
244.6542
 10
251.6676
 20
244.1923
 10
252.3996
 20
243.8436
 10
253.2085
 20
243.6232
 10
254.077
 20
243.5463
 10
254.9455
 20
243.6232
 10
255.7544
 20
243.8436
 10
256.4864
 20
244.1923
 10
257.1242
 20
244.6542
 10
257.6504
 20
245.214
 10
258.0477
 20
245.8564
 10
258.2988
 20
246.5664
 10
258.3864
 20
247.3286
 10
258.2988
 20
248.0903
 10
258.0477
 20
248.7999
 10
257.6504
 20
249.4422
 10
257.1242
 20
250.0018
 10
256.4864
 20
250.4636
 10
255.7544
 20
250.8123
 10
254.9455
 20
251.0327
 10
254.077
 20
251.1095
  0
LWPOLYLINE
  5
B2
330
1F
100
AcDbEntity
  8
Layer 1
 62
     7
370
    18
100
AcDbPolyline
 90
       33
 70
     1
 43
0.0
 10
251.771
 20
247.4645
 10
251.5926
 20
247.4469
 10
251.4265
 20
247.3964
 10
251.2761
 20
247.3166
 10
251.1451
 20
247.2109
 10
251.037
 20
247.0828
 10
250.9554
 20
246.9358
 10
250.9038
 20
246.7735
 10
250.8858
 20
246.5993
 10
250.9038
 20
246.4247
 10
250.9554
 20
246.262
 10
251.037
 20
246.1148
 10
251.1451
 20
245.9865
 10
251.2761
 20
245.8807
 10
251.4265
 20
245.8008
 10
251.5926
 20
245.7503
 10
251.771
 20
245.7327
 10
251.9494
 20
245.7503
 10
252.1155
 20
245.8008
 10
252.2659
 20
245.8807
 10
252.3969
 20
245.9865
 10
252.505
 20
246.1148
 10
252.5866
 20
246.262
 10
252.6382
 20
246.4247
 10
252.6562
 20
246.5993
 10
252.6382
 20
246.7735
 10
252.5866
 20
246.9358
 10
252.505
 20
247.0828
 10
252.3969
 20
247.2109
 10
252.2659
 20
247.3166
 10
252.1155
 20
247.3964
 10
251.9494
 20
247.4469
 10
251.771
 20
247.4645
  0
LWPOLYLINE
  5
B3
330
1F
100
AcDbEntity
  8
Layer 1
 62
     7
370
    18
100
AcDbPolyline
 90
       33
 70
     1
 43
0.0
 10
243.2573
 20
243.6921
 10
242.4376
 20
243.6152
 10
241.6742
 20
243.3948
 10
240.9834
 20
243.0461
 10
240.3817
 20
242.5842
 10
239.8852
 20
242.0244
 10
239.5103
 20
241.382
 10
239.2734
 20
240.672
 10
239.1908
 20
239.9098
 10
239.2734
 20
239.1477
 10
239.5103
 20
238.4379
 10
239.8852
 20
237.7956
 10
240.3817
 20
237.2361
 10
240.9834
 20
236.7745
 10
241.6742
 20
236.426
 10
242.4376
 20
236.2058
 10
243.2573
 20
236.129
 10
244.0765
 20
236.2058
 10
244.8395
 20
236.426
 10
245.53
 20
236.7745
 10
246.1316
 20
237.2361
 10
246.628
 20
237.7956
 10
247.0028
 20
238.4379
 10
247.2397
 20
239.1477
 10
247.3223
 20
239.9098
 10
247.2397
 20
240.672
 10
247.0028
 20
241.382
 10
246.628
 20
242.0244
 10
246.1316
 20
242.5842
 10
245.53
 20
243.0461
 10
244.8395
 20
243.3948
 10
244.0765
 20
243.6152
 10
243.2573
 20
243.6921
  0
LWPOLYLINE
  5
B4
330
1F
100
AcDbEntity
  8
Layer 1
 62
     7
370
    18
100
AcDbPolyline
 90
       33
 70
     1
 43
0.0
 10
241.0805
 20
240.0472
 10
240.9125
 20
240.0296
 10
240.756
 20
239.9791
 10
240.6143
 20
239.8992
 10
240.4909
 20
239.7934
 10
240.389
 20
239.6651
 10
240.3121
 20
239.5179
 10
240.2635
 20
239.3552
 10
240.2465
 20
239.1806
 10
240.2635
 20
239.0064
 10
240.3121
 20
238.8441
 10
240.389
 20
238.6971
 10
240.4909
 20
238.5691
 10
240.6143
 20
238.4633
 10
240.756
 20
238.3835
 10
240.9125
 20
238.333
 10
241.0805
 20
238.3154
 10
241.249
 20
238.333
 10
241.4059
 20
238.3835
 10
241.5478
 20
238.4633
 10
241.6714
 20
238.5691
 10
241.7734
 20
238.6971
 10
241.8504
 20
238.8441
 10
241.899
 20
239.0064
 10
241.916
 20
239.1806
 10
241.899
 20
239.3552
 10
241.8504
 20
239.5179
 10
241.7734
 20
239.6651
 10
241.6714
 20
239.7934
 10
241.5478
 20
239.8992
 10
241.4059
 20
239.9791
 10
241.249
 20
240.0296
 10
241.0805
 20
240.0472
  0
LWPOLYLINE
  5
B5
330
1F
100
AcDbEntity
  8
Layer 1
 62
     7
370
    18
100
AcDbPolyline
 90
       33
 70
     1
 43
0.0
 10
235.2266
 20
232.7601
 10
234.4069
 20
232.6833
 10
233.6436
 20
232.4631
 10
232.9528
 20
232.1145
 10
232.351
 20
231.6529
 10
231.8545
 20
231.0934
 10
231.4797
 20
230.4512
 10
231.2428
 20
229.7414
 10
231.1602
 20
228.9793
 10
231.2428
 20
228.2171
 10
231.4797
 20
227.5071
 10
231.8545
 20
226.8646
 10
232.351
 20
226.3048
 10
232.9528
 20
225.8429
 10
233.6436
 20
225.4942
 10
234.4069
 20
225.2738
 10
235.2266
 20
225.1969
 10
236.0458
 20
225.2738
 10
236.8089
 20
225.4942
 10
237.4994
 20
225.8429
 10
238.101
 20
226.3048
 10
238.5974
 20
226.8646
 10
238.9722
 20
227.5071
 10
239.2091
 20
228.2171
 10
239.2917
 20
228.9793
 10
239.2091
 20
229.7414
 10
238.9722
 20
230.4512
 10
238.5974
 20
231.0934
 10
238.101
 20
231.6529
 10
237.4994
 20
232.1145
 10
236.8089
 20
232.4631
 10
236.0458
 20
232.6833
 10
235.2266
 20
232.7601
  0
LWPOLYLINE
  5
B6
330
1F
100
AcDbEntity
  8
Layer 1
 62
     7
370
    18
100
AcDbPolyline
 90
       33
 70
     1
 43
0.0
 10
233.0513
 20
229.1152
 10
232.8828
 20
229.0977
 10
232.726
 20
229.0473
 10
232.5841
 20
228.9676
 10
232.4605
 20
228.8621
 10
232.3585
 20
228.7341
 10
232.2815
 20
228.5871
 10
232.2329
 20
228.4246
 10
232.2159
 20
228.25
 10
232.2329
 20
228.0754
 10
232.2815
 20
227.9129
 10
232.3585
 20
227.7659
 10
232.4605
 20
227.6379
 10
232.5841
 20
227.5323
 10
232.726
 20
227.4527
 10
232.8828
 20
227.4023
 10
233.0513
 20
227.3848
 10
233.2193
 20
227.4023
 10
233.3759
 20
227.4527
 10
233.5175
 20
227.5323
 10
233.641
 20
227.6379
 10
233.7429
 20
227.7659
 10
233.8198
 20
227.9129
 10
233.8684
 20
228.0754
 10
233.8854
 20
228.25
 10
233.8684
 20
228.4246
 10
233.8198
 20
228.5871
 10
233.7429
 20
228.7341
 10
233.641
 20
228.8621
 10
233.5175
 20
228.9676
 10
233.3759
 20
229.0473
 10
233.2193
 20
229.0977
 10
233.0513
 20
229.1152
  0
LWPOLYLINE
  5
B7
330
1F
100
AcDbEntity
  8
Layer 1
 62
     7
370
    18
100
AcDbPolyline
 90
       33
 70
     1
 43
0.0
 10
231.1133
 20
218.9011
 10
230.294
 20
218.8242
 10
229.5308
 20
218.6038
 10
228.8401
 20
218.2551
 10
228.2382
 20
217.7932
 10
227.7415
 20
217.2334
 10
227.3665
 20
216.591
 10
227.1295
 20
215.881
 10
227.0468
 20
215.1188
 10
227.1295
 20
214.3567
 10
227.3665
 20
213.6469
 10
227.7415
 20
213.0046
 10
228.2382
 20
212.4451
 10
228.8401
 20
211.9835
 10
229.5308
 20
211.6349
 10
230.294
 20
211.4147
 10
231.1133
 20
211.3379
 10
231.9325
 20
211.4147
 10
232.6955
 20
211.6349
 10
233.386
 20
211.9835
 10
233.9876
 20
212.4451
 10
234.484
 20
213.0046
 10
234.8588
 20
213.6469
 10
235.0957
 20
214.3567
 10
235.1783
 20
215.1188
 10
235.0957
 20
215.881
 10
234.8588
 20
216.591
 10
234.484
 20
217.2334
 10
233.9876
 20
217.7932
 10
233.386
 20
218.2551
 10
232.6955
 20
218.6038
 10
231.9325
 20
218.8242
 10
231.1133
 20
218.9011
  0
LWPOLYLINE
  5
B8
330
1F
100
AcDbEntity
  8
Layer 1
 62
     7
370
    18
100
AcDbPolyline
 90
       33
 70
     1
 43
0.0
 10
228.938
 20
215.2562
 10
228.7695
 20
215.2386
 10
228.6126
 20
215.1881
 10
228.4707
 20
215.1082
 10
228.3471
 20
215.0024
 10
228.2451
 20
214.8741
 10
228.1681
 20
214.7269
 10
228.1195
 20
214.5642
 10
228.1025
 20
214.3896
 10
228.1195
 20
214.2154
 10
228.1681
 20
214.053
 10
228.2451
 20
213.9061
 10
228.3471
 20
213.778
 10
228.4707
 20
213.6722
 10
228.6126
 20
213.5924
 10
228.7695
 20
213.5419
 10
228.938
 20
213.5243
 10
229.106
 20
213.5419
 10
229.2625
 20
213.5924
 10
229.4042
 20
213.6722
 10
229.5276
 20
213.778
 10
229.6295
 20
213.9061
 10
229.7064
 20
214.053
 10
229.755
 20
214.2154
 10
229.772
 20
214.3896
 10
229.755
 20
214.5642
 10
229.7064
 20
214.7269
 10
229.6295
 20
214.8741
 10
229.5276
 20
215.0024
 10
229.4042
 20
215.1082
 10
229.2625
 20
215.1881
 10
229.106
 20
215.2386
 10
228.938
 20
215.2562
  0
LWPOLYLINE
  5
B9
330
1F
100
AcDbEntity
  8
Layer 1
 62
     7
370
    18
100
AcDbPolyline
 90
       33
 70
     1
 43
0.0
 10
230.1585
 20
203.8201
 10
229.3735
 20
203.7477
 10
228.6424
 20
203.5402
 10
227.9809
 20
203.2119
 10
227.4045
 20
202.777
 10
226.929
 20
202.2499
 10
226.5699
 20
201.645
 10
226.343
 20
200.9764
 10
226.2639
 20
200.2587
 10
226.343
 20
199.541
 10
226.5699
 20
198.8724
 10
226.929
 20
198.2675
 10
227.4045
 20
197.7404
 10
227.9809
 20
197.3055
 10
228.6424
 20
196.9772
 10
229.3735
 20
196.7697
 10
230.1585
 20
196.6973
 10
230.9435
 20
196.7697
 10
231.6747
 20
196.9772
 10
232.3365
 20
197.3055
 10
232.9131
 20
197.7404
 10
233.3889
 20
198.2675
 10
233.7482
 20
198.8724
 10
233.9752
 20
199.541
 10
234.0544
 20
200.2587
 10
233.9752
 20
200.9764
 10
233.7482
 20
201.645
 10
233.3889
 20
202.2499
 10
232.9131
 20
202.777
 10
232.3365
 20
203.2119
 10
231.6747
 20
203.5402
 10
230.9435
 20
203.7477
 10
230.1585
 20
203.8201
  0
LWPOLYLINE
  5
BA
330
1F
100
AcDbEntity
  8
Layer 1
 62
     7
370
    18
100
AcDbPolyline
 90
       33
 70
     1
 43
0.0
 10
228.0741
 20
200.3875
 10
227.9129
 20
200.3709
 10
227.7627
 20
200.3234
 10
227.6268
 20
200.2482
 10
227.5084
 20
200.1486
 10
227.4108
 20
200.0278
 10
227.337
 20
199.8893
 10
227.2904
 20
199.7362
 10
227.2742
 20
199.5719
 10
227.2904
 20
199.4076
 10
227.337
 20
199.2545
 10
227.4108
 20
199.1159
 10
227.5084
 20
198.9952
 10
227.6268
 20
198.8956
 10
227.7627
 20
198.8203
 10
227.9129
 20
198.7728
 10
228.0741
 20
198.7562
 10
228.2353
 20
198.7728
 10
228.3855
 20
198.8203
 10
228.5214
 20
198.8956
 10
228.6398
 20
198.9952
 10
228.7374
 20
199.1159
 10
228.8112
 20
199.2545
 10
228.8578
 20
199.4076
 10
228.874
 20
199.5719
 10
228.8578
 20
199.7362
 10
228.8112
 20
199.8893
 10
228.7374
 20
200.0278
 10
228.6398
 20
200.1486
 10
228.5214
 20
200.2482
 10
228.3855
 20
200.3234
 10
228.2353
 20
200.3709
 10
228.0741
 20
200.3875
  0
LWPOLYLINE
  5
BB
330
1F
100
AcDbEntity
  8
Layer 1
 62
     7
370
    18
100
AcDbPolyline
 90
       33
 70
     1
 43
0.0
 10
233.4889
 20
187.8129
 10
232.7039
 20
187.7405
 10
231.9727
 20
187.533
 10
231.3109
 20
187.2047
 10
230.7343
 20
186.7698
 10
230.2585
 20
186.2427
 10
229.8992
 20
185.6378
 10
229.6722
 20
184.9692
 10
229.593
 20
184.2515
 10
229.6722
 20
183.5338
 10
229.8992
 20
182.8655
 10
230.2585
 20
182.2607
 10
230.7343
 20
181.7339
 10
231.3109
 20
181.2993
 10
231.9727
 20
180.9712
 10
232.7039
 20
180.7638
 10
233.4889
 20
180.6915
 10
234.2739
 20
180.7638
 10
235.005
 20
180.9712
 10
235.6665
 20
181.2993
 10
236.2429
 20
181.7339
 10
236.7184
 20
182.2607
 10
237.0775
 20
182.8655
 10
237.3044
 20
183.5338
 10
237.3835
 20
184.2515
 10
237.3044
 20
184.9692
 10
237.0775
 20
185.6378
 10
236.7184
 20
186.2427
 10
236.2429
 20
186.7698
 10
235.6665
 20
187.2047
 10
235.005
 20
187.533
 10
234.2739
 20
187.7405
 10
233.4889
 20
187.8129
  0
LWPOLYLINE
  5
BC
330
1F
100
AcDbEntity
  8
Layer 1
 62
     7
370
    18
100
AcDbPolyline
 90
       33
 70
     1
 43
0.0
 10
231.4046
 20
184.3804
 10
231.2434
 20
184.3638
 10
231.0932
 20
184.3163
 10
230.9573
 20
184.241
 10
230.8389
 20
184.1414
 10
230.7412
 20
184.0207
 10
230.6675
 20
183.8821
 10
230.6209
 20
183.729
 10
230.6046
 20
183.5647
 10
230.6209
 20
183.4004
 10
230.6675
 20
183.2475
 10
230.7412
 20
183.1092
 10
230.8389
 20
182.9887
 10
230.9573
 20
182.8894
 10
231.0932
 20
182.8144
 10
231.2434
 20
182.767
 10
231.4046
 20
182.7505
 10
231.5658
 20
182.767
 10
231.716
 20
182.8144
 10
231.8519
 20
182.8894
 10
231.9703
 20
182.9887
 10
232.0679
 20
183.1092
 10
232.1417
 20
183.2475
 10
232.1883
 20
183.4004
 10
232.2045
 20
183.5647
 10
232.1883
 20
183.729
 10
232.1417
 20
183.8821
 10
232.0679
 20
184.0207
 10
231.9703
 20
184.1414
 10
231.8519
 20
184.241
 10
231.716
 20
184.3163
 10
231.5658
 20
184.3638
 10
231.4046
 20
184.3804
  0
LWPOLYLINE
  5
BD
330
1F
100
AcDbEntity
  8
Layer 1
 62
     7
370
    18
100
AcDbPolyline
 90
       33
 70
     1
 43
0.0
 10
239.3642
 20
172.9768
 10
238.5792
 20
172.9045
 10
237.8481
 20
172.6971
 10
237.1866
 20
172.369
 10
236.6102
 20
171.9344
 10
236.1347
 20
171.4076
 10
235.7756
 20
170.8028
 10
235.5487
 20
170.1345
 10
235.4696
 20
169.4168
 10
235.5487
 20
168.6991
 10
235.7756
 20
168.0305
 10
236.1347
 20
167.4256
 10
236.6102
 20
166.8985
 10
237.1866
 20
166.4636
 10
237.8481
 20
166.1353
 10
238.5792
 20
165.9278
 10
239.3642
 20
165.8554
 10
240.1491
 20
165.9278
 10
240.8802
 20
166.1353
 10
241.5418
 20
166.4636
 10
242.1181
 20
166.8985
 10
242.5936
 20
167.4256
 10
242.9527
 20
168.0305
 10
243.1796
 20
168.6991
 10
243.2587
 20
169.4168
 10
243.1796
 20
170.1345
 10
242.9527
 20
170.8028
 10
242.5936
 20
171.4076
 10
242.1181
 20
171.9344
 10
241.5418
 20
172.369
 10
240.8802
 20
172.6971
 10
240.1491
 20
172.9045
 10
239.3642
 20
172.9768
  0
LWPOLYLINE
  5
BE
330
1F
100
AcDbEntity
  8
Layer 1
 62
     7
370
    18
100
AcDbPolyline
 90
       33
 70
     1
 43
0.0
 10
237.2798
 20
169.5457
 10
237.1186
 20
169.5291
 10
236.9684
 20
169.4816
 10
236.8325
 20
169.4063
 10
236.7141
 20
169.3067
 10
236.6164
 20
169.186
 10
236.5427
 20
169.0474
 10
236.4961
 20
168.8943
 10
236.4798
 20
168.73
 10
236.4961
 20
168.5657
 10
236.5427
 20
168.4126
 10
236.6164
 20
168.2741
 10
236.7141
 20
168.1533
 10
236.8325
 20
168.0537
 10
236.9684
 20
167.9785
 10
237.1186
 20
167.931
 10
237.2798
 20
167.9144
 10
237.441
 20
167.931
 10
237.5912
 20
167.9785
 10
237.7271
 20
168.0537
 10
237.8455
 20
168.1533
 10
237.9431
 20
168.2741
 10
238.0169
 20
168.4126
 10
238.0635
 20
168.5657
 10
238.0797
 20
168.73
 10
238.0635
 20
168.8943
 10
238.0169
 20
169.0474
 10
237.9431
 20
169.186
 10
237.8455
 20
169.3067
 10
237.7271
 20
169.4063
 10
237.5912
 20
169.4816
 10
237.441
 20
169.5291
 10
237.2798
 20
169.5457
  0
LWPOLYLINE
  5
BF
330
1F
100
AcDbEntity
  8
Layer 1
 62
     7
370
    18
100
AcDbPolyline
 90
       33
 70
     1
 43
0.0
 10
248.5698
 20
159.704
 10
247.7849
 20
159.6316
 10
247.0538
 20
159.4241
 10
246.3922
 20
159.0958
 10
245.8159
 20
158.6609
 10
245.3404
 20
158.1339
 10
244.9813
 20
157.5289
 10
244.7544
 20
156.8604
 10
244.6753
 20
156.1426
 10
244.7544
 20
155.4249
 10
244.9813
 20
154.7563
 10
245.3404
 20
154.1514
 10
245.8159
 20
153.6243
 10
246.3922
 20
153.1894
 10
247.0538
 20
152.8611
 10
247.7849
 20
152.6536
 10
248.5698
 20
152.5812
 10
249.3548
 20
152.6536
 10
250.0859
 20
152.8611
 10
250.7474
 20
153.1894
 10
251.3238
 20
153.6243
 10
251.7993
 20
154.1514
 10
252.1584
 20
154.7563
 10
252.3853
 20
155.4249
 10
252.4644
 20
156.1426
 10
252.3853
 20
156.8604
 10
252.1584
 20
157.5289
 10
251.7993
 20
158.1339
 10
251.3238
 20
158.6609
 10
250.7474
 20
159.0958
 10
250.0859
 20
159.4241
 10
249.3548
 20
159.6316
 10
248.5698
 20
159.704
  0
LWPOLYLINE
  5
C0
330
1F
100
AcDbEntity
  8
Layer 1
 62
     7
370
    18
100
AcDbPolyline
 90
       33
 70
     1
 43
0.0
 10
246.4854
 20
156.2715
 10
246.3242
 20
156.2549
 10
246.174
 20
156.2074
 10
246.0382
 20
156.1322
 10
245.9198
 20
156.0326
 10
245.8221
 20
155.9118
 10
245.7484
 20
155.7733
 10
245.7018
 20
155.6202
 10
245.6855
 20
155.4559
 10
245.7018
 20
155.2916
 10
245.7484
 20
155.1387
 10
245.8221
 20
155.0003
 10
245.9198
 20
154.8799
 10
246.0382
 20
154.7805
 10
246.174
 20
154.7055
 10
246.3242
 20
154.6581
 10
246.4854
 20
154.6416
 10
246.6466
 20
154.6581
 10
246.7968
 20
154.7055
 10
246.9327
 20
154.7805
 10
247.0511
 20
154.8799
 10
247.1488
 20
155.0003
 10
247.2225
 20
155.1387
 10
247.2691
 20
155.2916
 10
247.2854
 20
155.4559
 10
247.2691
 20
155.6202
 10
247.2225
 20
155.7733
 10
247.1488
 20
155.9118
 10
247.0511
 20
156.0326
 10
246.9327
 20
156.1322
 10
246.7968
 20
156.2074
 10
246.6466
 20
156.2549
 10
246.4854
 20
156.2715
  0
LWPOLYLINE
  5
C1
330
1F
100
AcDbEntity
  8
Layer 1
 62
     7
370
    18
100
AcDbPolyline
 90
       33
 70
     1
 43
0.0
 10
259.9295
 20
150.334
 10
259.1445
 20
150.2616
 10
258.4134
 20
150.0541
 10
257.7519
 20
149.7258
 10
257.1755
 20
149.2909
 10
256.7
 20
148.7638
 10
256.3409
 20
148.1589
 10
256.114
 20
147.4903
 10
256.0349
 20
146.7726
 10
256.114
 20
146.0548
 10
256.3409
 20
145.3863
 10
256.7
 20
144.7813
 10
257.1755
 20
144.2543
 10
257.7519
 20
143.8194
 10
258.4134
 20
143.4911
 10
259.1445
 20
143.2836
 10
259.9295
 20
143.2112
 10
260.7145
 20
143.2836
 10
261.4457
 20
143.4911
 10
262.1075
 20
143.8194
 10
262.6841
 20
144.2543
 10
263.1599
 20
144.7813
 10
263.5192
 20
145.3863
 10
263.7462
 20
146.0548
 10
263.8254
 20
146.7726
 10
263.7462
 20
147.4903
 10
263.5192
 20
148.1589
 10
263.1599
 20
148.7638
 10
262.6841
 20
149.2909
 10
262.1075
 20
149.7258
 10
261.4457
 20
150.0541
 10
260.7145
 20
150.2616
 10
259.9295
 20
150.334
  0
LWPOLYLINE
  5
C2
330
1F
100
AcDbEntity
  8
Layer 1
 62
     7
370
    18
100
AcDbPolyline
 90
       33
 70
     1
 43
0.0
 10
257.8451
 20
146.9014
 10
257.6839
 20
146.8848
 10
257.5337
 20
146.8373
 10
257.3978
 20
146.7621
 10
257.2794
 20
146.6625
 10
257.1818
 20
146.5417
 10
257.108
 20
146.4032
 10
257.0614
 20
146.2501
 10
257.0452
 20
146.0858
 10
257.0614
 20
145.9215
 10
257.108
 20
145.7686
 10
257.1818
 20
145.6303
 10
257.2794
 20
145.5098
 10
257.3978
 20
145.4104
 10
257.5337
 20
145.3354
 10
257.6839
 20
145.288
 10
257.8451
 20
145.2715
 10
258.0063
 20
145.288
 10
258.1565
 20
145.3354
 10
258.2924
 20
145.4104
 10
258.4108
 20
145.5098
 10
258.5084
 20
145.6303
 10
258.5822
 20
145.7686
 10
258.6288
 20
145.9215
 10
258.645
 20
146.0858
 10
258.6288
 20
146.2501
 10
258.5822
 20
146.4032
 10
258.5084
 20
146.5417
 10
258.4108
 20
146.6625
 10
258.2924
 20
146.7621
 10
258.1565
 20
146.8373
 10
258.0063
 20
146.8848
 10
257.8451
 20
146.9014
  0
LWPOLYLINE
  5
C3
330
1F
100
AcDbEntity
  8
Layer 1
 62
     7
370
    18
100
AcDbPolyline
 90
       33
 70
     1
 43
0.0
 10
272.6603
 20
143.306
 10
271.8753
 20
143.2337
 10
271.1442
 20
143.0264
 10
270.4827
 20
142.6982
 10
269.9063
 20
142.2636
 10
269.4308
 20
141.7368
 10
269.0717
 20
141.1321
 10
268.8448
 20
140.4638
 10
268.7657
 20
139.7461
 10
268.8448
 20
139.0283
 10
269.0717
 20
138.3598
 10
269.4308
 20
137.7548
 10
269.9063
 20
137.2278
 10
270.4827
 20
136.7929
 10
271.1442
 20
136.4646
 10
271.8753
 20
136.2571
 10
272.6603
 20
136.1847
 10
273.4453
 20
136.2571
 10
274.1765
 20
136.4646
 10
274.8383
 20
136.7929
 10
275.4149
 20
137.2278
 10
275.8907
 20
137.7548
 10
276.25
 20
138.3598
 10
276.477
 20
139.0283
 10
276.5562
 20
139.7461
 10
276.477
 20
140.4638
 10
276.25
 20
141.1321
 10
275.8907
 20
141.7368
 10
275.4149
 20
142.2636
 10
274.8383
 20
142.6982
 10
274.1765
 20
143.0264
 10
273.4453
 20
143.2337
 10
272.6603
 20
143.306
  0
LWPOLYLINE
  5
C4
330
1F
100
AcDbEntity
  8
Layer 1
 62
     7
370
    18
100
AcDbPolyline
 90
       33
 70
     1
 43
0.0
 10
270.5759
 20
139.8735
 10
270.4147
 20
139.857
 10
270.2645
 20
139.8096
 10
270.1286
 20
139.7346
 10
270.0102
 20
139.6353
 10
269.9126
 20
139.5148
 10
269.8388
 20
139.3765
 10
269.7922
 20
139.2236
 10
269.776
 20
139.0593
 10
269.7922
 20
138.895
 10
269.8388
 20
138.7419
 10
269.9126
 20
138.6033
 10
270.0102
 20
138.4826
 10
270.1286
 20
138.383
 10
270.2645
 20
138.3077
 10
270.4147
 20
138.2602
 10
270.5759
 20
138.2436
 10
270.7372
 20
138.2602
 10
270.8875
 20
138.3077
 10
271.0236
 20
138.383
 10
271.1423
 20
138.4826
 10
271.2402
 20
138.6033
 10
271.3141
 20
138.7419
 10
271.3609
 20
138.895
 10
271.3772
 20
139.0593
 10
271.3609
 20
139.2236
 10
271.3141
 20
139.3765
 10
271.2402
 20
139.5148
 10
271.1423
 20
139.6353
 10
271.0236
 20
139.7346
 10
270.8875
 20
139.8096
 10
270.7372
 20
139.857
 10
270.5759
 20
139.8735
  0
LWPOLYLINE
  5
C5
330
1F
100
AcDbEntity
  8
Layer 1
 62
     7
370
    18
100
AcDbPolyline
 90
       33
 70
     1
 43
0.0
 10
285.7832
 20
141.5501
 10
284.9983
 20
141.4777
 10
284.2672
 20
141.2702
 10
283.6056
 20
140.9419
 10
283.0293
 20
140.507
 10
282.5538
 20
139.9799
 10
282.1947
 20
139.375
 10
281.9678
 20
138.7064
 10
281.8887
 20
137.9887
 10
281.9678
 20
137.271
 10
282.1947
 20
136.6024
 10
282.5538
 20
135.9975
 10
283.0293
 20
135.4704
 10
283.6056
 20
135.0355
 10
284.2672
 20
134.7072
 10
284.9983
 20
134.4997
 10
285.7832
 20
134.4273
 10
286.5682
 20
134.4997
 10
287.2995
 20
134.7072
 10
287.9613
 20
135.0355
 10
288.5379
 20
135.4704
 10
289.0137
 20
135.9975
 10
289.373
 20
136.6024
 10
289.6
 20
137.271
 10
289.6792
 20
137.9887
 10
289.6
 20
138.7064
 10
289.373
 20
139.375
 10
289.0137
 20
139.9799
 10
288.5379
 20
140.507
 10
287.9613
 20
140.9419
 10
287.2995
 20
141.2702
 10
286.5682
 20
141.4777
 10
285.7832
 20
141.5501
  0
LWPOLYLINE
  5
C6
330
1F
100
AcDbEntity
  8
Layer 1
 62
     7
370
    18
100
AcDbPolyline
 90
       33
 70
     1
 43
0.0
 10
283.6988
 20
138.1176
 10
283.5376
 20
138.101
 10
283.3874
 20
138.0535
 10
283.2515
 20
137.9782
 10
283.1331
 20
137.8786
 10
283.0355
 20
137.7579
 10
282.9617
 20
137.6193
 10
282.9151
 20
137.4662
 10
282.8989
 20
137.3019
 10
282.9151
 20
137.1376
 10
282.9617
 20
136.9847
 10
283.0355
 20
136.8464
 10
283.1331
 20
136.7259
 10
283.2515
 20
136.6266
 10
283.3874
 20
136.5516
 10
283.5376
 20
136.5042
 10
283.6988
 20
136.4877
 10
283.86
 20
136.5042
 10
284.0102
 20
136.5516
 10
284.1461
 20
136.6266
 10
284.2645
 20
136.7259
 10
284.3622
 20
136.8464
 10
284.4359
 20
136.9847
 10
284.4825
 20
137.1376
 10
284.4988
 20
137.3019
 10
284.4825
 20
137.4662
 10
284.4359
 20
137.6193
 10
284.3622
 20
137.7579
 10
284.2645
 20
137.8786
 10
284.1461
 20
137.9782
 10
284.0102
 20
138.0535
 10
283.86
 20
138.101
 10
283.6988
 20
138.1176
  0
LWPOLYLINE
  5
C7
330
1F
100
AcDbEntity
  8
Layer 1
 62
     7
370
    18
100
AcDbPolyline
 90
       33
 70
     1
 43
0.0
 10
298.1233
 20
143.5015
 10
297.3383
 20
143.4291
 10
296.607
 20
143.2216
 10
295.9452
 20
142.8933
 10
295.3686
 20
142.4586
 10
294.8928
 20
141.9317
 10
294.5335
 20
141.3269
 10
294.3065
 20
140.6588
 10
294.2273
 20
139.9415
 10
294.3065
 20
139.2238
 10
294.5335
 20
138.5552
 10
294.8928
 20
137.9503
 10
295.3686
 20
137.4232
 10
295.9452
 20
136.9883
 10
296.607
 20
136.66
 10
297.3383
 20
136.4525
 10
298.1233
 20
136.3801
 10
298.9082
 20
136.4525
 10
299.6393
 20
136.66
 10
300.3009
 20
136.9883
 10
300.8772
 20
137.4232
 10
301.3527
 20
137.9503
 10
301.7118
 20
138.5552
 10
301.9387
 20
139.2238
 10
302.0178
 20
139.9415
 10
301.9387
 20
140.6588
 10
301.7118
 20
141.3269
 10
301.3527
 20
141.9317
 10
300.8772
 20
142.4586
 10
300.3009
 20
142.8933
 10
299.6393
 20
143.2216
 10
298.9082
 20
143.4291
 10
298.1233
 20
143.5015
  0
LWPOLYLINE
  5
C8
330
1F
100
AcDbEntity
  8
Layer 1
 62
     7
370
    18
100
AcDbPolyline
 90
       33
 70
     1
 43
0.0
 10
296.0389
 20
140.0689
 10
295.8777
 20
140.0524
 10
295.7275
 20
140.005
 10
295.5916
 20
139.93
 10
295.4732
 20
139.8307
 10
295.3755
 20
139.7102
 10
295.3018
 20
139.5719
 10
295.2552
 20
139.419
 10
295.2389
 20
139.2547
 10
295.2552
 20
139.0904
 10
295.3018
 20
138.9373
 10
295.3755
 20
138.7987
 10
295.4732
 20
138.678
 10
295.5916
 20
138.5784
 10
295.7275
 20
138.5031
 10
295.8777
 20
138.4556
 10
296.0389
 20
138.439
 10
296.2001
 20
138.4556
 10
296.3503
 20
138.5031
 10
296.4862
 20
138.5784
 10
296.6046
 20
138.678
 10
296.7022
 20
138.7987
 10
296.776
 20
138.9373
 10
296.8226
 20
139.0904
 10
296.8388
 20
139.2547
 10
296.8226
 20
139.419
 10
296.776
 20
139.5719
 10
296.7022
 20
139.7102
 10
296.6046
 20
139.8307
 10
296.4862
 20
139.93
 10
296.3503
 20
140.005
 10
296.2001
 20
140.0524
 10
296.0389
 20
140.0689
  0
LWPOLYLINE
  5
C9
330
1F
100
AcDbEntity
  8
Layer 1
 62
     7
370
    18
100
AcDbPolyline
 90
       33
 70
     1
 43
0.0
 10
309.2869
 20
150.1385
 10
308.5019
 20
150.0661
 10
307.7708
 20
149.8586
 10
307.1093
 20
149.5303
 10
306.5329
 20
149.0954
 10
306.0574
 20
148.5684
 10
305.6983
 20
147.9634
 10
305.4714
 20
147.2949
 10
305.3923
 20
146.5771
 10
305.4714
 20
145.8594
 10
305.6983
 20
145.1911
 10
306.0574
 20
144.5864
 10
306.5329
 20
144.0596
 10
307.1093
 20
143.625
 10
307.7708
 20
143.2968
 10
308.5019
 20
143.0895
 10
309.2869
 20
143.0172
 10
310.0718
 20
143.0895
 10
310.8029
 20
143.2968
 10
311.4645
 20
143.625
 10
312.0408
 20
144.0596
 10
312.5163
 20
144.5864
 10
312.8754
 20
145.1911
 10
313.1023
 20
145.8594
 10
313.1814
 20
146.5771
 10
313.1023
 20
147.2949
 10
312.8754
 20
147.9634
 10
312.5163
 20
148.5684
 10
312.0408
 20
149.0954
 10
311.4645
 20
149.5303
 10
310.8029
 20
149.8586
 10
310.0718
 20
150.0661
 10
309.2869
 20
150.1385
  0
LWPOLYLINE
  5
CA
330
1F
100
AcDbEntity
  8
Layer 1
 62
     7
370
    18
100
AcDbPolyline
 90
       33
 70
     1
 43
0.0
 10
307.2025
 20
146.706
 10
307.0413
 20
146.6895
 10
306.8911
 20
146.6421
 10
306.7552
 20
146.5671
 10
306.6368
 20
146.4678
 10
306.5391
 20
146.3473
 10
306.4654
 20
146.209
 10
306.4188
 20
146.0561
 10
306.4025
 20
145.8918
 10
306.4188
 20
145.7275
 10
306.4654
 20
145.5744
 10
306.5391
 20
145.4358
 10
306.6368
 20
145.3151
 10
306.7552
 20
145.2155
 10
306.8911
 20
145.1402
 10
307.0413
 20
145.0927
 10
307.2025
 20
145.0761
 10
307.3637
 20
145.0927
 10
307.5139
 20
145.1402
 10
307.6498
 20
145.2155
 10
307.7682
 20
145.3151
 10
307.8658
 20
145.4358
 10
307.9396
 20
145.5744
 10
307.9862
 20
145.7275
 10
308.0024
 20
145.8918
 10
307.9862
 20
146.0561
 10
307.9396
 20
146.209
 10
307.8658
 20
146.3473
 10
307.7682
 20
146.4678
 10
307.6498
 20
146.5671
 10
307.5139
 20
146.6421
 10
307.3637
 20
146.6895
 10
307.2025
 20
146.706
  0
LWPOLYLINE
  5
CB
330
1F
100
AcDbEntity
  8
Layer 1
 62
     7
370
    18
100
AcDbPolyline
 90
       33
 70
     1
 43
0.0
 10
318.0208
 20
161.4118
 10
317.1337
 20
161.33
 10
316.3074
 20
161.0954
 10
315.5597
 20
160.7243
 10
314.9082
 20
160.2328
 10
314.3707
 20
159.6371
 10
313.9649
 20
158.9535
 10
313.7084
 20
158.1982
 10
313.619
 20
157.3874
 10
313.7084
 20
156.5761
 10
313.9649
 20
155.8206
 10
314.3707
 20
155.137
 10
314.9082
 20
154.5414
 10
315.5597
 20
154.0501
 10
316.3074
 20
153.6791
 10
317.1337
 20
153.4446
 10
318.0208
 20
153.3629
 10
318.9079
 20
153.4446
 10
319.7342
 20
153.6791
 10
320.4819
 20
154.0501
 10
321.1334
 20
154.5414
 10
321.6709
 20
155.137
 10
322.0767
 20
155.8206
 10
322.3332
 20
156.5761
 10
322.4226
 20
157.3874
 10
322.3332
 20
158.1982
 10
322.0767
 20
158.9535
 10
321.6709
 20
159.6371
 10
321.1334
 20
160.2328
 10
320.4819
 20
160.7243
 10
319.7342
 20
161.0954
 10
318.9079
 20
161.33
 10
318.0208
 20
161.4118
  0
LWPOLYLINE
  5
CC
330
1F
100
AcDbEntity
  8
Layer 1
 62
     7
370
    18
100
AcDbPolyline
 90
       33
 70
     1
 43
0.0
 10
315.665
 20
157.5318
 10
315.4825
 20
157.5131
 10
315.3126
 20
157.4595
 10
315.1589
 20
157.3746
 10
315.025
 20
157.2622
 10
314.9145
 20
157.126
 10
314.8311
 20
156.9697
 10
314.7784
 20
156.7969
 10
314.76
 20
156.6114
 10
314.7784
 20
156.4254
 10
314.8311
 20
156.2523
 10
314.9145
 20
156.0957
 10
315.025
 20
155.9593
 10
315.1589
 20
155.8468
 10
315.3126
 20
155.7619
 10
315.4825
 20
155.7082
 10
315.665
 20
155.6895
 10
315.847
 20
155.7082
 10
316.0166
 20
155.7619
 10
316.1701
 20
155.8468
 10
316.3039
 20
155.9593
 10
316.4143
 20
156.0957
 10
316.4976
 20
156.2523
 10
316.5503
 20
156.4254
 10
316.5687
 20
156.6114
 10
316.5503
 20
156.7969
 10
316.4976
 20
156.9697
 10
316.4143
 20
157.126
 10
316.3039
 20
157.2622
 10
316.1701
 20
157.3746
 10
316.0166
 20
157.4595
 10
315.847
 20
157.5131
 10
315.665
 20
157.5318
  0
LWPOLYLINE
  5
CD
330
1F
100
AcDbEntity
  8
Layer 1
 62
     7
370
    18
100
AcDbPolyline
 90
       33
 70
     1
 43
0.0
 10
323.1131
 20
174.686
 10
322.226
 20
174.6042
 10
321.3997
 20
174.3696
 10
320.652
 20
173.9984
 10
320.0006
 20
173.5069
 10
319.4631
 20
172.9113
 10
319.0572
 20
172.2277
 10
318.8007
 20
171.4723
 10
318.7113
 20
170.6615
 10
318.8007
 20
169.8502
 10
319.0572
 20
169.0946
 10
319.4631
 20
168.4107
 10
320.0006
 20
167.8149
 10
320.652
 20
167.3233
 10
321.3997
 20
166.9521
 10
322.226
 20
166.7175
 10
323.1131
 20
166.6357
 10
324.0002
 20
166.7175
 10
324.8265
 20
166.9521
 10
325.5742
 20
167.3233
 10
326.2257
 20
167.8149
 10
326.7632
 20
168.4107
 10
327.169
 20
169.0946
 10
327.4255
 20
169.8502
 10
327.5149
 20
170.6615
 10
327.4255
 20
171.4723
 10
327.169
 20
172.2277
 10
326.7632
 20
172.9113
 10
326.2257
 20
173.5069
 10
325.5742
 20
173.9984
 10
324.8265
 20
174.3696
 10
324.0002
 20
174.6042
 10
323.1131
 20
174.686
  0
LWPOLYLINE
  5
CE
330
1F
100
AcDbEntity
  8
Layer 1
 62
     7
370
    18
100
AcDbPolyline
 90
       33
 70
     1
 43
0.0
 10
320.7574
 20
170.806
 10
320.575
 20
170.7873
 10
320.4052
 20
170.7337
 10
320.2516
 20
170.6488
 10
320.118
 20
170.5364
 10
320.0077
 20
170.4002
 10
319.9246
 20
170.2438
 10
319.872
 20
170.071
 10
319.8537
 20
169.8855
 10
319.872
 20
169.6996
 10
319.9246
 20
169.5264
 10
320.0077
 20
169.3698
 10
320.118
 20
169.2335
 10
320.2516
 20
169.121
 10
320.4052
 20
169.0361
 10
320.575
 20
168.9824
 10
320.7574
 20
168.9637
 10
320.9394
 20
168.9824
 10
321.109
 20
169.0361
 10
321.2625
 20
169.121
 10
321.3962
 20
169.2335
 10
321.5066
 20
169.3698
 10
321.5899
 20
169.5264
 10
321.6426
 20
169.6996
 10
321.661
 20
169.8855
 10
321.6426
 20
170.071
 10
321.5899
 20
170.2438
 10
321.5066
 20
170.4002
 10
321.3962
 20
170.5364
 10
321.2625
 20
170.6488
 10
321.109
 20
170.7337
 10
320.9394
 20
170.7873
 10
320.7574
 20
170.806
  0
LWPOLYLINE
  5
CF
330
1F
100
AcDbEntity
  8
Layer 1
 62
     7
370
    18
100
AcDbPolyline
 90
       33
 70
     1
 43
0.0
 10
324.2882
 20
190.6917
 10
323.4011
 20
190.61
 10
322.5748
 20
190.3755
 10
321.8271
 20
190.0046
 10
321.1756
 20
189.5132
 10
320.6381
 20
188.9176
 10
320.2323
 20
188.234
 10
319.9758
 20
187.4785
 10
319.8864
 20
186.6673
 10
319.9758
 20
185.8561
 10
320.2323
 20
185.1006
 10
320.6381
 20
184.4169
 10
321.1756
 20
183.8214
 10
321.8271
 20
183.33
 10
322.5748
 20
182.959
 10
323.4011
 20
182.7245
 10
324.2882
 20
182.6428
 10
325.1753
 20
182.7245
 10
326.0015
 20
182.959
 10
326.7492
 20
183.33
 10
327.4007
 20
183.8214
 10
327.9382
 20
184.4169
 10
328.344
 20
185.1006
 10
328.6005
 20
185.8561
 10
328.6899
 20
186.6673
 10
328.6005
 20
187.4785
 10
328.344
 20
188.234
 10
327.9382
 20
188.9176
 10
327.4007
 20
189.5132
 10
326.7492
 20
190.0046
 10
326.0015
 20
190.3755
 10
325.1753
 20
190.61
 10
324.2882
 20
190.6917
  0
LWPOLYLINE
  5
D0
330
1F
100
AcDbEntity
  8
Layer 1
 62
     7
370
    18
100
AcDbPolyline
 90
       33
 70
     1
 43
0.0
 10
321.9324
 20
186.8131
 10
321.75
 20
186.7943
 10
321.5802
 20
186.7406
 10
321.4267
 20
186.6555
 10
321.293
 20
186.5429
 10
321.1828
 20
186.4064
 10
321.0996
 20
186.2498
 10
321.047
 20
186.0769
 10
321.0287
 20
185.8913
 10
321.047
 20
185.7058
 10
321.0996
 20
185.533
 10
321.1828
 20
185.3767
 10
321.293
 20
185.2405
 10
321.4267
 20
185.1281
 10
321.5802
 20
185.0432
 10
321.75
 20
184.9896
 10
321.9324
 20
184.9709
 10
322.1144
 20
184.9896
 10
322.284
 20
185.0432
 10
322.4375
 20
185.1281
 10
322.5713
 20
185.2405
 10
322.6817
 20
185.3767
 10
322.765
 20
185.533
 10
322.8177
 20
185.7058
 10
322.8361
 20
185.8913
 10
322.8177
 20
186.0769
 10
322.765
 20
186.2498
 10
322.6817
 20
186.4064
 10
322.5713
 20
186.5429
 10
322.4375
 20
186.6555
 10
322.284
 20
186.7406
 10
322.1144
 20
186.7943
 10
321.9324
 20
186.8131
  0
LWPOLYLINE
  5
D1
330
1F
100
AcDbEntity
  8
Layer 1
 62
     7
370
    18
100
AcDbPolyline
 90
       33
 70
     1
 43
0.0
 10
321.742
 20
206.8929
 10
320.8549
 20
206.8112
 10
320.0286
 20
206.5767
 10
319.2809
 20
206.2058
 10
318.6294
 20
205.7144
 10
318.0919
 20
205.1188
 10
317.6861
 20
204.4352
 10
317.4296
 20
203.6797
 10
317.3402
 20
202.8685
 10
317.4296
 20
202.0577
 10
317.6861
 20
201.3024
 10
318.0919
 20
200.6187
 10
318.6294
 20
200.0231
 10
319.2809
 20
199.5316
 10
320.0286
 20
199.1604
 10
320.8549
 20
198.9258
 10
321.742
 20
198.844
 10
322.6291
 20
198.9258
 10
323.4554
 20
199.1604
 10
324.2031
 20
199.5316
 10
324.8546
 20
200.0231
 10
325.3921
 20
200.6187
 10
325.7979
 20
201.3024
 10
326.0544
 20
202.0577
 10
326.1438
 20
202.8685
 10
326.0544
 20
203.6797
 10
325.7979
 20
204.4352
 10
325.3921
 20
205.1188
 10
324.8546
 20
205.7144
 10
324.2031
 20
206.2058
 10
323.4554
 20
206.5767
 10
322.6291
 20
206.8112
 10
321.742
 20
206.8929
  0
LWPOLYLINE
  5
D2
330
1F
100
AcDbEntity
  8
Layer 1
 62
     7
370
    18
100
AcDbPolyline
 90
       33
 70
     1
 43
0.0
 10
319.3862
 20
203.0143
 10
319.2038
 20
202.9956
 10
319.034
 20
202.9419
 10
318.8805
 20
202.857
 10
318.7469
 20
202.7445
 10
318.6366
 20
202.6082
 10
318.5535
 20
202.4516
 10
318.5009
 20
202.2784
 10
318.4826
 20
202.0925
 10
318.5009
 20
201.907
 10
318.5535
 20
201.7342
 10
318.6366
 20
201.5778
 10
318.7469
 20
201.4416
 10
318.8805
 20
201.3292
 10
319.034
 20
201.2443
 10
319.2038
 20
201.1907
 10
319.3862
 20
201.172
 10
319.5682
 20
201.1907
 10
319.7378
 20
201.2443
 10
319.8913
 20
201.3292
 10
320.0251
 20
201.4416
 10
320.1355
 20
201.5778
 10
320.2188
 20
201.7342
 10
320.2715
 20
201.907
 10
320.2899
 20
202.0925
 10
320.2715
 20
202.2784
 10
320.2188
 20
202.4516
 10
320.1355
 20
202.6082
 10
320.0251
 20
202.7445
 10
319.8913
 20
202.857
 10
319.7378
 20
202.9419
 10
319.5682
 20
202.9956
 10
319.3862
 20
203.0143
  0
LWPOLYLINE
  5
D3
330
1F
100
AcDbEntity
  8
Layer 1
 62
     7
370
    18
100
AcDbPolyline
 90
       33
 70
     1
 43
0.0
 10
315.2786
 20
222.7047
 10
314.3915
 20
222.623
 10
313.5652
 20
222.3885
 10
312.8175
 20
222.0175
 10
312.166
 20
221.5262
 10
311.6285
 20
220.9306
 10
311.2227
 20
220.2469
 10
310.9662
 20
219.4914
 10
310.8768
 20
218.6802
 10
310.9662
 20
217.869
 10
311.2227
 20
217.1135
 10
311.6285
 20
216.4299
 10
312.166
 20
215.8343
 10
312.8175
 20
215.343
 10
313.5652
 20
214.972
 10
314.3915
 20
214.7375
 10
315.2786
 20
214.6558
 10
316.1657
 20
214.7375
 10
316.992
 20
214.972
 10
317.7397
 20
215.343
 10
318.3911
 20
215.8343
 10
318.9286
 20
216.4299
 10
319.3345
 20
217.1135
 10
319.591
 20
217.869
 10
319.6804
 20
218.6802
 10
319.591
 20
219.4914
 10
319.3345
 20
220.2469
 10
318.9286
 20
220.9306
 10
318.3911
 20
221.5262
 10
317.7397
 20
222.0175
 10
316.992
 20
222.3885
 10
316.1657
 20
222.623
 10
315.2786
 20
222.7047
  0
LWPOLYLINE
  5
D4
330
1F
100
AcDbEntity
  8
Layer 1
 62
     7
370
    18
100
AcDbPolyline
 90
       33
 70
     1
 43
0.0
 10
312.9228
 20
218.8261
 10
312.7404
 20
218.8074
 10
312.5706
 20
218.7537
 10
312.4171
 20
218.6688
 10
312.2834
 20
218.5563
 10
312.1732
 20
218.4199
 10
312.09
 20
218.2633
 10
312.0374
 20
218.0902
 10
312.0191
 20
217.9042
 10
312.0374
 20
217.7187
 10
312.09
 20
217.5459
 10
312.1732
 20
217.3896
 10
312.2834
 20
217.2534
 10
312.4171
 20
217.141
 10
312.5706
 20
217.0561
 10
312.7404
 20
217.0025
 10
312.9228
 20
216.9838
 10
313.1048
 20
217.0025
 10
313.2744
 20
217.0561
 10
313.4279
 20
217.141
 10
313.5617
 20
217.2534
 10
313.6721
 20
217.3896
 10
313.7554
 20
217.5459
 10
313.8081
 20
217.7187
 10
313.8265
 20
217.9042
 10
313.8081
 20
218.0902
 10
313.7554
 20
218.2633
 10
313.6721
 20
218.4199
 10
313.5617
 20
218.5563
 10
313.4279
 20
218.6688
 10
313.2744
 20
218.7537
 10
313.1048
 20
218.8074
 10
312.9228
 20
218.8261
  0
LWPOLYLINE
  5
D5
330
1F
100
AcDbEntity
  8
Layer 1
 62
     7
370
    18
100
AcDbPolyline
 90
       33
 70
     1
 43
0.0
 10
291.8357
 20
198.2557
 10
290.9539
 20
198.0934
 10
290.2447
 20
197.6289
 10
289.7244
 20
196.939
 10
289.4094
 20
196.1009
 10
289.3159
 20
195.1915
 10
289.4604
 20
194.2877
 10
289.8592
 20
193.4666
 10
290.5286
 20
192.8052
 10
290.1612
 20
192.2721
 10
290.0061
 20
191.6025
 10
290.0474
 20
190.8602
 10
290.2692
 20
190.1093
 10
290.6556
 20
189.4139
 10
291.1907
 20
188.8379
 10
291.8587
 20
188.4454
 10
292.6436
 20
188.3004
 10
293.6332
 20
188.4741
 10
294.3906
 20
188.9396
 10
294.9144
 20
189.6135
 10
295.2029
 20
190.4123
 10
295.2543
 20
191.2527
 10
295.0672
 20
192.0514
 10
294.6398
 20
192.7249
 10
293.9706
 20
193.1899
 10
294.4953
 20
193.7985
 10
294.7445
 20
194.5646
 10
294.7427
 20
195.413
 10
294.5149
 20
196.2685
 10
294.0855
 20
197.0558
 10
293.4794
 20
197.6995
 10
292.7212
 20
198.1246
 10
291.8357
 20
198.2557
  0
LWPOLYLINE
  5
D6
330
1F
100
AcDbEntity
  8
Layer 1
 62
     7
370
    18
100
AcDbPolyline
 90
       33
 70
     1
 43
0.0
 10
291.3103
 20
196.2059
 10
291.1637
 20
196.1856
 10
291.0294
 20
196.1274
 10
290.9102
 20
196.0352
 10
290.8088
 20
195.9131
 10
290.7278
 20
195.7652
 10
290.6701
 20
195.5954
 10
290.6384
 20
195.4077
 10
290.6354
 20
195.2062
 10
290.6618
 20
195.0046
 10
290.7153
 20
194.8168
 10
290.7929
 20
194.6467
 10
290.8912
 20
194.4985
 10
291.0071
 20
194.3762
 10
291.1373
 20
194.2838
 10
291.2788
 20
194.2254
 10
291.4282
 20
194.205
 10
291.5748
 20
194.2254
 10
291.7091
 20
194.2838
 10
291.8283
 20
194.3762
 10
291.9298
 20
194.4985
 10
292.0107
 20
194.6467
 10
292.0684
 20
194.8168
 10
292.1001
 20
195.0046
 10
292.1031
 20
195.2062
 10
292.0767
 20
195.4077
 10
292.0232
 20
195.5954
 10
291.9457
 20
195.7652
 10
291.8474
 20
195.9131
 10
291.7315
 20
196.0352
 10
291.6012
 20
196.1274
 10
291.4598
 20
196.1856
 10
291.3103
 20
196.2059
  0
LWPOLYLINE
  5
D7
330
1F
100
AcDbEntity
  8
Layer 1
 62
     7
370
    18
100
AcDbPolyline
 90
       33
 70
     1
 43
0.0
 10
291.8985
 20
191.8388
 10
291.7537
 20
191.8185
 10
291.6246
 20
191.7602
 10
291.5135
 20
191.668
 10
291.4227
 20
191.5458
 10
291.3547
 20
191.3977
 10
291.3117
 20
191.2276
 10
291.2961
 20
191.0396
 10
291.3103
 20
190.8376
 10
291.3548
 20
190.6361
 10
291.4252
 20
190.4484
 10
291.5179
 20
190.2786
 10
291.6293
 20
190.1306
 10
291.7559
 20
190.0086
 10
291.8941
 20
189.9164
 10
292.0404
 20
189.8582
 10
292.1912
 20
189.8379
 10
292.3365
 20
189.8582
 10
292.466
 20
189.9164
 10
292.5773
 20
190.0086
 10
292.6681
 20
190.1306
 10
292.7361
 20
190.2786
 10
292.7789
 20
190.4484
 10
292.7941
 20
190.6361
 10
292.7795
 20
190.8376
 10
292.7351
 20
191.0396
 10
292.6648
 20
191.2276
 10
292.5723
 20
191.3977
 10
292.461
 20
191.5458
 10
292.3345
 20
191.668
 10
292.1962
 20
191.7602
 10
292.0497
 20
191.8185
 10
291.8985
 20
191.8388
  0
LWPOLYLINE
  5
D8
330
1F
100
AcDbEntity
  8
Layer 1
 62
     7
370
    18
100
AcDbPolyline
 90
       33
 70
     1
 43
0.0
 10
276.2133
 20
214.1499
 10
275.7986
 20
213.4243
 10
275.7045
 20
212.6395
 10
275.8856
 20
211.8535
 10
276.2968
 20
211.1244
 10
276.8925
 20
210.5101
 10
277.6274
 20
210.0687
 10
278.4562
 20
209.8582
 10
279.3335
 20
209.9365
 10
279.4944
 20
209.3538
 10
279.881
 20
208.8401
 10
280.4381
 20
208.4225
 10
281.11
 20
208.1282
 10
281.8412
 20
207.9846
 10
282.5765
 20
208.0188
 10
283.2601
 20
208.258
 10
283.8368
 20
208.7296
 10
284.3082
 20
209.5389
 10
284.4307
 20
210.3586
 10
284.263
 20
211.1374
 10
283.8641
 20
211.8238
 10
283.2926
 20
212.3666
 10
282.6073
 20
212.7144
 10
281.8671
 20
212.8156
 10
281.1307
 20
212.6191
 10
281.0104
 20
213.3593
 10
280.6112
 20
213.9981
 10
280.0019
 20
214.5079
 10
279.2514
 20
214.8608
 10
278.4285
 20
215.0292
 10
277.6019
 20
214.9854
 10
276.8406
 20
214.7015
 10
276.2133
 20
214.1499
  0
LWPOLYLINE
  5
D9
330
1F
100
AcDbEntity
  8
Layer 1
 62
     7
370
    18
100
AcDbPolyline
 90
       33
 70
     1
 43
0.0
 10
277.3661
 20
212.5416
 10
277.2922
 20
212.4248
 10
277.2531
 20
212.2939
 10
277.2473
 20
212.1533
 10
277.2738
 20
212.0074
 10
277.3311
 20
211.8605
 10
277.4181
 20
211.7172
 10
277.5334
 20
211.5816
 10
277.6759
 20
211.4583
 10
277.8368
 20
211.3558
 10
278.0041
 20
211.2809
 10
278.1728
 20
211.2338
 10
278.3383
 20
211.2146
 10
278.4957
 20
211.2235
 10
278.6401
 20
211.2606
 10
278.7668
 20
211.3261
 10
278.8708
 20
211.4201
 10
278.9447
 20
211.5369
 10
278.9841
 20
211.6678
 10
278.99
 20
211.8084
 10
278.9637
 20
211.9543
 10
278.9065
 20
212.1011
 10
278.8194
 20
212.2445
 10
278.7039
 20
212.3801
 10
278.561
 20
212.5034
 10
278.4006
 20
212.6059
 10
278.2337
 20
212.6808
 10
278.0651
 20
212.7279
 10
277.8997
 20
212.7471
 10
277.7422
 20
212.7382
 10
277.5976
 20
212.7011
 10
277.4706
 20
212.6356
 10
277.3661
 20
212.5416
  0
LWPOLYLINE
  5
DA
330
1F
100
AcDbEntity
  8
Layer 1
 62
     7
370
    18
100
AcDbPolyline
 90
       33
 70
     1
 43
0.0
 10
280.8515
 20
210.3297
 10
280.7787
 20
210.2142
 10
280.7427
 20
210.0869
 10
280.7419
 20
209.9521
 10
280.7749
 20
209.8139
 10
280.8403
 20
209.6763
 10
280.9364
 20
209.5435
 10
281.0619
 20
209.4196
 10
281.2152
 20
209.3087
 10
281.3865
 20
209.2191
 10
281.5634
 20
209.1562
 10
281.7409
 20
209.1199
 10
281.9141
 20
209.1101
 10
282.0778
 20
209.1267
 10
282.2272
 20
209.1697
 10
282.3572
 20
209.2389
 10
282.4627
 20
209.3342
 10
282.5355
 20
209.4498
 10
282.5715
 20
209.577
 10
282.5723
 20
209.7118
 10
282.5393
 20
209.85
 10
282.4739
 20
209.9876
 10
282.3778
 20
210.1204
 10
282.2523
 20
210.2443
 10
282.099
 20
210.3552
 10
281.9277
 20
210.4448
 10
281.7508
 20
210.5077
 10
281.5732
 20
210.544
 10
281.4001
 20
210.5538
 10
281.2363
 20
210.5372
 10
281.0869
 20
210.4942
 10
280.957
 20
210.425
 10
280.8515
 20
210.3297
  0
LWPOLYLINE
  5
DB
330
1F
100
AcDbEntity
  8
Layer 1
 62
     7
370
    18
100
AcDbPolyline
 90
       33
 70
     1
 43
0.0
 10
283.7493
 20
171.1455
 10
283.2356
 20
171.7051
 10
282.9939
 20
172.3813
 10
282.9957
 20
173.1137
 10
283.2127
 20
173.8419
 10
283.6164
 20
174.5053
 10
284.1782
 20
175.0435
 10
284.8698
 20
175.3961
 10
285.6626
 20
175.5026
 10
285.6875
 20
176.0509
 10
285.9263
 20
176.5834
 10
286.3353
 20
177.0649
 10
286.871
 20
177.4602
 10
287.4897
 20
177.734
 10
288.1478
 20
177.8511
 10
288.8016
 20
177.7762
 10
289.4075
 20
177.4741
 10
289.9883
 20
176.8519
 10
290.2622
 20
176.1504
 10
290.2709
 20
175.4271
 10
290.056
 20
174.7391
 10
289.6594
 20
174.1438
 10
289.1226
 20
173.6985
 10
288.4875
 20
173.4604
 10
287.7956
 20
173.4869
 10
287.8384
 20
172.8072
 10
287.6138
 20
172.1614
 10
287.1771
 20
171.5878
 10
286.5836
 20
171.1248
 10
285.8887
 20
170.8107
 10
285.1478
 20
170.6839
 10
284.4162
 20
170.7827
 10
283.7493
 20
171.1455
  0
LWPOLYLINE
  5
DC
330
1F
100
AcDbEntity
  8
Layer 1
 62
     7
370
    18
100
AcDbPolyline
 90
       33
 70
     1
 43
0.0
 10
284.3723
 20
172.3367
 10
284.2835
 20
172.4258
 10
284.2226
 20
172.5341
 10
284.1892
 20
172.6576
 10
284.1834
 20
172.7922
 10
284.2046
 20
172.9337
 10
284.2528
 20
173.0781
 10
284.3277
 20
173.2213
 10
284.4291
 20
173.3591
 10
284.5507
 20
173.4822
 10
284.6835
 20
173.582
 10
284.8233
 20
173.6576
 10
284.9659
 20
173.7077
 10
285.107
 20
173.7313
 10
285.2424
 20
173.7273
 10
285.3679
 20
173.6947
 10
285.4792
 20
173.6324
 10
285.5681
 20
173.5438
 10
285.6292
 20
173.4358
 10
285.6627
 20
173.3125
 10
285.6688
 20
173.1781
 10
285.6478
 20
173.0364
 10
285.5998
 20
172.8918
 10
285.525
 20
172.7483
 10
285.4237
 20
172.61
 10
285.3017
 20
172.4873
 10
285.1685
 20
172.3877
 10
285.0285
 20
172.3122
 10
284.8857
 20
172.262
 10
284.7445
 20
172.2383
 10
284.6091
 20
172.242
 10
284.4836
 20
172.2745
 10
284.3723
 20
172.3367
  0
LWPOLYLINE
  5
DD
330
1F
100
AcDbEntity
  8
Layer 1
 62
     7
370
    18
100
AcDbPolyline
 90
       33
 70
     1
 43
0.0
 10
287.0861
 20
175.0188
 10
286.9985
 20
175.1065
 10
286.9411
 20
175.2119
 10
286.9133
 20
175.331
 10
286.9147
 20
175.4601
 10
286.9449
 20
175.595
 10
287.0032
 20
175.7319
 10
287.0893
 20
175.8668
 10
287.2026
 20
175.9958
 10
287.3361
 20
176.1096
 10
287.4801
 20
176.2009
 10
287.63
 20
176.2687
 10
287.7815
 20
176.3122
 10
287.9299
 20
176.3303
 10
288.0708
 20
176.3222
 10
288.1998
 20
176.287
 10
288.3123
 20
176.2238
 10
288.4
 20
176.1361
 10
288.4576
 20
176.0307
 10
288.4856
 20
175.9116
 10
288.4844
 20
175.7825
 10
288.4545
 20
175.6476
 10
288.3964
 20
175.5107
 10
288.3105
 20
175.3758
 10
288.1972
 20
175.2467
 10
288.0633
 20
175.1329
 10
287.9191
 20
175.0417
 10
287.7691
 20
174.9739
 10
287.6177
 20
174.9304
 10
287.4693
 20
174.9123
 10
287.3283
 20
174.9204
 10
287.1991
 20
174.9556
 10
287.0861
 20
175.0188
  0
LWPOLYLINE
  5
DE
330
1F
100
AcDbEntity
  8
Layer 1
 62
     7
370
    18
100
AcDbPolyline
 90
       33
 70
     1
 43
0.0
 10
264.5259
 20
176.7492
 10
265.0527
 20
177.4723
 10
265.7789
 20
177.9101
 10
266.6277
 20
178.0808
 10
267.5224
 20
178.0031
 10
268.3861
 20
177.6953
 10
269.1422
 20
177.176
 10
269.7139
 20
176.4636
 10
270.0244
 20
175.5766
 10
270.6653
 20
175.6774
 10
271.3385
 20
175.5283
 10
271.9928
 20
175.1714
 10
272.5771
 20
174.6484
 10
273.0403
 20
174.0012
 10
273.3313
 20
173.2717
 10
273.3989
 20
172.5019
 10
273.1921
 20
171.7335
 10
272.6084
 20
170.9183
 10
271.8606
 20
170.4376
 10
271.0248
 20
170.2568
 10
270.1772
 20
170.3416
 10
269.394
 20
170.6574
 10
268.7515
 20
171.1698
 10
268.3258
 20
171.8443
 10
268.1931
 20
172.6466
 10
267.416
 20
172.4369
 10
266.6149
 20
172.5429
 10
265.8474
 20
172.9099
 10
265.171
 20
173.4835
 10
264.6431
 20
174.2088
 10
264.3213
 20
175.0313
 10
264.2631
 20
175.8963
 10
264.5259
 20
176.7492
  0
LWPOLYLINE
  5
DF
330
1F
100
AcDbEntity
  8
Layer 1
 62
     7
370
    18
100
AcDbPolyline
 90
       33
 70
     1
 43
0.0
 10
266.6075
 20
176.3385
 10
266.6892
 20
176.4619
 10
266.8
 20
176.5578
 10
266.9351
 20
176.6253
 10
267.0897
 20
176.6639
 10
267.2588
 20
176.6729
 10
267.4376
 20
176.6516
 10
267.6214
 20
176.5993
 10
267.8052
 20
176.5155
 10
267.9761
 20
176.4044
 10
268.123
 20
176.275
 10
268.2433
 20
176.1319
 10
268.3351
 20
175.9796
 10
268.3958
 20
175.8228
 10
268.4232
 20
175.6661
 10
268.4152
 20
175.5141
 10
268.3693
 20
175.3714
 10
268.2877
 20
175.2479
 10
268.177
 20
175.1519
 10
268.042
 20
175.0842
 10
267.8877
 20
175.0455
 10
267.7186
 20
175.0364
 10
267.5397
 20
175.0577
 10
267.3557
 20
175.1102
 10
267.1715
 20
175.1944
 10
267.0006
 20
175.3054
 10
266.8538
 20
175.4347
 10
266.7334
 20
175.5777
 10
266.6417
 20
175.7298
 10
266.581
 20
175.8865
 10
266.5536
 20
176.0433
 10
266.5616
 20
176.1954
 10
266.6075
 20
176.3385
  0
LWPOLYLINE
  5
E0
330
1F
100
AcDbEntity
  8
Layer 1
 62
     7
370
    18
100
AcDbPolyline
 90
       33
 70
     1
 43
0.0
 10
270.3088
 20
173.927
 10
270.3897
 20
174.0489
 10
270.4983
 20
174.1402
 10
270.6299
 20
174.2006
 10
270.7798
 20
174.2297
 10
270.9433
 20
174.227
 10
271.1156
 20
174.1922
 10
271.2922
 20
174.1249
 10
271.4682
 20
174.0247
 10
271.6318
 20
173.8981
 10
271.7715
 20
173.7541
 10
271.8855
 20
173.5977
 10
271.9715
 20
173.4339
 10
272.0276
 20
173.2675
 10
272.0516
 20
173.1035
 10
272.0415
 20
172.9469
 10
271.9953
 20
172.8026
 10
271.9144
 20
172.6807
 10
271.8058
 20
172.5894
 10
271.6742
 20
172.529
 10
271.5243
 20
172.5
 10
271.3608
 20
172.5026
 10
271.1885
 20
172.5374
 10
271.0119
 20
172.6047
 10
270.8359
 20
172.7049
 10
270.6723
 20
172.8315
 10
270.5324
 20
172.9755
 10
270.4182
 20
173.1319
 10
270.3321
 20
173.2958
 10
270.2759
 20
173.4622
 10
270.2519
 20
173.6261
 10
270.2621
 20
173.7827
 10
270.3088
 20
173.927
  0
LWPOLYLINE
  5
E1
330
1F
100
AcDbEntity
  8
Layer 1
 62
     7
370
    18
100
AcDbPolyline
 90
       33
 70
     1
 43
0.0
 10
257.0701
 20
196.8892
 10
256.1883
 20
196.7269
 10
255.4791
 20
196.2624
 10
254.9588
 20
195.5725
 10
254.6437
 20
194.7344
 10
254.5503
 20
193.825
 10
254.6947
 20
192.9212
 10
255.0935
 20
192.1001
 10
255.7629
 20
191.4387
 10
255.3955
 20
190.9056
 10
255.2404
 20
190.236
 10
255.2817
 20
189.4937
 10
255.5036
 20
188.7428
 10
255.89
 20
188.0474
 10
256.4251
 20
187.4714
 10
257.0931
 20
187.0789
 10
257.878
 20
186.9339
 10
258.8676
 20
187.1076
 10
259.625
 20
187.5731
 10
260.1488
 20
188.247
 10
260.4373
 20
189.0458
 10
260.4887
 20
189.8862
 10
260.3016
 20
190.6849
 10
259.8742
 20
191.3584
 10
259.2049
 20
191.8234
 10
259.7296
 20
192.432
 10
259.9788
 20
193.1981
 10
259.977
 20
194.0465
 10
259.7492
 20
194.902
 10
259.3198
 20
195.6893
 10
258.7138
 20
196.333
 10
257.9556
 20
196.7581
 10
257.0701
 20
196.8892
  0
LWPOLYLINE
  5
E2
330
1F
100
AcDbEntity
  8
Layer 1
 62
     7
370
    18
100
AcDbPolyline
 90
       33
 70
     1
 43
0.0
 10
256.545
 20
194.8394
 10
256.398
 20
194.8191
 10
256.2635
 20
194.7609
 10
256.1442
 20
194.6687
 10
256.0428
 20
194.5466
 10
255.9618
 20
194.3987
 10
255.904
 20
194.2289
 10
255.8721
 20
194.0412
 10
255.8687
 20
193.8397
 10
255.8955
 20
193.6381
 10
255.9495
 20
193.4503
 10
256.0272
 20
193.2802
 10
256.1257
 20
193.132
 10
256.2417
 20
193.0097
 10
256.372
 20
192.9173
 10
256.5135
 20
192.8589
 10
256.663
 20
192.8385
 10
256.8096
 20
192.8589
 10
256.9439
 20
192.9173
 10
257.0631
 20
193.0097
 10
257.1645
 20
193.132
 10
257.2454
 20
193.2802
 10
257.3031
 20
193.4503
 10
257.3349
 20
193.6381
 10
257.3379
 20
193.8397
 10
257.3111
 20
194.0412
 10
257.2572
 20
194.2289
 10
257.1794
 20
194.3987
 10
257.0811
 20
194.5466
 10
256.9652
 20
194.6687
 10
256.8352
 20
194.7609
 10
256.694
 20
194.8191
 10
256.545
 20
194.8394
  0
LWPOLYLINE
  5
E3
330
1F
100
AcDbEntity
  8
Layer 1
 62
     7
370
    18
100
AcDbPolyline
 90
       33
 70
     1
 43
0.0
 10
257.1333
 20
190.4723
 10
256.9884
 20
190.452
 10
256.8591
 20
190.3937
 10
256.7478
 20
190.3015
 10
256.6569
 20
190.1793
 10
256.5888
 20
190.0312
 10
256.5458
 20
189.8611
 10
256.5304
 20
189.6731
 10
256.545
 20
189.4711
 10
256.5895
 20
189.2696
 10
256.6599
 20
189.0819
 10
256.7526
 20
188.9121
 10
256.864
 20
188.7641
 10
256.9906
 20
188.6421
 10
257.1289
 20
188.5499
 10
257.2752
 20
188.4917
 10
257.426
 20
188.4714
 10
257.5712
 20
188.4917
 10
257.7007
 20
188.5499
 10
257.812
 20
188.6421
 10
257.9028
 20
188.7641
 10
257.9708
 20
188.9121
 10
258.0136
 20
189.0819
 10
258.0288
 20
189.2696
 10
258.0142
 20
189.4711
 10
257.9697
 20
189.6731
 10
257.8993
 20
189.8611
 10
257.8066
 20
190.0312
 10
257.6952
 20
190.1793
 10
257.5686
 20
190.3015
 10
257.4304
 20
190.3937
 10
257.2841
 20
190.452
 10
257.1333
 20
190.4723
  0
LWPOLYLINE
  5
E4
330
1F
100
AcDbEntity
  8
Layer 1
 62
     7
370
    18
100
AcDbPolyline
 90
       33
 70
     1
 43
0.0
 10
259.8482
 20
207.672
 10
259.3064
 20
208.2622
 10
259.0515
 20
208.9754
 10
259.0534
 20
209.7478
 10
259.2823
 20
210.5158
 10
259.708
 20
211.2155
 10
260.3006
 20
211.7832
 10
261.0299
 20
212.1551
 10
261.8661
 20
212.2674
 10
261.8924
 20
212.8456
 10
262.1443
 20
213.4073
 10
262.5757
 20
213.9151
 10
263.1407
 20
214.332
 10
263.7933
 20
214.6208
 10
264.4873
 20
214.7443
 10
265.1769
 20
214.6653
 10
265.8159
 20
214.3467
 10
266.4285
 20
213.6904
 10
266.7173
 20
212.9506
 10
266.7265
 20
212.1877
 10
266.4999
 20
211.4621
 10
266.0816
 20
210.8342
 10
265.5155
 20
210.3646
 10
264.8456
 20
210.1135
 10
264.1159
 20
210.1414
 10
264.1611
 20
209.4246
 10
263.9241
 20
208.7434
 10
263.4635
 20
208.1385
 10
262.8375
 20
207.6501
 10
262.1046
 20
207.3188
 10
261.3231
 20
207.1851
 10
260.5515
 20
207.2893
 10
259.8482
 20
207.672
  0
LWPOLYLINE
  5
E5
330
1F
100
AcDbEntity
  8
Layer 1
 62
     7
370
    18
100
AcDbPolyline
 90
       33
 70
     1
 43
0.0
 10
260.5049
 20
208.9292
 10
260.4114
 20
209.0227
 10
260.3472
 20
209.1366
 10
260.312
 20
209.2667
 10
260.3057
 20
209.4086
 10
260.3279
 20
209.5578
 10
260.3787
 20
209.7102
 10
260.4576
 20
209.8613
 10
260.5646
 20
210.0068
 10
260.6929
 20
210.1363
 10
260.8331
 20
210.2413
 10
260.9806
 20
210.3208
 10
261.131
 20
210.3736
 10
261.2799
 20
210.3985
 10
261.4228
 20
210.3944
 10
261.5553
 20
210.36
 10
261.6729
 20
210.2943
 10
261.7668
 20
210.2008
 10
261.8312
 20
210.0869
 10
261.8664
 20
209.9568
 10
261.8727
 20
209.815
 10
261.8502
 20
209.6657
 10
261.7993
 20
209.5133
 10
261.7202
 20
209.3622
 10
261.6132
 20
209.2167
 10
261.4849
 20
209.0872
 10
261.3447
 20
208.9822
 10
261.1972
 20
208.9027
 10
261.0468
 20
208.8499
 10
260.8979
 20
208.825
 10
260.755
 20
208.8291
 10
260.6225
 20
208.8635
 10
260.5049
 20
208.9292
  0
LWPOLYLINE
  5
E6
330
1F
100
AcDbEntity
  8
Layer 1
 62
     7
370
    18
100
AcDbPolyline
 90
       33
 70
     1
 43
0.0
 10
263.3679
 20
211.7571
 10
263.2753
 20
211.8496
 10
263.2146
 20
211.9608
 10
263.1852
 20
212.0865
 10
263.1866
 20
212.2226
 10
263.2183
 20
212.365
 10
263.2798
 20
212.5094
 10
263.3706
 20
212.6518
 10
263.4901
 20
212.788
 10
263.6309
 20
212.9081
 10
263.7828
 20
213.0044
 10
263.9409
 20
213.076
 10
264.1006
 20
213.1218
 10
264.2571
 20
213.141
 10
264.4059
 20
213.1325
 10
264.542
 20
213.0954
 10
264.6609
 20
213.0287
 10
264.7535
 20
212.9362
 10
264.8143
 20
212.825
 10
264.8437
 20
212.6993
 10
264.8422
 20
212.5632
 10
264.8105
 20
212.4208
 10
264.749
 20
212.2764
 10
264.6582
 20
212.134
 10
264.5387
 20
211.9978
 10
264.3979
 20
211.8777
 10
264.2461
 20
211.7814
 10
264.088
 20
211.7098
 10
263.9283
 20
211.664
 10
263.7717
 20
211.6448
 10
263.623
 20
211.6533
 10
263.4868
 20
211.6904
 10
263.3679
 20
211.7571
  0
LWPOLYLINE
  5
E7
330
1F
100
AcDbEntity
  8
Layer 1
 62
     7
370
    18
100
AcDbPolyline
 90
       61
 70
     1
 43
0.0
 10
272.7802
 20
205.866
 10
270.5377
 20
205.5973
 10
268.4981
 20
204.8267
 10
266.7015
 20
203.6073
 10
265.1882
 20
201.9924
 10
263.9984
 20
200.0352
 10
263.1723
 20
197.7887
 10
262.7503
 20
195.3064
 10
262.7726
 20
192.6412
 10
263.2523
 20
189.9759
 10
264.1418
 20
187.4934
 10
265.3909
 20
185.2469
 10
266.9493
 20
183.2896
 10
268.7668
 20
181.6746
 10
270.7931
 20
180.4552
 10
272.9779
 20
179.6846
 10
275.271
 20
179.4159
 10
277.5134
 20
179.6846
 10
279.553
 20
180.4552
 10
281.3496
 20
181.6746
 10
282.8628
 20
183.2896
 10
284.0526
 20
185.2469
 10
284.8785
 20
187.4934
 10
285.3005
 20
189.9759
 10
285.2781
 20
192.6412
 10
285.0549
 20
194.1951
 10
284.6888
 20
195.6959
 10
284.1892
 20
197.1334
 10
283.5659
 20
198.4974
 10
282.8283
 20
199.7779
 10
281.9861
 20
200.9645
 10
281.049
 20
202.0473
 10
280.0264
 20
203.0161
 10
279.7014
 20
202.6864
 10
279.356
 20
202.388
 10
278.9951
 20
202.1249
 10
278.6238
 20
201.9009
 10
278.2472
 20
201.7199
 10
277.8704
 20
201.5858
 10
277.4984
 20
201.5025
 10
277.1363
 20
201.4739
 10
276.6626
 20
201.5332
 10
276.2735
 20
201.7033
 10
275.9737
 20
201.9724
 10
275.7678
 20
202.3289
 10
275.6605
 20
202.7609
 10
275.6564
 20
203.2567
 10
275.7602
 20
203.8047
 10
275.9766
 20
204.393
 10
276.0747
 20
204.5962
 10
276.1828
 20
204.7956
 10
276.3001
 20
204.9908
 10
276.4261
 20
205.1814
 10
275.9858
 20
205.3382
 10
275.5403
 20
205.4756
 10
275.0899
 20
205.593
 10
274.6351
 20
205.6901
 10
274.1764
 20
205.7664
 10
273.714
 20
205.8214
 10
273.2485
 20
205.8548
 10
272.7802
 20
205.866
  0
LWPOLYLINE
  5
E8
330
1F
100
AcDbEntity
  8
Layer 1
 62
     7
370
    18
100
AcDbPolyline
 90
        9
 70
     0
 43
0.0
 10
293.7474
 20
-131.2516
 10
294.5177
 20
-131.5343
 10
296.6978
 20
-132.2243
 10
300.0913
 20
-133.0843
 10
304.502
 20
-133.8768
 10
309.7334
 20
-134.3647
 10
315.5893
 20
-134.3105
 10
321.8734
 20
-133.477
 10
328.3893
 20
-131.6268
  0
LWPOLYLINE
  5
E9
330
1F
100
AcDbEntity
  8
Layer 1
 62
     7
370
    18
100
AcDbPolyline
 90
        9
 70
     0
 43
0.0
 10
293.5413
 20
-134.5335
 10
294.3312
 20
-134.8112
 10
296.5629
 20
-135.4879
 10
300.0294
 20
-136.3291
 10
304.5236
 20
-137.1002
 10
309.8387
 20
-137.5665
 10
315.7676
 20
-137.4936
 10
322.1032
 20
-136.6468
 10
328.6387
 20
-134.7916
  0
LWPOLYLINE
  5
EA
330
1F
100
AcDbEntity
  8
Layer 1
 62
     7
370
     9
100
AcDbPolyline
 90
        2
 70
     0
 43
0.0
 10
399.5655
 20
298.9901
 10
281.9579
 20
298.9901
  0
LWPOLYLINE
  5
EB
330
1F
100
AcDbEntity
  8
Layer 1
 62
     7
370
     9
100
AcDbPolyline
 90
        2
 70
     0
 43
0.0
 10
415.5529
 20
-127.711
 10
297.9453
 20
-127.711
  0
LWPOLYLINE
  5
EC
330
1F
100
AcDbEntity
  8
Layer 1
 62
     7
370
     9
100
AcDbPolyline
 90
        2
 70
     0
 43
0.0
 10
395.0253
 20
-127.7135
 10
395.0253
 20
298.9901
  0
LWPOLYLINE
  5
ED
330
1F
100
AcDbEntity
  8
Layer 1
 62
     7
370
     9
100
AcDbPolyline
 90
       87
 70
     1
 43
0.0
 10
437.9914
 20
28.4364
 10
437.9914
 20
45.1856
 10
435.5348
 20
45.1856
 10
435.5348
 20
34.3457
 10
427.2896
 20
42.6325
 10
426.6961
 20
43.1736
 10
426.073
 20
43.6425
 10
425.4201
 20
44.0392
 10
424.7376
 20
44.3638
 10
424.0255
 20
44.6162
 10
423.2837
 20
44.7965
 10
422.5124
 20
44.9047
 10
421.7114
 20
44.9407
 10
420.8924
 20
44.9039
 10
420.1063
 20
44.7933
 10
419.3531
 20
44.609
 10
418.6327
 20
44.3509
 10
417.9453
 20
44.019
 10
417.2908
 20
43.6132
 10
416.6692
 20
43.1336
 10
416.0805
 20
42.5801
 10
415.5335
 20
41.9658
 10
415.0594
 20
41.324
 10
414.6582
 20
40.6548
 10
414.3299
 20
39.9582
 10
414.0745
 20
39.2343
 10
413.8921
 20
38.4831
 10
413.7826
 20
37.7046
 10
413.7461
 20
36.8988
 10
413.7845
 20
36.0621
 10
413.8998
 20
35.2564
 10
414.0918
 20
34.4818
 10
414.3606
 20
33.7384
 10
414.7061
 20
33.026
 10
415.1283
 20
32.3448
 10
415.6272
 20
31.6948
 10
416.2027
 20
31.076
 10
416.822
 20
30.525
 10
417.4735
 20
30.0522
 10
418.1574
 20
29.6574
 10
418.8736
 20
29.3408
 10
419.6221
 20
29.1022
 10
420.4031
 20
28.9418
 10
421.2165
 20
28.8596
 10
422.0623
 20
28.8556
 10
422.0623
 20
31.338
 10
421.5139
 20
31.3175
 10
420.978
 20
31.3558
 10
420.4547
 20
31.4531
 10
419.944
 20
31.6093
 10
419.4459
 20
31.8245
 10
418.9603
 20
32.0988
 10
418.4874
 20
32.4322
 10
418.0271
 20
32.8248
 10
417.616
 20
33.2442
 10
417.2596
 20
33.6856
 10
416.958
 20
34.1489
 10
416.7112
 20
34.6342
 10
416.5193
 20
35.1414
 10
416.3821
 20
35.6704
 10
416.2998
 20
36.2213
 10
416.2724
 20
36.794
 10
416.2971
 20
37.3558
 10
416.3712
 20
37.8964
 10
416.4947
 20
38.4157
 10
416.6676
 20
38.9137
 10
416.8898
 20
39.3904
 10
417.1613
 20
39.8458
 10
417.4821
 20
40.2798
 10
417.8523
 20
40.6925
 10
418.2613
 20
41.0734
 10
418.6899
 20
41.4035
 10
419.1383
 20
41.6829
 10
419.6064
 20
41.9115
 10
420.0942
 20
42.0894
 10
420.6017
 20
42.2164
 10
421.1289
 20
42.2927
 10
421.6758
 20
42.3181
 10
422.235
 20
42.2935
 10
422.7723
 20
42.2198
 10
423.2878
 20
42.097
 10
423.7813
 20
41.925
 10
424.253
 20
41.7038
 10
424.7027
 20
41.4334
 10
425.1305
 20
41.1138
 10
425.5363
 20
40.7449
 10
437.9914
 20
28.4364
  0
LWPOLYLINE
  5
EE
330
1F
100
AcDbEntity
  8
Layer 1
 62
     7
370
     9
100
AcDbPolyline
 90
       87
 70
     1
 43
0.0
 10
437.9914
 20
49.9422
 10
437.9914
 20
66.6914
 10
435.5348
 20
66.6914
 10
435.5348
 20
55.8514
 10
427.2896
 20
64.1382
 10
426.6961
 20
64.6793
 10
426.073
 20
65.1482
 10
425.4201
 20
65.545
 10
424.7376
 20
65.8695
 10
424.0255
 20
66.1219
 10
423.2837
 20
66.3022
 10
422.5124
 20
66.4104
 10
421.7114
 20
66.4464
 10
420.8924
 20
66.4096
 10
420.1063
 20
66.299
 10
419.3531
 20
66.1147
 10
418.6327
 20
65.8566
 10
417.9453
 20
65.5247
 10
417.2908
 20
65.119
 10
416.6692
 20
64.6393
 10
416.0805
 20
64.0858
 10
415.5335
 20
63.4715
 10
415.0594
 20
62.8297
 10
414.6582
 20
62.1606
 10
414.3299
 20
61.464
 10
414.0745
 20
60.7401
 10
413.8921
 20
59.9889
 10
413.7826
 20
59.2104
 10
413.7461
 20
58.4046
 10
413.7845
 20
57.5678
 10
413.8998
 20
56.7622
 10
414.0918
 20
55.9876
 10
414.3606
 20
55.2441
 10
414.7061
 20
54.5318
 10
415.1283
 20
53.8506
 10
415.6272
 20
53.2006
 10
416.2027
 20
52.5817
 10
416.822
 20
52.0308
 10
417.4735
 20
51.5579
 10
418.1574
 20
51.1632
 10
418.8736
 20
50.8465
 10
419.6221
 20
50.608
 10
420.4031
 20
50.4476
 10
421.2165
 20
50.3654
 10
422.0623
 20
50.3613
 10
422.0623
 20
52.8437
 10
421.5139
 20
52.8232
 10
420.978
 20
52.8616
 10
420.4547
 20
52.9588
 10
419.944
 20
53.1151
 10
419.4459
 20
53.3303
 10
418.9603
 20
53.6046
 10
418.4874
 20
53.938
 10
418.0271
 20
54.3306
 10
417.616
 20
54.75
 10
417.2596
 20
55.1913
 10
416.958
 20
55.6546
 10
416.7112
 20
56.1399
 10
416.5193
 20
56.6471
 10
416.3821
 20
57.1762
 10
416.2998
 20
57.7271
 10
416.2724
 20
58.2998
 10
416.2971
 20
58.8616
 10
416.3712
 20
59.4022
 10
416.4947
 20
59.9214
 10
416.6676
 20
60.4194
 10
416.8898
 20
60.8961
 10
417.1613
 20
61.3515
 10
417.4821
 20
61.7855
 10
417.8523
 20
62.1982
 10
418.2613
 20
62.5791
 10
418.6899
 20
62.9092
 10
419.1383
 20
63.1886
 10
419.6064
 20
63.4172
 10
420.0942
 20
63.5951
 10
420.6017
 20
63.7221
 10
421.1289
 20
63.7984
 10
421.6758
 20
63.8238
 10
422.235
 20
63.7992
 10
422.7723
 20
63.7255
 10
423.2878
 20
63.6027
 10
423.7813
 20
63.4307
 10
424.253
 20
63.2095
 10
424.7027
 20
62.9391
 10
425.1305
 20
62.6195
 10
425.5363
 20
62.2506
 10
437.9914
 20
49.9422
  0
LWPOLYLINE
  5
EF
330
1F
100
AcDbEntity
  8
Layer 1
 62
     7
370
     9
100
AcDbPolyline
 90
       73
 70
     1
 43
0.0
 10
427.1504
 20
78.1445
 10
427.1246
 20
77.5867
 10
427.0473
 20
77.0495
 10
426.9184
 20
76.5332
 10
426.738
 20
76.0376
 10
426.506
 20
75.5627
 10
426.2225
 20
75.1087
 10
425.8874
 20
74.6755
 10
425.5008
 20
74.2631
 10
425.0829
 20
73.8902
 10
424.6453
 20
73.5669
 10
424.1881
 20
73.2933
 10
423.7112
 20
73.0695
 10
423.2146
 20
72.8953
 10
422.6983
 20
72.7709
 10
422.1622
 20
72.6963
 10
421.6062
 20
72.6714
 10
421.063
 20
72.6966
 10
420.5384
 20
72.772
 10
420.0325
 20
72.8977
 10
419.5451
 20
73.0738
 10
419.0763
 20
73.3
 10
418.6261
 20
73.5765
 10
418.1944
 20
73.9032
 10
417.7813
 20
74.2801
 10
417.4112
 20
74.685
 10
417.0905
 20
75.1128
 10
416.8191
 20
75.5634
 10
416.5972
 20
76.0371
 10
416.4246
 20
76.5336
 10
416.3013
 20
77.0532
 10
416.2273
 20
77.5958
 10
416.2027
 20
78.1615
 10
416.2282
 20
78.7161
 10
416.3047
 20
79.2522
 10
416.4322
 20
79.7697
 10
416.6107
 20
80.2686
 10
416.8401
 20
80.7489
 10
417.1204
 20
81.2106
 10
417.4517
 20
81.6538
 10
417.8339
 20
82.0783
 10
418.2478
 20
82.4632
 10
418.6819
 20
82.7967
 10
419.1362
 20
83.0791
 10
419.6107
 20
83.3101
 10
420.1054
 20
83.4898
 10
420.6204
 20
83.6182
 10
421.1557
 20
83.6952
 10
421.7114
 20
83.7209
 10
422.2509
 20
83.6949
 10
422.7728
 20
83.6171
 10
423.2771
 20
83.4873
 10
423.764
 20
83.3057
 10
424.2333
 20
83.0721
 10
424.6851
 20
82.7866
 10
425.1194
 20
82.4492
 10
425.5363
 20
82.0599
 10
425.7155
 20
81.8679
 10
425.8855
 20
81.6677
 10
426.0463
 20
81.4594
 10
426.1979
 20
81.2429
 10
426.3401
 20
81.0181
 10
426.4732
 20
80.7851
 10
426.5969
 20
80.5438
 10
426.7113
 20
80.2941
 10
426.8142
 20
80.0389
 10
426.9034
 20
79.7798
 10
426.9789
 20
79.5169
 10
427.0406
 20
79.2501
 10
427.0886
 20
78.9795
 10
427.123
 20
78.705
 10
427.1435
 20
78.4267
 10
427.1504
 20
78.1445
  0
LWPOLYLINE
  5
F0
330
1F
100
AcDbEntity
  8
Layer 1
 62
     7
370
     9
100
AcDbPolyline
 90
       69
 70
     1
 43
0.0
 10
421.781
 20
70.1891
 10
422.626
 20
70.2273
 10
423.4325
 20
70.342
 10
424.2006
 20
70.5332
 10
424.9303
 20
70.8008
 10
425.6216
 20
71.1449
 10
426.2746
 20
71.5655
 10
426.8894
 20
72.0625
 10
427.4658
 20
72.636
 10
427.9512
 20
73.2226
 10
428.3769
 20
73.8502
 10
428.7429
 20
74.5187
 10
429.0491
 20
75.2283
 10
429.2957
 20
75.9788
 10
429.4824
 20
76.7702
 10
429.6094
 20
77.6026
 10
429.6766
 20
78.4759
 10
429.2191
 20
79.1754
 10
437.9914
 20
71.9025
 10
437.9914
 20
75.1198
 10
426.7284
 20
84.4205
 10
426.1801
 20
84.8387
 10
425.6092
 20
85.2011
 10
425.0159
 20
85.5078
 10
424.4
 20
85.7587
 10
423.7616
 20
85.9538
 10
423.1007
 20
86.0932
 10
422.4173
 20
86.1768
 10
421.7114
 20
86.2047
 10
420.898
 20
86.1681
 10
420.1158
 20
86.0582
 10
419.365
 20
85.875
 10
418.6455
 20
85.6187
 10
417.9573
 20
85.2891
 10
417.3004
 20
84.8863
 10
416.6748
 20
84.4103
 10
416.0805
 20
83.8611
 10
415.5335
 20
83.2564
 10
415.0594
 20
82.622
 10
414.6582
 20
81.9582
 10
414.3299
 20
81.2648
 10
414.0745
 20
80.542
 10
413.8921
 20
79.7897
 10
413.7826
 20
79.008
 10
413.7461
 20
78.1969
 10
413.7823
 20
77.3738
 10
413.891
 20
76.5836
 10
414.072
 20
75.8263
 10
414.3254
 20
75.1017
 10
414.6512
 20
74.41
 10
415.0492
 20
73.751
 10
415.5195
 20
73.1248
 10
416.0621
 20
72.5312
 10
416.3398
 20
72.2675
 10
416.6282
 20
72.018
 10
416.9276
 20
71.7826
 10
417.2378
 20
71.5614
 10
417.559
 20
71.3543
 10
417.8911
 20
71.1614
 10
418.2342
 20
70.9826
 10
418.5883
 20
70.8178
 10
418.9529
 20
70.6704
 10
419.3273
 20
70.5427
 10
419.7116
 20
70.4347
 10
420.1058
 20
70.3463
 10
420.5098
 20
70.2775
 10
420.9237
 20
70.2284
 10
421.3474
 20
70.1989
 10
421.781
 20
70.1891
  0
LWPOLYLINE
  5
F1
330
1F
100
AcDbEntity
  8
Layer 1
 62
     7
370
     9
100
AcDbPolyline
 90
      165
 70
     1
 43
0.0
 10
437.9218
 20
118.7232
 10
437.9218
 20
121.1716
 10
428.2728
 20
121.1716
 10
427.632
 20
121.1516
 10
427.0215
 20
121.0917
 10
426.4411
 20
120.9919
 10
425.891
 20
120.8523
 10
425.3709
 20
120.6728
 10
424.8811
 20
120.4535
 10
424.4214
 20
120.1945
 10
423.9918
 20
119.8957
 10
423.7865
 20
119.7286
 10
423.5917
 20
119.5511
 10
423.4072
 20
119.3632
 10
423.2331
 20
119.165
 10
423.0694
 20
118.9564
 10
422.9161
 20
118.7375
 10
422.7731
 20
118.5082
 10
422.6406
 20
118.2686
 10
422.5216
 20
118.014
 10
422.4184
 20
117.7397
 10
422.331
 20
117.4458
 10
422.2594
 20
117.1322
 10
422.2037
 20
116.799
 10
422.1638
 20
116.4461
 10
422.1399
 20
116.0736
 10
422.1319
 20
115.6815
 10
422.1456
 20
115.2857
 10
422.1868
 20
114.9025
 10
422.2554
 20
114.5318
 10
422.3514
 20
114.1736
 10
422.4749
 20
113.8279
 10
422.6258
 20
113.4948
 10
422.8042
 20
113.1743
 10
423.01
 20
112.8664
 10
423.2148
 20
112.5994
 10
423.435
 20
112.3444
 10
423.6702
 20
112.1013
 10
423.9204
 20
111.8702
 10
424.1854
 20
111.651
 10
424.465
 20
111.4437
 10
424.7591
 20
111.2484
 10
425.0674
 20
111.0651
 10
424.783
 20
110.9234
 10
424.5083
 20
110.7681
 10
424.2442
 20
110.5995
 10
423.9918
 20
110.418
 10
423.7865
 20
110.2513
 10
423.5917
 20
110.0742
 10
423.4072
 20
109.8866
 10
423.2331
 20
109.6885
 10
423.0694
 20
109.48
 10
422.9161
 20
109.2612
 10
422.7731
 20
109.0319
 10
422.6406
 20
108.7923
 10
422.5216
 20
108.5377
 10
422.4184
 20
108.2634
 10
422.331
 20
107.9695
 10
422.2594
 20
107.656
 10
422.2037
 20
107.3227
 10
422.1638
 20
106.9699
 10
422.1399
 20
106.5974
 10
422.1319
 20
106.2052
 10
422.1456
 20
105.8094
 10
422.1868
 20
105.4262
 10
422.2554
 20
105.0555
 10
422.3514
 20
104.6973
 10
422.4749
 20
104.3516
 10
422.6258
 20
104.0185
 10
422.8042
 20
103.698
 10
423.01
 20
103.3901
 10
423.2052
 20
103.1354
 10
423.4135
 20
102.8917
 10
423.6351
 20
102.659
 10
423.87
 20
102.4373
 10
424.1183
 20
102.2265
 10
424.3803
 20
102.0266
 10
424.6559
 20
101.8377
 10
424.9452
 20
101.6596
 10
422.4829
 20
101.6596
 10
422.4829
 20
99.2113
 10
437.9218
 20
99.2113
 10
437.9218
 20
101.6596
 10
430.0205
 20
101.6596
 10
429.5606
 20
101.7162
 10
429.1185
 20
101.7903
 10
428.6942
 20
101.8819
 10
428.2874
 20
101.991
 10
427.8981
 20
102.1176
 10
427.5261
 20
102.2618
 10
427.1713
 20
102.4235
 10
426.8335
 20
102.6027
 10
426.5934
 20
102.7489
 10
426.3643
 20
102.907
 10
426.1462
 20
103.0771
 10
425.9391
 20
103.2591
 10
425.7429
 20
103.4531
 10
425.5575
 20
103.659
 10
425.3831
 20
103.8768
 10
425.2194
 20
104.1066
 10
425.0716
 20
104.345
 10
424.9434
 20
104.5877
 10
424.835
 20
104.8347
 10
424.7463
 20
105.086
 10
424.6773
 20
105.3416
 10
424.628
 20
105.6015
 10
424.5985
 20
105.8658
 10
424.5886
 20
106.1344
 10
424.5938
 20
106.3969
 10
424.6094
 20
106.6418
 10
424.6353
 20
106.8692
 10
424.6717
 20
107.0789
 10
424.7184
 20
107.2711
 10
424.7756
 20
107.4459
 10
424.8431
 20
107.6032
 10
424.921
 20
107.743
 10
425.1827
 20
108.0955
 10
425.4893
 20
108.401
 10
425.8408
 20
108.6594
 10
426.2373
 20
108.8709
 10
426.6787
 20
109.0354
 10
427.1651
 20
109.1529
 10
427.6964
 20
109.2234
 10
428.2728
 20
109.2469
 10
437.9218
 20
109.2469
 10
437.9218
 20
111.6953
 10
428.2728
 20
111.6953
 10
427.6818
 20
111.6769
 10
427.4581
 20
111.768
 10
427.2427
 20
111.8652
 10
427.0348
 20
111.9688
 10
426.8335
 20
112.079
 10
426.5934
 20
112.2252
 10
426.3643
 20
112.3833
 10
426.1462
 20
112.5534
 10
425.9391
 20
112.7354
 10
425.7429
 20
112.9293
 10
425.5575
 20
113.1352
 10
425.3831
 20
113.3531
 10
425.2194
 20
113.5829
 10
425.0716
 20
113.8213
 10
424.9434
 20
114.064
 10
424.835
 20
114.3111
 10
424.7463
 20
114.5624
 10
424.6773
 20
114.8182
 10
424.628
 20
115.0784
 10
424.5985
 20
115.343
 10
424.5886
 20
115.6121
 10
424.5938
 20
115.8742
 10
424.6094
 20
116.1189
 10
424.6353
 20
116.3462
 10
424.6717
 20
116.5559
 10
424.7184
 20
116.7481
 10
424.7756
 20
116.9228
 10
424.8431
 20
117.0799
 10
424.921
 20
117.2193
 10
425.1827
 20
117.5718
 10
425.4893
 20
117.8773
 10
425.8408
 20
118.1357
 10
426.2373
 20
118.3472
 10
426.6787
 20
118.5117
 10
427.1651
 20
118.6292
 10
427.6964
 20
118.6997
 10
428.2728
 20
118.7232
 10
437.9218
 20
118.7232
  0
LWPOLYLINE
  5
F2
330
1F
100
AcDbEntity
  8
Layer 1
 62
     7
370
     9
100
AcDbPolyline
 90
      165
 70
     1
 43
0.0
 10
437.9218
 20
145.4046
 10
437.9218
 20
147.853
 10
428.2728
 20
147.853
 10
427.632
 20
147.833
 10
427.0215
 20
147.7731
 10
426.4411
 20
147.6733
 10
425.891
 20
147.5337
 10
425.3709
 20
147.3542
 10
424.8811
 20
147.1349
 10
424.4214
 20
146.8759
 10
423.9918
 20
146.5771
 10
423.7865
 20
146.41
 10
423.5917
 20
146.2325
 10
423.4072
 20
146.0446
 10
423.2331
 20
145.8464
 10
423.0694
 20
145.6379
 10
422.9161
 20
145.419
 10
422.7731
 20
145.1897
 10
422.6406
 20
144.9501
 10
422.5216
 20
144.6955
 10
422.4184
 20
144.4212
 10
422.331
 20
144.1273
 10
422.2594
 20
143.8137
 10
422.2037
 20
143.4805
 10
422.1638
 20
143.1276
 10
422.1399
 20
142.7551
 10
422.1319
 20
142.3629
 10
422.1456
 20
141.9672
 10
422.1868
 20
141.5839
 10
422.2554
 20
141.2132
 10
422.3514
 20
140.855
 10
422.4749
 20
140.5093
 10
422.6258
 20
140.1762
 10
422.8042
 20
139.8557
 10
423.01
 20
139.5478
 10
423.2148
 20
139.2808
 10
423.435
 20
139.0258
 10
423.6702
 20
138.7827
 10
423.9204
 20
138.5516
 10
424.1854
 20
138.3324
 10
424.465
 20
138.1252
 10
424.7591
 20
137.9299
 10
425.0674
 20
137.7466
 10
424.783
 20
137.6048
 10
424.5083
 20
137.4496
 10
424.2442
 20
137.281
 10
423.9918
 20
137.0994
 10
423.7865
 20
136.9328
 10
423.5917
 20
136.7556
 10
423.4072
 20
136.568
 10
423.2331
 20
136.37
 10
423.0694
 20
136.1615
 10
422.9161
 20
135.9427
 10
422.7731
 20
135.7134
 10
422.6406
 20
135.4738
 10
422.5216
 20
135.2192
 10
422.4184
 20
134.9449
 10
422.331
 20
134.651
 10
422.2594
 20
134.3374
 10
422.2037
 20
134.0042
 10
422.1638
 20
133.6513
 10
422.1399
 20
133.2788
 10
422.1319
 20
132.8866
 10
422.1456
 20
132.4909
 10
422.1868
 20
132.1076
 10
422.2554
 20
131.7369
 10
422.3514
 20
131.3787
 10
422.4749
 20
131.033
 10
422.6258
 20
130.6999
 10
422.8042
 20
130.3794
 10
423.01
 20
130.0715
 10
423.2052
 20
129.8168
 10
423.4135
 20
129.5731
 10
423.6351
 20
129.3404
 10
423.87
 20
129.1187
 10
424.1183
 20
128.9079
 10
424.3803
 20
128.708
 10
424.6559
 20
128.5191
 10
424.9452
 20
128.3411
 10
422.4829
 20
128.3411
 10
422.4829
 20
125.8927
 10
437.9218
 20
125.8927
 10
437.9218
 20
128.3411
 10
430.0205
 20
128.3411
 10
429.5606
 20
128.3976
 10
429.1185
 20
128.4717
 10
428.6942
 20
128.5633
 10
428.2874
 20
128.6724
 10
427.8981
 20
128.7991
 10
427.5261
 20
128.9433
 10
427.1713
 20
129.105
 10
426.8335
 20
129.2842
 10
426.5934
 20
129.4304
 10
426.3643
 20
129.5885
 10
426.1462
 20
129.7585
 10
425.9391
 20
129.9405
 10
425.7429
 20
130.1345
 10
425.5575
 20
130.3404
 10
425.3831
 20
130.5582
 10
425.2194
 20
130.788
 10
425.0716
 20
131.0265
 10
424.9434
 20
131.2692
 10
424.835
 20
131.5162
 10
424.7463
 20
131.7674
 10
424.6773
 20
132.023
 10
424.628
 20
132.2829
 10
424.5985
 20
132.5472
 10
424.5886
 20
132.8158
 10
424.5938
 20
133.0784
 10
424.6094
 20
133.3233
 10
424.6353
 20
133.5506
 10
424.6717
 20
133.7604
 10
424.7184
 20
133.9526
 10
424.7756
 20
134.1273
 10
424.8431
 20
134.2846
 10
424.921
 20
134.4245
 10
425.1827
 20
134.777
 10
425.4893
 20
135.0824
 10
425.8408
 20
135.3409
 10
426.2373
 20
135.5524
 10
426.6787
 20
135.7168
 10
427.1651
 20
135.8343
 10
427.6964
 20
135.9048
 10
428.2728
 20
135.9283
 10
437.9218
 20
135.9283
 10
437.9218
 20
138.3767
 10
428.2728
 20
138.3767
 10
427.6818
 20
138.3583
 10
427.4581
 20
138.4494
 10
427.2427
 20
138.5467
 10
427.0348
 20
138.6503
 10
426.8335
 20
138.7605
 10
426.5934
 20
138.9067
 10
426.3643
 20
139.0648
 10
426.1462
 20
139.2348
 10
425.9391
 20
139.4168
 10
425.7429
 20
139.6108
 10
425.5575
 20
139.8167
 10
425.3831
 20
140.0345
 10
425.2194
 20
140.2643
 10
425.0716
 20
140.5027
 10
424.9434
 20
140.7455
 10
424.835
 20
140.9925
 10
424.7463
 20
141.2439
 10
424.6773
 20
141.4997
 10
424.628
 20
141.7598
 10
424.5985
 20
142.0245
 10
424.5886
 20
142.2936
 10
424.5938
 20
142.5557
 10
424.6094
 20
142.8004
 10
424.6353
 20
143.0276
 10
424.6717
 20
143.2373
 10
424.7184
 20
143.4296
 10
424.7756
 20
143.6042
 10
424.8431
 20
143.7613
 10
424.921
 20
143.9008
 10
425.1827
 20
144.2533
 10
425.4893
 20
144.5587
 10
425.8408
 20
144.8172
 10
426.2373
 20
145.0287
 10
426.6787
 20
145.1931
 10
427.1651
 20
145.3106
 10
427.6964
 20
145.3811
 10
428.2728
 20
145.4046
 10
437.9218
 20
145.4046
  0
ENDSEC
  0
SECTION
  2
OBJECTS
  0
DICTIONARY
  5
C
330
0
100
AcDbDictionary
281
     1
  3
ACAD_DETAILVIEWSTYLE
350
FA
  3
ACAD_GROUP
350
D
  3
ACAD_LAYOUT
350
1A
  3
ACAD_MATERIAL
350
43
  3
ACAD_MLEADERSTYLE
350
5B
  3
ACAD_MLINESTYLE
350
17
  3
ACAD_PLOTSETTINGS
350
19
  3
ACAD_PLOTSTYLENAME
350
E
  3
ACAD_SCALELIST
350
47
  3
ACAD_SECTIONVIEWSTYLE
350
FB
  3
ACAD_TABLESTYLE
350
59
  3
ACAD_VISUALSTYLE
350
2A
  3
ACDB_RECOMPOSE_DATA
350
F7
  3
AcDbVariableDictionary
350
F3
  0
SUN
  5
5D
330
29
100
AcDbSun
 90
        1
290
     0
 63
     7
421
 16777215
 40
1.0
291
     1
 91
  2455826
 92
 54000000
292
     0
 70
     2
 71
   256
280
     1
  0
DICTIONARY
  5
FA
102
{ACAD_REACTORS
330
C
102
}
330
C
100
AcDbDictionary
281
     1
  0
DICTIONARY
  5
D
102
{ACAD_REACTORS
330
C
102
}
330
C
100
AcDbDictionary
281
     1
  0
DICTIONARY
  5
1A
102
{ACAD_REACTORS
330
C
102
}
330
C
100
AcDbDictionary
281
     1
  3
Layout1
350
1E
  3
Layout2
350
26
  3
Model
350
22
  0
DICTIONARY
  5
43
102
{ACAD_REACTORS
330
C
102
}
330
C
100
AcDbDictionary
281
     1
  3
ByBlock
350
45
  3
ByLayer
350
44
  3
Global
350
46
  0
DICTIONARY
  5
5B
102
{ACAD_REACTORS
330
C
102
}
330
C
100
AcDbDictionary
281
     1
  3
Standard
350
5C
  0
DICTIONARY
  5
17
102
{ACAD_REACTORS
330
C
102
}
330
C
100
AcDbDictionary
281
     1
  3
Standard
350
18
  0
DICTIONARY
  5
19
102
{ACAD_REACTORS
330
C
102
}
330
C
100
AcDbDictionary
281
     1
  0
ACDBDICTIONARYWDFLT
  5
E
102
{ACAD_REACTORS
330
C
102
}
330
C
100
AcDbDictionary
281
     1
  3
Normal
350
F
100
AcDbDictionaryWithDefault
340
F
  0
DICTIONARY
  5
47
102
{ACAD_REACTORS
330
C
102
}
330
C
100
AcDbDictionary
281
     1
  3
A0
350
48
  3
A1
350
49
  3
A2
350
4A
  3
A3
350
4B
  3
A4
350
4C
  3
A5
350
4D
  3
A6
350
4E
  3
A7
350
4F
  3
A8
350
50
  3
A9
350
51
  3
B1
350
52
  3
B2
350
53
  3
B3
350
54
  3
B4
350
55
  3
B5
350
56
  3
B6
350
57
  3
B7
350
58
  0
DICTIONARY
  5
FB
102
{ACAD_REACTORS
330
C
102
}
330
C
100
AcDbDictionary
281
     1
  0
DICTIONARY
  5
59
102
{ACAD_REACTORS
330
C
102
}
330
C
100
AcDbDictionary
281
     1
  3
Standard
350
5A
  0
DICTIONARY
  5
2A
102
{ACAD_REACTORS
330
C
102
}
330
C
100
AcDbDictionary
281
     1
  3
2dWireframe
350
2F
  3
Basic
350
32
  3
Brighten
350
36
  3
ColorChange
350
3A
  3
Conceptual
350
34
  3
Dim
350
35
  3
EdgeColorOff
350
3D
  3
Facepattern
350
39
  3
Flat
350
2B
  3
FlatWithEdges
350
2C
  3
Gouraud
350
2D
  3
GouraudWithEdges
350
2E
  3
Hidden
350
31
  3
JitterOff
350
3B
  3
Linepattern
350
38
  3
OverhangOff
350
3C
  3
Realistic
350
33
  3
Shaded
350
42
  3
Shaded with edges
350
41
  3
Shades of Gray
350
3E
  3
Sketchy
350
3F
  3
Thicken
350
37
  3
Wireframe
350
30
  3
X-Ray
350
40
  0
XRECORD
  5
F7
102
{ACAD_REACTORS
330
C
102
}
330
C
100
AcDbXrecord
280
     1
 90
        1
330
5A
  0
DICTIONARY
  5
F3
102
{ACAD_REACTORS
330
C
102
}
330
C
100
AcDbDictionary
281
     1
  3
CANNOSCALE
350
F4
  3
CMLEADERSTYLE
350
F9
  3
CTABLESTYLE
350
F8
  0
LAYOUT
  5
1E
102
{ACAD_REACTORS
330
1A
102
}
330
1A
100
AcDbPlotSettings
  1

  2
none_device
  4

  6

 40
0.0
 41
0.0
 42
0.0
 43
0.0
 44
0.0
 45
0.0
 46
0.0
 47
0.0
 48
0.0
 49
0.0
140
0.0
141
0.0
142
1.0
143
1.0
 70
   688
 72
     0
 73
     0
 74
     5
  7

 75
    16
 76
     0
 77
     2
 78
   300
147
1.0
148
0.0
149
0.0
100
AcDbLayout
  1
Layout1
 70
     1
 71
     1
 10
0.0
 20
0.0
 11
12.0
 21
9.0
 12
0.0
 22
0.0
 32
0.0
 14
1.000000000000000E+20
 24
1.000000000000000E+20
 34
1.000000000000000E+20
 15
-1.000000000000000E+20
 25
-1.000000000000000E+20
 35
-1.000000000000000E+20
146
0.0
 13
0.0
 23
0.0
 33
0.0
 16
1.0
 26
0.0
 36
0.0
 17
0.0
 27
1.0
 37
0.0
 76
     0
330
1B
  0
LAYOUT
  5
26
102
{ACAD_REACTORS
330
1A
102
}
330
1A
100
AcDbPlotSettings
  1

  2
none_device
  4

  6

 40
0.0
 41
0.0
 42
0.0
 43
0.0
 44
0.0
 45
0.0
 46
0.0
 47
0.0
 48
0.0
 49
0.0
140
0.0
141
0.0
142
1.0
143
1.0
 70
   688
 72
     0
 73
     0
 74
     5
  7

 75
    16
 76
     0
 77
     2
 78
   300
147
1.0
148
0.0
149
0.0
100
AcDbLayout
  1
Layout2
 70
     1
 71
     2
 10
0.0
 20
0.0
 11
0.0
 21
0.0
 12
0.0
 22
0.0
 32
0.0
 14
0.0
 24
0.0
 34
0.0
 15
0.0
 25
0.0
 35
0.0
146
0.0
 13
0.0
 23
0.0
 33
0.0
 16
1.0
 26
0.0
 36
0.0
 17
0.0
 27
1.0
 37
0.0
 76
     0
330
23
  0
LAYOUT
  5
22
102
{ACAD_REACTORS
330
1A
102
}
330
1A
100
AcDbPlotSettings
  1

  2
none_device
  4
Letter_(8.50_x_11.00_Inches)
  6

 40
6.35
 41
6.35
 42
6.35000508
 43
6.35000508
 44
215.9
 45
279.4
 46
0.0
 47
0.0
 48
0.0
 49
0.0
140
0.0
141
0.0
142
1.0
143
1.0
 70
  1712
 72
     0
 73
     0
 74
     0
  7

 75
     0
 76
     0
 77
     2
 78
   300
147
1.0
148
0.0
149
0.0
100
AcDbLayout
  1
Model
 70
     1
 71
     0
 10
0.0
 20
0.0
 11
12.0
 21
9.0
 12
0.0
 22
0.0
 32
0.0
 14
156.063
 24
-190.5207
 34
0.0
 15
497.4305
 25
353.9567
 35
0.0
146
0.0
 13
0.0
 23
0.0
 33
0.0
 16
1.0
 26
0.0
 36
0.0
 17
0.0
 27
1.0
 37
0.0
 76
     0
330
1F
331
29
  0
MATERIAL
  5
45
102
{ACAD_REACTORS
330
43
102
}
330
43
100
AcDbMaterial
  1
ByBlock
 72
     1
 94
      127
  0
MATERIAL
  5
44
102
{ACAD_REACTORS
330
43
102
}
330
43
100
AcDbMaterial
  1
ByLayer
 72
     1
 94
      127
  0
MATERIAL
  5
46
102
{ACAD_REACTORS
330
43
102
}
330
43
100
AcDbMaterial
  1
Global
 72
     1
 94
      127
  0
MLEADERSTYLE
  5
5C
102
{ACAD_REACTORS
330
5B
102
}
330
5B
100
AcDbMLeaderStyle
179
     2
170
     2
171
     1
172
     0
 90
        2
 40
0.0
 41
0.0
173
     1
 91
-1056964608
340
14
 92
       -2
290
     1
 42
0.09
291
     1
 43
0.36
  3
Standard
341
0
 44
0.18
300

342
11
174
     1
178
     6
175
     1
176
     0
 93
-1056964608
 45
0.18
292
     0
297
     0
 46
0.18
343
0
 94
-1056964608
 47
1.0
 49
1.0
140
1.0
293
     1
141
0.0
294
     1
177
     0
142
1.0
295
     0
296
     0
143
0.125
271
     0
272
     9
273
     9
298
     0
  0
MLINESTYLE
  5
18
102
{ACAD_REACTORS
330
17
102
}
330
17
100
AcDbMlineStyle
  2
Standard
 70
     0
  3

 62
   256
 51
90.0
 52
90.0
 71
     2
 49
0.5
 62
   256
  6
BYLAYER
 49
-0.5
 62
   256
  6
BYLAYER
  0
ACDBPLACEHOLDER
  5
F
102
{ACAD_REACTORS
330
E
102
}
330
E
  0
SCALE
  5
48
102
{ACAD_REACTORS
330
47
102
}
330
47
100
AcDbScale
 70
     0
300
1:1
140
1.0
141
1.0
290
     1
  0
SCALE
  5
49
102
{ACAD_REACTORS
330
47
102
}
330
47
100
AcDbScale
 70
     0
300
1/128" = 1'-0"
140
0.0078125
141
12.0
290
     0
  0
SCALE
  5
4A
102
{ACAD_REACTORS
330
47
102
}
330
47
100
AcDbScale
 70
     0
300
1/64" = 1'-0"
140
0.015625
141
12.0
290
     0
  0
SCALE
  5
4B
102
{ACAD_REACTORS
330
47
102
}
330
47
100
AcDbScale
 70
     0
300
1/32" = 1'-0"
140
0.03125
141
12.0
290
     0
  0
SCALE
  5
4C
102
{ACAD_REACTORS
330
47
102
}
330
47
100
AcDbScale
 70
     0
300
1/16" = 1'-0"
140
0.0625
141
12.0
290
     0
  0
SCALE
  5
4D
102
{ACAD_REACTORS
330
47
102
}
330
47
100
AcDbScale
 70
     0
300
3/32" = 1'-0"
140
0.09375
141
12.0
290
     0
  0
SCALE
  5
4E
102
{ACAD_REACTORS
330
47
102
}
330
47
100
AcDbScale
 70
     0
300
1/8" = 1'-0"
140
0.125
141
12.0
290
     0
  0
SCALE
  5
4F
102
{ACAD_REACTORS
330
47
102
}
330
47
100
AcDbScale
 70
     0
300
3/16" = 1'-0"
140
0.1875
141
12.0
290
     0
  0
SCALE
  5
50
102
{ACAD_REACTORS
330
47
102
}
330
47
100
AcDbScale
 70
     0
300
1/4" = 1'-0"
140
0.25
141
12.0
290
     0
  0
SCALE
  5
51
102
{ACAD_REACTORS
330
47
102
}
330
47
100
AcDbScale
 70
     0
300
3/8" = 1'-0"
140
0.375
141
12.0
290
     0
  0
SCALE
  5
52
102
{ACAD_REACTORS
330
47
102
}
330
47
100
AcDbScale
 70
     0
300
1/2" = 1'-0"
140
0.5
141
12.0
290
     0
  0
SCALE
  5
53
102
{ACAD_REACTORS
330
47
102
}
330
47
100
AcDbScale
 70
     0
300
3/4" = 1'-0"
140
0.75
141
12.0
290
     0
  0
SCALE
  5
54
102
{ACAD_REACTORS
330
47
102
}
330
47
100
AcDbScale
 70
     0
300
1" = 1'-0"
140
1.0
141
12.0
290
     0
  0
SCALE
  5
55
102
{ACAD_REACTORS
330
47
102
}
330
47
100
AcDbScale
 70
     0
300
1-1/2" = 1'-0"
140
1.5
141
12.0
290
     0
  0
SCALE
  5
56
102
{ACAD_REACTORS
330
47
102
}
330
47
100
AcDbScale
 70
     0
300
3" = 1'-0"
140
3.0
141
12.0
290
     0
  0
SCALE
  5
57
102
{ACAD_REACTORS
330
47
102
}
330
47
100
AcDbScale
 70
     0
300
6" = 1'-0"
140
6.0
141
12.0
290
     0
  0
SCALE
  5
58
102
{ACAD_REACTORS
330
47
102
}
330
47
100
AcDbScale
 70
     0
300
1'-0" = 1'-0"
140
12.0
141
12.0
290
     0
  0
TABLESTYLE
  5
5A
102
{ACAD_REACTORS
330
59
102
}
102
{ACAD_XDICTIONARY
360
F5
102
}
330
59
100
AcDbTableStyle
  3
Standard
 70
     0
 71
     0
 40
0.06
 41
0.06
280
     0
281
     0
  7
Standard
140
0.18
170
     2
 62
     0
 63
   257
283
     0
 90
        4
 91
        0
  1

274
    -2
284
     1
 64
     0
275
    -2
285
     1
 65
     0
276
    -2
286
     1
 66
     0
277
    -2
287
     1
 67
     0
278
    -2
288
     1
 68
     0
279
    -2
289
     1
 69
     0
  7
Standard
140
0.25
170
     5
 62
     0
 63
   257
283
     0
 90
        4
 91
        0
  1

274
    -2
284
     1
 64
     0
275
    -2
285
     1
 65
     0
276
    -2
286
     1
 66
     0
277
    -2
287
     1
 67
     0
278
    -2
288
     1
 68
     0
279
    -2
289
     1
 69
     0
  7
Standard
140
0.18
170
     5
 62
     0
 63
   257
283
     0
 90
        4
 91
        0
  1

274
    -2
284
     1
 64
     0
275
    -2
285
     1
 65
     0
276
    -2
286
     1
 66
     0
277
    -2
287
     1
 67
     0
278
    -2
288
     1
 68
     0
279
    -2
289
     1
 69
     0
  0
VISUALSTYLE
  5
2F
102
{ACAD_REACTORS
330
2A
102
}
330
2A
100
AcDbVisualStyle
  2
2dWireframe
 70
     4
177
     3
291
     0
 70
    58
 90
        0
176
     1
 90
        2
176
     1
 90
        0
176
     1
 90
        0
176
     1
 40
0.6
176
     1
 40
30.0
176
     1
 62
     7
420
 16777215
176
     1
 90
        1
176
     1
 90
        4
176
     1
 62
     7
176
     1
 62
   257
176
     1
 90
        1
176
     1
 90
        1
176
     1
 40
1.0
176
     1
 90
        0
176
     1
 62
   257
176
     1
 40
1.0
176
     1
 90
        1
176
     1
 90
        6
176
     1
 90
        2
176
     1
 62
     7
176
     1
 90
        5
176
     1
 90
        0
176
     1
 90
        0
176
     1
290
     0
176
     1
 90
        1
176
     1
 40
0.0
176
     1
 90
        0
176
     1
290
     1
176
     1
290
     1
176
     1
290
     0
176
     1
290
     0
176
     1
290
     0
176
     1
290
     0
176
     1
290
     0
176
     1
290
     0
176
     1
290
     0
176
     1
 90
       50
176
     1
 40
0.0
176
     1
 40
1.0
176
     1
 90
        0
176
     1
 62
    18
420
        0
176
     1
 90
       50
176
     1
 90
        3
176
     1
 62
     5
420
      255
176
     1
290
     0
176
     1
 90
       50
176
     1
 90
       50
176
     1
 90
       50
176
     1
290
     0
176
     1
 90
       50
176
     1
 62
   256
176
     0
 40
1.0
176
     0
 90
        2
176
     1
  1
strokes_ogs.tif
176
     1
290
     0
176
     1
 40
1.0
176
     1
 40
1.0
176
     1
  0
VISUALSTYLE
  5
32
102
{ACAD_REACTORS
330
2A
102
}
330
2A
100
AcDbVisualStyle
  2
Basic
 70
     7
177
     3
291
     1
 70
    58
 90
        1
176
     1
 90
        0
176
     1
 90
        1
176
     1
 90
        0
176
     1
 40
0.6
176
     1
 40
30.0
176
     1
 62
     7
420
 16777215
176
     1
 90
        0
176
     1
 90
        4
176
     1
 62
     7
176
     1
 62
   257
176
     1
 90
        1
176
     1
 90
        1
176
     1
 40
1.0
176
     1
 90
        8
176
     1
 62
     7
176
     1
 40
1.0
176
     1
 90
        1
176
     1
 90
        6
176
     1
 90
        2
176
     1
 62
     7
176
     1
 90
        5
176
     1
 90
        0
176
     1
 90
        0
176
     1
290
     0
176
     1
 90
        1
176
     1
 40
0.0
176
     1
 90
        0
176
     1
290
     0
176
     1
290
     1
176
     1
290
     1
176
     1
290
     0
176
     1
290
     0
176
     1
290
     0
176
     1
290
     0
176
     1
290
     0
176
     1
290
     0
176
     1
 90
       50
176
     1
 40
0.0
176
     1
 40
1.0
176
     1
 90
        0
176
     1
 62
    18
420
        0
176
     1
 90
       50
176
     1
 90
        3
176
     1
 62
     5
420
      255
176
     1
290
     0
176
     1
 90
       50
176
     1
 90
       50
176
     1
 90
       50
176
     1
290
     0
176
     1
 90
       50
176
     1
 62
   256
176
     0
 40
1.0
176
     0
 90
        2
176
     1
  1
strokes_ogs.tif
176
     1
290
     0
176
     1
 40
1.0
176
     1
 40
1.0
176
     1
  0
VISUALSTYLE
  5
36
102
{ACAD_REACTORS
330
2A
102
}
330
2A
100
AcDbVisualStyle
  2
Brighten
 70
    12
177
     3
291
     1
 70
    58
 90
        2
176
     1
 90
        2
176
     1
 90
        0
176
     1
 90
        0
176
     1
 40
0.6
176
     1
 40
30.0
176
     1
 62
     7
420
 16777215
176
     1
 90
        1
176
     1
 90
        4
176
     1
 62
     7
176
     1
 62
   257
176
     1
 90
        1
176
     1
 90
        1
176
     1
 40
1.0
176
     1
 90
        8
176
     1
 62
     7
176
     1
 40
1.0
176
     1
 90
        1
176
     1
 90
        6
176
     1
 90
        2
176
     1
 62
     7
176
     1
 90
        5
176
     1
 90
        0
176
     1
 90
        0
176
     1
290
     0
176
     1
 90
        1
176
     1
 40
50.0
176
     1
 90
        0
176
     1
290
     0
176
     1
290
     1
176
     1
290
     1
176
     1
290
     0
176
     1
290
     0
176
     1
290
     0
176
     1
290
     0
176
     1
290
     0
176
     1
290
     0
176
     1
 90
       50
176
     1
 40
0.0
176
     1
 40
1.0
176
     1
 90
        0
176
     1
 62
    18
420
        0
176
     1
 90
       50
176
     1
 90
        3
176
     1
 62
     5
420
      255
176
     1
290
     0
176
     1
 90
       50
176
     1
 90
       50
176
     1
 90
       50
176
     1
290
     0
176
     1
 90
       50
176
     1
 62
   256
176
     0
 40
1.0
176
     0
 90
        2
176
     1
  1
strokes_ogs.tif
176
     1
290
     0
176
     1
 40
1.0
176
     1
 40
1.0
176
     1
  0
VISUALSTYLE
  5
3A
102
{ACAD_REACTORS
330
2A
102
}
330
2A
100
AcDbVisualStyle
  2
ColorChange
 70
    16
177
     3
291
     1
 70
    58
 90
        2
176
     1
 90
        2
176
     1
 90
        3
176
     1
 90
        0
176
     1
 40
0.6
176
     1
 40
30.0
176
     1
 62
     8
420
  8421504
176
     1
 90
        1
176
     1
 90
        4
176
     1
 62
     7
176
     1
 62
   257
176
     1
 90
        1
176
     1
 90
        1
176
     1
 40
1.0
176
     1
 90
        8
176
     1
 62
     8
420
  8421504
176
     1
 40
1.0
176
     1
 90
        1
176
     1
 90
        6
176
     1
 90
        2
176
     1
 62
     7
176
     1
 90
        5
176
     1
 90
        0
176
     1
 90
        0
176
     1
290
     0
176
     1
 90
        1
176
     1
 40
0.0
176
     1
 90
        0
176
     1
290
     0
176
     1
290
     1
176
     1
290
     1
176
     1
290
     0
176
     1
290
     0
176
     1
290
     0
176
     1
290
     0
176
     1
290
     0
176
     1
290
     0
176
     1
 90
       50
176
     1
 40
0.0
176
     1
 40
1.0
176
     1
 90
        0
176
     1
 62
    18
420
        0
176
     1
 90
       50
176
     1
 90
        3
176
     1
 62
     5
420
      255
176
     1
290
     0
176
     1
 90
       50
176
     1
 90
       50
176
     1
 90
       50
176
     1
290
     0
176
     1
 90
       50
176
     1
 62
   256
176
     0
 40
1.0
176
     0
 90
        2
176
     1
  1
strokes_ogs.tif
176
     1
290
     0
176
     1
 40
1.0
176
     1
 40
1.0
176
     1
  0
VISUALSTYLE
  5
34
102
{ACAD_REACTORS
330
2A
102
}
330
2A
100
AcDbVisualStyle
  2
Conceptual
 70
     9
177
     3
291
     0
 70
    58
 90
        3
176
     1
 90
        2
176
     1
 90
        0
176
     1
 90
        0
176
     1
 40
0.6
176
     1
 40
30.0
176
     1
 62
     7
420
 16777215
176
     1
 90
        2
176
     1
 90
        2
176
     1
 62
     7
176
     1
 62
   257
176
     1
 90
        1
176
     1
 90
        1
176
     1
 40
179.0
176
     1
 90
        8
176
     1
 62
     7
176
     1
 40
1.0
176
     1
 90
        1
176
     1
 90
        6
176
     1
 90
        2
176
     1
 62
     7
176
     1
 90
        3
176
     1
 90
        0
176
     1
 90
        0
176
     1
290
     0
176
     1
 90
        1
176
     1
 40
0.0
176
     1
 90
        0
176
     1
290
     0
176
     1
290
     1
176
     1
290
     1
176
     1
290
     0
176
     1
290
     0
176
     1
290
     0
176
     1
290
     0
176
     1
290
     0
176
     1
290
     0
176
     1
 90
       50
176
     1
 40
0.0
176
     1
 40
1.0
176
     1
 90
        0
176
     1
 62
    18
420
        0
176
     1
 90
       50
176
     1
 90
        3
176
     1
 62
     5
420
      255
176
     1
290
     0
176
     1
 90
       50
176
     1
 90
       50
176
     1
 90
       50
176
     1
290
     0
176
     1
 90
       50
176
     1
 62
   256
176
     0
 40
1.0
176
     0
 90
        2
176
     1
  1
strokes_ogs.tif
176
     1
290
     0
176
     1
 40
1.0
176
     1
 40
1.0
176
     1
  0
VISUALSTYLE
  5
35
102
{ACAD_REACTORS
330
2A
102
}
330
2A
100
AcDbVisualStyle
  2
Dim
 70
    11
177
     3
291
     1
 70
    58
 90
        2
176
     1
 90
        2
176
     1
 90
        0
176
     1
 90
        0
176
     1
 40
0.6
176
     1
 40
30.0
176
     1
 62
     7
420
 16777215
176
     1
 90
        1
176
     1
 90
        4
176
     1
 62
     7
176
     1
 62
   257
176
     1
 90
        1
176
     1
 90
        1
176
     1
 40
1.0
176
     1
 90
        8
176
     1
 62
     7
176
     1
 40
1.0
176
     1
 90
        1
176
     1
 90
        6
176
     1
 90
        2
176
     1
 62
     7
176
     1
 90
        5
176
     1
 90
        0
176
     1
 90
        0
176
     1
290
     0
176
     1
 90
        1
176
     1
 40
-50.0
176
     1
 90
        0
176
     1
290
     0
176
     1
290
     1
176
     1
290
     1
176
     1
290
     0
176
     1
290
     0
176
     1
290
     0
176
     1
290
     0
176
     1
290
     0
176
     1
290
     0
176
     1
 90
       50
176
     1
 40
0.0
176
     1
 40
1.0
176
     1
 90
        0
176
     1
 62
    18
420
        0
176
     1
 90
       50
176
     1
 90
        3
176
     1
 62
     5
420
      255
176
     1
290
     0
176
     1
 90
       50
176
     1
 90
       50
176
     1
 90
       50
176
     1
290
     0
176
     1
 90
       50
176
     1
 62
   256
176
     0
 40
1.0
176
     0
 90
        2
176
     1
  1
strokes_ogs.tif
176
     1
290
     0
176
     1
 40
1.0
176
     1
 40
1.0
176
     1
  0
VISUALSTYLE
  5
3D
102
{ACAD_REACTORS
330
2A
102
}
330
2A
100
AcDbVisualStyle
  2
EdgeColorOff
 70
    22
177
     3
291
     1
 70
    58
 90
        2
176
     0
 90
        2
176
     0
 90
        0
176
     0
 90
        0
176
     0
 40
0.6
176
     0
 40
30.0
176
     0
 62
     7
420
 16777215
176
     0
 90
        1
176
     0
 90
        4
176
     0
 62
     7
176
     0
 62
   257
176
     0
 90
        1
176
     0
 90
        1
176
     0
 40
1.0
176
     0
 90
        8
176
     2
 62
     7
176
     0
 40
1.0
176
     0
 90
        1
176
     0
 90
        6
176
     0
 90
        2
176
     0
 62
     7
176
     0
 90
        5
176
     0
 90
        0
176
     0
 90
        0
176
     0
290
     0
176
     0
 90
        1
176
     0
 40
0.0
176
     0
 90
        0
176
     0
290
     0
176
     0
290
     1
176
     0
290
     1
176
     0
290
     0
176
     0
290
     0
176
     0
290
     0
176
     0
290
     0
176
     0
290
     0
176
     0
290
     0
176
     0
 90
       50
176
     0
 40
0.0
176
     0
 40
1.0
176
     0
 90
        0
176
     0
 62
    18
420
        0
176
     0
 90
       50
176
     0
 90
        3
176
     0
 62
     5
420
      255
176
     0
290
     0
176
     0
 90
       50
176
     0
 90
       50
176
     0
 90
       50
176
     0
290
     0
176
     0
 90
       50
176
     0
 62
   256
176
     0
 40
1.0
176
     0
 90
        2
176
     0
  1
strokes_ogs.tif
176
     0
290
     0
176
     0
 40
1.0
176
     0
 40
1.0
176
     0
  0
VISUALSTYLE
  5
39
102
{ACAD_REACTORS
330
2A
102
}
330
2A
100
AcDbVisualStyle
  2
Facepattern
 70
    15
177
     3
291
     1
 70
    58
 90
        2
176
     1
 90
        2
176
     1
 90
        0
176
     1
 90
        0
176
     1
 40
0.6
176
     1
 40
30.0
176
     1
 62
     7
420
 16777215
176
     1
 90
        1
176
     1
 90
        4
176
     1
 62
     7
176
     1
 62
   257
176
     1
 90
        1
176
     1
 90
        1
176
     1
 40
1.0
176
     1
 90
        8
176
     1
 62
     7
176
     1
 40
1.0
176
     1
 90
        1
176
     1
 90
        6
176
     1
 90
        2
176
     1
 62
     7
176
     1
 90
        5
176
     1
 90
        0
176
     1
 90
        0
176
     1
290
     0
176
     1
 90
        1
176
     1
 40
0.0
176
     1
 90
        0
176
     1
290
     0
176
     1
290
     1
176
     1
290
     1
176
     1
290
     0
176
     1
290
     0
176
     1
290
     0
176
     1
290
     0
176
     1
290
     0
176
     1
290
     0
176
     1
 90
       50
176
     1
 40
0.0
176
     1
 40
1.0
176
     1
 90
        0
176
     1
 62
    18
420
        0
176
     1
 90
       50
176
     1
 90
        3
176
     1
 62
     5
420
      255
176
     1
290
     0
176
     1
 90
       50
176
     1
 90
       50
176
     1
 90
       50
176
     1
290
     0
176
     1
 90
       50
176
     1
 62
   256
176
     0
 40
1.0
176
     0
 90
        2
176
     1
  1
strokes_ogs.tif
176
     1
290
     0
176
     1
 40
1.0
176
     1
 40
1.0
176
     1
  0
VISUALSTYLE
  5
2B
102
{ACAD_REACTORS
330
2A
102
}
330
2A
100
AcDbVisualStyle
  2
Flat
 70
     0
177
     3
291
     1
 70
    58
 90
        2
176
     1
 90
        1
176
     1
 90
        1
176
     1
 90
        2
176
     1
 40
0.6
176
     1
 40
30.0
176
     1
 62
     7
420
 16777215
176
     1
 90
        0
176
     1
 90
        0
176
     1
 62
     7
176
     1
 62
   257
176
     1
 90
        1
176
     1
 90
        1
176
     1
 40
1.0
176
     1
 90
        8
176
     1
 62
     7
176
     1
 40
1.0
176
     1
 90
        1
176
     1
 90
        6
176
     1
 90
        2
176
     1
 62
     7
176
     1
 90
        5
176
     1
 90
        0
176
     1
 90
        0
176
     1
290
     0
176
     1
 90
       13
176
     1
 40
0.0
176
     1
 90
        0
176
     1
290
     0
176
     1
290
     1
176
     1
290
     1
176
     1
290
     0
176
     1
290
     0
176
     1
290
     0
176
     1
290
     0
176
     1
290
     0
176
     1
290
     0
176
     1
 90
       50
176
     1
 40
0.0
176
     1
 40
1.0
176
     1
 90
        0
176
     1
 62
    18
420
        0
176
     1
 90
       50
176
     1
 90
        3
176
     1
 62
     5
420
      255
176
     1
290
     0
176
     1
 90
       50
176
     1
 90
       50
176
     1
 90
       50
176
     1
290
     0
176
     1
 90
       50
176
     1
 62
   256
176
     0
 40
1.0
176
     0
 90
        2
176
     1
  1
strokes_ogs.tif
176
     1
290
     0
176
     1
 40
1.0
176
     1
 40
1.0
176
     1
  0
VISUALSTYLE
  5
2C
102
{ACAD_REACTORS
330
2A
102
}
330
2A
100
AcDbVisualStyle
  2
FlatWithEdges
 70
     1
177
     3
291
     1
 70
    58
 90
        2
176
     1
 90
        1
176
     1
 90
        1
176
     1
 90
        2
176
     1
 40
0.6
176
     1
 40
30.0
176
     1
 62
     7
420
 16777215
176
     1
 90
        1
176
     1
 90
        0
176
     1
 62
     7
176
     1
 62
   257
176
     1
 90
        1
176
     1
 90
        1
176
     1
 40
1.0
176
     1
 90
        0
176
     1
 62
   257
176
     1
 40
1.0
176
     1
 90
        1
176
     1
 90
        6
176
     1
 90
        2
176
     1
 62
     7
176
     1
 90
        5
176
     1
 90
        0
176
     1
 90
        0
176
     1
290
     0
176
     1
 90
       13
176
     1
 40
0.0
176
     1
 90
        0
176
     1
290
     0
176
     1
290
     1
176
     1
290
     1
176
     1
290
     0
176
     1
290
     0
176
     1
290
     0
176
     1
290
     0
176
     1
290
     0
176
     1
290
     0
176
     1
 90
       50
176
     1
 40
0.0
176
     1
 40
1.0
176
     1
 90
        0
176
     1
 62
    18
420
        0
176
     1
 90
       50
176
     1
 90
        3
176
     1
 62
     5
420
      255
176
     1
290
     0
176
     1
 90
       50
176
     1
 90
       50
176
     1
 90
       50
176
     1
290
     0
176
     1
 90
       50
176
     1
 62
   256
176
     0
 40
1.0
176
     0
 90
        2
176
     1
  1
strokes_ogs.tif
176
     1
290
     0
176
     1
 40
1.0
176
     1
 40
1.0
176
     1
  0
VISUALSTYLE
  5
2D
102
{ACAD_REACTORS
330
2A
102
}
330
2A
100
AcDbVisualStyle
  2
Gouraud
 70
     2
177
     3
291
     1
 70
    58
 90
        2
176
     1
 90
        2
176
     1
 90
        1
176
     1
 90
        2
176
     1
 40
0.6
176
     1
 40
30.0
176
     1
 62
     7
420
 16777215
176
     1
 90
        0
176
     1
 90
        0
176
     1
 62
     7
176
     1
 62
   257
176
     1
 90
        1
176
     1
 90
        1
176
     1
 40
1.0
176
     1
 90
        0
176
     1
 62
     7
176
     1
 40
1.0
176
     1
 90
        1
176
     1
 90
        6
176
     1
 90
        2
176
     1
 62
     7
176
     1
 90
        5
176
     1
 90
        0
176
     1
 90
        0
176
     1
290
     0
176
     1
 90
       13
176
     1
 40
0.0
176
     1
 90
        0
176
     1
290
     0
176
     1
290
     1
176
     1
290
     1
176
     1
290
     0
176
     1
290
     0
176
     1
290
     0
176
     1
290
     0
176
     1
290
     0
176
     1
290
     0
176
     1
 90
       50
176
     1
 40
0.0
176
     1
 40
1.0
176
     1
 90
        0
176
     1
 62
    18
420
        0
176
     1
 90
       50
176
     1
 90
        3
176
     1
 62
     5
420
      255
176
     1
290
     0
176
     1
 90
       50
176
     1
 90
       50
176
     1
 90
       50
176
     1
290
     0
176
     1
 90
       50
176
     1
 62
   256
176
     0
 40
1.0
176
     0
 90
        2
176
     1
  1
strokes_ogs.tif
176
     1
290
     0
176
     1
 40
1.0
176
     1
 40
1.0
176
     1
  0
VISUALSTYLE
  5
2E
102
{ACAD_REACTORS
330
2A
102
}
330
2A
100
AcDbVisualStyle
  2
GouraudWithEdges
 70
     3
177
     3
291
     1
 70
    58
 90
        2
176
     1
 90
        2
176
     1
 90
        1
176
     1
 90
        2
176
     1
 40
0.6
176
     1
 40
30.0
176
     1
 62
     7
420
 16777215
176
     1
 90
        1
176
     1
 90
        0
176
     1
 62
     7
176
     1
 62
   257
176
     1
 90
        1
176
     1
 90
        1
176
     1
 40
1.0
176
     1
 90
        0
176
     1
 62
   257
176
     1
 40
1.0
176
     1
 90
        1
176
     1
 90
        6
176
     1
 90
        2
176
     1
 62
     7
176
     1
 90
        5
176
     1
 90
        0
176
     1
 90
        0
176
     1
290
     0
176
     1
 90
       13
176
     1
 40
0.0
176
     1
 90
        0
176
     1
290
     0
176
     1
290
     1
176
     1
290
     1
176
     1
290
     0
176
     1
290
     0
176
     1
290
     0
176
     1
290
     0
176
     1
290
     0
176
     1
290
     0
176
     1
 90
       50
176
     1
 40
0.0
176
     1
 40
1.0
176
     1
 90
        0
176
     1
 62
    18
420
        0
176
     1
 90
       50
176
     1
 90
        3
176
     1
 62
     5
420
      255
176
     1
290
     0
176
     1
 90
       50
176
     1
 90
       50
176
     1
 90
       50
176
     1
290
     0
176
     1
 90
       50
176
     1
 62
   256
176
     0
 40
1.0
176
     0
 90
        2
176
     1
  1
strokes_ogs.tif
176
     1
290
     0
176
     1
 40
1.0
176
     1
 40
1.0
176
     1
  0
VISUALSTYLE
  5
31
102
{ACAD_REACTORS
330
2A
102
}
330
2A
100
AcDbVisualStyle
  2
Hidden
 70
     6
177
     3
291
     0
 70
    58
 90
        1
176
     1
 90
        2
176
     1
 90
        2
176
     1
 90
        0
176
     1
 40
0.6
176
     1
 40
30.0
176
     1
 62
     7
420
 16777215
176
     1
 90
        2
176
     1
 90
        2
176
     1
 62
     7
176
     1
 62
   257
176
     1
 90
        2
176
     1
 90
        1
176
     1
 40
40.0
176
     1
 90
        0
176
     1
 62
   257
176
     1
 40
1.0
176
     1
 90
        1
176
     1
 90
        6
176
     1
 90
        2
176
     1
 62
     7
176
     1
 90
        3
176
     1
 90
        0
176
     1
 90
        0
176
     1
290
     0
176
     1
 90
        1
176
     1
 40
0.0
176
     1
 90
        0
176
     1
290
     0
176
     1
290
     1
176
     1
290
     1
176
     1
290
     0
176
     1
290
     0
176
     1
290
     0
176
     1
290
     0
176
     1
290
     0
176
     1
290
     0
176
     1
 90
       50
176
     1
 40
0.0
176
     1
 40
1.0
176
     1
 90
        0
176
     1
 62
    18
420
        0
176
     1
 90
       50
176
     1
 90
        3
176
     1
 62
     5
420
      255
176
     1
290
     0
176
     1
 90
       50
176
     1
 90
       50
176
     1
 90
       50
176
     1
290
     0
176
     1
 90
       50
176
     1
 62
   256
176
     0
 40
1.0
176
     0
 90
        2
176
     1
  1
strokes_ogs.tif
176
     1
290
     0
176
     1
 40
1.0
176
     1
 40
1.0
176
     1
  0
VISUALSTYLE
  5
3B
102
{ACAD_REACTORS
330
2A
102
}
330
2A
100
AcDbVisualStyle
  2
JitterOff
 70
    20
177
     3
291
     1
 70
    58
 90
        2
176
     0
 90
        2
176
     0
 90
        0
176
     0
 90
        0
176
     0
 40
0.6
176
     0
 40
30.0
176
     0
 62
     7
420
 16777215
176
     0
 90
        1
176
     0
 90
        4
176
     0
 62
     7
176
     0
 62
   257
176
     0
 90
        1
176
     0
 90
        1
176
     0
 40
1.0
176
     0
 90
       10
176
     2
 62
     7
176
     0
 40
1.0
176
     0
 90
        1
176
     0
 90
        6
176
     0
 90
        2
176
     0
 62
     7
176
     0
 90
        5
176
     0
 90
        0
176
     0
 90
        0
176
     0
290
     0
176
     0
 90
        1
176
     0
 40
0.0
176
     0
 90
        0
176
     0
290
     0
176
     0
290
     1
176
     0
290
     1
176
     0
290
     0
176
     0
290
     0
176
     0
290
     0
176
     0
290
     0
176
     0
290
     0
176
     0
290
     0
176
     0
 90
       50
176
     0
 40
0.0
176
     0
 40
1.0
176
     0
 90
        0
176
     0
 62
    18
420
        0
176
     0
 90
       50
176
     0
 90
        3
176
     0
 62
     5
420
      255
176
     0
290
     0
176
     0
 90
       50
176
     0
 90
       50
176
     0
 90
       50
176
     0
290
     0
176
     0
 90
       50
176
     0
 62
   256
176
     0
 40
1.0
176
     0
 90
        2
176
     0
  1
strokes_ogs.tif
176
     0
290
     0
176
     0
 40
1.0
176
     0
 40
1.0
176
     0
  0
VISUALSTYLE
  5
38
102
{ACAD_REACTORS
330
2A
102
}
330
2A
100
AcDbVisualStyle
  2
Linepattern
 70
    14
177
     3
291
     1
 70
    58
 90
        2
176
     1
 90
        2
176
     1
 90
        0
176
     1
 90
        0
176
     1
 40
0.6
176
     1
 40
30.0
176
     1
 62
     7
420
 16777215
176
     1
 90
        1
176
     1
 90
        4
176
     1
 62
     7
176
     1
 62
   257
176
     1
 90
        7
176
     1
 90
        7
176
     1
 40
1.0
176
     1
 90
        8
176
     1
 62
     7
176
     1
 40
1.0
176
     1
 90
        1
176
     1
 90
        6
176
     1
 90
        2
176
     1
 62
     7
176
     1
 90
        5
176
     1
 90
        0
176
     1
 90
        0
176
     1
290
     0
176
     1
 90
        1
176
     1
 40
0.0
176
     1
 90
        0
176
     1
290
     0
176
     1
290
     1
176
     1
290
     1
176
     1
290
     0
176
     1
290
     0
176
     1
290
     0
176
     1
290
     0
176
     1
290
     0
176
     1
290
     0
176
     1
 90
       50
176
     1
 40
0.0
176
     1
 40
1.0
176
     1
 90
        0
176
     1
 62
    18
420
        0
176
     1
 90
       50
176
     1
 90
        3
176
     1
 62
     5
420
      255
176
     1
290
     0
176
     1
 90
       50
176
     1
 90
       50
176
     1
 90
       50
176
     1
290
     0
176
     1
 90
       50
176
     1
 62
   256
176
     0
 40
1.0
176
     0
 90
        2
176
     1
  1
strokes_ogs.tif
176
     1
290
     0
176
     1
 40
1.0
176
     1
 40
1.0
176
     1
  0
VISUALSTYLE
  5
3C
102
{ACAD_REACTORS
330
2A
102
}
330
2A
100
AcDbVisualStyle
  2
OverhangOff
 70
    21
177
     3
291
     1
 70
    58
 90
        2
176
     0
 90
        2
176
     0
 90
        0
176
     0
 90
        0
176
     0
 40
0.6
176
     0
 40
30.0
176
     0
 62
     7
420
 16777215
176
     0
 90
        1
176
     0
 90
        4
176
     0
 62
     7
176
     0
 62
   257
176
     0
 90
        1
176
     0
 90
        1
176
     0
 40
1.0
176
     0
 90
        9
176
     2
 62
     7
176
     0
 40
1.0
176
     0
 90
        1
176
     0
 90
        6
176
     0
 90
        2
176
     0
 62
     7
176
     0
 90
        5
176
     0
 90
        0
176
     0
 90
        0
176
     0
290
     0
176
     0
 90
        1
176
     0
 40
0.0
176
     0
 90
        0
176
     0
290
     0
176
     0
290
     1
176
     0
290
     1
176
     0
290
     0
176
     0
290
     0
176
     0
290
     0
176
     0
290
     0
176
     0
290
     0
176
     0
290
     0
176
     0
 90
       50
176
     0
 40
0.0
176
     0
 40
1.0
176
     0
 90
        0
176
     0
 62
    18
420
        0
176
     0
 90
       50
176
     0
 90
        3
176
     0
 62
     5
420
      255
176
     0
290
     0
176
     0
 90
       50
176
     0
 90
       50
176
     0
 90
       50
176
     0
290
     0
176
     0
 90
       50
176
     0
 62
   256
176
     0
 40
1.0
176
     0
 90
        2
176
     0
  1
strokes_ogs.tif
176
     0
290
     0
176
     0
 40
1.0
176
     0
 40
1.0
176
     0
  0
VISUALSTYLE
  5
33
102
{ACAD_REACTORS
330
2A
102
}
330
2A
100
AcDbVisualStyle
  2
Realistic
 70
     8
177
     3
291
     0
 70
    58
 90
        2
176
     1
 90
        3
176
     1
 90
        0
176
     1
 90
        2
176
     1
 40
0.6
176
     1
 40
30.0
176
     1
 62
     7
420
 16777215
176
     1
 90
        0
176
     1
 90
        0
176
     1
 62
     7
176
     1
 62
   257
176
     1
 90
        1
176
     1
 90
        1
176
     1
 40
1.0
176
     1
 90
        8
176
     1
 62
   257
176
     1
 40
1.0
176
     1
 90
        1
176
     1
 90
        6
176
     1
 90
        2
176
     1
 62
     7
176
     1
 90
        3
176
     1
 90
        0
176
     1
 90
        0
176
     1
290
     0
176
     1
 90
       13
176
     1
 40
0.0
176
     1
 90
        0
176
     1
290
     0
176
     1
290
     1
176
     1
290
     1
176
     1
290
     0
176
     1
290
     0
176
     1
290
     0
176
     1
290
     0
176
     1
290
     0
176
     1
290
     0
176
     1
 90
       50
176
     1
 40
0.0
176
     1
 40
1.0
176
     1
 90
        0
176
     1
 62
    18
420
        0
176
     1
 90
       50
176
     1
 90
        3
176
     1
 62
     5
420
      255
176
     1
290
     0
176
     1
 90
       50
176
     1
 90
       50
176
     1
 90
       50
176
     1
290
     0
176
     1
 90
       50
176
     1
 62
   256
176
     0
 40
1.0
176
     0
 90
        2
176
     1
  1
strokes_ogs.tif
176
     1
290
     0
176
     1
 40
1.0
176
     1
 40
1.0
176
     1
  0
VISUALSTYLE
  5
42
102
{ACAD_REACTORS
330
2A
102
}
330
2A
100
AcDbVisualStyle
  2
Shaded
 70
    27
177
     3
291
     0
 70
    58
 90
        2
176
     1
 90
        2
176
     1
 90
        1
176
     1
 90
        2
176
     1
 40
0.6
176
     1
 40
30.0
176
     1
 62
     7
420
 16777215
176
     1
 90
        0
176
     1
 90
        4
176
     1
 62
     7
176
     1
 62
   257
176
     1
 90
        1
176
     1
 90
        1
176
     1
 40
1.0
176
     1
 90
        8
176
     1
 62
   257
176
     1
 40
1.0
176
     1
 90
        1
176
     1
 90
        6
176
     1
 90
        2
176
     1
 62
     8
420
  7895160
176
     1
 90
        3
176
     1
 90
        0
176
     1
 90
        0
176
     1
290
     0
176
     1
 90
        5
176
     1
 40
0.0
176
     1
 90
        0
176
     1
290
     0
176
     1
290
     1
176
     1
290
     1
176
     1
290
     0
176
     1
290
     0
176
     1
290
     0
176
     1
290
     0
176
     1
290
     0
176
     1
290
     0
176
     1
 90
       50
176
     1
 40
0.0
176
     1
 40
1.0
176
     1
 90
        0
176
     1
 62
    18
420
        0
176
     1
 90
       50
176
     1
 90
        3
176
     1
 62
     5
420
      255
176
     1
290
     0
176
     1
 90
       50
176
     1
 90
       50
176
     1
 90
       50
176
     1
290
     0
176
     1
 90
       50
176
     1
 62
   256
176
     0
 40
1.0
176
     0
 90
        2
176
     1
  1
strokes_ogs.tif
176
     1
290
     0
176
     1
 40
1.0
176
     1
 40
1.0
176
     1
  0
VISUALSTYLE
  5
41
102
{ACAD_REACTORS
330
2A
102
}
330
2A
100
AcDbVisualStyle
  2
Shaded with edges
 70
    26
177
     3
291
     0
 70
    58
 90
        2
176
     1
 90
        2
176
     1
 90
        1
176
     1
 90
        2
176
     1
 40
0.6
176
     1
 40
30.0
176
     1
 62
     7
420
 16777215
176
     1
 90
        1
176
     1
 90
       10
176
     1
 62
     7
176
     1
 62
   257
176
     1
 90
        2
176
     1
 90
        1
176
     1
 40
1.0
176
     1
 90
        8
176
     1
 62
   257
176
     1
 40
1.0
176
     1
 90
        1
176
     1
 90
        6
176
     1
 90
        2
176
     1
 62
     7
176
     1
 90
        3
176
     1
 90
        0
176
     1
 90
        0
176
     1
290
     0
176
     1
 90
        5
176
     1
 40
0.0
176
     1
 90
        0
176
     1
290
     0
176
     1
290
     1
176
     1
290
     1
176
     1
290
     0
176
     1
290
     0
176
     1
290
     0
176
     1
290
     0
176
     1
290
     0
176
     1
290
     0
176
     1
 90
       50
176
     1
 40
0.0
176
     1
 40
1.0
176
     1
 90
        0
176
     1
 62
    18
420
        0
176
     1
 90
       50
176
     1
 90
        3
176
     1
 62
     5
420
      255
176
     1
290
     0
176
     1
 90
       50
176
     1
 90
       50
176
     1
 90
       50
176
     1
290
     0
176
     1
 90
       50
176
     1
 62
   256
176
     0
 40
1.0
176
     0
 90
        2
176
     1
  1
strokes_ogs.tif
176
     1
290
     0
176
     1
 40
1.0
176
     1
 40
1.0
176
     1
  0
VISUALSTYLE
  5
3E
102
{ACAD_REACTORS
330
2A
102
}
330
2A
100
AcDbVisualStyle
  2
Shades of Gray
 70
    23
177
     3
291
     0
 70
    58
 90
        2
176
     1
 90
        2
176
     1
 90
        3
176
     1
 90
        0
176
     1
 40
0.6
176
     1
 40
30.0
176
     1
 62
     7
420
 16777215
176
     1
 90
        2
176
     1
 90
        2
176
     1
 62
     7
176
     1
 62
     7
176
     1
 90
        1
176
     1
 90
        1
176
     1
 40
40.0
176
     1
 90
        8
176
     1
 62
     7
176
     1
 40
1.0
176
     1
 90
        1
176
     1
 90
        6
176
     1
 90
        2
176
     1
 62
     7
176
     1
 90
        3
176
     1
 90
        0
176
     1
 90
        0
176
     1
290
     0
176
     1
 90
        1
176
     1
 40
0.0
176
     1
 90
        0
176
     1
290
     0
176
     1
290
     1
176
     1
290
     1
176
     1
290
     0
176
     1
290
     0
176
     1
290
     0
176
     1
290
     0
176
     1
290
     0
176
     1
290
     0
176
     1
 90
       50
176
     1
 40
0.0
176
     1
 40
1.0
176
     1
 90
        0
176
     1
 62
    18
420
        0
176
     1
 90
       50
176
     1
 90
        3
176
     1
 62
     5
420
      255
176
     1
290
     0
176
     1
 90
       50
176
     1
 90
       50
176
     1
 90
       50
176
     1
290
     0
176
     1
 90
       50
176
     1
 62
   256
176
     0
 40
1.0
176
     0
 90
        2
176
     1
  1
strokes_ogs.tif
176
     1
290
     0
176
     1
 40
1.0
176
     1
 40
1.0
176
     1
  0
VISUALSTYLE
  5
3F
102
{ACAD_REACTORS
330
2A
102
}
330
2A
100
AcDbVisualStyle
  2
Sketchy
 70
    24
177
     3
291
     0
 70
    58
 90
        1
176
     1
 90
        2
176
     1
 90
        2
176
     1
 90
        0
176
     1
 40
0.6
176
     1
 40
30.0
176
     1
 62
     7
420
 16777215
176
     1
 90
        2
176
     1
 90
        2
176
     1
 62
     7
176
     1
 62
     7
176
     1
 90
        1
176
     1
 90
        1
176
     1
 40
40.0
176
     1
 90
       11
176
     1
 62
     7
176
     1
 40
1.0
176
     1
 90
        1
176
     1
 90
        6
176
     1
 90
        2
176
     1
 62
     7
176
     1
 90
        6
176
     1
 90
        0
176
     1
 90
        0
176
     1
290
     0
176
     1
 90
        1
176
     1
 40
0.0
176
     1
 90
        0
176
     1
290
     0
176
     1
290
     1
176
     1
290
     1
176
     1
290
     0
176
     1
290
     0
176
     1
290
     0
176
     1
290
     0
176
     1
290
     0
176
     1
290
     0
176
     1
 90
       50
176
     1
 40
0.0
176
     1
 40
1.0
176
     1
 90
        0
176
     1
 62
    18
420
        0
176
     1
 90
       50
176
     1
 90
        3
176
     1
 62
     5
420
      255
176
     1
290
     0
176
     1
 90
       50
176
     1
 90
       50
176
     1
 90
       50
176
     1
290
     0
176
     1
 90
       50
176
     1
 62
   256
176
     0
 40
1.0
176
     0
 90
        2
176
     1
  1
strokes_ogs.tif
176
     1
290
     0
176
     1
 40
1.0
176
     1
 40
1.0
176
     1
  0
VISUALSTYLE
  5
37
102
{ACAD_REACTORS
330
2A
102
}
330
2A
100
AcDbVisualStyle
  2
Thicken
 70
    13
177
     3
291
     1
 70
    58
 90
        2
176
     1
 90
        2
176
     1
 90
        0
176
     1
 90
        0
176
     1
 40
0.6
176
     1
 40
30.0
176
     1
 62
     7
420
 16777215
176
     1
 90
        1
176
     1
 90
        4
176
     1
 62
     7
176
     1
 62
   257
176
     1
 90
        1
176
     1
 90
        1
176
     1
 40
1.0
176
     1
 90
       12
176
     1
 62
     7
176
     1
 40
1.0
176
     1
 90
        1
176
     1
 90
        6
176
     1
 90
        2
176
     1
 62
     7
176
     1
 90
        5
176
     1
 90
        0
176
     1
 90
        0
176
     1
290
     0
176
     1
 90
        1
176
     1
 40
0.0
176
     1
 90
        0
176
     1
290
     0
176
     1
290
     1
176
     1
290
     1
176
     1
290
     0
176
     1
290
     0
176
     1
290
     0
176
     1
290
     0
176
     1
290
     0
176
     1
290
     0
176
     1
 90
       50
176
     1
 40
0.0
176
     1
 40
1.0
176
     1
 90
        0
176
     1
 62
    18
420
        0
176
     1
 90
       50
176
     1
 90
        3
176
     1
 62
     5
420
      255
176
     1
290
     0
176
     1
 90
       50
176
     1
 90
       50
176
     1
 90
       50
176
     1
290
     0
176
     1
 90
       50
176
     1
 62
   256
176
     0
 40
1.0
176
     0
 90
        2
176
     1
  1
strokes_ogs.tif
176
     1
290
     0
176
     1
 40
1.0
176
     1
 40
1.0
176
     1
  0
VISUALSTYLE
  5
30
102
{ACAD_REACTORS
330
2A
102
}
330
2A
100
AcDbVisualStyle
  2
Wireframe
 70
     5
177
     3
291
     0
 70
    58
 90
        0
176
     1
 90
        2
176
     1
 90
        0
176
     1
 90
        0
176
     1
 40
0.6
176
     1
 40
30.0
176
     1
 62
     7
420
 16777215
176
     1
 90
        1
176
     1
 90
        4
176
     1
 62
     7
176
     1
 62
   257
176
     1
 90
        1
176
     1
 90
        1
176
     1
 40
1.0
176
     1
 90
        0
176
     1
 62
   257
176
     1
 40
1.0
176
     1
 90
        1
176
     1
 90
        6
176
     1
 90
        2
176
     1
 62
     7
176
     1
 90
        3
176
     1
 90
        0
176
     1
 90
        0
176
     1
290
     0
176
     1
 90
        1
176
     1
 40
0.0
176
     1
 90
        0
176
     1
290
     0
176
     1
290
     1
176
     1
290
     1
176
     1
290
     0
176
     1
290
     0
176
     1
290
     0
176
     1
290
     0
176
     1
290
     0
176
     1
290
     0
176
     1
 90
       50
176
     1
 40
0.0
176
     1
 40
1.0
176
     1
 90
        0
176
     1
 62
    18
420
        0
176
     1
 90
       50
176
     1
 90
        3
176
     1
 62
     5
420
      255
176
     1
290
     0
176
     1
 90
       50
176
     1
 90
       50
176
     1
 90
       50
176
     1
290
     0
176
     1
 90
       50
176
     1
 62
   256
176
     0
 40
1.0
176
     0
 90
        2
176
     1
  1
strokes_ogs.tif
176
     1
290
     0
176
     1
 40
1.0
176
     1
 40
1.0
176
     1
  0
VISUALSTYLE
  5
40
102
{ACAD_REACTORS
330
2A
102
}
330
2A
100
AcDbVisualStyle
  2
X-Ray
 70
    25
177
     3
291
     0
 70
    58
 90
        2
176
     1
 90
        2
176
     1
 90
        1
176
     1
 90
        1
176
     1
 40
0.5
176
     1
 40
30.0
176
     1
 62
     7
420
 16777215
176
     1
 90
        1
176
     1
 90
        0
176
     1
 62
     7
176
     1
 62
   257
176
     1
 90
        1
176
     1
 90
        1
176
     1
 40
1.0
176
     1
 90
        8
176
     1
 62
     7
176
     1
 40
1.0
176
     1
 90
        1
176
     1
 90
        6
176
     1
 90
        2
176
     1
 62
     7
176
     1
 90
        3
176
     1
 90
        0
176
     1
 90
        0
176
     1
290
     0
176
     1
 90
       13
176
     1
 40
0.0
176
     1
 90
        0
176
     1
290
     0
176
     1
290
     1
176
     1
290
     1
176
     1
290
     0
176
     1
290
     0
176
     1
290
     0
176
     1
290
     0
176
     1
290
     0
176
     1
290
     0
176
     1
 90
       50
176
     1
 40
0.0
176
     1
 40
1.0
176
     1
 90
        0
176
     1
 62
    18
420
        0
176
     1
 90
       50
176
     1
 90
        3
176
     1
 62
     5
420
      255
176
     1
290
     0
176
     1
 90
       50
176
     1
 90
       50
176
     1
 90
       50
176
     1
290
     0
176
     1
 90
       50
176
     1
 62
   256
176
     0
 40
1.0
176
     0
 90
        2
176
     1
  1
strokes_ogs.tif
176
     1
290
     0
176
     1
 40
1.0
176
     1
 40
1.0
176
     1
  0
DICTIONARYVAR
  5
F4
102
{ACAD_REACTORS
330
F3
102
}
330
F3
100
DictionaryVariables
280
     0
  1
1:1
  0
DICTIONARYVAR
  5
F9
102
{ACAD_REACTORS
330
F3
102
}
330
F3
100
DictionaryVariables
280
     0
  1
Standard
  0
DICTIONARYVAR
  5
F8
102
{ACAD_REACTORS
330
F3
102
}
330
F3
100
DictionaryVariables
280
     0
  1
Standard
  0
DICTIONARY
  5
F5
330
5A
100
AcDbDictionary
280
     1
281
     1
  3
ACAD_ROUNDTRIP_2008_TABLESTYLE_CELLSTYLEMAP
360
F6
  0
CELLSTYLEMAP
  5
F6
102
{ACAD_REACTORS
330
F5
102
}
330
F5
100
AcDbCellStyleMap
 90
        3
300
CELLSTYLE
  1
TABLEFORMAT_BEGIN
 90
        5
170
     1
 91
        0
 92
    32768
 62
   257
 93
        1
300
CONTENTFORMAT
  1
CONTENTFORMAT_BEGIN
 90
        0
 91
        0
 92
        4
 93
        0
300

 40
0.0
140
1.0
 94
        5
 62
     0
340
11
144
0.25
309
CONTENTFORMAT_END
171
     1
301
MARGIN
  1
CELLMARGIN_BEGIN
 40
0.06
 40
0.06
 40
0.06
 40
0.06
 40
0.06
 40
0.06
309
CELLMARGIN_END
 94
        6
 95
        1
302
GRIDFORMAT
  1
GRIDFORMAT_BEGIN
 90
        0
 91
        1
 62
     0
 92
       -2
340
14
 93
        0
 40
0.045
309
GRIDFORMAT_END
 95
        2
302
GRIDFORMAT
  1
GRIDFORMAT_BEGIN
 90
        0
 91
        1
 62
     0
 92
       -2
340
14
 93
        0
 40
0.045
309
GRIDFORMAT_END
 95
        4
302
GRIDFORMAT
  1
GRIDFORMAT_BEGIN
 90
        0
 91
        1
 62
     0
 92
       -2
340
14
 93
        0
 40
0.045
309
GRIDFORMAT_END
 95
        8
302
GRIDFORMAT
  1
GRIDFORMAT_BEGIN
 90
        0
 91
        1
 62
     0
 92
       -2
340
14
 93
        0
 40
0.045
309
GRIDFORMAT_END
 95
       16
302
GRIDFORMAT
  1
GRIDFORMAT_BEGIN
 90
        0
 91
        1
 62
     0
 92
       -2
340
14
 93
        0
 40
0.045
309
GRIDFORMAT_END
 95
       32
302
GRIDFORMAT
  1
GRIDFORMAT_BEGIN
 90
        0
 91
        1
 62
     0
 92
       -2
340
14
 93
        0
 40
0.045
309
GRIDFORMAT_END
309
TABLEFORMAT_END
  1
CELLSTYLE_BEGIN
 90
        1
 91
        1
300
_TITLE
309
CELLSTYLE_END
300
CELLSTYLE
  1
TABLEFORMAT_BEGIN
 90
        5
170
     1
 91
        0
 92
        0
 62
   257
 93
        1
300
CONTENTFORMAT
  1
CONTENTFORMAT_BEGIN
 90
        0
 91
        0
 92
        4
 93
        0
300

 40
0.0
140
1.0
 94
        5
 62
     0
340
11
144
0.18
309
CONTENTFORMAT_END
171
     1
301
MARGIN
  1
CELLMARGIN_BEGIN
 40
0.06
 40
0.06
 40
0.06
 40
0.06
 40
0.06
 40
0.06
309
CELLMARGIN_END
 94
        6
 95
        1
302
GRIDFORMAT
  1
GRIDFORMAT_BEGIN
 90
        0
 91
        1
 62
     0
 92
       -2
340
14
 93
        0
 40
0.045
309
GRIDFORMAT_END
 95
        2
302
GRIDFORMAT
  1
GRIDFORMAT_BEGIN
 90
        0
 91
        1
 62
     0
 92
       -2
340
14
 93
        0
 40
0.045
309
GRIDFORMAT_END
 95
        4
302
GRIDFORMAT
  1
GRIDFORMAT_BEGIN
 90
        0
 91
        1
 62
     0
 92
       -2
340
14
 93
        0
 40
0.045
309
GRIDFORMAT_END
 95
        8
302
GRIDFORMAT
  1
GRIDFORMAT_BEGIN
 90
        0
 91
        1
 62
     0
 92
       -2
340
14
 93
        0
 40
0.045
309
GRIDFORMAT_END
 95
       16
302
GRIDFORMAT
  1
GRIDFORMAT_BEGIN
 90
        0
 91
        1
 62
     0
 92
       -2
340
14
 93
        0
 40
0.045
309
GRIDFORMAT_END
 95
       32
302
GRIDFORMAT
  1
GRIDFORMAT_BEGIN
 90
        0
 91
        1
 62
     0
 92
       -2
340
14
 93
        0
 40
0.045
309
GRIDFORMAT_END
309
TABLEFORMAT_END
  1
CELLSTYLE_BEGIN
 90
        2
 91
        1
300
_HEADER
309
CELLSTYLE_END
300
CELLSTYLE
  1
TABLEFORMAT_BEGIN
 90
        5
170
     1
 91
        0
 92
        0
 62
   257
 93
        1
300
CONTENTFORMAT
  1
CONTENTFORMAT_BEGIN
 90
        0
 91
        0
 92
        4
 93
        0
300

 40
0.0
140
1.0
 94
        2
 62
     0
340
11
144
0.18
309
CONTENTFORMAT_END
171
     1
301
MARGIN
  1
CELLMARGIN_BEGIN
 40
0.06
 40
0.06
 40
0.06
 40
0.06
 40
0.06
 40
0.06
309
CELLMARGIN_END
 94
        6
 95
        1
302
GRIDFORMAT
  1
GRIDFORMAT_BEGIN
 90
        0
 91
        1
 62
     0
 92
       -2
340
14
 93
        0
 40
0.045
309
GRIDFORMAT_END
 95
        2
302
GRIDFORMAT
  1
GRIDFORMAT_BEGIN
 90
        0
 91
        1
 62
     0
 92
       -2
340
14
 93
        0
 40
0.045
309
GRIDFORMAT_END
 95
        4
302
GRIDFORMAT
  1
GRIDFORMAT_BEGIN
 90
        0
 91
        1
 62
     0
 92
       -2
340
14
 93
        0
 40
0.045
309
GRIDFORMAT_END
 95
        8
302
GRIDFORMAT
  1
GRIDFORMAT_BEGIN
 90
        0
 91
        1
 62
     0
 92
       -2
340
14
 93
        0
 40
0.045
309
GRIDFORMAT_END
 95
       16
302
GRIDFORMAT
  1
GRIDFORMAT_BEGIN
 90
        0
 91
        1
 62
     0
 92
       -2
340
14
 93
        0
 40
0.045
309
GRIDFORMAT_END
 95
       32
302
GRIDFORMAT
  1
GRIDFORMAT_BEGIN
 90
        0
 91
        1
 62
     0
 92
       -2
340
14
 93
        0
 40
0.045
309
GRIDFORMAT_END
309
TABLEFORMAT_END
  1
CELLSTYLE_BEGIN
 90
        3
 91
        2
300
_DATA
309
CELLSTYLE_END
  0
ENDSEC
  0
EOF
